  0
SECTION
  2
HEADER
  9
$ACADVER
  1
AC1018
  9
$ACADMAINTVER
 70
     0
  9
$DWGCODEPAGE
  3
ANSI_1252
  9
$INSBASE
 10
0.0
 20
0.0
 30
0.0
  9
$EXTMIN
 10
-612.3265418423152
 20
-918.9708032171445
 30
0.0
  9
$EXTMAX
 10
2025.591843244218
 20
935.9974689031956
 30
0.0
  9
$LIMMIN
 10
0.0
 20
0.0
  9
$LIMMAX
 10
431.7999999999999
 20
279.4
  9
$ORTHOMODE
 70
     0
  9
$REGENMODE
 70
     1
  9
$FILLMODE
 70
     1
  9
$QTEXTMODE
 70
     0
  9
$MIRRTEXT
 70
     1
  9
$LTSCALE
 40
1.0
  9
$ATTMODE
 70
     1
  9
$TEXTSIZE
 40
2.5
  9
$TRACEWID
 40
1.0
  9
$TEXTSTYLE
  7
Standard
  9
$CLAYER
  8
0
  9
$CELTYPE
  6
ByLayer
  9
$CECOLOR
 62
   256
  9
$CELTSCALE
 40
1.0
  9
$DISPSILH
 70
     0
  9
$DIMSCALE
 40
1.0
  9
$DIMASZ
 40
2.5
  9
$DIMEXO
 40
0.625
  9
$DIMDLI
 40
3.75
  9
$DIMRND
 40
0.0
  9
$DIMDLE
 40
0.0
  9
$DIMEXE
 40
1.25
  9
$DIMTP
 40
0.0
  9
$DIMTM
 40
0.0
  9
$DIMTXT
 40
2.5
  9
$DIMCEN
 40
2.5
  9
$DIMTSZ
 40
0.0
  9
$DIMTOL
 70
     0
  9
$DIMLIM
 70
     0
  9
$DIMTIH
 70
     0
  9
$DIMTOH
 70
     0
  9
$DIMSE1
 70
     0
  9
$DIMSE2
 70
     0
  9
$DIMTAD
 70
     1
  9
$DIMZIN
 70
     8
  9
$DIMBLK
  1

  9
$DIMASO
 70
     1
  9
$DIMSHO
 70
     1
  9
$DIMPOST
  1

  9
$DIMAPOST
  1

  9
$DIMALT
 70
     0
  9
$DIMALTD
 70
     3
  9
$DIMALTF
 40
0.03937007874016
  9
$DIMLFAC
 40
1.0
  9
$DIMTOFL
 70
     1
  9
$DIMTVP
 40
0.0
  9
$DIMTIX
 70
     0
  9
$DIMSOXD
 70
     0
  9
$DIMSAH
 70
     0
  9
$DIMBLK1
  1

  9
$DIMBLK2
  1

  9
$DIMSTYLE
  2
ISO-25
  9
$DIMCLRD
 70
     0
  9
$DIMCLRE
 70
     0
  9
$DIMCLRT
 70
     0
  9
$DIMTFAC
 40
1.0
  9
$DIMGAP
 40
0.625
  9
$DIMJUST
 70
     0
  9
$DIMSD1
 70
     0
  9
$DIMSD2
 70
     0
  9
$DIMTOLJ
 70
     0
  9
$DIMTZIN
 70
     8
  9
$DIMALTZ
 70
     0
  9
$DIMALTTZ
 70
     0
  9
$DIMUPT
 70
     0
  9
$DIMDEC
 70
     2
  9
$DIMTDEC
 70
     2
  9
$DIMALTU
 70
     2
  9
$DIMALTTD
 70
     3
  9
$DIMTXSTY
  7
Standard
  9
$DIMAUNIT
 70
     0
  9
$DIMADEC
 70
     0
  9
$DIMALTRND
 40
0.0
  9
$DIMAZIN
 70
     0
  9
$DIMDSEP
 70
    44
  9
$DIMATFIT
 70
     3
  9
$DIMFRAC
 70
     0
  9
$DIMLDRBLK
  1

  9
$DIMLUNIT
 70
     2
  9
$DIMLWD
 70
    -2
  9
$DIMLWE
 70
    -2
  9
$DIMTMOVE
 70
     0
  9
$LUNITS
 70
     2
  9
$LUPREC
 70
     2
  9
$SKETCHINC
 40
1.0
  9
$FILLETRAD
 40
5.0
  9
$AUNITS
 70
     0
  9
$AUPREC
 70
     0
  9
$MENU
  1
.
  9
$ELEVATION
 40
0.0
  9
$PELEVATION
 40
0.0
  9
$THICKNESS
 40
0.0
  9
$LIMCHECK
 70
     0
  9
$CHAMFERA
 40
10.0
  9
$CHAMFERB
 40
10.0
  9
$CHAMFERC
 40
20.0
  9
$CHAMFERD
 40
0.0
  9
$SKPOLY
 70
     0
  9
$TDCREATE
 40
2454877.691024306
  9
$TDUCREATE
 40
2454877.649357639
  9
$TDUPDATE
 40
2454877.710853403
  9
$TDUUPDATE
 40
2454877.669186736
  9
$TDINDWG
 40
0.0192115278
  9
$TDUSRTIMER
 40
0.0192115278
  9
$USRTIMER
 70
     1
  9
$ANGBASE
 50
0.0
  9
$ANGDIR
 70
     0
  9
$PDMODE
 70
     0
  9
$PDSIZE
 40
-1.0
  9
$PLINEWID
 40
0.0
  9
$SPLFRAME
 70
     0
  9
$SPLINETYPE
 70
     6
  9
$SPLINESEGS
 70
     8
  9
$HANDSEED
  5
242
  9
$SURFTAB1
 70
     6
  9
$SURFTAB2
 70
     6
  9
$SURFTYPE
 70
     6
  9
$SURFU
 70
     6
  9
$SURFV
 70
     6
  9
$UCSBASE
  2

  9
$UCSNAME
  2

  9
$UCSORG
 10
0.0
 20
0.0
 30
0.0
  9
$UCSXDIR
 10
1.0
 20
0.0
 30
0.0
  9
$UCSYDIR
 10
0.0
 20
1.0
 30
0.0
  9
$UCSORTHOREF
  2

  9
$UCSORTHOVIEW
 70
     0
  9
$UCSORGTOP
 10
0.0
 20
0.0
 30
0.0
  9
$UCSORGBOTTOM
 10
0.0
 20
0.0
 30
0.0
  9
$UCSORGLEFT
 10
0.0
 20
0.0
 30
0.0
  9
$UCSORGRIGHT
 10
0.0
 20
0.0
 30
0.0
  9
$UCSORGFRONT
 10
0.0
 20
0.0
 30
0.0
  9
$UCSORGBACK
 10
0.0
 20
0.0
 30
0.0
  9
$PUCSBASE
  2

  9
$PUCSNAME
  2

  9
$PUCSORG
 10
0.0
 20
0.0
 30
0.0
  9
$PUCSXDIR
 10
1.0
 20
0.0
 30
0.0
  9
$PUCSYDIR
 10
0.0
 20
1.0
 30
0.0
  9
$PUCSORTHOREF
  2

  9
$PUCSORTHOVIEW
 70
     0
  9
$PUCSORGTOP
 10
0.0
 20
0.0
 30
0.0
  9
$PUCSORGBOTTOM
 10
0.0
 20
0.0
 30
0.0
  9
$PUCSORGLEFT
 10
0.0
 20
0.0
 30
0.0
  9
$PUCSORGRIGHT
 10
0.0
 20
0.0
 30
0.0
  9
$PUCSORGFRONT
 10
0.0
 20
0.0
 30
0.0
  9
$PUCSORGBACK
 10
0.0
 20
0.0
 30
0.0
  9
$USERI1
 70
     0
  9
$USERI2
 70
     0
  9
$USERI3
 70
     0
  9
$USERI4
 70
     0
  9
$USERI5
 70
     0
  9
$USERR1
 40
0.0
  9
$USERR2
 40
0.0
  9
$USERR3
 40
0.0
  9
$USERR4
 40
0.0
  9
$USERR5
 40
0.0
  9
$WORLDVIEW
 70
     1
  9
$SHADEDGE
 70
     3
  9
$SHADEDIF
 70
    70
  9
$TILEMODE
 70
     1
  9
$MAXACTVP
 70
    64
  9
$PINSBASE
 10
0.0
 20
0.0
 30
0.0
  9
$PLIMCHECK
 70
     0
  9
$PEXTMIN
 10
1.000000000000000E+20
 20
1.000000000000000E+20
 30
1.000000000000000E+20
  9
$PEXTMAX
 10
-1.000000000000000E+20
 20
-1.000000000000000E+20
 30
-1.000000000000000E+20
  9
$PLIMMIN
 10
0.0
 20
0.0
  9
$PLIMMAX
 10
420.0
 20
297.0
  9
$UNITMODE
 70
     0
  9
$VISRETAIN
 70
     1
  9
$PLINEGEN
 70
     0
  9
$PSLTSCALE
 70
     1
  9
$TREEDEPTH
 70
  3020
  9
$CMLSTYLE
  2
Standard
  9
$CMLJUST
 70
     0
  9
$CMLSCALE
 40
20.0
  9
$PROXYGRAPHICS
 70
     1
  9
$MEASUREMENT
 70
     1
  9
$CELWEIGHT
370
    -1
  9
$ENDCAPS
280
     0
  9
$JOINSTYLE
280
     0
  9
$LWDISPLAY
290
     1
  9
$INSUNITS
 70
     4
  9
$HYPERLINKBASE
  1

  9
$STYLESHEET
  1

  9
$XEDIT
290
     1
  9
$CEPSNTYPE
380
     0
  9
$PSTYLEMODE
290
     1
  9
$FINGERPRINTGUID
  2
{DD6CE15B-4B03-4521-94D0-8FF6135E4770}
  9
$VERSIONGUID
  2
{B4B4CD0E-9525-4E65-BDAC-A081BB9C25AE}
  9
$EXTNAMES
290
     1
  9
$PSVPSCALE
 40
0.0
  9
$OLESTARTUP
290
     0
  9
$SORTENTS
280
   127
  9
$INDEXCTL
280
     0
  9
$HIDETEXT
280
     0
  9
$XCLIPFRAME
290
     0
  9
$HALOGAP
280
     0
  9
$OBSCOLOR
 70
   257
  9
$OBSLTYPE
280
     0
  9
$INTERSECTIONDISPLAY
280
     0
  9
$INTERSECTIONCOLOR
 70
   257
  9
$DIMASSOC
280
     1
  9
$PROJECTNAME
  1

  0
ENDSEC
  0
SECTION
  2
CLASSES
  0
CLASS
  1
ACDBDICTIONARYWDFLT
  2
AcDbDictionaryWithDefault
  3
ObjectDBX Classes
 90
        0
 91
        1
280
     0
281
     0
  0
CLASS
  1
VISUALSTYLE
  2
AcDbVisualStyle
  3
ObjectDBX Classes
 90
     4095
 91
       16
280
     0
281
     0
  0
CLASS
  1
DICTIONARYVAR
  2
AcDbDictionaryVar
  3
ObjectDBX Classes
 90
        0
 91
        2
280
     0
281
     0
  0
CLASS
  1
ACDBPLACEHOLDER
  2
AcDbPlaceHolder
  3
ObjectDBX Classes
 90
        0
 91
        1
280
     0
281
     0
  0
CLASS
  1
LAYOUT
  2
AcDbLayout
  3
ObjectDBX Classes
 90
        0
 91
        3
280
     0
281
     0
  0
ENDSEC
  0
SECTION
  2
TABLES
  0
TABLE
  2
VPORT
  5
8
330
0
100
AcDbSymbolTable
 70
     7
  0
VPORT
  5
241
330
8
100
AcDbSymbolTableRecord
100
AcDbViewportTableRecord
  2
*Active
 70
     0
 10
0.0
 20
0.0
 11
1.0
 21
1.0
 12
1114.780529078485
 22
389.0687866226732
 13
0.0
 23
0.0
 14
10.0
 24
10.0
 15
10.0
 25
10.0
 16
0.0
 26
0.0
 36
1.0
 17
0.0
 27
0.0
 37
0.0
 40
1166.225149108152
 41
1.747494989979959
 42
50.0
 43
0.0
 44
0.0
 50
0.0
 51
0.0
 71
     0
 72
  2000
 73
     1
 74
     3
 75
     0
 76
     0
 77
     0
 78
     0
281
     0
 65
     1
110
0.0
120
0.0
130
0.0
111
1.0
121
0.0
131
0.0
112
0.0
122
1.0
132
0.0
 79
     0
146
0.0
  0
ENDTAB
  0
TABLE
  2
LTYPE
  5
5
330
0
100
AcDbSymbolTable
 70
     6
  0
LTYPE
  5
14
330
5
100
AcDbSymbolTableRecord
100
AcDbLinetypeTableRecord
  2
ByBlock
 70
     0
  3

 72
    65
 73
     0
 40
0.0
  0
LTYPE
  5
15
330
5
100
AcDbSymbolTableRecord
100
AcDbLinetypeTableRecord
  2
ByLayer
 70
     0
  3

 72
    65
 73
     0
 40
0.0
  0
LTYPE
  5
16
330
5
100
AcDbSymbolTableRecord
100
AcDbLinetypeTableRecord
  2
Continuous
 70
     0
  3
Solid line
 72
    65
 73
     0
 40
0.0
  0
LTYPE
  5
3B
330
5
100
AcDbSymbolTableRecord
100
AcDbLinetypeTableRecord
  2
HIDDEN
 70
     0
  3
Hidden __ __ __ __ __ __ __ __ __ __ __ __ __ __
 72
    65
 73
     2
 40
1.905
 49
1.27
 74
     0
 49
-0.635
 74
     0
  0
LTYPE
  5
3C
330
5
100
AcDbSymbolTableRecord
100
AcDbLinetypeTableRecord
  2
PHANTOM
 70
     0
  3
Phantom ______  __  __  ______  __  __  ______
 72
    65
 73
     6
 40
12.7
 49
6.349999999999999
 74
     0
 49
-1.27
 74
     0
 49
1.27
 74
     0
 49
-1.27
 74
     0
 49
1.27
 74
     0
 49
-1.27
 74
     0
  0
LTYPE
  5
3D
330
5
100
AcDbSymbolTableRecord
100
AcDbLinetypeTableRecord
  2
CENTER
 70
     0
  3
Center ____ _ ____ _ ____ _ ____ _ ____ _ ____
 72
    65
 73
     4
 40
10.16
 49
6.349999999999999
 74
     0
 49
-1.27
 74
     0
 49
1.27
 74
     0
 49
-1.27
 74
     0
  0
LTYPE
  5
3E
330
5
100
AcDbSymbolTableRecord
100
AcDbLinetypeTableRecord
  2
CENTERX2
 70
     0
  3
Center (2x) ________  __  ________  __  _____
 72
    65
 73
     4
 40
20.32
 49
12.7
 74
     0
 49
-2.54
 74
     0
 49
2.54
 74
     0
 49
-2.54
 74
     0
  0
LTYPE
  5
3F
330
5
100
AcDbSymbolTableRecord
100
AcDbLinetypeTableRecord
  2
DOT2
 70
     0
  3
Dot (.5x) ........................................
 72
    65
 73
     2
 40
0.635
 49
0.0
 74
     0
 49
-0.635
 74
     0
  0
ENDTAB
  0
TABLE
  2
LAYER
  5
2
102
{ACAD_XDICTIONARY
360
194
102
}
330
0
100
AcDbSymbolTable
 70
     1
  0
LAYER
  5
10
330
2
100
AcDbSymbolTableRecord
100
AcDbLayerTableRecord
  2
0
 70
     0
 62
     7
  6
Continuous
370
    -3
390
F
  0
ENDTAB
  0
TABLE
  2
STYLE
  5
3
330
0
100
AcDbSymbolTable
 70
     1
  0
STYLE
  5
11
330
3
100
AcDbSymbolTableRecord
100
AcDbTextStyleTableRecord
  2
Standard
 70
     0
 40
0.0
 41
1.0
 50
0.0
 71
     0
 42
2.5
  3
txt
  4

  0
ENDTAB
  0
TABLE
  2
VIEW
  5
6
330
0
100
AcDbSymbolTable
 70
     0
  0
ENDTAB
  0
TABLE
  2
UCS
  5
7
330
0
100
AcDbSymbolTable
 70
     0
  0
ENDTAB
  0
TABLE
  2
APPID
  5
9
330
0
100
AcDbSymbolTable
 70
     1
  0
APPID
  5
12
330
9
100
AcDbSymbolTableRecord
100
AcDbRegAppTableRecord
  2
ACAD
 70
     0
  0
ENDTAB
  0
TABLE
  2
DIMSTYLE
  5
A
330
0
100
AcDbSymbolTable
 70
     2
100
AcDbDimStyleTable
 71
     1
340
27
  0
DIMSTYLE
105
27
330
A
100
AcDbSymbolTableRecord
100
AcDbDimStyleTableRecord
  2
ISO-25
 70
     0
 41
2.5
 42
0.625
 43
3.75
 44
1.25
 73
     0
 74
     0
 77
     1
 78
     8
140
2.5
141
2.5
143
0.03937007874016
147
0.625
171
     3
172
     1
271
     2
272
     2
274
     3
278
    44
283
     0
284
     8
340
11
  0
DIMSTYLE
105
193
330
A
100
AcDbSymbolTableRecord
100
AcDbDimStyleTableRecord
  2
Standard
 70
     0
340
11
  0
ENDTAB
  0
TABLE
  2
BLOCK_RECORD
  5
1
330
0
100
AcDbSymbolTable
 70
     3
  0
BLOCK_RECORD
  5
1F
330
1
100
AcDbSymbolTableRecord
100
AcDbBlockTableRecord
  2
*Model_Space
340
22
  0
BLOCK_RECORD
  5
1B
330
1
100
AcDbSymbolTableRecord
100
AcDbBlockTableRecord
  2
*Paper_Space
340
1E
  0
BLOCK_RECORD
  5
23
330
1
100
AcDbSymbolTableRecord
100
AcDbBlockTableRecord
  2
*Paper_Space0
340
26
  0
BLOCK_RECORD
  5
1CB
330
1
100
AcDbSymbolTableRecord
100
AcDbBlockTableRecord
  2
SIGMA 1400x700_P
340
0
310
2800000020000000200000000100080000000000000400000000000000000000000000000000000000000000000080000080000000808000800000008000800080800000C0C0C000C0DCC000F0CAA6000020400000206000002080000020A0000020C0000020E00000400000004020000040400000406000004080000040A0
310
000040C0000040E00000600000006020000060400000606000006080000060A0000060C0000060E00000800000008020000080400000806000008080000080A0000080C0000080E00000A0000000A0200000A0400000A0600000A0800000A0A00000A0C00000A0E00000C0000000C0200000C0400000C0600000C0800000C0
310
A00000C0C00000C0E00000E0000000E0200000E0400000E0600000E0800000E0A00000E0C00000E0E00040000000400020004000400040006000400080004000A0004000C0004000E00040200000402020004020400040206000402080004020A0004020C0004020E000404000004040200040404000404060004040800040
310
40A0004040C0004040E00040600000406020004060400040606000406080004060A0004060C0004060E00040800000408020004080400040806000408080004080A0004080C0004080E00040A0000040A0200040A0400040A0600040A0800040A0A00040A0C00040A0E00040C0000040C0200040C0400040C0600040C08000
310
40C0A00040C0C00040C0E00040E0000040E0200040E0400040E0600040E0800040E0A00040E0C00040E0E00080000000800020008000400080006000800080008000A0008000C0008000E00080200000802020008020400080206000802080008020A0008020C0008020E00080400000804020008040400080406000804080
310
008040A0008040C0008040E00080600000806020008060400080606000806080008060A0008060C0008060E00080800000808020008080400080806000808080008080A0008080C0008080E00080A0000080A0200080A0400080A0600080A0800080A0A00080A0C00080A0E00080C0000080C0200080C0400080C0600080C0
310
800080C0A00080C0C00080C0E00080E0000080E0200080E0400080E0600080E0800080E0A00080E0C00080E0E000C0000000C0002000C0004000C0006000C0008000C000A000C000C000C000E000C0200000C0202000C0204000C0206000C0208000C020A000C020C000C020E000C0400000C0402000C0404000C0406000C0
310
408000C040A000C040C000C040E000C0600000C0602000C0604000C0606000C0608000C060A000C060C000C060E000C0800000C0802000C0804000C0806000C0808000C080A000C080C000C080E000C0A00000C0A02000C0A04000C0A06000C0A08000C0A0A000C0A0C000C0A0E000C0C00000C0C02000C0C04000C0C06000
310
C0C08000C0C0A000F0FBFF00A4A0A000808080000000FF0000FF000000FFFF00FF000000FF00FF00FFFF0000FFFFFF0000000000000000000000000000000000000000000000000000000000000000000000000000000000000000000000000000000000000000000000000000000000000000000000000000000000000000
310
00000000000000000000000000000000000000000000000000000000000000000000000000000000000000000000000000000000000000000000000000000000000000000000000000000000000000000000000000000000000000000000000000000000000000000000000000000000000000000000000000000000000000
310
000000000000000000000000000000000000000000000000000000000000000000000000000000000000000000000000000000FFFFFFFFFFFFFFFFFFFFFFFFFFFFFFFFFFFFFFFFFFFFFFFFFFFFFFFFFFFF0000FFFFFFFFFFFFFFFFFFFFFFFFFFFFFFFFFFFFFFFFFFFFFFFFFFFFFFFFFFFF0000FFFFFFFFFFFFFFFFFFFFFFFF
310
FFFFFFFFFFFFFFFFFFFFFFFFFFFFFFFFFFFF0000FFFFFFFFFFFF00000000000000000000000000000000000000000000FFFF0000FFFFFFFFFFFF00000000000000000000000000000000000000000000FFFF0000FFFFFFFFFFFF00000000000000000000000000000000000000000000FFFF0000FFFFFF0000000000000000
310
0000000000000000000000000000000000FFFF0000FFFFFF00000000000000000000000000000000000000000000000000FFFF0000FFFFFF00000000000000000000000000000000000000000000000000FFFF0000FFFFFF00000000000000000000000000000000000000000000000000FFFF0000FFFFFF00000000000000
310
000000000000000000000000000000000000FFFF0000FFFF0000000000000000000000000000000000000000000000000000FFFF0000FFFF0000000000000000000000000000000000000000000000000000FFFF0000FFFFFFFFFFFFFFFFFFFFFFFFFFFFFFFFFFFFFFFFFFFFFFFFFFFF00FFFFFF0000FFFFFFFFFFFFFFFFFF
310
FFFFFFFFFFFFFFFFFFFFFFFFFFFFFFFFFFFFFFFFFF0000FFFFFFFFFFFFFFFFFFFFFFFFFFFFFFFFFFFFFFFFFFFFFFFFFFFFFFFFFFFF0000000000000000000000000000000000000000000000000000000000000000000000000000000000000000000000000000000000000000000000000000000000000000000000000000
310
00000000000000000000000000000000000000000000000000000000000000000000000000000000000000000000000000000000000000000000000000000000000000000000000000000000000000000000000000000000000000000000000000000000000000000000000000000000000000000000000000000000000000
310
0000000000000000000000000000000000000000000000000000000000000000000000000000000000000000000000000000000000000000
102
{BLKREFS
331
23F
102
}
1001
ACAD
1000
DesignCenter Data
1002
{
1070
     1
1070
     4
1002
}
  0
ENDTAB
  0
ENDSEC
  0
SECTION
  2
BLOCKS
  0
BLOCK
  5
20
330
1F
100
AcDbEntity
  8
0
100
AcDbBlockBegin
  2
*Model_Space
 70
     0
 10
0.0
 20
0.0
 30
0.0
  3
*Model_Space
  1

  0
ENDBLK
  5
21
330
1F
100
AcDbEntity
  8
0
100
AcDbBlockEnd
  0
BLOCK
  5
1C
330
1B
100
AcDbEntity
 67
     1
  8
0
100
AcDbBlockBegin
  2
*Paper_Space
 70
     0
 10
0.0
 20
0.0
 30
0.0
  3
*Paper_Space
  1

  0
ENDBLK
  5
1D
330
1B
100
AcDbEntity
 67
     1
  8
0
100
AcDbBlockEnd
  0
BLOCK
  5
24
330
23
100
AcDbEntity
  8
0
100
AcDbBlockBegin
  2
*Paper_Space0
 70
     0
 10
0.0
 20
0.0
 30
0.0
  3
*Paper_Space0
  1

  0
ENDBLK
  5
25
330
23
100
AcDbEntity
  8
0
100
AcDbBlockEnd
  0
BLOCK
  5
1CC
330
1CB
100
AcDbEntity
  8
0
100
AcDbBlockBegin
  2
SIGMA 1400x700_P
 70
     0
 10
0.0
 20
0.0
 30
0.0
  3
SIGMA 1400x700_P
  1

  0
CIRCLE
  5
1CE
330
1CB
100
AcDbEntity
  8
0
100
AcDbCircle
 10
0.0
 20
0.0
 30
0.0
 40
61.97929554924154
  0
CIRCLE
  5
1CF
330
1CB
100
AcDbEntity
  8
0
100
AcDbCircle
 10
0.0
 20
0.0
 30
0.0
 40
47.10010079199178
  0
SPLINE
  5
1D0
330
1CB
100
AcDbEntity
  8
0
  6
Continuous
370
     0
100
AcDbSpline
210
0.0
220
0.0
230
1.0
 70
     8
 71
     3
 72
    31
 73
    27
 74
     0
 42
0.0000000001
 43
0.0000000001
 40
0.0
 40
0.0
 40
0.0
 40
0.0
 40
0.1428571360881794
 40
0.2857142661027653
 40
0.5714285296933881
 40
0.7857142311174146
 40
0.8285713708512284
 40
0.8542856534796797
 40
0.8667532110578026
 40
0.8928570935631494
 40
0.90624994746435
 40
0.9129463751462303
 40
0.9196428028815686
 40
0.9330356572455301
 40
0.939732087436387
 40
0.9464285126584851
 40
0.9598213762308908
 40
0.9665177955410547
 40
0.973214231885421
 40
0.9799106539280915
 40
0.9832521933376618
 40
0.9866071454616944
 40
0.9899553517932282
 40
0.9933035665874692
 40
0.9966517866182947
 40
1.0
 40
1.0
 40
1.0
 40
1.0
 10
-11.02640473942676
 20
66.41079983345412
 30
0.0
 10
-13.34980002205293
 20
66.41080014525346
 30
0.0
 10
-17.99659048852606
 20
66.41080076885192
 30
0.0
 10
-27.29017139936412
 20
66.41083449163284
 30
0.0
 10
-37.74544978323206
 20
66.41067474805891
 30
0.0
 10
-46.57435192523837
 20
66.41106683477722
 30
0.0
 10
-51.17467422922311
 20
66.4106609923856
 30
0.0
 10
-52.49267363564377
 20
66.41104446569932
 30
0.0
 10
-53.53820114111329
 20
66.41020438171313
 30
0.0
 10
-54.38333640157373
 20
66.41090486112296
 30
0.0
 10
-55.13461128591678
 20
66.410792621788
 30
0.0
 10
-55.57024784215037
 20
66.41079549839992
 30
0.0
 10
-56.00588440472233
 20
66.41078771391687
 30
0.0
 10
-56.441521009962
 20
66.41078884174351
 30
0.0
 10
-56.87715756962927
 20
66.41081652572393
 30
0.0
 10
-57.31279428903372
 20
66.41084784864529
 30
0.0
 10
-57.74843077721334
 20
66.41082024096966
 30
0.0
 10
-58.18406760411836
 20
66.41078576352299
 30
0.0
 10
-58.51079460155256
 20
66.41071441807003
 30
0.0
 10
-58.78296000836076
 20
66.41129631884121
 30
0.0
 10
-59.0007771001508
 20
66.4101938835056
 30
0.0
 10
-59.16413993473589
 20
66.41091913584671
 30
0.0
 10
-59.32761360952816
 20
66.41078064725935
 30
0.0
 10
-59.49097714564425
 20
66.41092109694842
 30
0.0
 10
-59.65434100524021
 20
66.41099799459198
 30
0.0
 10
-59.76325021283901
 20
66.41092088123525
 30
0.0
 10
-59.81770476256838
 20
66.41088232459515
 30
0.0
  0
SPLINE
  5
1D1
330
1CB
100
AcDbEntity
  8
0
  6
Continuous
370
     0
100
AcDbSpline
210
0.0
220
0.0
230
1.0
 70
     8
 71
     3
 72
    15
 73
    11
 74
     0
 42
0.0000000001
 43
0.0000000001
 40
0.0
 40
0.0
 40
0.0
 40
0.0
 40
0.1137618975604539
 40
0.2500038165787785
 40
0.3750027055327342
 40
0.5000009664234029
 40
0.6193171601060663
 40
0.7499994869018961
 40
0.8749996448071787
 40
1.0
 40
1.0
 40
1.0
 40
1.0
 10
9.155295361878302
 20
66.40797965594799
 30
0.0
 10
8.390012877041044
 20
66.40414981244237
 30
0.0
 10
6.7082235778729
 20
66.39573332578208
 30
0.0
 10
4.185494893710256
 20
66.38793418054536
 30
0.0
 10
1.587150269910466
 20
66.38436006535641
 30
0.0
 10
-0.8973382147227084
 20
66.38493880186024
 30
0.0
 10
-3.420045247663097
 20
66.39008778576112
 30
0.0
 10
-5.942728655642895
 20
66.39909831055502
 30
0.0
 10
-8.503669047302651
 20
66.40643043805869
 30
0.0
 10
-10.1854923996492
 20
66.40934336755606
 30
0.0
 10
-11.02640473942676
 20
66.41079983345412
 30
0.0
  0
SPLINE
  5
1D2
330
1CB
100
AcDbEntity
  8
0
  6
Continuous
370
     0
100
AcDbSpline
210
0.0
220
0.0
230
1.0
 70
     8
 71
     3
 72
     8
 73
     4
 74
     0
 42
0.0000000001
 43
0.0000000001
 40
0.0
 40
0.0
 40
0.0
 40
0.0
 40
1.0
 40
1.0
 40
1.0
 40
1.0
 10
11.05359504811713
 20
66.41079901029195
 30
0.0
 10
10.42042309144881
 20
66.41078492401539
 30
0.0
 10
9.787671539593361
 20
66.40961600164496
 30
0.0
 10
9.155295361878302
 20
66.40797965594799
 30
0.0
  0
SPLINE
  5
1D3
330
1CB
100
AcDbEntity
  8
0
  6
Continuous
370
     0
100
AcDbSpline
210
0.0
220
0.0
230
1.0
 70
     8
 71
     3
 72
    26
 73
    22
 74
     0
 42
0.0000000001
 43
0.0000000001
 40
0.0
 40
0.0
 40
0.0
 40
0.0
 40
0.0039062519820794
 40
0.0078125030913938
 40
0.0117187740884116
 40
0.0156250296929546
 40
0.0195312657613598
 40
0.0234375218531739
 40
0.031250039899739
 40
0.0390625411809161
 40
0.0468750327281396
 40
0.0625000362908996
 40
0.0724197425036914
 40
0.0781250740015107
 40
0.0937500742875711
 40
0.1075594823403858
 40
0.1250000725830443
 40
0.1697121564565526
 40
0.2500000593356153
 40
0.5000000437112963
 40
1.0
 40
1.0
 40
1.0
 40
1.0
 10
56.57959544022765
 20
66.41104285240158
 30
0.0
 10
56.52031677549792
 20
66.41099989046711
 30
0.0
 10
56.40175945928309
 20
66.41091396660772
 30
0.0
 10
56.22392366576207
 20
66.41050474518966
 30
0.0
 10
56.04608707573823
 20
66.4106071960897
 30
0.0
 10
55.8682513354446
 20
66.41090632800183
 30
0.0
 10
55.69041596523823
 20
66.41127090060115
 30
0.0
 10
55.45330144053003
 20
66.41157873229622
 30
0.0
 10
55.15690762630004
 20
66.41147992174126
 30
0.0
 10
54.80123585522267
 20
66.41113937126204
 30
0.0
 10
54.32700680051175
 20
66.41077548091016
 30
0.0
 10
53.82079999182053
 20
66.41128502221659
 30
0.0
 10
53.34657035339216
 20
66.41024599955949
 30
0.0
 10
52.87234304553374
 20
66.41150354035267
 30
0.0
 10
52.33908443382881
 20
66.41075150815971
 30
0.0
 10
51.62774118540131
 20
66.41133065583801
 30
0.0
 10
50.47499107176657
 20
66.41072257474639
 30
0.0
 10
48.31340783979567
 20
66.41060594167175
 30
0.0
 10
42.62265769250859
 20
66.41136828794015
 30
0.0
 10
30.0227618634575
 20
66.41054032741772
 30
0.0
 10
18.64126173642819
 20
66.41069553714283
 30
0.0
 10
11.05359504811701
 20
66.41079901029195
 30
0.0
  0
SPLINE
  5
1D4
330
1CB
100
AcDbEntity
  8
0
  6
Continuous
370
     0
100
AcDbSpline
210
0.0
220
0.0
230
1.0
 70
     8
 71
     3
 72
    27
 73
    23
 74
     0
 42
0.0000000001
 43
0.0000000001
 40
0.0
 40
0.0
 40
0.0
 40
0.0
 40
0.1677151387982614
 40
0.499999780156603
 40
0.6463244945023739
 40
0.7499997850715486
 40
0.8296403741494625
 40
0.8749997590382111
 40
0.8884201178271087
 40
0.9062497385715378
 40
0.9218747406642918
 40
0.9296872390566303
 40
0.9374997472929461
 40
0.9531247333215022
 40
0.960937222318401
 40
0.9687497674509472
 40
0.9765623110286592
 40
0.9804684956381452
 40
0.9843747310383704
 40
0.9921875602715637
 40
0.9956431578292621
 40
1.0
 40
1.0
 40
1.0
 40
1.0
 10
66.41069537125042
 20
11.06169497222981
 30
0.0
 10
66.4106598270456
 20
13.60645455128463
 30
0.0
 10
66.41055386109258
 20
21.19300421636513
 30
0.0
 10
66.41075068701536
 20
30.9997543137107
 30
0.0
 10
66.41069493983412
 20
39.83482092685859
 30
0.0
 10
66.41078511361332
 20
44.83649270427304
 30
0.0
 10
66.41062011520205
 20
48.30620650256765
 30
0.0
 10
66.41028031915755
 20
50.4064732233137
 30
0.0
 10
66.41115748657227
 20
51.56887473078962
 30
0.0
 10
66.41062640598386
 20
52.28011363705604
 30
0.0
 10
66.41078929772186
 20
52.90626410143613
 30
0.0
 10
66.41056830827768
 20
53.38042373989515
 30
0.0
 10
66.41038527195781
 20
53.85458311330876
 30
0.0
 10
66.41059230765302
 20
54.32874271182163
 30
0.0
 10
66.41144273501982
 20
54.80290144340449
 30
0.0
 10
66.41181277301473
 20
55.15852217298675
 30
0.0
 10
66.41130569494896
 20
55.45487270230831
 30
0.0
 10
66.41013388675276
 20
55.69194790365543
 30
0.0
 10
66.40903727881334
 20
55.92902687778212
 30
0.0
 10
66.40858213305875
 20
56.15927856219752
 30
0.0
 10
66.41066663824642
 20
56.39635483384427
 30
0.0
 10
66.4107203664713
 20
56.51489339744216
 30
0.0
 10
66.41075032963318
 20
56.58099999546982
 30
0.0
  0
SPLINE
  5
1D5
330
1CB
100
AcDbEntity
  8
0
  6
Continuous
370
     0
100
AcDbSpline
210
0.0
220
0.0
230
1.0
 70
     8
 71
     3
 72
    15
 73
    11
 74
     0
 42
0.0000000001
 43
0.0000000001
 40
0.0
 40
0.0
 40
0.0
 40
0.0
 40
0.11458183130665
 40
0.2500029208549153
 40
0.3752798777794438
 40
0.5000007551219978
 40
0.5969171916296041
 40
0.7499991846000205
 40
0.9061203463572814
 40
1.0
 40
1.0
 40
1.0
 40
1.0
 10
66.40659469582272
 20
-8.742499907247633
 30
0.0
 10
66.40331383632497
 20
-7.986113721842912
 30
0.0
 10
66.39615541995147
 20
-6.335775675321087
 30
0.0
 10
66.3897884630752
 20
-3.858401624543148
 30
0.0
 10
66.38596641920037
 20
-1.314079248139819
 30
0.0
 10
66.38683271167668
 20
0.9760637127695872
 30
0.0
 10
66.38946381826849
 20
3.449756131398203
 30
0.0
 10
66.39751918186596
 20
6.130705271032184
 30
0.0
 10
66.40831173585787
 20
8.791582087795404
 30
0.0
 10
66.41004463319666
 20
10.44195226943986
 30
0.0
 10
66.41069536628231
 20
11.06169497222731
 30
0.0
  0
SPLINE
  5
1D6
330
1CB
100
AcDbEntity
  8
0
  6
Continuous
370
     0
100
AcDbSpline
210
0.0
220
0.0
230
1.0
 70
     8
 71
     3
 72
     8
 73
     4
 74
     0
 42
0.0000000001
 43
0.0000000001
 40
0.0
 40
0.0
 40
0.0
 40
0.0
 40
1.0
 40
1.0
 40
1.0
 40
1.0
 10
66.41069937072689
 20
-11.05369985845277
 30
0.0
 10
66.41072327408039
 20
-10.28197641352847
 30
0.0
 10
66.40897212742618
 20
-9.510231530456962
 30
0.0
 10
66.40659470218214
 20
-8.742501964972007
 30
0.0
  0
SPLINE
  5
1D7
330
1CB
100
AcDbEntity
  8
0
  6
Continuous
370
     0
100
AcDbSpline
210
0.0
220
0.0
230
1.0
 70
     8
 71
     3
 72
    47
 73
    43
 74
     0
 42
0.0000000001
 43
0.0000000001
 40
0.0
 40
0.0
 40
0.0
 40
0.0
 40
0.0004408926050495
 40
0.0016549490020116
 40
0.0035322506574508
 40
0.005986575094467
 40
0.0090207287646156
 40
0.0127479485206192
 40
0.0174123093334689
 40
0.0231300963394258
 40
0.0298148145634069
 40
0.0371471364523467
 40
0.0449244097617709
 40
0.0532294236922096
 40
0.0622118296401026
 40
0.0720270224260759
 40
0.0826592600373303
 40
0.0940241173403323
 40
0.1060743876805867
 40
0.1188391248978516
 40
0.13234664279883
 40
0.1465910178563686
 40
0.1615622472489801
 40
0.1772595093097194
 40
0.1936837111865021
 40
0.2108360230092535
 40
0.2287169669154966
 40
0.247326544659365
 40
0.2666647505595137
 40
0.2867315801234492
 40
0.3075270302102532
 40
0.3290510991994883
 40
0.3513037871663372
 40
0.3742850960629375
 40
0.3979950299059951
 40
0.4224335949706155
 40
0.4476007999904271
 40
0.4734966563640014
 40
0.500121178367568
 40
0.7164864520127234
 40
0.8831069439754914
 40
1.0
 40
1.0
 40
1.0
 40
1.0
 10
66.41083397645548
 20
-59.81760080228252
 30
0.0
 10
66.41152147588184
 20
-59.81052771373561
 30
0.0
 10
66.41410209637013
 20
-59.78397793563146
 30
0.0
 10
66.41804087951323
 20
-59.7268872778277
 30
0.0
 10
66.41888283494745
 20
-59.63651227652474
 30
0.0
 10
66.41070166804126
 20
-59.51716570310225
 30
0.0
 10
66.39082658940231
 20
-59.37109099571841
 30
0.0
 10
66.36886927602233
 20
-59.18860414676806
 30
0.0
 10
66.3658318653853
 20
-58.95821967413382
 30
0.0
 10
66.37848688018266
 20
-58.68147004470007
 30
0.0
 10
66.40271296913692
 20
-58.36316238011716
 30
0.0
 10
66.42228174009767
 20
-58.01012280828763
 30
0.0
 10
66.42588987169313
 20
-57.62917206350812
 30
0.0
 10
66.41879781295802
 20
-57.22182229502653
 30
0.0
 10
66.40861684075355
 20
-56.78147611500901
 30
0.0
 10
66.40682789664436
 20
-56.30292853203934
 30
0.0
 10
66.40961721766723
 20
-55.78573572794596
 30
0.0
 10
66.41215621942513
 20
-55.23218367248933
 30
0.0
 10
66.41153349138415
 20
-54.64394725724708
 30
0.0
 10
66.41039706633967
 20
-54.02088138642501
 30
0.0
 10
66.41041997562206
 20
-53.36213766784521
 30
0.0
 10
66.41081657752522
 20
-52.66752119809985
 30
0.0
 10
66.41100086863014
 20
-51.93730199841161
 30
0.0
 10
66.41106111272108
 20
-51.17164199001661
 30
0.0
 10
66.41102707506809
 20
-50.3705206594476
 30
0.0
 10
66.41097891937363
 20
-49.5338957900525
 30
0.0
 10
66.4109384091538
 20
-48.66173982098747
 30
0.0
 10
66.41089992367802
 20
-47.75404433219319
 30
0.0
 10
66.4108649552835
 20
-46.81080945916619
 30
0.0
 10
66.41083298842852
 20
-45.83203541887906
 30
0.0
 10
66.41080409787321
 20
-44.81772236172855
 30
0.0
 10
66.41077821351746
 20
-43.76787036399195
 30
0.0
 10
66.41075533196488
 20
-42.68247941908953
 30
0.0
 10
66.41073545751999
 20
-41.5615494287964
 30
0.0
 10
66.41071862973479
 20
-40.40508019407787
 30
0.0
 10
66.41070488760783
 20
-39.2130714056392
 30
0.0
 10
66.41069440411718
 20
-37.98552263416423
 30
0.0
 10
66.41068697854382
 20
-36.72243332024982
 30
0.0
 10
66.41067703494832
 20
-32.35073608251901
 30
0.0
 10
66.41065874156755
 20
-25.69105696094698
 30
0.0
 10
66.41062535935168
 20
-17.56374020998703
 30
0.0
 10
66.41067776415059
 20
-12.95421424535163
 30
0.0
 10
66.41069937072689
 20
-11.05369985845277
 30
0.0
  0
SPLINE
  5
1D8
330
1CB
100
AcDbEntity
  8
0
  6
Continuous
370
    15
100
AcDbSpline
210
0.0
220
0.0
230
1.0
 70
     8
 71
     3
 72
    17
 73
    13
 74
     0
 42
0.0000000001
 43
0.0000000001
 40
0.0
 40
0.0
 40
0.0
 40
0.0
 40
0.0994720368259162
 40
0.1989740808563196
 40
0.2985390896213404
 40
0.3981999837971817
 40
0.4979895793670332
 40
0.5979405002782055
 40
0.698085078211714
 40
0.7984552679879423
 40
0.8990828926705287
 40
1.0
 40
1.0
 40
1.0
 40
1.0
 10
-0.000104765880792
 20
61.97540000219738
 30
0.0
 10
-0.3661832325090017
 20
61.97475585281825
 30
0.0
 10
-1.098450598724866
 20
61.9734673597427
 30
0.0
 10
-2.19706206393846
 20
61.95925201660862
 30
0.0
 10
-3.29620408362723
 20
61.93606222220694
 30
0.0
 10
-4.396155370997689
 20
61.90300595954261
 30
0.0
 10
-5.497193058485663
 20
61.86030264589567
 30
0.0
 10
-6.599590058436433
 20
61.80783321167712
 30
0.0
 10
-7.703622184724849
 20
61.74562364936377
 30
0.0
 10
-8.80953427689144
 20
61.67335896270083
 30
0.0
 10
-9.917666594527304
 20
61.59184297305819
 30
0.0
 10
-10.65673819773462
 20
61.52911102520488
 30
0.0
 10
-11.02680477084936
 20
61.49769999971534
 30
0.0
  0
SPLINE
  5
1D9
330
1CB
100
AcDbEntity
  8
0
  6
Continuous
370
    15
100
AcDbSpline
210
0.0
220
0.0
230
1.0
 70
     8
 71
     3
 72
    12
 73
     8
 74
     0
 42
0.0000000001
 43
0.0000000001
 40
0.0
 40
0.0
 40
0.0
 40
0.0
 40
0.1110691189878146
 40
0.2608958044737875
 40
0.4495046414697818
 40
0.7248495600107937
 40
1.0
 40
1.0
 40
1.0
 40
1.0
 10
-0.0001065117610324
 20
61.97101763764544
 30
0.0
 10
0.3399820060795946
 20
61.97011577714829
 30
0.0
 10
1.138832922183723
 20
61.9679973519543
 30
0.0
 10
2.515097896635325
 20
61.94879139166312
 30
0.0
 10
4.3938850415974
 20
61.90128318923439
 30
0.0
 10
6.655335189086372
 20
61.80948429139994
 30
0.0
 10
8.337506625956393
 20
61.70154868635973
 30
0.0
 10
9.178295206314032
 20
61.64759994954102
 30
0.0
  0
SPLINE
  5
1DA
330
1CB
100
AcDbEntity
  8
0
  6
Continuous
370
    15
100
AcDbSpline
210
0.0
220
0.0
230
1.0
 70
     8
 71
     3
 72
    12
 73
     8
 74
     0
 42
0.0000000001
 43
0.0000000001
 40
0.0
 40
0.0
 40
0.0
 40
0.0
 40
0.2501004382223675
 40
0.500085278761035
 40
0.7500266552830399
 40
0.8794568161238254
 40
0.9999999999999998
 40
0.9999999999999998
 40
0.9999999999999998
 40
0.9999999999999998
 10
9.178295206314032
 20
61.64759994954102
 30
0.0
 10
9.334241843619565
 20
61.63047218577322
 30
0.0
 10
9.646063038908437
 20
61.5962245747761
 30
0.0
 10
10.11474652655272
 20
61.55485023232677
 30
0.0
 10
10.50852639118227
 20
61.52663160067402
 30
0.0
 10
10.82154424429052
 20
61.50770983911525
 30
0.0
 10
10.97816762347759
 20
61.50021445636946
 30
0.0
 10
11.05369519949977
 20
61.49660000179006
 30
0.0
  0
SPLINE
  5
1DB
330
1CB
100
AcDbEntity
  8
0
  6
Continuous
370
    15
100
AcDbSpline
210
0.0
220
0.0
230
1.0
 70
     8
 71
     3
 72
    20
 73
    16
 74
     0
 42
0.0000000001
 43
0.0000000001
 40
0.0
 40
0.0
 40
0.0
 40
0.0
 40
0.0178902356582815
 40
0.0313055793549719
 40
0.0626004263320858
 40
0.1251605278682128
 40
0.1610990642607588
 40
0.2501827826954365
 40
0.3751121176353107
 40
0.4999965747101488
 40
0.7498037485557897
 40
0.874830894271043
 40
0.9373949068229025
 40
0.9686919883371029
 40
1.0
 40
1.0
 40
1.0
 40
1.0
 10
61.49579523531747
 20
11.06169997914799
 30
0.0
 10
61.50587996663023
 20
10.94375258888283
 30
0.0
 10
61.5235269312883
 20
10.73736003731528
 30
0.0
 10
61.55752139302808
 20
10.3245371393815
 30
0.0
 10
61.6135159119857
 20
9.61695151106619
 30
0.0
 10
61.67459369709013
 20
8.760286157719406
 30
0.0
 10
61.75544100132765
 20
7.521709997681682
 30
0.0
 10
61.84408952070646
 20
5.870135276683868
 30
0.0
 10
61.93026297734729
 20
3.629212700983316
 30
0.0
 10
61.99202453291639
 20
0.3236893612014455
 30
0.0
 10
61.9582825874237
 20
-2.983689918246113
 30
0.0
 10
61.84528228646775
 20
-5.875837810088796
 30
0.0
 10
61.76775675523504
 20
-7.322138468481057
 30
0.0
 10
61.7177569877333
 20
-8.148859548616883
 30
0.0
 10
61.69025171061878
 20
-8.562195937863748
 30
0.0
 10
61.67649667100466
 20
-8.768900214441259
 30
0.0
  0
SPLINE
  5
1DC
330
1CB
100
AcDbEntity
  8
0
  6
Continuous
370
    15
100
AcDbSpline
210
0.0
220
0.0
230
1.0
 70
     8
 71
     3
 72
    14
 73
    10
 74
     0
 42
0.0000000001
 43
0.0000000001
 40
0.0
 40
0.0
 40
0.0
 40
0.0
 40
0.2499834561530337
 40
0.3749875526556102
 40
0.5000004975567882
 40
0.6250226265997844
 40
0.7499991066698348
 40
0.9081416837257977
 40
1.0
 40
1.0
 40
1.0
 40
1.0
 10
61.67649667100466
 20
-8.768900214441259
 30
0.0
 10
61.65928775693124
 20
-8.95916629418707
 30
0.0
 10
61.63347353437609
 20
-9.244574827596352
 30
0.0
 10
61.59763723626531
 20
-9.625001346893668
 30
0.0
 10
61.57065378098479
 20
-9.910341605480311
 30
0.0
 10
61.54191408049371
 20
-10.19549164350962
 30
0.0
 10
61.51526498160331
 20
-10.50627813228823
 30
0.0
 10
61.50021155389334
 20
-10.79256119616172
 30
0.0
 10
61.49749381862432
 20
-10.98360474550759
 30
0.0
 10
61.49649523584901
 20
-11.05380024978842
 30
0.0
  0
SPLINE
  5
1DD
330
1CB
100
AcDbEntity
  8
0
  6
Continuous
370
    15
100
AcDbSpline
210
0.0
220
0.0
230
1.0
 70
     8
 71
     3
 72
    23
 73
    19
 74
     0
 42
0.0000000001
 43
0.0000000001
 40
0.0
 40
0.0
 40
0.0
 40
0.0
 40
0.0078653526362121
 40
0.0157213123579483
 40
0.0314079661972773
 40
0.0627004046654606
 40
0.1251265826128783
 40
0.2504087854870571
 40
0.3384820479190839
 40
0.5002688776377329
 40
0.6486662423321271
 40
0.749893919111487
 40
0.8214256020810275
 40
0.8928705875271862
 40
0.9463502958202415
 40
0.9731398336061827
 40
0.9865593401047643
 40
1.0
 40
1.0
 40
1.0
 40
1.0
 10
66.41075032963318
 20
56.58099999546982
 30
0.0
 10
66.40497351254976
 20
56.61911641785684
 30
0.0
 10
66.39342677713887
 20
56.69530374346459
 30
0.0
 10
66.36861663517709
 20
56.84735355976318
 30
0.0
 10
66.32158016907317
 20
57.11245492263174
 30
0.0
 10
66.2124047341025
 20
57.6396217448223
 30
0.0
 10
65.93251225324968
 20
58.68480326151837
 30
0.0
 10
65.430966675396
 20
59.9677960743412
 30
0.0
 10
64.51412782375689
 20
61.60385901394488
 30
0.0
 10
63.2577935844871
 20
63.17496157731864
 30
0.0
 10
61.65715825177142
 20
64.49457108084641
 30
0.0
 10
60.26219388049378
 20
65.29513505363855
 30
0.0
 10
59.14061733725919
 20
65.76780395184562
 30
0.0
 10
58.2128024672404
 20
66.06705287686168
 30
0.0
 10
57.48581778305106
 20
66.24591219982756
 30
0.0
 10
57.03401256570976
 20
66.33520758593613
 30
0.0
 10
56.77470204922599
 20
66.38063762407205
 30
0.0
 10
56.64466511289515
 20
66.40090245651776
 30
0.0
 10
56.57959544022765
 20
66.41104285240158
 30
0.0
  0
SPLINE
  5
1DE
330
1CB
100
AcDbEntity
  8
0
  6
Continuous
370
    15
100
AcDbSpline
210
0.0
220
0.0
230
1.0
 70
     8
 71
     3
 72
     9
 73
     5
 74
     0
 42
0.0000000001
 43
0.0000000001
 40
0.0
 40
0.0
 40
0.0
 40
0.0
 40
0.4999947130947423
 40
1.0
 40
1.0
 40
1.0
 40
1.0
 10
-77.70242029796532
 20
64.80450020231251
 30
0.0
 10
-77.71399841051129
 20
64.78747502081239
 30
0.0
 10
-77.73715488045525
 20
64.75342429776583
 30
0.0
 10
-77.76300572171931
 20
64.72680820912626
 30
0.0
 10
-77.77593127902242
 20
64.71350002408986
 30
0.0
  0
SPLINE
  5
1DF
330
1CB
100
AcDbEntity
  8
0
  6
Continuous
370
    15
100
AcDbSpline
210
0.0
220
0.0
230
1.0
 70
     8
 71
     3
 72
    23
 73
    19
 74
     0
 42
0.0000000001
 43
0.0000000001
 40
0.0
 40
0.0
 40
0.0
 40
0.0
 40
0.0049937861240774
 40
0.0179317040284914
 40
0.0358281959751802
 40
0.0715502639868923
 40
0.1429508308859182
 40
0.1967189974669799
 40
0.2503581030680234
 40
0.375516695003313
 40
0.500138756979781
 40
0.5833664083797173
 40
0.7497887021852631
 40
0.8364375886943667
 40
0.8749568571352622
 40
0.9347375558369448
 40
0.9764374561825045
 40
1.0
 40
1.0
 40
1.0
 40
1.0
 10
-59.81770476256838
 20
66.41088232459515
 30
0.0
 10
-59.84194903960428
 20
66.40729453950587
 30
0.0
 10
-59.92900547121621
 20
66.39441150872653
 30
0.0
 10
-60.10200295475158
 20
66.36522058292143
 30
0.0
 10
-60.42375170960451
 20
66.30701958596159
 30
0.0
 10
-61.02532028969062
 20
66.17751269679286
 30
0.0
 10
-61.79181134395469
 20
65.96192807782802
 30
0.0
 10
-62.62728465863109
 20
65.66009483593223
 30
0.0
 10
-63.68642848337026
 20
65.19176117088637
 30
0.0
 10
-64.99447217121974
 20
64.41102595244046
 30
0.0
 10
-66.27176837452577
 20
63.32621599068295
 30
0.0
 10
-67.52509020114849
 20
61.92934091495761
 30
0.0
 10
-68.43598496784295
 20
60.49582162824492
 30
0.0
 10
-68.99204999867982
 20
59.15357187769564
 30
0.0
 10
-69.27723457375873
 20
58.28202366081711
 30
0.0
 10
-69.45448807282218
 20
57.61325613836084
 30
0.0
 10
-69.57858503019759
 20
57.01070963614211
 30
0.0
 10
-69.62922247472739
 20
56.69498878196816
 30
0.0
 10
-69.64750476588051
 20
56.58100000088632
 30
0.0
  0
SPLINE
  5
1E0
330
1CB
100
AcDbEntity
  8
0
  6
Continuous
370
    15
100
AcDbSpline
210
0.0
220
0.0
230
1.0
 70
     8
 71
     3
 72
    36
 73
    32
 74
     0
 42
0.0000000001
 43
0.0000000001
 40
0.0
 40
0.0
 40
0.0
 40
0.0
 40
0.0135759197992774
 40
0.024109478940837
 40
0.03133181928482
 40
0.0469092030322295
 40
0.062493524944866
 40
0.0781333714468464
 40
0.0938047546249548
 40
0.1250915296789949
 40
0.1407468943768987
 40
0.1564074988160181
 40
0.1876651890947435
 40
0.2032761973847506
 40
0.2188834669809861
 40
0.2501098495358395
 40
0.2909828266910645
 40
0.3216483273129935
 40
0.3753497692096334
 40
0.5002395041079298
 40
0.6098313973025956
 40
0.7498564156223388
 40
0.8123252836201805
 40
0.8458133310853808
 40
0.8749972411323863
 40
0.912149549706727
 40
0.9427934174038954
 40
0.9669174182988578
 40
0.9845233361702611
 40
0.9956198343937691
 40
1.0
 40
1.0
 40
1.0
 40
1.0
 10
56.59349548331215
 20
-69.64751272340129
 30
0.0
 10
56.66154642613037
 20
-69.64621681928315
 30
0.0
 10
56.7823981103653
 20
-69.64391542287637
 30
0.0
 10
56.9389539172065
 20
-69.6334129070691
 30
0.0
 10
57.10494588474682
 20
-69.61827117690518
 30
0.0
 10
57.29522291023807
 20
-69.59482846862852
 30
0.0
 10
57.52484993513053
 20
-69.55569555067097
 30
0.0
 10
57.75170019794552
 20
-69.50577781544621
 30
0.0
 10
58.05037312974866
 20
-69.42744556817832
 30
0.0
 10
58.34467458201174
 20
-69.33573480136431
 30
0.0
 10
58.63232417822849
 20
-69.22933277927189
 30
0.0
 10
58.91671311001971
 20
-69.11542122123444
 30
0.0
 10
59.20061499561859
 20
-68.99660351576347
 30
0.0
 10
59.4826514722564
 20
-68.87152140258763
 30
0.0
 10
59.76357816405323
 20
-68.74250167914135
 30
0.0
 10
60.15539587078365
 20
-68.55195115467324
 30
0.0
 10
60.61001745360602
 20
-68.31436452979312
 30
0.0
 10
61.1514142483403
 20
-67.99996679084916
 30
0.0
 10
62.02501664233579
 20
-67.4214748961391
 30
0.0
 10
63.13240198782001
 20
-66.48173814425263
 30
0.0
 10
64.36545032847823
 20
-65.05865168700393
 30
0.0
 10
65.18492926568012
 20
-63.71728380144668
 30
0.0
 10
65.6533684439388
 20
-62.63802015863871
 30
0.0
 10
65.86563386509545
 20
-62.05320411953152
 30
0.0
 10
66.01751219016671
 20
-61.58191865784568
 30
0.0
 10
66.14696106293661
 20
-61.11973832621197
 30
0.0
 10
66.25173206118915
 20
-60.67829101055394
 30
0.0
 10
66.3237346499044
 20
-60.32945187025029
 30
0.0
 10
66.3692618205165
 20
-60.07375842147325
 30
0.0
 10
66.39752178794674
 20
-59.91455247903025
 30
0.0
 10
66.407897475921
 20
-59.83898711681615
 30
0.0
 10
66.41083397645548
 20
-59.81760080228252
 30
0.0
  0
SPLINE
  5
1E1
330
1CB
100
AcDbEntity
  8
0
  6
Continuous
370
    15
100
AcDbSpline
210
0.0
220
0.0
230
1.0
 70
     8
 71
     3
 72
     9
 73
     5
 74
     0
 42
0.0000000001
 43
0.0000000001
 40
0.0
 40
0.0
 40
0.0
 40
0.0
 40
0.5000032548406683
 40
1.0
 40
1.0
 40
1.0
 40
1.0
 10
64.80689524950605
 20
-77.86933775275077
 30
0.0
 10
64.82007574107353
 20
-77.85618689402759
 30
0.0
 10
64.84643655260834
 20
-77.82988534779565
 30
0.0
 10
64.87974239717494
 20
-77.80596014210312
 30
0.0
 10
64.89639521105289
 20
-77.79399761712966
 30
0.0
  0
SPLINE
  5
1E2
330
1CB
100
AcDbEntity
  8
0
  6
Continuous
370
    15
100
AcDbSpline
210
0.0
220
0.0
230
1.0
 70
     8
 71
     3
 72
    26
 73
    22
 74
     0
 42
0.0000000001
 43
0.0000000001
 40
0.0
 40
0.0
 40
0.0
 40
0.0
 40
0.0370305733183238
 40
0.0799697327745877
 40
0.1288334732618421
 40
0.1836726474097396
 40
0.2445764804921679
 40
0.3271759403419585
 40
0.3799891338233622
 40
0.4998832987724121
 40
0.6248891017596973
 40
0.6787737151189175
 40
0.7576386854519087
 40
0.8107659190464165
 40
0.8446558224829617
 40
0.876573824688419
 40
0.9399871102987457
 40
0.9534649573700296
 40
0.9710256504694944
 40
0.9843043680937235
 40
1.0
 40
1.0
 40
1.0
 40
1.0
 10
-64.92950460976965
 20
75.42790001896822
 30
0.0
 10
-65.0358348339671
 20
75.42784871443735
 30
0.0
 10
-65.26546129807411
 20
75.42773791924162
 30
0.0
 10
-65.63529199277798
 20
75.4175856025588
 30
0.0
 10
-66.05585513761003
 20
75.39642058837819
 30
0.0
 10
-66.52712030123393
 20
75.35946253053442
 30
0.0
 10
-67.09332686358596
 20
75.29745687642651
 30
0.0
 10
-67.65109351833837
 20
75.21449445198868
 30
0.0
 10
-68.37172054174891
 20
75.07973364969757
 30
0.0
 10
-69.2044611180537
 20
74.88375124016954
 30
0.0
 10
-70.02339807428427
 20
74.62472670382715
 30
0.0
 10
-70.71423584078809
 20
74.35911182817278
 30
0.0
 10
-71.2044752655521
 20
74.14763238825401
 30
0.0
 10
-71.63319809791949
 20
73.94004882392483
 30
0.0
 10
-71.93622926773366
 20
73.78262979345379
 30
0.0
 10
-72.26171679273091
 20
73.60459118559425
 30
0.0
 10
-72.53108937208208
 20
73.44622237185944
 30
0.0
 10
-72.76144174489047
 20
73.30317547802337
 30
0.0
 10
-72.86852530484702
 20
73.23447957622363
 30
0.0
 10
-72.97808339728101
 20
73.15785322306862
 30
0.0
 10
-73.04193796008928
 20
73.10449873022207
 30
0.0
 10
-73.07652847651559
 20
73.07559618387211
 30
0.0
  0
SPLINE
  5
1E3
330
1CB
100
AcDbEntity
  8
0
  6
Continuous
370
    15
100
AcDbSpline
210
0.0
220
0.0
230
1.0
 70
     8
 71
     3
 72
    30
 73
    26
 74
     0
 42
0.0000000001
 43
0.0000000001
 40
0.0
 40
0.0
 40
0.0
 40
0.0
 40
0.0756627606464926
 40
0.1384944933241223
 40
0.1884948026028326
 40
0.2256633916137341
 40
0.2500000535928528
 40
0.3981045855484446
 40
0.5000002098385541
 40
0.6250025310159807
 40
0.7499999460163838
 40
0.8749998759879609
 40
0.9118519889661985
 40
0.9375708964282736
 40
0.9531036235681121
 40
0.9609148443106317
 40
0.9676458793727192
 40
0.9728992888844695
 40
0.977363171844272
 40
0.9833745528452773
 40
0.987457707534938
 40
0.9923051770673488
 40
0.995906664249005
 40
0.9981282309757036
 40
1.0
 40
1.0
 40
1.0
 40
1.0
 10
55.59459524577403
 20
75.60860007710812
 30
0.0
 10
52.55492745321362
 20
75.59495154926242
 30
0.0
 10
46.99106423691944
 20
75.56996903563924
 30
0.0
 10
39.41842991520082
 20
75.54162997763341
 30
0.0
 10
33.39224782290489
 20
75.52152246426977
 30
0.0
 10
28.91256859163571
 20
75.50810813053454
 30
0.0
 10
20.49158740318091
 20
75.48515021080721
 30
0.0
 10
9.470177424727808
 20
75.46222662302693
 30
0.0
 10
-5.595486795562578
 20
75.43980035273273
 30
0.0
 10
-19.73284629067222
 20
75.42525369280212
 30
0.0
 10
-34.79842658064479
 20
75.41654062531188
 30
0.0
 10
-46.32257769265504
 20
75.41836023965754
 30
0.0
 10
-53.85822212247205
 20
75.41960836547025
 30
0.0
 10
-56.99603054233205
 20
75.42312575386631
 30
0.0
 10
-58.96712593358063
 20
75.42279908517207
 30
0.0
 10
-60.17538469089266
 20
75.42390383707505
 30
0.0
 10
-60.97067294730095
 20
75.42474376399366
 30
0.0
 10
-61.63148256032298
 20
75.42521270902387
 30
0.0
 10
-62.26338010091945
 20
75.42573807942244
 30
0.0
 10
-62.84826248780916
 20
75.42645496398165
 30
0.0
 10
-63.44855552137687
 20
75.42721238755428
 30
0.0
 10
-63.95203186696381
 20
75.42692818979105
 30
0.0
 10
-64.38071876832566
 20
75.42739172259849
 30
0.0
 10
-64.68985725908578
 20
75.42770730968129
 30
0.0
 10
-64.85430651943204
 20
75.42783954940603
 30
0.0
 10
-64.92950460976965
 20
75.42790001896822
 30
0.0
  0
SPLINE
  5
1E4
330
1CB
100
AcDbEntity
  8
0
  6
Continuous
370
    15
100
AcDbSpline
210
0.0
220
0.0
230
1.0
 70
     8
 71
     3
 72
    17
 73
    13
 74
     0
 42
0.0000000001
 43
0.0000000001
 40
0.0
 40
0.0
 40
0.0
 40
0.0
 40
0.03124999999998
 40
0.03124999999998
 40
0.0624999999999599
 40
0.0624999999999599
 40
0.1249999999999465
 40
0.1249999999999465
 40
0.2499999999999464
 40
0.2499999999999464
 40
0.4999999999999733
 40
1.0
 40
1.0
 40
1.0
 40
1.0
 10
61.81219535635285
 20
75.63909999933287
 30
0.0
 10
61.7402688932367
 20
75.63876372589845
 30
0.0
 10
61.68194289795588
 20
75.63840909293379
 30
0.0
 10
61.55493958398517
 20
75.63772801086191
 30
0.0
 10
61.48817563763657
 20
75.63738547120135
 30
0.0
 10
61.29344533337678
 20
75.63636959949485
 30
0.0
 10
61.16529333640574
 20
75.63570184864147
 30
0.0
 10
60.77780819081215
 20
75.63371367423815
 30
0.0
 10
60.51864133050355
 20
75.63241120796352
 30
0.0
 10
59.74116438389557
 20
75.62852571409485
 30
0.0
 10
58.18620761818568
 20
75.62084413832565
 30
0.0
 10
56.63124237813656
 20
75.61342822807955
 30
0.0
 10
55.59459524577403
 20
75.60860007710812
 30
0.0
  0
SPLINE
  5
1E5
330
1CB
100
AcDbEntity
  8
0
  6
Continuous
370
    15
100
AcDbSpline
210
0.0
220
0.0
230
1.0
 70
     8
 71
     3
 72
    29
 73
    25
 74
     0
 42
0.0000000001
 43
0.0000000001
 40
0.0
 40
0.0
 40
0.0
 40
0.0
 40
0.0292280920399474
 40
0.0552149651316288
 40
0.0779524569340083
 40
0.0974344858005163
 40
0.1136563544607907
 40
0.1404955352770138
 40
0.1671997561733438
 40
0.2313163788732477
 40
0.3631719378384249
 40
0.430215236303167
 40
0.4991204616779425
 40
0.5565263931174158
 40
0.5989909374302228
 40
0.6805760816444041
 40
0.7476761829016346
 40
0.7763008150516253
 40
0.8072120883195358
 40
0.8714877492724772
 40
0.9106666404617525
 40
0.949784975391765
 40
0.9765884835870169
 40
1.0
 40
1.0
 40
1.0
 40
1.0
 10
72.91321902589527
 20
70.5953206213909
 30
0.0
 10
72.83852903163268
 20
70.69354429821806
 30
0.0
 10
72.69743171254515
 20
70.87909923911855
 30
0.0
 10
72.48871102723398
 20
71.13359822541679
 30
0.0
 10
72.3009520534398
 20
71.35191963576517
 30
0.0
 10
72.13588000621314
 20
71.53529962708081
 30
0.0
 10
71.95564511737654
 20
71.72825610734173
 30
0.0
 10
71.74975176445889
 20
71.93890767885307
 30
0.0
 10
71.3927331995502
 20
72.2843423569633
 30
0.0
 10
70.68524102286199
 20
72.90429234858049
 30
0.0
 10
69.77421878758605
 20
73.5466646256732
 30
0.0
 10
68.78654473973199
 20
74.09832169408764
 30
0.0
 10
68.04684372687154
 20
74.44528912163344
 30
0.0
 10
67.3841725029971
 20
74.70797384915363
 30
0.0
 10
66.66085197835958
 20
74.9607076977918
 30
0.0
 10
65.88431108257066
 20
75.18334495233432
 30
0.0
 10
65.15220285003431
 20
75.34155512800009
 30
0.0
 10
64.6253047369529
 20
75.43245809321206
 30
0.0
 10
64.10802874101523
 20
75.5079321659473
 30
0.0
 10
63.54391076306615
 20
75.5698782630916
 30
0.0
 10
62.94347431650556
 20
75.61295001383723
 30
0.0
 10
62.50012664637893
 20
75.63215455949126
 30
0.0
 10
62.12303375411045
 20
75.64013349604215
 30
0.0
 10
61.91103468996755
 20
75.63942862709177
 30
0.0
 10
61.81219535635285
 20
75.63909999933287
 30
0.0
  0
SPLINE
  5
1E6
330
1CB
100
AcDbEntity
  8
0
  6
Continuous
370
    15
100
AcDbSpline
210
0.0
220
0.0
230
1.0
 70
     8
 71
     3
 72
    23
 73
    19
 74
     0
 42
0.0000000001
 43
0.0000000001
 40
0.0
 40
0.0
 40
0.0
 40
0.0
 40
0.0294267303891012
 40
0.0671373738874456
 40
0.1131229805379332
 40
0.1868131024373617
 40
0.260608024679759
 40
0.3628652849361074
 40
0.4231493023862568
 40
0.4622547184019868
 40
0.5241189994697291
 40
0.6077472987215251
 40
0.7256505550659125
 40
0.8427194091524521
 40
0.8668707055210445
 40
0.9207298443257238
 40
0.9620370691402872
 40
1.0
 40
1.0
 40
1.0
 40
1.0
 10
75.59379523020073
 20
61.64109989447911
 30
0.0
 10
75.594695162054
 20
61.73442551867845
 30
0.0
 10
75.59674836540046
 20
61.9473488452694
 30
0.0
 10
75.59182737673665
 20
62.30612680599176
 30
0.0
 10
75.57402887927469
 20
62.80500466090098
 30
0.0
 10
75.53170076359913
 20
63.41733972659119
 30
0.0
 10
75.4440420128509
 20
64.20473257455933
 30
0.0
 10
75.32481550525597
 20
64.94522193870034
 30
0.0
 10
75.19269975097461
 20
65.57109872005355
 30
0.0
 10
75.0708877245994
 20
66.06786178566506
 30
0.0
 10
74.91083393204394
 20
66.63120908239614
 30
0.0
 10
74.64434854907143
 20
67.42336005710058
 30
0.0
 10
74.25875971140715
 20
68.35848964588729
 30
0.0
 10
73.88350660109006
 20
69.09100809099266
 30
0.0
 10
73.57083998537508
 20
69.62492962753856
 30
0.0
 10
73.36973588980857
 20
69.9456317550987
 30
0.0
 10
73.13317228428911
 20
70.29549745659654
 30
0.0
 10
72.98444525210527
 20
70.49823057273875
 30
0.0
 10
72.91321902589527
 20
70.5953206213909
 30
0.0
  0
SPLINE
  5
1E7
330
1CB
100
AcDbEntity
  8
0
  6
Continuous
370
    15
100
AcDbSpline
210
0.0
220
0.0
230
1.0
 70
     8
 71
     3
 72
     8
 73
     4
 74
     0
 42
0.0000000001
 43
0.0000000001
 40
0.0
 40
0.0
 40
0.0
 40
0.0
 40
1.0
 40
1.0
 40
1.0
 40
1.0
 10
75.58541192476912
 20
61.11853855055028
 30
0.0
 10
75.58793499165097
 20
61.28343473492305
 30
0.0
 10
75.5918551961605
 20
61.46119214913835
 30
0.0
 10
75.59379523020073
 20
61.64109989447911
 30
0.0
  0
SPLINE
  5
1E8
330
1CB
100
AcDbEntity
  8
0
  6
Continuous
370
    15
100
AcDbSpline
210
0.0
220
0.0
230
1.0
 70
     8
 71
     3
 72
    30
 73
    26
 74
     0
 42
0.0000000001
 43
0.0000000001
 40
0.0
 40
0.0
 40
0.0
 40
0.0
 40
0.0605352754616138
 40
0.1246893051425262
 40
0.1944665211289589
 40
0.2498086340869137
 40
0.313024868086001
 40
0.3742062738687545
 40
0.4341421547822129
 40
0.49775174899738
 40
0.5599150381950483
 40
0.6246909144523661
 40
0.6838223549272387
 40
0.749445741723816
 40
0.8172554652117122
 40
0.872739826158903
 40
0.9178200163650458
 40
0.948572313006325
 40
0.9575587206249812
 40
0.965954048323784
 40
0.9739115622047229
 40
0.9815345558827578
 40
0.9884781473951274
 40
0.9944130750879363
 40
1.0
 40
1.0
 40
1.0
 40
1.0
 10
75.50019523311755
 20
-64.90950016283751
 30
0.0
 10
75.50579548364328
 20
-62.36642587392532
 30
0.0
 10
75.51733076354969
 20
-57.12825418655325
 30
0.0
 10
75.53431679386403
 20
-48.9587622127226
 30
0.0
 10
75.54816529662446
 20
-41.00742037121711
 30
0.0
 10
75.55995273348457
 20
-33.09545801496688
 30
0.0
 10
75.56638569199481
 20
-25.54458426026656
 30
0.0
 10
75.56156369401072
 20
-17.80072247646922
 30
0.0
 10
75.54946827783749
 20
-10.0403736223011
 30
0.0
 10
75.52628201946709
 20
-2.238849683826401
 30
0.0
 10
75.50018393606785
 20
5.765960760272264
 30
0.0
 10
75.47493702462077
 20
13.58265084609229
 30
0.0
 10
75.45312342526369
 20
21.54474396317437
 30
0.0
 10
75.44029911909183
 20
29.63435791665109
 30
0.0
 10
75.44095285743299
 20
37.5708120449882
 30
0.0
 10
75.46308640773929
 20
44.64417158646631
 30
0.0
 10
75.4934038682419
 20
50.16060911379463
 30
0.0
 10
75.51964384166535
 20
53.72360657160709
 30
0.0
 10
75.53676249704074
 20
55.74552549363534
 30
0.0
 10
75.54512286544161
 20
56.80992337860891
 30
0.0
 10
75.55429908102894
 20
57.81703231220217
 30
0.0
 10
75.56580970603852
 20
58.76311736776734
 30
0.0
 10
75.57665549732928
 20
59.62424560379213
 30
0.0
 10
75.57846076952137
 20
60.39990941741383
 30
0.0
 10
75.58314200324002
 20
60.883867955151
 30
0.0
 10
75.58541192476912
 20
61.11853855055028
 30
0.0
  0
SPLINE
  5
1E9
330
1CB
100
AcDbEntity
  8
0
  6
Continuous
370
    15
100
AcDbSpline
210
0.0
220
0.0
230
1.0
 70
     8
 71
     3
 72
    27
 73
    23
 74
     0
 42
0.0000000001
 43
0.0000000001
 40
0.0
 40
0.0
 40
0.0
 40
0.0
 40
0.0022242714925268
 40
0.0084655187324246
 40
0.0183673788044834
 40
0.0320750826048414
 40
0.0496463232513031
 40
0.0710166363420644
 40
0.0961789941752808
 40
0.1251364521767144
 40
0.1907841391618758
 40
0.2501301140037785
 40
0.3323103429312437
 40
0.3840392741767098
 40
0.5001656139060469
 40
0.624973861141705
 40
0.7500184637906008
 40
0.7844767497818433
 40
0.8749693452596435
 40
0.927209875346519
 40
0.9688996738842142
 40
1.0
 40
1.0
 40
1.0
 40
1.0
 10
73.18029493212373
 20
-73.04590007994864
 30
0.0
 10
73.18431800732276
 20
-73.04095906783913
 30
0.0
 10
73.19962972559721
 20
-73.02215370585418
 30
0.0
 10
73.22488587073542
 20
-72.97576849952782
 30
0.0
 10
73.27473204259752
 20
-72.90636181844695
 30
0.0
 10
73.33848474410399
 20
-72.8072132578784
 30
0.0
 10
73.41895600054761
 20
-72.67984676529386
 30
0.0
 10
73.51481674160743
 20
-72.52342736039543
 30
0.0
 10
73.62496797860115
 20
-72.33757875884521
 30
0.0
 10
73.79445108723871
 20
-72.03965730499692
 30
0.0
 10
74.00007851440079
 20
-71.6498292082349
 30
0.0
 10
74.25381138671093
 20
-71.11383874032606
 30
0.0
 10
74.46704782948597
 20
-70.60322345262182
 30
0.0
 10
74.71455605152801
 20
-69.93177391843187
 30
0.0
 10
74.96644037035332
 20
-69.13225844227577
 30
0.0
 10
75.20740622936296
 20
-68.11195887695475
 30
0.0
 10
75.33484782914809
 20
-67.30762583079547
 30
0.0
 10
75.41907378017175
 20
-66.59715901553375
 30
0.0
 10
75.46271810017242
 20
-66.09171777100005
 30
0.0
 10
75.48898283229608
 20
-65.5645431429557
 30
0.0
 10
75.49881563043823
 20
-65.20682131423257
 30
0.0
 10
75.49978223949858
 20
-64.99850530913386
 30
0.0
 10
75.50019523311755
 20
-64.90950016283751
 30
0.0
  0
SPLINE
  5
1EA
330
1CB
100
AcDbEntity
  8
0
  6
Continuous
370
    15
100
AcDbSpline
210
0.0
220
0.0
230
1.0
 70
     8
 71
     3
 72
    16
 73
    12
 74
     0
 42
0.0000000001
 43
0.0000000001
 40
0.0
 40
0.0
 40
0.0
 40
0.0
 40
0.4998951914391638
 40
0.7508178384666408
 40
0.8728087098983095
 40
0.9059206616453977
 40
0.9137977465625009
 40
0.9176688743594729
 40
0.921578970560111
 40
0.9424980654061394
 40
1.0
 40
1.0
 40
1.0
 40
1.0
 10
-77.72840539243043
 20
64.85350010508693
 30
0.0
 10
-77.73530182811612
 20
64.82922836515036
 30
0.0
 10
-77.74565993322164
 20
64.79277341293834
 30
0.0
 10
-77.76050001346835
 20
64.75307672518749
 30
0.0
 10
-77.76773098908245
 20
64.73511710133255
 30
0.0
 10
-77.77066318199263
 20
64.72799551931735
 30
0.0
 10
-77.77147364073107
 20
64.72604305226354
 30
0.0
 10
-77.77175672043677
 20
64.72536215283162
 30
0.0
 10
-77.77227630646007
 20
64.72411527878501
 30
0.0
 10
-77.77375653213585
 20
64.72053430484527
 30
0.0
 10
-77.7752267407568
 20
64.71716819135759
 30
0.0
 10
-77.77630476588058
 20
64.71470000088629
 30
0.0
  0
SPLINE
  5
1EB
330
1CB
100
AcDbEntity
  8
0
  6
Continuous
370
    15
100
AcDbSpline
210
0.0
220
0.0
230
1.0
 70
     8
 71
     3
 72
    19
 73
    15
 74
     0
 42
0.0000000001
 43
0.0000000001
 40
0.0
 40
0.0
 40
0.0
 40
0.0
 40
0.015514152311868
 40
0.0311862837365123
 40
0.0645336891991386
 40
0.1262126177095577
 40
0.2312975371082703
 40
0.3426882794100772
 40
0.5293362665345116
 40
0.698382629689357
 40
0.8299002511429691
 40
0.9240369643383996
 40
0.9807488520399616
 40
1.0
 40
1.0
 40
1.0
 40
1.0
 10
-73.774057486071
 20
72.1646902384814
 30
0.0
 10
-73.79964507650277
 20
72.12790374817143
 30
0.0
 10
-73.85108081332521
 20
72.05395617427768
 30
0.0
 10
-73.96026459376265
 20
71.90301889545015
 30
0.0
 10
-74.14906737912701
 20
71.64556541405045
 30
0.0
 10
-74.48168044644489
 20
71.17518192496152
 30
0.0
 10
-74.92635480542356
 20
70.51319750043126
 30
0.0
 10
-75.53418748724539
 20
69.54051074689641
 30
0.0
 10
-76.18168920006337
 20
68.39847344012866
 30
0.0
 10
-76.78189145299882
 20
67.1961800620694
 30
0.0
 10
-77.21343828624731
 20
66.21674134967065
 30
0.0
 10
-77.49112249904851
 20
65.51439650638224
 30
0.0
 10
-77.64455463533943
 20
65.08919874951129
 30
0.0
 10
-77.71145179087739
 20
64.90115549953748
 30
0.0
 10
-77.72840539243043
 20
64.85350010508693
 30
0.0
  0
SPLINE
  5
1EC
330
1CB
100
AcDbEntity
  8
0
  6
Continuous
370
    15
100
AcDbSpline
210
0.0
220
0.0
230
1.0
 70
     8
 71
     3
 72
    16
 73
    12
 74
     0
 42
0.0000000001
 43
0.0000000001
 40
0.0
 40
0.0
 40
0.0
 40
0.0
 40
0.06239700771869
 40
0.1194145874648651
 40
0.2401448210069498
 40
0.409293684090948
 40
0.5177425149150645
 40
0.6149782361238896
 40
0.7410282309326109
 40
0.8757403148685899
 40
1.0
 40
1.0
 40
1.0
 40
1.0
 10
-73.07652847651559
 20
73.07559618387211
 30
0.0
 10
-73.09454241643152
 20
73.05978785345769
 30
0.0
 10
-73.12901726197833
 20
73.0295340748878
 30
0.0
 10
-73.19564206741086
 20
72.96572269017895
 30
0.0
 10
-73.28835151007104
 20
72.86988748145438
 30
0.0
 10
-73.38561339730938
 20
72.75151895793499
 30
0.0
 10
-73.47081307591134
 20
72.63534332620827
 30
0.0
 10
-73.53912187610728
 20
72.52771095778417
 30
0.0
 10
-73.61133777593238
 20
72.41071157245585
 30
0.0
 10
-73.69127051560008
 20
72.28629967968072
 30
0.0
 10
-73.74721448356956
 20
72.20412111167013
 30
0.0
 10
-73.774057486071
 20
72.1646902384814
 30
0.0
  0
SPLINE
  5
1ED
330
1CB
100
AcDbEntity
  8
0
  6
Continuous
370
     0
100
AcDbSpline
210
0.0
220
0.0
230
1.0
 70
     8
 71
     3
 72
    35
 73
    31
 74
     0
 42
0.0000000001
 43
0.0000000001
 40
0.0
 40
0.0
 40
0.0
 40
0.0
 40
0.0125092391578584
 40
0.0229557583018234
 40
0.031317145431591
 40
0.0468867278572851
 40
0.0624714884803548
 40
0.0781226900304926
 40
0.0937818210071454
 40
0.1250499272007693
 40
0.1406998609181027
 40
0.1563419333149743
 40
0.187588479867503
 40
0.2188280639203659
 40
0.2321256042218436
 40
0.2501101379325941
 40
0.2714289158887023
 40
0.3082931182950197
 40
0.3751482342083254
 40
0.5002769721640327
 40
0.5625875353990022
 40
0.6249066664422261
 40
0.6875772870278598
 40
0.7500309644245187
 40
0.812568878490255
 40
0.8751139524219674
 40
0.9379801518022004
 40
0.9740197725236065
 40
0.9871237465623334
 40
1.0
 40
1.0
 40
1.0
 40
1.0
 10
-81.93940308854246
 20
503.3187708357803
 30
0.0
 10
-82.00231329287772
 20
503.3176638216279
 30
0.0
 10
-82.11776007802678
 20
503.3156323352202
 30
0.0
 10
-82.27478215663802
 20
503.3054542692859
 30
0.0
 10
-82.44650380887753
 20
503.2896746352946
 30
0.0
 10
-82.64279598850647
 20
503.2644753215127
 30
0.0
 10
-82.872684069191
 20
503.2236053863795
 30
0.0
 10
-83.09926393057072
 20
503.171172795364
 30
0.0
 10
-83.39783219819583
 20
503.0905138515199
 30
0.0
 10
-83.69152319484863
 20
502.9958644900306
 30
0.0
 10
-83.97771541650206
 20
502.8857836780558
 30
0.0
 10
-84.26279373960756
 20
502.7711550685916
 30
0.0
 10
-84.61759896565821
 20
502.620344777771
 30
0.0
 10
-84.95966874619387
 20
502.4643452142826
 30
0.0
 10
-85.23925141381017
 20
502.3283437167544
 30
0.0
 10
-85.47401651699658
 20
502.2112178816356
 30
0.0
 10
-85.81195324334329
 20
502.0357702974439
 30
0.0
 10
-86.3569461579849
 20
501.7273571687389
 30
0.0
 10
-87.31503093023503
 20
501.0934302102022
 30
0.0
 10
-88.28608713430105
 20
500.2507487765971
 30
0.0
 10
-89.12250037151727
 20
499.3118000472176
 30
0.0
 10
-89.68784513455409
 20
498.5569568104746
 30
0.0
 10
-90.18793310349257
 20
497.7575931524466
 30
0.0
 10
-90.61584343133176
 20
496.9173726444684
 30
0.0
 10
-90.96663041861006
 20
496.0443091598862
 30
0.0
 10
-91.2474316389048
 20
495.1468256897075
 30
0.0
 10
-91.43409687823634
 20
494.3642952625102
 30
0.0
 10
-91.53254705382858
 20
493.8172183199282
 30
0.0
 10
-91.57906596678618
 20
493.5135746956156
 30
0.0
 10
-91.59627544741102
 20
493.3862194698938
 30
0.0
 10
-91.60480476588054
 20
493.3231000008862
 30
0.0
  0
SPLINE
  5
1EE
330
1CB
100
AcDbEntity
  8
0
  6
Continuous
370
    15
100
AcDbSpline
210
0.0
220
0.0
230
1.0
 70
     8
 71
     3
 72
    25
 73
    21
 74
     0
 42
0.0000000001
 43
0.0000000001
 40
0.0
 40
0.0
 40
0.0
 40
0.0
 40
0.0078527466815098
 40
0.0157018579752298
 40
0.0313898077444931
 40
0.06272769229249
 40
0.1252771815689392
 40
0.2500809393333058
 40
0.500060601728179
 40
0.6250379603013815
 40
0.749884755137045
 40
0.8124995295656971
 40
0.87499826913348
 40
0.8945147309024925
 40
0.9374688665224621
 40
0.9687191812228816
 40
0.9843545299514838
 40
0.9929443759841507
 40
0.997421474914373
 40
1.0
 40
1.0
 40
1.0
 40
1.0
 10
64.94719546970213
 20
-77.82005870062289
 30
0.0
 10
64.96931523870114
 20
-77.8120343963169
 30
0.0
 10
65.01354453646865
 20
-77.79598950251443
 30
0.0
 10
65.10197688240999
 20
-77.76365127006261
 30
0.0
 10
65.25660310753721
 20
-77.70625695384251
 30
0.0
 10
65.56546790569837
 20
-77.58845478843454
 30
0.0
 10
66.18209456490524
 20
-77.34070098747167
 30
0.0
 10
67.41428842731591
 20
-76.79650294229464
 30
0.0
 10
68.81067117440569
 20
-76.05680887030644
 30
0.0
 10
70.18562822941908
 20
-75.21603648102654
 30
0.0
 10
71.0350918135922
 20
-74.65114695411137
 30
0.0
 10
71.70584958106577
 20
-74.17725169381355
 30
0.0
 10
72.08867038297615
 20
-73.89283575146521
 30
0.0
 10
72.41944499758449
 20
-73.64603067280313
 30
0.0
 10
72.66404204690082
 20
-73.45582539295674
 30
0.0
 10
72.89764877650134
 20
-73.27217387035716
 30
0.0
 10
73.04141613319109
 20
-73.15811299679797
 30
0.0
 10
73.11493417742247
 20
-73.09803363342485
 30
0.0
 10
73.15620416761487
 20
-73.06676856029674
 30
0.0
 10
73.17384717633706
 20
-73.05148540974892
 30
0.0
 10
73.18029493212361
 20
-73.04590007994875
 30
0.0
  0
SPLINE
  5
1EF
330
1CB
100
AcDbEntity
  8
0
  6
Continuous
370
    15
100
AcDbSpline
210
0.0
220
0.0
230
1.0
 70
     8
 71
     3
 72
    23
 73
    19
 74
     0
 42
0.0000000001
 43
0.0000000001
 40
0.0
 40
0.0
 40
0.0
 40
0.0
 40
0.0313601151572168
 40
0.0391975653214269
 40
0.0431159522960917
 40
0.0436058883119609
 40
0.044095742724172
 40
0.0450752057332945
 40
0.0470331423084532
 40
0.0627001566640385
 40
0.1253221474434931
 40
0.2503698640442455
 40
0.4999853880959286
 40
0.7496181430505937
 40
0.8121180013776601
 40
0.8433892421879445
 40
0.8746740288821369
 40
1.0
 40
1.0
 40
1.0
 40
1.0
 10
64.80819523411947
 20
-77.86969999911377
 30
0.0
 10
64.80954427735696
 20
-77.86907035419336
 30
0.0
 10
64.81123047047709
 20
-77.86828334981635
 30
0.0
 10
64.81310063630463
 20
-77.86745796451896
 30
0.0
 10
64.81363197443977
 20
-77.86722321840546
 30
0.0
 10
64.81384459729395
 20
-77.86712947959813
 30
0.0
 10
64.81392965167095
 20
-77.86709199101676
 30
0.0
 10
64.81407845156025
 20
-77.86702643541469
 30
0.0
 10
64.81488637638029
 20
-77.86667080098573
 30
0.0
 10
64.81837601927612
 20
-77.86514257610156
 30
0.0
 10
64.82727371059389
 20
-77.86132849578677
 30
0.0
 10
64.84669302456393
 20
-77.85339541674375
 30
0.0
 10
64.8752008098362
 20
-77.84276665090658
 30
0.0
 10
64.90171256129554
 20
-77.83378610622174
 30
0.0
 10
64.91821736515396
 20
-77.82860318471875
 30
0.0
 10
64.924260252968
 20
-77.82675076411374
 30
0.0
 10
64.9333673003465
 20
-77.82399892325395
 30
0.0
 10
64.94104859852325
 20
-77.8218102007894
 30
0.0
 10
64.94719546970213
 20
-77.82005870062289
 30
0.0
  0
LINE
  5
1F0
330
1CB
100
AcDbEntity
  8
0
  6
Continuous
370
     0
100
AcDbLine
 10
1250.775494889399
 20
555.7748000008863
 30
0.0
 11
-139.2261044211602
 21
555.7748000008863
 31
0.0
  0
LINE
  5
1F1
330
1CB
100
AcDbEntity
  8
0
  6
Continuous
370
     0
100
AcDbLine
 10
-139.2261044211602
 20
-144.2251999991138
 30
0.0
 11
1250.775494889399
 21
-144.2251999991138
 31
0.0
  0
LINE
  5
1F2
330
1CB
100
AcDbEntity
  8
0
  6
Continuous
370
     0
100
AcDbLine
 10
-144.2253047658806
 20
550.775599829766
 30
0.0
 11
-144.2253047658806
 21
-139.2259998279935
 31
0.0
  0
LINE
  5
1F3
330
1CB
100
AcDbEntity
  8
0
  6
Continuous
370
     0
100
AcDbLine
 10
1255.774695234119
 20
-139.2259998279935
 30
0.0
 11
1255.774695234119
 21
550.775599829766
 31
0.0
  0
SPLINE
  5
1F4
330
1CB
100
AcDbEntity
  8
0
  6
Continuous
370
     0
100
AcDbSpline
210
0.0
220
0.0
230
1.0
 70
     8
 71
     3
 72
    18
 73
    14
 74
     0
 42
0.0000000001
 43
0.0000000001
 40
0.0
 40
0.0
 40
0.0
 40
0.0
 40
0.083412754807193
 40
0.1687746118942954
 40
0.255955323385542
 40
0.3448136456966143
 40
0.4351979538170384
 40
0.5269470673026519
 40
0.6198912824100017
 40
0.7138535974087632
 40
0.8086511107043852
 40
0.9040965644240134
 40
1.0
 40
1.0
 40
1.0
 40
1.0
 10
1255.136792098024
 20
-141.6697982411988
 30
0.0
 10
1255.170729530661
 20
-141.6074364987034
 30
0.0
 10
1255.239397410475
 20
-141.4812558095387
 30
0.0
 10
1255.332985168033
 20
-141.2844423815618
 30
0.0
 10
1255.420230482768
 20
-141.0797393939076
 30
0.0
 10
1255.499518675408
 20
-140.8672283395633
 30
0.0
 10
1255.570238086306
 20
-140.6476309832143
 30
0.0
 10
1255.631575009086
 20
-140.4216172592439
 30
0.0
 10
1255.682835425505
 20
-140.189988815791
 30
0.0
 10
1255.723486041848
 20
-139.9536178410144
 30
0.0
 10
1255.752735043957
 20
-139.7134500155718
 30
0.0
 10
1255.771262647668
 20
-139.4704871231935
 30
0.0
 10
1255.773566170039
 20
-139.3076256398111
 30
0.0
 10
1255.774720687895
 20
-139.2259999986232
 30
0.0
  0
SPLINE
  5
1F5
330
1CB
100
AcDbEntity
  8
0
  6
Continuous
370
     0
100
AcDbSpline
210
0.0
220
0.0
230
1.0
 70
     8
 71
     3
 72
    26
 73
    22
 74
     0
 42
0.0000000001
 43
0.0000000001
 40
0.0
 40
0.0
 40
0.0
 40
0.0
 40
0.04121516737497
 40
0.0822051666056821
 40
0.1229023251878001
 40
0.1632400092022357
 40
0.2031530956262848
 40
0.242578412884896
 40
0.2814551419519897
 40
0.3197251716625824
 40
0.357333403405941
 40
0.3942280019609833
 40
0.4303605908329132
 40
0.46568639198075
 40
0.5001643112331753
 40
0.5834844566163584
 40
0.6672355546933361
 40
0.7510896428649531
 40
0.8347163201132723
 40
0.9177905243083033
 40
1.0
 40
1.0
 40
1.0
 40
1.0
 10
1250.775495234366
 20
-144.2252254258669
 30
0.0
 10
1250.84829328608
 20
-144.2243070284137
 30
0.0
 10
1250.993491676646
 20
-144.2224752509281
 30
0.0
 10
1251.210159927279
 20
-144.2077481863515
 30
0.0
 10
1251.424469186979
 20
-144.184505791119
 30
0.0
 10
1251.635695262687
 20
-144.1521938037712
 30
0.0
 10
1251.843152361212
 20
-144.1114130322759
 30
0.0
 10
1252.046200960418
 20
-144.0625410872075
 30
0.0
 10
1252.244254546379
 20
-144.0060881340832
 30
0.0
 10
1252.436785093237
 20
-143.9425930360177
 30
0.0
 10
1252.62332698784
 20
-143.8726401110017
 30
0.0
 10
1252.803480218655
 20
-143.7968433639663
 30
0.0
 10
1252.976909769903
 20
-143.7158405911719
 30
0.0
 10
1253.143352448337
 20
-143.6302799496707
 30
0.0
 10
1253.379175177335
 20
-143.4978062906942
 30
0.0
 10
1253.678481915572
 20
-143.304167126536
 30
0.0
 10
1254.028217333543
 20
-143.0310830280671
 30
0.0
 10
1254.35293145284
 20
-142.7277530516918
 30
0.0
 10
1254.648001799337
 20
-142.3973665571443
 30
0.0
 10
1254.913456961584
 20
-142.0458684633754
 30
0.0
 10
1255.062607159749
 20
-141.7947169918452
 30
0.0
 10
1255.136792098024
 20
-141.6697982411988
 30
0.0
  0
SPLINE
  5
1F6
330
1CB
100
AcDbEntity
  8
0
  6
Continuous
370
     0
100
AcDbSpline
210
0.0
220
0.0
230
1.0
 70
     8
 71
     3
 72
    18
 73
    14
 74
     0
 42
0.0000000001
 43
0.0000000001
 40
0.0
 40
0.0
 40
0.0
 40
0.0
 40
0.0834088145876725
 40
0.1687677358362692
 40
0.2559464534079491
 40
0.3448036557470569
 40
0.4351876446853065
 40
0.5269371619288443
 40
0.619882421853677
 40
0.7138463376360759
 40
0.8086459203286773
 40
0.9040938235088702
 40
1.0
 40
1.0
 40
1.0
 40
1.0
 10
-141.6699029941917
 20
-143.5872968383988
 30
0.0
 10
-141.607544217675
 20
-143.6212327017089
 30
0.0
 10
-141.4813687100352
 20
-143.6898978523022
 30
0.0
 10
-141.2845623776371
 20
-143.7834829236007
 30
0.0
 10
-141.079864478876
 20
-143.8707270337305
 30
0.0
 10
-140.8673565483421
 20
-143.9500152262608
 30
0.0
 10
-140.6477603992949
 20
-144.020735503426
 30
0.0
 10
-140.4217460649419
 20
-144.0820738444962
 30
0.0
 10
-140.1901153323783
 20
-144.1333359324451
 30
0.0
 10
-139.95374056746
 20
-144.1739882052831
 30
0.0
 10
-139.7135676621693
 20
-144.2032385991318
 30
0.0
 10
-139.4705986389169
 20
-144.2217671874074
 30
0.0
 10
-139.3077327381783
 20
-144.22407084071
 30
0.0
 10
-139.2261047642807
 20
-144.2252254258675
 30
0.0
  0
SPLINE
  5
1F7
330
1CB
100
AcDbEntity
  8
0
  6
Continuous
370
     0
100
AcDbSpline
210
0.0
220
0.0
230
1.0
 70
     8
 71
     3
 72
    26
 73
    22
 74
     0
 42
0.0000000001
 43
0.0000000001
 40
0.0
 40
0.0
 40
0.0
 40
0.0
 40
0.0412139120201713
 40
0.0822027539289835
 40
0.1228988846623665
 40
0.1632357018344517
 40
0.2031481137176815
 40
0.2425729794807844
 40
0.2814495100029372
 40
0.3197196229311368
 40
0.3573282471566715
 40
0.3942235734755044
 40
0.430357249793441
 40
0.4656845207661598
 40
0.5001643131701368
 40
0.5834835509631024
 40
0.6672340862806944
 40
0.7510879765091689
 40
0.8347148321779583
 40
0.9177895938474026
 40
1.0
 40
1.0
 40
1.0
 40
1.0
 10
-144.225330219656
 20
-139.225999998623
 30
0.0
 10
-144.2244118794035
 20
-139.2987958329663
 30
0.0
 10
-144.2225802139757
 20
-139.4439899619453
 30
0.0
 10
-144.2078540023559
 20
-139.6606521720214
 30
0.0
 10
-144.1846128521894
 20
-139.8749561418829
 30
0.0
 10
-144.1523024218124
 20
-140.0861778615403
 30
0.0
 10
-144.1115233519996
 20
-140.2936317052388
 30
0.0
 10
-144.0626530760957
 20
-140.4966782986707
 30
0.0
 10
-144.0062015587949
 20
-140.694731252882
 30
0.0
 10
-143.9427074472539
 20
-140.8872626417672
 30
0.0
 10
-143.8727548322484
 20
-141.0738069252897
 30
0.0
 10
-143.7969574852147
 20
-141.253964137898
 30
0.0
 10
-143.7159529673107
 20
-141.4273992830948
 30
0.0
 10
-143.6303892032052
 20
-141.5938491615531
 30
0.0
 10
-143.4979136638883
 20
-141.829675777408
 30
0.0
 10
-143.3042742575984
 20
-142.128983192793
 30
0.0
 10
-143.0311924116268
 20
-142.4787166203709
 30
0.0
 10
-142.7278636725031
 20
-142.8034304850186
 30
0.0
 10
-142.3974769517141
 20
-143.0985020096614
 30
0.0
 10
-142.0459768402926
 20
-143.3639594179606
 30
0.0
 10
-141.7948231417919
 20
-143.5131110267156
 30
0.0
 10
-141.6699029941917
 20
-143.5872968383988
 30
0.0
  0
SPLINE
  5
1F8
330
1CB
100
AcDbEntity
  8
0
  6
Continuous
370
     0
100
AcDbSpline
210
0.0
220
0.0
230
1.0
 70
     8
 71
     3
 72
    18
 73
    14
 74
     0
 42
0.0000000001
 43
0.0000000001
 40
0.0
 40
0.0
 40
0.0
 40
0.0
 40
0.0834088145845002
 40
0.1687677358306471
 40
0.25594645340062
 40
0.3448036557387987
 40
0.4351876446768232
 40
0.5269371619206358
 40
0.6198824218464317
 40
0.7138463376302317
 40
0.8086459203245961
 40
0.9040938235066791
 40
1.0
 40
1.0
 40
1.0
 40
1.0
 10
1253.219293465169
 20
555.1368968386363
 30
0.0
 10
1253.156934688644
 20
555.1708327020008
 30
0.0
 10
1253.030759180988
 20
555.2394978527053
 30
0.0
 10
1252.833952848551
 20
555.3330829241658
 30
0.0
 10
1252.629254949741
 20
555.4203270344565
 30
0.0
 10
1252.416747019145
 20
555.4996152271434
 30
0.0
 10
1252.197150870025
 20
555.5703355044609
 30
0.0
 10
1251.971136535588
 20
555.6316738456777
 30
0.0
 10
1251.73950580293
 20
555.6829359337646
 30
0.0
 10
1251.503131037907
 20
555.7235882067326
 30
0.0
 10
1251.262958132503
 20
555.7528386007005
 30
0.0
 10
1251.01998910913
 20
555.7713671890854
 30
0.0
 10
1250.857123208306
 20
555.7736708424506
 30
0.0
 10
1250.775495234366
 20
555.7748254276394
 30
0.0
  0
SPLINE
  5
1F9
330
1CB
100
AcDbEntity
  8
0
  6
Continuous
370
     0
100
AcDbSpline
210
0.0
220
0.0
230
1.0
 70
     8
 71
     3
 72
    26
 73
    22
 74
     0
 42
0.0000000001
 43
0.0000000001
 40
0.0
 40
0.0
 40
0.0
 40
0.0
 40
0.0412139119373913
 40
0.0822027537802284
 40
0.1228988844656159
 40
0.1632357016087862
 40
0.2031481134831335
 40
0.2425729792583328
 40
0.2814495098142303
 40
0.3197196227984889
 40
0.3573282471028374
 40
0.3942235735236934
 40
0.4303572499670732
 40
0.4656845210887994
 40
0.5001643136654285
 40
0.5834835512392339
 40
0.6672340863893168
 40
0.7510879765051343
 40
0.8347148321180698
 40
0.9177895937891353
 40
1.0
 40
1.0
 40
1.0
 40
1.0
 10
1255.774720687895
 20
550.7756000003958
 30
0.0
 10
1255.773802347647
 20
550.8483958345498
 30
0.0
 10
1255.771970682229
 20
550.9935899631799
 30
0.0
 10
1255.757244470677
 20
551.2102521727833
 30
0.0
 10
1255.734003320604
 20
551.4245561422722
 30
0.0
 10
1255.701692890336
 20
551.635777861665
 30
0.0
 10
1255.660913820631
 20
551.8432317052107
 30
0.0
 10
1255.612043544818
 20
552.0462782986047
 30
0.0
 10
1255.555592027577
 20
552.2443312528931
 30
0.0
 10
1255.492097916049
 20
552.4368626419701
 30
0.0
 10
1255.422145300997
 20
552.6234069257961
 30
0.0
 10
1255.346347953839
 20
552.8035641388145
 30
0.0
 10
1255.265343435727
 20
552.9769992845232
 30
0.0
 10
1255.179779671314
 20
553.1434491635873
 30
0.0
 10
1255.047304131955
 20
553.3792757794437
 30
0.0
 10
1254.853664725967
 20
553.6785831943173
 30
0.0
 10
1254.580582880769
 20
554.0283166210417
 30
0.0
 10
1254.277254142358
 20
554.3530304851794
 30
0.0
 10
1253.946867422142
 20
554.6481020096258
 30
0.0
 10
1253.595367311087
 20
554.9135594179869
 30
0.0
 10
1253.344213612738
 20
555.0627110268659
 30
0.0
 10
1253.219293465169
 20
555.1368968386363
 30
0.0
  0
SPLINE
  5
1FA
330
1CB
100
AcDbEntity
  8
0
  6
Continuous
370
     0
100
AcDbSpline
210
0.0
220
0.0
230
1.0
 70
     8
 71
     3
 72
    18
 73
    14
 74
     0
 42
0.0000000001
 43
0.0000000001
 40
0.0
 40
0.0
 40
0.0
 40
0.0
 40
0.083412755472916
 40
0.1687746130835691
 40
0.2559553249575657
 40
0.3448136475126395
 40
0.435197955741243
 40
0.5269470692029714
 40
0.6198912841592427
 40
0.7138535988854456
 40
0.8086511117935815
 40
0.9040965650182377
 40
1.0
 40
1.0
 40
1.0
 40
1.0
 10
-143.5874016297856
 20
553.2193982429713
 30
0.0
 10
-143.6213390626877
 20
553.1570364999748
 30
0.0
 10
-143.6900069429733
 20
553.030855809914
 30
0.0
 10
-143.7835947010101
 20
552.8340423806814
 30
0.0
 10
-143.8708400159858
 20
552.6293393920647
 30
0.0
 10
-143.9501282086613
 20
552.4168283370653
 30
0.0
 10
-144.0208476194359
 20
552.1972309803823
 30
0.0
 10
-144.0821845419797
 20
551.9712172564068
 30
0.0
 10
-144.1334449581011
 20
551.7395888132784
 30
0.0
 10
-144.1740955741311
 20
551.5032178391494
 30
0.0
 10
-144.2033445759645
 20
551.2630500146643
 30
0.0
 10
-144.221872179471
 20
551.020087123533
 30
0.0
 10
-144.2241757018147
 20
550.8572256410778
 30
0.0
 10
-144.2253302196559
 20
550.7756000003958
 30
0.0
  0
SPLINE
  5
1FB
330
1CB
100
AcDbEntity
  8
0
  6
Continuous
370
     0
100
AcDbSpline
210
0.0
220
0.0
230
1.0
 70
     8
 71
     3
 72
    26
 73
    22
 74
     0
 42
0.0000000001
 43
0.0000000001
 40
0.0
 40
0.0
 40
0.0
 40
0.0
 40
0.0412151671294607
 40
0.0822051661481901
 40
0.1229023245544049
 40
0.1632400084314242
 40
0.2031530947587246
 40
0.2425784119631553
 40
0.2814551410203407
 40
0.319725170766702
 40
0.3573334025926662
 40
0.3942280012780366
 40
0.4303605903286946
 40
0.4656863917041256
 40
0.5001643112332369
 40
0.5834844563421014
 40
0.6672355542520757
 40
0.7510896423677995
 40
0.8347163196724226
 40
0.9177905240345031
 40
1.0
 40
1.0
 40
1.0
 40
1.0
 10
-139.2261047661269
 20
555.7748254276396
 30
0.0
 10
-139.2989028174073
 20
555.7739070301972
 30
0.0
 10
-139.4441012071653
 20
555.772075252733
 30
0.0
 10
-139.660769456686
 20
555.7573481883164
 30
0.0
 10
-139.8750787154771
 20
555.7341057933073
 30
0.0
 10
-140.0863047904927
 20
555.7017938062266
 30
0.0
 10
-140.2937618885527
 20
555.6610130350098
 30
0.0
 10
-140.4968104875289
 20
555.6121410902005
 30
0.0
 10
-140.6948640734973
 20
555.5556881372848
 30
0.0
 10
-140.8873946205987
 20
555.4921930393452
 30
0.0
 10
-141.0739365156764
 20
555.422240114344
 30
0.0
 10
-141.2540897471896
 20
555.3464433671824
 30
0.0
 10
-141.4275192993486
 20
555.2654405940959
 30
0.0
 10
-141.5939619788905
 20
555.1798799521113
 30
0.0
 10
-141.8297847082632
 20
555.0474062929695
 30
0.0
 10
-142.1290914462803
 20
554.8537671290159
 30
0.0
 10
-142.4788268636611
 20
554.5806830312212
 30
0.0
 10
-142.8035409828934
 20
554.2773530552099
 30
0.0
 10
-143.0986113297505
 20
553.946966560587
 30
0.0
 10
-143.3640664926689
 20
553.5954684662171
 30
0.0
 10
-143.5132166912522
 20
553.3443169940283
 30
0.0
 10
-143.5874016297857
 20
553.2193982429714
 30
0.0
  0
SPLINE
  5
1FC
330
1CB
100
AcDbEntity
  8
0
  6
Continuous
370
    15
100
AcDbSpline
210
0.0
220
0.0
230
1.0
 70
     8
 71
     3
 72
    18
 73
    14
 74
     0
 42
0.0000000001
 43
0.0000000001
 40
0.0
 40
0.0
 40
0.0
 40
0.0
 40
0.110981879700931
 40
0.250012813003373
 40
0.3757179296392827
 40
0.5013145369943334
 40
0.6264291056229155
 40
0.6903715176590865
 40
0.7593227896809425
 40
0.8190202810700364
 40
0.8834661349616871
 40
0.9273755753523818
 40
1.0
 40
1.0
 40
1.0
 40
1.0
 10
1203.40734501162
 20
215.1350290311127
 30
0.0
 10
1203.408179908102
 20
220.8450121500592
 30
0.0
 10
1203.410060708991
 20
233.7080934532102
 30
0.0
 10
1203.410574108838
 20
253.0386644852115
 30
0.0
 10
1203.409516438259
 20
273.1211587843225
 30
0.0
 10
1203.405081681237
 20
292.4876588125572
 30
0.0
 10
1203.400552486437
 20
308.6764867784809
 30
0.0
 10
1203.400763447058
 20
321.9509317817167
 30
0.0
 10
1203.403317225864
 20
331.8596872261313
 30
0.0
 10
1203.407838364699
 20
341.7943426716221
 30
0.0
 10
1203.415611964568
 20
350.4405970312959
 30
0.0
 10
1203.428989204305
 20
359.751919988291
 30
0.0
 10
1203.442347008445
 20
365.7475068804098
 30
0.0
 10
1203.450671651585
 20
369.483983382942
 30
0.0
  0
SPLINE
  5
1FD
330
1CB
100
AcDbEntity
  8
0
  6
Continuous
370
    15
100
AcDbSpline
210
0.0
220
0.0
230
1.0
 70
     8
 71
     3
 72
    57
 73
    53
 74
     0
 42
0.0000000001
 43
0.0000000001
 40
0.0
 40
0.0
 40
0.0
 40
0.0
 40
0.0000899409465698
 40
0.0003511899231244
 40
0.0007720212183227
 40
0.0013223946699289
 40
0.0019580138084329
 40
0.0026637068020203
 40
0.0034529806719613
 40
0.0043620136865769
 40
0.0054567065872478
 40
0.0067695183697422
 40
0.0082872342366027
 40
0.0099554572694796
 40
0.0117068845571904
 40
0.0135445024260373
 40
0.0154960477445727
 40
0.0175977090856649
 40
0.0198569512635174
 40
0.0222597452276294
 40
0.0247918206834156
 40
0.027455150650926
 40
0.0302561616173525
 40
0.0331963430502418
 40
0.0362738300390411
 40
0.0394877237742816
 40
0.0428379955579029
 40
0.0463246378408192
 40
0.0499476483411492
 40
0.0537070307107309
 40
0.0576027952280909
 40
0.0616349595180463
 40
0.0658035492981963
 40
0.0701085991525577
 40
0.074550153332686
 40
0.079128265441804
 40
0.0838429679332577
 40
0.0886942627758834
 40
0.0936821503145028
 40
0.0988066308963305
 40
0.1040677048703706
 40
0.1094653725867913
 40
0.1403722072037065
 40
0.187238103483379
 40
0.2500633791769152
 40
0.3871921814781045
 40
0.5000422510895214
 40
0.5486527856698195
 40
0.6250316920724474
 40
0.7500211295216062
 40
0.9113486666695402
 40
1.0
 40
1.0
 40
1.0
 40
1.0
 10
1203.409169534843
 20
-82.02839995275679
 30
0.0
 10
1203.410427713711
 20
-82.0197628410907
 30
0.0
 10
1203.415340489891
 20
-81.98603775037668
 30
0.0
 10
1203.42594452587
 20
-81.91188606869321
 30
0.0
 10
1203.440828267096
 20
-81.7927864779673
 30
0.0
 10
1203.455020093273
 20
-81.63558353677286
 30
0.0
 10
1203.458682766889
 20
-81.44764417888394
 30
0.0
 10
1203.445677941262
 20
-81.23713311982147
 30
0.0
 10
1203.415783037597
 20
-81.00517439257874
 30
0.0
 10
1203.379872761433
 20
-80.73596070532801
 30
0.0
 10
1203.365252202678
 20
-80.40718378241445
 30
0.0
 10
1203.370191755983
 20
-80.01819240868906
 30
0.0
 10
1203.389606344454
 20
-79.57386989694601
 30
0.0
 10
1203.412326346138
 20
-79.08644727062881
 30
0.0
 10
1203.420553511044
 20
-78.56558912294963
 30
0.0
 10
1203.417308396054
 20
-78.01670470943361
 30
0.0
 10
1203.40810014945
 20
-77.43337595957962
 30
0.0
 10
1203.404101280999
 20
-76.80805186747659
 30
0.0
 10
1203.405498456881
 20
-76.13801643250724
 30
0.0
 10
1203.408333622909
 20
-75.42536630683833
 30
0.0
 10
1203.408616037021
 20
-74.67266228435858
 30
0.0
 10
1203.407662906572
 20
-73.88051716529344
 30
0.0
 10
1203.407253884737
 20
-73.04794096972137
 30
0.0
 10
1203.407562808106
 20
-72.17433759553216
 30
0.0
 10
1203.407943850643
 20
-71.25983304547014
 30
0.0
 10
1203.408259762562
 20
-70.30470366088525
 30
0.0
 10
1203.408539957495
 20
-69.30904215384055
 30
0.0
 10
1203.408773419815
 20
-68.27285232833912
 30
0.0
 10
1203.408962116068
 20
-67.19613481171143
 30
0.0
 10
1203.409105933118
 20
-66.0788884572122
 30
0.0
 10
1203.409207155369
 20
-64.9211101475339
 30
0.0
 10
1203.409269402844
 20
-63.72279457752495
 30
0.0
 10
1203.409298106539
 20
-62.48393403271371
 30
0.0
 10
1203.409300720578
 20
-61.20451815890169
 30
0.0
 10
1203.409286370859
 20
-59.88453383760713
 30
0.0
 10
1203.409268194016
 20
-58.52396815985503
 30
0.0
 10
1203.409253504875
 20
-57.12281240522111
 30
0.0
 10
1203.409240735742
 20
-55.68106312969167
 30
0.0
 10
1203.409230247924
 20
-54.19872006966523
 30
0.0
 10
1203.409221848912
 20
-52.67578312203466
 30
0.0
 10
1203.409215581876
 20
-51.11225218315212
 30
0.0
 10
1203.40920417879
 20
-46.99464784170049
 30
0.0
 10
1203.409229003423
 20
-38.75555133811668
 30
0.0
 10
1203.409258408311
 20
-24.82751247093256
 30
0.0
 10
1203.409341569669
 20
-0.3768230315589562
 30
0.0
 10
1203.409242426713
 20
30.6104464982908
 30
0.0
 10
1203.409248099349
 20
60.18956330249773
 30
0.0
 10
1203.408862037358
 20
83.75062243125057
 30
0.0
 10
1203.408889352153
 20
108.5142419129421
 30
0.0
 10
1203.408517775538
 20
144.4439286118662
 30
0.0
 10
1203.407474429607
 20
181.5893568347835
 30
0.0
 10
1203.407378892464
 20
206.3529755278471
 30
0.0
 10
1203.407345011619
 20
215.1350290311127
 30
0.0
  0
SPLINE
  5
1FE
330
1CB
100
AcDbEntity
  8
0
  6
Continuous
370
    15
100
AcDbSpline
210
0.0
220
0.0
230
1.0
 70
     8
 71
     3
 72
    41
 73
    37
 74
     0
 42
0.0000000001
 43
0.0000000001
 40
0.0
 40
0.0
 40
0.0
 40
0.0
 40
0.056238131803234
 40
0.1302359141233538
 40
0.2219931145941945
 40
0.3051802488031084
 40
0.3883352790920221
 40
0.5310256545583045
 40
0.7328722746186666
 40
0.8908418522041463
 40
0.910486214556391
 40
0.9377037208343601
 40
0.9457751960283385
 40
0.9492736713956031
 40
0.9530535385947866
 40
0.9570353364265651
 40
0.9592000580983201
 40
0.9616492810784496
 40
0.9688907329300548
 40
0.9728603733906552
 40
0.9746510613001962
 40
0.9765667795475193
 40
0.9805088753494695
 40
0.9822376798994781
 40
0.9843566607274961
 40
0.9864935489212315
 40
0.9883899736291503
 40
0.9903026688608152
 40
0.9922102630382225
 40
0.9931057754860905
 40
0.9937071725625081
 40
0.9942743044114878
 40
0.9951454125668492
 40
0.9961044615199304
 40
0.9979649925471727
 40
1.0
 40
1.0
 40
1.0
 40
1.0
 10
1203.509814301726
 20
388.7661654015341
 30
0.0
 10
1203.517334480926
 20
390.747350337005
 30
0.0
 10
1203.534749664914
 20
395.3353660275198
 30
0.0
 10
1203.56875867683
 20
403.1557977364704
 30
0.0
 10
1203.61172013673
 20
411.9255282835783
 30
0.0
 10
1203.661878089234
 20
421.017761145427
 30
0.0
 10
1203.727997000766
 20
431.9041428958446
 30
0.0
 10
1203.831286041467
 20
446.9703501340201
 30
0.0
 10
1203.973391407537
 20
464.6715774252547
 30
0.0
 10
1204.101500556175
 20
478.0378443500588
 30
0.0
 10
1204.17632882204
 20
485.2527270148047
 30
0.0
 10
1204.196454634123
 20
487.1876707021937
 30
0.0
 10
1204.211499009397
 20
488.5538723043272
 30
0.0
 10
1204.217014236853
 20
489.0945495558772
 30
0.0
 10
1204.221414631705
 20
489.491161911708
 30
0.0
 10
1204.225229331061
 20
489.8407982103123
 30
0.0
 10
1204.228486357872
 20
490.1435670844974
 30
0.0
 10
1204.232733655049
 20
490.561159006079
 30
0.0
 10
1204.237642756344
 20
491.0423247228233
 30
0.0
 10
1204.24422563317
 20
491.5002334429301
 30
0.0
 10
1204.245747249099
 20
491.7706450261627
 30
0.0
 10
1204.248617776769
 20
492.0400509512075
 30
0.0
 10
1204.25216250397
 20
492.3072522009609
 30
0.0
 10
1204.255229830473
 20
492.5816354555469
 30
0.0
 10
1204.257686935809
 20
492.7924323102148
 30
0.0
 10
1204.260226275985
 20
493.0091341458633
 30
0.0
 10
1204.262709171103
 20
493.2185677234384
 30
0.0
 10
1204.264935682434
 20
493.4199261140019
 30
0.0
 10
1204.266658618157
 20
493.5860266632618
 30
0.0
 10
1204.267688625478
 20
493.7059450553113
 30
0.0
 10
1204.268455604873
 20
493.7786439843868
 30
0.0
 10
1204.269272041085
 20
493.8504819844247
 30
0.0
 10
1204.270022821846
 20
493.9349243884282
 30
0.0
 10
1204.271402143999
 20
494.0649202956833
 30
0.0
 10
1204.273774814784
 20
494.2359009884627
 30
0.0
 10
1204.275210708281
 20
494.3731178029485
 30
0.0
 10
1204.27596081099
 20
494.4447990972189
 30
0.0
  0
SPLINE
  5
1FF
330
1CB
100
AcDbEntity
  8
0
  6
Continuous
370
    15
100
AcDbSpline
210
0.0
220
0.0
230
1.0
 70
     8
 71
     3
 72
     9
 73
     5
 74
     0
 42
0.0000000001
 43
0.0000000001
 40
0.0
 40
0.0
 40
0.0
 40
0.0
 40
0.4992750271681029
 40
1.0
 40
1.0
 40
1.0
 40
1.0
 10
1203.450671651585
 20
369.483983382942
 30
0.0
 10
1203.459064386578
 20
372.6930342089159
 30
0.0
 10
1203.475874229924
 20
379.1204552721637
 30
0.0
 10
1203.498490013905
 20
385.5478222474522
 30
0.0
 10
1203.509814301725
 20
388.7661654015341
 30
0.0
  0
SPLINE
  5
200
330
1CB
100
AcDbEntity
  8
0
  6
Continuous
370
     0
100
AcDbSpline
210
0.0
220
0.0
230
1.0
 70
    24
 71
     1
 72
     4
 73
     2
 74
     0
 42
0.0000000001
 43
0.0000000001
 40
0.0
 40
0.0
 40
1.0
 40
1.0
 10
1193.517696036102
 20
-91.79811500829103
 30
0.0
 10
592.4101446422472
 20
-84.39615674498417
 30
0.0
  0
SPLINE
  5
201
330
1CB
100
AcDbEntity
  8
0
  6
Continuous
370
    15
100
AcDbSpline
210
0.0
220
0.0
230
1.0
 70
     8
 71
     3
 72
    12
 73
     8
 74
     0
 42
0.0000000001
 43
0.0000000001
 40
0.0
 40
0.0
 40
0.0
 40
0.0
 40
0.4999999849154945
 40
0.6999999753535495
 40
0.8642018763220107
 40
0.9640590673138945
 40
1.0
 40
1.0
 40
1.0
 40
1.0
 10
27.42029516756691
 20
-69.64687258860886
 30
0.0
 10
32.28249500615118
 20
-69.64902596985132
 30
0.0
 10
39.08957474586055
 20
-69.65204070357572
 30
0.0
 10
47.49342053130862
 20
-69.65266479791921
 30
0.0
 10
52.0061165232811
 20
-69.65049253346433
 30
0.0
 10
54.9234365389517
 20
-69.64867999066746
 30
0.0
 10
56.24399154767946
 20
-69.64775700490088
 30
0.0
 10
56.59349548331215
 20
-69.64751272340129
 30
0.0
  0
SPLINE
  5
202
330
1CB
100
AcDbEntity
  8
0
  6
Continuous
370
    15
100
AcDbSpline
210
0.0
220
0.0
230
1.0
 70
     8
 71
     3
 72
    34
 73
    30
 74
     0
 42
0.0000000001
 43
0.0000000001
 40
0.0
 40
0.0
 40
0.0
 40
0.0
 40
0.0013020842871303
 40
0.0039062603691398
 40
0.0057209073594609
 40
0.0078125346065781
 40
0.0097656618316686
 40
0.011718761800175
 40
0.0156250744133674
 40
0.0190480771242206
 40
0.0234376169487028
 40
0.0273438599239652
 40
0.0312501140660644
 40
0.0390626148527239
 40
0.0468751194764088
 40
0.0546876179074597
 40
0.0625001171997515
 40
0.0781251134188032
 40
0.0859376103879371
 40
0.0937501126936058
 40
0.1093751075277079
 40
0.1250001071239377
 40
0.1406951708964163
 40
0.1562501096470929
 40
0.1875001039191441
 40
0.2500000938759
 40
0.5000000621290165
 40
0.8288378990460245
 40
1.0
 40
1.0
 40
1.0
 40
1.0
 10
-59.81770499716436
 20
-69.64752119217632
 30
0.0
 10
-59.7798413430545
 20
-69.64759302684831
 30
0.0
 10
-59.66625016240493
 20
-69.64780853127843
 30
0.0
 10
-59.49988908261696
 20
-69.64747855053417
 30
0.0
 10
-59.31057199981876
 20
-69.64795454323257
 30
0.0
 10
-59.14018570820577
 20
-69.64687032566939
 30
0.0
 10
-58.96577175723052
 20
-69.64745308448027
 30
0.0
 10
-58.73859221701639
 20
-69.64841892782636
 30
0.0
 10
-58.46866501591114
 20
-69.64921278712802
 30
0.0
 10
-58.12788990984699
 20
-69.64780559656685
 30
0.0
 10
-57.7871176516262
 20
-69.64784233578462
 30
0.0
 10
-57.43229074380952
 20
-69.64707357731959
 30
0.0
 10
-56.97792602443133
 20
-69.64726133469992
 30
0.0
 10
-56.40997052925001
 20
-69.64794683193315
 30
0.0
 10
-55.72842325404531
 20
-69.64793343372673
 30
0.0
 10
-55.04687636935035
 20
-69.64761795602123
 30
0.0
 10
-54.13814736540439
 20
-69.64722000317999
 30
0.0
 10
-53.22941825609404
 20
-69.64728667452061
 30
0.0
 10
-52.32068912127124
 20
-69.64738401996749
 30
0.0
 10
-51.4119600094931
 20
-69.64744756778237
 30
0.0
 10
-50.27604851756212
 20
-69.64746583193516
 30
0.0
 10
-48.91091728172523
 20
-69.64719308855922
 30
0.0
 10
-47.54782354746555
 20
-69.6481081658103
 30
0.0
 10
-45.73036537980692
 20
-69.6470142267276
 30
0.0
 10
-42.55185049862245
 20
-69.64769579854658
 30
0.0
 10
-32.55582997112901
 20
-69.64697979962977
 30
0.0
 10
-13.90615190126095
 20
-69.64748950029264
 30
0.0
 10
7.903348064090209
 20
-69.64783586518672
 30
0.0
 10
22.44301475360419
 20
-69.64711824678579
 30
0.0
 10
27.42029516756691
 20
-69.64687258860886
 30
0.0
  0
SPLINE
  5
203
330
1CB
100
AcDbEntity
  8
0
  6
Continuous
370
    15
100
AcDbSpline
210
0.0
220
0.0
230
1.0
 70
     8
 71
     3
 72
     8
 73
     4
 74
     0
 42
0.0000000001
 43
0.0000000001
 40
0.0
 40
0.0
 40
0.0
 40
0.0
 40
1.0
 40
1.0
 40
1.0
 40
1.0
 10
592.4101446422472
 20
-84.39615674498417
 30
0.0
 10
575.6237980671434
 20
-84.18919564245744
 30
0.0
 10
558.8374514920396
 20
-83.98223454581147
 30
0.0
 10
542.0511049169355
 20
-83.77527345544535
 30
0.0
  0
SPLINE
  5
204
330
1CB
100
AcDbEntity
  8
0
  6
Continuous
370
    15
100
AcDbSpline
210
0.0
220
0.0
230
1.0
 70
     8
 71
     3
 72
    13
 73
     9
 74
     0
 42
0.0000000001
 43
0.0000000001
 40
0.0
 40
0.0
 40
0.0
 40
0.0
 40
0.2500000416079842
 40
0.5000000025109128
 40
0.625266486240567
 40
0.7503553123772111
 40
0.8752664829508097
 40
0.9999999999999998
 40
0.9999999999999998
 40
0.9999999999999998
 40
0.9999999999999998
 10
542.0511049169355
 20
-83.77527345544535
 30
0.0
 10
504.3789848646378
 20
-83.30852250251188
 30
0.0
 10
429.0347569213621
 20
-82.37502074732152
 30
0.0
 10
334.814626886957
 20
-81.19942226261548
 30
0.0
 10
259.4170790268484
 20
-80.25956846769792
 30
0.0
 10
202.8687182817592
 20
-79.55986021883337
 30
0.0
 10
146.4005354421707
 20
-78.8647191884894
 30
0.0
 10
108.7817187371967
 20
-78.40516743234275
 30
0.0
 10
89.98569563923968
 20
-78.17555506864244
 30
0.0
  0
SPLINE
  5
205
330
1CB
100
AcDbEntity
  8
0
  6
Continuous
370
    15
100
AcDbSpline
210
0.0
220
0.0
230
1.0
 70
     8
 71
     3
 72
     8
 73
     4
 74
     0
 42
0.0000000001
 43
0.0000000001
 40
0.0
 40
0.0
 40
0.0
 40
0.0
 40
1.0
 40
1.0
 40
1.0
 40
1.0
 10
89.98569563923968
 20
-78.17555506864244
 30
0.0
 10
81.59219611863603
 20
-78.07391893108763
 30
0.0
 10
73.19869659803214
 20
-77.97228279591513
 30
0.0
 10
64.80519707742849
 20
-77.87064666317178
 30
0.0
  0
SPLINE
  5
206
330
1CB
100
AcDbEntity
  8
0
  6
Continuous
370
    15
100
AcDbSpline
210
0.0
220
0.0
230
1.0
 70
     8
 71
     3
 72
     8
 73
     4
 74
     0
 42
0.0000000001
 43
0.0000000001
 40
0.0
 40
0.0
 40
0.0
 40
0.0
 40
1.0
 40
1.0
 40
1.0
 40
1.0
 10
56.578295249711
 20
-69.64483348949613
 30
0.0
 10
59.32025713108908
 20
-72.38681920074203
 30
0.0
 10
62.06222327685214
 20
-75.12879923629578
 30
0.0
 10
64.80419524519641
 20
-77.87078077516753
 30
0.0
  0
SPLINE
  5
207
330
1CB
100
AcDbEntity
  8
0
  6
Continuous
370
    15
100
AcDbSpline
210
0.0
220
0.0
230
1.0
 70
     8
 71
     3
 72
     8
 73
     4
 74
     0
 42
0.0000000001
 43
0.0000000001
 40
0.0
 40
0.0
 40
0.0
 40
0.0
 40
1.0
 40
1.0
 40
1.0
 40
1.0
 10
1095.838949841725
 20
503.584111922787
 30
0.0
 10
1092.346739817023
 20
503.5655057415441
 30
0.0
 10
1088.854515035409
 20
503.5479400329758
 30
0.0
 10
1085.362277554856
 20
503.5313906239274
 30
0.0
  0
SPLINE
  5
208
330
1CB
100
AcDbEntity
  8
0
  6
Continuous
370
    15
100
AcDbSpline
210
0.0
220
0.0
230
1.0
 70
     8
 71
     3
 72
    43
 73
    39
 74
     0
 42
0.0000000001
 43
0.0000000001
 40
0.0
 40
0.0
 40
0.0
 40
0.0
 40
0.0021611999420835
 40
0.0040771583870404
 40
0.0079519825017189
 40
0.0098357717482215
 40
0.0117116840226185
 40
0.0156227002957336
 40
0.0192384529870756
 40
0.0216161555683938
 40
0.023539493085774
 40
0.0272815570820868
 40
0.0312236959528662
 40
0.038858406403466
 40
0.0469119797857353
 40
0.048792637426598
 40
0.0507391578278223
 40
0.0545296171566416
 40
0.0624302836531619
 40
0.0695450979038024
 40
0.0742976525838079
 40
0.0786341825039903
 40
0.0857312117857732
 40
0.0935909426553028
 40
0.1021849716374551
 40
0.10546422502032
 40
0.1079056830130309
 40
0.1243404877716097
 40
0.1522671593157221
 40
0.1783127600010202
 40
0.2267977057271672
 40
0.3220020548667842
 40
0.5000887035194055
 40
0.6250353171555807
 40
0.6851059924555861
 40
0.7414732345921507
 40
0.8442784350360701
 40
1.0
 40
1.0
 40
1.0
 40
1.0
 10
1194.461993915922
 20
504.2920203668692
 30
0.0
 10
1194.390946826144
 20
504.2911780222389
 30
0.0
 10
1194.256914693196
 20
504.2895889177755
 30
0.0
 10
1193.995550441804
 20
504.2831766696086
 30
0.0
 10
1193.743335266511
 20
504.2760524310048
 30
0.0
 10
1193.492410511855
 20
504.2698005887081
 30
0.0
 10
1193.240258007581
 20
504.2656221162113
 30
0.0
 10
1192.931151159754
 20
504.2634888059097
 30
0.0
 10
1192.60558670046
 20
504.266093327307
 30
0.0
 10
1192.345430221859
 20
504.2683110741569
 30
0.0
 10
1192.081096802783
 20
504.2712824642732
 30
0.0
 10
1191.765308567555
 20
504.2728977079478
 30
0.0
 10
1191.261731278323
 20
504.2716919536477
 30
0.0
 10
1190.616415477576
 20
504.2646445533274
 30
0.0
 10
1190.03885197578
 20
504.2573511295734
 30
0.0
 10
1189.648327036187
 20
504.251001049411
 30
0.0
 10
1189.397905502478
 20
504.2479705732488
 30
0.0
 10
1188.949591935185
 20
504.2426139759278
 30
0.0
 10
1188.331378731758
 20
504.236516810684
 30
0.0
 10
1187.681528397553
 20
504.2318177511798
 30
0.0
 10
1187.148856294451
 20
504.2278631250082
 30
0.0
 10
1186.616770757942
 20
504.2238108756199
 30
0.0
 10
1185.982523572776
 20
504.2192283683274
 30
0.0
 10
1185.208333087716
 20
504.2123768082429
 30
0.0
 10
1184.559627531636
 20
504.2070824455354
 30
0.0
 10
1184.089059653343
 20
504.2026153643731
 30
0.0
 10
1183.360739739966
 20
504.195849502146
 30
0.0
 10
1181.822141045995
 20
504.1837136719601
 30
0.0
 10
1179.507624333829
 20
504.1638067600171
 30
0.0
 10
1176.139459537793
 20
504.1364656995832
 30
0.0
 10
1170.559640141169
 20
504.0907288329245
 30
0.0
 10
1159.981570731684
 20
504.0075871825903
 30
0.0
 10
1146.889795838449
 20
503.9090912597129
 30
0.0
 10
1134.952878755294
 20
503.8253851203952
 30
0.0
 10
1127.017382321908
 20
503.7728113754277
 30
0.0
 10
1119.809765616268
 20
503.7259432489191
 30
0.0
 10
1109.457596522286
 20
503.6600399749795
 30
0.0
 10
1100.958383809955
 20
503.6126543072583
 30
0.0
 10
1095.838949841725
 20
503.584111922787
 30
0.0
  0
SPLINE
  5
209
330
1CB
100
AcDbEntity
  8
0
  6
Continuous
370
    15
100
AcDbSpline
210
0.0
220
0.0
230
1.0
 70
     8
 71
     3
 72
    29
 73
    25
 74
     0
 42
0.0000000001
 43
0.0000000001
 40
0.0
 40
0.0
 40
0.0
 40
0.0
 40
0.4560800762422891
 40
0.7443366582088342
 40
0.8773344815045806
 40
0.8965601685867603
 40
0.9323124229415194
 40
0.9391591781234188
 40
0.9445932819032323
 40
0.9493463603355897
 40
0.9561863783378319
 40
0.9612469843101493
 40
0.9641862368386846
 40
0.9669031743885168
 40
0.9749708252935203
 40
0.9796686586225693
 40
0.9835536038001874
 40
0.9882423104801867
 40
0.9897448377209324
 40
0.9918527667234709
 40
0.9943799164024817
 40
0.9958435094364592
 40
0.9979563380745947
 40
1.0
 40
1.0
 40
1.0
 40
1.0
 10
56.0990938796765
 20
503.3205651307724
 30
0.0
 10
35.11355485331944
 20
503.3205599903052
 30
0.0
 10
0.8645121889531992
 20
503.3205516009052
 30
0.0
 10
-39.50413784082286
 20
503.3198676922221
 30
0.0
 10
-59.77187732417246
 20
503.3192108157542
 30
0.0
 10
-68.42117585302094
 20
503.3190741384095
 30
0.0
 10
-71.26590570526662
 20
503.3192730985732
 30
0.0
 10
-73.47604552274117
 20
503.318728533179
 30
0.0
 10
-74.25982530783267
 20
503.3190010963771
 30
0.0
 10
-75.04329516394455
 20
503.3190691394109
 30
0.0
 10
-75.80957898374868
 20
503.3197041184973
 30
0.0
 10
-76.49240374534008
 20
503.3190088886715
 30
0.0
 10
-76.98551345123894
 20
503.3183229466832
 30
0.0
 10
-77.61698622983203
 20
503.3179740372657
 30
0.0
 10
-78.32937712584953
 20
503.3181192568276
 30
0.0
 10
-79.09550821142352
 20
503.3198220258764
 30
0.0
 10
-79.70616454025912
 20
503.3210493397216
 30
0.0
 10
-80.16979838048156
 20
503.3218718824892
 30
0.0
 10
-80.55166635835485
 20
503.3212361503354
 30
0.0
 10
-80.83407152157816
 20
503.3199845460869
 30
0.0
 10
-81.1146809117198
 20
503.3175033254231
 30
0.0
 10
-81.39552171725176
 20
503.317676754296
 30
0.0
 10
-81.65411780734245
 20
503.3181025674001
 30
0.0
 10
-81.84536884210968
 20
503.3185505646423
 30
0.0
 10
-81.93940308854246
 20
503.3187708357803
 30
0.0
  0
SPLINE
  5
20A
330
1CB
100
AcDbEntity
  8
0
  6
Continuous
370
    15
100
AcDbSpline
210
0.0
220
0.0
230
1.0
 70
     8
 71
     3
 72
    13
 73
     9
 74
     0
 42
0.0000000001
 43
0.0000000001
 40
0.0
 40
0.0
 40
0.0
 40
0.0
 40
0.1134776357113521
 40
0.1858634629196187
 40
0.2574740179209503
 40
0.4866180529946547
 40
0.7515195525747134
 40
1.0
 40
1.0
 40
1.0
 40
1.0
 10
424.9041955340222
 20
503.3149042209875
 30
0.0
 10
410.9538187062275
 20
503.3134617715502
 30
0.0
 10
388.1046878621301
 20
503.3110992034035
 30
0.0
 10
356.4521106421493
 20
503.3100843644935
 30
0.0
 10
310.5800806086946
 20
503.3103008988367
 30
0.0
 10
241.0411303945201
 20
503.3161749303075
 30
0.0
 10
149.7586734433961
 20
503.3193115601682
 30
0.0
 10
86.64604619781755
 20
503.3201562803201
 30
0.0
 10
56.0990938796765
 20
503.3205651307724
 30
0.0
  0
SPLINE
  5
20B
330
1CB
100
AcDbEntity
  8
0
  6
Continuous
370
    15
100
AcDbSpline
210
0.0
220
0.0
230
1.0
 70
     8
 71
     3
 72
     8
 73
     4
 74
     0
 42
0.0000000001
 43
0.0000000001
 40
0.0
 40
0.0
 40
0.0
 40
0.0
 40
1.0
 40
1.0
 40
1.0
 40
1.0
 10
458.4504941571623
 20
503.319845108543
 30
0.0
 10
447.26838648606
 20
503.3179268184735
 30
0.0
 10
436.086287153613
 20
503.3162001919948
 30
0.0
 10
424.9041955340222
 20
503.3149042209875
 30
0.0
  0
SPLINE
  5
20C
330
1CB
100
AcDbEntity
  8
0
  6
Continuous
370
    15
100
AcDbSpline
210
0.0
220
0.0
230
1.0
 70
     8
 71
     3
 72
    21
 73
    17
 74
     0
 42
0.0000000001
 43
0.0000000001
 40
0.0
 40
0.0
 40
0.0
 40
0.0
 40
0.0948600933724237
 40
0.2437334635158797
 40
0.3842690710191532
 40
0.4397346802961434
 40
0.4708389851064333
 40
0.495868756380807
 40
0.5452736243543946
 40
0.601251203387298
 40
0.683045794389985
 40
0.7382214609043701
 40
0.8104327259674237
 40
0.8576143968258225
 40
0.9420371482098614
 40
1.0
 40
1.0
 40
1.0
 40
1.0
 10
928.2065963950792
 20
503.2709757694996
 30
0.0
 10
913.3528928916465
 20
503.2714118949903
 30
0.0
 10
875.1877965669354
 20
503.2725324755485
 30
0.0
 10
815.0168809538385
 20
503.282505080347
 30
0.0
 10
761.0145695814694
 20
503.297296813413
 30
0.0
 10
725.4531725341657
 20
503.309850665832
 30
0.0
 10
707.9782977575661
 20
503.3166742348968
 30
0.0
 10
691.4524452459892
 20
503.3222543717823
 30
0.0
 10
671.0318010563236
 20
503.3277631499087
 30
0.0
 10
641.7226156482676
 20
503.3335500022969
 30
0.0
 10
611.5098062705045
 20
503.3369020439148
 30
0.0
 10
578.7550385144353
 20
503.3372736527365
 30
0.0
 10
551.4201484081801
 20
503.3343626667699
 30
0.0
 10
519.5055929682386
 20
503.3302386709592
 30
0.0
 10
489.8221311357345
 20
503.3252136882635
 30
0.0
 10
467.5266287593825
 20
503.3213982934214
 30
0.0
 10
458.4504941571623
 20
503.319845108543
 30
0.0
  0
SPLINE
  5
20D
330
1CB
100
AcDbEntity
  8
0
  6
Continuous
370
    15
100
AcDbSpline
210
0.0
220
0.0
230
1.0
 70
     8
 71
     3
 72
    20
 73
    16
 74
     0
 42
0.0000000001
 43
0.0000000001
 40
0.0
 40
0.0
 40
0.0
 40
0.0
 40
0.0636062250344119
 40
0.1242286139817276
 40
0.184803990988447
 40
0.2474929839685521
 40
0.3710115423604149
 40
0.4297396778378752
 40
0.4966304629231361
 40
0.5695099240898029
 40
0.5976370365804048
 40
0.726538028388212
 40
0.8163084129171052
 40
0.8853581655784081
 40
1.0
 40
1.0
 40
1.0
 40
1.0
 10
1085.362277554856
 20
503.5313906239274
 30
0.0
 10
1082.030332027056
 20
503.5162680949365
 30
0.0
 10
1075.522746101979
 20
503.4867324509735
 30
0.0
 10
1065.841892045425
 20
503.449807587728
 30
0.0
 10
1056.20903666588
 20
503.4178192599068
 30
0.0
 10
1043.28133076566
 20
503.3805035002679
 30
0.0
 10
1030.450332152265
 20
503.3506169531932
 30
0.0
 10
1017.399177583994
 20
503.3280012432718
 30
0.0
 10
1007.000749950142
 20
503.3143271820089
 30
0.0
 10
998.2053651189165
 20
503.304411659651
 30
0.0
 10
986.1615412979579
 20
503.2921132920786
 30
0.0
 10
973.2328683788468
 20
503.2819825318859
 30
0.0
 10
958.1604330338942
 20
503.2747079974511
 30
0.0
 10
943.8349683428
 20
503.2705821138548
 30
0.0
 10
934.2121763937074
 20
503.2708244977949
 30
0.0
 10
928.2065963950792
 20
503.2709757694996
 30
0.0
  0
SPLINE
  5
20E
330
1CB
100
AcDbEntity
  8
0
  6
Continuous
370
    15
100
AcDbSpline
210
0.0
220
0.0
230
1.0
 70
     8
 71
     3
 72
     8
 73
     4
 74
     0
 42
0.0000000001
 43
0.0000000001
 40
0.0
 40
0.0
 40
0.0
 40
0.0
 40
1.0
 40
1.0
 40
1.0
 40
1.0
 10
-82.29731482485261
 20
205.4258213018142
 30
0.0
 10
-82.39805812147313
 20
208.640023115318
 30
0.0
 10
-82.49880141585936
 20
211.8542249288221
 30
0.0
 10
-82.59954470793799
 20
215.068426742326
 30
0.0
  0
SPLINE
  5
20F
330
1CB
100
AcDbEntity
  8
0
  6
Continuous
370
    15
100
AcDbSpline
210
0.0
220
0.0
230
1.0
 70
     8
 71
     3
 72
    14
 73
    10
 74
     0
 42
0.0000000001
 43
0.0000000001
 40
0.0
 40
0.0
 40
0.0
 40
0.0
 40
0.0625000017466349
 40
0.1249999906774711
 40
0.1874999841950624
 40
0.2499999877073304
 40
0.4999999970261068
 40
0.7499993689111326
 40
1.0
 40
1.0
 40
1.0
 40
1.0
 10
-82.59954470793799
 20
215.068426742326
 30
0.0
 10
-82.78310752688629
 20
220.865793538653
 30
0.0
 10
-83.15023312714243
 20
232.460525942541
 30
0.0
 10
-83.70774401284178
 20
249.8519647643028
 30
0.0
 10
-84.27090296146706
 20
267.2428496949301
 30
0.0
 10
-85.40426788341836
 20
302.0239259470453
 30
0.0
 10
-87.09880507549826
 20
354.1960270583912
 30
0.0
 10
-89.35523923259939
 20
423.7591966795836
 30
0.0
 10
-90.85494954275123
 20
470.1350932686742
 30
0.0
 10
-91.60480658626818
 20
493.3230999599263
 30
0.0
  0
SPLINE
  5
210
330
1CB
100
AcDbEntity
  8
0
  6
Continuous
370
    15
100
AcDbSpline
210
0.0
220
0.0
230
1.0
 70
     8
 71
     3
 72
    38
 73
    34
 74
     0
 42
0.0000000001
 43
0.0000000001
 40
0.0
 40
0.0
 40
0.0
 40
0.0
 40
0.4999997898554306
 40
0.7499996836066991
 40
0.8124996563253583
 40
0.8437496441743371
 40
0.8593746396005414
 40
0.8749996303429936
 40
0.8906246236302528
 40
0.9062496174472713
 40
0.9140621125948879
 40
0.9218746126700271
 40
0.9303293109006538
 40
0.937499604137783
 40
0.9407027561042113
 40
0.9453121101057904
 40
0.9531246080548953
 40
0.9609371053734335
 40
0.9648538167896429
 40
0.9687496063065836
 40
0.9726558382698334
 40
0.9765620187292414
 40
0.9804682228352167
 40
0.9843747094915675
 40
0.9882813771076992
 40
0.9902344421450832
 40
0.9912256437402495
 40
0.9921874796353348
 40
0.9931258656983331
 40
0.9941406220184887
 40
0.9960937480550928
 40
0.9980468692559069
 40
0.9999999999999998
 40
0.9999999999999998
 40
0.9999999999999998
 40
0.9999999999999998
 10
-69.64750476588051
 20
56.54290000088633
 30
0.0
 10
-69.64750534601671
 20
37.14971664023347
 30
0.0
 10
-69.64750621622091
 20
8.059941644884474
 30
0.0
 10
-69.64750886932472
 20
-23.45398123147447
 30
0.0
 10
-69.64750114432888
 20
-36.78679474497392
 30
0.0
 10
-69.64750647844891
 20
-41.02905368142285
 30
0.0
 10
-69.64750503204744
 20
-43.45320161232246
 30
0.0
 10
-69.64749775352004
 20
-45.27131252050355
 30
0.0
 10
-69.6475107205041
 20
-47.08942336237533
 30
0.0
 10
-69.64752598776271
 20
-48.60451577018205
 30
0.0
 10
-69.64749890830194
 20
-49.81658979546193
 30
0.0
 10
-69.64746706633298
 20
-50.75055406688068
 30
0.0
 10
-69.64753806995645
 20
-51.6596093673312
 30
0.0
 10
-69.64779289632531
 20
-52.38988548196903
 30
0.0
 10
-69.64691957188938
 20
-52.97101297375149
 30
0.0
 10
-69.64792067785674
 20
-53.5770500599815
 30
0.0
 10
-69.64773081563624
 20
-54.36186734585795
 30
0.0
 10
-69.64743635879393
 20
-55.11981964578933
 30
0.0
 10
-69.64807735619138
 20
-55.72585637596353
 30
0.0
 10
-69.6472353391374
 20
-56.1803832710142
 30
0.0
 10
-69.6480050514034
 20
-56.63450219678918
 30
0.0
 10
-69.64963497340057
 20
-57.0890206905732
 30
0.0
 10
-69.65188541516477
 20
-57.5435446788747
 30
0.0
 10
-69.65324118727585
 20
-57.99809414106312
 30
0.0
 10
-69.65239817663462
 20
-58.37689388776801
 30
0.0
 10
-69.64920133050907
 20
-58.64259947156336
 30
0.0
 10
-69.64896107961545
 20
-58.79409275187788
 30
0.0
 10
-69.6477530853607
 20
-58.90623656292746
 30
0.0
 10
-69.64690682410287
 20
-59.01929585761536
 30
0.0
 10
-69.64778610990459
 20
-59.17080341749431
 30
0.0
 10
-69.64754174623556
 20
-59.3616724339912
 30
0.0
 10
-69.64780675306951
 20
-59.58893613166219
 30
0.0
 10
-69.64769010464533
 20
-59.74044553921863
 30
0.0
 10
-69.64763178029068
 20
-59.81620042807151
 30
0.0
  0
SPLINE
  5
211
330
1CB
100
AcDbEntity
  8
0
  6
Continuous
370
    15
100
AcDbSpline
210
0.0
220
0.0
230
1.0
 70
     8
 71
     3
 72
     8
 73
     4
 74
     0
 42
0.0000000001
 43
0.0000000001
 40
0.0
 40
0.0
 40
0.0
 40
0.0
 40
1.0
 40
1.0
 40
1.0
 40
1.0
 10
-77.77731792371503
 20
64.71069998910548
 30
0.0
 10
-75.06739527239734
 20
62.00079989483857
 30
0.0
 10
-72.35746741961759
 20
59.29090105009186
 30
0.0
 10
-69.6475372726045
 20
56.58100000055004
 30
0.0
  0
SPLINE
  5
212
330
1CB
100
AcDbEntity
  8
0
  6
Continuous
370
    15
100
AcDbSpline
210
0.0
220
0.0
230
1.0
 70
     8
 71
     3
 72
    25
 73
    21
 74
     0
 42
0.0000000001
 43
0.0000000001
 40
0.0
 40
0.0
 40
0.0
 40
0.0
 40
0.0357147321696926
 40
0.0714290043067359
 40
0.1071429770797351
 40
0.1428568111613378
 40
0.1785706672260621
 40
0.2142847059481304
 40
0.2499990879993003
 40
0.3067759728794789
 40
0.3750001817980842
 40
0.4062597880012111
 40
0.4375003127730811
 40
0.4640802580697506
 40
0.5000002670224438
 40
0.6250000000926516
 40
0.6787566480668336
 40
0.7500000167280057
 40
0.8749989408090204
 40
1.0
 40
1.0
 40
1.0
 40
1.0
 10
-77.77728533909623
 20
64.7106998345979
 30
0.0
 10
-77.82004645767813
 20
66.38688269643876
 30
0.0
 10
-77.90556814404647
 20
69.73922682962257
 30
0.0
 10
-78.04160557613158
 20
74.76710243996831
 30
0.0
 10
-78.18332167737321
 20
79.79445615435747
 30
0.0
 10
-78.3312613678728
 20
84.82124660295609
 30
0.0
 10
-78.48532014641944
 20
89.84748064636063
 30
0.0
 10
-78.64537110075684
 20
94.87317220985142
 30
0.0
 10
-78.84478712053646
 20
100.8860793364092
 30
0.0
 10
-79.10308423389938
 20
108.4228794291144
 30
0.0
 10
-79.35813524886714
 20
115.7503576920052
 30
0.0
 10
-79.57303760740979
 20
121.8802057040476
 30
0.0
 10
-79.7206472291208
 20
126.0571707443722
 30
0.0
 10
-79.87397421082096
 20
130.4528765670987
 30
0.0
 10
-80.17592171689955
 20
139.2456638397937
 30
0.0
 10
-80.51380190994576
 20
149.3137223830288
 30
0.0
 10
-80.89365986954636
 20
161.0397537965222
 30
0.0
 10
-81.26976520901292
 20
172.7661134914804
 30
0.0
 10
-81.74871788600786
 20
187.8346609292837
 30
0.0
 10
-82.11444813740513
 20
199.5620677918974
 30
0.0
 10
-82.29731482485261
 20
205.4258213018142
 30
0.0
  0
SPLINE
  5
213
330
1CB
100
AcDbEntity
  8
0
  6
Continuous
370
    15
100
AcDbSpline
210
0.0
220
0.0
230
1.0
 70
    24
 71
     3
 72
     8
 73
     4
 74
     0
 42
0.0000000001
 43
0.0000000001
 40
0.0059288430000001
 40
0.0059288430000001
 40
0.0059288430000001
 40
0.0059288430000001
 40
0.9940711569999999
 40
0.9940711569999999
 40
0.9940711569999999
 40
0.9940711569999999
 10
-86.81820412933655
 20
-96.64789999911363
 30
0.0
 10
341.5770621129674
 20
-96.64789999911363
 30
0.0
 10
769.9723283552713
 20
-96.64789999911363
 30
0.0
 10
1198.367594597575
 20
-96.64789999911363
 30
0.0
  0
SPLINE
  5
214
330
1CB
100
AcDbEntity
  8
0
  6
Continuous
370
    15
100
AcDbSpline
210
0.0
220
0.0
230
1.0
 70
    24
 71
     3
 72
     8
 73
     4
 74
     0
 42
0.0000000001
 43
0.0000000001
 40
0.0
 40
0.0
 40
0.0
 40
0.0
 40
1.0
 40
1.0
 40
1.0
 40
1.0
 10
1198.366195666783
 20
508.1975000013709
 30
0.0
 10
769.9713955225619
 20
508.1975000013709
 30
0.0
 10
341.5765953783407
 20
508.1975000013709
 30
0.0
 10
-86.81820476588052
 20
508.1975000013709
 30
0.0
  0
SPLINE
  5
215
330
1CB
100
AcDbEntity
  8
0
  6
Continuous
370
    15
100
AcDbSpline
210
0.0
220
0.0
230
1.0
 70
    24
 71
     3
 72
     8
 73
     4
 74
     0
 42
0.0000000001
 43
0.0000000001
 40
0.0059311929999999
 40
0.0059311929999999
 40
0.0059311929999999
 40
0.0059311929999999
 40
0.9940688069999998
 40
0.9940688069999998
 40
0.9940688069999998
 40
0.9940688069999998
 10
-96.64800476588062
 20
498.3663000567422
 30
0.0
 10
-96.64800476588062
 20
303.3053000195049
 30
0.0
 10
-96.64800476588062
 20
108.2442999822674
 30
0.0
 10
-96.64800476588062
 20
-86.81670005497005
 30
0.0
  0
SPLINE
  5
216
330
1CB
100
AcDbEntity
  8
0
  6
Continuous
370
    15
100
AcDbSpline
210
0.0
220
0.0
230
1.0
 70
    24
 71
     3
 72
     8
 73
     4
 74
     0
 42
0.0000000001
 43
0.0000000001
 40
0.0
 40
0.0
 40
0.0
 40
0.0
 40
1.0
 40
1.0
 40
1.0
 40
1.0
 10
1208.197395235171
 20
-86.81670023468029
 30
0.0
 10
1208.197395235171
 20
108.244299922364
 30
0.0
 10
1208.197395235171
 20
303.3053000794083
 30
0.0
 10
1208.197395235171
 20
498.3663002364527
 30
0.0
  0
SPLINE
  5
217
330
1CB
100
AcDbEntity
  8
0
  6
Continuous
370
     0
100
AcDbSpline
210
0.0
220
0.0
230
1.0
 70
     8
 71
     3
 72
     8
 73
     4
 74
     0
 42
0.0000000001
 43
0.0000000001
 40
0.0
 40
0.0
 40
0.0
 40
0.0
 40
1.0
 40
1.0
 40
1.0
 40
1.0
 10
1198.367595234119
 20
508.1975000008863
 30
0.0
 10
1199.224698430502
 20
508.2776896155804
 30
0.0
 10
1200.046678007635
 20
508.2762242269678
 30
0.0
 10
1200.822188742146
 20
508.1933661084409
 30
0.0
  0
SPLINE
  5
218
330
1CB
100
AcDbEntity
  8
0
  6
Continuous
370
     0
100
AcDbSpline
210
0.0
220
0.0
230
1.0
 70
     8
 71
     3
 72
     8
 73
     4
 74
     0
 42
0.0000000001
 43
0.0000000001
 40
0.0
 40
0.0
 40
0.0
 40
0.0
 40
1.0
 40
1.0
 40
1.0
 40
1.0
 10
-89.27279827873837
 20
508.1933661077247
 30
0.0
 10
-88.4972875408364
 20
508.2762242269506
 30
0.0
 10
-87.6753079627781
 20
508.2776896160537
 30
0.0
 10
-86.81820476588063
 20
508.1975000008863
 30
0.0
  0
SPLINE
  5
219
330
1CB
100
AcDbEntity
  8
0
  6
Continuous
370
     0
100
AcDbSpline
210
0.0
220
0.0
230
1.0
 70
     8
 71
     3
 72
    10
 73
     6
 74
     0
 42
0.0000000001
 43
0.0000000001
 40
0.0
 40
0.0
 40
0.0
 40
0.0
 40
0.752328481507589
 40
0.93215043853695
 40
1.0
 40
1.0
 40
1.0
 40
1.0
 10
1200.821697212679
 20
508.1906418818299
 30
0.0
 10
1200.610251183255
 20
508.2049829987433
 30
0.0
 10
1200.348265210504
 20
508.2227519371106
 30
0.0
 10
1200.057650630175
 20
508.2684956376807
 30
0.0
 10
1199.990816328767
 20
508.2447512025208
 30
0.0
 10
1199.972507085666
 20
508.2382464194007
 30
0.0
  0
SPLINE
  5
21A
330
1CB
100
AcDbEntity
  8
0
  6
Continuous
370
    15
100
AcDbSpline
210
0.0
220
0.0
230
1.0
 70
     8
 71
     3
 72
    26
 73
    22
 74
     0
 42
0.0000000001
 43
0.0000000001
 40
0.0
 40
0.0
 40
0.0
 40
0.0
 40
0.015692693231971
 40
0.0313542493995369
 40
0.0626052705217328
 40
0.0938016299193147
 40
0.1249896943343105
 40
0.1875135066966725
 40
0.2501461953584796
 40
0.3751647263916373
 40
0.4998248830014261
 40
0.5624428777169697
 40
0.5937844150072206
 40
0.6251622352327381
 40
0.6707522751880127
 40
0.7499967761019047
 40
0.8159322760076758
 40
0.875122145559991
 40
0.9230439211789434
 40
0.96468560816073
 40
1.0
 40
1.0
 40
1.0
 40
1.0
 10
1204.27596081099
 20
494.4447990972189
 30
0.0
 10
1204.264610180813
 20
494.5211368488021
 30
0.0
 10
1204.241931442108
 20
494.6736608844381
 30
0.0
 10
1204.1898653403
 20
494.9776232466588
 30
0.0
 10
1204.115142194287
 20
495.3558121706733
 30
0.0
 10
1204.009063480203
 20
495.8067650212175
 30
0.0
 10
1203.845543321847
 20
496.4040791645288
 30
0.0
 10
1203.6007605039
 20
497.1431953631658
 30
0.0
 10
1203.113947195773
 20
498.2936431984677
 30
0.0
 10
1202.315417805591
 20
499.646567670997
 30
0.0
 10
1201.296750974447
 20
500.847263958181
 30
0.0
 10
1200.486572706969
 20
501.5880145066841
 30
0.0
 10
1199.997883015107
 20
501.983179655754
 30
0.0
 10
1199.562313259687
 20
502.3070641944208
 30
0.0
 10
1198.910678754826
 20
502.740268929353
 30
0.0
 10
1198.073389763106
 20
503.2007727875297
 30
0.0
 10
1197.135735504799
 20
503.6029235402323
 30
0.0
 10
1196.321237433046
 20
503.8816848266925
 30
0.0
 10
1195.610015033973
 20
504.0746513412649
 30
0.0
 10
1195.007239977543
 20
504.2056711744136
 30
0.0
 10
1194.633499681914
 20
504.2648594473554
 30
0.0
 10
1194.461993915922
 20
504.2920203668692
 30
0.0
  0
SPLINE
  5
21B
330
1CB
100
AcDbEntity
  8
0
  6
Continuous
370
    15
100
AcDbSpline
210
0.0
220
0.0
230
1.0
 70
     8
 71
     3
 72
    14
 73
    10
 74
     0
 42
0.0000000001
 43
0.0000000001
 40
0.0
 40
0.0
 40
0.0
 40
0.0
 40
0.144870116985424
 40
0.2889768651909358
 40
0.4323750554371234
 40
0.5751200886292674
 40
0.71726799209811
 40
0.8588754742950833
 40
1.0
 40
1.0
 40
1.0
 40
1.0
 10
1208.197773224779
 20
498.3667000062572
 30
0.0
 10
1208.208016231208
 20
498.4848294306019
 30
0.0
 10
1208.228448270263
 20
498.7204658161057
 30
0.0
 10
1208.24718983509
 20
499.0742143503685
 30
0.0
 10
1208.256924512673
 20
499.4267463846328
 30
0.0
 10
1208.256785621936
 20
499.7780172759741
 30
0.0
 10
1208.246632414201
 20
500.1278137582407
 30
0.0
 10
1208.227246678217
 20
500.4760592695419
 30
0.0
 10
1208.20573758363
 20
500.7072136375358
 30
0.0
 10
1208.195001407014
 20
500.8225933951722
 30
0.0
  0
SPLINE
  5
21C
330
1CB
100
AcDbEntity
  8
0
  6
Continuous
370
    15
100
AcDbSpline
210
0.0
220
0.0
230
1.0
 70
     8
 71
     3
 72
     9
 73
     5
 74
     0
 42
0.0000000001
 43
0.0000000001
 40
0.0
 40
0.0
 40
0.0
 40
0.0
 40
0.5006077250681275
 40
1.0
 40
1.0
 40
1.0
 40
1.0
 10
1208.195001407014
 20
500.8225933951722
 30
0.0
 10
1208.186516720824
 20
500.8990176611447
 30
0.0
 10
1208.169567948833
 20
501.0516806388529
 30
0.0
 10
1208.147549451111
 20
501.2037796422093
 30
0.0
 10
1208.136553583443
 20
501.2797367095101
 30
0.0
  0
SPLINE
  5
21D
330
1CB
100
AcDbEntity
  8
0
  6
Continuous
370
    15
100
AcDbSpline
210
0.0
220
0.0
230
1.0
 70
     8
 71
     3
 72
    13
 73
     9
 74
     0
 42
0.0000000001
 43
0.0000000001
 40
0.0
 40
0.0
 40
0.0
 40
0.0
 40
0.1254073439328175
 40
0.2504060973199207
 40
0.3750444010035722
 40
0.4993713557536264
 40
0.7524752497164386
 40
1.0
 40
1.0
 40
1.0
 40
1.0
 10
1208.136553583443
 20
501.2797367095101
 30
0.0
 10
1208.121652515748
 20
501.3693204821715
 30
0.0
 10
1208.091898929633
 20
501.5481961539766
 30
0.0
 10
1208.038336863431
 20
501.8145715801304
 30
0.0
 10
1207.978338793064
 20
502.0788099097613
 30
0.0
 10
1207.887661515857
 20
502.4311463719742
 30
0.0
 10
1207.758439212806
 20
502.8656887625137
 30
0.0
 10
1207.629229882336
 20
503.2049495148746
 30
0.0
 10
1207.565345189308
 20
503.3726894833608
 30
0.0
  0
SPLINE
  5
21E
330
1CB
100
AcDbEntity
  8
0
  6
Continuous
370
    15
100
AcDbSpline
210
0.0
220
0.0
230
1.0
 70
     8
 71
     3
 72
    15
 73
    11
 74
     0
 42
0.0000000001
 43
0.0000000001
 40
0.0
 40
0.0
 40
0.0
 40
0.0
 40
0.0862219392242719
 40
0.169189616246219
 40
0.2489428627039494
 40
0.3740718296089904
 40
0.4987491513279082
 40
0.7486611977918165
 40
0.8599311179271158
 40
1.0
 40
1.0
 40
1.0
 40
1.0
 10
1207.565345189308
 20
503.3726894833608
 30
0.0
 10
1207.535456563531
 20
503.4456412531852
 30
0.0
 10
1207.476807394064
 20
503.5887913847195
 30
0.0
 10
1207.383272568307
 20
503.796392979826
 30
0.0
 10
1207.268735710187
 20
504.0335084226552
 30
0.0
 10
1207.127307922146
 20
504.2999982817515
 30
0.0
 10
1206.894790420891
 20
504.6940555328971
 30
0.0
 10
1206.642213701117
 20
505.0612677897856
 30
0.0
 10
1206.357428510977
 20
505.4215528312294
 30
0.0
 10
1206.207099580446
 20
505.5958884881705
 30
0.0
 10
1206.123322602686
 20
505.69304420133
 30
0.0
  0
SPLINE
  5
21F
330
1CB
100
AcDbEntity
  8
0
  6
Continuous
370
    15
100
AcDbSpline
210
0.0
220
0.0
230
1.0
 70
     8
 71
     3
 72
    11
 73
     7
 74
     0
 42
0.0000000001
 43
0.0000000001
 40
0.4743880600193953
 40
0.4743880600193953
 40
0.4743880600193953
 40
0.4743880600193953
 40
0.4947868370193909
 40
0.4947868370193909
 40
0.4947868370193909
 40
0.5203987769999956
 40
0.5203987769999956
 40
0.5203987769999956
 40
0.5203987769999956
 10
1206.123322602686
 20
505.69304420133
 30
0.0
 10
1206.053170235157
 20
505.7654909819651
 30
0.0
 10
1205.982354375864
 20
505.8373171516028
 30
0.0
 10
1205.910897334403
 20
505.9084985931772
 30
0.0
 10
1205.821178550905
 20
505.9978713438568
 30
0.0
 10
1205.730451817825
 20
506.0862334984339
 30
0.0
 10
1205.638766457687
 20
506.1735478507077
 30
0.0
  0
SPLINE
  5
220
330
1CB
100
AcDbEntity
  8
0
  6
Continuous
370
    15
100
AcDbSpline
210
0.0
220
0.0
230
1.0
 70
     8
 71
     3
 72
    15
 73
    11
 74
     0
 42
0.0000000001
 43
0.0000000001
 40
0.0
 40
0.0
 40
0.0
 40
0.0
 40
0.0625110730722935
 40
0.1276555837810704
 40
0.2500334400664473
 40
0.4965300281790918
 40
0.6165305451513201
 40
0.7417196493746209
 40
0.8703534903706074
 40
1.0
 40
1.0
 40
1.0
 40
1.0
 10
1205.638765115732
 20
506.1735465086879
 30
0.0
 10
1205.59563335826
 20
506.2086796024697
 30
0.0
 10
1205.507552808541
 20
506.2804258607938
 30
0.0
 10
1205.335253147773
 20
506.4215657325572
 30
0.0
 10
1205.030875675567
 20
506.660115544973
 30
0.0
 10
1204.668381791535
 20
506.9026435190595
 30
0.0
 10
1204.289567861141
 20
507.1219031973586
 30
0.0
 10
1203.994896447739
 20
507.2763628194744
 30
0.0
 10
1203.68711756337
 20
507.4238007602631
 30
0.0
 10
1203.475359852995
 20
507.5129626561198
 30
0.0
 10
1203.369065866748
 20
507.5577183975526
 30
0.0
  0
SPLINE
  5
221
330
1CB
100
AcDbEntity
  8
0
  6
Continuous
370
    15
100
AcDbSpline
210
0.0
220
0.0
230
1.0
 70
     8
 71
     3
 72
    15
 73
    11
 74
     0
 42
0.0000000001
 43
0.0000000001
 40
0.0
 40
0.0
 40
0.0
 40
0.0
 40
0.1253661660288597
 40
0.2502983760507271
 40
0.3748629154237311
 40
0.4991326869720673
 40
0.6246738339942321
 40
0.752649571863576
 40
0.8823455418833471
 40
1.0
 40
1.0
 40
1.0
 40
1.0
 10
1203.369065866748
 20
507.5577183975526
 30
0.0
 10
1203.284606230109
 20
507.591347981256
 30
0.0
 10
1203.115979314554
 20
507.6584907395844
 30
0.0
 10
1202.859799541623
 20
507.7493303787077
 30
0.0
 10
1202.602036984179
 20
507.8327365211618
 30
0.0
 10
1202.341522321521
 20
507.9084650462752
 30
0.0
 10
1202.076535609757
 20
507.976871192889
 30
0.0
 10
1201.805844992977
 20
508.0379646080053
 30
0.0
 10
1201.5390322496
 20
508.0894905559837
 30
0.0
 10
1201.362469254348
 20
508.1180673102992
 30
0.0
 10
1201.278485476004
 20
508.1316601007748
 30
0.0
  0
SPLINE
  5
222
330
1CB
100
AcDbEntity
  8
0
  6
Continuous
370
    15
100
AcDbSpline
210
0.0
220
0.0
230
1.0
 70
     8
 71
     3
 72
     8
 73
     4
 74
     0
 42
0.0000000001
 43
0.0000000001
 40
0.0
 40
0.0
 40
0.0
 40
0.0
 40
1.0
 40
1.0
 40
1.0
 40
1.0
 10
1201.278485476004
 20
508.1316601007748
 30
0.0
 10
1201.124580137311
 20
508.1550770445739
 30
0.0
 10
1200.967789290052
 20
508.1795467322775
 30
0.0
 10
1200.821697212679
 20
508.1906418818299
 30
0.0
  0
SPLINE
  5
223
330
1CB
100
AcDbEntity
  8
0
  6
Continuous
370
    15
100
AcDbSpline
210
0.0
220
0.0
230
1.0
 70
     8
 71
     3
 72
    15
 73
    11
 74
     0
 42
0.0000000001
 43
0.0000000001
 40
0.0
 40
0.0
 40
0.0
 40
0.0
 40
0.1249832161821911
 40
0.2498340735286664
 40
0.3746202558839955
 40
0.4994099293183806
 40
0.6242724337439501
 40
0.7492785532825767
 40
0.8744981717378204
 40
1.0
 40
1.0
 40
1.0
 40
1.0
 10
1207.564527078951
 20
-91.82289761140395
 30
0.0
 10
1207.598193632611
 20
-91.73867652252136
 30
0.0
 10
1207.665491086619
 20
-91.57032353597378
 30
0.0
 10
1207.756377565126
 20
-91.31412203214052
 30
0.0
 10
1207.839842471424
 20
-91.05565090087646
 30
0.0
 10
1207.915191407608
 20
-90.79475398484465
 30
0.0
 10
1207.982709929641
 20
-90.5316455153869
 30
0.0
 10
1208.042241412748
 20
-90.26641410967988
 30
0.0
 10
1208.094574311215
 20
-89.99927919430366
 30
0.0
 10
1208.122940058239
 20
-89.82000820773714
 30
0.0
 10
1208.137138895866
 20
-89.73027182154828
 30
0.0
  0
SPLINE
  5
224
330
1CB
100
AcDbEntity
  8
0
  6
Continuous
370
    15
100
AcDbSpline
210
0.0
220
0.0
230
1.0
 70
     8
 71
     3
 72
     8
 73
     4
 74
     0
 42
0.0000000001
 43
0.0000000001
 40
0.0
 40
0.0
 40
0.0
 40
0.0
 40
1.0
 40
1.0
 40
1.0
 40
1.0
 10
1208.193261341674
 20
-89.27269350714039
 30
0.0
 10
1208.176784126306
 20
-89.42686066059911
 30
0.0
 10
1208.157088732624
 20
-89.57919004632106
 30
0.0
 10
1208.13418199683
 20
-89.72959691390247
 30
0.0
  0
SPLINE
  5
225
330
1CB
100
AcDbEntity
  8
0
  6
Continuous
370
    15
100
AcDbSpline
210
0.0
220
0.0
230
1.0
 70
     8
 71
     3
 72
    14
 73
    10
 74
     0
 42
0.0000000001
 43
0.0000000001
 40
0.0
 40
0.0
 40
0.0
 40
0.0
 40
0.1411655800498444
 40
0.282800779682011
 40
0.4249631092166342
 40
0.5677090435542063
 40
0.7110941396057769
 40
0.8551731307007399
 40
0.9999999999999998
 40
0.9999999999999998
 40
0.9999999999999998
 40
0.9999999999999998
 10
1208.195517860156
 20
-89.27309117864695
 30
0.0
 10
1208.206213346382
 20
-89.15767224853254
 30
0.0
 10
1208.227639899815
 20
-88.9264504208403
 30
0.0
 10
1208.246902930541
 20
-88.57812111855286
 30
0.0
 10
1208.25694499912
 20
-88.22827544212657
 30
0.0
 10
1208.256993635852
 20
-87.8769903749411
 30
0.0
 10
1208.247200159183
 20
-87.52447940207776
 30
0.0
 10
1208.228435765006
 20
-87.17078775726964
 30
0.0
 10
1208.208028127017
 20
-86.93519920354413
 30
0.0
 10
1208.197797893834
 20
-86.81709999769124
 30
0.0
  0
SPLINE
  5
226
330
1CB
100
AcDbEntity
  8
0
  6
Continuous
370
    15
100
AcDbSpline
210
0.0
220
0.0
230
1.0
 70
     8
 71
     3
 72
    28
 73
    24
 74
     0
 42
0.0000000001
 43
0.0000000001
 40
0.0
 40
0.0
 40
0.0
 40
0.0
 40
0.0198298513267834
 40
0.0422549459591406
 40
0.0672703988248311
 40
0.0948694664287245
 40
0.1250433797728437
 40
0.1862247291764647
 40
0.2502146810032526
 40
0.3125937448249665
 40
0.3749768870233146
 40
0.4063077630898152
 40
0.4376254251040021
 40
0.5002814675032335
 40
0.6250457596190542
 40
0.6982970714857681
 40
0.7499839573587238
 40
0.8144807329406935
 40
0.8751154861350725
 40
0.93746119791954
 40
0.9686842494902762
 40
0.9843277250429869
 40
1.0
 40
1.0
 40
1.0
 40
1.0
 10
1193.517696036103
 20
-91.79811500829101
 30
0.0
 10
1193.614188687094
 20
-91.78376020118468
 30
0.0
 10
1193.8198025208
 20
-91.7531718932579
 30
0.0
 10
1194.146138223696
 20
-91.69394133009143
 30
0.0
 10
1194.508906505775
 20
-91.61817989341727
 30
0.0
 10
1194.907108377749
 20
-91.52175151619019
 30
0.0
 10
1195.475158412012
 20
-91.36310892759253
 30
0.0
 10
1196.207519346057
 20
-91.11527803114416
 30
0.0
 10
1197.069327486864
 20
-90.74874642926477
 30
0.0
 10
1197.904779711757
 20
-90.30819816398219
 30
0.0
 10
1198.564134770657
 20
-89.88692757805711
 30
0.0
 10
1199.070031876618
 20
-89.51717728577353
 30
0.0
 10
1199.561882535912
 20
-89.12619362458384
 30
0.0
 10
1200.37869410223
 20
-88.39236272256732
 30
0.0
 10
1201.238505971536
 20
-87.39817425325645
 30
0.0
 10
1201.920578789426
 20
-86.34965922577441
 30
0.0
 10
1202.366671041582
 20
-85.51510458102507
 30
0.0
 10
1202.716869262108
 20
-84.70540874608991
 30
0.0
 10
1203.016946205327
 20
-83.82306678283635
 30
0.0
 10
1203.21129137527
 20
-83.0854016306282
 30
0.0
 10
1203.319473966232
 20
-82.55863769225959
 30
0.0
 10
1203.373567745758
 20
-82.25613380939661
 30
0.0
 10
1203.397294998257
 20
-82.10435776504676
 30
0.0
 10
1203.409169534843
 20
-82.02839995275679
 30
0.0
  0
SPLINE
  5
227
330
1CB
100
AcDbEntity
  8
0
  6
Continuous
370
    15
100
AcDbSpline
210
0.0
220
0.0
230
1.0
 70
     8
 71
     3
 72
    14
 73
    10
 74
     0
 42
0.0000000001
 43
0.0000000001
 40
0.0
 40
0.0
 40
0.0
 40
0.0
 40
0.1446792256067707
 40
0.2886419129465939
 40
0.4319533394517158
 40
0.5746791029531631
 40
0.7168849681853464
 40
0.8586367162895774
 40
1.0
 40
1.0
 40
1.0
 40
1.0
 10
1198.367595332247
 20
-96.64790438045702
 30
0.0
 10
1198.485486119793
 20
-96.65818374050605
 30
0.0
 10
1198.720683829022
 20
-96.67869155104995
 30
0.0
 10
1199.073850273781
 20
-96.69716255233323
 30
0.0
 10
1199.425930872058
 20
-96.70637034245476
 30
0.0
 10
1199.776895168431
 20
-96.70543846460066
 30
0.0
 10
1200.126540448644
 20
-96.6942525793919
 30
0.0
 10
1200.474807579237
 20
-96.67362681180827
 30
0.0
 10
1200.706006500071
 20
-96.65114831921574
 30
0.0
 10
1200.821447345546
 20
-96.63992449437898
 30
0.0
  0
SPLINE
  5
228
330
1CB
100
AcDbEntity
  8
0
  6
Continuous
370
    15
100
AcDbSpline
210
0.0
220
0.0
230
1.0
 70
     8
 71
     3
 72
     9
 73
     5
 74
     0
 42
0.0000000001
 43
0.0000000001
 40
0.0
 40
0.0
 40
0.0
 40
0.0
 40
0.5005162872186611
 40
1.0
 40
1.0
 40
1.0
 40
1.0
 10
1200.821447345546
 20
-96.63992449437898
 30
0.0
 10
1200.897756416131
 20
-96.63116535193125
 30
0.0
 10
1201.050217130266
 20
-96.61366513730991
 30
0.0
 10
1201.202097524229
 20
-96.59111237554965
 30
0.0
 10
1201.277959307305
 20
-96.57984763837204
 30
0.0
  0
SPLINE
  5
229
330
1CB
100
AcDbEntity
  8
0
  6
Continuous
370
    15
100
AcDbSpline
210
0.0
220
0.0
230
1.0
 70
     8
 71
     3
 72
    14
 73
    10
 74
     0
 42
0.0000000001
 43
0.0000000001
 40
0.0
 40
0.0
 40
0.0
 40
0.0
 40
0.1457729170546464
 40
0.290450586966855
 40
0.4341061069218028
 40
0.5768134770814961
 40
0.7186475886106739
 40
0.859684213989645
 40
1.0
 40
1.0
 40
1.0
 40
1.0
 10
1201.277959307305
 20
-96.57984763837204
 30
0.0
 10
1201.381881464538
 20
-96.56204717535969
 30
0.0
 10
1201.588944972475
 20
-96.5265799909563
 30
0.0
 10
1201.896318195279
 20
-96.46170222275248
 30
0.0
 10
1202.199581385251
 20
-96.38853726404626
 30
0.0
 10
1202.498490018717
 20
-96.3063486314137
 30
0.0
 10
1202.792842084654
 20
-96.21516779136994
 30
0.0
 10
1203.082818099158
 20
-96.11583249187493
 30
0.0
 10
1203.272739258063
 20
-96.0419273740913
 30
0.0
 10
1203.36745654362
 20
-96.00506948955853
 30
0.0
  0
SPLINE
  5
22A
330
1CB
100
AcDbEntity
  8
0
  6
Continuous
370
    15
100
AcDbSpline
210
0.0
220
0.0
230
1.0
 70
     8
 71
     3
 72
    15
 73
    11
 74
     0
 42
0.0000000001
 43
0.0000000001
 40
0.0
 40
0.0
 40
0.0
 40
0.0
 40
0.0636780723778996
 40
0.1237669703259178
 40
0.249507043045201
 40
0.4991217554152687
 40
0.7487905161190643
 40
0.8715412422402126
 40
0.937229083234982
 40
1.0
 40
1.0
 40
1.0
 40
1.0
 10
1203.36745654362
 20
-96.00506948955853
 30
0.0
 10
1203.41990599529
 20
-95.9837793350896
 30
0.0
 10
1203.521848618331
 20
-95.94239903229459
 30
0.0
 10
1203.725424017183
 20
-95.8542637887972
 30
0.0
 10
1204.076139297319
 20
-95.68977731548466
 30
0.0
 10
1204.563763497817
 20
-95.42061350448875
 30
0.0
 10
1205.024296138614
 20
-95.11131680955907
 30
0.0
 10
1205.331851740965
 20
-94.8710061778935
 30
0.0
 10
1205.505237282642
 20
-94.72959215412037
 30
0.0
 10
1205.594021913929
 20
-94.6576063657052
 30
0.0
 10
1205.637406209384
 20
-94.62243076528944
 30
0.0
  0
SPLINE
  5
22B
330
1CB
100
AcDbEntity
  8
0
  6
Continuous
370
    15
100
AcDbSpline
210
0.0
220
0.0
230
1.0
 70
     8
 71
     3
 72
     8
 73
     4
 74
     0
 42
0.0000000001
 43
0.0000000001
 40
0.4797027270000015
 40
0.4797027270000015
 40
0.4797027270000015
 40
0.4797027270000015
 40
0.5257384930000183
 40
0.5257384930000183
 40
0.5257384930000183
 40
0.5257384930000183
 10
1205.637406209384
 20
-94.62243076528954
 30
0.0
 10
1205.802262072298
 20
-94.46579685516486
 30
0.0
 10
1205.964037789706
 20
-94.30578952660027
 30
0.0
 10
1206.122441859404
 20
-94.14261786505482
 30
0.0
  0
SPLINE
  5
22C
330
1CB
100
AcDbEntity
  8
0
  6
Continuous
370
    15
100
AcDbSpline
210
0.0
220
0.0
230
1.0
 70
     8
 71
     3
 72
    16
 73
    12
 74
     0
 42
0.0000000001
 43
0.0000000001
 40
0.0
 40
0.0
 40
0.0
 40
0.0
 40
0.0996860627292718
 40
0.1992594698527828
 40
0.2988022802163632
 40
0.3983955593520174
 40
0.498116919028089
 40
0.6208827279879748
 40
0.7461674051925385
 40
0.8728283110849474
 40
1.0
 40
1.0
 40
1.0
 40
1.0
 10
1206.122446815225
 20
-94.14262282085122
 30
0.0
 10
1206.182822737443
 20
-94.07416611875238
 30
0.0
 10
1206.303506350815
 20
-93.93733007773892
 30
0.0
 10
1206.4749546415
 20
-93.72407938293724
 30
0.0
 10
1206.639077397936
 20
-93.50534038871955
 30
0.0
 10
1206.79514700332
 20
-93.28064106755936
 30
0.0
 10
1206.954566402201
 20
-93.03268720526341
 30
0.0
 10
1207.116069179968
 20
-92.7584269397828
 30
0.0
 10
1207.277240099454
 20
-92.45584588013924
 30
0.0
 10
1207.428596887369
 20
-92.14373014296871
 30
0.0
 10
1207.519156271386
 20
-91.92998516039256
 30
0.0
 10
1207.564527078951
 20
-91.82289761140395
 30
0.0
  0
SPLINE
  5
22D
330
1CB
100
AcDbEntity
  8
0
  6
Continuous
370
    15
100
AcDbSpline
210
0.0
220
0.0
230
1.0
 70
     8
 71
     3
 72
    13
 73
     9
 74
     0
 42
0.0000000001
 43
0.0000000001
 40
0.0
 40
0.0
 40
0.0
 40
0.0
 40
0.1282085761785888
 40
0.2574012273503449
 40
0.3825897461352247
 40
0.5035038856780511
 40
0.7508983976964184
 40
1.0
 40
1.0
 40
1.0
 40
1.0
 10
-91.81798348828829
 20
-96.00473999669304
 30
0.0
 10
-91.73153063636595
 20
-96.0387595057897
 30
0.0
 10
-91.55796135686864
 20
-96.10705964339638
 30
0.0
 10
-91.29645246097869
 20
-96.19915955976296
 30
0.0
 10
-91.03771525023432
 20
-96.2828190597014
 30
0.0
 10
-90.69441800113054
 20
-96.38233598654347
 30
0.0
 10
-90.26008087852289
 20
-96.48939346494229
 30
0.0
 10
-89.90614453342391
 20
-96.54962454905694
 30
0.0
 10
-89.7285678955925
 20
-96.57984363663615
 30
0.0
  0
SPLINE
  5
22E
330
1CB
100
AcDbEntity
  8
0
  6
Continuous
370
    15
100
AcDbSpline
210
0.0
220
0.0
230
1.0
 70
     8
 71
     3
 72
     8
 73
     4
 74
     0
 42
0.0000000001
 43
0.0000000001
 40
0.0
 40
0.0
 40
0.0
 40
0.0
 40
1.0
 40
1.0
 40
1.0
 40
1.0
 10
-89.27279827390714
 20
-96.64376610666842
 30
0.0
 10
-89.42696542736575
 20
-96.62728889130073
 30
0.0
 10
-89.57929481308781
 20
-96.60759349761883
 30
0.0
 10
-89.72970168066922
 20
-96.58468676182394
 30
0.0
  0
SPLINE
  5
22F
330
1CB
100
AcDbEntity
  8
0
  6
Continuous
370
    15
100
AcDbSpline
210
0.0
220
0.0
230
1.0
 70
     8
 71
     3
 72
    14
 73
    10
 74
     0
 42
0.0000000001
 43
0.0000000001
 40
0.0
 40
0.0
 40
0.0
 40
0.0
 40
0.1411889129869587
 40
0.2828213390787211
 40
0.4249648731699458
 40
0.5676871416523569
 40
0.7110556567998089
 40
0.8551376662170177
 40
1.0
 40
1.0
 40
1.0
 40
1.0
 10
-89.27205604719267
 20
-96.63992031324779
 30
0.0
 10
-89.15675223145013
 20
-96.65121115804073
 30
0.0
 10
-88.92578239905128
 20
-96.67382831526708
 30
0.0
 10
-88.57778713325558
 20
-96.69457899550502
 30
0.0
 10
-88.22827769977925
 20
-96.70583531666125
 30
0.0
 10
-87.87731212800702
 20
-96.70677260991045
 30
0.0
 10
-87.5250935992218
 20
-96.69750289630838
 30
0.0
 10
-87.17165063549293
 20
-96.6789028781941
 30
0.0
 10
-86.93623381777342
 20
-96.65825471205346
 30
0.0
 10
-86.81820752506656
 20
-96.64790274771906
 30
0.0
  0
SPLINE
  5
230
330
1CB
100
AcDbEntity
  8
0
  6
Continuous
370
    15
100
AcDbSpline
210
0.0
220
0.0
230
1.0
 70
     8
 71
     3
 72
    27
 73
    23
 74
     0
 42
0.0000000001
 43
0.0000000001
 40
0.0
 40
0.0
 40
0.0
 40
0.0
 40
0.0054776140253456
 40
0.0179342928014792
 40
0.035830776809155
 40
0.0715447810302808
 40
0.1076753357732251
 40
0.1429125678493983
 40
0.1713943959575083
 40
0.2502516439111285
 40
0.333702845956549
 40
0.4170136831633905
 40
0.5001042178464928
 40
0.6084226247877102
 40
0.7498209934078743
 40
0.8183379663674836
 40
0.8750477182378281
 40
0.9373889115706965
 40
0.9686370562040753
 40
0.9855682312739501
 40
0.9960504752122343
 40
0.9999999999999998
 40
0.9999999999999998
 40
0.9999999999999998
 40
0.9999999999999998
 10
-69.64763178029068
 20
-59.81620042807151
 30
0.0
 10
-69.6436613351658
 20
-59.84279337055284
 30
0.0
 10
-69.63066167416525
 20
-59.92986150180604
 30
0.0
 10
-69.60171610603765
 20
-60.10304006830051
 30
0.0
 10
-69.54422509714572
 20
-60.422576232094
 30
0.0
 10
-69.45194577312202
 20
-60.85469332860828
 30
0.0
 10
-69.3208930541042
 20
-61.36709906140549
 30
0.0
 10
-69.17775713637581
 20
-61.84025740620711
 30
0.0
 10
-68.94960135209283
 20
-62.51009368838424
 30
0.0
 10
-68.58241487136695
 20
-63.38775258633631
 30
0.0
 10
-67.98359988798802
 20
-64.46077004996027
 30
0.0
 10
-67.25132506639886
 20
-65.47750143545193
 30
0.0
 10
-66.32756387639801
 20
-66.50134565415055
 30
0.0
 10
-65.06074933912635
 20
-67.59348872714099
 30
0.0
 10
-63.69265756032087
 20
-68.42626046915142
 30
0.0
 10
-62.47255161613281
 20
-68.95189837909288
 30
0.0
 10
-61.59233590976533
 20
-69.25533119721956
 30
0.0
 10
-60.87460263572302
 20
-69.44755147916578
 30
0.0
 10
-60.3422506519588
 20
-69.55878812231924
 30
0.0
 10
-60.05851326923732
 20
-69.60912155051835
 30
0.0
 10
-59.90712360442149
 20
-69.63460639466666
 30
0.0
 10
-59.83691806318621
 20
-69.6447462344263
 30
0.0
 10
-59.81770499716436
 20
-69.64752119217632
 30
0.0
  0
SPLINE
  5
231
330
1CB
100
AcDbEntity
  8
0
  6
Continuous
370
    15
100
AcDbSpline
210
0.0
220
0.0
230
1.0
 70
     8
 71
     3
 72
    14
 73
    10
 74
     0
 42
0.0000000001
 43
0.0000000001
 40
0.0
 40
0.0
 40
0.0
 40
0.0
 40
0.1448550897798684
 40
0.2889491711544067
 40
0.432338419859976
 40
0.5750798057216653
 40
0.717231161895395
 40
0.8588512752457148
 40
1.0
 40
1.0
 40
1.0
 40
1.0
 10
-96.64803342345601
 20
-86.81670000809958
 30
0.0
 10
-96.6583690142478
 20
-86.93482024594288
 30
0.0
 10
-96.67898589693493
 20
-87.17044016701846
 30
0.0
 10
-96.69797239249522
 20
-87.5242017830708
 30
0.0
 10
-96.70791205515321
 20
-87.87677668269635
 30
0.0
 10
-96.70792474327175
 20
-88.22812245898148
 30
0.0
 10
-96.6978543385851
 20
-88.57802426203022
 30
0.0
 10
-96.67847832041207
 20
-88.92640545983487
 30
0.0
 10
-96.65689449163062
 20
-89.15765691142883
 30
0.0
 10
-96.64612056785507
 20
-89.27308988384845
 30
0.0
  0
SPLINE
  5
232
330
1CB
100
AcDbEntity
  8
0
  6
Continuous
370
    15
100
AcDbSpline
210
0.0
220
0.0
230
1.0
 70
     8
 71
     3
 72
     9
 73
     5
 74
     0
 42
0.0000000001
 43
0.0000000001
 40
0.0
 40
0.0
 40
0.0
 40
0.0
 40
0.5005934198652263
 40
1.0
 40
1.0
 40
1.0
 40
1.0
 10
-96.64612056785507
 20
-89.27308988384845
 30
0.0
 10
-96.63765092182609
 20
-89.34951861850697
 30
0.0
 10
-96.62073171016073
 20
-89.50219488556433
 30
0.0
 10
-96.59873018440464
 20
-89.65430544447633
 30
0.0
 10
-96.58774247766906
 20
-89.73027045850484
 30
0.0
  0
SPLINE
  5
233
330
1CB
100
AcDbEntity
  8
0
  6
Continuous
370
    15
100
AcDbSpline
210
0.0
220
0.0
230
1.0
 70
     8
 71
     3
 72
    15
 73
    11
 74
     0
 42
0.0000000001
 43
0.0000000001
 40
0.0
 40
0.0
 40
0.0
 40
0.0
 40
0.1250982782257173
 40
0.2495498163073287
 40
0.37340468086354
 40
0.4967144056649838
 40
0.6230312528339712
 40
0.7503128527556983
 40
0.8766551714258438
 40
1.0
 40
1.0
 40
1.0
 40
1.0
 10
-96.58774247766906
 20
-89.73027045850484
 30
0.0
 10
-96.57292277301758
 20
-89.8196462281578
 30
0.0
 10
-96.54335997946066
 20
-89.99793570756219
 30
0.0
 10
-96.49013536317113
 20
-90.26318909975918
 30
0.0
 10
-96.4305151952791
 20
-90.52578281357535
 30
0.0
 10
-96.36319617471725
 20
-90.78796962343131
 30
0.0
 10
-96.28785026201297
 20
-91.05059828877461
 30
0.0
 10
-96.2041816947152
 20
-91.31302149513805
 30
0.0
 10
-96.11424919022319
 20
-91.57113930292666
 30
0.0
 10
-96.04816929023821
 20
-91.7397057797317
 30
0.0
 10
-96.01552598430192
 20
-91.82297719924338
 30
0.0
  0
SPLINE
  5
234
330
1CB
100
AcDbEntity
  8
0
  6
Continuous
370
    15
100
AcDbSpline
210
0.0
220
0.0
230
1.0
 70
     8
 71
     3
 72
    15
 73
    11
 74
     0
 42
0.0000000001
 43
0.0000000001
 40
0.0
 40
0.0
 40
0.0
 40
0.0
 40
0.083689859858401
 40
0.1650560454481302
 40
0.2441462879999751
 40
0.3680178387356439
 40
0.492477279046052
 40
0.6596567739839385
 40
0.8286779606783269
 40
1.0
 40
1.0
 40
1.0
 40
1.0
 10
-96.01552598430181
 20
-91.82297719924338
 30
0.0
 10
-95.98314288920789
 20
-91.90153605331671
 30
0.0
 10
-95.91927582544872
 20
-92.05647255112172
 30
0.0
 10
-95.81606225033079
 20
-92.28196913116494
 30
0.0
 10
-95.68820479744227
 20
-92.54098635638673
 30
0.0
 10
-95.5285648145591
 20
-92.8330739853061
 30
0.0
 10
-95.30791700098722
 20
-93.19342366239482
 30
0.0
 10
-95.03974852762814
 20
-93.57778284876577
 30
0.0
 10
-94.71830981520259
 20
-93.98230335897483
 30
0.0
 10
-94.4809431423846
 20
-94.23442228056421
 30
0.0
 10
-94.36145746044473
 20
-94.36133395236083
 30
0.0
  0
SPLINE
  5
235
330
1CB
100
AcDbEntity
  8
0
  6
Continuous
370
    15
100
AcDbSpline
210
0.0
220
0.0
230
1.0
 70
     8
 71
     3
 72
     8
 73
     4
 74
     0
 42
0.0000000001
 43
0.0000000001
 40
0.0
 40
0.0
 40
0.0
 40
0.0
 40
1.0
 40
1.0
 40
1.0
 40
1.0
 10
-94.36145746044473
 20
-94.36133395236083
 30
0.0
 10
-94.31309021267248
 20
-94.40941179539402
 30
0.0
 10
-94.26443154149479
 20
-94.45719678543571
 30
0.0
 10
-94.21548930135021
 20
-94.50468328588852
 30
0.0
  0
SPLINE
  5
236
330
1CB
100
AcDbEntity
  8
0
  6
Continuous
370
    15
100
AcDbSpline
210
0.0
220
0.0
230
1.0
 70
     8
 71
     3
 72
    16
 73
    12
 74
     0
 42
0.0000000001
 43
0.0000000001
 40
0.0
 40
0.0
 40
0.0
 40
0.0
 40
0.1005736678022822
 40
0.2008901181940233
 40
0.3010343455621651
 40
0.4010911608582647
 40
0.5011451019082759
 40
0.626332711187406
 40
0.7518106854575152
 40
0.8730773739521364
 40
1.0
 40
1.0
 40
1.0
 40
1.0
 10
-94.21548930135021
 20
-94.50468328588852
 30
0.0
 10
-94.14447301105974
 20
-94.56838585133539
 30
0.0
 10
-94.00262205482148
 20
-94.69562806275622
 30
0.0
 10
-93.78128917937614
 20
-94.87611570429237
 30
0.0
 10
-93.55433595121485
 20
-95.04854925953043
 30
0.0
 10
-93.32127970698707
 20
-95.21218329907027
 30
0.0
 10
-93.0625290660887
 20
-95.38008818188961
 30
0.0
 10
-92.77639170146358
 20
-95.54953611859923
 30
0.0
 10
-92.46517254885999
 20
-95.71510609960716
 30
0.0
 10
-92.14589012961267
 20
-95.86819124434134
 30
0.0
 10
-91.92893376075881
 20
-95.95853745191481
 30
0.0
 10
-91.81798348828829
 20
-96.00473999669304
 30
0.0
  0
SPLINE
  5
237
330
1CB
100
AcDbEntity
  8
0
  6
Continuous
370
    15
100
AcDbSpline
210
0.0
220
0.0
230
1.0
 70
     8
 71
     3
 72
    15
 73
    11
 74
     0
 42
0.0000000001
 43
0.0000000001
 40
0.0
 40
0.0
 40
0.0
 40
0.0
 40
0.1248590507044238
 40
0.2496179209836184
 40
0.3743479170685015
 40
0.499119448841599
 40
0.6240020764222134
 40
0.7490645434643594
 40
0.8743747974880992
 40
1.0
 40
1.0
 40
1.0
 40
1.0
 10
-96.01476881002646
 20
503.3723355934751
 30
0.0
 10
-96.04836465756591
 20
503.2881870064985
 30
0.0
 10
-96.11552939707951
 20
503.1199573490067
 30
0.0
 10
-96.20619012054829
 20
502.8638954786519
 30
0.0
 10
-96.28946208484354
 20
502.6055007242156
 30
0.0
 10
-96.36467420108829
 20
502.3446199744252
 30
0.0
 10
-96.43213343325658
 20
502.0814717751449
 30
0.0
 10
-96.49166795809618
 20
501.8161397163356
 30
0.0
 10
-96.54405261328008
 20
501.5488416844319
 30
0.0
 10
-96.57247777188651
 20
501.3694431549537
 30
0.0
 10
-96.58670818936366
 20
501.2796313088832
 30
0.0
  0
SPLINE
  5
238
330
1CB
100
AcDbEntity
  8
0
  6
Continuous
370
    15
100
AcDbSpline
210
0.0
220
0.0
230
1.0
 70
     8
 71
     3
 72
     9
 73
     5
 74
     0
 42
0.0000000001
 43
0.0000000001
 40
0.0
 40
0.0
 40
0.0
 40
0.0
 40
0.4993640817735834
 40
1.0
 40
1.0
 40
1.0
 40
1.0
 10
-96.58670818936366
 20
501.2796313088832
 30
0.0
 10
-96.59772212613745
 20
501.2036839664125
 30
0.0
 10
-96.61977805121466
 20
501.0515958502609
 30
0.0
 10
-96.63673808816225
 20
500.8989437832641
 30
0.0
 10
-96.64522889183263
 20
500.8225206755339
 30
0.0
  0
SPLINE
  5
239
330
1CB
100
AcDbEntity
  8
0
  6
Continuous
370
    15
100
AcDbSpline
210
0.0
220
0.0
230
1.0
 70
     8
 71
     3
 72
    14
 73
    10
 74
     0
 42
0.0000000001
 43
0.0000000001
 40
0.0
 40
0.0
 40
0.0
 40
0.0
 40
0.1411869695756296
 40
0.2828365293515093
 40
0.4250056959667277
 40
0.5677509253853793
 40
0.7111281605155692
 40
0.8551928576551912
 40
0.9999999999999998
 40
0.9999999999999998
 40
0.9999999999999998
 40
0.9999999999999998
 10
-96.64522889183263
 20
500.8225206755339
 30
0.0
 10
-96.65597393726944
 20
500.7070968537354
 30
0.0
 10
-96.67749923360668
 20
500.4758710312666
 30
0.0
 10
-96.69693230480858
 20
500.127542216123
 30
0.0
 10
-96.70714088577973
 20
499.7777101118823
 30
0.0
 10
-96.7073421757815
 20
499.4264509050477
 30
0.0
 10
-96.6976724199044
 20
499.0739772041252
 30
0.0
 10
-96.67899673209843
 20
498.7203335449465
 30
0.0
 10
-96.65860304133936
 20
498.484779658832
 30
0.0
 10
-96.64837998849362
 20
498.3667000108562
 30
0.0
  0
SPLINE
  5
23A
330
1CB
100
AcDbEntity
  8
0
  6
Continuous
370
    15
100
AcDbSpline
210
0.0
220
0.0
230
1.0
 70
     8
 71
     3
 72
    10
 73
     6
 74
     0
 42
0.0000000001
 43
0.0000000001
 40
0.0
 40
0.0
 40
0.0
 40
0.0
 40
0.4164002114014221
 40
0.7465141655493836
 40
1.0
 40
1.0
 40
1.0
 40
1.0
 10
-89.2723291077525
 20
508.1908348636887
 30
0.0
 10
-89.33597803730254
 20
508.1843103016757
 30
0.0
 10
-89.45008659495977
 20
508.1726131943418
 30
0.0
 10
-89.60208680343532
 20
508.1511909878448
 30
0.0
 10
-89.69063290226552
 20
508.1375679052354
 30
0.0
 10
-89.72909278896839
 20
508.1316507364316
 30
0.0
  0
SPLINE
  5
23B
330
1CB
100
AcDbEntity
  8
0
  6
Continuous
370
    15
100
AcDbSpline
210
0.0
220
0.0
230
1.0
 70
     8
 71
     3
 72
    12
 73
     8
 74
     0
 42
0.0000000001
 43
0.0000000001
 40
0.0
 40
0.0
 40
0.0
 40
0.0
 40
0.1630687918017896
 40
0.3281490735486652
 40
0.4948040085676704
 40
0.7516935415814654
 40
1.0
 40
1.0
 40
1.0
 40
1.0
 10
-89.72909278896839
 20
508.1316507364316
 30
0.0
 10
-89.84538177974014
 20
508.111802842879
 30
0.0
 10
-90.07939421194123
 20
508.0718622275766
 30
0.0
 10
-90.42960958732136
 20
507.9962762655103
 30
0.0
 10
-90.84255127265931
 20
507.8908848878663
 30
0.0
 10
-91.30909135504884
 20
507.7515240274423
 30
0.0
 10
-91.65129293176482
 20
507.6215894487571
 30
0.0
 10
-91.81948678725962
 20
507.5577259272591
 30
0.0
  0
SPLINE
  5
23C
330
1CB
100
AcDbEntity
  8
0
  6
Continuous
370
    15
100
AcDbSpline
210
0.0
220
0.0
230
1.0
 70
     8
 71
     3
 72
    16
 73
    12
 74
     0
 42
0.0000000001
 43
0.0000000001
 40
0.0
 40
0.0
 40
0.0
 40
0.0
 40
0.0855458202132652
 40
0.1681346423498144
 40
0.2478088289353778
 40
0.3731666008352161
 40
0.4980209220714617
 40
0.7480249151250451
 40
0.8738687512814832
 40
0.9261405295288895
 40
1.0
 40
1.0
 40
1.0
 40
1.0
 10
-91.81948678725962
 20
507.5577259272591
 30
0.0
 10
-91.89518099119629
 20
507.5267980635543
 30
0.0
 10
-92.04395293440894
 20
507.4660113963658
 30
0.0
 10
-92.25999679733149
 20
507.3686473441902
 30
0.0
 10
-92.50759516625885
 20
507.2487676645097
 30
0.0
 10
-92.78617218316709
 20
507.1001114286958
 30
0.0
 10
-93.1975327124727
 20
506.8549375904943
 30
0.0
 10
-93.59135032081644
 20
506.5798930152953
 30
0.0
 10
-93.90926616907268
 20
506.3207732499005
 30
0.0
 10
-94.09138071625125
 20
506.1624089145036
 30
0.0
 10
-94.18120902740964
 20
506.0816662238419
 30
0.0
 10
-94.23381035787214
 20
506.0343852174514
 30
0.0
  0
SPLINE
  5
23D
330
1CB
100
AcDbEntity
  8
0
  6
Continuous
370
    15
100
AcDbSpline
210
0.0
220
0.0
230
1.0
 70
     8
 71
     3
 72
     8
 73
     4
 74
     0
 42
0.0000000001
 43
0.0000000001
 40
0.0
 40
0.0
 40
0.0
 40
0.0
 40
1.0
 40
1.0
 40
1.0
 40
1.0
 10
-94.23381035787201
 20
506.0343852174513
 30
0.0
 10
-94.31863156546251
 20
505.9516929718118
 30
0.0
 10
-94.4025822657934
 20
505.868096381704
 30
0.0
 10
-94.48562533993799
 20
505.7836330501276
 30
0.0
  0
SPLINE
  5
23E
330
1CB
100
AcDbEntity
  8
0
  6
Continuous
370
    15
100
AcDbSpline
210
0.0
220
0.0
230
1.0
 70
     8
 71
     3
 72
    17
 73
    13
 74
     0
 42
0.0000000001
 43
0.0000000001
 40
0.0
 40
0.0
 40
0.0
 40
0.0
 40
0.0831016156112132
 40
0.166054776468311
 40
0.24891079020432
 40
0.331721330146744
 40
0.4145383363436796
 40
0.4974139112403104
 40
0.620070224311599
 40
0.7458071330758749
 40
0.8727525373419361
 40
1.0
 40
1.0
 40
1.0
 40
1.0
 10
-94.48562533993799
 20
505.7836330501276
 30
0.0
 10
-94.5394715801051
 20
505.7250220970782
 30
0.0
 10
-94.64706786820192
 20
505.607904895016
 30
0.0
 10
-94.80118516310596
 20
505.4260019613974
 30
0.0
 10
-94.94968317236123
 20
505.2399046992681
 30
0.0
 10
-95.09201851991383
 20
505.0492342188668
 30
0.0
 10
-95.22829414516422
 20
504.8542054262876
 30
0.0
 10
-95.37916582626872
 20
504.6230627113557
 30
0.0
 10
-95.54217776387657
 20
504.3510480951672
 30
0.0
 10
-95.71265539437446
 20
504.0349053213735
 30
0.0
 10
-95.87232811304932
 20
503.7082422714574
 30
0.0
 10
-95.96725097862792
 20
503.4843931530676
 30
0.0
 10
-96.01476881002634
 20
503.372335593475
 30
0.0
  0
ENDBLK
  5
1CD
330
1CB
100
AcDbEntity
  8
0
100
AcDbBlockEnd
  0
ENDSEC
  0
SECTION
  2
ENTITIES
  0
MTEXT
  5
19C
330
1F
100
AcDbEntity
  8
0
100
AcDbMText
 10
578.2309441014406
 20
69.78216307547537
 30
0.0
 40
40.0
 41
241393.1738409968
 71
     1
 72
     5
  1
{\fTimes New Roman|b0|i0|c0|p18;PLATO DE DUCHA SIGMA 1400x700}
 73
     1
 44
1.0
  0
INSERT
  5
23F
330
1F
100
AcDbEntity
  8
0
100
AcDbBlockReference
  2
SIGMA 1400x700_P
 10
558.6923693614327
 20
270.6489814231953
 30
0.0
  0
ENDSEC
  0
SECTION
  2
OBJECTS
  0
DICTIONARY
  5
C
330
0
100
AcDbDictionary
281
     1
  3
ACAD_COLOR
350
172
  3
ACAD_GROUP
350
D
  3
ACAD_LAYOUT
350
1A
  3
ACAD_MATERIAL
350
171
  3
ACAD_MLEADERSTYLE
350
16C
  3
ACAD_MLINESTYLE
350
17
  3
ACAD_PLOTSETTINGS
350
19
  3
ACAD_PLOTSTYLENAME
350
E
  3
ACAD_TABLESTYLE
350
16B
  3
ACAD_VISUALSTYLE
350
2A
  3
AcDbVariableDictionary
350
16D
  0
DICTIONARY
  5
194
330
2
100
AcDbDictionary
280
     1
281
     1
  3
ACAD_LAYERFILTERS
360
19E
  3
ACAD_LAYERSTATES
360
195
  0
DICTIONARY
  5
172
102
{ACAD_REACTORS
330
C
102
}
330
C
100
AcDbDictionary
281
     1
  0
DICTIONARY
  5
D
102
{ACAD_REACTORS
330
C
102
}
330
C
100
AcDbDictionary
281
     1
  0
DICTIONARY
  5
1A
102
{ACAD_REACTORS
330
C
102
}
330
C
100
AcDbDictionary
281
     1
  3
Layout1
350
1E
  3
Layout2
350
26
  3
Model
350
22
  0
DICTIONARY
  5
171
102
{ACAD_REACTORS
330
C
102
}
330
C
100
AcDbDictionary
281
     1
  0
DICTIONARY
  5
16C
102
{ACAD_REACTORS
330
C
102
}
330
C
100
AcDbDictionary
281
     1
  0
DICTIONARY
  5
17
102
{ACAD_REACTORS
330
C
102
}
330
C
100
AcDbDictionary
281
     1
  3
Standard
350
18
  0
DICTIONARY
  5
19
102
{ACAD_REACTORS
330
C
102
}
330
C
100
AcDbDictionary
281
     1
  0
ACDBDICTIONARYWDFLT
  5
E
102
{ACAD_REACTORS
330
C
102
}
330
C
100
AcDbDictionary
281
     1
  3
Normal
350
F
100
AcDbDictionaryWithDefault
340
F
  0
DICTIONARY
  5
16B
102
{ACAD_REACTORS
330
C
102
}
330
C
100
AcDbDictionary
281
     1
  0
DICTIONARY
  5
2A
102
{ACAD_REACTORS
330
C
102
}
330
C
100
AcDbDictionary
281
     1
  3
2dWireframe
350
2F
  3
3D Hidden
350
31
  3
3dWireframe
350
30
  3
Basic
350
32
  3
Brighten
350
36
  3
ColorChange
350
3A
  3
Conceptual
350
34
  3
Dim
350
35
  3
Facepattern
350
39
  3
Flat
350
2B
  3
FlatWithEdges
350
2C
  3
Gouraud
350
2D
  3
GouraudWithEdges
350
2E
  3
Linepattern
350
38
  3
Realistic
350
33
  3
Thicken
350
37
  0
DICTIONARY
  5
16D
102
{ACAD_REACTORS
330
C
102
}
330
C
100
AcDbDictionary
281
     1
  3
PSOLHEIGHT
350
16F
  3
PSOLWIDTH
350
16E
  0
DICTIONARY
  5
19E
102
{ACAD_REACTORS
330
194
102
}
330
194
100
AcDbDictionary
281
     1
  0
DICTIONARY
  5
195
102
{ACAD_REACTORS
330
194
102
}
330
194
100
AcDbDictionary
281
     1
  0
LAYOUT
  5
1E
102
{ACAD_REACTORS
330
1A
102
}
330
1A
100
AcDbPlotSettings
  1

  2
none_device
  4

  6

 40
0.0
 41
0.0
 42
0.0
 43
0.0
 44
0.0
 45
0.0
 46
0.0
 47
0.0
 48
0.0
 49
0.0
140
0.0
141
0.0
142
1.0
143
1.0
 70
   688
 72
     0
 73
     0
 74
     5
  7

 75
    16
147
1.0
 76
     0
 77
     2
 78
   300
148
0.0
149
0.0
100
AcDbLayout
  1
Layout1
 70
     1
 71
     1
 10
0.0
 20
0.0
 11
420.0
 21
297.0
 12
0.0
 22
0.0
 32
0.0
 14
1.000000000000000E+20
 24
1.000000000000000E+20
 34
1.000000000000000E+20
 15
-1.000000000000000E+20
 25
-1.000000000000000E+20
 35
-1.000000000000000E+20
146
0.0
 13
0.0
 23
0.0
 33
0.0
 16
1.0
 26
0.0
 36
0.0
 17
0.0
 27
1.0
 37
0.0
 76
     0
330
1B
  0
LAYOUT
  5
26
102
{ACAD_REACTORS
330
1A
102
}
330
1A
100
AcDbPlotSettings
  1

  2
none_device
  4

  6

 40
0.0
 41
0.0
 42
0.0
 43
0.0
 44
0.0
 45
0.0
 46
0.0
 47
0.0
 48
0.0
 49
0.0
140
0.0
141
0.0
142
1.0
143
1.0
 70
   688
 72
     0
 73
     0
 74
     5
  7

 75
    16
147
1.0
 76
     0
 77
     2
 78
   300
148
0.0
149
0.0
100
AcDbLayout
  1
Layout2
 70
     1
 71
     2
 10
0.0
 20
0.0
 11
0.0
 21
0.0
 12
0.0
 22
0.0
 32
0.0
 14
0.0
 24
0.0
 34
0.0
 15
0.0
 25
0.0
 35
0.0
146
0.0
 13
0.0
 23
0.0
 33
0.0
 16
1.0
 26
0.0
 36
0.0
 17
0.0
 27
1.0
 37
0.0
 76
     0
330
23
  0
LAYOUT
  5
22
102
{ACAD_REACTORS
330
1A
102
}
330
1A
100
AcDbPlotSettings
  1

  2
none_device
  4

  6

 40
0.0
 41
0.0
 42
0.0
 43
0.0
 44
0.0
 45
0.0
 46
0.0
 47
0.0
 48
0.0
 49
0.0
140
0.0
141
0.0
142
1.0
143
1.0
 70
  1712
 72
     0
 73
     0
 74
     0
  7

 75
     0
147
1.0
 76
     0
 77
     2
 78
   300
148
0.0
149
0.0
100
AcDbLayout
  1
Model
 70
     1
 71
     0
 10
0.0
 20
0.0
 11
431.7999999999999
 21
279.4
 12
0.0
 22
0.0
 32
0.0
 14
0.0
 24
0.0
 34
0.0
 15
431.7999999999999
 25
279.4
 35
0.0
146
0.0
 13
0.0
 23
0.0
 33
0.0
 16
1.0
 26
0.0
 36
0.0
 17
0.0
 27
1.0
 37
0.0
 76
     0
330
1F
  0
MLINESTYLE
  5
18
102
{ACAD_REACTORS
330
17
102
}
330
17
100
AcDbMlineStyle
  2
STANDARD
 70
     0
  3

 62
   256
 51
90.0
 52
90.0
 71
     2
 49
0.5
 62
   256
  6
BYLAYER
 49
-0.5
 62
   256
  6
BYLAYER
  0
ACDBPLACEHOLDER
  5
F
102
{ACAD_REACTORS
330
E
102
}
330
E
  0
ACAD_PROXY_OBJECT
  5
2F
102
{ACAD_REACTORS
330
2A
102
}
330
2A
100
AcDbProxyObject
 90
      499
 91
      501
 95
   393239
 70
     0
 93
      436
310
42CC9915DA5C99599C985B595049028333333333333E3BF0000000000000FB0107901411070040501600405405064090741402480A0340
 94
        0
1001
ACAD
1000
AcDbSavedByObjectVersion
1070
     0
  0
ACAD_PROXY_OBJECT
  5
31
102
{ACAD_REACTORS
330
2A
102
}
330
2A
100
AcDbProxyObject
 90
      499
 91
      501
 95
   393239
 70
     0
 93
      500
310
424CD108121A5919195B90640502408333333333333E3BF0000000000000FB01079024090700405020000000000001110200405405064090740C02480A0340
 94
        0
1001
ACAD
1000
AcDbSavedByObjectVersion
1070
     0
  0
ACAD_PROXY_OBJECT
  5
30
102
{ACAD_REACTORS
330
2A
102
}
330
2A
100
AcDbProxyObject
 90
      499
 91
      501
 95
   393239
 70
     0
 93
      436
310
42CCD915DA5C99599C985B595059028333333333333E3BF0000000000000FB0107901411070040501600405405064090741402480A0340
 94
        0
1001
ACAD
1000
AcDbSavedByObjectVersion
1070
     0
  0
ACAD_PROXY_OBJECT
  5
32
102
{ACAD_REACTORS
330
2A
102
}
330
2A
100
AcDbProxyObject
 90
      499
 91
      501
 95
   393239
 70
     0
 93
      388
310
4150985CDA58D07406404333333333333E3BF0000000000000FB0107A41107004050150841D405064090741402480A0354
 94
        0
1001
ACAD
1000
AcDbSavedByObjectVersion
1070
     0
  0
ACAD_PROXY_OBJECT
  5
36
102
{ACAD_REACTORS
330
2A
102
}
330
2A
100
AcDbProxyObject
 90
      499
 91
      501
 95
   393239
 70
     0
 93
      428
310
42109C9A59DA1D195B90C409028333333333333E3BF0000000000000FB010790141107004050150841D405064090741402480A029956
 94
        0
1001
ACAD
1000
AcDbSavedByObjectVersion
1070
     0
  0
ACAD_PROXY_OBJECT
  5
3A
102
{ACAD_REACTORS
330
2A
102
}
330
2A
100
AcDbProxyObject
 90
      499
 91
      501
 95
   393239
 70
     0
 93
      452
310
42D0DBDB1BDC90DA185B99D95104090240C333333333333E3BF0000000000000FB0108901411070040501508421405064090741402480A0354
 94
        0
1001
ACAD
1000
AcDbSavedByObjectVersion
1070
     0
  0
ACAD_PROXY_OBJECT
  5
34
102
{ACAD_REACTORS
330
2A
102
}
330
2A
100
AcDbProxyObject
 90
      499
 91
      501
 95
   393239
 70
     0
 93
      500
310
4290DBDB98D95C1D1D585B10940D028333333333333E3BF0000000000000FB0107902409070040501000000000000111010841D405064090740C02480A0340
 94
        0
1001
ACAD
1000
AcDbSavedByObjectVersion
1070
     0
  0
ACAD_PROXY_OBJECT
  5
35
102
{ACAD_REACTORS
330
2A
102
}
330
2A
100
AcDbProxyObject
 90
      499
 91
      501
 95
   393239
 70
     0
 93
      412
310
40D11A5B50B409028333333333333E3BF0000000000000FB010790141107004050150841D405064090741402480A02677FFFFFDB
 94
        0
1001
ACAD
1000
AcDbSavedByObjectVersion
1070
     0
  0
ACAD_PROXY_OBJECT
  5
39
102
{ACAD_REACTORS
330
2A
102
}
330
2A
100
AcDbProxyObject
 90
      499
 91
      501
 95
   393239
 70
     0
 93
      444
310
42D19858D95C185D1D195C9B90F409028333333333333E3BF0000000000000FB010790141107004050150841D405064090741402480A0350
 94
        0
1001
ACAD
1000
AcDbSavedByObjectVersion
1070
     0
  0
ACAD_PROXY_OBJECT
  5
2B
102
{ACAD_REACTORS
330
2A
102
}
330
2A
100
AcDbProxyObject
 90
      499
 91
      501
 95
   393239
 70
     0
 93
      388
310
41119B185D240901404333333333333E3BF0000000000000F9010740A41107004050150841D405064090741402480A1B50
 94
        0
1001
ACAD
1000
AcDbSavedByObjectVersion
1070
     0
  0
ACAD_PROXY_OBJECT
  5
2C
102
{ACAD_REACTORS
330
2A
102
}
330
2A
100
AcDbProxyObject
 90
      499
 91
      501
 95
   393239
 70
     0
 93
      476
310
43519B185D15DA5D1A115919D95CD0140901404333333333333E3BF0000000000000F9010740901411070040501600405405064090741402480A1B50
 94
        0
1001
ACAD
1000
AcDbSavedByObjectVersion
1070
     0
  0
ACAD_PROXY_OBJECT
  5
2D
102
{ACAD_REACTORS
330
2A
102
}
330
2A
100
AcDbProxyObject
 90
      499
 91
      501
 95
   393239
 70
     0
 93
      412
310
41D1DBDD5C985D5910240902404333333333333E3BF0000000000000F9010740A411070040501641D405064090741402480A1B50
 94
        0
1001
ACAD
1000
AcDbSavedByObjectVersion
1070
     0
  0
ACAD_PROXY_OBJECT
  5
2E
102
{ACAD_REACTORS
330
2A
102
}
330
2A
100
AcDbProxyObject
 90
      499
 91
      501
 95
   393239
 70
     0
 93
      500
310
4411DBDD5C985D5915DA5D1A115919D95CD0340902404333333333333E3BF0000000000000F9010740901411070040501600405405064090741402480A1B50
 94
        0
1001
ACAD
1000
AcDbSavedByObjectVersion
1070
     0
  0
ACAD_PROXY_OBJECT
  5
38
102
{ACAD_REACTORS
330
2A
102
}
330
2A
100
AcDbProxyObject
 90
      499
 91
      501
 95
   393239
 70
     0
 93
      444
310
42D31A5B995C185D1D195C9B90E409028333333333333E3BF0000000000000FB010790141107004050750841D405064090741402483A0350
 94
        0
1001
ACAD
1000
AcDbSavedByObjectVersion
1070
     0
  0
ACAD_PROXY_OBJECT
  5
33
102
{ACAD_REACTORS
330
2A
102
}
330
2A
100
AcDbProxyObject
 90
      499
 91
      501
 95
   393239
 70
     0
 93
      420
310
425499585B1A5CDD1A58D08409028333333333333E3BF0000000000000FB01079019070040501508421405064090741402480A1B45
 94
        0
1001
ACAD
1000
AcDbSavedByObjectVersion
1070
     0
  0
ACAD_PROXY_OBJECT
  5
37
102
{ACAD_REACTORS
330
2A
102
}
330
2A
100
AcDbProxyObject
 90
      499
 91
      501
 95
   393239
 70
     0
 93
      412
310
41D51A1A58DAD95B90D409028333333333333E3BF0000000000000FB010790141107004050150C41D405064090741402480A035B
 94
        0
1001
ACAD
1000
AcDbSavedByObjectVersion
1070
     0
  0
DICTIONARYVAR
  5
16F
102
{ACAD_REACTORS
330
16D
102
}
330
16D
100
DictionaryVariables
280
     0
  1
80.000000
  0
DICTIONARYVAR
  5
16E
102
{ACAD_REACTORS
330
16D
102
}
330
16D
100
DictionaryVariables
280
     0
  1
5.000000
  0
ENDSEC
  0
EOF
