  0
SECTION
  2
HEADER
  9
$ACADVER
  1
AC1018
  9
$ACADMAINTVER
 70
     0
  9
$DWGCODEPAGE
  3
ASCII
  9
$INSBASE
 10
0.0
 20
0.0
 30
0.0
  9
$EXTMIN
 10
1.000000000000000E+20
 20
1.000000000000000E+20
 30
1.000000000000000E+20
  9
$EXTMAX
 10
-1.000000000000000E+20
 20
-1.000000000000000E+20
 30
-1.000000000000000E+20
  9
$LIMMIN
 10
0.0
 20
0.0
  9
$LIMMAX
 10
12.0
 20
9.0
  9
$ORTHOMODE
 70
     0
  9
$REGENMODE
 70
     1
  9
$FILLMODE
 70
     1
  9
$QTEXTMODE
 70
     0
  9
$MIRRTEXT
 70
     1
  9
$LTSCALE
 40
1.0
  9
$ATTMODE
 70
     1
  9
$TEXTSIZE
 40
0.2
  9
$TRACEWID
 40
0.05
  9
$TEXTSTYLE
  7
Standard
  9
$CLAYER
  8
0
  9
$CELTYPE
  6
ByLayer
  9
$CECOLOR
 62
   256
  9
$CELTSCALE
 40
1.0
  9
$DISPSILH
 70
     0
  9
$DIMSCALE
 40
1.0
  9
$DIMASZ
 40
0.18
  9
$DIMEXO
 40
0.0625
  9
$DIMDLI
 40
0.38
  9
$DIMRND
 40
0.0
  9
$DIMDLE
 40
0.0
  9
$DIMEXE
 40
0.18
  9
$DIMTP
 40
0.0
  9
$DIMTM
 40
0.0
  9
$DIMTXT
 40
0.18
  9
$DIMCEN
 40
0.09
  9
$DIMTSZ
 40
0.0
  9
$DIMTOL
 70
     0
  9
$DIMLIM
 70
     0
  9
$DIMTIH
 70
     1
  9
$DIMTOH
 70
     1
  9
$DIMSE1
 70
     0
  9
$DIMSE2
 70
     0
  9
$DIMTAD
 70
     0
  9
$DIMZIN
 70
     0
  9
$DIMBLK
  1

  9
$DIMASO
 70
     1
  9
$DIMSHO
 70
     1
  9
$DIMPOST
  1

  9
$DIMAPOST
  1

  9
$DIMALT
 70
     0
  9
$DIMALTD
 70
     2
  9
$DIMALTF
 40
25.4
  9
$DIMLFAC
 40
1.0
  9
$DIMTOFL
 70
     0
  9
$DIMTVP
 40
0.0
  9
$DIMTIX
 70
     0
  9
$DIMSOXD
 70
     0
  9
$DIMSAH
 70
     0
  9
$DIMBLK1
  1

  9
$DIMBLK2
  1

  9
$DIMSTYLE
  2
Standard
  9
$DIMCLRD
 70
     0
  9
$DIMCLRE
 70
     0
  9
$DIMCLRT
 70
     0
  9
$DIMTFAC
 40
1.0
  9
$DIMGAP
 40
0.09
  9
$DIMJUST
 70
     0
  9
$DIMSD1
 70
     0
  9
$DIMSD2
 70
     0
  9
$DIMTOLJ
 70
     1
  9
$DIMTZIN
 70
     0
  9
$DIMALTZ
 70
     0
  9
$DIMALTTZ
 70
     0
  9
$DIMUPT
 70
     0
  9
$DIMDEC
 70
     4
  9
$DIMTDEC
 70
     4
  9
$DIMALTU
 70
     2
  9
$DIMALTTD
 70
     2
  9
$DIMTXSTY
  7
Standard
  9
$DIMAUNIT
 70
     0
  9
$DIMADEC
 70
     0
  9
$DIMALTRND
 40
0.0
  9
$DIMAZIN
 70
     0
  9
$DIMDSEP
 70
    46
  9
$DIMATFIT
 70
     3
  9
$DIMFRAC
 70
     0
  9
$DIMLDRBLK
  1

  9
$DIMLUNIT
 70
     2
  9
$DIMLWD
 70
    -2
  9
$DIMLWE
 70
    -2
  9
$DIMTMOVE
 70
     0
  9
$LUNITS
 70
     2
  9
$LUPREC
 70
     4
  9
$SKETCHINC
 40
0.1
  9
$FILLETRAD
 40
0.5
  9
$AUNITS
 70
     0
  9
$AUPREC
 70
     0
  9
$MENU
  1
.
  9
$ELEVATION
 40
0.0
  9
$PELEVATION
 40
0.0
  9
$THICKNESS
 40
0.0
  9
$LIMCHECK
 70
     0
  9
$CHAMFERA
 40
0.5
  9
$CHAMFERB
 40
0.5
  9
$CHAMFERC
 40
1.0
  9
$CHAMFERD
 40
0.0
  9
$SKPOLY
 70
     0
  9
$TDCREATE
 40
2456720.996664491
  9
$TDUCREATE
 40
2456720.954997824
  9
$TDUPDATE
 40
2456720.996664502
  9
$TDUUPDATE
 40
2456720.954997836
  9
$TDINDWG
 40
0.0000000116
  9
$TDUSRTIMER
 40
0.0000000116
  9
$USRTIMER
 70
     1
  9
$ANGBASE
 50
0.0
  9
$ANGDIR
 70
     0
  9
$PDMODE
 70
     0
  9
$PDSIZE
 40
0.0
  9
$PLINEWID
 40
0.0
  9
$SPLFRAME
 70
     0
  9
$SPLINETYPE
 70
     6
  9
$SPLINESEGS
 70
     8
  9
$HANDSEED
  5
616
  9
$SURFTAB1
 70
     6
  9
$SURFTAB2
 70
     6
  9
$SURFTYPE
 70
     6
  9
$SURFU
 70
     6
  9
$SURFV
 70
     6
  9
$UCSBASE
  2

  9
$UCSNAME
  2

  9
$UCSORG
 10
0.0
 20
0.0
 30
0.0
  9
$UCSXDIR
 10
1.0
 20
0.0
 30
0.0
  9
$UCSYDIR
 10
0.0
 20
1.0
 30
0.0
  9
$UCSORTHOREF
  2

  9
$UCSORTHOVIEW
 70
     0
  9
$UCSORGTOP
 10
0.0
 20
0.0
 30
0.0
  9
$UCSORGBOTTOM
 10
0.0
 20
0.0
 30
0.0
  9
$UCSORGLEFT
 10
0.0
 20
0.0
 30
0.0
  9
$UCSORGRIGHT
 10
0.0
 20
0.0
 30
0.0
  9
$UCSORGFRONT
 10
0.0
 20
0.0
 30
0.0
  9
$UCSORGBACK
 10
0.0
 20
0.0
 30
0.0
  9
$PUCSBASE
  2

  9
$PUCSNAME
  2

  9
$PUCSORG
 10
0.0
 20
0.0
 30
0.0
  9
$PUCSXDIR
 10
1.0
 20
0.0
 30
0.0
  9
$PUCSYDIR
 10
0.0
 20
1.0
 30
0.0
  9
$PUCSORTHOREF
  2

  9
$PUCSORTHOVIEW
 70
     0
  9
$PUCSORGTOP
 10
0.0
 20
0.0
 30
0.0
  9
$PUCSORGBOTTOM
 10
0.0
 20
0.0
 30
0.0
  9
$PUCSORGLEFT
 10
0.0
 20
0.0
 30
0.0
  9
$PUCSORGRIGHT
 10
0.0
 20
0.0
 30
0.0
  9
$PUCSORGFRONT
 10
0.0
 20
0.0
 30
0.0
  9
$PUCSORGBACK
 10
0.0
 20
0.0
 30
0.0
  9
$USERI1
 70
     0
  9
$USERI2
 70
     0
  9
$USERI3
 70
     0
  9
$USERI4
 70
     0
  9
$USERI5
 70
     0
  9
$USERR1
 40
0.0
  9
$USERR2
 40
0.0
  9
$USERR3
 40
0.0
  9
$USERR4
 40
0.0
  9
$USERR5
 40
0.0
  9
$WORLDVIEW
 70
     1
  9
$SHADEDGE
 70
     3
  9
$SHADEDIF
 70
    70
  9
$TILEMODE
 70
     1
  9
$MAXACTVP
 70
    64
  9
$PINSBASE
 10
0.0
 20
0.0
 30
0.0
  9
$PLIMCHECK
 70
     0
  9
$PEXTMIN
 10
1.000000000000000E+20
 20
1.000000000000000E+20
 30
1.000000000000000E+20
  9
$PEXTMAX
 10
-1.000000000000000E+20
 20
-1.000000000000000E+20
 30
-1.000000000000000E+20
  9
$PLIMMIN
 10
0.0
 20
0.0
  9
$PLIMMAX
 10
12.0
 20
9.0
  9
$UNITMODE
 70
     0
  9
$VISRETAIN
 70
     1
  9
$PLINEGEN
 70
     0
  9
$PSLTSCALE
 70
     1
  9
$TREEDEPTH
 70
  3020
  9
$CMLSTYLE
  2
Standard
  9
$CMLJUST
 70
     0
  9
$CMLSCALE
 40
1.0
  9
$PROXYGRAPHICS
 70
     1
  9
$MEASUREMENT
 70
     0
  9
$CELWEIGHT
370
    -1
  9
$ENDCAPS
280
     0
  9
$JOINSTYLE
280
     0
  9
$LWDISPLAY
290
     1
  9
$INSUNITS
 70
     1
  9
$HYPERLINKBASE
  1

  9
$STYLESHEET
  1

  9
$XEDIT
290
     1
  9
$CEPSNTYPE
380
     0
  9
$PSTYLEMODE
290
     1
  9
$FINGERPRINTGUID
  2
{39861A5A-3FA3-4C46-8E53-E060EFFACDD3}
  9
$VERSIONGUID
  2
{FAEB1C32-E019-11D5-929B-00C0DF256EC4}
  9
$EXTNAMES
290
     1
  9
$PSVPSCALE
 40
0.0
  9
$OLESTARTUP
290
     0
  9
$SORTENTS
280
   127
  9
$INDEXCTL
280
     0
  9
$HIDETEXT
280
     1
  9
$XCLIPFRAME
290
     0
  9
$HALOGAP
280
     0
  9
$OBSCOLOR
 70
   257
  9
$OBSLTYPE
280
     0
  9
$INTERSECTIONDISPLAY
280
     0
  9
$INTERSECTIONCOLOR
 70
   257
  9
$DIMASSOC
280
     2
  9
$PROJECTNAME
  1

  0
ENDSEC
  0
SECTION
  2
CLASSES
  0
CLASS
  1
ACDBDICTIONARYWDFLT
  2
AcDbDictionaryWithDefault
  3
ObjectDBX Classes
 90
        0
 91
        3
280
     0
281
     0
  0
CLASS
  1
VISUALSTYLE
  2
AcDbVisualStyle
  3
ObjectDBX Classes
 90
     4095
 91
        3
280
     0
281
     0
  0
ENDSEC
  0
SECTION
  2
TABLES
  0
TABLE
  2
VPORT
  5
8
330
0
100
AcDbSymbolTable
 70
     1
  0
VPORT
  5
29
330
8
100
AcDbSymbolTableRecord
100
AcDbViewportTableRecord
  2
*Active
 70
     0
 10
0.0
 20
0.0
 11
1.0
 21
1.0
 12
0.0
 22
0.0
 13
0.0
 23
0.0
 14
0.5
 24
0.5
 15
0.5
 25
0.5
 16
0.0
 26
0.0
 36
1.0
 17
105.0008952513716
 27
148.5000775824991
 37
0.0
 40
297.0001551649982
 41
0.7070763662937379
 42
50.0
 43
0.0
 44
0.0
 50
0.0
 51
0.0
 71
     0
 72
   100
 73
     1
 74
     3
 75
     0
 76
     0
 77
     0
 78
     0
281
     0
 65
     1
110
0.0
120
0.0
130
0.0
111
1.0
121
0.0
131
0.0
112
0.0
122
1.0
132
0.0
 79
     0
146
0.0
  0
ENDTAB
  0
TABLE
  2
LTYPE
  5
5
330
0
100
AcDbSymbolTable
 70
     4
  0
LTYPE
  5
14
330
5
100
AcDbSymbolTableRecord
100
AcDbLinetypeTableRecord
  2
ByBlock
 70
     0
  3

 72
    65
 73
     0
 40
0.0
  0
LTYPE
  5
15
330
5
100
AcDbSymbolTableRecord
100
AcDbLinetypeTableRecord
  2
ByLayer
 70
     0
  3

 72
    65
 73
     0
 40
0.0
  0
LTYPE
  5
16
330
5
100
AcDbSymbolTableRecord
100
AcDbLinetypeTableRecord
  2
Continuous
 70
     0
  3
Solid line
 72
    65
 73
     0
 40
0.0
  0
LTYPE
  5
3E8
330
5
100
AcDbSymbolTableRecord
100
AcDbLinetypeTableRecord
  2
AI-Linetype-1
 70
     0
  3
Adobe Illustrator Linetype No. 1
 72
    65
 73
     4
 40
19.9865670171981
 49
9.991519618586398
 74
     0
 49
-4.995759809293199
 74
     0
 49
0.0035277800253007
 74
     0
 49
-4.995759809293199
 74
     0
  0
LTYPE
  5
3F1
330
5
100
AcDbSymbolTableRecord
100
AcDbLinetypeTableRecord
  2
AI-Linetype-2
 70
     0
  3
Adobe Illustrator Linetype No. 2
 72
    65
 73
     4
 40
24.98232749936195
 49
12.48939985966833
 74
     0
 49
-6.244699929834163
 74
     0
 49
0.0035277800253007
 74
     0
 49
-6.244699929834163
 74
     0
  0
LTYPE
  5
3FA
330
5
100
AcDbSymbolTableRecord
100
AcDbLinetypeTableRecord
  2
AI-Linetype-3
 70
     0
  3
Adobe Illustrator Linetype No. 3
 72
    65
 73
     4
 40
24.98232749936195
 49
12.48939985966833
 74
     0
 49
-6.244699929834163
 74
     0
 49
0.0035277800253007
 74
     0
 49
-6.244699929834163
 74
     0
  0
ENDTAB
  0
TABLE
  2
LAYER
  5
2
330
0
100
AcDbSymbolTable
 70
     2
  0
LAYER
  5
10
330
2
100
AcDbSymbolTableRecord
100
AcDbLayerTableRecord
  2
0
 70
     0
 62
     7
  6
Continuous
370
    -3
390
F
  0
LAYER
  5
3B
330
2
100
AcDbSymbolTableRecord
100
AcDbLayerTableRecord
  2
Capa 1
 70
     0
 62
     7
  6
Continuous
370
    -3
390
F
  0
ENDTAB
  0
TABLE
  2
STYLE
  5
3
330
0
100
AcDbSymbolTable
 70
     1
  0
STYLE
  5
11
330
3
100
AcDbSymbolTableRecord
100
AcDbTextStyleTableRecord
  2
Standard
 70
     0
 40
0.0
 41
1.0
 50
0.0
 71
     0
 42
0.2
  3
txt
  4

  0
ENDTAB
  0
TABLE
  2
VIEW
  5
6
330
0
100
AcDbSymbolTable
 70
     0
  0
ENDTAB
  0
TABLE
  2
UCS
  5
7
330
0
100
AcDbSymbolTable
 70
     0
  0
ENDTAB
  0
TABLE
  2
APPID
  5
9
330
0
100
AcDbSymbolTable
 70
     1
  0
APPID
  5
12
330
9
100
AcDbSymbolTableRecord
100
AcDbRegAppTableRecord
  2
ACAD
 70
     0
  0
ENDTAB
  0
TABLE
  2
DIMSTYLE
  5
A
330
0
100
AcDbSymbolTable
 70
     1
100
AcDbDimStyleTable
  0
DIMSTYLE
105
27
330
A
100
AcDbSymbolTableRecord
100
AcDbDimStyleTableRecord
  2
Standard
 70
     0
340
11
  0
ENDTAB
  0
TABLE
  2
BLOCK_RECORD
  5
1
330
0
100
AcDbSymbolTable
 70
   211
  0
BLOCK_RECORD
  5
1F
330
1
100
AcDbSymbolTableRecord
100
AcDbBlockTableRecord
  2
*Model_Space
340
22
  0
BLOCK_RECORD
  5
1B
330
1
100
AcDbSymbolTableRecord
100
AcDbBlockTableRecord
  2
*Paper_Space
340
1E
  0
BLOCK_RECORD
  5
23
330
1
100
AcDbSymbolTableRecord
100
AcDbBlockTableRecord
  2
*Paper_Space0
340
26
  0
BLOCK_RECORD
  5
3C
330
1
100
AcDbSymbolTableRecord
100
AcDbBlockTableRecord
  2
block 2
340
0
102
{BLKREFS
331
3D
102
}
  0
BLOCK_RECORD
  5
50
330
1
100
AcDbSymbolTableRecord
100
AcDbBlockTableRecord
  2
block 3
340
0
102
{BLKREFS
331
51
102
}
  0
BLOCK_RECORD
  5
62
330
1
100
AcDbSymbolTableRecord
100
AcDbBlockTableRecord
  2
block 4
340
0
102
{BLKREFS
331
63
102
}
  0
BLOCK_RECORD
  5
76
330
1
100
AcDbSymbolTableRecord
100
AcDbBlockTableRecord
  2
block 5
340
0
102
{BLKREFS
331
77
102
}
  0
BLOCK_RECORD
  5
97
330
1
100
AcDbSymbolTableRecord
100
AcDbBlockTableRecord
  2
block 6
340
0
102
{BLKREFS
331
98
102
}
  0
BLOCK_RECORD
  5
AB
330
1
100
AcDbSymbolTableRecord
100
AcDbBlockTableRecord
  2
block 7
340
0
102
{BLKREFS
331
AC
102
}
  0
BLOCK_RECORD
  5
BD
330
1
100
AcDbSymbolTableRecord
100
AcDbBlockTableRecord
  2
block 8
340
0
102
{BLKREFS
331
BE
102
}
  0
BLOCK_RECORD
  5
D1
330
1
100
AcDbSymbolTableRecord
100
AcDbBlockTableRecord
  2
block 9
340
0
102
{BLKREFS
331
D2
102
}
  0
BLOCK_RECORD
  5
D9
330
1
100
AcDbSymbolTableRecord
100
AcDbBlockTableRecord
  2
block 10
340
0
102
{BLKREFS
331
DA
102
}
  0
BLOCK_RECORD
  5
E1
330
1
100
AcDbSymbolTableRecord
100
AcDbBlockTableRecord
  2
block 11
340
0
102
{BLKREFS
331
E2
102
}
  0
BLOCK_RECORD
  5
E9
330
1
100
AcDbSymbolTableRecord
100
AcDbBlockTableRecord
  2
block 12
340
0
102
{BLKREFS
331
EA
102
}
  0
BLOCK_RECORD
  5
EE
330
1
100
AcDbSymbolTableRecord
100
AcDbBlockTableRecord
  2
block 13
340
0
102
{BLKREFS
331
EF
102
}
  0
BLOCK_RECORD
  5
F3
330
1
100
AcDbSymbolTableRecord
100
AcDbBlockTableRecord
  2
block 14
340
0
102
{BLKREFS
331
F4
102
}
  0
BLOCK_RECORD
  5
F8
330
1
100
AcDbSymbolTableRecord
100
AcDbBlockTableRecord
  2
block 15
340
0
102
{BLKREFS
331
F9
102
}
  0
BLOCK_RECORD
  5
100
330
1
100
AcDbSymbolTableRecord
100
AcDbBlockTableRecord
  2
block 16
340
0
102
{BLKREFS
331
101
102
}
  0
BLOCK_RECORD
  5
105
330
1
100
AcDbSymbolTableRecord
100
AcDbBlockTableRecord
  2
block 17
340
0
102
{BLKREFS
331
106
102
}
  0
BLOCK_RECORD
  5
10A
330
1
100
AcDbSymbolTableRecord
100
AcDbBlockTableRecord
  2
block 18
340
0
102
{BLKREFS
331
10B
102
}
  0
BLOCK_RECORD
  5
112
330
1
100
AcDbSymbolTableRecord
100
AcDbBlockTableRecord
  2
block 19
340
0
102
{BLKREFS
331
113
102
}
  0
BLOCK_RECORD
  5
11A
330
1
100
AcDbSymbolTableRecord
100
AcDbBlockTableRecord
  2
block 20
340
0
102
{BLKREFS
331
11B
102
}
  0
BLOCK_RECORD
  5
122
330
1
100
AcDbSymbolTableRecord
100
AcDbBlockTableRecord
  2
block 21
340
0
102
{BLKREFS
331
123
102
}
  0
BLOCK_RECORD
  5
127
330
1
100
AcDbSymbolTableRecord
100
AcDbBlockTableRecord
  2
block 22
340
0
102
{BLKREFS
331
128
102
}
  0
BLOCK_RECORD
  5
12C
330
1
100
AcDbSymbolTableRecord
100
AcDbBlockTableRecord
  2
block 23
340
0
102
{BLKREFS
331
12D
102
}
  0
BLOCK_RECORD
  5
134
330
1
100
AcDbSymbolTableRecord
100
AcDbBlockTableRecord
  2
block 24
340
0
102
{BLKREFS
331
135
102
}
  0
BLOCK_RECORD
  5
13C
330
1
100
AcDbSymbolTableRecord
100
AcDbBlockTableRecord
  2
block 25
340
0
102
{BLKREFS
331
13D
102
}
  0
BLOCK_RECORD
  5
141
330
1
100
AcDbSymbolTableRecord
100
AcDbBlockTableRecord
  2
block 26
340
0
102
{BLKREFS
331
142
102
}
  0
BLOCK_RECORD
  5
149
330
1
100
AcDbSymbolTableRecord
100
AcDbBlockTableRecord
  2
block 27
340
0
102
{BLKREFS
331
14A
102
}
  0
BLOCK_RECORD
  5
151
330
1
100
AcDbSymbolTableRecord
100
AcDbBlockTableRecord
  2
block 28
340
0
102
{BLKREFS
331
152
102
}
  0
BLOCK_RECORD
  5
156
330
1
100
AcDbSymbolTableRecord
100
AcDbBlockTableRecord
  2
block 29
340
0
102
{BLKREFS
331
157
102
}
  0
BLOCK_RECORD
  5
15E
330
1
100
AcDbSymbolTableRecord
100
AcDbBlockTableRecord
  2
block 30
340
0
102
{BLKREFS
331
15F
102
}
  0
BLOCK_RECORD
  5
166
330
1
100
AcDbSymbolTableRecord
100
AcDbBlockTableRecord
  2
block 31
340
0
102
{BLKREFS
331
167
102
}
  0
BLOCK_RECORD
  5
16B
330
1
100
AcDbSymbolTableRecord
100
AcDbBlockTableRecord
  2
block 32
340
0
102
{BLKREFS
331
16C
102
}
  0
BLOCK_RECORD
  5
170
330
1
100
AcDbSymbolTableRecord
100
AcDbBlockTableRecord
  2
block 33
340
0
102
{BLKREFS
331
171
102
}
  0
BLOCK_RECORD
  5
175
330
1
100
AcDbSymbolTableRecord
100
AcDbBlockTableRecord
  2
block 34
340
0
102
{BLKREFS
331
176
102
}
  0
BLOCK_RECORD
  5
17A
330
1
100
AcDbSymbolTableRecord
100
AcDbBlockTableRecord
  2
block 35
340
0
102
{BLKREFS
331
17B
102
}
  0
BLOCK_RECORD
  5
17F
330
1
100
AcDbSymbolTableRecord
100
AcDbBlockTableRecord
  2
block 36
340
0
102
{BLKREFS
331
180
102
}
  0
BLOCK_RECORD
  5
184
330
1
100
AcDbSymbolTableRecord
100
AcDbBlockTableRecord
  2
block 37
340
0
102
{BLKREFS
331
185
102
}
  0
BLOCK_RECORD
  5
189
330
1
100
AcDbSymbolTableRecord
100
AcDbBlockTableRecord
  2
block 38
340
0
102
{BLKREFS
331
18A
102
}
  0
BLOCK_RECORD
  5
18E
330
1
100
AcDbSymbolTableRecord
100
AcDbBlockTableRecord
  2
block 39
340
0
102
{BLKREFS
331
18F
102
}
  0
BLOCK_RECORD
  5
193
330
1
100
AcDbSymbolTableRecord
100
AcDbBlockTableRecord
  2
block 40
340
0
102
{BLKREFS
331
194
102
}
  0
BLOCK_RECORD
  5
198
330
1
100
AcDbSymbolTableRecord
100
AcDbBlockTableRecord
  2
block 41
340
0
102
{BLKREFS
331
199
102
}
  0
BLOCK_RECORD
  5
19D
330
1
100
AcDbSymbolTableRecord
100
AcDbBlockTableRecord
  2
block 42
340
0
102
{BLKREFS
331
19E
102
}
  0
BLOCK_RECORD
  5
1A2
330
1
100
AcDbSymbolTableRecord
100
AcDbBlockTableRecord
  2
block 43
340
0
102
{BLKREFS
331
1A3
102
}
  0
BLOCK_RECORD
  5
1AA
330
1
100
AcDbSymbolTableRecord
100
AcDbBlockTableRecord
  2
block 44
340
0
102
{BLKREFS
331
1AB
102
}
  0
BLOCK_RECORD
  5
1AF
330
1
100
AcDbSymbolTableRecord
100
AcDbBlockTableRecord
  2
block 45
340
0
102
{BLKREFS
331
1B0
102
}
  0
BLOCK_RECORD
  5
1B7
330
1
100
AcDbSymbolTableRecord
100
AcDbBlockTableRecord
  2
block 46
340
0
102
{BLKREFS
331
1B8
102
}
  0
BLOCK_RECORD
  5
1BF
330
1
100
AcDbSymbolTableRecord
100
AcDbBlockTableRecord
  2
block 47
340
0
102
{BLKREFS
331
1C0
102
}
  0
BLOCK_RECORD
  5
1C4
330
1
100
AcDbSymbolTableRecord
100
AcDbBlockTableRecord
  2
block 48
340
0
102
{BLKREFS
331
1C5
102
}
  0
BLOCK_RECORD
  5
1C9
330
1
100
AcDbSymbolTableRecord
100
AcDbBlockTableRecord
  2
block 49
340
0
102
{BLKREFS
331
1CA
102
}
  0
BLOCK_RECORD
  5
1CE
330
1
100
AcDbSymbolTableRecord
100
AcDbBlockTableRecord
  2
block 50
340
0
102
{BLKREFS
331
1CF
102
}
  0
BLOCK_RECORD
  5
1D6
330
1
100
AcDbSymbolTableRecord
100
AcDbBlockTableRecord
  2
block 51
340
0
102
{BLKREFS
331
1D7
102
}
  0
BLOCK_RECORD
  5
1DE
330
1
100
AcDbSymbolTableRecord
100
AcDbBlockTableRecord
  2
block 52
340
0
102
{BLKREFS
331
1DF
102
}
  0
BLOCK_RECORD
  5
1E6
330
1
100
AcDbSymbolTableRecord
100
AcDbBlockTableRecord
  2
block 53
340
0
102
{BLKREFS
331
1E7
102
}
  0
BLOCK_RECORD
  5
1EE
330
1
100
AcDbSymbolTableRecord
100
AcDbBlockTableRecord
  2
block 54
340
0
102
{BLKREFS
331
1EF
102
}
  0
BLOCK_RECORD
  5
1F6
330
1
100
AcDbSymbolTableRecord
100
AcDbBlockTableRecord
  2
block 55
340
0
102
{BLKREFS
331
1F7
102
}
  0
BLOCK_RECORD
  5
1FE
330
1
100
AcDbSymbolTableRecord
100
AcDbBlockTableRecord
  2
block 56
340
0
102
{BLKREFS
331
1FF
102
}
  0
BLOCK_RECORD
  5
206
330
1
100
AcDbSymbolTableRecord
100
AcDbBlockTableRecord
  2
block 57
340
0
102
{BLKREFS
331
207
102
}
  0
BLOCK_RECORD
  5
20B
330
1
100
AcDbSymbolTableRecord
100
AcDbBlockTableRecord
  2
block 58
340
0
102
{BLKREFS
331
20C
102
}
  0
BLOCK_RECORD
  5
213
330
1
100
AcDbSymbolTableRecord
100
AcDbBlockTableRecord
  2
block 59
340
0
102
{BLKREFS
331
214
102
}
  0
BLOCK_RECORD
  5
21B
330
1
100
AcDbSymbolTableRecord
100
AcDbBlockTableRecord
  2
block 60
340
0
102
{BLKREFS
331
21C
102
}
  0
BLOCK_RECORD
  5
220
330
1
100
AcDbSymbolTableRecord
100
AcDbBlockTableRecord
  2
block 61
340
0
102
{BLKREFS
331
221
102
}
  0
BLOCK_RECORD
  5
228
330
1
100
AcDbSymbolTableRecord
100
AcDbBlockTableRecord
  2
block 62
340
0
102
{BLKREFS
331
229
102
}
  0
BLOCK_RECORD
  5
230
330
1
100
AcDbSymbolTableRecord
100
AcDbBlockTableRecord
  2
block 63
340
0
102
{BLKREFS
331
231
102
}
  0
BLOCK_RECORD
  5
235
330
1
100
AcDbSymbolTableRecord
100
AcDbBlockTableRecord
  2
block 64
340
0
102
{BLKREFS
331
236
102
}
  0
BLOCK_RECORD
  5
23A
330
1
100
AcDbSymbolTableRecord
100
AcDbBlockTableRecord
  2
block 65
340
0
102
{BLKREFS
331
23B
102
}
  0
BLOCK_RECORD
  5
23F
330
1
100
AcDbSymbolTableRecord
100
AcDbBlockTableRecord
  2
block 66
340
0
102
{BLKREFS
331
240
102
}
  0
BLOCK_RECORD
  5
244
330
1
100
AcDbSymbolTableRecord
100
AcDbBlockTableRecord
  2
block 67
340
0
102
{BLKREFS
331
245
102
}
  0
BLOCK_RECORD
  5
249
330
1
100
AcDbSymbolTableRecord
100
AcDbBlockTableRecord
  2
block 68
340
0
102
{BLKREFS
331
24A
102
}
  0
BLOCK_RECORD
  5
24E
330
1
100
AcDbSymbolTableRecord
100
AcDbBlockTableRecord
  2
block 69
340
0
102
{BLKREFS
331
24F
102
}
  0
BLOCK_RECORD
  5
253
330
1
100
AcDbSymbolTableRecord
100
AcDbBlockTableRecord
  2
block 70
340
0
102
{BLKREFS
331
254
102
}
  0
BLOCK_RECORD
  5
258
330
1
100
AcDbSymbolTableRecord
100
AcDbBlockTableRecord
  2
block 71
340
0
102
{BLKREFS
331
259
102
}
  0
BLOCK_RECORD
  5
25D
330
1
100
AcDbSymbolTableRecord
100
AcDbBlockTableRecord
  2
block 72
340
0
102
{BLKREFS
331
25E
102
}
  0
BLOCK_RECORD
  5
262
330
1
100
AcDbSymbolTableRecord
100
AcDbBlockTableRecord
  2
block 73
340
0
102
{BLKREFS
331
263
102
}
  0
BLOCK_RECORD
  5
267
330
1
100
AcDbSymbolTableRecord
100
AcDbBlockTableRecord
  2
block 74
340
0
102
{BLKREFS
331
268
102
}
  0
BLOCK_RECORD
  5
26C
330
1
100
AcDbSymbolTableRecord
100
AcDbBlockTableRecord
  2
block 75
340
0
102
{BLKREFS
331
26D
102
}
  0
BLOCK_RECORD
  5
274
330
1
100
AcDbSymbolTableRecord
100
AcDbBlockTableRecord
  2
block 76
340
0
102
{BLKREFS
331
275
102
}
  0
BLOCK_RECORD
  5
279
330
1
100
AcDbSymbolTableRecord
100
AcDbBlockTableRecord
  2
block 77
340
0
102
{BLKREFS
331
27A
102
}
  0
BLOCK_RECORD
  5
281
330
1
100
AcDbSymbolTableRecord
100
AcDbBlockTableRecord
  2
block 78
340
0
102
{BLKREFS
331
282
102
}
  0
BLOCK_RECORD
  5
289
330
1
100
AcDbSymbolTableRecord
100
AcDbBlockTableRecord
  2
block 79
340
0
102
{BLKREFS
331
28A
102
}
  0
BLOCK_RECORD
  5
28E
330
1
100
AcDbSymbolTableRecord
100
AcDbBlockTableRecord
  2
block 80
340
0
102
{BLKREFS
331
28F
102
}
  0
BLOCK_RECORD
  5
293
330
1
100
AcDbSymbolTableRecord
100
AcDbBlockTableRecord
  2
block 81
340
0
102
{BLKREFS
331
294
102
}
  0
BLOCK_RECORD
  5
298
330
1
100
AcDbSymbolTableRecord
100
AcDbBlockTableRecord
  2
block 82
340
0
102
{BLKREFS
331
299
102
}
  0
BLOCK_RECORD
  5
2A0
330
1
100
AcDbSymbolTableRecord
100
AcDbBlockTableRecord
  2
block 83
340
0
102
{BLKREFS
331
2A1
102
}
  0
BLOCK_RECORD
  5
2A8
330
1
100
AcDbSymbolTableRecord
100
AcDbBlockTableRecord
  2
block 84
340
0
102
{BLKREFS
331
2A9
102
}
  0
BLOCK_RECORD
  5
2B0
330
1
100
AcDbSymbolTableRecord
100
AcDbBlockTableRecord
  2
block 85
340
0
102
{BLKREFS
331
2B1
102
}
  0
BLOCK_RECORD
  5
2B8
330
1
100
AcDbSymbolTableRecord
100
AcDbBlockTableRecord
  2
block 86
340
0
102
{BLKREFS
331
2B9
102
}
  0
BLOCK_RECORD
  5
2C0
330
1
100
AcDbSymbolTableRecord
100
AcDbBlockTableRecord
  2
block 87
340
0
102
{BLKREFS
331
2C1
102
}
  0
BLOCK_RECORD
  5
2C8
330
1
100
AcDbSymbolTableRecord
100
AcDbBlockTableRecord
  2
block 88
340
0
102
{BLKREFS
331
2C9
102
}
  0
BLOCK_RECORD
  5
2D0
330
1
100
AcDbSymbolTableRecord
100
AcDbBlockTableRecord
  2
block 89
340
0
102
{BLKREFS
331
2D1
102
}
  0
BLOCK_RECORD
  5
2D8
330
1
100
AcDbSymbolTableRecord
100
AcDbBlockTableRecord
  2
block 90
340
0
102
{BLKREFS
331
2D9
102
}
  0
BLOCK_RECORD
  5
2E0
330
1
100
AcDbSymbolTableRecord
100
AcDbBlockTableRecord
  2
block 91
340
0
102
{BLKREFS
331
2E1
102
}
  0
BLOCK_RECORD
  5
2E5
330
1
100
AcDbSymbolTableRecord
100
AcDbBlockTableRecord
  2
block 92
340
0
102
{BLKREFS
331
2E6
102
}
  0
BLOCK_RECORD
  5
2EA
330
1
100
AcDbSymbolTableRecord
100
AcDbBlockTableRecord
  2
block 93
340
0
102
{BLKREFS
331
2EB
102
}
  0
BLOCK_RECORD
  5
2EF
330
1
100
AcDbSymbolTableRecord
100
AcDbBlockTableRecord
  2
block 94
340
0
102
{BLKREFS
331
2F0
102
}
  0
BLOCK_RECORD
  5
2F4
330
1
100
AcDbSymbolTableRecord
100
AcDbBlockTableRecord
  2
block 95
340
0
102
{BLKREFS
331
2F5
102
}
  0
BLOCK_RECORD
  5
2F9
330
1
100
AcDbSymbolTableRecord
100
AcDbBlockTableRecord
  2
block 96
340
0
102
{BLKREFS
331
2FA
102
}
  0
BLOCK_RECORD
  5
2FE
330
1
100
AcDbSymbolTableRecord
100
AcDbBlockTableRecord
  2
block 97
340
0
102
{BLKREFS
331
2FF
102
}
  0
BLOCK_RECORD
  5
303
330
1
100
AcDbSymbolTableRecord
100
AcDbBlockTableRecord
  2
block 98
340
0
102
{BLKREFS
331
304
102
}
  0
BLOCK_RECORD
  5
308
330
1
100
AcDbSymbolTableRecord
100
AcDbBlockTableRecord
  2
block 99
340
0
102
{BLKREFS
331
309
102
}
  0
BLOCK_RECORD
  5
30D
330
1
100
AcDbSymbolTableRecord
100
AcDbBlockTableRecord
  2
block 100
340
0
102
{BLKREFS
331
30E
102
}
  0
BLOCK_RECORD
  5
312
330
1
100
AcDbSymbolTableRecord
100
AcDbBlockTableRecord
  2
block 101
340
0
102
{BLKREFS
331
313
102
}
  0
BLOCK_RECORD
  5
317
330
1
100
AcDbSymbolTableRecord
100
AcDbBlockTableRecord
  2
block 102
340
0
102
{BLKREFS
331
318
102
}
  0
BLOCK_RECORD
  5
31C
330
1
100
AcDbSymbolTableRecord
100
AcDbBlockTableRecord
  2
block 103
340
0
102
{BLKREFS
331
31D
102
}
  0
BLOCK_RECORD
  5
321
330
1
100
AcDbSymbolTableRecord
100
AcDbBlockTableRecord
  2
block 104
340
0
102
{BLKREFS
331
322
102
}
  0
BLOCK_RECORD
  5
326
330
1
100
AcDbSymbolTableRecord
100
AcDbBlockTableRecord
  2
block 105
340
0
102
{BLKREFS
331
327
102
}
  0
BLOCK_RECORD
  5
32B
330
1
100
AcDbSymbolTableRecord
100
AcDbBlockTableRecord
  2
block 106
340
0
102
{BLKREFS
331
32C
102
}
  0
BLOCK_RECORD
  5
330
330
1
100
AcDbSymbolTableRecord
100
AcDbBlockTableRecord
  2
block 107
340
0
102
{BLKREFS
331
331
102
}
  0
BLOCK_RECORD
  5
335
330
1
100
AcDbSymbolTableRecord
100
AcDbBlockTableRecord
  2
block 108
340
0
102
{BLKREFS
331
336
102
}
  0
BLOCK_RECORD
  5
33A
330
1
100
AcDbSymbolTableRecord
100
AcDbBlockTableRecord
  2
block 109
340
0
102
{BLKREFS
331
33B
102
}
  0
BLOCK_RECORD
  5
33F
330
1
100
AcDbSymbolTableRecord
100
AcDbBlockTableRecord
  2
block 110
340
0
102
{BLKREFS
331
340
102
}
  0
BLOCK_RECORD
  5
344
330
1
100
AcDbSymbolTableRecord
100
AcDbBlockTableRecord
  2
block 111
340
0
102
{BLKREFS
331
345
102
}
  0
BLOCK_RECORD
  5
349
330
1
100
AcDbSymbolTableRecord
100
AcDbBlockTableRecord
  2
block 112
340
0
102
{BLKREFS
331
34A
102
}
  0
BLOCK_RECORD
  5
34E
330
1
100
AcDbSymbolTableRecord
100
AcDbBlockTableRecord
  2
block 113
340
0
102
{BLKREFS
331
34F
102
}
  0
BLOCK_RECORD
  5
353
330
1
100
AcDbSymbolTableRecord
100
AcDbBlockTableRecord
  2
block 114
340
0
102
{BLKREFS
331
354
102
}
  0
BLOCK_RECORD
  5
358
330
1
100
AcDbSymbolTableRecord
100
AcDbBlockTableRecord
  2
block 115
340
0
102
{BLKREFS
331
359
102
}
  0
BLOCK_RECORD
  5
35D
330
1
100
AcDbSymbolTableRecord
100
AcDbBlockTableRecord
  2
block 116
340
0
102
{BLKREFS
331
35E
102
}
  0
BLOCK_RECORD
  5
362
330
1
100
AcDbSymbolTableRecord
100
AcDbBlockTableRecord
  2
block 117
340
0
102
{BLKREFS
331
363
102
}
  0
BLOCK_RECORD
  5
367
330
1
100
AcDbSymbolTableRecord
100
AcDbBlockTableRecord
  2
block 118
340
0
102
{BLKREFS
331
368
102
}
  0
BLOCK_RECORD
  5
36C
330
1
100
AcDbSymbolTableRecord
100
AcDbBlockTableRecord
  2
block 119
340
0
102
{BLKREFS
331
36D
102
}
  0
BLOCK_RECORD
  5
371
330
1
100
AcDbSymbolTableRecord
100
AcDbBlockTableRecord
  2
block 120
340
0
102
{BLKREFS
331
372
102
}
  0
BLOCK_RECORD
  5
376
330
1
100
AcDbSymbolTableRecord
100
AcDbBlockTableRecord
  2
block 121
340
0
102
{BLKREFS
331
377
102
}
  0
BLOCK_RECORD
  5
37B
330
1
100
AcDbSymbolTableRecord
100
AcDbBlockTableRecord
  2
block 122
340
0
102
{BLKREFS
331
37C
102
}
  0
BLOCK_RECORD
  5
380
330
1
100
AcDbSymbolTableRecord
100
AcDbBlockTableRecord
  2
block 123
340
0
102
{BLKREFS
331
381
102
}
  0
BLOCK_RECORD
  5
385
330
1
100
AcDbSymbolTableRecord
100
AcDbBlockTableRecord
  2
block 124
340
0
102
{BLKREFS
331
386
102
}
  0
BLOCK_RECORD
  5
38A
330
1
100
AcDbSymbolTableRecord
100
AcDbBlockTableRecord
  2
block 125
340
0
102
{BLKREFS
331
38B
102
}
  0
BLOCK_RECORD
  5
38F
330
1
100
AcDbSymbolTableRecord
100
AcDbBlockTableRecord
  2
block 126
340
0
102
{BLKREFS
331
390
102
}
  0
BLOCK_RECORD
  5
394
330
1
100
AcDbSymbolTableRecord
100
AcDbBlockTableRecord
  2
block 127
340
0
102
{BLKREFS
331
395
102
}
  0
BLOCK_RECORD
  5
399
330
1
100
AcDbSymbolTableRecord
100
AcDbBlockTableRecord
  2
block 128
340
0
102
{BLKREFS
331
39A
102
}
  0
BLOCK_RECORD
  5
39E
330
1
100
AcDbSymbolTableRecord
100
AcDbBlockTableRecord
  2
block 129
340
0
102
{BLKREFS
331
39F
102
}
  0
BLOCK_RECORD
  5
3A3
330
1
100
AcDbSymbolTableRecord
100
AcDbBlockTableRecord
  2
block 130
340
0
102
{BLKREFS
331
3A4
102
}
  0
BLOCK_RECORD
  5
3A8
330
1
100
AcDbSymbolTableRecord
100
AcDbBlockTableRecord
  2
block 131
340
0
102
{BLKREFS
331
3A9
102
}
  0
BLOCK_RECORD
  5
3B0
330
1
100
AcDbSymbolTableRecord
100
AcDbBlockTableRecord
  2
block 132
340
0
102
{BLKREFS
331
3B1
102
}
  0
BLOCK_RECORD
  5
3B8
330
1
100
AcDbSymbolTableRecord
100
AcDbBlockTableRecord
  2
block 133
340
0
102
{BLKREFS
331
3B9
102
}
  0
BLOCK_RECORD
  5
3BD
330
1
100
AcDbSymbolTableRecord
100
AcDbBlockTableRecord
  2
block 134
340
0
102
{BLKREFS
331
3BE
102
}
  0
BLOCK_RECORD
  5
3C2
330
1
100
AcDbSymbolTableRecord
100
AcDbBlockTableRecord
  2
block 135
340
0
102
{BLKREFS
331
3C3
102
}
  0
BLOCK_RECORD
  5
3C7
330
1
100
AcDbSymbolTableRecord
100
AcDbBlockTableRecord
  2
block 136
340
0
102
{BLKREFS
331
3C8
102
}
  0
BLOCK_RECORD
  5
3CC
330
1
100
AcDbSymbolTableRecord
100
AcDbBlockTableRecord
  2
block 137
340
0
102
{BLKREFS
331
3CD
102
}
  0
BLOCK_RECORD
  5
3D1
330
1
100
AcDbSymbolTableRecord
100
AcDbBlockTableRecord
  2
block 138
340
0
102
{BLKREFS
331
3D2
102
}
  0
BLOCK_RECORD
  5
3D6
330
1
100
AcDbSymbolTableRecord
100
AcDbBlockTableRecord
  2
block 139
340
0
102
{BLKREFS
331
3D7
102
}
  0
BLOCK_RECORD
  5
3DB
330
1
100
AcDbSymbolTableRecord
100
AcDbBlockTableRecord
  2
block 140
340
0
102
{BLKREFS
331
3DC
102
}
  0
BLOCK_RECORD
  5
3E0
330
1
100
AcDbSymbolTableRecord
100
AcDbBlockTableRecord
  2
block 141
340
0
102
{BLKREFS
331
3E1
102
}
  0
BLOCK_RECORD
  5
3E9
330
1
100
AcDbSymbolTableRecord
100
AcDbBlockTableRecord
  2
block 142
340
0
102
{BLKREFS
331
3EA
102
}
  0
BLOCK_RECORD
  5
3F2
330
1
100
AcDbSymbolTableRecord
100
AcDbBlockTableRecord
  2
block 143
340
0
102
{BLKREFS
331
3F3
102
}
  0
BLOCK_RECORD
  5
3FB
330
1
100
AcDbSymbolTableRecord
100
AcDbBlockTableRecord
  2
block 144
340
0
102
{BLKREFS
331
3FC
102
}
  0
BLOCK_RECORD
  5
403
330
1
100
AcDbSymbolTableRecord
100
AcDbBlockTableRecord
  2
block 145
340
0
102
{BLKREFS
331
404
102
}
  0
BLOCK_RECORD
  5
40B
330
1
100
AcDbSymbolTableRecord
100
AcDbBlockTableRecord
  2
block 146
340
0
102
{BLKREFS
331
40C
102
}
  0
BLOCK_RECORD
  5
40F
330
1
100
AcDbSymbolTableRecord
100
AcDbBlockTableRecord
  2
block 147
340
0
102
{BLKREFS
331
410
102
}
  0
BLOCK_RECORD
  5
417
330
1
100
AcDbSymbolTableRecord
100
AcDbBlockTableRecord
  2
block 148
340
0
102
{BLKREFS
331
418
102
}
  0
BLOCK_RECORD
  5
41F
330
1
100
AcDbSymbolTableRecord
100
AcDbBlockTableRecord
  2
block 149
340
0
102
{BLKREFS
331
420
102
}
  0
BLOCK_RECORD
  5
427
330
1
100
AcDbSymbolTableRecord
100
AcDbBlockTableRecord
  2
block 150
340
0
102
{BLKREFS
331
428
102
}
  0
BLOCK_RECORD
  5
42F
330
1
100
AcDbSymbolTableRecord
100
AcDbBlockTableRecord
  2
block 151
340
0
102
{BLKREFS
331
430
102
}
  0
BLOCK_RECORD
  5
43A
330
1
100
AcDbSymbolTableRecord
100
AcDbBlockTableRecord
  2
block 152
340
0
102
{BLKREFS
331
43B
102
}
  0
BLOCK_RECORD
  5
445
330
1
100
AcDbSymbolTableRecord
100
AcDbBlockTableRecord
  2
block 153
340
0
102
{BLKREFS
331
446
102
}
  0
BLOCK_RECORD
  5
44A
330
1
100
AcDbSymbolTableRecord
100
AcDbBlockTableRecord
  2
block 154
340
0
102
{BLKREFS
331
44B
102
}
  0
BLOCK_RECORD
  5
452
330
1
100
AcDbSymbolTableRecord
100
AcDbBlockTableRecord
  2
block 155
340
0
102
{BLKREFS
331
453
102
}
  0
BLOCK_RECORD
  5
45A
330
1
100
AcDbSymbolTableRecord
100
AcDbBlockTableRecord
  2
block 156
340
0
102
{BLKREFS
331
45B
102
}
  0
BLOCK_RECORD
  5
462
330
1
100
AcDbSymbolTableRecord
100
AcDbBlockTableRecord
  2
block 157
340
0
102
{BLKREFS
331
463
102
}
  0
BLOCK_RECORD
  5
466
330
1
100
AcDbSymbolTableRecord
100
AcDbBlockTableRecord
  2
block 158
340
0
102
{BLKREFS
331
467
102
}
  0
BLOCK_RECORD
  5
46E
330
1
100
AcDbSymbolTableRecord
100
AcDbBlockTableRecord
  2
block 159
340
0
102
{BLKREFS
331
46F
102
}
  0
BLOCK_RECORD
  5
476
330
1
100
AcDbSymbolTableRecord
100
AcDbBlockTableRecord
  2
block 160
340
0
102
{BLKREFS
331
477
102
}
  0
BLOCK_RECORD
  5
47E
330
1
100
AcDbSymbolTableRecord
100
AcDbBlockTableRecord
  2
block 161
340
0
102
{BLKREFS
331
47F
102
}
  0
BLOCK_RECORD
  5
486
330
1
100
AcDbSymbolTableRecord
100
AcDbBlockTableRecord
  2
block 162
340
0
102
{BLKREFS
331
487
102
}
  0
BLOCK_RECORD
  5
491
330
1
100
AcDbSymbolTableRecord
100
AcDbBlockTableRecord
  2
block 163
340
0
102
{BLKREFS
331
492
102
}
  0
BLOCK_RECORD
  5
49C
330
1
100
AcDbSymbolTableRecord
100
AcDbBlockTableRecord
  2
block 164
340
0
102
{BLKREFS
331
49D
102
}
  0
BLOCK_RECORD
  5
4A1
330
1
100
AcDbSymbolTableRecord
100
AcDbBlockTableRecord
  2
block 165
340
0
102
{BLKREFS
331
4A2
102
}
  0
BLOCK_RECORD
  5
4A9
330
1
100
AcDbSymbolTableRecord
100
AcDbBlockTableRecord
  2
block 166
340
0
102
{BLKREFS
331
4AA
102
}
  0
BLOCK_RECORD
  5
4B1
330
1
100
AcDbSymbolTableRecord
100
AcDbBlockTableRecord
  2
block 167
340
0
102
{BLKREFS
331
4B2
102
}
  0
BLOCK_RECORD
  5
4B9
330
1
100
AcDbSymbolTableRecord
100
AcDbBlockTableRecord
  2
block 168
340
0
102
{BLKREFS
331
4BA
102
}
  0
BLOCK_RECORD
  5
4BD
330
1
100
AcDbSymbolTableRecord
100
AcDbBlockTableRecord
  2
block 169
340
0
102
{BLKREFS
331
4BE
102
}
  0
BLOCK_RECORD
  5
4C5
330
1
100
AcDbSymbolTableRecord
100
AcDbBlockTableRecord
  2
block 170
340
0
102
{BLKREFS
331
4C6
102
}
  0
BLOCK_RECORD
  5
4CD
330
1
100
AcDbSymbolTableRecord
100
AcDbBlockTableRecord
  2
block 171
340
0
102
{BLKREFS
331
4CE
102
}
  0
BLOCK_RECORD
  5
4D5
330
1
100
AcDbSymbolTableRecord
100
AcDbBlockTableRecord
  2
block 172
340
0
102
{BLKREFS
331
4D6
102
}
  0
BLOCK_RECORD
  5
4DD
330
1
100
AcDbSymbolTableRecord
100
AcDbBlockTableRecord
  2
block 173
340
0
102
{BLKREFS
331
4DE
102
}
  0
BLOCK_RECORD
  5
4E8
330
1
100
AcDbSymbolTableRecord
100
AcDbBlockTableRecord
  2
block 174
340
0
102
{BLKREFS
331
4E9
102
}
  0
BLOCK_RECORD
  5
4F3
330
1
100
AcDbSymbolTableRecord
100
AcDbBlockTableRecord
  2
block 175
340
0
102
{BLKREFS
331
4F4
102
}
  0
BLOCK_RECORD
  5
4F8
330
1
100
AcDbSymbolTableRecord
100
AcDbBlockTableRecord
  2
block 176
340
0
102
{BLKREFS
331
4F9
102
}
  0
BLOCK_RECORD
  5
500
330
1
100
AcDbSymbolTableRecord
100
AcDbBlockTableRecord
  2
block 177
340
0
102
{BLKREFS
331
501
102
}
  0
BLOCK_RECORD
  5
508
330
1
100
AcDbSymbolTableRecord
100
AcDbBlockTableRecord
  2
block 178
340
0
102
{BLKREFS
331
509
102
}
  0
BLOCK_RECORD
  5
510
330
1
100
AcDbSymbolTableRecord
100
AcDbBlockTableRecord
  2
block 179
340
0
102
{BLKREFS
331
511
102
}
  0
BLOCK_RECORD
  5
514
330
1
100
AcDbSymbolTableRecord
100
AcDbBlockTableRecord
  2
block 180
340
0
102
{BLKREFS
331
515
102
}
  0
BLOCK_RECORD
  5
51C
330
1
100
AcDbSymbolTableRecord
100
AcDbBlockTableRecord
  2
block 181
340
0
102
{BLKREFS
331
51D
102
}
  0
BLOCK_RECORD
  5
524
330
1
100
AcDbSymbolTableRecord
100
AcDbBlockTableRecord
  2
block 182
340
0
102
{BLKREFS
331
525
102
}
  0
BLOCK_RECORD
  5
52C
330
1
100
AcDbSymbolTableRecord
100
AcDbBlockTableRecord
  2
block 183
340
0
102
{BLKREFS
331
52D
102
}
  0
BLOCK_RECORD
  5
534
330
1
100
AcDbSymbolTableRecord
100
AcDbBlockTableRecord
  2
block 184
340
0
102
{BLKREFS
331
535
102
}
  0
BLOCK_RECORD
  5
53F
330
1
100
AcDbSymbolTableRecord
100
AcDbBlockTableRecord
  2
block 185
340
0
102
{BLKREFS
331
540
102
}
  0
BLOCK_RECORD
  5
54A
330
1
100
AcDbSymbolTableRecord
100
AcDbBlockTableRecord
  2
block 186
340
0
102
{BLKREFS
331
54B
102
}
  0
BLOCK_RECORD
  5
54F
330
1
100
AcDbSymbolTableRecord
100
AcDbBlockTableRecord
  2
block 187
340
0
102
{BLKREFS
331
550
102
}
  0
BLOCK_RECORD
  5
557
330
1
100
AcDbSymbolTableRecord
100
AcDbBlockTableRecord
  2
block 188
340
0
102
{BLKREFS
331
558
102
}
  0
BLOCK_RECORD
  5
55F
330
1
100
AcDbSymbolTableRecord
100
AcDbBlockTableRecord
  2
block 189
340
0
102
{BLKREFS
331
560
102
}
  0
BLOCK_RECORD
  5
567
330
1
100
AcDbSymbolTableRecord
100
AcDbBlockTableRecord
  2
block 190
340
0
102
{BLKREFS
331
568
102
}
  0
BLOCK_RECORD
  5
56B
330
1
100
AcDbSymbolTableRecord
100
AcDbBlockTableRecord
  2
block 191
340
0
102
{BLKREFS
331
56C
102
}
  0
BLOCK_RECORD
  5
573
330
1
100
AcDbSymbolTableRecord
100
AcDbBlockTableRecord
  2
block 192
340
0
102
{BLKREFS
331
574
102
}
  0
BLOCK_RECORD
  5
57B
330
1
100
AcDbSymbolTableRecord
100
AcDbBlockTableRecord
  2
block 193
340
0
102
{BLKREFS
331
57C
102
}
  0
BLOCK_RECORD
  5
583
330
1
100
AcDbSymbolTableRecord
100
AcDbBlockTableRecord
  2
block 194
340
0
102
{BLKREFS
331
584
102
}
  0
BLOCK_RECORD
  5
58B
330
1
100
AcDbSymbolTableRecord
100
AcDbBlockTableRecord
  2
block 195
340
0
102
{BLKREFS
331
58C
102
}
  0
BLOCK_RECORD
  5
596
330
1
100
AcDbSymbolTableRecord
100
AcDbBlockTableRecord
  2
block 196
340
0
102
{BLKREFS
331
597
102
}
  0
BLOCK_RECORD
  5
5A1
330
1
100
AcDbSymbolTableRecord
100
AcDbBlockTableRecord
  2
block 197
340
0
102
{BLKREFS
331
5A2
102
}
  0
BLOCK_RECORD
  5
5A6
330
1
100
AcDbSymbolTableRecord
100
AcDbBlockTableRecord
  2
block 198
340
0
102
{BLKREFS
331
5A7
102
}
  0
BLOCK_RECORD
  5
5AE
330
1
100
AcDbSymbolTableRecord
100
AcDbBlockTableRecord
  2
block 199
340
0
102
{BLKREFS
331
5AF
102
}
  0
BLOCK_RECORD
  5
5B6
330
1
100
AcDbSymbolTableRecord
100
AcDbBlockTableRecord
  2
block 200
340
0
102
{BLKREFS
331
5B7
102
}
  0
BLOCK_RECORD
  5
5BE
330
1
100
AcDbSymbolTableRecord
100
AcDbBlockTableRecord
  2
block 201
340
0
102
{BLKREFS
331
5BF
102
}
  0
BLOCK_RECORD
  5
5C2
330
1
100
AcDbSymbolTableRecord
100
AcDbBlockTableRecord
  2
block 202
340
0
102
{BLKREFS
331
5C3
102
}
  0
BLOCK_RECORD
  5
5CA
330
1
100
AcDbSymbolTableRecord
100
AcDbBlockTableRecord
  2
block 203
340
0
102
{BLKREFS
331
5CB
102
}
  0
BLOCK_RECORD
  5
5D2
330
1
100
AcDbSymbolTableRecord
100
AcDbBlockTableRecord
  2
block 204
340
0
102
{BLKREFS
331
5D3
102
}
  0
BLOCK_RECORD
  5
5DA
330
1
100
AcDbSymbolTableRecord
100
AcDbBlockTableRecord
  2
block 205
340
0
102
{BLKREFS
331
5DB
102
}
  0
BLOCK_RECORD
  5
5E2
330
1
100
AcDbSymbolTableRecord
100
AcDbBlockTableRecord
  2
block 206
340
0
102
{BLKREFS
331
5E3
102
}
  0
BLOCK_RECORD
  5
5ED
330
1
100
AcDbSymbolTableRecord
100
AcDbBlockTableRecord
  2
block 207
340
0
102
{BLKREFS
331
5EE
102
}
  0
BLOCK_RECORD
  5
5F8
330
1
100
AcDbSymbolTableRecord
100
AcDbBlockTableRecord
  2
block 208
340
0
102
{BLKREFS
331
5F9
102
}
  0
BLOCK_RECORD
  5
5FD
330
1
100
AcDbSymbolTableRecord
100
AcDbBlockTableRecord
  2
block 209
340
0
102
{BLKREFS
331
5FE
102
}
  0
BLOCK_RECORD
  5
605
330
1
100
AcDbSymbolTableRecord
100
AcDbBlockTableRecord
  2
block 210
340
0
102
{BLKREFS
331
606
102
}
  0
BLOCK_RECORD
  5
60D
330
1
100
AcDbSymbolTableRecord
100
AcDbBlockTableRecord
  2
block 211
340
0
102
{BLKREFS
331
60E
102
}
  0
ENDTAB
  0
ENDSEC
  0
SECTION
  2
BLOCKS
  0
BLOCK
  5
20
330
1F
100
AcDbEntity
  8
0
100
AcDbBlockBegin
  2
*Model_Space
 70
     0
 71
     0
 10
0.0
 20
0.0
 30
0.0
  3
*Model_Space
  1

  0
ENDBLK
  5
21
330
1F
100
AcDbEntity
  8
0
100
AcDbBlockEnd
  0
BLOCK
  5
1C
330
1B
100
AcDbEntity
 67
     1
  8
0
100
AcDbBlockBegin
  2
*Paper_Space
 70
     0
 71
     0
 10
0.0
 20
0.0
 30
0.0
  3
*Paper_Space
  1

  0
ENDBLK
  5
1D
330
1B
100
AcDbEntity
 67
     1
  8
0
100
AcDbBlockEnd
  0
BLOCK
  5
24
330
23
100
AcDbEntity
  8
0
100
AcDbBlockBegin
  2
*Paper_Space0
 70
     0
 71
     0
 10
0.0
 20
0.0
 30
0.0
  3
*Paper_Space0
  1

  0
ENDBLK
  5
25
330
23
100
AcDbEntity
  8
0
100
AcDbBlockEnd
  0
BLOCK
  5
3E
330
3C
100
AcDbEntity
  8
0
100
AcDbBlockBegin
  2
block 2
 70
     0
 71
     0
 10
0.0
 20
0.0
 30
0.0
  3
block 2
  1

  0
POLYLINE
  5
40
330
3C
100
AcDbEntity
  8
Capa 1
370
     0
100
AcDb2dPolyline
 66
     1
 10
0.0
 20
0.0
 30
0.0
  0
VERTEX
  5
41
330
40
100
AcDbEntity
  8
Capa 1
370
     0
100
AcDbVertex
100
AcDb2dVertex
 10
54.29129556771825
 20
248.0358420055282
 30
0.0
  0
VERTEX
  5
42
330
40
100
AcDbEntity
  8
Capa 1
370
     0
100
AcDbVertex
100
AcDb2dVertex
 10
54.03739186295648
 20
248.8294202740747
 30
0.0
  0
VERTEX
  5
43
330
40
100
AcDbEntity
  8
Capa 1
370
     0
100
AcDbVertex
100
AcDb2dVertex
 10
52.30175161249537
 20
248.8294202740747
 30
0.0
  0
VERTEX
  5
44
330
40
100
AcDbEntity
  8
Capa 1
370
     0
100
AcDbVertex
100
AcDb2dVertex
 10
52.94598489323421
 20
246.3095035190136
 30
0.0
  0
VERTEX
  5
45
330
40
100
AcDbEntity
  8
Capa 1
370
     0
100
AcDbVertex
100
AcDb2dVertex
 10
52.46935561842021
 20
245.8158210102977
 30
0.0
  0
VERTEX
  5
46
330
40
100
AcDbEntity
  8
Capa 1
370
     0
100
AcDbVertex
100
AcDb2dVertex
 10
51.751397245661
 20
245.8158210102977
 30
0.0
  0
VERTEX
  5
47
330
40
100
AcDbEntity
  8
Capa 1
370
     0
100
AcDbVertex
100
AcDb2dVertex
 10
50.20334256812091
 20
245.595507008676
 30
0.0
  0
VERTEX
  5
48
330
40
100
AcDbEntity
  8
Capa 1
370
     0
100
AcDbVertex
100
AcDb2dVertex
 10
50.20334256812091
 20
243.9404820457512
 30
0.0
  0
VERTEX
  5
49
330
40
100
AcDbEntity
  8
Capa 1
370
     0
100
AcDbVertex
100
AcDb2dVertex
 10
51.80806910377947
 20
244.2541581966136
 30
0.0
  0
VERTEX
  5
4A
330
40
100
AcDbEntity
  8
Capa 1
370
     0
100
AcDbVertex
100
AcDb2dVertex
 10
59.67374404986969
 20
244.1423647743678
 30
0.0
  0
VERTEX
  5
4B
330
40
100
AcDbEntity
  8
Capa 1
370
     0
100
AcDbVertex
100
AcDb2dVertex
 10
59.67374404986969
 20
246.2102847035843
 30
0.0
  0
VERTEX
  5
4C
330
40
100
AcDbEntity
  8
Capa 1
370
     0
100
AcDbVertex
100
AcDb2dVertex
 10
56.56488783308507
 20
246.2535206804467
 30
0.0
  0
VERTEX
  5
4D
330
40
100
AcDbEntity
  8
Capa 1
370
     0
100
AcDbVertex
100
AcDb2dVertex
 10
54.29129556771825
 20
248.0358420055282
 30
0.0
  0
SEQEND
  5
4E
330
40
100
AcDbEntity
  8
Capa 1
370
     0
  0
HATCH
  5
4F
330
3C
100
AcDbEntity
  8
Capa 1
 62
     7
100
AcDbHatch
 10
0.0
 20
0.0
 30
0.0
210
0.0
220
0.0
230
1.0
  2
SOLID
 70
     1
 71
     0
 91
        1
 92
        1
 93
       12
 72
     1
 10
54.29129556771825
 20
248.0358420055282
 11
54.03739186295648
 21
248.8294202740747
 72
     1
 10
54.03739186295648
 20
248.8294202740747
 11
52.30175161249537
 21
248.8294202740747
 72
     1
 10
52.30175161249537
 20
248.8294202740747
 11
52.94598489323421
 21
246.3095035190136
 72
     1
 10
52.94598489323421
 20
246.3095035190136
 11
52.46935561842021
 21
245.8158210102977
 72
     1
 10
52.46935561842021
 20
245.8158210102977
 11
51.751397245661
 21
245.8158210102977
 72
     1
 10
51.751397245661
 20
245.8158210102977
 11
50.20334256812091
 21
245.595507008676
 72
     1
 10
50.20334256812091
 20
245.595507008676
 11
50.20334256812091
 21
243.9404820457512
 72
     1
 10
50.20334256812091
 20
243.9404820457512
 11
51.80806910377947
 21
244.2541581966136
 72
     1
 10
51.80806910377947
 20
244.2541581966136
 11
59.67374404986969
 21
244.1423647743678
 72
     1
 10
59.67374404986969
 20
244.1423647743678
 11
59.67374404986969
 21
246.2102847035843
 72
     1
 10
59.67374404986969
 20
246.2102847035843
 11
56.56488783308507
 21
246.2535206804467
 72
     1
 10
56.56488783308507
 20
246.2535206804467
 11
54.29129556771825
 21
248.0358420055282
 97
        0
 75
     0
 76
     1
 98
        0
  0
ENDBLK
  5
3F
330
3C
100
AcDbEntity
  8
0
100
AcDbBlockEnd
  0
BLOCK
  5
52
330
50
100
AcDbEntity
  8
0
100
AcDbBlockBegin
  2
block 3
 70
     0
 71
     0
 10
0.0
 20
0.0
 30
0.0
  3
block 3
  1

  0
POLYLINE
  5
54
330
50
100
AcDbEntity
  8
Capa 1
370
     0
100
AcDb2dPolyline
 66
     1
 10
0.0
 20
0.0
 30
0.0
  0
VERTEX
  5
55
330
54
100
AcDbEntity
  8
Capa 1
370
     0
100
AcDbVertex
100
AcDb2dVertex
 10
42.07067254578865
 20
254.4091006028694
 30
0.0
  0
VERTEX
  5
56
330
54
100
AcDbEntity
  8
Capa 1
370
     0
100
AcDbVertex
100
AcDb2dVertex
 10
48.9810218835961
 20
253.4527414652593
 30
0.0
  0
VERTEX
  5
57
330
54
100
AcDbEntity
  8
Capa 1
370
     0
100
AcDbVertex
100
AcDb2dVertex
 10
54.03739186295648
 20
248.8294202740747
 30
0.0
  0
VERTEX
  5
58
330
54
100
AcDbEntity
  8
Capa 1
370
     0
100
AcDbVertex
100
AcDb2dVertex
 10
52.30175161249537
 20
248.8294202740747
 30
0.0
  0
VERTEX
  5
59
330
54
100
AcDbEntity
  8
Capa 1
370
     0
100
AcDbVertex
100
AcDb2dVertex
 10
48.5493511345235
 20
251.9220845313969
 30
0.0
  0
VERTEX
  5
5A
330
54
100
AcDbEntity
  8
Capa 1
370
     0
100
AcDbVertex
100
AcDb2dVertex
 10
42.87355257828162
 20
252.8054075965383
 30
0.0
  0
VERTEX
  5
5B
330
54
100
AcDbEntity
  8
Capa 1
370
     0
100
AcDbVertex
100
AcDb2dVertex
 10
42.21657243583833
 20
252.1813281376835
 30
0.0
  0
VERTEX
  5
5C
330
54
100
AcDbEntity
  8
Capa 1
370
     0
100
AcDbVertex
100
AcDb2dVertex
 10
42.15766126417718
 20
248.8294202740747
 30
0.0
  0
VERTEX
  5
5D
330
54
100
AcDbEntity
  8
Capa 1
370
     0
100
AcDbVertex
100
AcDb2dVertex
 10
40.56792090376576
 20
248.8294202740747
 30
0.0
  0
VERTEX
  5
5E
330
54
100
AcDbEntity
  8
Capa 1
370
     0
100
AcDbVertex
100
AcDb2dVertex
 10
40.64009570179505
 20
252.9774902295484
 30
0.0
  0
VERTEX
  5
5F
330
54
100
AcDbEntity
  8
Capa 1
370
     0
100
AcDbVertex
100
AcDb2dVertex
 10
42.07067254578865
 20
254.4091006028694
 30
0.0
  0
SEQEND
  5
60
330
54
100
AcDbEntity
  8
Capa 1
370
     0
  0
HATCH
  5
61
330
50
100
AcDbEntity
  8
Capa 1
 62
     7
100
AcDbHatch
 10
0.0
 20
0.0
 30
0.0
210
0.0
220
0.0
230
1.0
  2
SOLID
 70
     1
 71
     0
 91
        1
 92
        1
 93
       10
 72
     1
 10
42.07067254578865
 20
254.4091006028694
 11
48.9810218835961
 21
253.4527414652593
 72
     1
 10
48.9810218835961
 20
253.4527414652593
 11
54.03739186295648
 21
248.8294202740747
 72
     1
 10
54.03739186295648
 20
248.8294202740747
 11
52.30175161249537
 21
248.8294202740747
 72
     1
 10
52.30175161249537
 20
248.8294202740747
 11
48.5493511345235
 21
251.9220845313969
 72
     1
 10
48.5493511345235
 20
251.9220845313969
 11
42.87355257828162
 21
252.8054075965383
 72
     1
 10
42.87355257828162
 20
252.8054075965383
 11
42.21657243583833
 21
252.1813281376835
 72
     1
 10
42.21657243583833
 20
252.1813281376835
 11
42.15766126417718
 21
248.8294202740747
 72
     1
 10
42.15766126417718
 20
248.8294202740747
 11
40.56792090376576
 21
248.8294202740747
 72
     1
 10
40.56792090376576
 20
248.8294202740747
 11
40.64009570179505
 21
252.9774902295484
 72
     1
 10
40.64009570179505
 20
252.9774902295484
 11
42.07067254578865
 21
254.4091006028694
 97
        0
 75
     0
 76
     1
 98
        0
  0
ENDBLK
  5
53
330
50
100
AcDbEntity
  8
0
100
AcDbBlockEnd
  0
BLOCK
  5
64
330
62
100
AcDbEntity
  8
0
100
AcDbBlockBegin
  2
block 4
 70
     0
 71
     0
 10
0.0
 20
0.0
 30
0.0
  3
block 4
  1

  0
POLYLINE
  5
66
330
62
100
AcDbEntity
  8
Capa 1
370
     0
100
AcDb2dPolyline
 66
     1
 10
0.0
 20
0.0
 30
0.0
  0
VERTEX
  5
67
330
66
100
AcDbEntity
  8
Capa 1
370
     0
100
AcDbVertex
100
AcDb2dVertex
 10
50.20334256812091
 20
245.595507008676
 30
0.0
  0
VERTEX
  5
68
330
66
100
AcDbEntity
  8
Capa 1
370
     0
100
AcDbVertex
100
AcDb2dVertex
 10
50.20334256812091
 20
243.9404820457512
 30
0.0
  0
VERTEX
  5
69
330
66
100
AcDbEntity
  8
Capa 1
370
     0
100
AcDbVertex
100
AcDb2dVertex
 10
47.98418284732989
 20
241.5480339077347
 30
0.0
  0
VERTEX
  5
6A
330
66
100
AcDbEntity
  8
Capa 1
370
     0
100
AcDbVertex
100
AcDb2dVertex
 10
47.08053370541653
 20
240.8975994510316
 30
0.0
  0
VERTEX
  5
6B
330
66
100
AcDbEntity
  8
Capa 1
370
     0
100
AcDbVertex
100
AcDb2dVertex
 10
41.40008426720141
 20
240.8975994510316
 30
0.0
  0
VERTEX
  5
6C
330
66
100
AcDbEntity
  8
Capa 1
370
     0
100
AcDbVertex
100
AcDb2dVertex
 10
40.4468257175734
 20
241.8851367233513
 30
0.0
  0
VERTEX
  5
6D
330
66
100
AcDbEntity
  8
Capa 1
370
     0
100
AcDbVertex
100
AcDb2dVertex
 10
40.56792090376576
 20
248.8294202740747
 30
0.0
  0
VERTEX
  5
6E
330
66
100
AcDbEntity
  8
Capa 1
370
     0
100
AcDbVertex
100
AcDb2dVertex
 10
42.15766126417718
 20
248.8294202740747
 30
0.0
  0
VERTEX
  5
6F
330
66
100
AcDbEntity
  8
Capa 1
370
     0
100
AcDbVertex
100
AcDb2dVertex
 10
42.0660216638154
 20
243.5802970751564
 30
0.0
  0
VERTEX
  5
70
330
66
100
AcDbEntity
  8
Capa 1
370
     0
100
AcDbVertex
100
AcDb2dVertex
 10
42.5426509386294
 20
243.0959163303869
 30
0.0
  0
VERTEX
  5
71
330
66
100
AcDbEntity
  8
Capa 1
370
     0
100
AcDbVertex
100
AcDb2dVertex
 10
46.71965971527005
 20
243.0959163303869
 30
0.0
  0
VERTEX
  5
72
330
66
100
AcDbEntity
  8
Capa 1
370
     0
100
AcDbVertex
100
AcDb2dVertex
 10
47.11860203564201
 20
243.3117517049232
 30
0.0
  0
VERTEX
  5
73
330
66
100
AcDbEntity
  8
Capa 1
370
     0
100
AcDbVertex
100
AcDb2dVertex
 10
50.20334256812091
 20
245.595507008676
 30
0.0
  0
SEQEND
  5
74
330
66
100
AcDbEntity
  8
Capa 1
370
     0
  0
HATCH
  5
75
330
62
100
AcDbEntity
  8
Capa 1
 62
     7
100
AcDbHatch
 10
0.0
 20
0.0
 30
0.0
210
0.0
220
0.0
230
1.0
  2
SOLID
 70
     1
 71
     0
 91
        1
 92
        1
 93
       12
 72
     1
 10
50.20334256812091
 20
245.595507008676
 11
50.20334256812091
 21
243.9404820457512
 72
     1
 10
50.20334256812091
 20
243.9404820457512
 11
47.98418284732989
 21
241.5480339077347
 72
     1
 10
47.98418284732989
 20
241.5480339077347
 11
47.08053370541653
 21
240.8975994510316
 72
     1
 10
47.08053370541653
 20
240.8975994510316
 11
41.40008426720141
 21
240.8975994510316
 72
     1
 10
41.40008426720141
 20
240.8975994510316
 11
40.4468257175734
 21
241.8851367233513
 72
     1
 10
40.4468257175734
 20
241.8851367233513
 11
40.56792090376576
 21
248.8294202740747
 72
     1
 10
40.56792090376576
 20
248.8294202740747
 11
42.15766126417718
 21
248.8294202740747
 72
     1
 10
42.15766126417718
 20
248.8294202740747
 11
42.0660216638154
 21
243.5802970751564
 72
     1
 10
42.0660216638154
 20
243.5802970751564
 11
42.5426509386294
 21
243.0959163303869
 72
     1
 10
42.5426509386294
 20
243.0959163303869
 11
46.71965971527005
 21
243.0959163303869
 72
     1
 10
46.71965971527005
 20
243.0959163303869
 11
47.11860203564201
 21
243.3117517049232
 72
     1
 10
47.11860203564201
 20
243.3117517049232
 11
50.20334256812091
 21
245.595507008676
 97
        0
 75
     0
 76
     1
 98
        0
  0
ENDBLK
  5
65
330
62
100
AcDbEntity
  8
0
100
AcDbBlockEnd
  0
BLOCK
  5
78
330
76
100
AcDbEntity
  8
0
100
AcDbBlockBegin
  2
block 5
 70
     0
 71
     0
 10
0.0
 20
0.0
 30
0.0
  3
block 5
  1

  0
POLYLINE
  5
7A
330
76
100
AcDbEntity
  8
Capa 1
370
     0
100
AcDb2dPolyline
 66
     1
 10
0.0
 20
0.0
 30
0.0
  0
VERTEX
  5
7B
330
7A
100
AcDbEntity
  8
Capa 1
370
     0
100
AcDbVertex
100
AcDb2dVertex
 10
111.6607859821753
 20
245.4744118224837
 30
0.0
  0
VERTEX
  5
7C
330
7A
100
AcDbEntity
  8
Capa 1
370
     0
100
AcDbVertex
100
AcDb2dVertex
 10
59.37884368178817
 20
246.2102847035843
 30
0.0
  0
VERTEX
  5
7D
330
7A
100
AcDbEntity
  8
Capa 1
370
     0
100
AcDbVertex
100
AcDb2dVertex
 10
59.37884368178817
 20
244.1423647743678
 30
0.0
  0
VERTEX
  5
7E
330
7A
100
AcDbEntity
  8
Capa 1
370
     0
100
AcDbVertex
100
AcDb2dVertex
 10
111.6070424571511
 20
243.3989126781997
 30
0.0
  0
VERTEX
  5
7F
330
7A
100
AcDbEntity
  8
Capa 1
370
     0
100
AcDbVertex
100
AcDb2dVertex
 10
111.8878179244249
 20
243.2557688663564
 30
0.0
  0
VERTEX
  5
80
330
7A
100
AcDbEntity
  8
Capa 1
370
     0
100
AcDbVertex
100
AcDb2dVertex
 10
112.8503782379994
 20
241.7545675183245
 30
0.0
  0
VERTEX
  5
81
330
7A
100
AcDbEntity
  8
Capa 1
370
     0
100
AcDbVertex
100
AcDb2dVertex
 10
112.8503782379994
 20
240.8975994510316
 30
0.0
  0
VERTEX
  5
82
330
7A
100
AcDbEntity
  8
Capa 1
370
     0
100
AcDbVertex
100
AcDb2dVertex
 10
114.9257051273956
 20
240.8975994510316
 30
0.0
  0
VERTEX
  5
83
330
7A
100
AcDbEntity
  8
Capa 1
370
     0
100
AcDbVertex
100
AcDb2dVertex
 10
114.9267386567229
 20
242.1287051348392
 30
0.0
  0
VERTEX
  5
84
330
7A
100
AcDbEntity
  8
Capa 1
370
     0
100
AcDbVertex
100
AcDb2dVertex
 10
114.8006480787815
 20
242.5588255899207
 30
0.0
  0
VERTEX
  5
85
330
7A
100
AcDbEntity
  8
Capa 1
370
     0
100
AcDbVertex
100
AcDb2dVertex
 10
113.6341379779357
 20
244.3766314219092
 30
0.0
  0
VERTEX
  5
86
330
7A
100
AcDbEntity
  8
Capa 1
370
     0
100
AcDbVertex
100
AcDb2dVertex
 10
111.6607859821753
 20
245.4744118224837
 30
0.0
  0
SEQEND
  5
87
330
7A
100
AcDbEntity
  8
Capa 1
370
     0
  0
POLYLINE
  5
88
330
76
100
AcDbEntity
  8
Capa 1
370
     0
100
AcDb2dPolyline
 66
     1
 10
0.0
 20
0.0
 30
0.0
  0
VERTEX
  5
89
330
88
100
AcDbEntity
  8
Capa 1
370
     0
100
AcDbVertex
100
AcDb2dVertex
 10
180.4890160493887
 20
246.2102847035843
 30
0.0
  0
VERTEX
  5
8A
330
88
100
AcDbEntity
  8
Capa 1
370
     0
100
AcDbVertex
100
AcDb2dVertex
 10
128.2072460038895
 20
245.4744118224837
 30
0.0
  0
VERTEX
  5
8B
330
88
100
AcDbEntity
  8
Capa 1
370
     0
100
AcDbVertex
100
AcDb2dVertex
 10
126.233894008129
 20
244.3766314219092
 30
0.0
  0
VERTEX
  5
8C
330
88
100
AcDbEntity
  8
Capa 1
370
     0
100
AcDbVertex
100
AcDb2dVertex
 10
125.0673839072832
 20
242.5588255899207
 30
0.0
  0
VERTEX
  5
8D
330
88
100
AcDbEntity
  8
Capa 1
370
     0
100
AcDbVertex
100
AcDb2dVertex
 10
124.9412933293418
 20
242.1287051348392
 30
0.0
  0
VERTEX
  5
8E
330
88
100
AcDbEntity
  8
Capa 1
370
     0
100
AcDbVertex
100
AcDb2dVertex
 10
124.942671368445
 20
240.8975994510316
 30
0.0
  0
VERTEX
  5
8F
330
88
100
AcDbEntity
  8
Capa 1
370
     0
100
AcDbVertex
100
AcDb2dVertex
 10
127.0179982578411
 20
240.8975994510316
 30
0.0
  0
VERTEX
  5
90
330
88
100
AcDbEntity
  8
Capa 1
370
     0
100
AcDbVertex
100
AcDb2dVertex
 10
127.0166202187379
 20
241.7545675183245
 30
0.0
  0
VERTEX
  5
91
330
88
100
AcDbEntity
  8
Capa 1
370
     0
100
AcDbVertex
100
AcDb2dVertex
 10
127.9805585714156
 20
243.2557688663564
 30
0.0
  0
VERTEX
  5
92
330
88
100
AcDbEntity
  8
Capa 1
370
     0
100
AcDbVertex
100
AcDb2dVertex
 10
128.2127581603022
 20
243.3971901293207
 30
0.0
  0
VERTEX
  5
93
330
88
100
AcDbEntity
  8
Capa 1
370
     0
100
AcDbVertex
100
AcDb2dVertex
 10
180.4890160493887
 20
244.1423647743678
 30
0.0
  0
VERTEX
  5
94
330
88
100
AcDbEntity
  8
Capa 1
370
     0
100
AcDbVertex
100
AcDb2dVertex
 10
180.4890160493887
 20
246.2102847035843
 30
0.0
  0
SEQEND
  5
95
330
88
100
AcDbEntity
  8
Capa 1
370
     0
  0
HATCH
  5
96
330
76
100
AcDbEntity
  8
Capa 1
 62
     7
100
AcDbHatch
 10
0.0
 20
0.0
 30
0.0
210
0.0
220
0.0
230
1.0
  2
SOLID
 70
     1
 71
     0
 91
        2
 92
        1
 93
       11
 72
     1
 10
111.6607859821753
 20
245.4744118224837
 11
59.37884368178817
 21
246.2102847035843
 72
     1
 10
59.37884368178817
 20
246.2102847035843
 11
59.37884368178817
 21
244.1423647743678
 72
     1
 10
59.37884368178817
 20
244.1423647743678
 11
111.6070424571511
 21
243.3989126781997
 72
     1
 10
111.6070424571511
 20
243.3989126781997
 11
111.8878179244249
 21
243.2557688663564
 72
     1
 10
111.8878179244249
 20
243.2557688663564
 11
112.8503782379994
 21
241.7545675183245
 72
     1
 10
112.8503782379994
 20
241.7545675183245
 11
112.8503782379994
 21
240.8975994510316
 72
     1
 10
112.8503782379994
 20
240.8975994510316
 11
114.9257051273956
 21
240.8975994510316
 72
     1
 10
114.9257051273956
 20
240.8975994510316
 11
114.9267386567229
 21
242.1287051348392
 72
     1
 10
114.9267386567229
 20
242.1287051348392
 11
114.8006480787815
 21
242.5588255899207
 72
     1
 10
114.8006480787815
 20
242.5588255899207
 11
113.6341379779357
 21
244.3766314219092
 72
     1
 10
113.6341379779357
 20
244.3766314219092
 11
111.6607859821753
 21
245.4744118224837
 97
        0
 92
        1
 93
       11
 72
     1
 10
180.4890160493887
 20
246.2102847035843
 11
128.2072460038895
 21
245.4744118224837
 72
     1
 10
128.2072460038895
 20
245.4744118224837
 11
126.233894008129
 21
244.3766314219092
 72
     1
 10
126.233894008129
 20
244.3766314219092
 11
125.0673839072832
 21
242.5588255899207
 72
     1
 10
125.0673839072832
 20
242.5588255899207
 11
124.9412933293418
 21
242.1287051348392
 72
     1
 10
124.9412933293418
 20
242.1287051348392
 11
124.942671368445
 21
240.8975994510316
 72
     1
 10
124.942671368445
 20
240.8975994510316
 11
127.0179982578411
 21
240.8975994510316
 72
     1
 10
127.0179982578411
 20
240.8975994510316
 11
127.0166202187379
 21
241.7545675183245
 72
     1
 10
127.0166202187379
 20
241.7545675183245
 11
127.9805585714156
 21
243.2557688663564
 72
     1
 10
127.9805585714156
 20
243.2557688663564
 11
128.2127581603022
 21
243.3971901293207
 72
     1
 10
128.2127581603022
 20
243.3971901293207
 11
180.4890160493887
 21
244.1423647743678
 72
     1
 10
180.4890160493887
 20
244.1423647743678
 11
180.4890160493887
 21
246.2102847035843
 97
        0
 75
     0
 76
     1
 98
        0
  0
ENDBLK
  5
79
330
76
100
AcDbEntity
  8
0
100
AcDbBlockEnd
  0
BLOCK
  5
99
330
97
100
AcDbEntity
  8
0
100
AcDbBlockBegin
  2
block 6
 70
     0
 71
     0
 10
0.0
 20
0.0
 30
0.0
  3
block 6
  1

  0
POLYLINE
  5
9B
330
97
100
AcDbEntity
  8
Capa 1
370
     0
100
AcDb2dPolyline
 66
     1
 10
0.0
 20
0.0
 30
0.0
  0
VERTEX
  5
9C
330
9B
100
AcDbEntity
  8
Capa 1
370
     0
100
AcDbVertex
100
AcDb2dVertex
 10
185.5770809281223
 20
248.0358420055282
 30
0.0
  0
VERTEX
  5
9D
330
9B
100
AcDbEntity
  8
Capa 1
370
     0
100
AcDbVertex
100
AcDb2dVertex
 10
185.8302956133325
 20
248.8294202740747
 30
0.0
  0
VERTEX
  5
9E
330
9B
100
AcDbEntity
  8
Capa 1
370
     0
100
AcDbVertex
100
AcDb2dVertex
 10
187.5666248833452
 20
248.8294202740747
 30
0.0
  0
VERTEX
  5
9F
330
9B
100
AcDbEntity
  8
Capa 1
370
     0
100
AcDbVertex
100
AcDb2dVertex
 10
186.9220470928305
 20
246.3095035190136
 30
0.0
  0
VERTEX
  5
A0
330
9B
100
AcDbEntity
  8
Capa 1
370
     0
100
AcDbVertex
100
AcDb2dVertex
 10
187.3988486225324
 20
245.8158210102977
 30
0.0
  0
VERTEX
  5
A1
330
9B
100
AcDbEntity
  8
Capa 1
370
     0
100
AcDbVertex
100
AcDb2dVertex
 10
188.1171515050674
 20
245.8158210102977
 30
0.0
  0
VERTEX
  5
A2
330
9B
100
AcDbEntity
  8
Capa 1
370
     0
100
AcDbVertex
100
AcDb2dVertex
 10
189.6650339277196
 20
245.595507008676
 30
0.0
  0
VERTEX
  5
A3
330
9B
100
AcDbEntity
  8
Capa 1
370
     0
100
AcDbVertex
100
AcDb2dVertex
 10
189.6650339277196
 20
243.9404820457512
 30
0.0
  0
VERTEX
  5
A4
330
9B
100
AcDbEntity
  8
Capa 1
370
     0
100
AcDbVertex
100
AcDb2dVertex
 10
188.0599628822852
 20
244.2541581966136
 30
0.0
  0
VERTEX
  5
A5
330
9B
100
AcDbEntity
  8
Capa 1
370
     0
100
AcDbVertex
100
AcDb2dVertex
 10
180.1941156813071
 20
244.1423647743678
 30
0.0
  0
VERTEX
  5
A6
330
9B
100
AcDbEntity
  8
Capa 1
370
     0
100
AcDbVertex
100
AcDb2dVertex
 10
180.1941156813071
 20
246.2102847035843
 30
0.0
  0
VERTEX
  5
A7
330
9B
100
AcDbEntity
  8
Capa 1
370
     0
100
AcDbVertex
100
AcDb2dVertex
 10
183.3022828785402
 20
246.2535206804467
 30
0.0
  0
VERTEX
  5
A8
330
9B
100
AcDbEntity
  8
Capa 1
370
     0
100
AcDbVertex
100
AcDb2dVertex
 10
185.5770809281223
 20
248.0358420055282
 30
0.0
  0
SEQEND
  5
A9
330
9B
100
AcDbEntity
  8
Capa 1
370
     0
  0
HATCH
  5
AA
330
97
100
AcDbEntity
  8
Capa 1
 62
     7
100
AcDbHatch
 10
0.0
 20
0.0
 30
0.0
210
0.0
220
0.0
230
1.0
  2
SOLID
 70
     1
 71
     0
 91
        1
 92
        1
 93
       12
 72
     1
 10
185.5770809281223
 20
248.0358420055282
 11
185.8302956133325
 21
248.8294202740747
 72
     1
 10
185.8302956133325
 20
248.8294202740747
 11
187.5666248833452
 21
248.8294202740747
 72
     1
 10
187.5666248833452
 20
248.8294202740747
 11
186.9220470928305
 21
246.3095035190136
 72
     1
 10
186.9220470928305
 20
246.3095035190136
 11
187.3988486225324
 21
245.8158210102977
 72
     1
 10
187.3988486225324
 20
245.8158210102977
 11
188.1171515050674
 21
245.8158210102977
 72
     1
 10
188.1171515050674
 20
245.8158210102977
 11
189.6650339277196
 21
245.595507008676
 72
     1
 10
189.6650339277196
 20
245.595507008676
 11
189.6650339277196
 21
243.9404820457512
 72
     1
 10
189.6650339277196
 20
243.9404820457512
 11
188.0599628822852
 21
244.2541581966136
 72
     1
 10
188.0599628822852
 20
244.2541581966136
 11
180.1941156813071
 21
244.1423647743678
 72
     1
 10
180.1941156813071
 20
244.1423647743678
 11
180.1941156813071
 21
246.2102847035843
 72
     1
 10
180.1941156813071
 20
246.2102847035843
 11
183.3022828785402
 21
246.2535206804467
 72
     1
 10
183.3022828785402
 20
246.2535206804467
 11
185.5770809281223
 21
248.0358420055282
 97
        0
 75
     0
 76
     1
 98
        0
  0
ENDBLK
  5
9A
330
97
100
AcDbEntity
  8
0
100
AcDbBlockEnd
  0
BLOCK
  5
AD
330
AB
100
AcDbEntity
  8
0
100
AcDbBlockBegin
  2
block 7
 70
     0
 71
     0
 10
0.0
 20
0.0
 30
0.0
  3
block 7
  1

  0
POLYLINE
  5
AF
330
AB
100
AcDbEntity
  8
Capa 1
370
     0
100
AcDb2dPolyline
 66
     1
 10
0.0
 20
0.0
 30
0.0
  0
VERTEX
  5
B0
330
AF
100
AcDbEntity
  8
Capa 1
370
     0
100
AcDbVertex
100
AcDb2dVertex
 10
197.797531695164
 20
254.4091006028694
 30
0.0
  0
VERTEX
  5
B1
330
AF
100
AcDbEntity
  8
Capa 1
370
     0
100
AcDbVertex
100
AcDb2dVertex
 10
190.8873546122444
 20
253.4527414652593
 30
0.0
  0
VERTEX
  5
B2
330
AF
100
AcDbEntity
  8
Capa 1
370
     0
100
AcDbVertex
100
AcDb2dVertex
 10
185.8302956133325
 20
248.8294202740747
 30
0.0
  0
VERTEX
  5
B3
330
AF
100
AcDbEntity
  8
Capa 1
370
     0
100
AcDbVertex
100
AcDb2dVertex
 10
187.5666248833452
 20
248.8294202740747
 30
0.0
  0
VERTEX
  5
B4
330
AF
100
AcDbEntity
  8
Capa 1
370
     0
100
AcDbVertex
100
AcDb2dVertex
 10
191.3183363417654
 20
251.9220845313969
 30
0.0
  0
VERTEX
  5
B5
330
AF
100
AcDbEntity
  8
Capa 1
370
     0
100
AcDbVertex
100
AcDb2dVertex
 10
196.9948239175589
 20
252.8054075965383
 30
0.0
  0
VERTEX
  5
B6
330
AF
100
AcDbEntity
  8
Capa 1
370
     0
100
AcDbVertex
100
AcDb2dVertex
 10
197.6518040600022
 20
252.1813281376835
 30
0.0
  0
VERTEX
  5
B7
330
AF
100
AcDbEntity
  8
Capa 1
370
     0
100
AcDbVertex
100
AcDb2dVertex
 10
197.7107152316633
 20
248.8294202740747
 30
0.0
  0
VERTEX
  5
B8
330
AF
100
AcDbEntity
  8
Capa 1
370
     0
100
AcDbVertex
100
AcDb2dVertex
 10
199.3006278469627
 20
248.8294202740747
 30
0.0
  0
VERTEX
  5
B9
330
AF
100
AcDbEntity
  8
Capa 1
370
     0
100
AcDbVertex
100
AcDb2dVertex
 10
199.2282807940455
 20
252.9774902295484
 30
0.0
  0
VERTEX
  5
BA
330
AF
100
AcDbEntity
  8
Capa 1
370
     0
100
AcDbVertex
100
AcDb2dVertex
 10
197.797531695164
 20
254.4091006028694
 30
0.0
  0
SEQEND
  5
BB
330
AF
100
AcDbEntity
  8
Capa 1
370
     0
  0
HATCH
  5
BC
330
AB
100
AcDbEntity
  8
Capa 1
 62
     7
100
AcDbHatch
 10
0.0
 20
0.0
 30
0.0
210
0.0
220
0.0
230
1.0
  2
SOLID
 70
     1
 71
     0
 91
        1
 92
        1
 93
       10
 72
     1
 10
197.797531695164
 20
254.4091006028694
 11
190.8873546122444
 21
253.4527414652593
 72
     1
 10
190.8873546122444
 20
253.4527414652593
 11
185.8302956133325
 21
248.8294202740747
 72
     1
 10
185.8302956133325
 20
248.8294202740747
 11
187.5666248833452
 21
248.8294202740747
 72
     1
 10
187.5666248833452
 20
248.8294202740747
 11
191.3183363417654
 21
251.9220845313969
 72
     1
 10
191.3183363417654
 20
251.9220845313969
 11
196.9948239175589
 21
252.8054075965383
 72
     1
 10
196.9948239175589
 20
252.8054075965383
 11
197.6518040600022
 21
252.1813281376835
 72
     1
 10
197.6518040600022
 20
252.1813281376835
 11
197.7107152316633
 21
248.8294202740747
 72
     1
 10
197.7107152316633
 20
248.8294202740747
 11
199.3006278469627
 21
248.8294202740747
 72
     1
 10
199.3006278469627
 20
248.8294202740747
 11
199.2282807940455
 21
252.9774902295484
 72
     1
 10
199.2282807940455
 20
252.9774902295484
 11
197.797531695164
 21
254.4091006028694
 97
        0
 75
     0
 76
     1
 98
        0
  0
ENDBLK
  5
AE
330
AB
100
AcDbEntity
  8
0
100
AcDbBlockEnd
  0
BLOCK
  5
BF
330
BD
100
AcDbEntity
  8
0
100
AcDbBlockBegin
  2
block 8
 70
     0
 71
     0
 10
0.0
 20
0.0
 30
0.0
  3
block 8
  1

  0
POLYLINE
  5
C1
330
BD
100
AcDbEntity
  8
Capa 1
370
     0
100
AcDb2dPolyline
 66
     1
 10
0.0
 20
0.0
 30
0.0
  0
VERTEX
  5
C2
330
C1
100
AcDbEntity
  8
Capa 1
370
     0
100
AcDbVertex
100
AcDb2dVertex
 10
189.6650339277196
 20
245.595507008676
 30
0.0
  0
VERTEX
  5
C3
330
C1
100
AcDbEntity
  8
Capa 1
370
     0
100
AcDbVertex
100
AcDb2dVertex
 10
189.6650339277196
 20
243.9404820457512
 30
0.0
  0
VERTEX
  5
C4
330
C1
100
AcDbEntity
  8
Capa 1
370
     0
100
AcDbVertex
100
AcDb2dVertex
 10
191.8840213936227
 20
241.5480339077347
 30
0.0
  0
VERTEX
  5
C5
330
C1
100
AcDbEntity
  8
Capa 1
370
     0
100
AcDbVertex
100
AcDb2dVertex
 10
192.7873260257603
 20
240.8975994510316
 30
0.0
  0
VERTEX
  5
C6
330
C1
100
AcDbEntity
  8
Capa 1
370
     0
100
AcDbVertex
100
AcDb2dVertex
 10
198.4682922286391
 20
240.8975994510316
 30
0.0
  0
VERTEX
  5
C7
330
C1
100
AcDbEntity
  8
Capa 1
370
     0
100
AcDbVertex
100
AcDb2dVertex
 10
199.4212062684913
 20
241.8851367233513
 30
0.0
  0
VERTEX
  5
C8
330
C1
100
AcDbEntity
  8
Capa 1
370
     0
100
AcDbVertex
100
AcDb2dVertex
 10
199.3006278469627
 20
248.8294202740747
 30
0.0
  0
VERTEX
  5
C9
330
C1
100
AcDbEntity
  8
Capa 1
370
     0
100
AcDbVertex
100
AcDb2dVertex
 10
197.7107152316633
 20
248.8294202740747
 30
0.0
  0
VERTEX
  5
CA
330
C1
100
AcDbEntity
  8
Capa 1
370
     0
100
AcDbVertex
100
AcDb2dVertex
 10
197.8020103222493
 20
243.5802970751564
 30
0.0
  0
VERTEX
  5
CB
330
C1
100
AcDbEntity
  8
Capa 1
370
     0
100
AcDbVertex
100
AcDb2dVertex
 10
197.3248642827716
 20
243.0959163303869
 30
0.0
  0
VERTEX
  5
CC
330
C1
100
AcDbEntity
  8
Capa 1
370
     0
100
AcDbVertex
100
AcDb2dVertex
 10
193.1480277610189
 20
243.0959163303869
 30
0.0
  0
VERTEX
  5
CD
330
C1
100
AcDbEntity
  8
Capa 1
370
     0
100
AcDbVertex
100
AcDb2dVertex
 10
192.7490854406469
 20
243.3117517049232
 30
0.0
  0
VERTEX
  5
CE
330
C1
100
AcDbEntity
  8
Capa 1
370
     0
100
AcDbVertex
100
AcDb2dVertex
 10
189.6650339277196
 20
245.595507008676
 30
0.0
  0
SEQEND
  5
CF
330
C1
100
AcDbEntity
  8
Capa 1
370
     0
  0
HATCH
  5
D0
330
BD
100
AcDbEntity
  8
Capa 1
 62
     7
100
AcDbHatch
 10
0.0
 20
0.0
 30
0.0
210
0.0
220
0.0
230
1.0
  2
SOLID
 70
     1
 71
     0
 91
        1
 92
        1
 93
       12
 72
     1
 10
189.6650339277196
 20
245.595507008676
 11
189.6650339277196
 21
243.9404820457512
 72
     1
 10
189.6650339277196
 20
243.9404820457512
 11
191.8840213936227
 21
241.5480339077347
 72
     1
 10
191.8840213936227
 20
241.5480339077347
 11
192.7873260257603
 21
240.8975994510316
 72
     1
 10
192.7873260257603
 20
240.8975994510316
 11
198.4682922286391
 21
240.8975994510316
 72
     1
 10
198.4682922286391
 20
240.8975994510316
 11
199.4212062684913
 21
241.8851367233513
 72
     1
 10
199.4212062684913
 20
241.8851367233513
 11
199.3006278469627
 21
248.8294202740747
 72
     1
 10
199.3006278469627
 20
248.8294202740747
 11
197.7107152316633
 21
248.8294202740747
 72
     1
 10
197.7107152316633
 20
248.8294202740747
 11
197.8020103222493
 21
243.5802970751564
 72
     1
 10
197.8020103222493
 20
243.5802970751564
 11
197.3248642827716
 21
243.0959163303869
 72
     1
 10
197.3248642827716
 20
243.0959163303869
 11
193.1480277610189
 21
243.0959163303869
 72
     1
 10
193.1480277610189
 20
243.0959163303869
 11
192.7490854406469
 21
243.3117517049232
 72
     1
 10
192.7490854406469
 20
243.3117517049232
 11
189.6650339277196
 21
245.595507008676
 97
        0
 75
     0
 76
     1
 98
        0
  0
ENDBLK
  5
C0
330
BD
100
AcDbEntity
  8
0
100
AcDbBlockEnd
  0
BLOCK
  5
D3
330
D1
100
AcDbEntity
  8
0
100
AcDbBlockBegin
  2
block 9
 70
     0
 71
     0
 10
0.0
 20
0.0
 30
0.0
  3
block 9
  1

  0
POLYLINE
  5
D5
330
D1
100
AcDbEntity
  8
Capa 1
 62
     7
370
    25
100
AcDb2dPolyline
 66
     1
 10
0.0
 20
0.0
 30
0.0
  0
VERTEX
  5
D6
330
D5
100
AcDbEntity
  8
Capa 1
 62
     7
370
    25
100
AcDbVertex
100
AcDb2dVertex
 10
196.7199051164736
 20
194.4743903978341
 30
0.0
  0
VERTEX
  5
D7
330
D5
100
AcDbEntity
  8
Capa 1
 62
     7
370
    25
100
AcDbVertex
100
AcDb2dVertex
 10
43.14864363425486
 20
194.4743903978341
 30
0.0
  0
SEQEND
  5
D8
330
D5
100
AcDbEntity
  8
Capa 1
370
    25
  0
ENDBLK
  5
D4
330
D1
100
AcDbEntity
  8
0
100
AcDbBlockEnd
  0
BLOCK
  5
DB
330
D9
100
AcDbEntity
  8
0
100
AcDbBlockBegin
  2
block 10
 70
     0
 71
     0
 10
0.0
 20
0.0
 30
0.0
  3
block 10
  1

  0
POLYLINE
  5
DD
330
D9
100
AcDbEntity
  8
Capa 1
 62
     7
370
    25
100
AcDb2dPolyline
 66
     1
 10
0.0
 20
0.0
 30
0.0
  0
VERTEX
  5
DE
330
DD
100
AcDbEntity
  8
Capa 1
 62
     7
370
    25
100
AcDbVertex
100
AcDb2dVertex
 10
43.14864363425486
 20
67.29343901604146
 30
0.0
  0
VERTEX
  5
DF
330
DD
100
AcDbEntity
  8
Capa 1
 62
     7
370
    25
100
AcDbVertex
100
AcDb2dVertex
 10
196.7199051164736
 20
67.29343901604146
 30
0.0
  0
SEQEND
  5
E0
330
DD
100
AcDbEntity
  8
Capa 1
370
    25
  0
ENDBLK
  5
DC
330
D9
100
AcDbEntity
  8
0
100
AcDbBlockEnd
  0
BLOCK
  5
E3
330
E1
100
AcDbEntity
  8
0
100
AcDbBlockBegin
  2
block 11
 70
     0
 71
     0
 10
0.0
 20
0.0
 30
0.0
  3
block 11
  1

  0
POLYLINE
  5
E5
330
E1
100
AcDbEntity
  8
Capa 1
 62
     7
370
    25
100
AcDb2dPolyline
 66
     1
 10
0.0
 20
0.0
 30
0.0
  0
VERTEX
  5
E6
330
E5
100
AcDbEntity
  8
Capa 1
 62
     7
370
    25
100
AcDbVertex
100
AcDb2dVertex
 10
40.44596444313392
 20
191.7717112067132
 30
0.0
  0
VERTEX
  5
E7
330
E5
100
AcDbEntity
  8
Capa 1
 62
     7
370
    25
100
AcDbVertex
100
AcDb2dVertex
 10
40.44596444313392
 20
69.99577369738661
 30
0.0
  0
SEQEND
  5
E8
330
E5
100
AcDbEntity
  8
Capa 1
370
    25
  0
ENDBLK
  5
E4
330
E1
100
AcDbEntity
  8
0
100
AcDbBlockEnd
  0
BLOCK
  5
EB
330
E9
100
AcDbEntity
  8
0
100
AcDbBlockBegin
  2
block 12
 70
     0
 71
     0
 10
0.0
 20
0.0
 30
0.0
  3
block 12
  1

  0
SPLINE
  5
ED
330
E9
100
AcDbEntity
  8
Capa 1
 62
     7
370
    25
100
AcDbSpline
210
0.0
220
0.0
230
1.0
 70
     8
 71
     3
 72
    11
 73
     7
 74
     0
 42
0.0000000001
 43
0.0000000001
 40
0.0
 40
0.0
 40
0.0
 40
0.0
 40
1.0
 40
1.0
 40
1.0
 40
2.0
 40
2.0
 40
2.0
 40
2.0
 10
43.14864363425486
 20
194.4743903978341
 30
0.0
 10
41.65605503061796
 20
194.4743903978341
 30
0.0
 10
40.44596444313392
 20
193.2642998103501
 30
0.0
 10
40.44596444313392
 20
191.7717112067132
 30
0.0
 10
40.44596444313392
 20
191.7717112067132
 30
0.0
 10
40.44596444313392
 20
191.7717112067132
 30
0.0
 10
40.44596444313392
 20
191.7717112067132
 30
0.0
  0
ENDBLK
  5
EC
330
E9
100
AcDbEntity
  8
0
100
AcDbBlockEnd
  0
BLOCK
  5
F0
330
EE
100
AcDbEntity
  8
0
100
AcDbBlockBegin
  2
block 13
 70
     0
 71
     0
 10
0.0
 20
0.0
 30
0.0
  3
block 13
  1

  0
SPLINE
  5
F2
330
EE
100
AcDbEntity
  8
Capa 1
 62
     7
370
    25
100
AcDbSpline
210
0.0
220
0.0
230
1.0
 70
     8
 71
     3
 72
    11
 73
     7
 74
     0
 42
0.0000000001
 43
0.0000000001
 40
0.0
 40
0.0
 40
0.0
 40
0.0
 40
1.0
 40
1.0
 40
1.0
 40
2.0
 40
2.0
 40
2.0
 40
2.0
 10
40.44596444313392
 20
69.99577369738661
 30
0.0
 10
40.44596444313392
 20
68.5030128388618
 30
0.0
 10
41.65605503061796
 20
67.29343901604146
 30
0.0
 10
43.14864363425486
 20
67.29343901604146
 30
0.0
 10
43.14864363425486
 20
67.29343901604146
 30
0.0
 10
43.14864363425486
 20
67.29343901604146
 30
0.0
 10
43.14864363425486
 20
67.29343901604146
 30
0.0
  0
ENDBLK
  5
F1
330
EE
100
AcDbEntity
  8
0
100
AcDbBlockEnd
  0
BLOCK
  5
F5
330
F3
100
AcDbEntity
  8
0
100
AcDbBlockBegin
  2
block 14
 70
     0
 71
     0
 10
0.0
 20
0.0
 30
0.0
  3
block 14
  1

  0
SPLINE
  5
F7
330
F3
100
AcDbEntity
  8
Capa 1
 62
     7
370
    25
100
AcDbSpline
210
0.0
220
0.0
230
1.0
 70
    11
 71
     3
 72
    23
 73
    19
 74
     0
 42
0.0000000001
 43
0.0000000001
 40
0.0
 40
0.0
 40
0.0
 40
0.0
 40
1.0
 40
1.0
 40
1.0
 40
2.0
 40
2.0
 40
2.0
 40
3.0
 40
3.0
 40
3.0
 40
4.0
 40
4.0
 40
4.0
 40
5.0
 40
5.0
 40
5.0
 40
6.0
 40
6.0
 40
6.0
 40
6.0
 10
124.9412933293418
 20
96.7038940659846
 30
0.0
 10
124.9412933293418
 20
99.46996305585203
 30
0.0
 10
122.6995682182361
 20
101.7120326767335
 30
0.0
 10
119.9334992283687
 20
101.7120326767335
 30
0.0
 10
117.1688082776044
 20
101.7120326767335
 30
0.0
 10
114.9267386567229
 20
99.46996305585203
 30
0.0
 10
114.9267386567229
 20
96.7038940659846
 30
0.0
 10
114.9267386567229
 20
93.93851409566875
 30
0.0
 10
117.1688082776044
 20
91.69609996501148
 30
0.0
 10
119.9334992283687
 20
91.69609996501148
 30
0.0
 10
122.6995682182361
 20
91.69609996501148
 30
0.0
 10
124.9412933293418
 20
93.93851409566875
 30
0.0
 10
124.9412933293418
 20
96.7038940659846
 30
0.0
 10
124.9412933293418
 20
96.7038940659846
 30
0.0
 10
124.9412933293418
 20
96.7038940659846
 30
0.0
 10
124.9412933293418
 20
96.7038940659846
 30
0.0
 10
124.9412933293418
 20
96.7038940659846
 30
0.0
 10
124.9412933293418
 20
96.7038940659846
 30
0.0
 10
124.9412933293418
 20
96.7038940659846
 30
0.0
  0
ENDBLK
  5
F6
330
F3
100
AcDbEntity
  8
0
100
AcDbBlockEnd
  0
BLOCK
  5
FA
330
F8
100
AcDbEntity
  8
0
100
AcDbBlockBegin
  2
block 15
 70
     0
 71
     0
 10
0.0
 20
0.0
 30
0.0
  3
block 15
  1

  0
POLYLINE
  5
FC
330
F8
100
AcDbEntity
  8
Capa 1
 62
     7
370
    25
100
AcDb2dPolyline
 66
     1
 10
0.0
 20
0.0
 30
0.0
  0
VERTEX
  5
FD
330
FC
100
AcDbEntity
  8
Capa 1
 62
     7
370
    25
100
AcDbVertex
100
AcDb2dVertex
 10
199.4222397978187
 20
69.99577369738661
 30
0.0
  0
VERTEX
  5
FE
330
FC
100
AcDbEntity
  8
Capa 1
 62
     7
370
    25
100
AcDbVertex
100
AcDb2dVertex
 10
199.4222397978187
 20
191.7717112067132
 30
0.0
  0
SEQEND
  5
FF
330
FC
100
AcDbEntity
  8
Capa 1
370
    25
  0
ENDBLK
  5
FB
330
F8
100
AcDbEntity
  8
0
100
AcDbBlockEnd
  0
BLOCK
  5
102
330
100
100
AcDbEntity
  8
0
100
AcDbBlockBegin
  2
block 16
 70
     0
 71
     0
 10
0.0
 20
0.0
 30
0.0
  3
block 16
  1

  0
SPLINE
  5
104
330
100
100
AcDbEntity
  8
Capa 1
 62
     7
370
    25
100
AcDbSpline
210
0.0
220
0.0
230
1.0
 70
     8
 71
     3
 72
    11
 73
     7
 74
     0
 42
0.0000000001
 43
0.0000000001
 40
0.0
 40
0.0
 40
0.0
 40
0.0
 40
1.0
 40
1.0
 40
1.0
 40
2.0
 40
2.0
 40
2.0
 40
2.0
 10
199.4222397978187
 20
191.7717112067132
 30
0.0
 10
199.4222397978187
 20
193.2642998103501
 30
0.0
 10
198.2119769554468
 20
194.4743903978341
 30
0.0
 10
196.7199051164736
 20
194.4743903978341
 30
0.0
 10
196.7199051164736
 20
194.4743903978341
 30
0.0
 10
196.7199051164736
 20
194.4743903978341
 30
0.0
 10
196.7199051164736
 20
194.4743903978341
 30
0.0
  0
ENDBLK
  5
103
330
100
100
AcDbEntity
  8
0
100
AcDbBlockEnd
  0
BLOCK
  5
107
330
105
100
AcDbEntity
  8
0
100
AcDbBlockBegin
  2
block 17
 70
     0
 71
     0
 10
0.0
 20
0.0
 30
0.0
  3
block 17
  1

  0
SPLINE
  5
109
330
105
100
AcDbEntity
  8
Capa 1
 62
     7
370
    25
100
AcDbSpline
210
0.0
220
0.0
230
1.0
 70
     8
 71
     3
 72
    11
 73
     7
 74
     0
 42
0.0000000001
 43
0.0000000001
 40
0.0
 40
0.0
 40
0.0
 40
0.0
 40
1.0
 40
1.0
 40
1.0
 40
2.0
 40
2.0
 40
2.0
 40
2.0
 10
196.7199051164736
 20
67.29343901604146
 30
0.0
 10
198.2119769554468
 20
67.29343901604146
 30
0.0
 10
199.4222397978187
 20
68.5030128388618
 30
0.0
 10
199.4222397978187
 20
69.99577369738661
 30
0.0
 10
199.4222397978187
 20
69.99577369738661
 30
0.0
 10
199.4222397978187
 20
69.99577369738661
 30
0.0
 10
199.4222397978187
 20
69.99577369738661
 30
0.0
  0
ENDBLK
  5
108
330
105
100
AcDbEntity
  8
0
100
AcDbBlockEnd
  0
BLOCK
  5
10C
330
10A
100
AcDbEntity
  8
0
100
AcDbBlockBegin
  2
block 18
 70
     0
 71
     0
 10
0.0
 20
0.0
 30
0.0
  3
block 18
  1

  0
POLYLINE
  5
10E
330
10A
100
AcDbEntity
  8
Capa 1
 62
     7
370
    25
100
AcDb2dPolyline
 66
     1
 10
0.0
 20
0.0
 30
0.0
  0
VERTEX
  5
10F
330
10E
100
AcDbEntity
  8
Capa 1
 62
     7
370
    25
100
AcDbVertex
100
AcDb2dVertex
 10
185.114404299228
 20
76.03709712574822
 30
0.0
  0
VERTEX
  5
110
330
10E
100
AcDbEntity
  8
Capa 1
 62
     7
370
    25
100
AcDbVertex
100
AcDb2dVertex
 10
185.114404299228
 20
180.1663826443555
 30
0.0
  0
SEQEND
  5
111
330
10E
100
AcDbEntity
  8
Capa 1
370
    25
  0
ENDBLK
  5
10D
330
10A
100
AcDbEntity
  8
0
100
AcDbBlockEnd
  0
BLOCK
  5
114
330
112
100
AcDbEntity
  8
0
100
AcDbBlockBegin
  2
block 19
 70
     0
 71
     0
 10
0.0
 20
0.0
 30
0.0
  3
block 19
  1

  0
POLYLINE
  5
116
330
112
100
AcDbEntity
  8
Capa 1
 62
     7
370
    25
100
AcDb2dPolyline
 66
     1
 10
0.0
 20
0.0
 30
0.0
  0
VERTEX
  5
117
330
116
100
AcDbEntity
  8
Capa 1
 62
     7
370
    25
100
AcDbVertex
100
AcDb2dVertex
 10
185.114404299228
 20
180.1663826443555
 30
0.0
  0
VERTEX
  5
118
330
116
100
AcDbEntity
  8
Capa 1
 62
     7
370
    25
100
AcDbVertex
100
AcDb2dVertex
 10
54.75379994172461
 20
180.1663826443555
 30
0.0
  0
SEQEND
  5
119
330
116
100
AcDbEntity
  8
Capa 1
370
    25
  0
ENDBLK
  5
115
330
112
100
AcDbEntity
  8
0
100
AcDbBlockEnd
  0
BLOCK
  5
11C
330
11A
100
AcDbEntity
  8
0
100
AcDbBlockBegin
  2
block 20
 70
     0
 71
     0
 10
0.0
 20
0.0
 30
0.0
  3
block 20
  1

  0
POLYLINE
  5
11E
330
11A
100
AcDbEntity
  8
Capa 1
 62
     7
370
    25
100
AcDb2dPolyline
 66
     1
 10
0.0
 20
0.0
 30
0.0
  0
VERTEX
  5
11F
330
11E
100
AcDbEntity
  8
Capa 1
 62
     7
370
    25
100
AcDbVertex
100
AcDb2dVertex
 10
54.75379994172461
 20
180.1663826443555
 30
0.0
  0
VERTEX
  5
120
330
11E
100
AcDbEntity
  8
Capa 1
 62
     7
370
    25
100
AcDbVertex
100
AcDb2dVertex
 10
54.75379994172461
 20
76.03709712574822
 30
0.0
  0
SEQEND
  5
121
330
11E
100
AcDbEntity
  8
Capa 1
370
    25
  0
ENDBLK
  5
11D
330
11A
100
AcDbEntity
  8
0
100
AcDbBlockEnd
  0
BLOCK
  5
124
330
122
100
AcDbEntity
  8
0
100
AcDbBlockBegin
  2
block 21
 70
     0
 71
     0
 10
0.0
 20
0.0
 30
0.0
  3
block 21
  1

  0
SPLINE
  5
126
330
122
100
AcDbEntity
  8
Capa 1
 62
     7
370
    25
100
AcDbSpline
210
0.0
220
0.0
230
1.0
 70
     8
 71
     3
 72
    14
 73
    10
 74
     0
 42
0.0000000001
 43
0.0000000001
 40
0.0
 40
0.0
 40
0.0
 40
0.0
 40
1.0
 40
1.0
 40
1.0
 40
2.0
 40
2.0
 40
2.0
 40
3.0
 40
3.0
 40
3.0
 40
3.0
 10
119.9334992283687
 20
91.69609996501148
 30
0.0
 10
122.6995682182361
 20
91.69609996501148
 30
0.0
 10
124.9412933293418
 20
93.93851409566875
 30
0.0
 10
124.9412933293418
 20
96.7038940659846
 30
0.0
 10
124.9412933293418
 20
99.46996305585203
 30
0.0
 10
122.6995682182361
 20
101.7120326767335
 30
0.0
 10
119.9334992283687
 20
101.7120326767335
 30
0.0
 10
119.9334992283687
 20
101.7120326767335
 30
0.0
 10
119.9334992283687
 20
101.7120326767335
 30
0.0
 10
119.9334992283687
 20
101.7120326767335
 30
0.0
  0
ENDBLK
  5
125
330
122
100
AcDbEntity
  8
0
100
AcDbBlockEnd
  0
BLOCK
  5
129
330
127
100
AcDbEntity
  8
0
100
AcDbBlockBegin
  2
block 22
 70
     0
 71
     0
 10
0.0
 20
0.0
 30
0.0
  3
block 22
  1

  0
SPLINE
  5
12B
330
127
100
AcDbEntity
  8
Capa 1
 62
     7
370
    25
100
AcDbSpline
210
0.0
220
0.0
230
1.0
 70
     8
 71
     3
 72
    14
 73
    10
 74
     0
 42
0.0000000001
 43
0.0000000001
 40
0.0
 40
0.0
 40
0.0
 40
0.0
 40
1.0
 40
1.0
 40
1.0
 40
2.0
 40
2.0
 40
2.0
 40
3.0
 40
3.0
 40
3.0
 40
3.0
 10
119.9334992283687
 20
101.7120326767335
 30
0.0
 10
117.1688082776044
 20
101.7120326767335
 30
0.0
 10
114.9267386567229
 20
99.46996305585203
 30
0.0
 10
114.9267386567229
 20
96.7038940659846
 30
0.0
 10
114.9267386567229
 20
93.93851409566875
 30
0.0
 10
117.1688082776044
 20
91.69609996501148
 30
0.0
 10
119.9334992283687
 20
91.69609996501148
 30
0.0
 10
119.9334992283687
 20
91.69609996501148
 30
0.0
 10
119.9334992283687
 20
91.69609996501148
 30
0.0
 10
119.9334992283687
 20
91.69609996501148
 30
0.0
  0
ENDBLK
  5
12A
330
127
100
AcDbEntity
  8
0
100
AcDbBlockEnd
  0
BLOCK
  5
12E
330
12C
100
AcDbEntity
  8
0
100
AcDbBlockBegin
  2
block 23
 70
     0
 71
     0
 10
0.0
 20
0.0
 30
0.0
  3
block 23
  1

  0
POLYLINE
  5
130
330
12C
100
AcDbEntity
  8
Capa 1
 62
     7
370
    25
100
AcDb2dPolyline
 66
     1
 10
0.0
 20
0.0
 30
0.0
  0
VERTEX
  5
131
330
130
100
AcDbEntity
  8
Capa 1
 62
     7
370
    25
100
AcDbVertex
100
AcDb2dVertex
 10
126.233894008129
 20
244.3766314219092
 30
0.0
  0
VERTEX
  5
132
330
130
100
AcDbEntity
  8
Capa 1
 62
     7
370
    25
100
AcDbVertex
100
AcDb2dVertex
 10
125.0673839072832
 20
242.5584810801449
 30
0.0
  0
SEQEND
  5
133
330
130
100
AcDbEntity
  8
Capa 1
370
    25
  0
ENDBLK
  5
12F
330
12C
100
AcDbEntity
  8
0
100
AcDbBlockEnd
  0
BLOCK
  5
136
330
134
100
AcDbEntity
  8
0
100
AcDbBlockBegin
  2
block 24
 70
     0
 71
     0
 10
0.0
 20
0.0
 30
0.0
  3
block 24
  1

  0
POLYLINE
  5
138
330
134
100
AcDbEntity
  8
Capa 1
 62
     7
370
    25
100
AcDb2dPolyline
 66
     1
 10
0.0
 20
0.0
 30
0.0
  0
VERTEX
  5
139
330
138
100
AcDbEntity
  8
Capa 1
 62
     7
370
    25
100
AcDbVertex
100
AcDb2dVertex
 10
127.9805585714156
 20
243.2566301407958
 30
0.0
  0
VERTEX
  5
13A
330
138
100
AcDbEntity
  8
Capa 1
 62
     7
370
    25
100
AcDbVertex
100
AcDb2dVertex
 10
127.0486596278869
 20
241.8031433967118
 30
0.0
  0
SEQEND
  5
13B
330
138
100
AcDbEntity
  8
Capa 1
370
    25
  0
ENDBLK
  5
137
330
134
100
AcDbEntity
  8
0
100
AcDbBlockEnd
  0
BLOCK
  5
13E
330
13C
100
AcDbEntity
  8
0
100
AcDbBlockBegin
  2
block 25
 70
     0
 71
     0
 10
0.0
 20
0.0
 30
0.0
  3
block 25
  1

  0
SPLINE
  5
140
330
13C
100
AcDbEntity
  8
Capa 1
 62
     7
370
    25
100
AcDbSpline
210
0.0
220
0.0
230
1.0
 70
     8
 71
     3
 72
     8
 73
     4
 74
     0
 42
0.0000000001
 43
0.0000000001
 40
0.0
 40
0.0
 40
0.0
 40
0.0
 40
1.0
 40
1.0
 40
1.0
 40
1.0
 10
127.0486596278869
 20
241.8031433967118
 30
0.0
 10
127.030056099994
 20
241.7773051635271
 30
0.0
 10
127.0155866894105
 20
241.7276957558124
 30
0.0
 10
127.0166202187379
 20
241.6956563466634
 30
0.0
  0
ENDBLK
  5
13F
330
13C
100
AcDbEntity
  8
0
100
AcDbBlockEnd
  0
BLOCK
  5
143
330
141
100
AcDbEntity
  8
0
100
AcDbBlockBegin
  2
block 26
 70
     0
 71
     0
 10
0.0
 20
0.0
 30
0.0
  3
block 26
  1

  0
POLYLINE
  5
145
330
141
100
AcDbEntity
  8
Capa 1
 62
     7
370
    25
100
AcDb2dPolyline
 66
     1
 10
0.0
 20
0.0
 30
0.0
  0
VERTEX
  5
146
330
145
100
AcDbEntity
  8
Capa 1
 62
     7
370
    25
100
AcDbVertex
100
AcDb2dVertex
 10
124.9412933293418
 20
242.1287051348392
 30
0.0
  0
VERTEX
  5
147
330
145
100
AcDbEntity
  8
Capa 1
 62
     7
370
    25
100
AcDbVertex
100
AcDb2dVertex
 10
124.942671368445
 20
240.8979439608074
 30
0.0
  0
SEQEND
  5
148
330
145
100
AcDbEntity
  8
Capa 1
370
    25
  0
ENDBLK
  5
144
330
141
100
AcDbEntity
  8
0
100
AcDbBlockEnd
  0
BLOCK
  5
14B
330
149
100
AcDbEntity
  8
0
100
AcDbBlockBegin
  2
block 27
 70
     0
 71
     0
 10
0.0
 20
0.0
 30
0.0
  3
block 27
  1

  0
POLYLINE
  5
14D
330
149
100
AcDbEntity
  8
Capa 1
 62
     7
370
    25
100
AcDb2dPolyline
 66
     1
 10
0.0
 20
0.0
 30
0.0
  0
VERTEX
  5
14E
330
14D
100
AcDbEntity
  8
Capa 1
 62
     7
370
    25
100
AcDbVertex
100
AcDb2dVertex
 10
127.0166202187379
 20
241.6956563466634
 30
0.0
  0
VERTEX
  5
14F
330
14D
100
AcDbEntity
  8
Capa 1
 62
     7
370
    25
100
AcDbVertex
100
AcDb2dVertex
 10
127.0166202187379
 20
240.8979439608074
 30
0.0
  0
SEQEND
  5
150
330
14D
100
AcDbEntity
  8
Capa 1
370
    25
  0
ENDBLK
  5
14C
330
149
100
AcDbEntity
  8
0
100
AcDbBlockEnd
  0
BLOCK
  5
153
330
151
100
AcDbEntity
  8
0
100
AcDbBlockBegin
  2
block 28
 70
     0
 71
     0
 10
0.0
 20
0.0
 30
0.0
  3
block 28
  1

  0
SPLINE
  5
155
330
151
100
AcDbEntity
  8
Capa 1
 62
     7
370
    25
100
AcDbSpline
210
0.0
220
0.0
230
1.0
 70
     8
 71
     3
 72
     8
 73
     4
 74
     0
 42
0.0000000001
 43
0.0000000001
 40
0.0
 40
0.0
 40
0.0
 40
0.0
 40
1.0
 40
1.0
 40
1.0
 40
1.0
 10
125.0673839072832
 20
242.5584810801449
 30
0.0
 10
124.9929697957112
 20
242.4549558925181
 30
0.0
 10
124.9347476436017
 20
242.2565182616596
 30
0.0
 10
124.9412933293418
 20
242.1287051348392
 30
0.0
  0
ENDBLK
  5
154
330
151
100
AcDbEntity
  8
0
100
AcDbBlockEnd
  0
BLOCK
  5
158
330
156
100
AcDbEntity
  8
0
100
AcDbBlockBegin
  2
block 29
 70
     0
 71
     0
 10
0.0
 20
0.0
 30
0.0
  3
block 29
  1

  0
POLYLINE
  5
15A
330
156
100
AcDbEntity
  8
Capa 1
 62
     7
370
    25
100
AcDb2dPolyline
 66
     1
 10
0.0
 20
0.0
 30
0.0
  0
VERTEX
  5
15B
330
15A
100
AcDbEntity
  8
Capa 1
 62
     7
370
    25
100
AcDbVertex
100
AcDb2dVertex
 10
128.2127581603022
 20
243.3977068939844
 30
0.0
  0
VERTEX
  5
15C
330
15A
100
AcDbEntity
  8
Capa 1
 62
     7
370
    25
100
AcDbVertex
100
AcDb2dVertex
 10
188.0599628822852
 20
244.2545027063894
 30
0.0
  0
SEQEND
  5
15D
330
15A
100
AcDbEntity
  8
Capa 1
370
    25
  0
ENDBLK
  5
159
330
156
100
AcDbEntity
  8
0
100
AcDbBlockEnd
  0
BLOCK
  5
160
330
15E
100
AcDbEntity
  8
0
100
AcDbBlockBegin
  2
block 30
 70
     0
 71
     0
 10
0.0
 20
0.0
 30
0.0
  3
block 30
  1

  0
POLYLINE
  5
162
330
15E
100
AcDbEntity
  8
Capa 1
 62
     7
370
    25
100
AcDb2dPolyline
 66
     1
 10
0.0
 20
0.0
 30
0.0
  0
VERTEX
  5
163
330
162
100
AcDbEntity
  8
Capa 1
 62
     7
370
    25
100
AcDbVertex
100
AcDb2dVertex
 10
128.2072460038895
 20
245.4735505480442
 30
0.0
  0
VERTEX
  5
164
330
162
100
AcDbEntity
  8
Capa 1
 62
     7
370
    25
100
AcDbVertex
100
AcDb2dVertex
 10
183.3033164078676
 20
246.2533484255588
 30
0.0
  0
SEQEND
  5
165
330
162
100
AcDbEntity
  8
Capa 1
370
    25
  0
ENDBLK
  5
161
330
15E
100
AcDbEntity
  8
0
100
AcDbBlockEnd
  0
BLOCK
  5
168
330
166
100
AcDbEntity
  8
0
100
AcDbBlockBegin
  2
block 31
 70
     0
 71
     0
 10
0.0
 20
0.0
 30
0.0
  3
block 31
  1

  0
SPLINE
  5
16A
330
166
100
AcDbEntity
  8
Capa 1
 62
     7
370
    25
100
AcDbSpline
210
0.0
220
0.0
230
1.0
 70
     8
 71
     3
 72
     8
 73
     4
 74
     0
 42
0.0000000001
 43
0.0000000001
 40
0.0
 40
0.0
 40
0.0
 40
0.0
 40
1.0
 40
1.0
 40
1.0
 40
1.0
 10
128.2072460038895
 20
245.4735505480442
 30
0.0
 10
127.4782633183048
 20
245.5021448594353
 30
0.0
 10
126.5945957433876
 20
245.0108739191499
 30
0.0
 10
126.233894008129
 20
244.3766314219092
 30
0.0
  0
ENDBLK
  5
169
330
166
100
AcDbEntity
  8
0
100
AcDbBlockEnd
  0
BLOCK
  5
16D
330
16B
100
AcDbEntity
  8
0
100
AcDbBlockBegin
  2
block 32
 70
     0
 71
     0
 10
0.0
 20
0.0
 30
0.0
  3
block 32
  1

  0
SPLINE
  5
16F
330
16B
100
AcDbEntity
  8
Capa 1
 62
     7
370
    25
100
AcDbSpline
210
0.0
220
0.0
230
1.0
 70
     8
 71
     3
 72
     8
 73
     4
 74
     0
 42
0.0000000001
 43
0.0000000001
 40
0.0
 40
0.0
 40
0.0
 40
0.0
 40
1.0
 40
1.0
 40
1.0
 40
1.0
 10
128.2368738446079
 20
243.3989126781997
 30
0.0
 10
128.1428226758156
 20
243.4027022857334
 30
0.0
 10
128.0274119009239
 20
243.3387957223232
 30
0.0
 10
127.9805585714156
 20
243.2566301407958
 30
0.0
  0
ENDBLK
  5
16E
330
16B
100
AcDbEntity
  8
0
100
AcDbBlockEnd
  0
BLOCK
  5
172
330
170
100
AcDbEntity
  8
0
100
AcDbBlockBegin
  2
block 33
 70
     0
 71
     0
 10
0.0
 20
0.0
 30
0.0
  3
block 33
  1

  0
SPLINE
  5
174
330
170
100
AcDbEntity
  8
Capa 1
 62
     7
370
    25
100
AcDbSpline
210
0.0
220
0.0
230
1.0
 70
     8
 71
     3
 72
     8
 73
     4
 74
     0
 42
0.0000000001
 43
0.0000000001
 40
0.0
 40
0.0
 40
0.0
 40
0.0
 40
1.0
 40
1.0
 40
1.0
 40
1.0
 10
196.9948239175589
 20
252.805924361202
 30
0.0
 10
195.4886271777781
 20
252.8057521063141
 30
0.0
 10
192.7545975970596
 20
252.3802825332058
 30
0.0
 10
191.3193698710928
 20
251.9226012960606
 30
0.0
  0
ENDBLK
  5
173
330
170
100
AcDbEntity
  8
0
100
AcDbBlockEnd
  0
BLOCK
  5
177
330
175
100
AcDbEntity
  8
0
100
AcDbBlockBegin
  2
block 34
 70
     0
 71
     0
 10
0.0
 20
0.0
 30
0.0
  3
block 34
  1

  0
SPLINE
  5
179
330
175
100
AcDbEntity
  8
Capa 1
 62
     7
370
    25
100
AcDbSpline
210
0.0
220
0.0
230
1.0
 70
     8
 71
     3
 72
     8
 73
     4
 74
     0
 42
0.0000000001
 43
0.0000000001
 40
0.0
 40
0.0
 40
0.0
 40
0.0
 40
1.0
 40
1.0
 40
1.0
 40
1.0
 10
197.797531695164
 20
254.4091006028694
 30
0.0
 10
195.9544043946545
 20
254.477485793365
 30
0.0
 10
192.6415983905985
 20
254.0189432817803
 30
0.0
 10
190.8873546122444
 20
253.4523969554835
 30
0.0
  0
ENDBLK
  5
178
330
175
100
AcDbEntity
  8
0
100
AcDbBlockEnd
  0
BLOCK
  5
17C
330
17A
100
AcDbEntity
  8
0
100
AcDbBlockBegin
  2
block 35
 70
     0
 71
     0
 10
0.0
 20
0.0
 30
0.0
  3
block 35
  1

  0
SPLINE
  5
17E
330
17A
100
AcDbEntity
  8
Capa 1
 62
     7
370
    25
100
AcDbSpline
210
0.0
220
0.0
230
1.0
 70
     8
 71
     3
 72
     8
 73
     4
 74
     0
 42
0.0000000001
 43
0.0000000001
 40
0.0
 40
0.0
 40
0.0
 40
0.0
 40
1.0
 40
1.0
 40
1.0
 40
1.0
 10
190.8873546122444
 20
253.4523969554835
 30
0.0
 10
188.4568381440025
 20
252.8960136675726
 30
0.0
 10
186.08454382787
 20
250.4765215121562
 30
0.0
 10
185.5770809281223
 20
248.0356697506403
 30
0.0
  0
ENDBLK
  5
17D
330
17A
100
AcDbEntity
  8
0
100
AcDbBlockEnd
  0
BLOCK
  5
181
330
17F
100
AcDbEntity
  8
0
100
AcDbBlockBegin
  2
block 36
 70
     0
 71
     0
 10
0.0
 20
0.0
 30
0.0
  3
block 36
  1

  0
SPLINE
  5
183
330
17F
100
AcDbEntity
  8
Capa 1
 62
     7
370
    25
100
AcDbSpline
210
0.0
220
0.0
230
1.0
 70
     8
 71
     3
 72
     8
 73
     4
 74
     0
 42
0.0000000001
 43
0.0000000001
 40
0.0
 40
0.0
 40
0.0
 40
0.0
 40
1.0
 40
1.0
 40
1.0
 40
1.0
 10
183.3033164078676
 20
246.2533484255588
 30
0.0
 10
184.3358122059287
 20
246.2371564660964
 30
0.0
 10
185.3455703587873
 20
247.0295289504276
 30
0.0
 10
185.5770809281223
 20
248.0356697506403
 30
0.0
  0
ENDBLK
  5
182
330
17F
100
AcDbEntity
  8
0
100
AcDbBlockEnd
  0
BLOCK
  5
186
330
184
100
AcDbEntity
  8
0
100
AcDbBlockBegin
  2
block 37
 70
     0
 71
     0
 10
0.0
 20
0.0
 30
0.0
  3
block 37
  1

  0
SPLINE
  5
188
330
184
100
AcDbEntity
  8
Capa 1
 62
     7
370
    25
100
AcDbSpline
210
0.0
220
0.0
230
1.0
 70
     8
 71
     3
 72
     8
 73
     4
 74
     0
 42
0.0000000001
 43
0.0000000001
 40
0.0
 40
0.0
 40
0.0
 40
0.0
 40
1.0
 40
1.0
 40
1.0
 40
1.0
 10
191.3193698710928
 20
251.9226012960606
 30
0.0
 10
188.8757620313706
 20
251.3203982079689
 30
0.0
 10
186.9220470928305
 20
248.825458411653
 30
0.0
 10
186.9220470928305
 20
246.3091590092378
 30
0.0
  0
ENDBLK
  5
187
330
184
100
AcDbEntity
  8
0
100
AcDbBlockEnd
  0
BLOCK
  5
18B
330
189
100
AcDbEntity
  8
0
100
AcDbBlockBegin
  2
block 38
 70
     0
 71
     0
 10
0.0
 20
0.0
 30
0.0
  3
block 38
  1

  0
SPLINE
  5
18D
330
189
100
AcDbEntity
  8
Capa 1
 62
     7
370
    25
100
AcDbSpline
210
0.0
220
0.0
230
1.0
 70
     8
 71
     3
 72
    11
 73
     7
 74
     0
 42
0.0000000001
 43
0.0000000001
 40
0.0
 40
0.0
 40
0.0
 40
0.0
 40
1.0
 40
1.0
 40
1.0
 40
2.0
 40
2.0
 40
2.0
 40
2.0
 10
186.9220470928305
 20
246.3091590092378
 30
0.0
 10
186.9134343484356
 20
246.0461257954174
 30
0.0
 10
187.1194511943617
 20
245.82546728402
 30
0.0
 10
187.3836901923974
 20
245.8166822847372
 30
0.0
 10
187.3871352901554
 20
245.8166822847372
 30
0.0
 10
187.3947145052229
 20
245.8165100298493
 30
0.0
 10
187.3988486225324
 20
245.8165100298493
 30
0.0
  0
ENDBLK
  5
18C
330
189
100
AcDbEntity
  8
0
100
AcDbBlockEnd
  0
BLOCK
  5
190
330
18E
100
AcDbEntity
  8
0
100
AcDbBlockBegin
  2
block 39
 70
     0
 71
     0
 10
0.0
 20
0.0
 30
0.0
  3
block 39
  1

  0
SPLINE
  5
192
330
18E
100
AcDbEntity
  8
Capa 1
 62
     7
370
    25
100
AcDbSpline
210
0.0
220
0.0
230
1.0
 70
     8
 71
     3
 72
     8
 73
     4
 74
     0
 42
0.0000000001
 43
0.0000000001
 40
0.0
 40
0.0
 40
0.0
 40
0.0
 40
1.0
 40
1.0
 40
1.0
 40
1.0
 10
191.8840213936227
 20
241.5476893979589
 30
0.0
 10
191.9946090316533
 20
241.1730350167806
 30
0.0
 10
192.3969964497832
 20
240.8841635697755
 30
0.0
 10
192.7873260257603
 20
240.8979439608074
 30
0.0
  0
ENDBLK
  5
191
330
18E
100
AcDbEntity
  8
0
100
AcDbBlockEnd
  0
BLOCK
  5
195
330
193
100
AcDbEntity
  8
0
100
AcDbBlockBegin
  2
block 40
 70
     0
 71
     0
 10
0.0
 20
0.0
 30
0.0
  3
block 40
  1

  0
SPLINE
  5
197
330
193
100
AcDbEntity
  8
Capa 1
 62
     7
370
    25
100
AcDbSpline
210
0.0
220
0.0
230
1.0
 70
     8
 71
     3
 72
     8
 73
     4
 74
     0
 42
0.0000000001
 43
0.0000000001
 40
0.0
 40
0.0
 40
0.0
 40
0.0
 40
1.0
 40
1.0
 40
1.0
 40
1.0
 10
191.8840213936227
 20
241.5476893979589
 30
0.0
 10
191.4092869225756
 20
243.1305395628544
 30
0.0
 10
189.7101647083489
 20
244.3333954450468
 30
0.0
 10
188.0599628822852
 20
244.2545027063894
 30
0.0
  0
ENDBLK
  5
196
330
193
100
AcDbEntity
  8
0
100
AcDbBlockEnd
  0
BLOCK
  5
19A
330
198
100
AcDbEntity
  8
0
100
AcDbBlockBegin
  2
block 41
 70
     0
 71
     0
 10
0.0
 20
0.0
 30
0.0
  3
block 41
  1

  0
SPLINE
  5
19C
330
198
100
AcDbEntity
  8
Capa 1
 62
     7
370
    25
100
AcDbSpline
210
0.0
220
0.0
230
1.0
 70
     8
 71
     3
 72
     8
 73
     4
 74
     0
 42
0.0000000001
 43
0.0000000001
 40
0.0
 40
0.0
 40
0.0
 40
0.0
 40
1.0
 40
1.0
 40
1.0
 40
1.0
 10
192.7490854406469
 20
243.3114071951474
 30
0.0
 10
191.8926341380176
 20
244.7848755062276
 30
0.0
 10
189.8186852877247
 20
245.9062548264442
 30
0.0
 10
188.1171515050674
 20
245.8165100298493
 30
0.0
  0
ENDBLK
  5
19B
330
198
100
AcDbEntity
  8
0
100
AcDbBlockEnd
  0
BLOCK
  5
19F
330
19D
100
AcDbEntity
  8
0
100
AcDbBlockBegin
  2
block 42
 70
     0
 71
     0
 10
0.0
 20
0.0
 30
0.0
  3
block 42
  1

  0
SPLINE
  5
1A1
330
19D
100
AcDbEntity
  8
Capa 1
 62
     7
370
    25
100
AcDbSpline
210
0.0
220
0.0
230
1.0
 70
     8
 71
     3
 72
     8
 73
     4
 74
     0
 42
0.0000000001
 43
0.0000000001
 40
0.0
 40
0.0
 40
0.0
 40
0.0
 40
1.0
 40
1.0
 40
1.0
 40
1.0
 10
192.7490854406469
 20
243.3114071951474
 30
0.0
 10
192.8234995522189
 20
243.1844553427665
 30
0.0
 10
193.0023001258571
 20
243.0878203506557
 30
0.0
 10
193.1480277610189
 20
243.0953995657232
 30
0.0
  0
ENDBLK
  5
1A0
330
19D
100
AcDbEntity
  8
0
100
AcDbBlockEnd
  0
BLOCK
  5
1A4
330
1A2
100
AcDbEntity
  8
0
100
AcDbBlockBegin
  2
block 43
 70
     0
 71
     0
 10
0.0
 20
0.0
 30
0.0
  3
block 43
  1

  0
POLYLINE
  5
1A6
330
1A2
100
AcDbEntity
  8
Capa 1
 62
     7
370
    25
100
AcDb2dPolyline
 66
     1
 10
0.0
 20
0.0
 30
0.0
  0
VERTEX
  5
1A7
330
1A6
100
AcDbEntity
  8
Capa 1
 62
     7
370
    25
100
AcDbVertex
100
AcDb2dVertex
 10
197.6518040600022
 20
252.1813281376835
 30
0.0
  0
VERTEX
  5
1A8
330
1A6
100
AcDbEntity
  8
Capa 1
 62
     7
370
    25
100
AcDbVertex
100
AcDb2dVertex
 10
197.8020103222493
 20
243.58081383982
 30
0.0
  0
SEQEND
  5
1A9
330
1A6
100
AcDbEntity
  8
Capa 1
370
    25
  0
ENDBLK
  5
1A5
330
1A2
100
AcDbEntity
  8
0
100
AcDbBlockEnd
  0
BLOCK
  5
1AC
330
1AA
100
AcDbEntity
  8
0
100
AcDbBlockBegin
  2
block 44
 70
     0
 71
     0
 10
0.0
 20
0.0
 30
0.0
  3
block 44
  1

  0
SPLINE
  5
1AE
330
1AA
100
AcDbEntity
  8
Capa 1
 62
     7
370
    25
100
AcDbSpline
210
0.0
220
0.0
230
1.0
 70
     8
 71
     3
 72
    11
 73
     7
 74
     0
 42
0.0000000001
 43
0.0000000001
 40
0.0
 40
0.0
 40
0.0
 40
0.0
 40
1.0
 40
1.0
 40
1.0
 40
2.0
 40
2.0
 40
2.0
 40
2.0
 10
197.3248642827716
 20
243.0953995657232
 30
0.0
 10
197.5880697514799
 20
243.0953995657232
 30
0.0
 10
197.8020103222493
 20
243.3089956267169
 30
0.0
 10
197.8020103222493
 20
243.5725456052009
 30
0.0
 10
197.8020103222493
 20
243.5744404089678
 30
0.0
 10
197.8020103222493
 20
243.5785745262774
 30
0.0
 10
197.8020103222493
 20
243.58081383982
 30
0.0
  0
ENDBLK
  5
1AD
330
1AA
100
AcDbEntity
  8
0
100
AcDbBlockEnd
  0
BLOCK
  5
1B1
330
1AF
100
AcDbEntity
  8
0
100
AcDbBlockBegin
  2
block 45
 70
     0
 71
     0
 10
0.0
 20
0.0
 30
0.0
  3
block 45
  1

  0
POLYLINE
  5
1B3
330
1AF
100
AcDbEntity
  8
Capa 1
 62
     7
370
    25
100
AcDb2dPolyline
 66
     1
 10
0.0
 20
0.0
 30
0.0
  0
VERTEX
  5
1B4
330
1B3
100
AcDbEntity
  8
Capa 1
 62
     7
370
    25
100
AcDbVertex
100
AcDb2dVertex
 10
199.2282807940455
 20
252.9783515039879
 30
0.0
  0
VERTEX
  5
1B5
330
1B3
100
AcDbEntity
  8
Capa 1
 62
     7
370
    25
100
AcDbVertex
100
AcDb2dVertex
 10
199.4222397978187
 20
241.8517192750991
 30
0.0
  0
SEQEND
  5
1B6
330
1B3
100
AcDbEntity
  8
Capa 1
370
    25
  0
ENDBLK
  5
1B2
330
1AF
100
AcDbEntity
  8
0
100
AcDbBlockEnd
  0
BLOCK
  5
1B9
330
1B7
100
AcDbEntity
  8
0
100
AcDbBlockBegin
  2
block 46
 70
     0
 71
     0
 10
0.0
 20
0.0
 30
0.0
  3
block 46
  1

  0
POLYLINE
  5
1BB
330
1B7
100
AcDbEntity
  8
Capa 1
 62
     7
370
    25
100
AcDb2dPolyline
 66
     1
 10
0.0
 20
0.0
 30
0.0
  0
VERTEX
  5
1BC
330
1BB
100
AcDbEntity
  8
Capa 1
 62
     7
370
    25
100
AcDbVertex
100
AcDb2dVertex
 10
197.3248642827716
 20
243.0953995657232
 30
0.0
  0
VERTEX
  5
1BD
330
1BB
100
AcDbEntity
  8
Capa 1
 62
     7
370
    25
100
AcDbVertex
100
AcDb2dVertex
 10
193.1480277610189
 20
243.0953995657232
 30
0.0
  0
SEQEND
  5
1BE
330
1BB
100
AcDbEntity
  8
Capa 1
370
    25
  0
ENDBLK
  5
1BA
330
1B7
100
AcDbEntity
  8
0
100
AcDbBlockEnd
  0
BLOCK
  5
1C1
330
1BF
100
AcDbEntity
  8
0
100
AcDbBlockBegin
  2
block 47
 70
     0
 71
     0
 10
0.0
 20
0.0
 30
0.0
  3
block 47
  1

  0
SPLINE
  5
1C3
330
1BF
100
AcDbEntity
  8
Capa 1
 62
     7
370
    25
100
AcDbSpline
210
0.0
220
0.0
230
1.0
 70
     8
 71
     3
 72
    11
 73
     7
 74
     0
 42
0.0000000001
 43
0.0000000001
 40
0.0
 40
0.0
 40
0.0
 40
0.0
 40
1.0
 40
1.0
 40
1.0
 40
2.0
 40
2.0
 40
2.0
 40
2.0
 10
198.4682922286391
 20
240.8979439608074
 30
0.0
 10
198.9947031660557
 20
240.8979439608074
 30
0.0
 10
199.4222397978187
 20
241.3249638279067
 30
0.0
 10
199.4222397978187
 20
241.8517192750991
 30
0.0
 10
199.4222397978187
 20
241.8517192750991
 30
0.0
 10
199.4222397978187
 20
241.8517192750991
 30
0.0
 10
199.4222397978187
 20
241.8517192750991
 30
0.0
  0
ENDBLK
  5
1C2
330
1BF
100
AcDbEntity
  8
0
100
AcDbBlockEnd
  0
BLOCK
  5
1C6
330
1C4
100
AcDbEntity
  8
0
100
AcDbBlockBegin
  2
block 48
 70
     0
 71
     0
 10
0.0
 20
0.0
 30
0.0
  3
block 48
  1

  0
SPLINE
  5
1C8
330
1C4
100
AcDbEntity
  8
Capa 1
 62
     7
370
    25
100
AcDbSpline
210
0.0
220
0.0
230
1.0
 70
     8
 71
     3
 72
    11
 73
     7
 74
     0
 42
0.0000000001
 43
0.0000000001
 40
0.0
 40
0.0
 40
0.0
 40
0.0
 40
1.0
 40
1.0
 40
1.0
 40
2.0
 40
2.0
 40
2.0
 40
2.0
 10
199.2282807940455
 20
252.9783515039879
 30
0.0
 10
199.2282807940455
 20
253.7684846747764
 30
0.0
 10
198.586803591513
 20
254.4091006028694
 30
0.0
 10
197.797531695164
 20
254.4091006028694
 30
0.0
 10
197.797531695164
 20
254.4091006028694
 30
0.0
 10
197.797531695164
 20
254.4091006028694
 30
0.0
 10
197.797531695164
 20
254.4091006028694
 30
0.0
  0
ENDBLK
  5
1C7
330
1C4
100
AcDbEntity
  8
0
100
AcDbBlockEnd
  0
BLOCK
  5
1CB
330
1C9
100
AcDbEntity
  8
0
100
AcDbBlockBegin
  2
block 49
 70
     0
 71
     0
 10
0.0
 20
0.0
 30
0.0
  3
block 49
  1

  0
SPLINE
  5
1CD
330
1C9
100
AcDbEntity
  8
Capa 1
 62
     7
370
    25
100
AcDbSpline
210
0.0
220
0.0
230
1.0
 70
     8
 71
     3
 72
    11
 73
     7
 74
     0
 42
0.0000000001
 43
0.0000000001
 40
0.0
 40
0.0
 40
0.0
 40
0.0
 40
1.0
 40
1.0
 40
1.0
 40
2.0
 40
2.0
 40
2.0
 40
2.0
 10
197.6518040600022
 20
252.1813281376835
 30
0.0
 10
197.6462919035895
 20
252.5327281089956
 30
0.0
 10
197.3555256528175
 20
252.8122977920542
 30
0.0
 10
197.004814701057
 20
252.8062688709777
 30
0.0
 10
197.0027476424022
 20
252.8062688709777
 30
0.0
 10
196.9972354859895
 20
252.805924361202
 30
0.0
 10
196.9948239175589
 20
252.805924361202
 30
0.0
  0
ENDBLK
  5
1CC
330
1C9
100
AcDbEntity
  8
0
100
AcDbBlockEnd
  0
BLOCK
  5
1D0
330
1CE
100
AcDbEntity
  8
0
100
AcDbBlockBegin
  2
block 50
 70
     0
 71
     0
 10
0.0
 20
0.0
 30
0.0
  3
block 50
  1

  0
POLYLINE
  5
1D2
330
1CE
100
AcDbEntity
  8
Capa 1
 62
     7
370
    25
100
AcDb2dPolyline
 66
     1
 10
0.0
 20
0.0
 30
0.0
  0
VERTEX
  5
1D3
330
1D2
100
AcDbEntity
  8
Capa 1
 62
     7
370
    25
100
AcDbVertex
100
AcDb2dVertex
 10
188.1171515050674
 20
245.8165100298493
 30
0.0
  0
VERTEX
  5
1D4
330
1D2
100
AcDbEntity
  8
Capa 1
 62
     7
370
    25
100
AcDbVertex
100
AcDb2dVertex
 10
187.3988486225324
 20
245.8165100298493
 30
0.0
  0
SEQEND
  5
1D5
330
1D2
100
AcDbEntity
  8
Capa 1
370
    25
  0
ENDBLK
  5
1D1
330
1CE
100
AcDbEntity
  8
0
100
AcDbBlockEnd
  0
BLOCK
  5
1D8
330
1D6
100
AcDbEntity
  8
0
100
AcDbBlockBegin
  2
block 51
 70
     0
 71
     0
 10
0.0
 20
0.0
 30
0.0
  3
block 51
  1

  0
POLYLINE
  5
1DA
330
1D6
100
AcDbEntity
  8
Capa 1
 62
     7
370
    25
100
AcDb2dPolyline
 66
     1
 10
0.0
 20
0.0
 30
0.0
  0
VERTEX
  5
1DB
330
1DA
100
AcDbEntity
  8
Capa 1
 62
     7
370
    25
100
AcDbVertex
100
AcDb2dVertex
 10
119.9334992283687
 20
254.4091006028694
 30
0.0
  0
VERTEX
  5
1DC
330
1DA
100
AcDbEntity
  8
Capa 1
 62
     7
370
    25
100
AcDbVertex
100
AcDb2dVertex
 10
197.797531695164
 20
254.4091006028694
 30
0.0
  0
SEQEND
  5
1DD
330
1DA
100
AcDbEntity
  8
Capa 1
370
    25
  0
ENDBLK
  5
1D9
330
1D6
100
AcDbEntity
  8
0
100
AcDbBlockEnd
  0
BLOCK
  5
1E0
330
1DE
100
AcDbEntity
  8
0
100
AcDbBlockBegin
  2
block 52
 70
     0
 71
     0
 10
0.0
 20
0.0
 30
0.0
  3
block 52
  1

  0
POLYLINE
  5
1E2
330
1DE
100
AcDbEntity
  8
Capa 1
 62
     7
370
    25
100
AcDb2dPolyline
 66
     1
 10
0.0
 20
0.0
 30
0.0
  0
VERTEX
  5
1E3
330
1E2
100
AcDbEntity
  8
Capa 1
 62
     7
370
    25
100
AcDbVertex
100
AcDb2dVertex
 10
198.4682922286391
 20
240.8979439608074
 30
0.0
  0
VERTEX
  5
1E4
330
1E2
100
AcDbEntity
  8
Capa 1
 62
     7
370
    25
100
AcDbVertex
100
AcDb2dVertex
 10
192.7873260257603
 20
240.8979439608074
 30
0.0
  0
SEQEND
  5
1E5
330
1E2
100
AcDbEntity
  8
Capa 1
370
    25
  0
ENDBLK
  5
1E1
330
1DE
100
AcDbEntity
  8
0
100
AcDbBlockEnd
  0
BLOCK
  5
1E8
330
1E6
100
AcDbEntity
  8
0
100
AcDbBlockBegin
  2
block 53
 70
     0
 71
     0
 10
0.0
 20
0.0
 30
0.0
  3
block 53
  1

  0
POLYLINE
  5
1EA
330
1E6
100
AcDbEntity
  8
Capa 1
 62
     7
370
    25
100
AcDb2dPolyline
 66
     1
 10
0.0
 20
0.0
 30
0.0
  0
VERTEX
  5
1EB
330
1EA
100
AcDbEntity
  8
Capa 1
 62
     7
370
    25
100
AcDbVertex
100
AcDb2dVertex
 10
192.7873260257603
 20
240.8979439608074
 30
0.0
  0
VERTEX
  5
1EC
330
1EA
100
AcDbEntity
  8
Capa 1
 62
     7
370
    25
100
AcDbVertex
100
AcDb2dVertex
 10
127.0166202187379
 20
240.8979439608074
 30
0.0
  0
SEQEND
  5
1ED
330
1EA
100
AcDbEntity
  8
Capa 1
370
    25
  0
ENDBLK
  5
1E9
330
1E6
100
AcDbEntity
  8
0
100
AcDbBlockEnd
  0
BLOCK
  5
1F0
330
1EE
100
AcDbEntity
  8
0
100
AcDbBlockBegin
  2
block 54
 70
     0
 71
     0
 10
0.0
 20
0.0
 30
0.0
  3
block 54
  1

  0
POLYLINE
  5
1F2
330
1EE
100
AcDbEntity
  8
Capa 1
 62
     7
370
    25
100
AcDb2dPolyline
 66
     1
 10
0.0
 20
0.0
 30
0.0
  0
VERTEX
  5
1F3
330
1F2
100
AcDbEntity
  8
Capa 1
 62
     7
370
    25
100
AcDbVertex
100
AcDb2dVertex
 10
119.9334992283687
 20
240.8979439608074
 30
0.0
  0
VERTEX
  5
1F4
330
1F2
100
AcDbEntity
  8
Capa 1
 62
     7
370
    25
100
AcDbVertex
100
AcDb2dVertex
 10
119.9334992283687
 20
240.8979439608074
 30
0.0
  0
SEQEND
  5
1F5
330
1F2
100
AcDbEntity
  8
Capa 1
370
    25
  0
ENDBLK
  5
1F1
330
1EE
100
AcDbEntity
  8
0
100
AcDbBlockEnd
  0
BLOCK
  5
1F8
330
1F6
100
AcDbEntity
  8
0
100
AcDbBlockBegin
  2
block 55
 70
     0
 71
     0
 10
0.0
 20
0.0
 30
0.0
  3
block 55
  1

  0
POLYLINE
  5
1FA
330
1F6
100
AcDbEntity
  8
Capa 1
 62
     7
370
    25
100
AcDb2dPolyline
 66
     1
 10
0.0
 20
0.0
 30
0.0
  0
VERTEX
  5
1FB
330
1FA
100
AcDbEntity
  8
Capa 1
 62
     7
370
    25
100
AcDbVertex
100
AcDb2dVertex
 10
113.6341379779357
 20
244.3766314219092
 30
0.0
  0
VERTEX
  5
1FC
330
1FA
100
AcDbEntity
  8
Capa 1
 62
     7
370
    25
100
AcDbVertex
100
AcDb2dVertex
 10
114.8006480787815
 20
242.5584810801449
 30
0.0
  0
SEQEND
  5
1FD
330
1FA
100
AcDbEntity
  8
Capa 1
370
    25
  0
ENDBLK
  5
1F9
330
1F6
100
AcDbEntity
  8
0
100
AcDbBlockEnd
  0
BLOCK
  5
200
330
1FE
100
AcDbEntity
  8
0
100
AcDbBlockBegin
  2
block 56
 70
     0
 71
     0
 10
0.0
 20
0.0
 30
0.0
  3
block 56
  1

  0
POLYLINE
  5
202
330
1FE
100
AcDbEntity
  8
Capa 1
 62
     7
370
    25
100
AcDb2dPolyline
 66
     1
 10
0.0
 20
0.0
 30
0.0
  0
VERTEX
  5
203
330
202
100
AcDbEntity
  8
Capa 1
 62
     7
370
    25
100
AcDbVertex
100
AcDb2dVertex
 10
111.8878179244249
 20
243.2566301407958
 30
0.0
  0
VERTEX
  5
204
330
202
100
AcDbEntity
  8
Capa 1
 62
     7
370
    25
100
AcDbVertex
100
AcDb2dVertex
 10
112.8197168679536
 20
241.8031433967118
 30
0.0
  0
SEQEND
  5
205
330
202
100
AcDbEntity
  8
Capa 1
370
    25
  0
ENDBLK
  5
201
330
1FE
100
AcDbEntity
  8
0
100
AcDbBlockEnd
  0
BLOCK
  5
208
330
206
100
AcDbEntity
  8
0
100
AcDbBlockBegin
  2
block 57
 70
     0
 71
     0
 10
0.0
 20
0.0
 30
0.0
  3
block 57
  1

  0
SPLINE
  5
20A
330
206
100
AcDbEntity
  8
Capa 1
 62
     7
370
    25
100
AcDbSpline
210
0.0
220
0.0
230
1.0
 70
     8
 71
     3
 72
     8
 73
     4
 74
     0
 42
0.0000000001
 43
0.0000000001
 40
0.0
 40
0.0
 40
0.0
 40
0.0
 40
1.0
 40
1.0
 40
1.0
 40
1.0
 10
112.8514117673268
 20
241.6956563466634
 30
0.0
 10
112.8524452966542
 20
241.7276957558124
 30
0.0
 10
112.8383203958466
 20
241.7773051635271
 30
0.0
 10
112.8197168679536
 20
241.8031433967118
 30
0.0
  0
ENDBLK
  5
209
330
206
100
AcDbEntity
  8
0
100
AcDbBlockEnd
  0
BLOCK
  5
20D
330
20B
100
AcDbEntity
  8
0
100
AcDbBlockBegin
  2
block 58
 70
     0
 71
     0
 10
0.0
 20
0.0
 30
0.0
  3
block 58
  1

  0
POLYLINE
  5
20F
330
20B
100
AcDbEntity
  8
Capa 1
 62
     7
370
    25
100
AcDb2dPolyline
 66
     1
 10
0.0
 20
0.0
 30
0.0
  0
VERTEX
  5
210
330
20F
100
AcDbEntity
  8
Capa 1
 62
     7
370
    25
100
AcDbVertex
100
AcDb2dVertex
 10
114.9267386567229
 20
242.1287051348392
 30
0.0
  0
VERTEX
  5
211
330
20F
100
AcDbEntity
  8
Capa 1
 62
     7
370
    25
100
AcDbVertex
100
AcDb2dVertex
 10
114.9257051273956
 20
240.8979439608074
 30
0.0
  0
SEQEND
  5
212
330
20F
100
AcDbEntity
  8
Capa 1
370
    25
  0
ENDBLK
  5
20E
330
20B
100
AcDbEntity
  8
0
100
AcDbBlockEnd
  0
BLOCK
  5
215
330
213
100
AcDbEntity
  8
0
100
AcDbBlockBegin
  2
block 59
 70
     0
 71
     0
 10
0.0
 20
0.0
 30
0.0
  3
block 59
  1

  0
POLYLINE
  5
217
330
213
100
AcDbEntity
  8
Capa 1
 62
     7
370
    25
100
AcDb2dPolyline
 66
     1
 10
0.0
 20
0.0
 30
0.0
  0
VERTEX
  5
218
330
217
100
AcDbEntity
  8
Capa 1
 62
     7
370
    25
100
AcDbVertex
100
AcDb2dVertex
 10
112.8514117673268
 20
241.6956563466634
 30
0.0
  0
VERTEX
  5
219
330
217
100
AcDbEntity
  8
Capa 1
 62
     7
370
    25
100
AcDbVertex
100
AcDb2dVertex
 10
112.8503782379994
 20
240.8979439608074
 30
0.0
  0
SEQEND
  5
21A
330
217
100
AcDbEntity
  8
Capa 1
370
    25
  0
ENDBLK
  5
216
330
213
100
AcDbEntity
  8
0
100
AcDbBlockEnd
  0
BLOCK
  5
21D
330
21B
100
AcDbEntity
  8
0
100
AcDbBlockBegin
  2
block 60
 70
     0
 71
     0
 10
0.0
 20
0.0
 30
0.0
  3
block 60
  1

  0
SPLINE
  5
21F
330
21B
100
AcDbEntity
  8
Capa 1
 62
     7
370
    25
100
AcDbSpline
210
0.0
220
0.0
230
1.0
 70
     8
 71
     3
 72
     8
 73
     4
 74
     0
 42
0.0000000001
 43
0.0000000001
 40
0.0
 40
0.0
 40
0.0
 40
0.0
 40
1.0
 40
1.0
 40
1.0
 40
1.0
 10
114.9267386567229
 20
242.1287051348392
 30
0.0
 10
114.9332843424631
 20
242.2565182616596
 30
0.0
 10
114.8750621903535
 20
242.4549558925181
 30
0.0
 10
114.8006480787815
 20
242.5584810801449
 30
0.0
  0
ENDBLK
  5
21E
330
21B
100
AcDbEntity
  8
0
100
AcDbBlockEnd
  0
BLOCK
  5
222
330
220
100
AcDbEntity
  8
0
100
AcDbBlockBegin
  2
block 61
 70
     0
 71
     0
 10
0.0
 20
0.0
 30
0.0
  3
block 61
  1

  0
POLYLINE
  5
224
330
220
100
AcDbEntity
  8
Capa 1
 62
     7
370
    25
100
AcDb2dPolyline
 66
     1
 10
0.0
 20
0.0
 30
0.0
  0
VERTEX
  5
225
330
224
100
AcDbEntity
  8
Capa 1
 62
     7
370
    25
100
AcDbVertex
100
AcDb2dVertex
 10
111.6552738257625
 20
243.3977068939844
 30
0.0
  0
VERTEX
  5
226
330
224
100
AcDbEntity
  8
Capa 1
 62
     7
370
    25
100
AcDbVertex
100
AcDb2dVertex
 10
51.80806910377947
 20
244.2545027063894
 30
0.0
  0
SEQEND
  5
227
330
224
100
AcDbEntity
  8
Capa 1
370
    25
  0
ENDBLK
  5
223
330
220
100
AcDbEntity
  8
0
100
AcDbBlockEnd
  0
BLOCK
  5
22A
330
228
100
AcDbEntity
  8
0
100
AcDbBlockBegin
  2
block 62
 70
     0
 71
     0
 10
0.0
 20
0.0
 30
0.0
  3
block 62
  1

  0
POLYLINE
  5
22C
330
228
100
AcDbEntity
  8
Capa 1
 62
     7
370
    25
100
AcDb2dPolyline
 66
     1
 10
0.0
 20
0.0
 30
0.0
  0
VERTEX
  5
22D
330
22C
100
AcDbEntity
  8
Capa 1
 62
     7
370
    25
100
AcDbVertex
100
AcDb2dVertex
 10
111.6607859821753
 20
245.4735505480442
 30
0.0
  0
VERTEX
  5
22E
330
22C
100
AcDbEntity
  8
Capa 1
 62
     7
370
    25
100
AcDbVertex
100
AcDb2dVertex
 10
56.56488783308507
 20
246.2533484255588
 30
0.0
  0
SEQEND
  5
22F
330
22C
100
AcDbEntity
  8
Capa 1
370
    25
  0
ENDBLK
  5
22B
330
228
100
AcDbEntity
  8
0
100
AcDbBlockEnd
  0
BLOCK
  5
232
330
230
100
AcDbEntity
  8
0
100
AcDbBlockBegin
  2
block 63
 70
     0
 71
     0
 10
0.0
 20
0.0
 30
0.0
  3
block 63
  1

  0
SPLINE
  5
234
330
230
100
AcDbEntity
  8
Capa 1
 62
     7
370
    25
100
AcDbSpline
210
0.0
220
0.0
230
1.0
 70
     8
 71
     3
 72
     8
 73
     4
 74
     0
 42
0.0000000001
 43
0.0000000001
 40
0.0
 40
0.0
 40
0.0
 40
0.0
 40
1.0
 40
1.0
 40
1.0
 40
1.0
 10
113.6341379779357
 20
244.3766314219092
 30
0.0
 10
113.2734362426771
 20
245.0108739191499
 30
0.0
 10
112.38976866776
 20
245.5021448594353
 30
0.0
 10
111.6607859821753
 20
245.4735505480442
 30
0.0
  0
ENDBLK
  5
233
330
230
100
AcDbEntity
  8
0
100
AcDbBlockEnd
  0
BLOCK
  5
237
330
235
100
AcDbEntity
  8
0
100
AcDbBlockBegin
  2
block 64
 70
     0
 71
     0
 10
0.0
 20
0.0
 30
0.0
  3
block 64
  1

  0
SPLINE
  5
239
330
235
100
AcDbEntity
  8
Capa 1
 62
     7
370
    25
100
AcDbSpline
210
0.0
220
0.0
230
1.0
 70
     8
 71
     3
 72
     8
 73
     4
 74
     0
 42
0.0000000001
 43
0.0000000001
 40
0.0
 40
0.0
 40
0.0
 40
0.0
 40
1.0
 40
1.0
 40
1.0
 40
1.0
 10
111.8878179244249
 20
243.2566301407958
 30
0.0
 10
111.8406200851409
 20
243.3387957223232
 30
0.0
 10
111.7255538200249
 20
243.4027022857334
 30
0.0
 10
111.6311581414568
 20
243.3989126781997
 30
0.0
  0
ENDBLK
  5
238
330
235
100
AcDbEntity
  8
0
100
AcDbBlockEnd
  0
BLOCK
  5
23C
330
23A
100
AcDbEntity
  8
0
100
AcDbBlockBegin
  2
block 65
 70
     0
 71
     0
 10
0.0
 20
0.0
 30
0.0
  3
block 65
  1

  0
SPLINE
  5
23E
330
23A
100
AcDbEntity
  8
Capa 1
 62
     7
370
    25
100
AcDbSpline
210
0.0
220
0.0
230
1.0
 70
     8
 71
     3
 72
     8
 73
     4
 74
     0
 42
0.0000000001
 43
0.0000000001
 40
0.0
 40
0.0
 40
0.0
 40
0.0
 40
1.0
 40
1.0
 40
1.0
 40
1.0
 10
48.5490066247477
 20
251.9226012960606
 30
0.0
 10
47.11377889878086
 20
252.3802825332058
 30
0.0
 10
44.38009382783827
 20
252.8057521063141
 30
0.0
 10
42.87355257828162
 20
252.805924361202
 30
0.0
  0
ENDBLK
  5
23D
330
23A
100
AcDbEntity
  8
0
100
AcDbBlockEnd
  0
BLOCK
  5
241
330
23F
100
AcDbEntity
  8
0
100
AcDbBlockBegin
  2
block 66
 70
     0
 71
     0
 10
0.0
 20
0.0
 30
0.0
  3
block 66
  1

  0
SPLINE
  5
243
330
23F
100
AcDbEntity
  8
Capa 1
 62
     7
370
    25
100
AcDbSpline
210
0.0
220
0.0
230
1.0
 70
     8
 71
     3
 72
     8
 73
     4
 74
     0
 42
0.0000000001
 43
0.0000000001
 40
0.0
 40
0.0
 40
0.0
 40
0.0
 40
1.0
 40
1.0
 40
1.0
 40
1.0
 10
48.9810218835961
 20
253.4523969554835
 30
0.0
 10
47.22608908569042
 20
254.0189432817803
 30
0.0
 10
43.91362759141025
 20
254.477485793365
 30
0.0
 10
42.07101705556445
 20
254.4091006028694
 30
0.0
  0
ENDBLK
  5
242
330
23F
100
AcDbEntity
  8
0
100
AcDbBlockEnd
  0
BLOCK
  5
246
330
244
100
AcDbEntity
  8
0
100
AcDbBlockBegin
  2
block 67
 70
     0
 71
     0
 10
0.0
 20
0.0
 30
0.0
  3
block 67
  1

  0
SPLINE
  5
248
330
244
100
AcDbEntity
  8
Capa 1
 62
     7
370
    25
100
AcDbSpline
210
0.0
220
0.0
230
1.0
 70
     8
 71
     3
 72
     8
 73
     4
 74
     0
 42
0.0000000001
 43
0.0000000001
 40
0.0
 40
0.0
 40
0.0
 40
0.0
 40
1.0
 40
1.0
 40
1.0
 40
1.0
 10
54.29146782260614
 20
248.0356697506403
 30
0.0
 10
53.7833159033068
 20
250.4765215121562
 30
0.0
 10
51.41119384206227
 20
252.8960136675726
 30
0.0
 10
48.9810218835961
 20
253.4523969554835
 30
0.0
  0
ENDBLK
  5
247
330
244
100
AcDbEntity
  8
0
100
AcDbBlockEnd
  0
BLOCK
  5
24B
330
249
100
AcDbEntity
  8
0
100
AcDbBlockBegin
  2
block 68
 70
     0
 71
     0
 10
0.0
 20
0.0
 30
0.0
  3
block 68
  1

  0
SPLINE
  5
24D
330
249
100
AcDbEntity
  8
Capa 1
 62
     7
370
    25
100
AcDbSpline
210
0.0
220
0.0
230
1.0
 70
     8
 71
     3
 72
     8
 73
     4
 74
     0
 42
0.0000000001
 43
0.0000000001
 40
0.0
 40
0.0
 40
0.0
 40
0.0
 40
1.0
 40
1.0
 40
1.0
 40
1.0
 10
54.29146782260614
 20
248.0356697506403
 30
0.0
 10
54.52228937238958
 20
247.0295289504276
 30
0.0
 10
55.53256428991185
 20
246.2371564660964
 30
0.0
 10
56.56488783308507
 20
246.2533484255588
 30
0.0
  0
ENDBLK
  5
24C
330
249
100
AcDbEntity
  8
0
100
AcDbBlockEnd
  0
BLOCK
  5
250
330
24E
100
AcDbEntity
  8
0
100
AcDbBlockBegin
  2
block 69
 70
     0
 71
     0
 10
0.0
 20
0.0
 30
0.0
  3
block 69
  1

  0
SPLINE
  5
252
330
24E
100
AcDbEntity
  8
Capa 1
 62
     7
370
    25
100
AcDbSpline
210
0.0
220
0.0
230
1.0
 70
     8
 71
     3
 72
     8
 73
     4
 74
     0
 42
0.0000000001
 43
0.0000000001
 40
0.0
 40
0.0
 40
0.0
 40
0.0
 40
1.0
 40
1.0
 40
1.0
 40
1.0
 10
52.94581263834631
 20
246.3091590092378
 30
0.0
 10
52.94632940301
 20
248.825458411653
 30
0.0
 10
50.99209769980624
 20
251.3203982079689
 30
0.0
 10
48.5490066247477
 20
251.9226012960606
 30
0.0
  0
ENDBLK
  5
251
330
24E
100
AcDbEntity
  8
0
100
AcDbBlockEnd
  0
BLOCK
  5
255
330
253
100
AcDbEntity
  8
0
100
AcDbBlockBegin
  2
block 70
 70
     0
 71
     0
 10
0.0
 20
0.0
 30
0.0
  3
block 70
  1

  0
SPLINE
  5
257
330
253
100
AcDbEntity
  8
Capa 1
 62
     7
370
    25
100
AcDbSpline
210
0.0
220
0.0
230
1.0
 70
     8
 71
     3
 72
    11
 73
     7
 74
     0
 42
0.0000000001
 43
0.0000000001
 40
0.0
 40
0.0
 40
0.0
 40
0.0
 40
1.0
 40
1.0
 40
1.0
 40
2.0
 40
2.0
 40
2.0
 40
2.0
 10
52.46883885375652
 20
245.8165100298493
 30
0.0
 10
52.73221657735269
 20
245.8165100298493
 30
0.0
 10
52.94598489323421
 20
246.029933835955
 30
0.0
 10
52.94598489323421
 20
246.293656069327
 30
0.0
 10
52.94598489323421
 20
246.2974456768607
 30
0.0
 10
52.94581263834631
 20
246.305369401704
 30
0.0
 10
52.94581263834631
 20
246.3091590092378
 30
0.0
  0
ENDBLK
  5
256
330
253
100
AcDbEntity
  8
0
100
AcDbBlockEnd
  0
BLOCK
  5
25A
330
258
100
AcDbEntity
  8
0
100
AcDbBlockBegin
  2
block 71
 70
     0
 71
     0
 10
0.0
 20
0.0
 30
0.0
  3
block 71
  1

  0
SPLINE
  5
25C
330
258
100
AcDbEntity
  8
Capa 1
 62
     7
370
    25
100
AcDbSpline
210
0.0
220
0.0
230
1.0
 70
     8
 71
     3
 72
     8
 73
     4
 74
     0
 42
0.0000000001
 43
0.0000000001
 40
0.0
 40
0.0
 40
0.0
 40
0.0
 40
1.0
 40
1.0
 40
1.0
 40
1.0
 10
47.08018919564074
 20
240.8979439608074
 30
0.0
 10
47.47103553628149
 20
240.8841635697755
 30
0.0
 10
47.87290618974772
 20
241.1730350167806
 30
0.0
 10
47.98452735710568
 20
241.5476893979589
 30
0.0
  0
ENDBLK
  5
25B
330
258
100
AcDbEntity
  8
0
100
AcDbBlockEnd
  0
BLOCK
  5
25F
330
25D
100
AcDbEntity
  8
0
100
AcDbBlockBegin
  2
block 72
 70
     0
 71
     0
 10
0.0
 20
0.0
 30
0.0
  3
block 72
  1

  0
SPLINE
  5
261
330
25D
100
AcDbEntity
  8
Capa 1
 62
     7
370
    25
100
AcDbSpline
210
0.0
220
0.0
230
1.0
 70
     8
 71
     3
 72
     8
 73
     4
 74
     0
 42
0.0000000001
 43
0.0000000001
 40
0.0
 40
0.0
 40
0.0
 40
0.0
 40
1.0
 40
1.0
 40
1.0
 40
1.0
 10
51.80806910377947
 20
244.2545027063894
 30
0.0
 10
50.15752276794002
 20
244.3333954450468
 30
0.0
 10
48.45840055371331
 20
243.1305395628544
 30
0.0
 10
47.98452735710568
 20
241.5476893979589
 30
0.0
  0
ENDBLK
  5
260
330
25D
100
AcDbEntity
  8
0
100
AcDbBlockEnd
  0
BLOCK
  5
264
330
262
100
AcDbEntity
  8
0
100
AcDbBlockBegin
  2
block 73
 70
     0
 71
     0
 10
0.0
 20
0.0
 30
0.0
  3
block 73
  1

  0
SPLINE
  5
266
330
262
100
AcDbEntity
  8
Capa 1
 62
     7
370
    25
100
AcDbSpline
210
0.0
220
0.0
230
1.0
 70
     8
 71
     3
 72
     8
 73
     4
 74
     0
 42
0.0000000001
 43
0.0000000001
 40
0.0
 40
0.0
 40
0.0
 40
0.0
 40
1.0
 40
1.0
 40
1.0
 40
1.0
 10
51.751397245661
 20
245.8165100298493
 30
0.0
 10
50.04934669834002
 20
245.9062548264442
 30
0.0
 10
47.97539784804709
 20
244.7848755062276
 30
0.0
 10
47.11860203564201
 20
243.3114071951474
 30
0.0
  0
ENDBLK
  5
265
330
262
100
AcDbEntity
  8
0
100
AcDbBlockEnd
  0
BLOCK
  5
269
330
267
100
AcDbEntity
  8
0
100
AcDbBlockBegin
  2
block 74
 70
     0
 71
     0
 10
0.0
 20
0.0
 30
0.0
  3
block 74
  1

  0
SPLINE
  5
26B
330
267
100
AcDbEntity
  8
Capa 1
 62
     7
370
    25
100
AcDbSpline
210
0.0
220
0.0
230
1.0
 70
     8
 71
     3
 72
     8
 73
     4
 74
     0
 42
0.0000000001
 43
0.0000000001
 40
0.0
 40
0.0
 40
0.0
 40
0.0
 40
1.0
 40
1.0
 40
1.0
 40
1.0
 10
46.71965971527005
 20
243.0953995657232
 30
0.0
 10
46.86624862487132
 20
243.0878203506557
 30
0.0
 10
47.04487694362163
 20
243.1844553427665
 30
0.0
 10
47.11860203564201
 20
243.3114071951474
 30
0.0
  0
ENDBLK
  5
26A
330
267
100
AcDbEntity
  8
0
100
AcDbBlockEnd
  0
BLOCK
  5
26E
330
26C
100
AcDbEntity
  8
0
100
AcDbBlockBegin
  2
block 75
 70
     0
 71
     0
 10
0.0
 20
0.0
 30
0.0
  3
block 75
  1

  0
POLYLINE
  5
270
330
26C
100
AcDbEntity
  8
Capa 1
 62
     7
370
    25
100
AcDb2dPolyline
 66
     1
 10
0.0
 20
0.0
 30
0.0
  0
VERTEX
  5
271
330
270
100
AcDbEntity
  8
Capa 1
 62
     7
370
    25
100
AcDbVertex
100
AcDb2dVertex
 10
42.21622792606253
 20
252.1813281376835
 30
0.0
  0
VERTEX
  5
272
330
270
100
AcDbEntity
  8
Capa 1
 62
     7
370
    25
100
AcDbVertex
100
AcDb2dVertex
 10
42.0660216638154
 20
243.58081383982
 30
0.0
  0
SEQEND
  5
273
330
270
100
AcDbEntity
  8
Capa 1
370
    25
  0
ENDBLK
  5
26F
330
26C
100
AcDbEntity
  8
0
100
AcDbBlockEnd
  0
BLOCK
  5
276
330
274
100
AcDbEntity
  8
0
100
AcDbBlockBegin
  2
block 76
 70
     0
 71
     0
 10
0.0
 20
0.0
 30
0.0
  3
block 76
  1

  0
SPLINE
  5
278
330
274
100
AcDbEntity
  8
Capa 1
 62
     7
370
    25
100
AcDbSpline
210
0.0
220
0.0
230
1.0
 70
     8
 71
     3
 72
    11
 73
     7
 74
     0
 42
0.0000000001
 43
0.0000000001
 40
0.0
 40
0.0
 40
0.0
 40
0.0
 40
1.0
 40
1.0
 40
1.0
 40
2.0
 40
2.0
 40
2.0
 40
2.0
 10
42.0660216638154
 20
243.58081383982
 30
0.0
 10
42.06171529161795
 20
243.3174361162239
 30
0.0
 10
42.27134949018992
 20
243.1000504476965
 30
0.0
 10
42.53472721378609
 20
243.095744075499
 30
0.0
 10
42.53696652732877
 20
243.095744075499
 30
0.0
 10
42.54110064463832
 20
243.0953995657232
 30
0.0
 10
42.54299544840519
 20
243.0953995657232
 30
0.0
  0
ENDBLK
  5
277
330
274
100
AcDbEntity
  8
0
100
AcDbBlockEnd
  0
BLOCK
  5
27B
330
279
100
AcDbEntity
  8
0
100
AcDbBlockBegin
  2
block 77
 70
     0
 71
     0
 10
0.0
 20
0.0
 30
0.0
  3
block 77
  1

  0
POLYLINE
  5
27D
330
279
100
AcDbEntity
  8
Capa 1
 62
     7
370
    25
100
AcDb2dPolyline
 66
     1
 10
0.0
 20
0.0
 30
0.0
  0
VERTEX
  5
27E
330
27D
100
AcDbEntity
  8
Capa 1
 62
     7
370
    25
100
AcDbVertex
100
AcDb2dVertex
 10
40.64026795668295
 20
252.9783515039879
 30
0.0
  0
VERTEX
  5
27F
330
27D
100
AcDbEntity
  8
Capa 1
 62
     7
370
    25
100
AcDbVertex
100
AcDb2dVertex
 10
40.44596444313392
 20
241.8517192750991
 30
0.0
  0
SEQEND
  5
280
330
27D
100
AcDbEntity
  8
Capa 1
370
    25
  0
ENDBLK
  5
27C
330
279
100
AcDbEntity
  8
0
100
AcDbBlockEnd
  0
BLOCK
  5
283
330
281
100
AcDbEntity
  8
0
100
AcDbBlockBegin
  2
block 78
 70
     0
 71
     0
 10
0.0
 20
0.0
 30
0.0
  3
block 78
  1

  0
POLYLINE
  5
285
330
281
100
AcDbEntity
  8
Capa 1
 62
     7
370
    25
100
AcDb2dPolyline
 66
     1
 10
0.0
 20
0.0
 30
0.0
  0
VERTEX
  5
286
330
285
100
AcDbEntity
  8
Capa 1
 62
     7
370
    25
100
AcDbVertex
100
AcDb2dVertex
 10
42.54299544840519
 20
243.0953995657232
 30
0.0
  0
VERTEX
  5
287
330
285
100
AcDbEntity
  8
Capa 1
 62
     7
370
    25
100
AcDbVertex
100
AcDb2dVertex
 10
46.71965971527005
 20
243.0953995657232
 30
0.0
  0
SEQEND
  5
288
330
285
100
AcDbEntity
  8
Capa 1
370
    25
  0
ENDBLK
  5
284
330
281
100
AcDbEntity
  8
0
100
AcDbBlockEnd
  0
BLOCK
  5
28B
330
289
100
AcDbEntity
  8
0
100
AcDbBlockBegin
  2
block 79
 70
     0
 71
     0
 10
0.0
 20
0.0
 30
0.0
  3
block 79
  1

  0
SPLINE
  5
28D
330
289
100
AcDbEntity
  8
Capa 1
 62
     7
370
    25
100
AcDbSpline
210
0.0
220
0.0
230
1.0
 70
     8
 71
     3
 72
    11
 73
     7
 74
     0
 42
0.0000000001
 43
0.0000000001
 40
0.0
 40
0.0
 40
0.0
 40
0.0
 40
1.0
 40
1.0
 40
1.0
 40
2.0
 40
2.0
 40
2.0
 40
2.0
 10
40.44596444313392
 20
241.8517192750991
 30
0.0
 10
40.44596444313392
 20
241.3249638279067
 30
0.0
 10
40.87298431023327
 20
240.8979439608074
 30
0.0
 10
41.39973975742561
 20
240.8979439608074
 30
0.0
 10
41.39973975742561
 20
240.8979439608074
 30
0.0
 10
41.39973975742561
 20
240.8979439608074
 30
0.0
 10
41.39973975742561
 20
240.8979439608074
 30
0.0
  0
ENDBLK
  5
28C
330
289
100
AcDbEntity
  8
0
100
AcDbBlockEnd
  0
BLOCK
  5
290
330
28E
100
AcDbEntity
  8
0
100
AcDbBlockBegin
  2
block 80
 70
     0
 71
     0
 10
0.0
 20
0.0
 30
0.0
  3
block 80
  1

  0
SPLINE
  5
292
330
28E
100
AcDbEntity
  8
Capa 1
 62
     7
370
    25
100
AcDbSpline
210
0.0
220
0.0
230
1.0
 70
     8
 71
     3
 72
    11
 73
     7
 74
     0
 42
0.0000000001
 43
0.0000000001
 40
0.0
 40
0.0
 40
0.0
 40
0.0
 40
1.0
 40
1.0
 40
1.0
 40
2.0
 40
2.0
 40
2.0
 40
2.0
 10
42.07101705556445
 20
254.4091006028694
 30
0.0
 10
41.28088388477593
 20
254.4091006028694
 30
0.0
 10
40.64026795668295
 20
253.7684846747764
 30
0.0
 10
40.64026795668295
 20
252.9783515039879
 30
0.0
 10
40.64026795668295
 20
252.9783515039879
 30
0.0
 10
40.64026795668295
 20
252.9783515039879
 30
0.0
 10
40.64026795668295
 20
252.9783515039879
 30
0.0
  0
ENDBLK
  5
291
330
28E
100
AcDbEntity
  8
0
100
AcDbBlockEnd
  0
BLOCK
  5
295
330
293
100
AcDbEntity
  8
0
100
AcDbBlockBegin
  2
block 81
 70
     0
 71
     0
 10
0.0
 20
0.0
 30
0.0
  3
block 81
  1

  0
SPLINE
  5
297
330
293
100
AcDbEntity
  8
Capa 1
 62
     7
370
    25
100
AcDbSpline
210
0.0
220
0.0
230
1.0
 70
     8
 71
     3
 72
    11
 73
     7
 74
     0
 42
0.0000000001
 43
0.0000000001
 40
0.0
 40
0.0
 40
0.0
 40
0.0
 40
1.0
 40
1.0
 40
1.0
 40
2.0
 40
2.0
 40
2.0
 40
2.0
 10
42.87355257828162
 20
252.805924361202
 30
0.0
 10
42.52232486185743
 20
252.8178099484669
 30
0.0
 10
42.22828576821539
 20
252.5425466376058
 30
0.0
 10
42.21657243583833
 20
252.1916634309574
 30
0.0
 10
42.21657243583833
 20
252.1890796076389
 30
0.0
 10
42.21622792606253
 20
252.1840842158899
 30
0.0
 10
42.21622792606253
 20
252.1813281376835
 30
0.0
  0
ENDBLK
  5
296
330
293
100
AcDbEntity
  8
0
100
AcDbBlockEnd
  0
BLOCK
  5
29A
330
298
100
AcDbEntity
  8
0
100
AcDbBlockBegin
  2
block 82
 70
     0
 71
     0
 10
0.0
 20
0.0
 30
0.0
  3
block 82
  1

  0
POLYLINE
  5
29C
330
298
100
AcDbEntity
  8
Capa 1
 62
     7
370
    25
100
AcDb2dPolyline
 66
     1
 10
0.0
 20
0.0
 30
0.0
  0
VERTEX
  5
29D
330
29C
100
AcDbEntity
  8
Capa 1
 62
     7
370
    25
100
AcDbVertex
100
AcDb2dVertex
 10
51.751397245661
 20
245.8165100298493
 30
0.0
  0
VERTEX
  5
29E
330
29C
100
AcDbEntity
  8
Capa 1
 62
     7
370
    25
100
AcDbVertex
100
AcDb2dVertex
 10
52.46883885375652
 20
245.8165100298493
 30
0.0
  0
SEQEND
  5
29F
330
29C
100
AcDbEntity
  8
Capa 1
370
    25
  0
ENDBLK
  5
29B
330
298
100
AcDbEntity
  8
0
100
AcDbBlockEnd
  0
BLOCK
  5
2A2
330
2A0
100
AcDbEntity
  8
0
100
AcDbBlockBegin
  2
block 83
 70
     0
 71
     0
 10
0.0
 20
0.0
 30
0.0
  3
block 83
  1

  0
POLYLINE
  5
2A4
330
2A0
100
AcDbEntity
  8
Capa 1
 62
     7
370
    25
100
AcDb2dPolyline
 66
     1
 10
0.0
 20
0.0
 30
0.0
  0
VERTEX
  5
2A5
330
2A4
100
AcDbEntity
  8
Capa 1
 62
     7
370
    25
100
AcDbVertex
100
AcDb2dVertex
 10
119.9334992283687
 20
254.4091006028694
 30
0.0
  0
VERTEX
  5
2A6
330
2A4
100
AcDbEntity
  8
Capa 1
 62
     7
370
    25
100
AcDbVertex
100
AcDb2dVertex
 10
42.07101705556445
 20
254.4091006028694
 30
0.0
  0
SEQEND
  5
2A7
330
2A4
100
AcDbEntity
  8
Capa 1
370
    25
  0
ENDBLK
  5
2A3
330
2A0
100
AcDbEntity
  8
0
100
AcDbBlockEnd
  0
BLOCK
  5
2AA
330
2A8
100
AcDbEntity
  8
0
100
AcDbBlockBegin
  2
block 84
 70
     0
 71
     0
 10
0.0
 20
0.0
 30
0.0
  3
block 84
  1

  0
POLYLINE
  5
2AC
330
2A8
100
AcDbEntity
  8
Capa 1
 62
     7
370
    25
100
AcDb2dPolyline
 66
     1
 10
0.0
 20
0.0
 30
0.0
  0
VERTEX
  5
2AD
330
2AC
100
AcDbEntity
  8
Capa 1
 62
     7
370
    25
100
AcDbVertex
100
AcDb2dVertex
 10
41.39973975742561
 20
240.8979439608074
 30
0.0
  0
VERTEX
  5
2AE
330
2AC
100
AcDbEntity
  8
Capa 1
 62
     7
370
    25
100
AcDbVertex
100
AcDb2dVertex
 10
47.08018919564074
 20
240.8979439608074
 30
0.0
  0
SEQEND
  5
2AF
330
2AC
100
AcDbEntity
  8
Capa 1
370
    25
  0
ENDBLK
  5
2AB
330
2A8
100
AcDbEntity
  8
0
100
AcDbBlockEnd
  0
BLOCK
  5
2B2
330
2B0
100
AcDbEntity
  8
0
100
AcDbBlockBegin
  2
block 85
 70
     0
 71
     0
 10
0.0
 20
0.0
 30
0.0
  3
block 85
  1

  0
POLYLINE
  5
2B4
330
2B0
100
AcDbEntity
  8
Capa 1
 62
     7
370
    25
100
AcDb2dPolyline
 66
     1
 10
0.0
 20
0.0
 30
0.0
  0
VERTEX
  5
2B5
330
2B4
100
AcDbEntity
  8
Capa 1
 62
     7
370
    25
100
AcDbVertex
100
AcDb2dVertex
 10
47.08018919564074
 20
240.8979439608074
 30
0.0
  0
VERTEX
  5
2B6
330
2B4
100
AcDbEntity
  8
Capa 1
 62
     7
370
    25
100
AcDbVertex
100
AcDb2dVertex
 10
112.8503782379994
 20
240.8979439608074
 30
0.0
  0
SEQEND
  5
2B7
330
2B4
100
AcDbEntity
  8
Capa 1
370
    25
  0
ENDBLK
  5
2B3
330
2B0
100
AcDbEntity
  8
0
100
AcDbBlockEnd
  0
BLOCK
  5
2BA
330
2B8
100
AcDbEntity
  8
0
100
AcDbBlockBegin
  2
block 86
 70
     0
 71
     0
 10
0.0
 20
0.0
 30
0.0
  3
block 86
  1

  0
POLYLINE
  5
2BC
330
2B8
100
AcDbEntity
  8
Capa 1
 62
     7
370
    25
100
AcDb2dPolyline
 66
     1
 10
0.0
 20
0.0
 30
0.0
  0
VERTEX
  5
2BD
330
2BC
100
AcDbEntity
  8
Capa 1
 62
     7
370
    25
100
AcDbVertex
100
AcDb2dVertex
 10
119.9334992283687
 20
240.8979439608074
 30
0.0
  0
VERTEX
  5
2BE
330
2BC
100
AcDbEntity
  8
Capa 1
 62
     7
370
    25
100
AcDbVertex
100
AcDb2dVertex
 10
119.9345327576961
 20
240.8979439608074
 30
0.0
  0
SEQEND
  5
2BF
330
2BC
100
AcDbEntity
  8
Capa 1
370
    25
  0
ENDBLK
  5
2BB
330
2B8
100
AcDbEntity
  8
0
100
AcDbBlockEnd
  0
BLOCK
  5
2C2
330
2C0
100
AcDbEntity
  8
0
100
AcDbBlockBegin
  2
block 87
 70
     0
 71
     0
 10
0.0
 20
0.0
 30
0.0
  3
block 87
  1

  0
POLYLINE
  5
2C4
330
2C0
100
AcDbEntity
  8
Capa 1
 62
     7
370
    25
100
AcDb2dPolyline
 66
     1
 10
0.0
 20
0.0
 30
0.0
  0
VERTEX
  5
2C5
330
2C4
100
AcDbEntity
  8
Capa 1
 62
     7
370
    25
100
AcDbVertex
100
AcDb2dVertex
 10
114.9257051273956
 20
240.8979439608074
 30
0.0
  0
VERTEX
  5
2C6
330
2C4
100
AcDbEntity
  8
Capa 1
 62
     7
370
    25
100
AcDbVertex
100
AcDb2dVertex
 10
124.942671368445
 20
240.8979439608074
 30
0.0
  0
SEQEND
  5
2C7
330
2C4
100
AcDbEntity
  8
Capa 1
370
    25
  0
ENDBLK
  5
2C3
330
2C0
100
AcDbEntity
  8
0
100
AcDbBlockEnd
  0
BLOCK
  5
2CA
330
2C8
100
AcDbEntity
  8
0
100
AcDbBlockBegin
  2
block 88
 70
     0
 71
     0
 10
0.0
 20
0.0
 30
0.0
  3
block 88
  1

  0
POLYLINE
  5
2CC
330
2C8
100
AcDbEntity
  8
Capa 1
 62
     7
370
    25
100
AcDb2dPolyline
 66
     1
 10
0.0
 20
0.0
 30
0.0
  0
VERTEX
  5
2CD
330
2CC
100
AcDbEntity
  8
Capa 1
 62
     7
370
    25
100
AcDbVertex
100
AcDb2dVertex
 10
124.942671368445
 20
240.8979439608074
 30
0.0
  0
VERTEX
  5
2CE
330
2CC
100
AcDbEntity
  8
Capa 1
 62
     7
370
    25
100
AcDbVertex
100
AcDb2dVertex
 10
127.0166202187379
 20
240.8979439608074
 30
0.0
  0
SEQEND
  5
2CF
330
2CC
100
AcDbEntity
  8
Capa 1
370
    25
  0
ENDBLK
  5
2CB
330
2C8
100
AcDbEntity
  8
0
100
AcDbBlockEnd
  0
BLOCK
  5
2D2
330
2D0
100
AcDbEntity
  8
0
100
AcDbBlockBegin
  2
block 89
 70
     0
 71
     0
 10
0.0
 20
0.0
 30
0.0
  3
block 89
  1

  0
POLYLINE
  5
2D4
330
2D0
100
AcDbEntity
  8
Capa 1
 62
     7
370
    25
100
AcDb2dPolyline
 66
     1
 10
0.0
 20
0.0
 30
0.0
  0
VERTEX
  5
2D5
330
2D4
100
AcDbEntity
  8
Capa 1
 62
     7
370
    25
100
AcDbVertex
100
AcDb2dVertex
 10
112.8503782379994
 20
240.8979439608074
 30
0.0
  0
VERTEX
  5
2D6
330
2D4
100
AcDbEntity
  8
Capa 1
 62
     7
370
    25
100
AcDbVertex
100
AcDb2dVertex
 10
114.9257051273956
 20
240.8979439608074
 30
0.0
  0
SEQEND
  5
2D7
330
2D4
100
AcDbEntity
  8
Capa 1
370
    25
  0
ENDBLK
  5
2D3
330
2D0
100
AcDbEntity
  8
0
100
AcDbBlockEnd
  0
BLOCK
  5
2DA
330
2D8
100
AcDbEntity
  8
0
100
AcDbBlockBegin
  2
block 90
 70
     0
 71
     0
 10
0.0
 20
0.0
 30
0.0
  3
block 90
  1

  0
POLYLINE
  5
2DC
330
2D8
100
AcDbEntity
  8
Capa 1
 62
     7
370
    25
100
AcDb2dPolyline
 66
     1
 10
0.0
 20
0.0
 30
0.0
  0
VERTEX
  5
2DD
330
2DC
100
AcDbEntity
  8
Capa 1
 62
     7
370
    25
100
AcDbVertex
100
AcDb2dVertex
 10
49.18962255284068
 20
76.03709712574822
 30
0.0
  0
VERTEX
  5
2DE
330
2DC
100
AcDbEntity
  8
Capa 1
 62
     7
370
    25
100
AcDbVertex
100
AcDb2dVertex
 10
190.6778926685604
 20
76.03709712574822
 30
0.0
  0
SEQEND
  5
2DF
330
2DC
100
AcDbEntity
  8
Capa 1
370
    25
  0
ENDBLK
  5
2DB
330
2D8
100
AcDbEntity
  8
0
100
AcDbBlockEnd
  0
BLOCK
  5
2E2
330
2E0
100
AcDbEntity
  8
0
100
AcDbBlockBegin
  2
block 91
 70
     0
 71
     0
 10
0.0
 20
0.0
 30
0.0
  3
block 91
  1

  0
SPLINE
  5
2E4
330
2E0
100
AcDbEntity
  8
Capa 1
 62
     7
370
    25
100
AcDbSpline
210
0.0
220
0.0
230
1.0
 70
    11
 71
     3
 72
    23
 73
    19
 74
     0
 42
0.0000000001
 43
0.0000000001
 40
0.0
 40
0.0
 40
0.0
 40
0.0
 40
1.0
 40
1.0
 40
1.0
 40
2.0
 40
2.0
 40
2.0
 40
3.0
 40
3.0
 40
3.0
 40
4.0
 40
4.0
 40
4.0
 40
5.0
 40
5.0
 40
5.0
 40
6.0
 40
6.0
 40
6.0
 40
6.0
 10
70.45207689542863
 20
151.9484481833308
 30
0.0
 10
70.45207689542863
 20
153.2649922915359
 30
0.0
 10
69.3842688453484
 20
154.3328003416161
 30
0.0
 10
68.06738022736755
 20
154.3328003416161
 30
0.0
 10
66.7504916093867
 20
154.3328003416161
 30
0.0
 10
65.68268355930647
 20
153.2649922915359
 30
0.0
 10
65.68268355930647
 20
151.9484481833308
 30
0.0
 10
65.68268355930647
 20
150.6312150555742
 30
0.0
 10
66.7504916093867
 20
149.563407005494
 30
0.0
 10
68.06738022736755
 20
149.563407005494
 30
0.0
 10
69.3842688453484
 20
149.563407005494
 30
0.0
 10
70.45207689542863
 20
150.6312150555742
 30
0.0
 10
70.45207689542863
 20
151.9484481833308
 30
0.0
 10
70.45207689542863
 20
151.9484481833308
 30
0.0
 10
70.45207689542863
 20
151.9484481833308
 30
0.0
 10
70.45207689542863
 20
151.9484481833308
 30
0.0
 10
70.45207689542863
 20
151.9484481833308
 30
0.0
 10
70.45207689542863
 20
151.9484481833308
 30
0.0
 10
70.45207689542863
 20
151.9484481833308
 30
0.0
  0
ENDBLK
  5
2E3
330
2E0
100
AcDbEntity
  8
0
100
AcDbBlockEnd
  0
BLOCK
  5
2E7
330
2E5
100
AcDbEntity
  8
0
100
AcDbBlockBegin
  2
block 92
 70
     0
 71
     0
 10
0.0
 20
0.0
 30
0.0
  3
block 92
  1

  0
SPLINE
  5
2E9
330
2E5
100
AcDbEntity
  8
Capa 1
 62
     7
370
    25
100
AcDbSpline
210
0.0
220
0.0
230
1.0
 70
    11
 71
     3
 72
    23
 73
    19
 74
     0
 42
0.0000000001
 43
0.0000000001
 40
0.0
 40
0.0
 40
0.0
 40
0.0
 40
1.0
 40
1.0
 40
1.0
 40
2.0
 40
2.0
 40
2.0
 40
3.0
 40
3.0
 40
3.0
 40
4.0
 40
4.0
 40
4.0
 40
5.0
 40
5.0
 40
5.0
 40
6.0
 40
6.0
 40
6.0
 40
6.0
 10
83.84644472349578
 20
151.9484481833308
 30
0.0
 10
83.84644472349578
 20
153.2649922915359
 30
0.0
 10
82.77898118319135
 20
154.3328003416161
 30
0.0
 10
81.4617480554347
 20
154.3328003416161
 30
0.0
 10
80.14485943745385
 20
154.3328003416161
 30
0.0
 10
79.07722364226152
 20
153.2649922915359
 30
0.0
 10
79.07722364226152
 20
151.9484481833308
 30
0.0
 10
79.07722364226152
 20
150.6312150555742
 30
0.0
 10
80.14485943745385
 20
149.563407005494
 30
0.0
 10
81.4617480554347
 20
149.563407005494
 30
0.0
 10
82.77898118319135
 20
149.563407005494
 30
0.0
 10
83.84644472349578
 20
150.6312150555742
 30
0.0
 10
83.84644472349578
 20
151.9484481833308
 30
0.0
 10
83.84644472349578
 20
151.9484481833308
 30
0.0
 10
83.84644472349578
 20
151.9484481833308
 30
0.0
 10
83.84644472349578
 20
151.9484481833308
 30
0.0
 10
83.84644472349578
 20
151.9484481833308
 30
0.0
 10
83.84644472349578
 20
151.9484481833308
 30
0.0
 10
83.84644472349578
 20
151.9484481833308
 30
0.0
  0
ENDBLK
  5
2E8
330
2E5
100
AcDbEntity
  8
0
100
AcDbBlockEnd
  0
BLOCK
  5
2EC
330
2EA
100
AcDbEntity
  8
0
100
AcDbBlockBegin
  2
block 93
 70
     0
 71
     0
 10
0.0
 20
0.0
 30
0.0
  3
block 93
  1

  0
SPLINE
  5
2EE
330
2EA
100
AcDbEntity
  8
Capa 1
 62
     7
370
    25
100
AcDbSpline
210
0.0
220
0.0
230
1.0
 70
    11
 71
     3
 72
    23
 73
    19
 74
     0
 42
0.0000000001
 43
0.0000000001
 40
0.0
 40
0.0
 40
0.0
 40
0.0
 40
1.0
 40
1.0
 40
1.0
 40
2.0
 40
2.0
 40
2.0
 40
3.0
 40
3.0
 40
3.0
 40
4.0
 40
4.0
 40
4.0
 40
5.0
 40
5.0
 40
5.0
 40
6.0
 40
6.0
 40
6.0
 40
6.0
 10
97.04134139137695
 20
151.9484481833308
 30
0.0
 10
97.04134139137695
 20
153.2649922915359
 30
0.0
 10
95.97387785107252
 20
154.3328003416161
 30
0.0
 10
94.65681697820376
 20
154.3328003416161
 30
0.0
 10
93.3399283602229
 20
154.3328003416161
 30
0.0
 10
92.27212031014268
 20
153.2649922915359
 30
0.0
 10
92.27212031014268
 20
151.9484481833308
 30
0.0
 10
92.27212031014268
 20
150.6312150555742
 30
0.0
 10
93.3399283602229
 20
149.563407005494
 30
0.0
 10
94.65681697820376
 20
149.563407005494
 30
0.0
 10
95.97387785107252
 20
149.563407005494
 30
0.0
 10
97.04134139137695
 20
150.6312150555742
 30
0.0
 10
97.04134139137695
 20
151.9484481833308
 30
0.0
 10
97.04134139137695
 20
151.9484481833308
 30
0.0
 10
97.04134139137695
 20
151.9484481833308
 30
0.0
 10
97.04134139137695
 20
151.9484481833308
 30
0.0
 10
97.04134139137695
 20
151.9484481833308
 30
0.0
 10
97.04134139137695
 20
151.9484481833308
 30
0.0
 10
97.04134139137695
 20
151.9484481833308
 30
0.0
  0
ENDBLK
  5
2ED
330
2EA
100
AcDbEntity
  8
0
100
AcDbBlockEnd
  0
BLOCK
  5
2F1
330
2EF
100
AcDbEntity
  8
0
100
AcDbBlockBegin
  2
block 94
 70
     0
 71
     0
 10
0.0
 20
0.0
 30
0.0
  3
block 94
  1

  0
SPLINE
  5
2F3
330
2EF
100
AcDbEntity
  8
Capa 1
 62
     7
370
    25
100
AcDbSpline
210
0.0
220
0.0
230
1.0
 70
    11
 71
     3
 72
    23
 73
    19
 74
     0
 42
0.0000000001
 43
0.0000000001
 40
0.0
 40
0.0
 40
0.0
 40
0.0
 40
1.0
 40
1.0
 40
1.0
 40
2.0
 40
2.0
 40
2.0
 40
3.0
 40
3.0
 40
3.0
 40
4.0
 40
4.0
 40
4.0
 40
5.0
 40
5.0
 40
5.0
 40
6.0
 40
6.0
 40
6.0
 40
6.0
 10
70.45207689542863
 20
99.1678279824788
 30
0.0
 10
70.45207689542863
 20
100.4852333651233
 30
0.0
 10
69.3842688453484
 20
101.5528691603157
 30
0.0
 10
68.06738022736755
 20
101.5528691603157
 30
0.0
 10
66.7504916093867
 20
101.5528691603157
 30
0.0
 10
65.68268355930647
 20
100.4852333651233
 30
0.0
 10
65.68268355930647
 20
99.1678279824788
 30
0.0
 10
65.68268355930647
 20
97.85111161938583
 30
0.0
 10
66.7504916093867
 20
96.78347582419352
 30
0.0
 10
68.06738022736755
 20
96.78347582419352
 30
0.0
 10
69.3842688453484
 20
96.78347582419352
 30
0.0
 10
70.45207689542863
 20
97.85111161938583
 30
0.0
 10
70.45207689542863
 20
99.1678279824788
 30
0.0
 10
70.45207689542863
 20
99.1678279824788
 30
0.0
 10
70.45207689542863
 20
99.1678279824788
 30
0.0
 10
70.45207689542863
 20
99.1678279824788
 30
0.0
 10
70.45207689542863
 20
99.1678279824788
 30
0.0
 10
70.45207689542863
 20
99.1678279824788
 30
0.0
 10
70.45207689542863
 20
99.1678279824788
 30
0.0
  0
ENDBLK
  5
2F2
330
2EF
100
AcDbEntity
  8
0
100
AcDbBlockEnd
  0
BLOCK
  5
2F6
330
2F4
100
AcDbEntity
  8
0
100
AcDbBlockBegin
  2
block 95
 70
     0
 71
     0
 10
0.0
 20
0.0
 30
0.0
  3
block 95
  1

  0
SPLINE
  5
2F8
330
2F4
100
AcDbEntity
  8
Capa 1
 62
     7
370
    25
100
AcDbSpline
210
0.0
220
0.0
230
1.0
 70
    11
 71
     3
 72
    23
 73
    19
 74
     0
 42
0.0000000001
 43
0.0000000001
 40
0.0
 40
0.0
 40
0.0
 40
0.0
 40
1.0
 40
1.0
 40
1.0
 40
2.0
 40
2.0
 40
2.0
 40
3.0
 40
3.0
 40
3.0
 40
4.0
 40
4.0
 40
4.0
 40
5.0
 40
5.0
 40
5.0
 40
6.0
 40
6.0
 40
6.0
 40
6.0
 10
83.84644472349578
 20
99.1678279824788
 30
0.0
 10
83.84644472349578
 20
100.4852333651233
 30
0.0
 10
82.77898118319135
 20
101.5528691603157
 30
0.0
 10
81.4617480554347
 20
101.5528691603157
 30
0.0
 10
80.14485943745385
 20
101.5528691603157
 30
0.0
 10
79.07722364226152
 20
100.4852333651233
 30
0.0
 10
79.07722364226152
 20
99.1678279824788
 30
0.0
 10
79.07722364226152
 20
97.85111161938583
 30
0.0
 10
80.14485943745385
 20
96.78347582419352
 30
0.0
 10
81.4617480554347
 20
96.78347582419352
 30
0.0
 10
82.77898118319135
 20
96.78347582419352
 30
0.0
 10
83.84644472349578
 20
97.85111161938583
 30
0.0
 10
83.84644472349578
 20
99.1678279824788
 30
0.0
 10
83.84644472349578
 20
99.1678279824788
 30
0.0
 10
83.84644472349578
 20
99.1678279824788
 30
0.0
 10
83.84644472349578
 20
99.1678279824788
 30
0.0
 10
83.84644472349578
 20
99.1678279824788
 30
0.0
 10
83.84644472349578
 20
99.1678279824788
 30
0.0
 10
83.84644472349578
 20
99.1678279824788
 30
0.0
  0
ENDBLK
  5
2F7
330
2F4
100
AcDbEntity
  8
0
100
AcDbBlockEnd
  0
BLOCK
  5
2FB
330
2F9
100
AcDbEntity
  8
0
100
AcDbBlockBegin
  2
block 96
 70
     0
 71
     0
 10
0.0
 20
0.0
 30
0.0
  3
block 96
  1

  0
SPLINE
  5
2FD
330
2F9
100
AcDbEntity
  8
Capa 1
 62
     7
370
    25
100
AcDbSpline
210
0.0
220
0.0
230
1.0
 70
    11
 71
     3
 72
    23
 73
    19
 74
     0
 42
0.0000000001
 43
0.0000000001
 40
0.0
 40
0.0
 40
0.0
 40
0.0
 40
1.0
 40
1.0
 40
1.0
 40
2.0
 40
2.0
 40
2.0
 40
3.0
 40
3.0
 40
3.0
 40
4.0
 40
4.0
 40
4.0
 40
5.0
 40
5.0
 40
5.0
 40
6.0
 40
6.0
 40
6.0
 40
6.0
 10
97.04134139137695
 20
99.1678279824788
 30
0.0
 10
97.04134139137695
 20
100.4852333651233
 30
0.0
 10
95.97387785107252
 20
101.5528691603157
 30
0.0
 10
94.65681697820376
 20
101.5528691603157
 30
0.0
 10
93.3399283602229
 20
101.5528691603157
 30
0.0
 10
92.27212031014268
 20
100.4852333651233
 30
0.0
 10
92.27212031014268
 20
99.1678279824788
 30
0.0
 10
92.27212031014268
 20
97.85111161938583
 30
0.0
 10
93.3399283602229
 20
96.78347582419352
 30
0.0
 10
94.65681697820376
 20
96.78347582419352
 30
0.0
 10
95.97387785107252
 20
96.78347582419352
 30
0.0
 10
97.04134139137695
 20
97.85111161938583
 30
0.0
 10
97.04134139137695
 20
99.1678279824788
 30
0.0
 10
97.04134139137695
 20
99.1678279824788
 30
0.0
 10
97.04134139137695
 20
99.1678279824788
 30
0.0
 10
97.04134139137695
 20
99.1678279824788
 30
0.0
 10
97.04134139137695
 20
99.1678279824788
 30
0.0
 10
97.04134139137695
 20
99.1678279824788
 30
0.0
 10
97.04134139137695
 20
99.1678279824788
 30
0.0
  0
ENDBLK
  5
2FC
330
2F9
100
AcDbEntity
  8
0
100
AcDbBlockEnd
  0
BLOCK
  5
300
330
2FE
100
AcDbEntity
  8
0
100
AcDbBlockBegin
  2
block 97
 70
     0
 71
     0
 10
0.0
 20
0.0
 30
0.0
  3
block 97
  1

  0
SPLINE
  5
302
330
2FE
100
AcDbEntity
  8
Capa 1
 62
     7
370
    25
100
AcDbSpline
210
0.0
220
0.0
230
1.0
 70
    11
 71
     3
 72
    23
 73
    19
 74
     0
 42
0.0000000001
 43
0.0000000001
 40
0.0
 40
0.0
 40
0.0
 40
0.0
 40
1.0
 40
1.0
 40
1.0
 40
2.0
 40
2.0
 40
2.0
 40
3.0
 40
3.0
 40
3.0
 40
4.0
 40
4.0
 40
4.0
 40
5.0
 40
5.0
 40
5.0
 40
6.0
 40
6.0
 40
6.0
 40
6.0
 10
70.45207689542863
 20
125.5583103377927
 30
0.0
 10
70.45207689542863
 20
126.8753712106615
 30
0.0
 10
69.3842688453484
 20
127.942662496078
 30
0.0
 10
68.06738022736755
 20
127.942662496078
 30
0.0
 10
66.7504916093867
 20
127.942662496078
 30
0.0
 10
65.68268355930647
 20
126.8753712106615
 30
0.0
 10
65.68268355930647
 20
125.5583103377927
 30
0.0
 10
65.68268355930647
 20
124.2409049551482
 30
0.0
 10
66.7504916093867
 20
123.1736136697316
 30
0.0
 10
68.06738022736755
 20
123.1736136697316
 30
0.0
 10
69.3842688453484
 20
123.1736136697316
 30
0.0
 10
70.45207689542863
 20
124.2409049551482
 30
0.0
 10
70.45207689542863
 20
125.5583103377927
 30
0.0
 10
70.45207689542863
 20
125.5583103377927
 30
0.0
 10
70.45207689542863
 20
125.5583103377927
 30
0.0
 10
70.45207689542863
 20
125.5583103377927
 30
0.0
 10
70.45207689542863
 20
125.5583103377927
 30
0.0
 10
70.45207689542863
 20
125.5583103377927
 30
0.0
 10
70.45207689542863
 20
125.5583103377927
 30
0.0
  0
ENDBLK
  5
301
330
2FE
100
AcDbEntity
  8
0
100
AcDbBlockEnd
  0
BLOCK
  5
305
330
303
100
AcDbEntity
  8
0
100
AcDbBlockBegin
  2
block 98
 70
     0
 71
     0
 10
0.0
 20
0.0
 30
0.0
  3
block 98
  1

  0
SPLINE
  5
307
330
303
100
AcDbEntity
  8
Capa 1
 62
     7
370
    25
100
AcDbSpline
210
0.0
220
0.0
230
1.0
 70
    11
 71
     3
 72
    23
 73
    19
 74
     0
 42
0.0000000001
 43
0.0000000001
 40
0.0
 40
0.0
 40
0.0
 40
0.0
 40
1.0
 40
1.0
 40
1.0
 40
2.0
 40
2.0
 40
2.0
 40
3.0
 40
3.0
 40
3.0
 40
4.0
 40
4.0
 40
4.0
 40
5.0
 40
5.0
 40
5.0
 40
6.0
 40
6.0
 40
6.0
 40
6.0
 10
83.84644472349578
 20
125.5583103377927
 30
0.0
 10
83.84644472349578
 20
126.8753712106615
 30
0.0
 10
82.77898118319135
 20
127.942662496078
 30
0.0
 10
81.4617480554347
 20
127.942662496078
 30
0.0
 10
80.14485943745385
 20
127.942662496078
 30
0.0
 10
79.07722364226152
 20
126.8753712106615
 30
0.0
 10
79.07722364226152
 20
125.5583103377927
 30
0.0
 10
79.07722364226152
 20
124.2409049551482
 30
0.0
 10
80.14485943745385
 20
123.1736136697316
 30
0.0
 10
81.4617480554347
 20
123.1736136697316
 30
0.0
 10
82.77898118319135
 20
123.1736136697316
 30
0.0
 10
83.84644472349578
 20
124.2409049551482
 30
0.0
 10
83.84644472349578
 20
125.5583103377927
 30
0.0
 10
83.84644472349578
 20
125.5583103377927
 30
0.0
 10
83.84644472349578
 20
125.5583103377927
 30
0.0
 10
83.84644472349578
 20
125.5583103377927
 30
0.0
 10
83.84644472349578
 20
125.5583103377927
 30
0.0
 10
83.84644472349578
 20
125.5583103377927
 30
0.0
 10
83.84644472349578
 20
125.5583103377927
 30
0.0
  0
ENDBLK
  5
306
330
303
100
AcDbEntity
  8
0
100
AcDbBlockEnd
  0
BLOCK
  5
30A
330
308
100
AcDbEntity
  8
0
100
AcDbBlockBegin
  2
block 99
 70
     0
 71
     0
 10
0.0
 20
0.0
 30
0.0
  3
block 99
  1

  0
SPLINE
  5
30C
330
308
100
AcDbEntity
  8
Capa 1
 62
     7
370
    25
100
AcDbSpline
210
0.0
220
0.0
230
1.0
 70
    11
 71
     3
 72
    23
 73
    19
 74
     0
 42
0.0000000001
 43
0.0000000001
 40
0.0
 40
0.0
 40
0.0
 40
0.0
 40
1.0
 40
1.0
 40
1.0
 40
2.0
 40
2.0
 40
2.0
 40
3.0
 40
3.0
 40
3.0
 40
4.0
 40
4.0
 40
4.0
 40
5.0
 40
5.0
 40
5.0
 40
6.0
 40
6.0
 40
6.0
 40
6.0
 10
97.04134139137695
 20
125.5583103377927
 30
0.0
 10
97.04134139137695
 20
126.8753712106615
 30
0.0
 10
95.97387785107252
 20
127.942662496078
 30
0.0
 10
94.65681697820376
 20
127.942662496078
 30
0.0
 10
93.3399283602229
 20
127.942662496078
 30
0.0
 10
92.27212031014268
 20
126.8753712106615
 30
0.0
 10
92.27212031014268
 20
125.5583103377927
 30
0.0
 10
92.27212031014268
 20
124.2409049551482
 30
0.0
 10
93.3399283602229
 20
123.1736136697316
 30
0.0
 10
94.65681697820376
 20
123.1736136697316
 30
0.0
 10
95.97387785107252
 20
123.1736136697316
 30
0.0
 10
97.04134139137695
 20
124.2409049551482
 30
0.0
 10
97.04134139137695
 20
125.5583103377927
 30
0.0
 10
97.04134139137695
 20
125.5583103377927
 30
0.0
 10
97.04134139137695
 20
125.5583103377927
 30
0.0
 10
97.04134139137695
 20
125.5583103377927
 30
0.0
 10
97.04134139137695
 20
125.5583103377927
 30
0.0
 10
97.04134139137695
 20
125.5583103377927
 30
0.0
 10
97.04134139137695
 20
125.5583103377927
 30
0.0
  0
ENDBLK
  5
30B
330
308
100
AcDbEntity
  8
0
100
AcDbBlockEnd
  0
BLOCK
  5
30F
330
30D
100
AcDbEntity
  8
0
100
AcDbBlockBegin
  2
block 100
 70
     0
 71
     0
 10
0.0
 20
0.0
 30
0.0
  3
block 100
  1

  0
SPLINE
  5
311
330
30D
100
AcDbEntity
  8
Capa 1
 62
     7
370
    25
100
AcDbSpline
210
0.0
220
0.0
230
1.0
 70
    11
 71
     3
 72
    23
 73
    19
 74
     0
 42
0.0000000001
 43
0.0000000001
 40
0.0
 40
0.0
 40
0.0
 40
0.0
 40
1.0
 40
1.0
 40
1.0
 40
2.0
 40
2.0
 40
2.0
 40
3.0
 40
3.0
 40
3.0
 40
4.0
 40
4.0
 40
4.0
 40
5.0
 40
5.0
 40
5.0
 40
6.0
 40
6.0
 40
6.0
 40
6.0
 10
83.84644472349578
 20
138.7533792605618
 30
0.0
 10
83.84644472349578
 20
140.0697511138789
 30
0.0
 10
82.77898118319135
 20
141.1377314188471
 30
0.0
 10
81.4617480554347
 20
141.1377314188471
 30
0.0
 10
80.14485943745385
 20
141.1377314188471
 30
0.0
 10
79.07722364226152
 20
140.0697511138789
 30
0.0
 10
79.07722364226152
 20
138.7533792605618
 30
0.0
 10
79.07722364226152
 20
137.4359738779172
 30
0.0
 10
80.14485943745385
 20
136.3686825925007
 30
0.0
 10
81.4617480554347
 20
136.3686825925007
 30
0.0
 10
82.77898118319135
 20
136.3686825925007
 30
0.0
 10
83.84644472349578
 20
137.4359738779172
 30
0.0
 10
83.84644472349578
 20
138.7533792605618
 30
0.0
 10
83.84644472349578
 20
138.7533792605618
 30
0.0
 10
83.84644472349578
 20
138.7533792605618
 30
0.0
 10
83.84644472349578
 20
138.7533792605618
 30
0.0
 10
83.84644472349578
 20
138.7533792605618
 30
0.0
 10
83.84644472349578
 20
138.7533792605618
 30
0.0
 10
83.84644472349578
 20
138.7533792605618
 30
0.0
  0
ENDBLK
  5
310
330
30D
100
AcDbEntity
  8
0
100
AcDbBlockEnd
  0
BLOCK
  5
314
330
312
100
AcDbEntity
  8
0
100
AcDbBlockBegin
  2
block 101
 70
     0
 71
     0
 10
0.0
 20
0.0
 30
0.0
  3
block 101
  1

  0
SPLINE
  5
316
330
312
100
AcDbEntity
  8
Capa 1
 62
     7
370
    25
100
AcDbSpline
210
0.0
220
0.0
230
1.0
 70
    11
 71
     3
 72
    23
 73
    19
 74
     0
 42
0.0000000001
 43
0.0000000001
 40
0.0
 40
0.0
 40
0.0
 40
0.0
 40
1.0
 40
1.0
 40
1.0
 40
2.0
 40
2.0
 40
2.0
 40
3.0
 40
3.0
 40
3.0
 40
4.0
 40
4.0
 40
4.0
 40
5.0
 40
5.0
 40
5.0
 40
6.0
 40
6.0
 40
6.0
 40
6.0
 10
70.45207689542863
 20
138.7533792605618
 30
0.0
 10
70.45207689542863
 20
140.0697511138789
 30
0.0
 10
69.3842688453484
 20
141.1377314188471
 30
0.0
 10
68.06738022736755
 20
141.1377314188471
 30
0.0
 10
66.7504916093867
 20
141.1377314188471
 30
0.0
 10
65.68268355930647
 20
140.0697511138789
 30
0.0
 10
65.68268355930647
 20
138.7533792605618
 30
0.0
 10
65.68268355930647
 20
137.4359738779172
 30
0.0
 10
66.7504916093867
 20
136.3686825925007
 30
0.0
 10
68.06738022736755
 20
136.3686825925007
 30
0.0
 10
69.3842688453484
 20
136.3686825925007
 30
0.0
 10
70.45207689542863
 20
137.4359738779172
 30
0.0
 10
70.45207689542863
 20
138.7533792605618
 30
0.0
 10
70.45207689542863
 20
138.7533792605618
 30
0.0
 10
70.45207689542863
 20
138.7533792605618
 30
0.0
 10
70.45207689542863
 20
138.7533792605618
 30
0.0
 10
70.45207689542863
 20
138.7533792605618
 30
0.0
 10
70.45207689542863
 20
138.7533792605618
 30
0.0
 10
70.45207689542863
 20
138.7533792605618
 30
0.0
  0
ENDBLK
  5
315
330
312
100
AcDbEntity
  8
0
100
AcDbBlockEnd
  0
BLOCK
  5
319
330
317
100
AcDbEntity
  8
0
100
AcDbBlockBegin
  2
block 102
 70
     0
 71
     0
 10
0.0
 20
0.0
 30
0.0
  3
block 102
  1

  0
SPLINE
  5
31B
330
317
100
AcDbEntity
  8
Capa 1
 62
     7
370
    25
100
AcDbSpline
210
0.0
220
0.0
230
1.0
 70
    11
 71
     3
 72
    23
 73
    19
 74
     0
 42
0.0000000001
 43
0.0000000001
 40
0.0
 40
0.0
 40
0.0
 40
0.0
 40
1.0
 40
1.0
 40
1.0
 40
2.0
 40
2.0
 40
2.0
 40
3.0
 40
3.0
 40
3.0
 40
4.0
 40
4.0
 40
4.0
 40
5.0
 40
5.0
 40
5.0
 40
6.0
 40
6.0
 40
6.0
 40
6.0
 10
97.04134139137695
 20
138.7533792605618
 30
0.0
 10
97.04134139137695
 20
140.0697511138789
 30
0.0
 10
95.97387785107252
 20
141.1377314188471
 30
0.0
 10
94.65681697820376
 20
141.1377314188471
 30
0.0
 10
93.3399283602229
 20
141.1377314188471
 30
0.0
 10
92.27212031014268
 20
140.0697511138789
 30
0.0
 10
92.27212031014268
 20
138.7533792605618
 30
0.0
 10
92.27212031014268
 20
137.4359738779172
 30
0.0
 10
93.3399283602229
 20
136.3686825925007
 30
0.0
 10
94.65681697820376
 20
136.3686825925007
 30
0.0
 10
95.97387785107252
 20
136.3686825925007
 30
0.0
 10
97.04134139137695
 20
137.4359738779172
 30
0.0
 10
97.04134139137695
 20
138.7533792605618
 30
0.0
 10
97.04134139137695
 20
138.7533792605618
 30
0.0
 10
97.04134139137695
 20
138.7533792605618
 30
0.0
 10
97.04134139137695
 20
138.7533792605618
 30
0.0
 10
97.04134139137695
 20
138.7533792605618
 30
0.0
 10
97.04134139137695
 20
138.7533792605618
 30
0.0
 10
97.04134139137695
 20
138.7533792605618
 30
0.0
  0
ENDBLK
  5
31A
330
317
100
AcDbEntity
  8
0
100
AcDbBlockEnd
  0
BLOCK
  5
31E
330
31C
100
AcDbEntity
  8
0
100
AcDbBlockBegin
  2
block 103
 70
     0
 71
     0
 10
0.0
 20
0.0
 30
0.0
  3
block 103
  1

  0
SPLINE
  5
320
330
31C
100
AcDbEntity
  8
Capa 1
 62
     7
370
    25
100
AcDbSpline
210
0.0
220
0.0
230
1.0
 70
    11
 71
     3
 72
    23
 73
    19
 74
     0
 42
0.0000000001
 43
0.0000000001
 40
0.0
 40
0.0
 40
0.0
 40
0.0
 40
1.0
 40
1.0
 40
1.0
 40
2.0
 40
2.0
 40
2.0
 40
3.0
 40
3.0
 40
3.0
 40
4.0
 40
4.0
 40
4.0
 40
5.0
 40
5.0
 40
5.0
 40
6.0
 40
6.0
 40
6.0
 40
6.0
 10
83.84644472349578
 20
112.3628969052479
 30
0.0
 10
83.84644472349578
 20
113.6803022878924
 30
0.0
 10
82.77898118319135
 20
114.7479380830847
 30
0.0
 10
81.4617480554347
 20
114.7479380830847
 30
0.0
 10
80.14485943745385
 20
114.7479380830847
 30
0.0
 10
79.07722364226152
 20
113.6803022878924
 30
0.0
 10
79.07722364226152
 20
112.3628969052479
 30
0.0
 10
79.07722364226152
 20
111.0465250519307
 30
0.0
 10
80.14485943745385
 20
109.9785447469626
 30
0.0
 10
81.4617480554347
 20
109.9785447469626
 30
0.0
 10
82.77898118319135
 20
109.9785447469626
 30
0.0
 10
83.84644472349578
 20
111.0465250519307
 30
0.0
 10
83.84644472349578
 20
112.3628969052479
 30
0.0
 10
83.84644472349578
 20
112.3628969052479
 30
0.0
 10
83.84644472349578
 20
112.3628969052479
 30
0.0
 10
83.84644472349578
 20
112.3628969052479
 30
0.0
 10
83.84644472349578
 20
112.3628969052479
 30
0.0
 10
83.84644472349578
 20
112.3628969052479
 30
0.0
 10
83.84644472349578
 20
112.3628969052479
 30
0.0
  0
ENDBLK
  5
31F
330
31C
100
AcDbEntity
  8
0
100
AcDbBlockEnd
  0
BLOCK
  5
323
330
321
100
AcDbEntity
  8
0
100
AcDbBlockBegin
  2
block 104
 70
     0
 71
     0
 10
0.0
 20
0.0
 30
0.0
  3
block 104
  1

  0
SPLINE
  5
325
330
321
100
AcDbEntity
  8
Capa 1
 62
     7
370
    25
100
AcDbSpline
210
0.0
220
0.0
230
1.0
 70
    11
 71
     3
 72
    23
 73
    19
 74
     0
 42
0.0000000001
 43
0.0000000001
 40
0.0
 40
0.0
 40
0.0
 40
0.0
 40
1.0
 40
1.0
 40
1.0
 40
2.0
 40
2.0
 40
2.0
 40
3.0
 40
3.0
 40
3.0
 40
4.0
 40
4.0
 40
4.0
 40
5.0
 40
5.0
 40
5.0
 40
6.0
 40
6.0
 40
6.0
 40
6.0
 10
70.45207689542863
 20
112.3628969052479
 30
0.0
 10
70.45207689542863
 20
113.6803022878924
 30
0.0
 10
69.3842688453484
 20
114.7479380830847
 30
0.0
 10
68.06738022736755
 20
114.7479380830847
 30
0.0
 10
66.7504916093867
 20
114.7479380830847
 30
0.0
 10
65.68268355930647
 20
113.6803022878924
 30
0.0
 10
65.68268355930647
 20
112.3628969052479
 30
0.0
 10
65.68268355930647
 20
111.0465250519307
 30
0.0
 10
66.7504916093867
 20
109.9785447469626
 30
0.0
 10
68.06738022736755
 20
109.9785447469626
 30
0.0
 10
69.3842688453484
 20
109.9785447469626
 30
0.0
 10
70.45207689542863
 20
111.0465250519307
 30
0.0
 10
70.45207689542863
 20
112.3628969052479
 30
0.0
 10
70.45207689542863
 20
112.3628969052479
 30
0.0
 10
70.45207689542863
 20
112.3628969052479
 30
0.0
 10
70.45207689542863
 20
112.3628969052479
 30
0.0
 10
70.45207689542863
 20
112.3628969052479
 30
0.0
 10
70.45207689542863
 20
112.3628969052479
 30
0.0
 10
70.45207689542863
 20
112.3628969052479
 30
0.0
  0
ENDBLK
  5
324
330
321
100
AcDbEntity
  8
0
100
AcDbBlockEnd
  0
BLOCK
  5
328
330
326
100
AcDbEntity
  8
0
100
AcDbBlockBegin
  2
block 105
 70
     0
 71
     0
 10
0.0
 20
0.0
 30
0.0
  3
block 105
  1

  0
SPLINE
  5
32A
330
326
100
AcDbEntity
  8
Capa 1
 62
     7
370
    25
100
AcDbSpline
210
0.0
220
0.0
230
1.0
 70
    11
 71
     3
 72
    23
 73
    19
 74
     0
 42
0.0000000001
 43
0.0000000001
 40
0.0
 40
0.0
 40
0.0
 40
0.0
 40
1.0
 40
1.0
 40
1.0
 40
2.0
 40
2.0
 40
2.0
 40
3.0
 40
3.0
 40
3.0
 40
4.0
 40
4.0
 40
4.0
 40
5.0
 40
5.0
 40
5.0
 40
6.0
 40
6.0
 40
6.0
 40
6.0
 10
97.04134139137695
 20
112.3628969052479
 30
0.0
 10
97.04134139137695
 20
113.6803022878924
 30
0.0
 10
95.97387785107252
 20
114.7479380830847
 30
0.0
 10
94.65681697820376
 20
114.7479380830847
 30
0.0
 10
93.3399283602229
 20
114.7479380830847
 30
0.0
 10
92.27212031014268
 20
113.6803022878924
 30
0.0
 10
92.27212031014268
 20
112.3628969052479
 30
0.0
 10
92.27212031014268
 20
111.0465250519307
 30
0.0
 10
93.3399283602229
 20
109.9785447469626
 30
0.0
 10
94.65681697820376
 20
109.9785447469626
 30
0.0
 10
95.97387785107252
 20
109.9785447469626
 30
0.0
 10
97.04134139137695
 20
111.0465250519307
 30
0.0
 10
97.04134139137695
 20
112.3628969052479
 30
0.0
 10
97.04134139137695
 20
112.3628969052479
 30
0.0
 10
97.04134139137695
 20
112.3628969052479
 30
0.0
 10
97.04134139137695
 20
112.3628969052479
 30
0.0
 10
97.04134139137695
 20
112.3628969052479
 30
0.0
 10
97.04134139137695
 20
112.3628969052479
 30
0.0
 10
97.04134139137695
 20
112.3628969052479
 30
0.0
  0
ENDBLK
  5
329
330
326
100
AcDbEntity
  8
0
100
AcDbBlockEnd
  0
BLOCK
  5
32D
330
32B
100
AcDbEntity
  8
0
100
AcDbBlockBegin
  2
block 106
 70
     0
 71
     0
 10
0.0
 20
0.0
 30
0.0
  3
block 106
  1

  0
SPLINE
  5
32F
330
32B
100
AcDbEntity
  8
Capa 1
 62
     7
370
    25
100
AcDbSpline
210
0.0
220
0.0
230
1.0
 70
    11
 71
     3
 72
    23
 73
    19
 74
     0
 42
0.0000000001
 43
0.0000000001
 40
0.0
 40
0.0
 40
0.0
 40
0.0
 40
1.0
 40
1.0
 40
1.0
 40
2.0
 40
2.0
 40
2.0
 40
3.0
 40
3.0
 40
3.0
 40
4.0
 40
4.0
 40
4.0
 40
5.0
 40
5.0
 40
5.0
 40
6.0
 40
6.0
 40
6.0
 40
6.0
 10
110.2365825690339
 20
151.9484481833308
 30
0.0
 10
110.2365825690339
 20
153.2649922915359
 30
0.0
 10
109.1689467738416
 20
154.3328003416161
 30
0.0
 10
107.8522304107486
 20
154.3328003416161
 30
0.0
 10
106.5344805183283
 20
154.3328003416161
 30
0.0
 10
105.4670169780238
 20
153.2649922915359
 30
0.0
 10
105.4670169780238
 20
151.9484481833308
 30
0.0
 10
105.4670169780238
 20
150.6312150555742
 30
0.0
 10
106.5344805183283
 20
149.563407005494
 30
0.0
 10
107.8522304107486
 20
149.563407005494
 30
0.0
 10
109.1689467738416
 20
149.563407005494
 30
0.0
 10
110.2365825690339
 20
150.6312150555742
 30
0.0
 10
110.2365825690339
 20
151.9484481833308
 30
0.0
 10
110.2365825690339
 20
151.9484481833308
 30
0.0
 10
110.2365825690339
 20
151.9484481833308
 30
0.0
 10
110.2365825690339
 20
151.9484481833308
 30
0.0
 10
110.2365825690339
 20
151.9484481833308
 30
0.0
 10
110.2365825690339
 20
151.9484481833308
 30
0.0
 10
110.2365825690339
 20
151.9484481833308
 30
0.0
  0
ENDBLK
  5
32E
330
32B
100
AcDbEntity
  8
0
100
AcDbBlockEnd
  0
BLOCK
  5
332
330
330
100
AcDbEntity
  8
0
100
AcDbBlockBegin
  2
block 107
 70
     0
 71
     0
 10
0.0
 20
0.0
 30
0.0
  3
block 107
  1

  0
SPLINE
  5
334
330
330
100
AcDbEntity
  8
Capa 1
 62
     7
370
    25
100
AcDbSpline
210
0.0
220
0.0
230
1.0
 70
    11
 71
     3
 72
    23
 73
    19
 74
     0
 42
0.0000000001
 43
0.0000000001
 40
0.0
 40
0.0
 40
0.0
 40
0.0
 40
1.0
 40
1.0
 40
1.0
 40
2.0
 40
2.0
 40
2.0
 40
3.0
 40
3.0
 40
3.0
 40
4.0
 40
4.0
 40
4.0
 40
5.0
 40
5.0
 40
5.0
 40
6.0
 40
6.0
 40
6.0
 40
6.0
 10
134.4004982433772
 20
151.9484481833308
 30
0.0
 10
134.4004982433772
 20
153.2649922915359
 30
0.0
 10
133.3335514677364
 20
154.3328003416161
 30
0.0
 10
132.0158015753161
 20
154.3328003416161
 30
0.0
 10
130.6990852122231
 20
154.3328003416161
 30
0.0
 10
129.6314494170308
 20
153.2649922915359
 30
0.0
 10
129.6314494170308
 20
151.9484481833308
 30
0.0
 10
129.6314494170308
 20
150.6312150555742
 30
0.0
 10
130.6990852122231
 20
149.563407005494
 30
0.0
 10
132.0158015753161
 20
149.563407005494
 30
0.0
 10
133.3335514677364
 20
149.563407005494
 30
0.0
 10
134.4004982433772
 20
150.6312150555742
 30
0.0
 10
134.4004982433772
 20
151.9484481833308
 30
0.0
 10
134.4004982433772
 20
151.9484481833308
 30
0.0
 10
134.4004982433772
 20
151.9484481833308
 30
0.0
 10
134.4004982433772
 20
151.9484481833308
 30
0.0
 10
134.4004982433772
 20
151.9484481833308
 30
0.0
 10
134.4004982433772
 20
151.9484481833308
 30
0.0
 10
134.4004982433772
 20
151.9484481833308
 30
0.0
  0
ENDBLK
  5
333
330
330
100
AcDbEntity
  8
0
100
AcDbBlockEnd
  0
BLOCK
  5
337
330
335
100
AcDbEntity
  8
0
100
AcDbBlockBegin
  2
block 108
 70
     0
 71
     0
 10
0.0
 20
0.0
 30
0.0
  3
block 108
  1

  0
SPLINE
  5
339
330
335
100
AcDbEntity
  8
Capa 1
 62
     7
370
    25
100
AcDbSpline
210
0.0
220
0.0
230
1.0
 70
    11
 71
     3
 72
    23
 73
    19
 74
     0
 42
0.0000000001
 43
0.0000000001
 40
0.0
 40
0.0
 40
0.0
 40
0.0
 40
1.0
 40
1.0
 40
1.0
 40
2.0
 40
2.0
 40
2.0
 40
3.0
 40
3.0
 40
3.0
 40
4.0
 40
4.0
 40
4.0
 40
5.0
 40
5.0
 40
5.0
 40
6.0
 40
6.0
 40
6.0
 40
6.0
 10
147.5955671661463
 20
151.9484481833308
 30
0.0
 10
147.5955671661463
 20
153.2649922915359
 30
0.0
 10
146.5275868611781
 20
154.3328003416161
 30
0.0
 10
145.2108704980852
 20
154.3328003416161
 30
0.0
 10
143.894498644768
 20
154.3328003416161
 30
0.0
 10
142.8265183397999
 20
153.2649922915359
 30
0.0
 10
142.8265183397999
 20
151.9484481833308
 30
0.0
 10
142.8265183397999
 20
150.6312150555742
 30
0.0
 10
143.894498644768
 20
149.563407005494
 30
0.0
 10
145.2108704980852
 20
149.563407005494
 30
0.0
 10
146.5275868611781
 20
149.563407005494
 30
0.0
 10
147.5955671661463
 20
150.6312150555742
 30
0.0
 10
147.5955671661463
 20
151.9484481833308
 30
0.0
 10
147.5955671661463
 20
151.9484481833308
 30
0.0
 10
147.5955671661463
 20
151.9484481833308
 30
0.0
 10
147.5955671661463
 20
151.9484481833308
 30
0.0
 10
147.5955671661463
 20
151.9484481833308
 30
0.0
 10
147.5955671661463
 20
151.9484481833308
 30
0.0
 10
147.5955671661463
 20
151.9484481833308
 30
0.0
  0
ENDBLK
  5
338
330
335
100
AcDbEntity
  8
0
100
AcDbBlockEnd
  0
BLOCK
  5
33C
330
33A
100
AcDbEntity
  8
0
100
AcDbBlockBegin
  2
block 109
 70
     0
 71
     0
 10
0.0
 20
0.0
 30
0.0
  3
block 109
  1

  0
SPLINE
  5
33E
330
33A
100
AcDbEntity
  8
Capa 1
 62
     7
370
    25
100
AcDbSpline
210
0.0
220
0.0
230
1.0
 70
    11
 71
     3
 72
    23
 73
    19
 74
     0
 42
0.0000000001
 43
0.0000000001
 40
0.0
 40
0.0
 40
0.0
 40
0.0
 40
1.0
 40
1.0
 40
1.0
 40
2.0
 40
2.0
 40
2.0
 40
3.0
 40
3.0
 40
3.0
 40
4.0
 40
4.0
 40
4.0
 40
5.0
 40
5.0
 40
5.0
 40
6.0
 40
6.0
 40
6.0
 40
6.0
 10
160.7906360889153
 20
151.9484481833308
 30
0.0
 10
160.7906360889153
 20
153.2649922915359
 30
0.0
 10
159.7226557839472
 20
154.3328003416161
 30
0.0
 10
158.40628393063
 20
154.3328003416161
 30
0.0
 10
157.0895675675371
 20
154.3328003416161
 30
0.0
 10
156.0215872625689
 20
153.2649922915359
 30
0.0
 10
156.0215872625689
 20
151.9484481833308
 30
0.0
 10
156.0215872625689
 20
150.6312150555742
 30
0.0
 10
157.0895675675371
 20
149.563407005494
 30
0.0
 10
158.40628393063
 20
149.563407005494
 30
0.0
 10
159.7226557839472
 20
149.563407005494
 30
0.0
 10
160.7906360889153
 20
150.6312150555742
 30
0.0
 10
160.7906360889153
 20
151.9484481833308
 30
0.0
 10
160.7906360889153
 20
151.9484481833308
 30
0.0
 10
160.7906360889153
 20
151.9484481833308
 30
0.0
 10
160.7906360889153
 20
151.9484481833308
 30
0.0
 10
160.7906360889153
 20
151.9484481833308
 30
0.0
 10
160.7906360889153
 20
151.9484481833308
 30
0.0
 10
160.7906360889153
 20
151.9484481833308
 30
0.0
  0
ENDBLK
  5
33D
330
33A
100
AcDbEntity
  8
0
100
AcDbBlockEnd
  0
BLOCK
  5
341
330
33F
100
AcDbEntity
  8
0
100
AcDbBlockBegin
  2
block 110
 70
     0
 71
     0
 10
0.0
 20
0.0
 30
0.0
  3
block 110
  1

  0
SPLINE
  5
343
330
33F
100
AcDbEntity
  8
Capa 1
 62
     7
370
    25
100
AcDbSpline
210
0.0
220
0.0
230
1.0
 70
    11
 71
     3
 72
    23
 73
    19
 74
     0
 42
0.0000000001
 43
0.0000000001
 40
0.0
 40
0.0
 40
0.0
 40
0.0
 40
1.0
 40
1.0
 40
1.0
 40
2.0
 40
2.0
 40
2.0
 40
3.0
 40
3.0
 40
3.0
 40
4.0
 40
4.0
 40
4.0
 40
5.0
 40
5.0
 40
5.0
 40
6.0
 40
6.0
 40
6.0
 40
6.0
 10
174.1851761718704
 20
151.9484481833308
 30
0.0
 10
174.1851761718704
 20
153.2649922915359
 30
0.0
 10
173.117540376678
 20
154.3328003416161
 30
0.0
 10
171.8008240135851
 20
154.3328003416161
 30
0.0
 10
170.4841076504921
 20
154.3328003416161
 30
0.0
 10
169.4164718552998
 20
153.2649922915359
 30
0.0
 10
169.4164718552998
 20
151.9484481833308
 30
0.0
 10
169.4164718552998
 20
150.6312150555742
 30
0.0
 10
170.4841076504921
 20
149.563407005494
 30
0.0
 10
171.8008240135851
 20
149.563407005494
 30
0.0
 10
173.117540376678
 20
149.563407005494
 30
0.0
 10
174.1851761718704
 20
150.6312150555742
 30
0.0
 10
174.1851761718704
 20
151.9484481833308
 30
0.0
 10
174.1851761718704
 20
151.9484481833308
 30
0.0
 10
174.1851761718704
 20
151.9484481833308
 30
0.0
 10
174.1851761718704
 20
151.9484481833308
 30
0.0
 10
174.1851761718704
 20
151.9484481833308
 30
0.0
 10
174.1851761718704
 20
151.9484481833308
 30
0.0
 10
174.1851761718704
 20
151.9484481833308
 30
0.0
  0
ENDBLK
  5
342
330
33F
100
AcDbEntity
  8
0
100
AcDbBlockEnd
  0
BLOCK
  5
346
330
344
100
AcDbEntity
  8
0
100
AcDbBlockBegin
  2
block 111
 70
     0
 71
     0
 10
0.0
 20
0.0
 30
0.0
  3
block 111
  1

  0
SPLINE
  5
348
330
344
100
AcDbEntity
  8
Capa 1
 62
     7
370
    25
100
AcDbSpline
210
0.0
220
0.0
230
1.0
 70
    11
 71
     3
 72
    23
 73
    19
 74
     0
 42
0.0000000001
 43
0.0000000001
 40
0.0
 40
0.0
 40
0.0
 40
0.0
 40
1.0
 40
1.0
 40
1.0
 40
2.0
 40
2.0
 40
2.0
 40
3.0
 40
3.0
 40
3.0
 40
4.0
 40
4.0
 40
4.0
 40
5.0
 40
5.0
 40
5.0
 40
6.0
 40
6.0
 40
6.0
 40
6.0
 10
147.5955671661463
 20
99.1678279824788
 30
0.0
 10
147.5955671661463
 20
100.4852333651233
 30
0.0
 10
146.5275868611781
 20
101.5528691603157
 30
0.0
 10
145.2108704980852
 20
101.5528691603157
 30
0.0
 10
143.894498644768
 20
101.5528691603157
 30
0.0
 10
142.8265183397999
 20
100.4852333651233
 30
0.0
 10
142.8265183397999
 20
99.1678279824788
 30
0.0
 10
142.8265183397999
 20
97.85111161938583
 30
0.0
 10
143.894498644768
 20
96.78347582419352
 30
0.0
 10
145.2108704980852
 20
96.78347582419352
 30
0.0
 10
146.5275868611781
 20
96.78347582419352
 30
0.0
 10
147.5955671661463
 20
97.85111161938583
 30
0.0
 10
147.5955671661463
 20
99.1678279824788
 30
0.0
 10
147.5955671661463
 20
99.1678279824788
 30
0.0
 10
147.5955671661463
 20
99.1678279824788
 30
0.0
 10
147.5955671661463
 20
99.1678279824788
 30
0.0
 10
147.5955671661463
 20
99.1678279824788
 30
0.0
 10
147.5955671661463
 20
99.1678279824788
 30
0.0
 10
147.5955671661463
 20
99.1678279824788
 30
0.0
  0
ENDBLK
  5
347
330
344
100
AcDbEntity
  8
0
100
AcDbBlockEnd
  0
BLOCK
  5
34B
330
349
100
AcDbEntity
  8
0
100
AcDbBlockBegin
  2
block 112
 70
     0
 71
     0
 10
0.0
 20
0.0
 30
0.0
  3
block 112
  1

  0
SPLINE
  5
34D
330
349
100
AcDbEntity
  8
Capa 1
 62
     7
370
    25
100
AcDbSpline
210
0.0
220
0.0
230
1.0
 70
    11
 71
     3
 72
    23
 73
    19
 74
     0
 42
0.0000000001
 43
0.0000000001
 40
0.0
 40
0.0
 40
0.0
 40
0.0
 40
1.0
 40
1.0
 40
1.0
 40
2.0
 40
2.0
 40
2.0
 40
3.0
 40
3.0
 40
3.0
 40
4.0
 40
4.0
 40
4.0
 40
5.0
 40
5.0
 40
5.0
 40
6.0
 40
6.0
 40
6.0
 40
6.0
 10
160.7906360889153
 20
99.1678279824788
 30
0.0
 10
160.7906360889153
 20
100.4852333651233
 30
0.0
 10
159.7226557839472
 20
101.5528691603157
 30
0.0
 10
158.40628393063
 20
101.5528691603157
 30
0.0
 10
157.0895675675371
 20
101.5528691603157
 30
0.0
 10
156.0215872625689
 20
100.4852333651233
 30
0.0
 10
156.0215872625689
 20
99.1678279824788
 30
0.0
 10
156.0215872625689
 20
97.85111161938583
 30
0.0
 10
157.0895675675371
 20
96.78347582419352
 30
0.0
 10
158.40628393063
 20
96.78347582419352
 30
0.0
 10
159.7226557839472
 20
96.78347582419352
 30
0.0
 10
160.7906360889153
 20
97.85111161938583
 30
0.0
 10
160.7906360889153
 20
99.1678279824788
 30
0.0
 10
160.7906360889153
 20
99.1678279824788
 30
0.0
 10
160.7906360889153
 20
99.1678279824788
 30
0.0
 10
160.7906360889153
 20
99.1678279824788
 30
0.0
 10
160.7906360889153
 20
99.1678279824788
 30
0.0
 10
160.7906360889153
 20
99.1678279824788
 30
0.0
 10
160.7906360889153
 20
99.1678279824788
 30
0.0
  0
ENDBLK
  5
34C
330
349
100
AcDbEntity
  8
0
100
AcDbBlockEnd
  0
BLOCK
  5
350
330
34E
100
AcDbEntity
  8
0
100
AcDbBlockBegin
  2
block 113
 70
     0
 71
     0
 10
0.0
 20
0.0
 30
0.0
  3
block 113
  1

  0
SPLINE
  5
352
330
34E
100
AcDbEntity
  8
Capa 1
 62
     7
370
    25
100
AcDbSpline
210
0.0
220
0.0
230
1.0
 70
     8
 71
     3
 72
    14
 73
    10
 74
     0
 42
0.0000000001
 43
0.0000000001
 40
0.0
 40
0.0
 40
0.0
 40
0.0
 40
1.0
 40
1.0
 40
1.0
 40
2.0
 40
2.0
 40
2.0
 40
3.0
 40
3.0
 40
3.0
 40
3.0
 10
119.9334992283687
 20
89.39098505515932
 30
0.0
 10
123.9721873300272
 20
89.39098505515932
 30
0.0
 10
127.2470972587455
 20
92.6652059643261
 30
0.0
 10
127.2470972587455
 20
96.7038940659846
 30
0.0
 10
127.2470972587455
 20
100.7425821676431
 30
0.0
 10
123.9721873300272
 20
104.0168030768099
 30
0.0
 10
119.9334992283687
 20
104.0168030768099
 30
0.0
 10
119.9334992283687
 20
104.0168030768099
 30
0.0
 10
119.9334992283687
 20
104.0168030768099
 30
0.0
 10
119.9334992283687
 20
104.0168030768099
 30
0.0
  0
ENDBLK
  5
351
330
34E
100
AcDbEntity
  8
0
100
AcDbBlockEnd
  0
BLOCK
  5
355
330
353
100
AcDbEntity
  8
0
100
AcDbBlockBegin
  2
block 114
 70
     0
 71
     0
 10
0.0
 20
0.0
 30
0.0
  3
block 114
  1

  0
SPLINE
  5
357
330
353
100
AcDbEntity
  8
Capa 1
 62
     7
370
    25
100
AcDbSpline
210
0.0
220
0.0
230
1.0
 70
     8
 71
     3
 72
    14
 73
    10
 74
     0
 42
0.0000000001
 43
0.0000000001
 40
0.0
 40
0.0
 40
0.0
 40
0.0
 40
1.0
 40
1.0
 40
1.0
 40
2.0
 40
2.0
 40
2.0
 40
3.0
 40
3.0
 40
3.0
 40
3.0
 10
119.9334992283687
 20
104.0168030768099
 30
0.0
 10
115.8948111267102
 20
104.0168030768099
 30
0.0
 10
112.621279237095
 20
100.7425821676431
 30
0.0
 10
112.621279237095
 20
96.7038940659846
 30
0.0
 10
112.621279237095
 20
92.6652059643261
 30
0.0
 10
115.8948111267102
 20
89.39098505515932
 30
0.0
 10
119.9334992283687
 20
89.39098505515932
 30
0.0
 10
119.9334992283687
 20
89.39098505515932
 30
0.0
 10
119.9334992283687
 20
89.39098505515932
 30
0.0
 10
119.9334992283687
 20
89.39098505515932
 30
0.0
  0
ENDBLK
  5
356
330
353
100
AcDbEntity
  8
0
100
AcDbBlockEnd
  0
BLOCK
  5
35A
330
358
100
AcDbEntity
  8
0
100
AcDbBlockBegin
  2
block 115
 70
     0
 71
     0
 10
0.0
 20
0.0
 30
0.0
  3
block 115
  1

  0
SPLINE
  5
35C
330
358
100
AcDbEntity
  8
Capa 1
 62
     7
370
    25
100
AcDbSpline
210
0.0
220
0.0
230
1.0
 70
    11
 71
     3
 72
    23
 73
    19
 74
     0
 42
0.0000000001
 43
0.0000000001
 40
0.0
 40
0.0
 40
0.0
 40
0.0
 40
1.0
 40
1.0
 40
1.0
 40
2.0
 40
2.0
 40
2.0
 40
3.0
 40
3.0
 40
3.0
 40
4.0
 40
4.0
 40
4.0
 40
5.0
 40
5.0
 40
5.0
 40
6.0
 40
6.0
 40
6.0
 40
6.0
 10
134.4004982433772
 20
112.3628969052479
 30
0.0
 10
134.4004982433772
 20
113.6803022878924
 30
0.0
 10
133.3335514677364
 20
114.7479380830847
 30
0.0
 10
132.0158015753161
 20
114.7479380830847
 30
0.0
 10
130.6990852122231
 20
114.7479380830847
 30
0.0
 10
129.6314494170308
 20
113.6803022878924
 30
0.0
 10
129.6314494170308
 20
112.3628969052479
 30
0.0
 10
129.6314494170308
 20
111.0465250519307
 30
0.0
 10
130.6990852122231
 20
109.9785447469626
 30
0.0
 10
132.0158015753161
 20
109.9785447469626
 30
0.0
 10
133.3335514677364
 20
109.9785447469626
 30
0.0
 10
134.4004982433772
 20
111.0465250519307
 30
0.0
 10
134.4004982433772
 20
112.3628969052479
 30
0.0
 10
134.4004982433772
 20
112.3628969052479
 30
0.0
 10
134.4004982433772
 20
112.3628969052479
 30
0.0
 10
134.4004982433772
 20
112.3628969052479
 30
0.0
 10
134.4004982433772
 20
112.3628969052479
 30
0.0
 10
134.4004982433772
 20
112.3628969052479
 30
0.0
 10
134.4004982433772
 20
112.3628969052479
 30
0.0
  0
ENDBLK
  5
35B
330
358
100
AcDbEntity
  8
0
100
AcDbBlockEnd
  0
BLOCK
  5
35F
330
35D
100
AcDbEntity
  8
0
100
AcDbBlockBegin
  2
block 116
 70
     0
 71
     0
 10
0.0
 20
0.0
 30
0.0
  3
block 116
  1

  0
SPLINE
  5
361
330
35D
100
AcDbEntity
  8
Capa 1
 62
     7
370
    25
100
AcDbSpline
210
0.0
220
0.0
230
1.0
 70
    11
 71
     3
 72
    23
 73
    19
 74
     0
 42
0.0000000001
 43
0.0000000001
 40
0.0
 40
0.0
 40
0.0
 40
0.0
 40
1.0
 40
1.0
 40
1.0
 40
2.0
 40
2.0
 40
2.0
 40
3.0
 40
3.0
 40
3.0
 40
4.0
 40
4.0
 40
4.0
 40
5.0
 40
5.0
 40
5.0
 40
6.0
 40
6.0
 40
6.0
 40
6.0
 10
134.4004982433772
 20
138.7533792605618
 30
0.0
 10
134.4004982433772
 20
140.0697511138789
 30
0.0
 10
133.3335514677364
 20
141.1377314188471
 30
0.0
 10
132.0158015753161
 20
141.1377314188471
 30
0.0
 10
130.6990852122231
 20
141.1377314188471
 30
0.0
 10
129.6314494170308
 20
140.0697511138789
 30
0.0
 10
129.6314494170308
 20
138.7533792605618
 30
0.0
 10
129.6314494170308
 20
137.4359738779172
 30
0.0
 10
130.6990852122231
 20
136.3686825925007
 30
0.0
 10
132.0158015753161
 20
136.3686825925007
 30
0.0
 10
133.3335514677364
 20
136.3686825925007
 30
0.0
 10
134.4004982433772
 20
137.4359738779172
 30
0.0
 10
134.4004982433772
 20
138.7533792605618
 30
0.0
 10
134.4004982433772
 20
138.7533792605618
 30
0.0
 10
134.4004982433772
 20
138.7533792605618
 30
0.0
 10
134.4004982433772
 20
138.7533792605618
 30
0.0
 10
134.4004982433772
 20
138.7533792605618
 30
0.0
 10
134.4004982433772
 20
138.7533792605618
 30
0.0
 10
134.4004982433772
 20
138.7533792605618
 30
0.0
  0
ENDBLK
  5
360
330
35D
100
AcDbEntity
  8
0
100
AcDbBlockEnd
  0
BLOCK
  5
364
330
362
100
AcDbEntity
  8
0
100
AcDbBlockBegin
  2
block 117
 70
     0
 71
     0
 10
0.0
 20
0.0
 30
0.0
  3
block 117
  1

  0
SPLINE
  5
366
330
362
100
AcDbEntity
  8
Capa 1
 62
     7
370
    25
100
AcDbSpline
210
0.0
220
0.0
230
1.0
 70
    11
 71
     3
 72
    23
 73
    19
 74
     0
 42
0.0000000001
 43
0.0000000001
 40
0.0
 40
0.0
 40
0.0
 40
0.0
 40
1.0
 40
1.0
 40
1.0
 40
2.0
 40
2.0
 40
2.0
 40
3.0
 40
3.0
 40
3.0
 40
4.0
 40
4.0
 40
4.0
 40
5.0
 40
5.0
 40
5.0
 40
6.0
 40
6.0
 40
6.0
 40
6.0
 10
134.4004982433772
 20
125.5583103377927
 30
0.0
 10
134.4004982433772
 20
126.8753712106615
 30
0.0
 10
133.3335514677364
 20
127.942662496078
 30
0.0
 10
132.0158015753161
 20
127.942662496078
 30
0.0
 10
130.6990852122231
 20
127.942662496078
 30
0.0
 10
129.6314494170308
 20
126.8753712106615
 30
0.0
 10
129.6314494170308
 20
125.5583103377927
 30
0.0
 10
129.6314494170308
 20
124.2409049551482
 30
0.0
 10
130.6990852122231
 20
123.1736136697316
 30
0.0
 10
132.0158015753161
 20
123.1736136697316
 30
0.0
 10
133.3335514677364
 20
123.1736136697316
 30
0.0
 10
134.4004982433772
 20
124.2409049551482
 30
0.0
 10
134.4004982433772
 20
125.5583103377927
 30
0.0
 10
134.4004982433772
 20
125.5583103377927
 30
0.0
 10
134.4004982433772
 20
125.5583103377927
 30
0.0
 10
134.4004982433772
 20
125.5583103377927
 30
0.0
 10
134.4004982433772
 20
125.5583103377927
 30
0.0
 10
134.4004982433772
 20
125.5583103377927
 30
0.0
 10
134.4004982433772
 20
125.5583103377927
 30
0.0
  0
ENDBLK
  5
365
330
362
100
AcDbEntity
  8
0
100
AcDbBlockEnd
  0
BLOCK
  5
369
330
367
100
AcDbEntity
  8
0
100
AcDbBlockBegin
  2
block 118
 70
     0
 71
     0
 10
0.0
 20
0.0
 30
0.0
  3
block 118
  1

  0
SPLINE
  5
36B
330
367
100
AcDbEntity
  8
Capa 1
 62
     7
370
    25
100
AcDbSpline
210
0.0
220
0.0
230
1.0
 70
    11
 71
     3
 72
    23
 73
    19
 74
     0
 42
0.0000000001
 43
0.0000000001
 40
0.0
 40
0.0
 40
0.0
 40
0.0
 40
1.0
 40
1.0
 40
1.0
 40
2.0
 40
2.0
 40
2.0
 40
3.0
 40
3.0
 40
3.0
 40
4.0
 40
4.0
 40
4.0
 40
5.0
 40
5.0
 40
5.0
 40
6.0
 40
6.0
 40
6.0
 40
6.0
 10
110.2365825690339
 20
125.5583103377927
 30
0.0
 10
110.2365825690339
 20
126.8753712106615
 30
0.0
 10
109.1689467738416
 20
127.942662496078
 30
0.0
 10
107.8522304107486
 20
127.942662496078
 30
0.0
 10
106.5344805183283
 20
127.942662496078
 30
0.0
 10
105.4670169780238
 20
126.8753712106615
 30
0.0
 10
105.4670169780238
 20
125.5583103377927
 30
0.0
 10
105.4670169780238
 20
124.2409049551482
 30
0.0
 10
106.5344805183283
 20
123.1736136697316
 30
0.0
 10
107.8522304107486
 20
123.1736136697316
 30
0.0
 10
109.1689467738416
 20
123.1736136697316
 30
0.0
 10
110.2365825690339
 20
124.2409049551482
 30
0.0
 10
110.2365825690339
 20
125.5583103377927
 30
0.0
 10
110.2365825690339
 20
125.5583103377927
 30
0.0
 10
110.2365825690339
 20
125.5583103377927
 30
0.0
 10
110.2365825690339
 20
125.5583103377927
 30
0.0
 10
110.2365825690339
 20
125.5583103377927
 30
0.0
 10
110.2365825690339
 20
125.5583103377927
 30
0.0
 10
110.2365825690339
 20
125.5583103377927
 30
0.0
  0
ENDBLK
  5
36A
330
367
100
AcDbEntity
  8
0
100
AcDbBlockEnd
  0
BLOCK
  5
36E
330
36C
100
AcDbEntity
  8
0
100
AcDbBlockBegin
  2
block 119
 70
     0
 71
     0
 10
0.0
 20
0.0
 30
0.0
  3
block 119
  1

  0
SPLINE
  5
370
330
36C
100
AcDbEntity
  8
Capa 1
 62
     7
370
    25
100
AcDbSpline
210
0.0
220
0.0
230
1.0
 70
    11
 71
     3
 72
    23
 73
    19
 74
     0
 42
0.0000000001
 43
0.0000000001
 40
0.0
 40
0.0
 40
0.0
 40
0.0
 40
1.0
 40
1.0
 40
1.0
 40
2.0
 40
2.0
 40
2.0
 40
3.0
 40
3.0
 40
3.0
 40
4.0
 40
4.0
 40
4.0
 40
5.0
 40
5.0
 40
5.0
 40
6.0
 40
6.0
 40
6.0
 40
6.0
 10
110.2365825690339
 20
138.7533792605618
 30
0.0
 10
110.2365825690339
 20
140.0697511138789
 30
0.0
 10
109.1689467738416
 20
141.1377314188471
 30
0.0
 10
107.8522304107486
 20
141.1377314188471
 30
0.0
 10
106.5344805183283
 20
141.1377314188471
 30
0.0
 10
105.4670169780238
 20
140.0697511138789
 30
0.0
 10
105.4670169780238
 20
138.7533792605618
 30
0.0
 10
105.4670169780238
 20
137.4359738779172
 30
0.0
 10
106.5344805183283
 20
136.3686825925007
 30
0.0
 10
107.8522304107486
 20
136.3686825925007
 30
0.0
 10
109.1689467738416
 20
136.3686825925007
 30
0.0
 10
110.2365825690339
 20
137.4359738779172
 30
0.0
 10
110.2365825690339
 20
138.7533792605618
 30
0.0
 10
110.2365825690339
 20
138.7533792605618
 30
0.0
 10
110.2365825690339
 20
138.7533792605618
 30
0.0
 10
110.2365825690339
 20
138.7533792605618
 30
0.0
 10
110.2365825690339
 20
138.7533792605618
 30
0.0
 10
110.2365825690339
 20
138.7533792605618
 30
0.0
 10
110.2365825690339
 20
138.7533792605618
 30
0.0
  0
ENDBLK
  5
36F
330
36C
100
AcDbEntity
  8
0
100
AcDbBlockEnd
  0
BLOCK
  5
373
330
371
100
AcDbEntity
  8
0
100
AcDbBlockBegin
  2
block 120
 70
     0
 71
     0
 10
0.0
 20
0.0
 30
0.0
  3
block 120
  1

  0
SPLINE
  5
375
330
371
100
AcDbEntity
  8
Capa 1
 62
     7
370
    25
100
AcDbSpline
210
0.0
220
0.0
230
1.0
 70
    11
 71
     3
 72
    23
 73
    19
 74
     0
 42
0.0000000001
 43
0.0000000001
 40
0.0
 40
0.0
 40
0.0
 40
0.0
 40
1.0
 40
1.0
 40
1.0
 40
2.0
 40
2.0
 40
2.0
 40
3.0
 40
3.0
 40
3.0
 40
4.0
 40
4.0
 40
4.0
 40
5.0
 40
5.0
 40
5.0
 40
6.0
 40
6.0
 40
6.0
 40
6.0
 10
110.2365825690339
 20
112.3628969052479
 30
0.0
 10
110.2365825690339
 20
113.6803022878924
 30
0.0
 10
109.1689467738416
 20
114.7479380830847
 30
0.0
 10
107.8522304107486
 20
114.7479380830847
 30
0.0
 10
106.5344805183283
 20
114.7479380830847
 30
0.0
 10
105.4670169780238
 20
113.6803022878924
 30
0.0
 10
105.4670169780238
 20
112.3628969052479
 30
0.0
 10
105.4670169780238
 20
111.0465250519307
 30
0.0
 10
106.5344805183283
 20
109.9785447469626
 30
0.0
 10
107.8522304107486
 20
109.9785447469626
 30
0.0
 10
109.1689467738416
 20
109.9785447469626
 30
0.0
 10
110.2365825690339
 20
111.0465250519307
 30
0.0
 10
110.2365825690339
 20
112.3628969052479
 30
0.0
 10
110.2365825690339
 20
112.3628969052479
 30
0.0
 10
110.2365825690339
 20
112.3628969052479
 30
0.0
 10
110.2365825690339
 20
112.3628969052479
 30
0.0
 10
110.2365825690339
 20
112.3628969052479
 30
0.0
 10
110.2365825690339
 20
112.3628969052479
 30
0.0
 10
110.2365825690339
 20
112.3628969052479
 30
0.0
  0
ENDBLK
  5
374
330
371
100
AcDbEntity
  8
0
100
AcDbBlockEnd
  0
BLOCK
  5
378
330
376
100
AcDbEntity
  8
0
100
AcDbBlockBegin
  2
block 121
 70
     0
 71
     0
 10
0.0
 20
0.0
 30
0.0
  3
block 121
  1

  0
SPLINE
  5
37A
330
376
100
AcDbEntity
  8
Capa 1
 62
     7
370
    25
100
AcDbSpline
210
0.0
220
0.0
230
1.0
 70
    11
 71
     3
 72
    23
 73
    19
 74
     0
 42
0.0000000001
 43
0.0000000001
 40
0.0
 40
0.0
 40
0.0
 40
0.0
 40
1.0
 40
1.0
 40
1.0
 40
2.0
 40
2.0
 40
2.0
 40
3.0
 40
3.0
 40
3.0
 40
4.0
 40
4.0
 40
4.0
 40
5.0
 40
5.0
 40
5.0
 40
6.0
 40
6.0
 40
6.0
 40
6.0
 10
147.5955671661463
 20
125.5583103377927
 30
0.0
 10
147.5955671661463
 20
126.8753712106615
 30
0.0
 10
146.5275868611781
 20
127.942662496078
 30
0.0
 10
145.2108704980852
 20
127.942662496078
 30
0.0
 10
143.894498644768
 20
127.942662496078
 30
0.0
 10
142.8265183397999
 20
126.8753712106615
 30
0.0
 10
142.8265183397999
 20
125.5583103377927
 30
0.0
 10
142.8265183397999
 20
124.2409049551482
 30
0.0
 10
143.894498644768
 20
123.1736136697316
 30
0.0
 10
145.2108704980852
 20
123.1736136697316
 30
0.0
 10
146.5275868611781
 20
123.1736136697316
 30
0.0
 10
147.5955671661463
 20
124.2409049551482
 30
0.0
 10
147.5955671661463
 20
125.5583103377927
 30
0.0
 10
147.5955671661463
 20
125.5583103377927
 30
0.0
 10
147.5955671661463
 20
125.5583103377927
 30
0.0
 10
147.5955671661463
 20
125.5583103377927
 30
0.0
 10
147.5955671661463
 20
125.5583103377927
 30
0.0
 10
147.5955671661463
 20
125.5583103377927
 30
0.0
 10
147.5955671661463
 20
125.5583103377927
 30
0.0
  0
ENDBLK
  5
379
330
376
100
AcDbEntity
  8
0
100
AcDbBlockEnd
  0
BLOCK
  5
37D
330
37B
100
AcDbEntity
  8
0
100
AcDbBlockBegin
  2
block 122
 70
     0
 71
     0
 10
0.0
 20
0.0
 30
0.0
  3
block 122
  1

  0
SPLINE
  5
37F
330
37B
100
AcDbEntity
  8
Capa 1
 62
     7
370
    25
100
AcDbSpline
210
0.0
220
0.0
230
1.0
 70
    11
 71
     3
 72
    23
 73
    19
 74
     0
 42
0.0000000001
 43
0.0000000001
 40
0.0
 40
0.0
 40
0.0
 40
0.0
 40
1.0
 40
1.0
 40
1.0
 40
2.0
 40
2.0
 40
2.0
 40
3.0
 40
3.0
 40
3.0
 40
4.0
 40
4.0
 40
4.0
 40
5.0
 40
5.0
 40
5.0
 40
6.0
 40
6.0
 40
6.0
 40
6.0
 10
160.7906360889153
 20
125.5583103377927
 30
0.0
 10
160.7906360889153
 20
126.8753712106615
 30
0.0
 10
159.7226557839472
 20
127.942662496078
 30
0.0
 10
158.40628393063
 20
127.942662496078
 30
0.0
 10
157.0895675675371
 20
127.942662496078
 30
0.0
 10
156.0215872625689
 20
126.8753712106615
 30
0.0
 10
156.0215872625689
 20
125.5583103377927
 30
0.0
 10
156.0215872625689
 20
124.2409049551482
 30
0.0
 10
157.0895675675371
 20
123.1736136697316
 30
0.0
 10
158.40628393063
 20
123.1736136697316
 30
0.0
 10
159.7226557839472
 20
123.1736136697316
 30
0.0
 10
160.7906360889153
 20
124.2409049551482
 30
0.0
 10
160.7906360889153
 20
125.5583103377927
 30
0.0
 10
160.7906360889153
 20
125.5583103377927
 30
0.0
 10
160.7906360889153
 20
125.5583103377927
 30
0.0
 10
160.7906360889153
 20
125.5583103377927
 30
0.0
 10
160.7906360889153
 20
125.5583103377927
 30
0.0
 10
160.7906360889153
 20
125.5583103377927
 30
0.0
 10
160.7906360889153
 20
125.5583103377927
 30
0.0
  0
ENDBLK
  5
37E
330
37B
100
AcDbEntity
  8
0
100
AcDbBlockEnd
  0
BLOCK
  5
382
330
380
100
AcDbEntity
  8
0
100
AcDbBlockBegin
  2
block 123
 70
     0
 71
     0
 10
0.0
 20
0.0
 30
0.0
  3
block 123
  1

  0
SPLINE
  5
384
330
380
100
AcDbEntity
  8
Capa 1
 62
     7
370
    25
100
AcDbSpline
210
0.0
220
0.0
230
1.0
 70
    11
 71
     3
 72
    23
 73
    19
 74
     0
 42
0.0000000001
 43
0.0000000001
 40
0.0
 40
0.0
 40
0.0
 40
0.0
 40
1.0
 40
1.0
 40
1.0
 40
2.0
 40
2.0
 40
2.0
 40
3.0
 40
3.0
 40
3.0
 40
4.0
 40
4.0
 40
4.0
 40
5.0
 40
5.0
 40
5.0
 40
6.0
 40
6.0
 40
6.0
 40
6.0
 10
147.5955671661463
 20
138.7533792605618
 30
0.0
 10
147.5955671661463
 20
140.0697511138789
 30
0.0
 10
146.5275868611781
 20
141.1377314188471
 30
0.0
 10
145.2108704980852
 20
141.1377314188471
 30
0.0
 10
143.894498644768
 20
141.1377314188471
 30
0.0
 10
142.8265183397999
 20
140.0697511138789
 30
0.0
 10
142.8265183397999
 20
138.7533792605618
 30
0.0
 10
142.8265183397999
 20
137.4359738779172
 30
0.0
 10
143.894498644768
 20
136.3686825925007
 30
0.0
 10
145.2108704980852
 20
136.3686825925007
 30
0.0
 10
146.5275868611781
 20
136.3686825925007
 30
0.0
 10
147.5955671661463
 20
137.4359738779172
 30
0.0
 10
147.5955671661463
 20
138.7533792605618
 30
0.0
 10
147.5955671661463
 20
138.7533792605618
 30
0.0
 10
147.5955671661463
 20
138.7533792605618
 30
0.0
 10
147.5955671661463
 20
138.7533792605618
 30
0.0
 10
147.5955671661463
 20
138.7533792605618
 30
0.0
 10
147.5955671661463
 20
138.7533792605618
 30
0.0
 10
147.5955671661463
 20
138.7533792605618
 30
0.0
  0
ENDBLK
  5
383
330
380
100
AcDbEntity
  8
0
100
AcDbBlockEnd
  0
BLOCK
  5
387
330
385
100
AcDbEntity
  8
0
100
AcDbBlockBegin
  2
block 124
 70
     0
 71
     0
 10
0.0
 20
0.0
 30
0.0
  3
block 124
  1

  0
SPLINE
  5
389
330
385
100
AcDbEntity
  8
Capa 1
 62
     7
370
    25
100
AcDbSpline
210
0.0
220
0.0
230
1.0
 70
    11
 71
     3
 72
    23
 73
    19
 74
     0
 42
0.0000000001
 43
0.0000000001
 40
0.0
 40
0.0
 40
0.0
 40
0.0
 40
1.0
 40
1.0
 40
1.0
 40
2.0
 40
2.0
 40
2.0
 40
3.0
 40
3.0
 40
3.0
 40
4.0
 40
4.0
 40
4.0
 40
5.0
 40
5.0
 40
5.0
 40
6.0
 40
6.0
 40
6.0
 40
6.0
 10
160.7906360889153
 20
138.7533792605618
 30
0.0
 10
160.7906360889153
 20
140.0697511138789
 30
0.0
 10
159.7226557839472
 20
141.1377314188471
 30
0.0
 10
158.40628393063
 20
141.1377314188471
 30
0.0
 10
157.0895675675371
 20
141.1377314188471
 30
0.0
 10
156.0215872625689
 20
140.0697511138789
 30
0.0
 10
156.0215872625689
 20
138.7533792605618
 30
0.0
 10
156.0215872625689
 20
137.4359738779172
 30
0.0
 10
157.0895675675371
 20
136.3686825925007
 30
0.0
 10
158.40628393063
 20
136.3686825925007
 30
0.0
 10
159.7226557839472
 20
136.3686825925007
 30
0.0
 10
160.7906360889153
 20
137.4359738779172
 30
0.0
 10
160.7906360889153
 20
138.7533792605618
 30
0.0
 10
160.7906360889153
 20
138.7533792605618
 30
0.0
 10
160.7906360889153
 20
138.7533792605618
 30
0.0
 10
160.7906360889153
 20
138.7533792605618
 30
0.0
 10
160.7906360889153
 20
138.7533792605618
 30
0.0
 10
160.7906360889153
 20
138.7533792605618
 30
0.0
 10
160.7906360889153
 20
138.7533792605618
 30
0.0
  0
ENDBLK
  5
388
330
385
100
AcDbEntity
  8
0
100
AcDbBlockEnd
  0
BLOCK
  5
38C
330
38A
100
AcDbEntity
  8
0
100
AcDbBlockBegin
  2
block 125
 70
     0
 71
     0
 10
0.0
 20
0.0
 30
0.0
  3
block 125
  1

  0
SPLINE
  5
38E
330
38A
100
AcDbEntity
  8
Capa 1
 62
     7
370
    25
100
AcDbSpline
210
0.0
220
0.0
230
1.0
 70
    11
 71
     3
 72
    23
 73
    19
 74
     0
 42
0.0000000001
 43
0.0000000001
 40
0.0
 40
0.0
 40
0.0
 40
0.0
 40
1.0
 40
1.0
 40
1.0
 40
2.0
 40
2.0
 40
2.0
 40
3.0
 40
3.0
 40
3.0
 40
4.0
 40
4.0
 40
4.0
 40
5.0
 40
5.0
 40
5.0
 40
6.0
 40
6.0
 40
6.0
 40
6.0
 10
147.5955671661463
 20
112.3628969052479
 30
0.0
 10
147.5955671661463
 20
113.6803022878924
 30
0.0
 10
146.5275868611781
 20
114.7479380830847
 30
0.0
 10
145.2108704980852
 20
114.7479380830847
 30
0.0
 10
143.894498644768
 20
114.7479380830847
 30
0.0
 10
142.8265183397999
 20
113.6803022878924
 30
0.0
 10
142.8265183397999
 20
112.3628969052479
 30
0.0
 10
142.8265183397999
 20
111.0465250519307
 30
0.0
 10
143.894498644768
 20
109.9785447469626
 30
0.0
 10
145.2108704980852
 20
109.9785447469626
 30
0.0
 10
146.5275868611781
 20
109.9785447469626
 30
0.0
 10
147.5955671661463
 20
111.0465250519307
 30
0.0
 10
147.5955671661463
 20
112.3628969052479
 30
0.0
 10
147.5955671661463
 20
112.3628969052479
 30
0.0
 10
147.5955671661463
 20
112.3628969052479
 30
0.0
 10
147.5955671661463
 20
112.3628969052479
 30
0.0
 10
147.5955671661463
 20
112.3628969052479
 30
0.0
 10
147.5955671661463
 20
112.3628969052479
 30
0.0
 10
147.5955671661463
 20
112.3628969052479
 30
0.0
  0
ENDBLK
  5
38D
330
38A
100
AcDbEntity
  8
0
100
AcDbBlockEnd
  0
BLOCK
  5
391
330
38F
100
AcDbEntity
  8
0
100
AcDbBlockBegin
  2
block 126
 70
     0
 71
     0
 10
0.0
 20
0.0
 30
0.0
  3
block 126
  1

  0
SPLINE
  5
393
330
38F
100
AcDbEntity
  8
Capa 1
 62
     7
370
    25
100
AcDbSpline
210
0.0
220
0.0
230
1.0
 70
    11
 71
     3
 72
    23
 73
    19
 74
     0
 42
0.0000000001
 43
0.0000000001
 40
0.0
 40
0.0
 40
0.0
 40
0.0
 40
1.0
 40
1.0
 40
1.0
 40
2.0
 40
2.0
 40
2.0
 40
3.0
 40
3.0
 40
3.0
 40
4.0
 40
4.0
 40
4.0
 40
5.0
 40
5.0
 40
5.0
 40
6.0
 40
6.0
 40
6.0
 40
6.0
 10
160.7906360889153
 20
112.3628969052479
 30
0.0
 10
160.7906360889153
 20
113.6803022878924
 30
0.0
 10
159.7226557839472
 20
114.7479380830847
 30
0.0
 10
158.40628393063
 20
114.7479380830847
 30
0.0
 10
157.0895675675371
 20
114.7479380830847
 30
0.0
 10
156.0215872625689
 20
113.6803022878924
 30
0.0
 10
156.0215872625689
 20
112.3628969052479
 30
0.0
 10
156.0215872625689
 20
111.0465250519307
 30
0.0
 10
157.0895675675371
 20
109.9785447469626
 30
0.0
 10
158.40628393063
 20
109.9785447469626
 30
0.0
 10
159.7226557839472
 20
109.9785447469626
 30
0.0
 10
160.7906360889153
 20
111.0465250519307
 30
0.0
 10
160.7906360889153
 20
112.3628969052479
 30
0.0
 10
160.7906360889153
 20
112.3628969052479
 30
0.0
 10
160.7906360889153
 20
112.3628969052479
 30
0.0
 10
160.7906360889153
 20
112.3628969052479
 30
0.0
 10
160.7906360889153
 20
112.3628969052479
 30
0.0
 10
160.7906360889153
 20
112.3628969052479
 30
0.0
 10
160.7906360889153
 20
112.3628969052479
 30
0.0
  0
ENDBLK
  5
392
330
38F
100
AcDbEntity
  8
0
100
AcDbBlockEnd
  0
BLOCK
  5
396
330
394
100
AcDbEntity
  8
0
100
AcDbBlockBegin
  2
block 127
 70
     0
 71
     0
 10
0.0
 20
0.0
 30
0.0
  3
block 127
  1

  0
SPLINE
  5
398
330
394
100
AcDbEntity
  8
Capa 1
 62
     7
370
    25
100
AcDbSpline
210
0.0
220
0.0
230
1.0
 70
    11
 71
     3
 72
    23
 73
    19
 74
     0
 42
0.0000000001
 43
0.0000000001
 40
0.0
 40
0.0
 40
0.0
 40
0.0
 40
1.0
 40
1.0
 40
1.0
 40
2.0
 40
2.0
 40
2.0
 40
3.0
 40
3.0
 40
3.0
 40
4.0
 40
4.0
 40
4.0
 40
5.0
 40
5.0
 40
5.0
 40
6.0
 40
6.0
 40
6.0
 40
6.0
 10
174.1851761718704
 20
99.1678279824788
 30
0.0
 10
174.1851761718704
 20
100.4852333651233
 30
0.0
 10
173.117540376678
 20
101.5528691603157
 30
0.0
 10
171.8008240135851
 20
101.5528691603157
 30
0.0
 10
170.4841076504921
 20
101.5528691603157
 30
0.0
 10
169.4164718552998
 20
100.4852333651233
 30
0.0
 10
169.4164718552998
 20
99.1678279824788
 30
0.0
 10
169.4164718552998
 20
97.85111161938583
 30
0.0
 10
170.4841076504921
 20
96.78347582419352
 30
0.0
 10
171.8008240135851
 20
96.78347582419352
 30
0.0
 10
173.117540376678
 20
96.78347582419352
 30
0.0
 10
174.1851761718704
 20
97.85111161938583
 30
0.0
 10
174.1851761718704
 20
99.1678279824788
 30
0.0
 10
174.1851761718704
 20
99.1678279824788
 30
0.0
 10
174.1851761718704
 20
99.1678279824788
 30
0.0
 10
174.1851761718704
 20
99.1678279824788
 30
0.0
 10
174.1851761718704
 20
99.1678279824788
 30
0.0
 10
174.1851761718704
 20
99.1678279824788
 30
0.0
 10
174.1851761718704
 20
99.1678279824788
 30
0.0
  0
ENDBLK
  5
397
330
394
100
AcDbEntity
  8
0
100
AcDbBlockEnd
  0
BLOCK
  5
39B
330
399
100
AcDbEntity
  8
0
100
AcDbBlockBegin
  2
block 128
 70
     0
 71
     0
 10
0.0
 20
0.0
 30
0.0
  3
block 128
  1

  0
SPLINE
  5
39D
330
399
100
AcDbEntity
  8
Capa 1
 62
     7
370
    25
100
AcDbSpline
210
0.0
220
0.0
230
1.0
 70
    11
 71
     3
 72
    23
 73
    19
 74
     0
 42
0.0000000001
 43
0.0000000001
 40
0.0
 40
0.0
 40
0.0
 40
0.0
 40
1.0
 40
1.0
 40
1.0
 40
2.0
 40
2.0
 40
2.0
 40
3.0
 40
3.0
 40
3.0
 40
4.0
 40
4.0
 40
4.0
 40
5.0
 40
5.0
 40
5.0
 40
6.0
 40
6.0
 40
6.0
 40
6.0
 10
174.1851761718704
 20
125.5583103377927
 30
0.0
 10
174.1851761718704
 20
126.8753712106615
 30
0.0
 10
173.117540376678
 20
127.942662496078
 30
0.0
 10
171.8008240135851
 20
127.942662496078
 30
0.0
 10
170.4841076504921
 20
127.942662496078
 30
0.0
 10
169.4164718552998
 20
126.8753712106615
 30
0.0
 10
169.4164718552998
 20
125.5583103377927
 30
0.0
 10
169.4164718552998
 20
124.2409049551482
 30
0.0
 10
170.4841076504921
 20
123.1736136697316
 30
0.0
 10
171.8008240135851
 20
123.1736136697316
 30
0.0
 10
173.117540376678
 20
123.1736136697316
 30
0.0
 10
174.1851761718704
 20
124.2409049551482
 30
0.0
 10
174.1851761718704
 20
125.5583103377927
 30
0.0
 10
174.1851761718704
 20
125.5583103377927
 30
0.0
 10
174.1851761718704
 20
125.5583103377927
 30
0.0
 10
174.1851761718704
 20
125.5583103377927
 30
0.0
 10
174.1851761718704
 20
125.5583103377927
 30
0.0
 10
174.1851761718704
 20
125.5583103377927
 30
0.0
 10
174.1851761718704
 20
125.5583103377927
 30
0.0
  0
ENDBLK
  5
39C
330
399
100
AcDbEntity
  8
0
100
AcDbBlockEnd
  0
BLOCK
  5
3A0
330
39E
100
AcDbEntity
  8
0
100
AcDbBlockBegin
  2
block 129
 70
     0
 71
     0
 10
0.0
 20
0.0
 30
0.0
  3
block 129
  1

  0
SPLINE
  5
3A2
330
39E
100
AcDbEntity
  8
Capa 1
 62
     7
370
    25
100
AcDbSpline
210
0.0
220
0.0
230
1.0
 70
    11
 71
     3
 72
    23
 73
    19
 74
     0
 42
0.0000000001
 43
0.0000000001
 40
0.0
 40
0.0
 40
0.0
 40
0.0
 40
1.0
 40
1.0
 40
1.0
 40
2.0
 40
2.0
 40
2.0
 40
3.0
 40
3.0
 40
3.0
 40
4.0
 40
4.0
 40
4.0
 40
5.0
 40
5.0
 40
5.0
 40
6.0
 40
6.0
 40
6.0
 40
6.0
 10
174.1851761718704
 20
138.7533792605618
 30
0.0
 10
174.1851761718704
 20
140.0697511138789
 30
0.0
 10
173.117540376678
 20
141.1377314188471
 30
0.0
 10
171.8008240135851
 20
141.1377314188471
 30
0.0
 10
170.4841076504921
 20
141.1377314188471
 30
0.0
 10
169.4164718552998
 20
140.0697511138789
 30
0.0
 10
169.4164718552998
 20
138.7533792605618
 30
0.0
 10
169.4164718552998
 20
137.4359738779172
 30
0.0
 10
170.4841076504921
 20
136.3686825925007
 30
0.0
 10
171.8008240135851
 20
136.3686825925007
 30
0.0
 10
173.117540376678
 20
136.3686825925007
 30
0.0
 10
174.1851761718704
 20
137.4359738779172
 30
0.0
 10
174.1851761718704
 20
138.7533792605618
 30
0.0
 10
174.1851761718704
 20
138.7533792605618
 30
0.0
 10
174.1851761718704
 20
138.7533792605618
 30
0.0
 10
174.1851761718704
 20
138.7533792605618
 30
0.0
 10
174.1851761718704
 20
138.7533792605618
 30
0.0
 10
174.1851761718704
 20
138.7533792605618
 30
0.0
 10
174.1851761718704
 20
138.7533792605618
 30
0.0
  0
ENDBLK
  5
3A1
330
39E
100
AcDbEntity
  8
0
100
AcDbBlockEnd
  0
BLOCK
  5
3A5
330
3A3
100
AcDbEntity
  8
0
100
AcDbBlockBegin
  2
block 130
 70
     0
 71
     0
 10
0.0
 20
0.0
 30
0.0
  3
block 130
  1

  0
SPLINE
  5
3A7
330
3A3
100
AcDbEntity
  8
Capa 1
 62
     7
370
    25
100
AcDbSpline
210
0.0
220
0.0
230
1.0
 70
    11
 71
     3
 72
    23
 73
    19
 74
     0
 42
0.0000000001
 43
0.0000000001
 40
0.0
 40
0.0
 40
0.0
 40
0.0
 40
1.0
 40
1.0
 40
1.0
 40
2.0
 40
2.0
 40
2.0
 40
3.0
 40
3.0
 40
3.0
 40
4.0
 40
4.0
 40
4.0
 40
5.0
 40
5.0
 40
5.0
 40
6.0
 40
6.0
 40
6.0
 40
6.0
 10
174.1851761718704
 20
112.3628969052479
 30
0.0
 10
174.1851761718704
 20
113.6803022878924
 30
0.0
 10
173.117540376678
 20
114.7479380830847
 30
0.0
 10
171.8008240135851
 20
114.7479380830847
 30
0.0
 10
170.4841076504921
 20
114.7479380830847
 30
0.0
 10
169.4164718552998
 20
113.6803022878924
 30
0.0
 10
169.4164718552998
 20
112.3628969052479
 30
0.0
 10
169.4164718552998
 20
111.0465250519307
 30
0.0
 10
170.4841076504921
 20
109.9785447469626
 30
0.0
 10
171.8008240135851
 20
109.9785447469626
 30
0.0
 10
173.117540376678
 20
109.9785447469626
 30
0.0
 10
174.1851761718704
 20
111.0465250519307
 30
0.0
 10
174.1851761718704
 20
112.3628969052479
 30
0.0
 10
174.1851761718704
 20
112.3628969052479
 30
0.0
 10
174.1851761718704
 20
112.3628969052479
 30
0.0
 10
174.1851761718704
 20
112.3628969052479
 30
0.0
 10
174.1851761718704
 20
112.3628969052479
 30
0.0
 10
174.1851761718704
 20
112.3628969052479
 30
0.0
 10
174.1851761718704
 20
112.3628969052479
 30
0.0
  0
ENDBLK
  5
3A6
330
3A3
100
AcDbEntity
  8
0
100
AcDbBlockEnd
  0
BLOCK
  5
3AA
330
3A8
100
AcDbEntity
  8
0
100
AcDbBlockBegin
  2
block 131
 70
     0
 71
     0
 10
0.0
 20
0.0
 30
0.0
  3
block 131
  1

  0
POLYLINE
  5
3AC
330
3A8
100
AcDbEntity
  8
Capa 1
 62
     7
370
    25
100
AcDb2dPolyline
 66
     1
 10
0.0
 20
0.0
 30
0.0
  0
VERTEX
  5
3AD
330
3AC
100
AcDbEntity
  8
Capa 1
 62
     7
370
    25
100
AcDbVertex
100
AcDb2dVertex
 10
43.14864363425486
 20
191.7717112067132
 30
0.0
  0
VERTEX
  5
3AE
330
3AC
100
AcDbEntity
  8
Capa 1
 62
     7
370
    25
100
AcDbVertex
100
AcDb2dVertex
 10
54.75379994172461
 20
180.1663826443555
 30
0.0
  0
SEQEND
  5
3AF
330
3AC
100
AcDbEntity
  8
Capa 1
370
    25
  0
ENDBLK
  5
3AB
330
3A8
100
AcDbEntity
  8
0
100
AcDbBlockEnd
  0
BLOCK
  5
3B2
330
3B0
100
AcDbEntity
  8
0
100
AcDbBlockBegin
  2
block 132
 70
     0
 71
     0
 10
0.0
 20
0.0
 30
0.0
  3
block 132
  1

  0
POLYLINE
  5
3B4
330
3B0
100
AcDbEntity
  8
Capa 1
 62
     7
370
    25
100
AcDb2dPolyline
 66
     1
 10
0.0
 20
0.0
 30
0.0
  0
VERTEX
  5
3B5
330
3B4
100
AcDbEntity
  8
Capa 1
 62
     7
370
    25
100
AcDbVertex
100
AcDb2dVertex
 10
185.114404299228
 20
180.1663826443555
 30
0.0
  0
VERTEX
  5
3B6
330
3B4
100
AcDbEntity
  8
Capa 1
 62
     7
370
    25
100
AcDbVertex
100
AcDb2dVertex
 10
196.7199051164736
 20
191.7717112067132
 30
0.0
  0
SEQEND
  5
3B7
330
3B4
100
AcDbEntity
  8
Capa 1
370
    25
  0
ENDBLK
  5
3B3
330
3B0
100
AcDbEntity
  8
0
100
AcDbBlockEnd
  0
BLOCK
  5
3BA
330
3B8
100
AcDbEntity
  8
0
100
AcDbBlockBegin
  2
block 133
 70
     0
 71
     0
 10
0.0
 20
0.0
 30
0.0
  3
block 133
  1

  0
SPLINE
  5
3BC
330
3B8
100
AcDbEntity
  8
Capa 1
 62
     7
370
    25
100
AcDbSpline
210
0.0
220
0.0
230
1.0
 70
    11
 71
     3
 72
    23
 73
    19
 74
     0
 42
0.0000000001
 43
0.0000000001
 40
0.0
 40
0.0
 40
0.0
 40
0.0
 40
1.0
 40
1.0
 40
1.0
 40
2.0
 40
2.0
 40
2.0
 40
3.0
 40
3.0
 40
3.0
 40
4.0
 40
4.0
 40
4.0
 40
5.0
 40
5.0
 40
5.0
 40
6.0
 40
6.0
 40
6.0
 40
6.0
 10
70.45207689542863
 20
165.1431725963241
 30
0.0
 10
70.45207689542863
 20
166.4602334691929
 30
0.0
 10
69.3842688453484
 20
167.5280415192731
 30
0.0
 10
68.06738022736755
 20
167.5280415192731
 30
0.0
 10
66.7504916093867
 20
167.5280415192731
 30
0.0
 10
65.68268355930647
 20
166.4602334691929
 30
0.0
 10
65.68268355930647
 20
165.1431725963241
 30
0.0
 10
65.68268355930647
 20
163.8262839783432
 30
0.0
 10
66.7504916093867
 20
162.758475928263
 30
0.0
 10
68.06738022736755
 20
162.758475928263
 30
0.0
 10
69.3842688453484
 20
162.758475928263
 30
0.0
 10
70.45207689542863
 20
163.8262839783432
 30
0.0
 10
70.45207689542863
 20
165.1431725963241
 30
0.0
 10
70.45207689542863
 20
165.1431725963241
 30
0.0
 10
70.45207689542863
 20
165.1431725963241
 30
0.0
 10
70.45207689542863
 20
165.1431725963241
 30
0.0
 10
70.45207689542863
 20
165.1431725963241
 30
0.0
 10
70.45207689542863
 20
165.1431725963241
 30
0.0
 10
70.45207689542863
 20
165.1431725963241
 30
0.0
  0
ENDBLK
  5
3BB
330
3B8
100
AcDbEntity
  8
0
100
AcDbBlockEnd
  0
BLOCK
  5
3BF
330
3BD
100
AcDbEntity
  8
0
100
AcDbBlockBegin
  2
block 134
 70
     0
 71
     0
 10
0.0
 20
0.0
 30
0.0
  3
block 134
  1

  0
SPLINE
  5
3C1
330
3BD
100
AcDbEntity
  8
Capa 1
 62
     7
370
    25
100
AcDbSpline
210
0.0
220
0.0
230
1.0
 70
    11
 71
     3
 72
    23
 73
    19
 74
     0
 42
0.0000000001
 43
0.0000000001
 40
0.0
 40
0.0
 40
0.0
 40
0.0
 40
1.0
 40
1.0
 40
1.0
 40
2.0
 40
2.0
 40
2.0
 40
3.0
 40
3.0
 40
3.0
 40
4.0
 40
4.0
 40
4.0
 40
5.0
 40
5.0
 40
5.0
 40
6.0
 40
6.0
 40
6.0
 40
6.0
 10
83.84644472349578
 20
165.1431725963241
 30
0.0
 10
83.84644472349578
 20
166.4602334691929
 30
0.0
 10
82.77898118319135
 20
167.5280415192731
 30
0.0
 10
81.4617480554347
 20
167.5280415192731
 30
0.0
 10
80.14485943745385
 20
167.5280415192731
 30
0.0
 10
79.07722364226152
 20
166.4602334691929
 30
0.0
 10
79.07722364226152
 20
165.1431725963241
 30
0.0
 10
79.07722364226152
 20
163.8262839783432
 30
0.0
 10
80.14485943745385
 20
162.758475928263
 30
0.0
 10
81.4617480554347
 20
162.758475928263
 30
0.0
 10
82.77898118319135
 20
162.758475928263
 30
0.0
 10
83.84644472349578
 20
163.8262839783432
 30
0.0
 10
83.84644472349578
 20
165.1431725963241
 30
0.0
 10
83.84644472349578
 20
165.1431725963241
 30
0.0
 10
83.84644472349578
 20
165.1431725963241
 30
0.0
 10
83.84644472349578
 20
165.1431725963241
 30
0.0
 10
83.84644472349578
 20
165.1431725963241
 30
0.0
 10
83.84644472349578
 20
165.1431725963241
 30
0.0
 10
83.84644472349578
 20
165.1431725963241
 30
0.0
  0
ENDBLK
  5
3C0
330
3BD
100
AcDbEntity
  8
0
100
AcDbBlockEnd
  0
BLOCK
  5
3C4
330
3C2
100
AcDbEntity
  8
0
100
AcDbBlockBegin
  2
block 135
 70
     0
 71
     0
 10
0.0
 20
0.0
 30
0.0
  3
block 135
  1

  0
SPLINE
  5
3C6
330
3C2
100
AcDbEntity
  8
Capa 1
 62
     7
370
    25
100
AcDbSpline
210
0.0
220
0.0
230
1.0
 70
    11
 71
     3
 72
    23
 73
    19
 74
     0
 42
0.0000000001
 43
0.0000000001
 40
0.0
 40
0.0
 40
0.0
 40
0.0
 40
1.0
 40
1.0
 40
1.0
 40
2.0
 40
2.0
 40
2.0
 40
3.0
 40
3.0
 40
3.0
 40
4.0
 40
4.0
 40
4.0
 40
5.0
 40
5.0
 40
5.0
 40
6.0
 40
6.0
 40
6.0
 40
6.0
 10
97.04134139137695
 20
165.1431725963241
 30
0.0
 10
97.04134139137695
 20
166.4602334691929
 30
0.0
 10
95.97387785107252
 20
167.5280415192731
 30
0.0
 10
94.65681697820376
 20
167.5280415192731
 30
0.0
 10
93.3399283602229
 20
167.5280415192731
 30
0.0
 10
92.27212031014268
 20
166.4602334691929
 30
0.0
 10
92.27212031014268
 20
165.1431725963241
 30
0.0
 10
92.27212031014268
 20
163.8262839783432
 30
0.0
 10
93.3399283602229
 20
162.758475928263
 30
0.0
 10
94.65681697820376
 20
162.758475928263
 30
0.0
 10
95.97387785107252
 20
162.758475928263
 30
0.0
 10
97.04134139137695
 20
163.8262839783432
 30
0.0
 10
97.04134139137695
 20
165.1431725963241
 30
0.0
 10
97.04134139137695
 20
165.1431725963241
 30
0.0
 10
97.04134139137695
 20
165.1431725963241
 30
0.0
 10
97.04134139137695
 20
165.1431725963241
 30
0.0
 10
97.04134139137695
 20
165.1431725963241
 30
0.0
 10
97.04134139137695
 20
165.1431725963241
 30
0.0
 10
97.04134139137695
 20
165.1431725963241
 30
0.0
  0
ENDBLK
  5
3C5
330
3C2
100
AcDbEntity
  8
0
100
AcDbBlockEnd
  0
BLOCK
  5
3C9
330
3C7
100
AcDbEntity
  8
0
100
AcDbBlockBegin
  2
block 136
 70
     0
 71
     0
 10
0.0
 20
0.0
 30
0.0
  3
block 136
  1

  0
SPLINE
  5
3CB
330
3C7
100
AcDbEntity
  8
Capa 1
 62
     7
370
    25
100
AcDbSpline
210
0.0
220
0.0
230
1.0
 70
    11
 71
     3
 72
    23
 73
    19
 74
     0
 42
0.0000000001
 43
0.0000000001
 40
0.0
 40
0.0
 40
0.0
 40
0.0
 40
1.0
 40
1.0
 40
1.0
 40
2.0
 40
2.0
 40
2.0
 40
3.0
 40
3.0
 40
3.0
 40
4.0
 40
4.0
 40
4.0
 40
5.0
 40
5.0
 40
5.0
 40
6.0
 40
6.0
 40
6.0
 40
6.0
 10
110.2365825690339
 20
165.1431725963241
 30
0.0
 10
110.2365825690339
 20
166.4602334691929
 30
0.0
 10
109.1689467738416
 20
167.5280415192731
 30
0.0
 10
107.8522304107486
 20
167.5280415192731
 30
0.0
 10
106.5344805183283
 20
167.5280415192731
 30
0.0
 10
105.4670169780238
 20
166.4602334691929
 30
0.0
 10
105.4670169780238
 20
165.1431725963241
 30
0.0
 10
105.4670169780238
 20
163.8262839783432
 30
0.0
 10
106.5344805183283
 20
162.758475928263
 30
0.0
 10
107.8522304107486
 20
162.758475928263
 30
0.0
 10
109.1689467738416
 20
162.758475928263
 30
0.0
 10
110.2365825690339
 20
163.8262839783432
 30
0.0
 10
110.2365825690339
 20
165.1431725963241
 30
0.0
 10
110.2365825690339
 20
165.1431725963241
 30
0.0
 10
110.2365825690339
 20
165.1431725963241
 30
0.0
 10
110.2365825690339
 20
165.1431725963241
 30
0.0
 10
110.2365825690339
 20
165.1431725963241
 30
0.0
 10
110.2365825690339
 20
165.1431725963241
 30
0.0
 10
110.2365825690339
 20
165.1431725963241
 30
0.0
  0
ENDBLK
  5
3CA
330
3C7
100
AcDbEntity
  8
0
100
AcDbBlockEnd
  0
BLOCK
  5
3CE
330
3CC
100
AcDbEntity
  8
0
100
AcDbBlockBegin
  2
block 137
 70
     0
 71
     0
 10
0.0
 20
0.0
 30
0.0
  3
block 137
  1

  0
SPLINE
  5
3D0
330
3CC
100
AcDbEntity
  8
Capa 1
 62
     7
370
    25
100
AcDbSpline
210
0.0
220
0.0
230
1.0
 70
    11
 71
     3
 72
    23
 73
    19
 74
     0
 42
0.0000000001
 43
0.0000000001
 40
0.0
 40
0.0
 40
0.0
 40
0.0
 40
1.0
 40
1.0
 40
1.0
 40
2.0
 40
2.0
 40
2.0
 40
3.0
 40
3.0
 40
3.0
 40
4.0
 40
4.0
 40
4.0
 40
5.0
 40
5.0
 40
5.0
 40
6.0
 40
6.0
 40
6.0
 40
6.0
 10
134.4004982433772
 20
165.1431725963241
 30
0.0
 10
134.4004982433772
 20
166.4602334691929
 30
0.0
 10
133.3335514677364
 20
167.5280415192731
 30
0.0
 10
132.0158015753161
 20
167.5280415192731
 30
0.0
 10
130.6990852122231
 20
167.5280415192731
 30
0.0
 10
129.6314494170308
 20
166.4602334691929
 30
0.0
 10
129.6314494170308
 20
165.1431725963241
 30
0.0
 10
129.6314494170308
 20
163.8262839783432
 30
0.0
 10
130.6990852122231
 20
162.758475928263
 30
0.0
 10
132.0158015753161
 20
162.758475928263
 30
0.0
 10
133.3335514677364
 20
162.758475928263
 30
0.0
 10
134.4004982433772
 20
163.8262839783432
 30
0.0
 10
134.4004982433772
 20
165.1431725963241
 30
0.0
 10
134.4004982433772
 20
165.1431725963241
 30
0.0
 10
134.4004982433772
 20
165.1431725963241
 30
0.0
 10
134.4004982433772
 20
165.1431725963241
 30
0.0
 10
134.4004982433772
 20
165.1431725963241
 30
0.0
 10
134.4004982433772
 20
165.1431725963241
 30
0.0
 10
134.4004982433772
 20
165.1431725963241
 30
0.0
  0
ENDBLK
  5
3CF
330
3CC
100
AcDbEntity
  8
0
100
AcDbBlockEnd
  0
BLOCK
  5
3D3
330
3D1
100
AcDbEntity
  8
0
100
AcDbBlockBegin
  2
block 138
 70
     0
 71
     0
 10
0.0
 20
0.0
 30
0.0
  3
block 138
  1

  0
SPLINE
  5
3D5
330
3D1
100
AcDbEntity
  8
Capa 1
 62
     7
370
    25
100
AcDbSpline
210
0.0
220
0.0
230
1.0
 70
    11
 71
     3
 72
    23
 73
    19
 74
     0
 42
0.0000000001
 43
0.0000000001
 40
0.0
 40
0.0
 40
0.0
 40
0.0
 40
1.0
 40
1.0
 40
1.0
 40
2.0
 40
2.0
 40
2.0
 40
3.0
 40
3.0
 40
3.0
 40
4.0
 40
4.0
 40
4.0
 40
5.0
 40
5.0
 40
5.0
 40
6.0
 40
6.0
 40
6.0
 40
6.0
 10
147.5955671661463
 20
165.1431725963241
 30
0.0
 10
147.5955671661463
 20
166.4602334691929
 30
0.0
 10
146.5275868611781
 20
167.5280415192731
 30
0.0
 10
145.2108704980852
 20
167.5280415192731
 30
0.0
 10
143.894498644768
 20
167.5280415192731
 30
0.0
 10
142.8265183397999
 20
166.4602334691929
 30
0.0
 10
142.8265183397999
 20
165.1431725963241
 30
0.0
 10
142.8265183397999
 20
163.8262839783432
 30
0.0
 10
143.894498644768
 20
162.758475928263
 30
0.0
 10
145.2108704980852
 20
162.758475928263
 30
0.0
 10
146.5275868611781
 20
162.758475928263
 30
0.0
 10
147.5955671661463
 20
163.8262839783432
 30
0.0
 10
147.5955671661463
 20
165.1431725963241
 30
0.0
 10
147.5955671661463
 20
165.1431725963241
 30
0.0
 10
147.5955671661463
 20
165.1431725963241
 30
0.0
 10
147.5955671661463
 20
165.1431725963241
 30
0.0
 10
147.5955671661463
 20
165.1431725963241
 30
0.0
 10
147.5955671661463
 20
165.1431725963241
 30
0.0
 10
147.5955671661463
 20
165.1431725963241
 30
0.0
  0
ENDBLK
  5
3D4
330
3D1
100
AcDbEntity
  8
0
100
AcDbBlockEnd
  0
BLOCK
  5
3D8
330
3D6
100
AcDbEntity
  8
0
100
AcDbBlockBegin
  2
block 139
 70
     0
 71
     0
 10
0.0
 20
0.0
 30
0.0
  3
block 139
  1

  0
SPLINE
  5
3DA
330
3D6
100
AcDbEntity
  8
Capa 1
 62
     7
370
    25
100
AcDbSpline
210
0.0
220
0.0
230
1.0
 70
    11
 71
     3
 72
    23
 73
    19
 74
     0
 42
0.0000000001
 43
0.0000000001
 40
0.0
 40
0.0
 40
0.0
 40
0.0
 40
1.0
 40
1.0
 40
1.0
 40
2.0
 40
2.0
 40
2.0
 40
3.0
 40
3.0
 40
3.0
 40
4.0
 40
4.0
 40
4.0
 40
5.0
 40
5.0
 40
5.0
 40
6.0
 40
6.0
 40
6.0
 40
6.0
 10
160.7906360889153
 20
165.1431725963241
 30
0.0
 10
160.7906360889153
 20
166.4602334691929
 30
0.0
 10
159.7226557839472
 20
167.5280415192731
 30
0.0
 10
158.40628393063
 20
167.5280415192731
 30
0.0
 10
157.0895675675371
 20
167.5280415192731
 30
0.0
 10
156.0215872625689
 20
166.4602334691929
 30
0.0
 10
156.0215872625689
 20
165.1431725963241
 30
0.0
 10
156.0215872625689
 20
163.8262839783432
 30
0.0
 10
157.0895675675371
 20
162.758475928263
 30
0.0
 10
158.40628393063
 20
162.758475928263
 30
0.0
 10
159.7226557839472
 20
162.758475928263
 30
0.0
 10
160.7906360889153
 20
163.8262839783432
 30
0.0
 10
160.7906360889153
 20
165.1431725963241
 30
0.0
 10
160.7906360889153
 20
165.1431725963241
 30
0.0
 10
160.7906360889153
 20
165.1431725963241
 30
0.0
 10
160.7906360889153
 20
165.1431725963241
 30
0.0
 10
160.7906360889153
 20
165.1431725963241
 30
0.0
 10
160.7906360889153
 20
165.1431725963241
 30
0.0
 10
160.7906360889153
 20
165.1431725963241
 30
0.0
  0
ENDBLK
  5
3D9
330
3D6
100
AcDbEntity
  8
0
100
AcDbBlockEnd
  0
BLOCK
  5
3DD
330
3DB
100
AcDbEntity
  8
0
100
AcDbBlockBegin
  2
block 140
 70
     0
 71
     0
 10
0.0
 20
0.0
 30
0.0
  3
block 140
  1

  0
SPLINE
  5
3DF
330
3DB
100
AcDbEntity
  8
Capa 1
 62
     7
370
    25
100
AcDbSpline
210
0.0
220
0.0
230
1.0
 70
    11
 71
     3
 72
    23
 73
    19
 74
     0
 42
0.0000000001
 43
0.0000000001
 40
0.0
 40
0.0
 40
0.0
 40
0.0
 40
1.0
 40
1.0
 40
1.0
 40
2.0
 40
2.0
 40
2.0
 40
3.0
 40
3.0
 40
3.0
 40
4.0
 40
4.0
 40
4.0
 40
5.0
 40
5.0
 40
5.0
 40
6.0
 40
6.0
 40
6.0
 40
6.0
 10
174.1851761718704
 20
165.1431725963241
 30
0.0
 10
174.1851761718704
 20
166.4602334691929
 30
0.0
 10
173.117540376678
 20
167.5280415192731
 30
0.0
 10
171.8008240135851
 20
167.5280415192731
 30
0.0
 10
170.4841076504921
 20
167.5280415192731
 30
0.0
 10
169.4164718552998
 20
166.4602334691929
 30
0.0
 10
169.4164718552998
 20
165.1431725963241
 30
0.0
 10
169.4164718552998
 20
163.8262839783432
 30
0.0
 10
170.4841076504921
 20
162.758475928263
 30
0.0
 10
171.8008240135851
 20
162.758475928263
 30
0.0
 10
173.117540376678
 20
162.758475928263
 30
0.0
 10
174.1851761718704
 20
163.8262839783432
 30
0.0
 10
174.1851761718704
 20
165.1431725963241
 30
0.0
 10
174.1851761718704
 20
165.1431725963241
 30
0.0
 10
174.1851761718704
 20
165.1431725963241
 30
0.0
 10
174.1851761718704
 20
165.1431725963241
 30
0.0
 10
174.1851761718704
 20
165.1431725963241
 30
0.0
 10
174.1851761718704
 20
165.1431725963241
 30
0.0
 10
174.1851761718704
 20
165.1431725963241
 30
0.0
  0
ENDBLK
  5
3DE
330
3DB
100
AcDbEntity
  8
0
100
AcDbBlockEnd
  0
BLOCK
  5
3E2
330
3E0
100
AcDbEntity
  8
0
100
AcDbBlockBegin
  2
block 141
 70
     0
 71
     0
 10
0.0
 20
0.0
 30
0.0
  3
block 141
  1

  0
POLYLINE
  5
3E4
330
3E0
100
AcDbEntity
  8
Capa 1
  6
AI-Linetype-1
 62
     7
370
    25
100
AcDb2dPolyline
 66
     1
 10
0.0
 20
0.0
 30
0.0
  0
VERTEX
  5
3E5
330
3E4
100
AcDbEntity
  8
Capa 1
  6
AI-Linetype-1
 62
     7
370
    25
100
AcDbVertex
100
AcDb2dVertex
 10
119.9334992283687
 20
237.7873651951438
 30
0.0
  0
VERTEX
  5
3E6
330
3E4
100
AcDbEntity
  8
Capa 1
  6
AI-Linetype-1
 62
     7
370
    25
100
AcDbVertex
100
AcDb2dVertex
 10
119.9334992283687
 20
248.3918928588135
 30
0.0
  0
SEQEND
  5
3E7
330
3E4
100
AcDbEntity
  8
Capa 1
  6
AI-Linetype-1
370
    25
  0
ENDBLK
  5
3E3
330
3E0
100
AcDbEntity
  8
0
100
AcDbBlockEnd
  0
BLOCK
  5
3EB
330
3E9
100
AcDbEntity
  8
0
100
AcDbBlockBegin
  2
block 142
 70
     0
 71
     0
 10
0.0
 20
0.0
 30
0.0
  3
block 142
  1

  0
POLYLINE
  5
3ED
330
3E9
100
AcDbEntity
  8
Capa 1
  6
AI-Linetype-2
 62
     7
370
    25
100
AcDb2dPolyline
 66
     1
 10
0.0
 20
0.0
 30
0.0
  0
VERTEX
  5
3EE
330
3ED
100
AcDbEntity
  8
Capa 1
  6
AI-Linetype-2
 62
     7
370
    25
100
AcDbVertex
100
AcDb2dVertex
 10
119.9334992283687
 20
87.39868502173007
 30
0.0
  0
VERTEX
  5
3EF
330
3ED
100
AcDbEntity
  8
Capa 1
  6
AI-Linetype-2
 62
     7
370
    25
100
AcDbVertex
100
AcDb2dVertex
 10
119.9334992283687
 20
106.0094476200149
 30
0.0
  0
SEQEND
  5
3F0
330
3ED
100
AcDbEntity
  8
Capa 1
  6
AI-Linetype-2
370
    25
  0
ENDBLK
  5
3EC
330
3E9
100
AcDbEntity
  8
0
100
AcDbBlockEnd
  0
BLOCK
  5
3F4
330
3F2
100
AcDbEntity
  8
0
100
AcDbBlockBegin
  2
block 143
 70
     0
 71
     0
 10
0.0
 20
0.0
 30
0.0
  3
block 143
  1

  0
POLYLINE
  5
3F6
330
3F2
100
AcDbEntity
  8
Capa 1
  6
AI-Linetype-3
 62
     7
370
    25
100
AcDb2dPolyline
 66
     1
 10
0.0
 20
0.0
 30
0.0
  0
VERTEX
  5
3F7
330
3F6
100
AcDbEntity
  8
Capa 1
  6
AI-Linetype-3
 62
     7
370
    25
100
AcDbVertex
100
AcDb2dVertex
 10
62.48115421283267
 20
96.7038940659846
 30
0.0
  0
VERTEX
  5
3F8
330
3F6
100
AcDbEntity
  8
Capa 1
  6
AI-Linetype-3
 62
     7
370
    25
100
AcDbVertex
100
AcDb2dVertex
 10
129.2400863117264
 20
96.7038940659846
 30
0.0
  0
SEQEND
  5
3F9
330
3F6
100
AcDbEntity
  8
Capa 1
  6
AI-Linetype-3
370
    25
  0
ENDBLK
  5
3F5
330
3F2
100
AcDbEntity
  8
0
100
AcDbBlockEnd
  0
BLOCK
  5
3FD
330
3FB
100
AcDbEntity
  8
0
100
AcDbBlockBegin
  2
block 144
 70
     0
 71
     0
 10
0.0
 20
0.0
 30
0.0
  3
block 144
  1

  0
POLYLINE
  5
3FF
330
3FB
100
AcDbEntity
  8
Capa 1
 62
     7
370
    25
100
AcDb2dPolyline
 66
     1
 10
0.0
 20
0.0
 30
0.0
  0
VERTEX
  5
400
330
3FF
100
AcDbEntity
  8
Capa 1
 62
     7
370
    25
100
AcDbVertex
100
AcDb2dVertex
 10
111.6607859821753
 20
245.4735505480442
 30
0.0
  0
VERTEX
  5
401
330
3FF
100
AcDbEntity
  8
Capa 1
 62
     7
370
    25
100
AcDbVertex
100
AcDb2dVertex
 10
128.2072460038895
 20
245.4735505480442
 30
0.0
  0
SEQEND
  5
402
330
3FF
100
AcDbEntity
  8
Capa 1
370
    25
  0
ENDBLK
  5
3FE
330
3FB
100
AcDbEntity
  8
0
100
AcDbBlockEnd
  0
BLOCK
  5
405
330
403
100
AcDbEntity
  8
0
100
AcDbBlockBegin
  2
block 145
 70
     0
 71
     0
 10
0.0
 20
0.0
 30
0.0
  3
block 145
  1

  0
POLYLINE
  5
407
330
403
100
AcDbEntity
  8
Capa 1
 62
     7
370
    25
100
AcDb2dPolyline
 66
     1
 10
0.0
 20
0.0
 30
0.0
  0
VERTEX
  5
408
330
407
100
AcDbEntity
  8
Capa 1
 62
     7
370
    25
100
AcDbVertex
100
AcDb2dVertex
 10
114.8936657182465
 20
242.3526364891067
 30
0.0
  0
VERTEX
  5
409
330
407
100
AcDbEntity
  8
Capa 1
 62
     7
370
    25
100
AcDbVertex
100
AcDb2dVertex
 10
124.9743662678182
 20
242.3526364891067
 30
0.0
  0
SEQEND
  5
40A
330
407
100
AcDbEntity
  8
Capa 1
370
    25
  0
ENDBLK
  5
406
330
403
100
AcDbEntity
  8
0
100
AcDbBlockEnd
  0
BLOCK
  5
40D
330
40B
100
AcDbEntity
  8
0
100
AcDbBlockBegin
  2
block 146
 70
     0
 71
     0
 10
0.0
 20
0.0
 30
0.0
  3
block 146
  1

  0
INSERT
  5
410
330
40B
100
AcDbEntity
  8
Capa 1
100
AcDbBlockReference
  2
block 147
 10
0.0
 20
0.0
 30
0.0
  0
INSERT
  5
418
330
40B
100
AcDbEntity
  8
Capa 1
100
AcDbBlockReference
  2
block 148
 10
0.0
 20
0.0
 30
0.0
  0
INSERT
  5
420
330
40B
100
AcDbEntity
  8
Capa 1
100
AcDbBlockReference
  2
block 149
 10
0.0
 20
0.0
 30
0.0
  0
INSERT
  5
428
330
40B
100
AcDbEntity
  8
Capa 1
100
AcDbBlockReference
  2
block 150
 10
0.0
 20
0.0
 30
0.0
  0
INSERT
  5
430
330
40B
100
AcDbEntity
  8
Capa 1
100
AcDbBlockReference
  2
block 151
 10
0.0
 20
0.0
 30
0.0
  0
INSERT
  5
43B
330
40B
100
AcDbEntity
  8
Capa 1
100
AcDbBlockReference
  2
block 152
 10
0.0
 20
0.0
 30
0.0
  0
INSERT
  5
446
330
40B
100
AcDbEntity
  8
Capa 1
100
AcDbBlockReference
  2
block 153
 10
0.0
 20
0.0
 30
0.0
  0
INSERT
  5
44B
330
40B
100
AcDbEntity
  8
Capa 1
100
AcDbBlockReference
  2
block 154
 10
0.0
 20
0.0
 30
0.0
  0
INSERT
  5
453
330
40B
100
AcDbEntity
  8
Capa 1
100
AcDbBlockReference
  2
block 155
 10
0.0
 20
0.0
 30
0.0
  0
INSERT
  5
45B
330
40B
100
AcDbEntity
  8
Capa 1
100
AcDbBlockReference
  2
block 156
 10
0.0
 20
0.0
 30
0.0
  0
ENDBLK
  5
40E
330
40B
100
AcDbEntity
  8
0
100
AcDbBlockEnd
  0
BLOCK
  5
411
330
40F
100
AcDbEntity
  8
0
100
AcDbBlockBegin
  2
block 147
 70
     0
 71
     0
 10
0.0
 20
0.0
 30
0.0
  3
block 147
  1

  0
POLYLINE
  5
413
330
40F
100
AcDbEntity
  8
Capa 1
 62
     7
370
    25
100
AcDb2dPolyline
 66
     1
 10
0.0
 20
0.0
 30
0.0
  0
VERTEX
  5
414
330
413
100
AcDbEntity
  8
Capa 1
 62
     7
370
    25
100
AcDbVertex
100
AcDb2dVertex
 10
115.0045978660529
 20
240.1029876531577
 30
0.0
  0
VERTEX
  5
415
330
413
100
AcDbEntity
  8
Capa 1
 62
     7
370
    25
100
AcDbVertex
100
AcDb2dVertex
 10
115.0045978660529
 20
231.2291048482
 30
0.0
  0
SEQEND
  5
416
330
413
100
AcDbEntity
  8
Capa 1
370
    25
  0
ENDBLK
  5
412
330
40F
100
AcDbEntity
  8
0
100
AcDbBlockEnd
  0
BLOCK
  5
419
330
417
100
AcDbEntity
  8
0
100
AcDbBlockBegin
  2
block 148
 70
     0
 71
     0
 10
0.0
 20
0.0
 30
0.0
  3
block 148
  1

  0
POLYLINE
  5
41B
330
417
100
AcDbEntity
  8
Capa 1
 62
     7
370
    25
100
AcDb2dPolyline
 66
     1
 10
0.0
 20
0.0
 30
0.0
  0
VERTEX
  5
41C
330
41B
100
AcDbEntity
  8
Capa 1
 62
     7
370
    25
100
AcDbVertex
100
AcDb2dVertex
 10
124.8613670613571
 20
240.1029876531577
 30
0.0
  0
VERTEX
  5
41D
330
41B
100
AcDbEntity
  8
Capa 1
 62
     7
370
    25
100
AcDbVertex
100
AcDb2dVertex
 10
124.8613670613571
 20
231.2291048482
 30
0.0
  0
SEQEND
  5
41E
330
41B
100
AcDbEntity
  8
Capa 1
370
    25
  0
ENDBLK
  5
41A
330
417
100
AcDbEntity
  8
0
100
AcDbBlockEnd
  0
BLOCK
  5
421
330
41F
100
AcDbEntity
  8
0
100
AcDbBlockBegin
  2
block 149
 70
     0
 71
     0
 10
0.0
 20
0.0
 30
0.0
  3
block 149
  1

  0
POLYLINE
  5
423
330
41F
100
AcDbEntity
  8
Capa 1
 62
     7
370
    25
100
AcDb2dPolyline
 66
     1
 10
0.0
 20
0.0
 30
0.0
  0
VERTEX
  5
424
330
423
100
AcDbEntity
  8
Capa 1
 62
     7
370
    25
100
AcDbVertex
100
AcDb2dVertex
 10
117.8657515540401
 20
232.8190174634993
 30
0.0
  0
VERTEX
  5
425
330
423
100
AcDbEntity
  8
Capa 1
 62
     7
370
    25
100
AcDbVertex
100
AcDb2dVertex
 10
122.0002133733699
 20
232.8190174634993
 30
0.0
  0
SEQEND
  5
426
330
423
100
AcDbEntity
  8
Capa 1
370
    25
  0
ENDBLK
  5
422
330
41F
100
AcDbEntity
  8
0
100
AcDbBlockEnd
  0
BLOCK
  5
429
330
427
100
AcDbEntity
  8
0
100
AcDbBlockBegin
  2
block 150
 70
     0
 71
     0
 10
0.0
 20
0.0
 30
0.0
  3
block 150
  1

  0
POLYLINE
  5
42B
330
427
100
AcDbEntity
  8
Capa 1
 62
     7
370
    25
100
AcDb2dPolyline
 66
     1
 10
0.0
 20
0.0
 30
0.0
  0
VERTEX
  5
42C
330
42B
100
AcDbEntity
  8
Capa 1
 62
     7
370
    25
100
AcDbVertex
100
AcDb2dVertex
 10
124.8613670613571
 20
232.8190174634993
 30
0.0
  0
VERTEX
  5
42D
330
42B
100
AcDbEntity
  8
Capa 1
 62
     7
370
    25
100
AcDbVertex
100
AcDb2dVertex
 10
127.72286525912
 20
232.8190174634993
 30
0.0
  0
SEQEND
  5
42E
330
42B
100
AcDbEntity
  8
Capa 1
370
    25
  0
ENDBLK
  5
42A
330
427
100
AcDbEntity
  8
0
100
AcDbBlockEnd
  0
BLOCK
  5
431
330
42F
100
AcDbEntity
  8
0
100
AcDbBlockBegin
  2
block 151
 70
     0
 71
     0
 10
0.0
 20
0.0
 30
0.0
  3
block 151
  1

  0
POLYLINE
  5
433
330
42F
100
AcDbEntity
  8
Capa 1
370
     0
100
AcDb2dPolyline
 66
     1
 10
0.0
 20
0.0
 30
0.0
  0
VERTEX
  5
434
330
433
100
AcDbEntity
  8
Capa 1
370
     0
100
AcDbVertex
100
AcDb2dVertex
 10
117.8657515540401
 20
233.2958189932012
 30
0.0
  0
VERTEX
  5
435
330
433
100
AcDbEntity
  8
Capa 1
370
     0
100
AcDbVertex
100
AcDb2dVertex
 10
117.8657515540401
 20
232.3420436789095
 30
0.0
  0
VERTEX
  5
436
330
433
100
AcDbEntity
  8
Capa 1
370
     0
100
AcDbVertex
100
AcDb2dVertex
 10
115.0045978660529
 20
232.8190174634993
 30
0.0
  0
VERTEX
  5
437
330
433
100
AcDbEntity
  8
Capa 1
370
     0
100
AcDbVertex
100
AcDb2dVertex
 10
117.8657515540401
 20
233.2958189932012
 30
0.0
  0
SEQEND
  5
438
330
433
100
AcDbEntity
  8
Capa 1
370
     0
  0
HATCH
  5
439
330
42F
100
AcDbEntity
  8
Capa 1
 62
     7
100
AcDbHatch
 10
0.0
 20
0.0
 30
0.0
210
0.0
220
0.0
230
1.0
  2
SOLID
 70
     1
 71
     0
 91
        1
 92
        1
 93
        3
 72
     1
 10
117.8657515540401
 20
233.2958189932012
 11
117.8657515540401
 21
232.3420436789095
 72
     1
 10
117.8657515540401
 20
232.3420436789095
 11
115.0045978660529
 21
232.8190174634993
 72
     1
 10
115.0045978660529
 20
232.8190174634993
 11
117.8657515540401
 21
233.2958189932012
 97
        0
 75
     2
 76
     1
 98
        0
  0
ENDBLK
  5
432
330
42F
100
AcDbEntity
  8
0
100
AcDbBlockEnd
  0
BLOCK
  5
43C
330
43A
100
AcDbEntity
  8
0
100
AcDbBlockBegin
  2
block 152
 70
     0
 71
     0
 10
0.0
 20
0.0
 30
0.0
  3
block 152
  1

  0
POLYLINE
  5
43E
330
43A
100
AcDbEntity
  8
Capa 1
370
     0
100
AcDb2dPolyline
 66
     1
 10
0.0
 20
0.0
 30
0.0
  0
VERTEX
  5
43F
330
43E
100
AcDbEntity
  8
Capa 1
370
     0
100
AcDbVertex
100
AcDb2dVertex
 10
122.0002133733699
 20
233.2958189932012
 30
0.0
  0
VERTEX
  5
440
330
43E
100
AcDbEntity
  8
Capa 1
370
     0
100
AcDbVertex
100
AcDb2dVertex
 10
122.0002133733699
 20
232.3420436789095
 30
0.0
  0
VERTEX
  5
441
330
43E
100
AcDbEntity
  8
Capa 1
370
     0
100
AcDbVertex
100
AcDb2dVertex
 10
124.8613670613571
 20
232.8190174634993
 30
0.0
  0
VERTEX
  5
442
330
43E
100
AcDbEntity
  8
Capa 1
370
     0
100
AcDbVertex
100
AcDb2dVertex
 10
122.0002133733699
 20
233.2958189932012
 30
0.0
  0
SEQEND
  5
443
330
43E
100
AcDbEntity
  8
Capa 1
370
     0
  0
HATCH
  5
444
330
43A
100
AcDbEntity
  8
Capa 1
 62
     7
100
AcDbHatch
 10
0.0
 20
0.0
 30
0.0
210
0.0
220
0.0
230
1.0
  2
SOLID
 70
     1
 71
     0
 91
        1
 92
        1
 93
        3
 72
     1
 10
122.0002133733699
 20
233.2958189932012
 11
122.0002133733699
 21
232.3420436789095
 72
     1
 10
122.0002133733699
 20
232.3420436789095
 11
124.8613670613571
 21
232.8190174634993
 72
     1
 10
124.8613670613571
 20
232.8190174634993
 11
122.0002133733699
 21
233.2958189932012
 97
        0
 75
     2
 76
     1
 98
        0
  0
ENDBLK
  5
43D
330
43A
100
AcDbEntity
  8
0
100
AcDbBlockEnd
  0
BLOCK
  5
447
330
445
100
AcDbEntity
  8
0
100
AcDbBlockBegin
  2
block 153
 70
     0
 71
     0
 10
0.0
 20
0.0
 30
0.0
  3
block 153
  1

  0
MTEXT
  5
449
330
445
100
AcDbEntity
  8
Capa 1
 62
     7
100
AcDbMText
 10
128.8583694801442
 20
231.2294493579758
 30
0.0
 40
3.179522990557443
 41
0.0
 71
     7
 72
     1
  1
\fMyriad Pro|b0|i0|c0|p34;\W1;\U+00D862
 73
     1
 44
1.0
  0
ENDBLK
  5
448
330
445
100
AcDbEntity
  8
0
100
AcDbBlockEnd
  0
BLOCK
  5
44C
330
44A
100
AcDbEntity
  8
0
100
AcDbBlockBegin
  2
block 154
 70
     0
 71
     0
 10
0.0
 20
0.0
 30
0.0
  3
block 154
  1

  0
POLYLINE
  5
44E
330
44A
100
AcDbEntity
  8
Capa 1
370
     0
100
AcDb2dPolyline
 66
     1
 10
0.0
 20
0.0
 30
0.0
  0
VERTEX
  5
44F
330
44E
100
AcDbEntity
  8
Capa 1
370
     0
100
AcDbVertex
100
AcDb2dVertex
 10
115.0045978660529
 20
241.6927280135691
 30
0.0
  0
VERTEX
  5
450
330
44E
100
AcDbEntity
  8
Capa 1
370
     0
100
AcDbVertex
100
AcDb2dVertex
 10
115.0045978660529
 20
241.6927280135691
 30
0.0
  0
SEQEND
  5
451
330
44E
100
AcDbEntity
  8
Capa 1
370
     0
  0
ENDBLK
  5
44D
330
44A
100
AcDbEntity
  8
0
100
AcDbBlockEnd
  0
BLOCK
  5
454
330
452
100
AcDbEntity
  8
0
100
AcDbBlockBegin
  2
block 155
 70
     0
 71
     0
 10
0.0
 20
0.0
 30
0.0
  3
block 155
  1

  0
POLYLINE
  5
456
330
452
100
AcDbEntity
  8
Capa 1
370
     0
100
AcDb2dPolyline
 66
     1
 10
0.0
 20
0.0
 30
0.0
  0
VERTEX
  5
457
330
456
100
AcDbEntity
  8
Capa 1
370
     0
100
AcDbVertex
100
AcDb2dVertex
 10
124.8613670613571
 20
241.6927280135691
 30
0.0
  0
VERTEX
  5
458
330
456
100
AcDbEntity
  8
Capa 1
370
     0
100
AcDbVertex
100
AcDb2dVertex
 10
124.8613670613571
 20
241.6927280135691
 30
0.0
  0
SEQEND
  5
459
330
456
100
AcDbEntity
  8
Capa 1
370
     0
  0
ENDBLK
  5
455
330
452
100
AcDbEntity
  8
0
100
AcDbBlockEnd
  0
BLOCK
  5
45C
330
45A
100
AcDbEntity
  8
0
100
AcDbBlockBegin
  2
block 156
 70
     0
 71
     0
 10
0.0
 20
0.0
 30
0.0
  3
block 156
  1

  0
POLYLINE
  5
45E
330
45A
100
AcDbEntity
  8
Capa 1
370
     0
100
AcDb2dPolyline
 66
     1
 10
0.0
 20
0.0
 30
0.0
  0
VERTEX
  5
45F
330
45E
100
AcDbEntity
  8
Capa 1
370
     0
100
AcDbVertex
100
AcDb2dVertex
 10
124.8613670613571
 20
232.8190174634993
 30
0.0
  0
VERTEX
  5
460
330
45E
100
AcDbEntity
  8
Capa 1
370
     0
100
AcDbVertex
100
AcDb2dVertex
 10
124.8613670613571
 20
232.8190174634993
 30
0.0
  0
SEQEND
  5
461
330
45E
100
AcDbEntity
  8
Capa 1
370
     0
  0
ENDBLK
  5
45D
330
45A
100
AcDbEntity
  8
0
100
AcDbBlockEnd
  0
BLOCK
  5
464
330
462
100
AcDbEntity
  8
0
100
AcDbBlockBegin
  2
block 157
 70
     0
 71
     0
 10
0.0
 20
0.0
 30
0.0
  3
block 157
  1

  0
INSERT
  5
467
330
462
100
AcDbEntity
  8
Capa 1
100
AcDbBlockReference
  2
block 158
 10
0.0
 20
0.0
 30
0.0
  0
INSERT
  5
46F
330
462
100
AcDbEntity
  8
Capa 1
100
AcDbBlockReference
  2
block 159
 10
0.0
 20
0.0
 30
0.0
  0
INSERT
  5
477
330
462
100
AcDbEntity
  8
Capa 1
100
AcDbBlockReference
  2
block 160
 10
0.0
 20
0.0
 30
0.0
  0
INSERT
  5
47F
330
462
100
AcDbEntity
  8
Capa 1
100
AcDbBlockReference
  2
block 161
 10
0.0
 20
0.0
 30
0.0
  0
INSERT
  5
487
330
462
100
AcDbEntity
  8
Capa 1
100
AcDbBlockReference
  2
block 162
 10
0.0
 20
0.0
 30
0.0
  0
INSERT
  5
492
330
462
100
AcDbEntity
  8
Capa 1
100
AcDbBlockReference
  2
block 163
 10
0.0
 20
0.0
 30
0.0
  0
INSERT
  5
49D
330
462
100
AcDbEntity
  8
Capa 1
100
AcDbBlockReference
  2
block 164
 10
0.0
 20
0.0
 30
0.0
  0
INSERT
  5
4A2
330
462
100
AcDbEntity
  8
Capa 1
100
AcDbBlockReference
  2
block 165
 10
0.0
 20
0.0
 30
0.0
  0
INSERT
  5
4AA
330
462
100
AcDbEntity
  8
Capa 1
100
AcDbBlockReference
  2
block 166
 10
0.0
 20
0.0
 30
0.0
  0
INSERT
  5
4B2
330
462
100
AcDbEntity
  8
Capa 1
100
AcDbBlockReference
  2
block 167
 10
0.0
 20
0.0
 30
0.0
  0
ENDBLK
  5
465
330
462
100
AcDbEntity
  8
0
100
AcDbBlockEnd
  0
BLOCK
  5
468
330
466
100
AcDbEntity
  8
0
100
AcDbBlockBegin
  2
block 158
 70
     0
 71
     0
 10
0.0
 20
0.0
 30
0.0
  3
block 158
  1

  0
POLYLINE
  5
46A
330
466
100
AcDbEntity
  8
Capa 1
 62
     7
370
    25
100
AcDb2dPolyline
 66
     1
 10
0.0
 20
0.0
 30
0.0
  0
VERTEX
  5
46B
330
46A
100
AcDbEntity
  8
Capa 1
 62
     7
370
    25
100
AcDbVertex
100
AcDb2dVertex
 10
40.48127669515302
 20
254.4091006028694
 30
0.0
  0
VERTEX
  5
46C
330
46A
100
AcDbEntity
  8
Capa 1
 62
     7
370
    25
100
AcDbVertex
100
AcDb2dVertex
 10
22.29357210154588
 20
254.4091006028694
 30
0.0
  0
SEQEND
  5
46D
330
46A
100
AcDbEntity
  8
Capa 1
370
    25
  0
ENDBLK
  5
469
330
466
100
AcDbEntity
  8
0
100
AcDbBlockEnd
  0
BLOCK
  5
470
330
46E
100
AcDbEntity
  8
0
100
AcDbBlockBegin
  2
block 159
 70
     0
 71
     0
 10
0.0
 20
0.0
 30
0.0
  3
block 159
  1

  0
POLYLINE
  5
472
330
46E
100
AcDbEntity
  8
Capa 1
 62
     7
370
    25
100
AcDb2dPolyline
 66
     1
 10
0.0
 20
0.0
 30
0.0
  0
VERTEX
  5
473
330
472
100
AcDbEntity
  8
Capa 1
 62
     7
370
    25
100
AcDbVertex
100
AcDb2dVertex
 10
39.81017165190209
 20
240.8979439608074
 30
0.0
  0
VERTEX
  5
474
330
472
100
AcDbEntity
  8
Capa 1
 62
     7
370
    25
100
AcDbVertex
100
AcDb2dVertex
 10
22.29357210154588
 20
240.8979439608074
 30
0.0
  0
SEQEND
  5
475
330
472
100
AcDbEntity
  8
Capa 1
370
    25
  0
ENDBLK
  5
471
330
46E
100
AcDbEntity
  8
0
100
AcDbBlockEnd
  0
BLOCK
  5
478
330
476
100
AcDbEntity
  8
0
100
AcDbBlockBegin
  2
block 160
 70
     0
 71
     0
 10
0.0
 20
0.0
 30
0.0
  3
block 160
  1

  0
POLYLINE
  5
47A
330
476
100
AcDbEntity
  8
Capa 1
 62
     7
370
    25
100
AcDb2dPolyline
 66
     1
 10
0.0
 20
0.0
 30
0.0
  0
VERTEX
  5
47B
330
47A
100
AcDbEntity
  8
Capa 1
 62
     7
370
    25
100
AcDbVertex
100
AcDb2dVertex
 10
23.8833124619573
 20
251.5476024051064
 30
0.0
  0
VERTEX
  5
47C
330
47A
100
AcDbEntity
  8
Capa 1
 62
     7
370
    25
100
AcDbVertex
100
AcDb2dVertex
 10
23.8833124619573
 20
251.1298843019536
 30
0.0
  0
SEQEND
  5
47D
330
47A
100
AcDbEntity
  8
Capa 1
370
    25
  0
ENDBLK
  5
479
330
476
100
AcDbEntity
  8
0
100
AcDbBlockEnd
  0
BLOCK
  5
480
330
47E
100
AcDbEntity
  8
0
100
AcDbBlockBegin
  2
block 161
 70
     0
 71
     0
 10
0.0
 20
0.0
 30
0.0
  3
block 161
  1

  0
POLYLINE
  5
482
330
47E
100
AcDbEntity
  8
Capa 1
 62
     7
370
    25
100
AcDb2dPolyline
 66
     1
 10
0.0
 20
0.0
 30
0.0
  0
VERTEX
  5
483
330
482
100
AcDbEntity
  8
Capa 1
 62
     7
370
    25
100
AcDbVertex
100
AcDb2dVertex
 10
23.8833124619573
 20
243.7594421585704
 30
0.0
  0
VERTEX
  5
484
330
482
100
AcDbEntity
  8
Capa 1
 62
     7
370
    25
100
AcDbVertex
100
AcDb2dVertex
 10
23.8833124619573
 20
244.77075060542
 30
0.0
  0
SEQEND
  5
485
330
482
100
AcDbEntity
  8
Capa 1
370
    25
  0
ENDBLK
  5
481
330
47E
100
AcDbEntity
  8
0
100
AcDbBlockEnd
  0
BLOCK
  5
488
330
486
100
AcDbEntity
  8
0
100
AcDbBlockBegin
  2
block 162
 70
     0
 71
     0
 10
0.0
 20
0.0
 30
0.0
  3
block 162
  1

  0
POLYLINE
  5
48A
330
486
100
AcDbEntity
  8
Capa 1
370
     0
100
AcDb2dPolyline
 66
     1
 10
0.0
 20
0.0
 30
0.0
  0
VERTEX
  5
48B
330
48A
100
AcDbEntity
  8
Capa 1
370
     0
100
AcDbVertex
100
AcDb2dVertex
 10
23.40633867736751
 20
251.5476024051064
 30
0.0
  0
VERTEX
  5
48C
330
48A
100
AcDbEntity
  8
Capa 1
370
     0
100
AcDbVertex
100
AcDb2dVertex
 10
24.3601139916592
 20
251.5476024051064
 30
0.0
  0
VERTEX
  5
48D
330
48A
100
AcDbEntity
  8
Capa 1
370
     0
100
AcDbVertex
100
AcDb2dVertex
 10
23.8833124619573
 20
254.4091006028694
 30
0.0
  0
VERTEX
  5
48E
330
48A
100
AcDbEntity
  8
Capa 1
370
     0
100
AcDbVertex
100
AcDb2dVertex
 10
23.40633867736751
 20
251.5476024051064
 30
0.0
  0
SEQEND
  5
48F
330
48A
100
AcDbEntity
  8
Capa 1
370
     0
  0
HATCH
  5
490
330
486
100
AcDbEntity
  8
Capa 1
 62
     7
100
AcDbHatch
 10
0.0
 20
0.0
 30
0.0
210
0.0
220
0.0
230
1.0
  2
SOLID
 70
     1
 71
     0
 91
        1
 92
        1
 93
        3
 72
     1
 10
23.40633867736751
 20
251.5476024051064
 11
24.3601139916592
 21
251.5476024051064
 72
     1
 10
24.3601139916592
 20
251.5476024051064
 11
23.8833124619573
 21
254.4091006028694
 72
     1
 10
23.8833124619573
 20
254.4091006028694
 11
23.40633867736751
 21
251.5476024051064
 97
        0
 75
     2
 76
     1
 98
        0
  0
ENDBLK
  5
489
330
486
100
AcDbEntity
  8
0
100
AcDbBlockEnd
  0
BLOCK
  5
493
330
491
100
AcDbEntity
  8
0
100
AcDbBlockBegin
  2
block 163
 70
     0
 71
     0
 10
0.0
 20
0.0
 30
0.0
  3
block 163
  1

  0
POLYLINE
  5
495
330
491
100
AcDbEntity
  8
Capa 1
370
     0
100
AcDb2dPolyline
 66
     1
 10
0.0
 20
0.0
 30
0.0
  0
VERTEX
  5
496
330
495
100
AcDbEntity
  8
Capa 1
370
     0
100
AcDbVertex
100
AcDb2dVertex
 10
23.40633867736751
 20
243.7594421585704
 30
0.0
  0
VERTEX
  5
497
330
495
100
AcDbEntity
  8
Capa 1
370
     0
100
AcDbVertex
100
AcDb2dVertex
 10
24.3601139916592
 20
243.7594421585704
 30
0.0
  0
VERTEX
  5
498
330
495
100
AcDbEntity
  8
Capa 1
370
     0
100
AcDbVertex
100
AcDb2dVertex
 10
23.8833124619573
 20
240.8979439608074
 30
0.0
  0
VERTEX
  5
499
330
495
100
AcDbEntity
  8
Capa 1
370
     0
100
AcDbVertex
100
AcDb2dVertex
 10
23.40633867736751
 20
243.7594421585704
 30
0.0
  0
SEQEND
  5
49A
330
495
100
AcDbEntity
  8
Capa 1
370
     0
  0
HATCH
  5
49B
330
491
100
AcDbEntity
  8
Capa 1
 62
     7
100
AcDbHatch
 10
0.0
 20
0.0
 30
0.0
210
0.0
220
0.0
230
1.0
  2
SOLID
 70
     1
 71
     0
 91
        1
 92
        1
 93
        3
 72
     1
 10
23.40633867736751
 20
243.7594421585704
 11
24.3601139916592
 21
243.7594421585704
 72
     1
 10
24.3601139916592
 20
243.7594421585704
 11
23.8833124619573
 21
240.8979439608074
 72
     1
 10
23.8833124619573
 20
240.8979439608074
 11
23.40633867736751
 21
243.7594421585704
 97
        0
 75
     2
 76
     1
 98
        0
  0
ENDBLK
  5
494
330
491
100
AcDbEntity
  8
0
100
AcDbBlockEnd
  0
BLOCK
  5
49E
330
49C
100
AcDbEntity
  8
0
100
AcDbBlockBegin
  2
block 164
 70
     0
 71
     0
 10
0.0
 20
0.0
 30
0.0
  3
block 164
  1

  0
MTEXT
  5
4A0
330
49C
100
AcDbEntity
  8
Capa 1
 62
     7
100
AcDbMText
 10
20.85507153270898
 20
246.3606632207193
 30
0.0
 40
3.179522990557443
 41
0.0
 71
     7
 72
     1
  1
\fMyriad Pro|b0|i0|c0|p34;\W1;85
 73
     1
 44
1.0
  0
ENDBLK
  5
49F
330
49C
100
AcDbEntity
  8
0
100
AcDbBlockEnd
  0
BLOCK
  5
4A3
330
4A1
100
AcDbEntity
  8
0
100
AcDbBlockBegin
  2
block 165
 70
     0
 71
     0
 10
0.0
 20
0.0
 30
0.0
  3
block 165
  1

  0
POLYLINE
  5
4A5
330
4A1
100
AcDbEntity
  8
Capa 1
370
     0
100
AcDb2dPolyline
 66
     1
 10
0.0
 20
0.0
 30
0.0
  0
VERTEX
  5
4A6
330
4A5
100
AcDbEntity
  8
Capa 1
370
     0
100
AcDbVertex
100
AcDb2dVertex
 10
42.07101705556445
 20
254.4091006028694
 30
0.0
  0
VERTEX
  5
4A7
330
4A5
100
AcDbEntity
  8
Capa 1
370
     0
100
AcDbVertex
100
AcDb2dVertex
 10
42.07101705556445
 20
254.4091006028694
 30
0.0
  0
SEQEND
  5
4A8
330
4A5
100
AcDbEntity
  8
Capa 1
370
     0
  0
ENDBLK
  5
4A4
330
4A1
100
AcDbEntity
  8
0
100
AcDbBlockEnd
  0
BLOCK
  5
4AB
330
4A9
100
AcDbEntity
  8
0
100
AcDbBlockBegin
  2
block 166
 70
     0
 71
     0
 10
0.0
 20
0.0
 30
0.0
  3
block 166
  1

  0
POLYLINE
  5
4AD
330
4A9
100
AcDbEntity
  8
Capa 1
370
     0
100
AcDb2dPolyline
 66
     1
 10
0.0
 20
0.0
 30
0.0
  0
VERTEX
  5
4AE
330
4AD
100
AcDbEntity
  8
Capa 1
370
     0
100
AcDbVertex
100
AcDb2dVertex
 10
41.39973975742561
 20
240.8979439608074
 30
0.0
  0
VERTEX
  5
4AF
330
4AD
100
AcDbEntity
  8
Capa 1
370
     0
100
AcDbVertex
100
AcDb2dVertex
 10
41.39973975742561
 20
240.8979439608074
 30
0.0
  0
SEQEND
  5
4B0
330
4AD
100
AcDbEntity
  8
Capa 1
370
     0
  0
ENDBLK
  5
4AC
330
4A9
100
AcDbEntity
  8
0
100
AcDbBlockEnd
  0
BLOCK
  5
4B3
330
4B1
100
AcDbEntity
  8
0
100
AcDbBlockBegin
  2
block 167
 70
     0
 71
     0
 10
0.0
 20
0.0
 30
0.0
  3
block 167
  1

  0
POLYLINE
  5
4B5
330
4B1
100
AcDbEntity
  8
Capa 1
370
     0
100
AcDb2dPolyline
 66
     1
 10
0.0
 20
0.0
 30
0.0
  0
VERTEX
  5
4B6
330
4B5
100
AcDbEntity
  8
Capa 1
370
     0
100
AcDbVertex
100
AcDb2dVertex
 10
23.8833124619573
 20
240.8979439608074
 30
0.0
  0
VERTEX
  5
4B7
330
4B5
100
AcDbEntity
  8
Capa 1
370
     0
100
AcDbVertex
100
AcDb2dVertex
 10
23.8833124619573
 20
240.8979439608074
 30
0.0
  0
SEQEND
  5
4B8
330
4B5
100
AcDbEntity
  8
Capa 1
370
     0
  0
ENDBLK
  5
4B4
330
4B1
100
AcDbEntity
  8
0
100
AcDbBlockEnd
  0
BLOCK
  5
4BB
330
4B9
100
AcDbEntity
  8
0
100
AcDbBlockBegin
  2
block 168
 70
     0
 71
     0
 10
0.0
 20
0.0
 30
0.0
  3
block 168
  1

  0
INSERT
  5
4BE
330
4B9
100
AcDbEntity
  8
Capa 1
100
AcDbBlockReference
  2
block 169
 10
0.0
 20
0.0
 30
0.0
  0
INSERT
  5
4C6
330
4B9
100
AcDbEntity
  8
Capa 1
100
AcDbBlockReference
  2
block 170
 10
0.0
 20
0.0
 30
0.0
  0
INSERT
  5
4CE
330
4B9
100
AcDbEntity
  8
Capa 1
100
AcDbBlockReference
  2
block 171
 10
0.0
 20
0.0
 30
0.0
  0
INSERT
  5
4D6
330
4B9
100
AcDbEntity
  8
Capa 1
100
AcDbBlockReference
  2
block 172
 10
0.0
 20
0.0
 30
0.0
  0
INSERT
  5
4DE
330
4B9
100
AcDbEntity
  8
Capa 1
100
AcDbBlockReference
  2
block 173
 10
0.0
 20
0.0
 30
0.0
  0
INSERT
  5
4E9
330
4B9
100
AcDbEntity
  8
Capa 1
100
AcDbBlockReference
  2
block 174
 10
0.0
 20
0.0
 30
0.0
  0
INSERT
  5
4F4
330
4B9
100
AcDbEntity
  8
Capa 1
100
AcDbBlockReference
  2
block 175
 10
0.0
 20
0.0
 30
0.0
  0
INSERT
  5
4F9
330
4B9
100
AcDbEntity
  8
Capa 1
100
AcDbBlockReference
  2
block 176
 10
0.0
 20
0.0
 30
0.0
  0
INSERT
  5
501
330
4B9
100
AcDbEntity
  8
Capa 1
100
AcDbBlockReference
  2
block 177
 10
0.0
 20
0.0
 30
0.0
  0
INSERT
  5
509
330
4B9
100
AcDbEntity
  8
Capa 1
100
AcDbBlockReference
  2
block 178
 10
0.0
 20
0.0
 30
0.0
  0
ENDBLK
  5
4BC
330
4B9
100
AcDbEntity
  8
0
100
AcDbBlockEnd
  0
BLOCK
  5
4BF
330
4BD
100
AcDbEntity
  8
0
100
AcDbBlockBegin
  2
block 169
 70
     0
 71
     0
 10
0.0
 20
0.0
 30
0.0
  3
block 169
  1

  0
POLYLINE
  5
4C1
330
4BD
100
AcDbEntity
  8
Capa 1
 62
     7
370
    25
100
AcDb2dPolyline
 66
     1
 10
0.0
 20
0.0
 30
0.0
  0
VERTEX
  5
4C2
330
4C1
100
AcDbEntity
  8
Capa 1
 62
     7
370
    25
100
AcDbVertex
100
AcDb2dVertex
 10
119.9334992283687
 20
74.4471845104489
 30
0.0
  0
VERTEX
  5
4C3
330
4C1
100
AcDbEntity
  8
Capa 1
 62
     7
370
    25
100
AcDbVertex
100
AcDb2dVertex
 10
119.9334992283687
 20
54.41945320431442
 30
0.0
  0
SEQEND
  5
4C4
330
4C1
100
AcDbEntity
  8
Capa 1
370
    25
  0
ENDBLK
  5
4C0
330
4BD
100
AcDbEntity
  8
0
100
AcDbBlockEnd
  0
BLOCK
  5
4C7
330
4C5
100
AcDbEntity
  8
0
100
AcDbBlockBegin
  2
block 170
 70
     0
 71
     0
 10
0.0
 20
0.0
 30
0.0
  3
block 170
  1

  0
POLYLINE
  5
4C9
330
4C5
100
AcDbEntity
  8
Capa 1
 62
     7
370
    25
100
AcDb2dPolyline
 66
     1
 10
0.0
 20
0.0
 30
0.0
  0
VERTEX
  5
4CA
330
4C9
100
AcDbEntity
  8
Capa 1
 62
     7
370
    25
100
AcDbVertex
100
AcDb2dVertex
 10
40.44596444313392
 20
65.70387091051794
 30
0.0
  0
VERTEX
  5
4CB
330
4C9
100
AcDbEntity
  8
Capa 1
 62
     7
370
    25
100
AcDbVertex
100
AcDb2dVertex
 10
40.44596444313392
 20
54.41945320431442
 30
0.0
  0
SEQEND
  5
4CC
330
4C9
100
AcDbEntity
  8
Capa 1
370
    25
  0
ENDBLK
  5
4C8
330
4C5
100
AcDbEntity
  8
0
100
AcDbBlockEnd
  0
BLOCK
  5
4CF
330
4CD
100
AcDbEntity
  8
0
100
AcDbBlockBegin
  2
block 171
 70
     0
 71
     0
 10
0.0
 20
0.0
 30
0.0
  3
block 171
  1

  0
POLYLINE
  5
4D1
330
4CD
100
AcDbEntity
  8
Capa 1
 62
     7
370
    25
100
AcDb2dPolyline
 66
     1
 10
0.0
 20
0.0
 30
0.0
  0
VERTEX
  5
4D2
330
4D1
100
AcDbEntity
  8
Capa 1
 62
     7
370
    25
100
AcDbVertex
100
AcDb2dVertex
 10
117.0723455403815
 20
56.00902130983795
 30
0.0
  0
VERTEX
  5
4D3
330
4D1
100
AcDbEntity
  8
Capa 1
 62
     7
370
    25
100
AcDbVertex
100
AcDb2dVertex
 10
85.8678558329798
 20
56.00902130983795
 30
0.0
  0
SEQEND
  5
4D4
330
4D1
100
AcDbEntity
  8
Capa 1
370
    25
  0
ENDBLK
  5
4D0
330
4CD
100
AcDbEntity
  8
0
100
AcDbBlockEnd
  0
BLOCK
  5
4D7
330
4D5
100
AcDbEntity
  8
0
100
AcDbBlockBegin
  2
block 172
 70
     0
 71
     0
 10
0.0
 20
0.0
 30
0.0
  3
block 172
  1

  0
POLYLINE
  5
4D9
330
4D5
100
AcDbEntity
  8
Capa 1
 62
     7
370
    25
100
AcDb2dPolyline
 66
     1
 10
0.0
 20
0.0
 30
0.0
  0
VERTEX
  5
4DA
330
4D9
100
AcDbEntity
  8
Capa 1
 62
     7
370
    25
100
AcDbVertex
100
AcDb2dVertex
 10
43.30763489578479
 20
56.00902130983795
 30
0.0
  0
VERTEX
  5
4DB
330
4D9
100
AcDbEntity
  8
Capa 1
 62
     7
370
    25
100
AcDbVertex
100
AcDb2dVertex
 10
74.51229685807438
 20
56.00902130983795
 30
0.0
  0
SEQEND
  5
4DC
330
4D9
100
AcDbEntity
  8
Capa 1
370
    25
  0
ENDBLK
  5
4D8
330
4D5
100
AcDbEntity
  8
0
100
AcDbBlockEnd
  0
BLOCK
  5
4DF
330
4DD
100
AcDbEntity
  8
0
100
AcDbBlockBegin
  2
block 173
 70
     0
 71
     0
 10
0.0
 20
0.0
 30
0.0
  3
block 173
  1

  0
POLYLINE
  5
4E1
330
4DD
100
AcDbEntity
  8
Capa 1
370
     0
100
AcDb2dPolyline
 66
     1
 10
0.0
 20
0.0
 30
0.0
  0
VERTEX
  5
4E2
330
4E1
100
AcDbEntity
  8
Capa 1
370
     0
100
AcDbVertex
100
AcDb2dVertex
 10
117.0723455403815
 20
56.48616734931564
 30
0.0
  0
VERTEX
  5
4E3
330
4E1
100
AcDbEntity
  8
Capa 1
370
     0
100
AcDbVertex
100
AcDb2dVertex
 10
117.0723455403815
 20
55.53221978013605
 30
0.0
  0
VERTEX
  5
4E4
330
4E1
100
AcDbEntity
  8
Capa 1
370
     0
100
AcDbVertex
100
AcDb2dVertex
 10
119.9334992283687
 20
56.00902130983795
 30
0.0
  0
VERTEX
  5
4E5
330
4E1
100
AcDbEntity
  8
Capa 1
370
     0
100
AcDbVertex
100
AcDb2dVertex
 10
117.0723455403815
 20
56.48616734931564
 30
0.0
  0
SEQEND
  5
4E6
330
4E1
100
AcDbEntity
  8
Capa 1
370
     0
  0
HATCH
  5
4E7
330
4DD
100
AcDbEntity
  8
Capa 1
 62
     7
100
AcDbHatch
 10
0.0
 20
0.0
 30
0.0
210
0.0
220
0.0
230
1.0
  2
SOLID
 70
     1
 71
     0
 91
        1
 92
        1
 93
        3
 72
     1
 10
117.0723455403815
 20
56.48616734931564
 11
117.0723455403815
 21
55.53221978013605
 72
     1
 10
117.0723455403815
 20
55.53221978013605
 11
119.9334992283687
 21
56.00902130983795
 72
     1
 10
119.9334992283687
 20
56.00902130983795
 11
117.0723455403815
 21
56.48616734931564
 97
        0
 75
     2
 76
     1
 98
        0
  0
ENDBLK
  5
4E0
330
4DD
100
AcDbEntity
  8
0
100
AcDbBlockEnd
  0
BLOCK
  5
4EA
330
4E8
100
AcDbEntity
  8
0
100
AcDbBlockBegin
  2
block 174
 70
     0
 71
     0
 10
0.0
 20
0.0
 30
0.0
  3
block 174
  1

  0
POLYLINE
  5
4EC
330
4E8
100
AcDbEntity
  8
Capa 1
370
     0
100
AcDb2dPolyline
 66
     1
 10
0.0
 20
0.0
 30
0.0
  0
VERTEX
  5
4ED
330
4EC
100
AcDbEntity
  8
Capa 1
370
     0
100
AcDbVertex
100
AcDb2dVertex
 10
43.30763489578479
 20
56.48616734931564
 30
0.0
  0
VERTEX
  5
4EE
330
4EC
100
AcDbEntity
  8
Capa 1
370
     0
100
AcDbVertex
100
AcDb2dVertex
 10
43.30763489578479
 20
55.53221978013605
 30
0.0
  0
VERTEX
  5
4EF
330
4EC
100
AcDbEntity
  8
Capa 1
370
     0
100
AcDbVertex
100
AcDb2dVertex
 10
40.44596444313392
 20
56.00902130983795
 30
0.0
  0
VERTEX
  5
4F0
330
4EC
100
AcDbEntity
  8
Capa 1
370
     0
100
AcDbVertex
100
AcDb2dVertex
 10
43.30763489578479
 20
56.48616734931564
 30
0.0
  0
SEQEND
  5
4F1
330
4EC
100
AcDbEntity
  8
Capa 1
370
     0
  0
HATCH
  5
4F2
330
4E8
100
AcDbEntity
  8
Capa 1
 62
     7
100
AcDbHatch
 10
0.0
 20
0.0
 30
0.0
210
0.0
220
0.0
230
1.0
  2
SOLID
 70
     1
 71
     0
 91
        1
 92
        1
 93
        3
 72
     1
 10
43.30763489578479
 20
56.48616734931564
 11
43.30763489578479
 21
55.53221978013605
 72
     1
 10
43.30763489578479
 20
55.53221978013605
 11
40.44596444313392
 21
56.00902130983795
 72
     1
 10
40.44596444313392
 20
56.00902130983795
 11
43.30763489578479
 21
56.48616734931564
 97
        0
 75
     2
 76
     1
 98
        0
  0
ENDBLK
  5
4EB
330
4E8
100
AcDbEntity
  8
0
100
AcDbBlockEnd
  0
BLOCK
  5
4F5
330
4F3
100
AcDbEntity
  8
0
100
AcDbBlockBegin
  2
block 175
 70
     0
 71
     0
 10
0.0
 20
0.0
 30
0.0
  3
block 175
  1

  0
MTEXT
  5
4F7
330
4F3
100
AcDbEntity
  8
Capa 1
 62
     7
100
AcDbMText
 10
75.64745656932276
 20
54.41979771409022
 30
0.0
 40
3.179522990557443
 41
0.0
 71
     7
 72
     1
  1
\fMyriad Pro|b0|i0|c0|p34;\W1;500
 73
     1
 44
1.0
  0
ENDBLK
  5
4F6
330
4F3
100
AcDbEntity
  8
0
100
AcDbBlockEnd
  0
BLOCK
  5
4FA
330
4F8
100
AcDbEntity
  8
0
100
AcDbBlockBegin
  2
block 176
 70
     0
 71
     0
 10
0.0
 20
0.0
 30
0.0
  3
block 176
  1

  0
POLYLINE
  5
4FC
330
4F8
100
AcDbEntity
  8
Capa 1
370
     0
100
AcDb2dPolyline
 66
     1
 10
0.0
 20
0.0
 30
0.0
  0
VERTEX
  5
4FD
330
4FC
100
AcDbEntity
  8
Capa 1
370
     0
100
AcDbVertex
100
AcDb2dVertex
 10
119.9334992283687
 20
76.03709712574822
 30
0.0
  0
VERTEX
  5
4FE
330
4FC
100
AcDbEntity
  8
Capa 1
370
     0
100
AcDbVertex
100
AcDb2dVertex
 10
119.9334992283687
 20
76.03709712574822
 30
0.0
  0
SEQEND
  5
4FF
330
4FC
100
AcDbEntity
  8
Capa 1
370
     0
  0
ENDBLK
  5
4FB
330
4F8
100
AcDbEntity
  8
0
100
AcDbBlockEnd
  0
BLOCK
  5
502
330
500
100
AcDbEntity
  8
0
100
AcDbBlockBegin
  2
block 177
 70
     0
 71
     0
 10
0.0
 20
0.0
 30
0.0
  3
block 177
  1

  0
POLYLINE
  5
504
330
500
100
AcDbEntity
  8
Capa 1
370
     0
100
AcDb2dPolyline
 66
     1
 10
0.0
 20
0.0
 30
0.0
  0
VERTEX
  5
505
330
504
100
AcDbEntity
  8
Capa 1
370
     0
100
AcDbVertex
100
AcDb2dVertex
 10
40.44596444313392
 20
67.29343901604146
 30
0.0
  0
VERTEX
  5
506
330
504
100
AcDbEntity
  8
Capa 1
370
     0
100
AcDbVertex
100
AcDb2dVertex
 10
40.44596444313392
 20
67.29343901604146
 30
0.0
  0
SEQEND
  5
507
330
504
100
AcDbEntity
  8
Capa 1
370
     0
  0
ENDBLK
  5
503
330
500
100
AcDbEntity
  8
0
100
AcDbBlockEnd
  0
BLOCK
  5
50A
330
508
100
AcDbEntity
  8
0
100
AcDbBlockBegin
  2
block 178
 70
     0
 71
     0
 10
0.0
 20
0.0
 30
0.0
  3
block 178
  1

  0
POLYLINE
  5
50C
330
508
100
AcDbEntity
  8
Capa 1
370
     0
100
AcDb2dPolyline
 66
     1
 10
0.0
 20
0.0
 30
0.0
  0
VERTEX
  5
50D
330
50C
100
AcDbEntity
  8
Capa 1
370
     0
100
AcDbVertex
100
AcDb2dVertex
 10
40.44596444313392
 20
56.00902130983795
 30
0.0
  0
VERTEX
  5
50E
330
50C
100
AcDbEntity
  8
Capa 1
370
     0
100
AcDbVertex
100
AcDb2dVertex
 10
40.44596444313392
 20
56.00902130983795
 30
0.0
  0
SEQEND
  5
50F
330
50C
100
AcDbEntity
  8
Capa 1
370
     0
  0
ENDBLK
  5
50B
330
508
100
AcDbEntity
  8
0
100
AcDbBlockEnd
  0
BLOCK
  5
512
330
510
100
AcDbEntity
  8
0
100
AcDbBlockBegin
  2
block 179
 70
     0
 71
     0
 10
0.0
 20
0.0
 30
0.0
  3
block 179
  1

  0
INSERT
  5
515
330
510
100
AcDbEntity
  8
Capa 1
100
AcDbBlockReference
  2
block 180
 10
0.0
 20
0.0
 30
0.0
  0
INSERT
  5
51D
330
510
100
AcDbEntity
  8
Capa 1
100
AcDbBlockReference
  2
block 181
 10
0.0
 20
0.0
 30
0.0
  0
INSERT
  5
525
330
510
100
AcDbEntity
  8
Capa 1
100
AcDbBlockReference
  2
block 182
 10
0.0
 20
0.0
 30
0.0
  0
INSERT
  5
52D
330
510
100
AcDbEntity
  8
Capa 1
100
AcDbBlockReference
  2
block 183
 10
0.0
 20
0.0
 30
0.0
  0
INSERT
  5
535
330
510
100
AcDbEntity
  8
Capa 1
100
AcDbBlockReference
  2
block 184
 10
0.0
 20
0.0
 30
0.0
  0
INSERT
  5
540
330
510
100
AcDbEntity
  8
Capa 1
100
AcDbBlockReference
  2
block 185
 10
0.0
 20
0.0
 30
0.0
  0
INSERT
  5
54B
330
510
100
AcDbEntity
  8
Capa 1
100
AcDbBlockReference
  2
block 186
 10
0.0
 20
0.0
 30
0.0
  0
INSERT
  5
550
330
510
100
AcDbEntity
  8
Capa 1
100
AcDbBlockReference
  2
block 187
 10
0.0
 20
0.0
 30
0.0
  0
INSERT
  5
558
330
510
100
AcDbEntity
  8
Capa 1
100
AcDbBlockReference
  2
block 188
 10
0.0
 20
0.0
 30
0.0
  0
INSERT
  5
560
330
510
100
AcDbEntity
  8
Capa 1
100
AcDbBlockReference
  2
block 189
 10
0.0
 20
0.0
 30
0.0
  0
ENDBLK
  5
513
330
510
100
AcDbEntity
  8
0
100
AcDbBlockEnd
  0
BLOCK
  5
516
330
514
100
AcDbEntity
  8
0
100
AcDbBlockBegin
  2
block 180
 70
     0
 71
     0
 10
0.0
 20
0.0
 30
0.0
  3
block 180
  1

  0
POLYLINE
  5
518
330
514
100
AcDbEntity
  8
Capa 1
 62
     7
370
    25
100
AcDb2dPolyline
 66
     1
 10
0.0
 20
0.0
 30
0.0
  0
VERTEX
  5
519
330
518
100
AcDbEntity
  8
Capa 1
 62
     7
370
    25
100
AcDbVertex
100
AcDb2dVertex
 10
40.44596444313392
 20
65.70387091051794
 30
0.0
  0
VERTEX
  5
51A
330
518
100
AcDbEntity
  8
Capa 1
 62
     7
370
    25
100
AcDbVertex
100
AcDb2dVertex
 10
40.44596444313392
 20
43.35621077417206
 30
0.0
  0
SEQEND
  5
51B
330
518
100
AcDbEntity
  8
Capa 1
370
    25
  0
ENDBLK
  5
517
330
514
100
AcDbEntity
  8
0
100
AcDbBlockEnd
  0
BLOCK
  5
51E
330
51C
100
AcDbEntity
  8
0
100
AcDbBlockBegin
  2
block 181
 70
     0
 71
     0
 10
0.0
 20
0.0
 30
0.0
  3
block 181
  1

  0
POLYLINE
  5
520
330
51C
100
AcDbEntity
  8
Capa 1
 62
     7
370
    25
100
AcDb2dPolyline
 66
     1
 10
0.0
 20
0.0
 30
0.0
  0
VERTEX
  5
521
330
520
100
AcDbEntity
  8
Capa 1
 62
     7
370
    25
100
AcDbVertex
100
AcDb2dVertex
 10
199.4222397978187
 20
65.70387091051794
 30
0.0
  0
VERTEX
  5
522
330
520
100
AcDbEntity
  8
Capa 1
 62
     7
370
    25
100
AcDbVertex
100
AcDb2dVertex
 10
199.4222397978187
 20
43.35621077417206
 30
0.0
  0
SEQEND
  5
523
330
520
100
AcDbEntity
  8
Capa 1
370
    25
  0
ENDBLK
  5
51F
330
51C
100
AcDbEntity
  8
0
100
AcDbBlockEnd
  0
BLOCK
  5
526
330
524
100
AcDbEntity
  8
0
100
AcDbBlockBegin
  2
block 182
 70
     0
 71
     0
 10
0.0
 20
0.0
 30
0.0
  3
block 182
  1

  0
POLYLINE
  5
528
330
524
100
AcDbEntity
  8
Capa 1
 62
     7
370
    25
100
AcDb2dPolyline
 66
     1
 10
0.0
 20
0.0
 30
0.0
  0
VERTEX
  5
529
330
528
100
AcDbEntity
  8
Capa 1
 62
     7
370
    25
100
AcDbVertex
100
AcDb2dVertex
 10
43.30763489578479
 20
44.94577887969557
 30
0.0
  0
VERTEX
  5
52A
330
528
100
AcDbEntity
  8
Capa 1
 62
     7
370
    25
100
AcDbVertex
100
AcDb2dVertex
 10
112.9699231302007
 20
44.94577887969557
 30
0.0
  0
SEQEND
  5
52B
330
528
100
AcDbEntity
  8
Capa 1
370
    25
  0
ENDBLK
  5
527
330
524
100
AcDbEntity
  8
0
100
AcDbBlockEnd
  0
BLOCK
  5
52E
330
52C
100
AcDbEntity
  8
0
100
AcDbBlockBegin
  2
block 183
 70
     0
 71
     0
 10
0.0
 20
0.0
 30
0.0
  3
block 183
  1

  0
POLYLINE
  5
530
330
52C
100
AcDbEntity
  8
Capa 1
 62
     7
370
    25
100
AcDb2dPolyline
 66
     1
 10
0.0
 20
0.0
 30
0.0
  0
VERTEX
  5
531
330
530
100
AcDbEntity
  8
Capa 1
 62
     7
370
    25
100
AcDbVertex
100
AcDb2dVertex
 10
196.5607416000557
 20
44.94577887969557
 30
0.0
  0
VERTEX
  5
532
330
530
100
AcDbEntity
  8
Capa 1
 62
     7
370
    25
100
AcDbVertex
100
AcDb2dVertex
 10
126.8984533656398
 20
44.94577887969557
 30
0.0
  0
SEQEND
  5
533
330
530
100
AcDbEntity
  8
Capa 1
370
    25
  0
ENDBLK
  5
52F
330
52C
100
AcDbEntity
  8
0
100
AcDbBlockEnd
  0
BLOCK
  5
536
330
534
100
AcDbEntity
  8
0
100
AcDbBlockBegin
  2
block 184
 70
     0
 71
     0
 10
0.0
 20
0.0
 30
0.0
  3
block 184
  1

  0
POLYLINE
  5
538
330
534
100
AcDbEntity
  8
Capa 1
370
     0
100
AcDb2dPolyline
 66
     1
 10
0.0
 20
0.0
 30
0.0
  0
VERTEX
  5
539
330
538
100
AcDbEntity
  8
Capa 1
370
     0
100
AcDbVertex
100
AcDb2dVertex
 10
43.30763489578479
 20
45.42258040939748
 30
0.0
  0
VERTEX
  5
53A
330
538
100
AcDbEntity
  8
Capa 1
370
     0
100
AcDbVertex
100
AcDb2dVertex
 10
43.30763489578479
 20
44.46897734999368
 30
0.0
  0
VERTEX
  5
53B
330
538
100
AcDbEntity
  8
Capa 1
370
     0
100
AcDbVertex
100
AcDb2dVertex
 10
40.44596444313392
 20
44.94577887969557
 30
0.0
  0
VERTEX
  5
53C
330
538
100
AcDbEntity
  8
Capa 1
370
     0
100
AcDbVertex
100
AcDb2dVertex
 10
43.30763489578479
 20
45.42258040939748
 30
0.0
  0
SEQEND
  5
53D
330
538
100
AcDbEntity
  8
Capa 1
370
     0
  0
HATCH
  5
53E
330
534
100
AcDbEntity
  8
Capa 1
 62
     7
100
AcDbHatch
 10
0.0
 20
0.0
 30
0.0
210
0.0
220
0.0
230
1.0
  2
SOLID
 70
     1
 71
     0
 91
        1
 92
        1
 93
        3
 72
     1
 10
43.30763489578479
 20
45.42258040939748
 11
43.30763489578479
 21
44.46897734999368
 72
     1
 10
43.30763489578479
 20
44.46897734999368
 11
40.44596444313392
 21
44.94577887969557
 72
     1
 10
40.44596444313392
 20
44.94577887969557
 11
43.30763489578479
 21
45.42258040939748
 97
        0
 75
     2
 76
     1
 98
        0
  0
ENDBLK
  5
537
330
534
100
AcDbEntity
  8
0
100
AcDbBlockEnd
  0
BLOCK
  5
541
330
53F
100
AcDbEntity
  8
0
100
AcDbBlockBegin
  2
block 185
 70
     0
 71
     0
 10
0.0
 20
0.0
 30
0.0
  3
block 185
  1

  0
POLYLINE
  5
543
330
53F
100
AcDbEntity
  8
Capa 1
370
     0
100
AcDb2dPolyline
 66
     1
 10
0.0
 20
0.0
 30
0.0
  0
VERTEX
  5
544
330
543
100
AcDbEntity
  8
Capa 1
370
     0
100
AcDbVertex
100
AcDb2dVertex
 10
196.5607416000557
 20
45.42258040939748
 30
0.0
  0
VERTEX
  5
545
330
543
100
AcDbEntity
  8
Capa 1
370
     0
100
AcDbVertex
100
AcDb2dVertex
 10
196.5607416000557
 20
44.46897734999368
 30
0.0
  0
VERTEX
  5
546
330
543
100
AcDbEntity
  8
Capa 1
370
     0
100
AcDbVertex
100
AcDb2dVertex
 10
199.4222397978187
 20
44.94577887969557
 30
0.0
  0
VERTEX
  5
547
330
543
100
AcDbEntity
  8
Capa 1
370
     0
100
AcDbVertex
100
AcDb2dVertex
 10
196.5607416000557
 20
45.42258040939748
 30
0.0
  0
SEQEND
  5
548
330
543
100
AcDbEntity
  8
Capa 1
370
     0
  0
HATCH
  5
549
330
53F
100
AcDbEntity
  8
Capa 1
 62
     7
100
AcDbHatch
 10
0.0
 20
0.0
 30
0.0
210
0.0
220
0.0
230
1.0
  2
SOLID
 70
     1
 71
     0
 91
        1
 92
        1
 93
        3
 72
     1
 10
196.5607416000557
 20
45.42258040939748
 11
196.5607416000557
 21
44.46897734999368
 72
     1
 10
196.5607416000557
 20
44.46897734999368
 11
199.4222397978187
 21
44.94577887969557
 72
     1
 10
199.4222397978187
 20
44.94577887969557
 11
196.5607416000557
 21
45.42258040939748
 97
        0
 75
     2
 76
     1
 98
        0
  0
ENDBLK
  5
542
330
53F
100
AcDbEntity
  8
0
100
AcDbBlockEnd
  0
BLOCK
  5
54C
330
54A
100
AcDbEntity
  8
0
100
AcDbBlockBegin
  2
block 186
 70
     0
 71
     0
 10
0.0
 20
0.0
 30
0.0
  3
block 186
  1

  0
MTEXT
  5
54E
330
54A
100
AcDbEntity
  8
Capa 1
 62
     7
100
AcDbMText
 10
113.6503299373981
 20
43.35621077417206
 30
0.0
 40
3.179522990557443
 41
0.0
 71
     7
 72
     1
  1
\fMyriad Pro|b0|i0|c0|p34;\W1;1000
 73
     1
 44
1.0
  0
ENDBLK
  5
54D
330
54A
100
AcDbEntity
  8
0
100
AcDbBlockEnd
  0
BLOCK
  5
551
330
54F
100
AcDbEntity
  8
0
100
AcDbBlockBegin
  2
block 187
 70
     0
 71
     0
 10
0.0
 20
0.0
 30
0.0
  3
block 187
  1

  0
POLYLINE
  5
553
330
54F
100
AcDbEntity
  8
Capa 1
370
     0
100
AcDb2dPolyline
 66
     1
 10
0.0
 20
0.0
 30
0.0
  0
VERTEX
  5
554
330
553
100
AcDbEntity
  8
Capa 1
370
     0
100
AcDbVertex
100
AcDb2dVertex
 10
40.44596444313392
 20
67.29343901604146
 30
0.0
  0
VERTEX
  5
555
330
553
100
AcDbEntity
  8
Capa 1
370
     0
100
AcDbVertex
100
AcDb2dVertex
 10
40.44596444313392
 20
67.29343901604146
 30
0.0
  0
SEQEND
  5
556
330
553
100
AcDbEntity
  8
Capa 1
370
     0
  0
ENDBLK
  5
552
330
54F
100
AcDbEntity
  8
0
100
AcDbBlockEnd
  0
BLOCK
  5
559
330
557
100
AcDbEntity
  8
0
100
AcDbBlockBegin
  2
block 188
 70
     0
 71
     0
 10
0.0
 20
0.0
 30
0.0
  3
block 188
  1

  0
POLYLINE
  5
55B
330
557
100
AcDbEntity
  8
Capa 1
370
     0
100
AcDb2dPolyline
 66
     1
 10
0.0
 20
0.0
 30
0.0
  0
VERTEX
  5
55C
330
55B
100
AcDbEntity
  8
Capa 1
370
     0
100
AcDbVertex
100
AcDb2dVertex
 10
199.4222397978187
 20
67.29343901604146
 30
0.0
  0
VERTEX
  5
55D
330
55B
100
AcDbEntity
  8
Capa 1
370
     0
100
AcDbVertex
100
AcDb2dVertex
 10
199.4222397978187
 20
67.29343901604146
 30
0.0
  0
SEQEND
  5
55E
330
55B
100
AcDbEntity
  8
Capa 1
370
     0
  0
ENDBLK
  5
55A
330
557
100
AcDbEntity
  8
0
100
AcDbBlockEnd
  0
BLOCK
  5
561
330
55F
100
AcDbEntity
  8
0
100
AcDbBlockBegin
  2
block 189
 70
     0
 71
     0
 10
0.0
 20
0.0
 30
0.0
  3
block 189
  1

  0
POLYLINE
  5
563
330
55F
100
AcDbEntity
  8
Capa 1
370
     0
100
AcDb2dPolyline
 66
     1
 10
0.0
 20
0.0
 30
0.0
  0
VERTEX
  5
564
330
563
100
AcDbEntity
  8
Capa 1
370
     0
100
AcDbVertex
100
AcDb2dVertex
 10
199.4222397978187
 20
44.94577887969557
 30
0.0
  0
VERTEX
  5
565
330
563
100
AcDbEntity
  8
Capa 1
370
     0
100
AcDbVertex
100
AcDb2dVertex
 10
199.4222397978187
 20
44.94577887969557
 30
0.0
  0
SEQEND
  5
566
330
563
100
AcDbEntity
  8
Capa 1
370
     0
  0
ENDBLK
  5
562
330
55F
100
AcDbEntity
  8
0
100
AcDbBlockEnd
  0
BLOCK
  5
569
330
567
100
AcDbEntity
  8
0
100
AcDbBlockBegin
  2
block 190
 70
     0
 71
     0
 10
0.0
 20
0.0
 30
0.0
  3
block 190
  1

  0
INSERT
  5
56C
330
567
100
AcDbEntity
  8
Capa 1
100
AcDbBlockReference
  2
block 191
 10
0.0
 20
0.0
 30
0.0
  0
INSERT
  5
574
330
567
100
AcDbEntity
  8
Capa 1
100
AcDbBlockReference
  2
block 192
 10
0.0
 20
0.0
 30
0.0
  0
INSERT
  5
57C
330
567
100
AcDbEntity
  8
Capa 1
100
AcDbBlockReference
  2
block 193
 10
0.0
 20
0.0
 30
0.0
  0
INSERT
  5
584
330
567
100
AcDbEntity
  8
Capa 1
100
AcDbBlockReference
  2
block 194
 10
0.0
 20
0.0
 30
0.0
  0
INSERT
  5
58C
330
567
100
AcDbEntity
  8
Capa 1
100
AcDbBlockReference
  2
block 195
 10
0.0
 20
0.0
 30
0.0
  0
INSERT
  5
597
330
567
100
AcDbEntity
  8
Capa 1
100
AcDbBlockReference
  2
block 196
 10
0.0
 20
0.0
 30
0.0
  0
INSERT
  5
5A2
330
567
100
AcDbEntity
  8
Capa 1
100
AcDbBlockReference
  2
block 197
 10
0.0
 20
0.0
 30
0.0
  0
INSERT
  5
5A7
330
567
100
AcDbEntity
  8
Capa 1
100
AcDbBlockReference
  2
block 198
 10
0.0
 20
0.0
 30
0.0
  0
INSERT
  5
5AF
330
567
100
AcDbEntity
  8
Capa 1
100
AcDbBlockReference
  2
block 199
 10
0.0
 20
0.0
 30
0.0
  0
INSERT
  5
5B7
330
567
100
AcDbEntity
  8
Capa 1
100
AcDbBlockReference
  2
block 200
 10
0.0
 20
0.0
 30
0.0
  0
ENDBLK
  5
56A
330
567
100
AcDbEntity
  8
0
100
AcDbBlockEnd
  0
BLOCK
  5
56D
330
56B
100
AcDbEntity
  8
0
100
AcDbBlockBegin
  2
block 191
 70
     0
 71
     0
 10
0.0
 20
0.0
 30
0.0
  3
block 191
  1

  0
POLYLINE
  5
56F
330
56B
100
AcDbEntity
  8
Capa 1
 62
     7
370
    25
100
AcDb2dPolyline
 66
     1
 10
0.0
 20
0.0
 30
0.0
  0
VERTEX
  5
570
330
56F
100
AcDbEntity
  8
Capa 1
 62
     7
370
    25
100
AcDbVertex
100
AcDb2dVertex
 10
38.85639633761039
 20
194.4743903978341
 30
0.0
  0
VERTEX
  5
571
330
56F
100
AcDbEntity
  8
Capa 1
 62
     7
370
    25
100
AcDbVertex
100
AcDb2dVertex
 10
13.95264591974484
 20
194.4743903978341
 30
0.0
  0
SEQEND
  5
572
330
56F
100
AcDbEntity
  8
Capa 1
370
    25
  0
ENDBLK
  5
56E
330
56B
100
AcDbEntity
  8
0
100
AcDbBlockEnd
  0
BLOCK
  5
575
330
573
100
AcDbEntity
  8
0
100
AcDbBlockBegin
  2
block 192
 70
     0
 71
     0
 10
0.0
 20
0.0
 30
0.0
  3
block 192
  1

  0
POLYLINE
  5
577
330
573
100
AcDbEntity
  8
Capa 1
 62
     7
370
    25
100
AcDb2dPolyline
 66
     1
 10
0.0
 20
0.0
 30
0.0
  0
VERTEX
  5
578
330
577
100
AcDbEntity
  8
Capa 1
 62
     7
370
    25
100
AcDbVertex
100
AcDb2dVertex
 10
38.85639633761039
 20
67.29343901604146
 30
0.0
  0
VERTEX
  5
579
330
577
100
AcDbEntity
  8
Capa 1
 62
     7
370
    25
100
AcDbVertex
100
AcDb2dVertex
 10
13.95264591974484
 20
67.29343901604146
 30
0.0
  0
SEQEND
  5
57A
330
577
100
AcDbEntity
  8
Capa 1
370
    25
  0
ENDBLK
  5
576
330
573
100
AcDbEntity
  8
0
100
AcDbBlockEnd
  0
BLOCK
  5
57D
330
57B
100
AcDbEntity
  8
0
100
AcDbBlockBegin
  2
block 193
 70
     0
 71
     0
 10
0.0
 20
0.0
 30
0.0
  3
block 193
  1

  0
POLYLINE
  5
57F
330
57B
100
AcDbEntity
  8
Capa 1
 62
     7
370
    25
100
AcDb2dPolyline
 66
     1
 10
0.0
 20
0.0
 30
0.0
  0
VERTEX
  5
580
330
57F
100
AcDbEntity
  8
Capa 1
 62
     7
370
    25
100
AcDbVertex
100
AcDb2dVertex
 10
15.54238628015626
 20
191.6127199451832
 30
0.0
  0
VERTEX
  5
581
330
57F
100
AcDbEntity
  8
Capa 1
 62
     7
370
    25
100
AcDbVertex
100
AcDb2dVertex
 10
15.54238628015626
 20
134.0632231728727
 30
0.0
  0
SEQEND
  5
582
330
57F
100
AcDbEntity
  8
Capa 1
370
    25
  0
ENDBLK
  5
57E
330
57B
100
AcDbEntity
  8
0
100
AcDbBlockEnd
  0
BLOCK
  5
585
330
583
100
AcDbEntity
  8
0
100
AcDbBlockBegin
  2
block 194
 70
     0
 71
     0
 10
0.0
 20
0.0
 30
0.0
  3
block 194
  1

  0
POLYLINE
  5
587
330
583
100
AcDbEntity
  8
Capa 1
 62
     7
370
    25
100
AcDb2dPolyline
 66
     1
 10
0.0
 20
0.0
 30
0.0
  0
VERTEX
  5
588
330
587
100
AcDbEntity
  8
Capa 1
 62
     7
370
    25
100
AcDbVertex
100
AcDb2dVertex
 10
15.54238628015626
 20
70.15459270402864
 30
0.0
  0
VERTEX
  5
589
330
587
100
AcDbEntity
  8
Capa 1
 62
     7
370
    25
100
AcDbVertex
100
AcDb2dVertex
 10
15.54238628015626
 20
127.704261731227
 30
0.0
  0
SEQEND
  5
58A
330
587
100
AcDbEntity
  8
Capa 1
370
    25
  0
ENDBLK
  5
586
330
583
100
AcDbEntity
  8
0
100
AcDbBlockEnd
  0
BLOCK
  5
58D
330
58B
100
AcDbEntity
  8
0
100
AcDbBlockBegin
  2
block 195
 70
     0
 71
     0
 10
0.0
 20
0.0
 30
0.0
  3
block 195
  1

  0
POLYLINE
  5
58F
330
58B
100
AcDbEntity
  8
Capa 1
370
     0
100
AcDb2dPolyline
 66
     1
 10
0.0
 20
0.0
 30
0.0
  0
VERTEX
  5
590
330
58F
100
AcDbEntity
  8
Capa 1
370
     0
100
AcDbVertex
100
AcDb2dVertex
 10
15.06541249556646
 20
191.6127199451832
 30
0.0
  0
VERTEX
  5
591
330
58F
100
AcDbEntity
  8
Capa 1
370
     0
100
AcDbVertex
100
AcDb2dVertex
 10
16.01918780985816
 20
191.6127199451832
 30
0.0
  0
VERTEX
  5
592
330
58F
100
AcDbEntity
  8
Capa 1
370
     0
100
AcDbVertex
100
AcDb2dVertex
 10
15.54238628015626
 20
194.4743903978341
 30
0.0
  0
VERTEX
  5
593
330
58F
100
AcDbEntity
  8
Capa 1
370
     0
100
AcDbVertex
100
AcDb2dVertex
 10
15.06541249556646
 20
191.6127199451832
 30
0.0
  0
SEQEND
  5
594
330
58F
100
AcDbEntity
  8
Capa 1
370
     0
  0
HATCH
  5
595
330
58B
100
AcDbEntity
  8
Capa 1
 62
     7
100
AcDbHatch
 10
0.0
 20
0.0
 30
0.0
210
0.0
220
0.0
230
1.0
  2
SOLID
 70
     1
 71
     0
 91
        1
 92
        1
 93
        3
 72
     1
 10
15.06541249556646
 20
191.6127199451832
 11
16.01918780985816
 21
191.6127199451832
 72
     1
 10
16.01918780985816
 20
191.6127199451832
 11
15.54238628015626
 21
194.4743903978341
 72
     1
 10
15.54238628015626
 20
194.4743903978341
 11
15.06541249556646
 21
191.6127199451832
 97
        0
 75
     2
 76
     1
 98
        0
  0
ENDBLK
  5
58E
330
58B
100
AcDbEntity
  8
0
100
AcDbBlockEnd
  0
BLOCK
  5
598
330
596
100
AcDbEntity
  8
0
100
AcDbBlockBegin
  2
block 196
 70
     0
 71
     0
 10
0.0
 20
0.0
 30
0.0
  3
block 196
  1

  0
POLYLINE
  5
59A
330
596
100
AcDbEntity
  8
Capa 1
370
     0
100
AcDb2dPolyline
 66
     1
 10
0.0
 20
0.0
 30
0.0
  0
VERTEX
  5
59B
330
59A
100
AcDbEntity
  8
Capa 1
370
     0
100
AcDbVertex
100
AcDb2dVertex
 10
15.06541249556646
 20
70.15459270402864
 30
0.0
  0
VERTEX
  5
59C
330
59A
100
AcDbEntity
  8
Capa 1
370
     0
100
AcDbVertex
100
AcDb2dVertex
 10
16.01918780985816
 20
70.15459270402864
 30
0.0
  0
VERTEX
  5
59D
330
59A
100
AcDbEntity
  8
Capa 1
370
     0
100
AcDbVertex
100
AcDb2dVertex
 10
15.54238628015626
 20
67.29343901604146
 30
0.0
  0
VERTEX
  5
59E
330
59A
100
AcDbEntity
  8
Capa 1
370
     0
100
AcDbVertex
100
AcDb2dVertex
 10
15.06541249556646
 20
70.15459270402864
 30
0.0
  0
SEQEND
  5
59F
330
59A
100
AcDbEntity
  8
Capa 1
370
     0
  0
HATCH
  5
5A0
330
596
100
AcDbEntity
  8
Capa 1
 62
     7
100
AcDbHatch
 10
0.0
 20
0.0
 30
0.0
210
0.0
220
0.0
230
1.0
  2
SOLID
 70
     1
 71
     0
 91
        1
 92
        1
 93
        3
 72
     1
 10
15.06541249556646
 20
70.15459270402864
 11
16.01918780985816
 21
70.15459270402864
 72
     1
 10
16.01918780985816
 20
70.15459270402864
 11
15.54238628015626
 21
67.29343901604146
 72
     1
 10
15.54238628015626
 20
67.29343901604146
 11
15.06541249556646
 21
70.15459270402864
 97
        0
 75
     2
 76
     1
 98
        0
  0
ENDBLK
  5
599
330
596
100
AcDbEntity
  8
0
100
AcDbBlockEnd
  0
BLOCK
  5
5A3
330
5A1
100
AcDbEntity
  8
0
100
AcDbBlockBegin
  2
block 197
 70
     0
 71
     0
 10
0.0
 20
0.0
 30
0.0
  3
block 197
  1

  0
MTEXT
  5
5A5
330
5A1
100
AcDbEntity
  8
Capa 1
 62
     7
100
AcDbMText
 10
10.99985263139587
 20
129.2945188563022
 30
0.0
 40
3.179522990557443
 41
0.0
 71
     7
 72
     1
  1
\fMyriad Pro|b0|i0|c0|p34;\W1;800
 73
     1
 44
1.0
  0
ENDBLK
  5
5A4
330
5A1
100
AcDbEntity
  8
0
100
AcDbBlockEnd
  0
BLOCK
  5
5A8
330
5A6
100
AcDbEntity
  8
0
100
AcDbBlockBegin
  2
block 198
 70
     0
 71
     0
 10
0.0
 20
0.0
 30
0.0
  3
block 198
  1

  0
POLYLINE
  5
5AA
330
5A6
100
AcDbEntity
  8
Capa 1
370
     0
100
AcDb2dPolyline
 66
     1
 10
0.0
 20
0.0
 30
0.0
  0
VERTEX
  5
5AB
330
5AA
100
AcDbEntity
  8
Capa 1
370
     0
100
AcDbVertex
100
AcDb2dVertex
 10
40.44596444313392
 20
194.4743903978341
 30
0.0
  0
VERTEX
  5
5AC
330
5AA
100
AcDbEntity
  8
Capa 1
370
     0
100
AcDbVertex
100
AcDb2dVertex
 10
40.44596444313392
 20
194.4743903978341
 30
0.0
  0
SEQEND
  5
5AD
330
5AA
100
AcDbEntity
  8
Capa 1
370
     0
  0
ENDBLK
  5
5A9
330
5A6
100
AcDbEntity
  8
0
100
AcDbBlockEnd
  0
BLOCK
  5
5B0
330
5AE
100
AcDbEntity
  8
0
100
AcDbBlockBegin
  2
block 199
 70
     0
 71
     0
 10
0.0
 20
0.0
 30
0.0
  3
block 199
  1

  0
POLYLINE
  5
5B2
330
5AE
100
AcDbEntity
  8
Capa 1
370
     0
100
AcDb2dPolyline
 66
     1
 10
0.0
 20
0.0
 30
0.0
  0
VERTEX
  5
5B3
330
5B2
100
AcDbEntity
  8
Capa 1
370
     0
100
AcDbVertex
100
AcDb2dVertex
 10
40.44596444313392
 20
67.29343901604146
 30
0.0
  0
VERTEX
  5
5B4
330
5B2
100
AcDbEntity
  8
Capa 1
370
     0
100
AcDbVertex
100
AcDb2dVertex
 10
40.44596444313392
 20
67.29343901604146
 30
0.0
  0
SEQEND
  5
5B5
330
5B2
100
AcDbEntity
  8
Capa 1
370
     0
  0
ENDBLK
  5
5B1
330
5AE
100
AcDbEntity
  8
0
100
AcDbBlockEnd
  0
BLOCK
  5
5B8
330
5B6
100
AcDbEntity
  8
0
100
AcDbBlockBegin
  2
block 200
 70
     0
 71
     0
 10
0.0
 20
0.0
 30
0.0
  3
block 200
  1

  0
POLYLINE
  5
5BA
330
5B6
100
AcDbEntity
  8
Capa 1
370
     0
100
AcDb2dPolyline
 66
     1
 10
0.0
 20
0.0
 30
0.0
  0
VERTEX
  5
5BB
330
5BA
100
AcDbEntity
  8
Capa 1
370
     0
100
AcDbVertex
100
AcDb2dVertex
 10
15.54238628015626
 20
67.29343901604146
 30
0.0
  0
VERTEX
  5
5BC
330
5BA
100
AcDbEntity
  8
Capa 1
370
     0
100
AcDbVertex
100
AcDb2dVertex
 10
15.54238628015626
 20
67.29343901604146
 30
0.0
  0
SEQEND
  5
5BD
330
5BA
100
AcDbEntity
  8
Capa 1
370
     0
  0
ENDBLK
  5
5B9
330
5B6
100
AcDbEntity
  8
0
100
AcDbBlockEnd
  0
BLOCK
  5
5C0
330
5BE
100
AcDbEntity
  8
0
100
AcDbBlockBegin
  2
block 201
 70
     0
 71
     0
 10
0.0
 20
0.0
 30
0.0
  3
block 201
  1

  0
INSERT
  5
5C3
330
5BE
100
AcDbEntity
  8
Capa 1
100
AcDbBlockReference
  2
block 202
 10
0.0
 20
0.0
 30
0.0
  0
INSERT
  5
5CB
330
5BE
100
AcDbEntity
  8
Capa 1
100
AcDbBlockReference
  2
block 203
 10
0.0
 20
0.0
 30
0.0
  0
INSERT
  5
5D3
330
5BE
100
AcDbEntity
  8
Capa 1
100
AcDbBlockReference
  2
block 204
 10
0.0
 20
0.0
 30
0.0
  0
INSERT
  5
5DB
330
5BE
100
AcDbEntity
  8
Capa 1
100
AcDbBlockReference
  2
block 205
 10
0.0
 20
0.0
 30
0.0
  0
INSERT
  5
5E3
330
5BE
100
AcDbEntity
  8
Capa 1
100
AcDbBlockReference
  2
block 206
 10
0.0
 20
0.0
 30
0.0
  0
INSERT
  5
5EE
330
5BE
100
AcDbEntity
  8
Capa 1
100
AcDbBlockReference
  2
block 207
 10
0.0
 20
0.0
 30
0.0
  0
INSERT
  5
5F9
330
5BE
100
AcDbEntity
  8
Capa 1
100
AcDbBlockReference
  2
block 208
 10
0.0
 20
0.0
 30
0.0
  0
INSERT
  5
5FE
330
5BE
100
AcDbEntity
  8
Capa 1
100
AcDbBlockReference
  2
block 209
 10
0.0
 20
0.0
 30
0.0
  0
INSERT
  5
606
330
5BE
100
AcDbEntity
  8
Capa 1
100
AcDbBlockReference
  2
block 210
 10
0.0
 20
0.0
 30
0.0
  0
INSERT
  5
60E
330
5BE
100
AcDbEntity
  8
Capa 1
100
AcDbBlockReference
  2
block 211
 10
0.0
 20
0.0
 30
0.0
  0
ENDBLK
  5
5C1
330
5BE
100
AcDbEntity
  8
0
100
AcDbBlockEnd
  0
BLOCK
  5
5C4
330
5C2
100
AcDbEntity
  8
0
100
AcDbBlockBegin
  2
block 202
 70
     0
 71
     0
 10
0.0
 20
0.0
 30
0.0
  3
block 202
  1

  0
POLYLINE
  5
5C6
330
5C2
100
AcDbEntity
  8
Capa 1
 62
     7
370
    25
100
AcDb2dPolyline
 66
     1
 10
0.0
 20
0.0
 30
0.0
  0
VERTEX
  5
5C7
330
5C6
100
AcDbEntity
  8
Capa 1
 62
     7
370
    25
100
AcDbVertex
100
AcDb2dVertex
 10
53.16388732642529
 20
96.7038940659846
 30
0.0
  0
VERTEX
  5
5C8
330
5C6
100
AcDbEntity
  8
Capa 1
 62
     7
370
    25
100
AcDbVertex
100
AcDb2dVertex
 10
26.51054401217889
 20
96.7038940659846
 30
0.0
  0
SEQEND
  5
5C9
330
5C6
100
AcDbEntity
  8
Capa 1
370
    25
  0
ENDBLK
  5
5C5
330
5C2
100
AcDbEntity
  8
0
100
AcDbBlockEnd
  0
BLOCK
  5
5CC
330
5CA
100
AcDbEntity
  8
0
100
AcDbBlockBegin
  2
block 203
 70
     0
 71
     0
 10
0.0
 20
0.0
 30
0.0
  3
block 203
  1

  0
POLYLINE
  5
5CE
330
5CA
100
AcDbEntity
  8
Capa 1
 62
     7
370
    25
100
AcDb2dPolyline
 66
     1
 10
0.0
 20
0.0
 30
0.0
  0
VERTEX
  5
5CF
330
5CE
100
AcDbEntity
  8
Capa 1
 62
     7
370
    25
100
AcDbVertex
100
AcDb2dVertex
 10
38.85639633761039
 20
67.29343901604146
 30
0.0
  0
VERTEX
  5
5D0
330
5CE
100
AcDbEntity
  8
Capa 1
 62
     7
370
    25
100
AcDbVertex
100
AcDb2dVertex
 10
26.51054401217889
 20
67.29343901604146
 30
0.0
  0
SEQEND
  5
5D1
330
5CE
100
AcDbEntity
  8
Capa 1
370
    25
  0
ENDBLK
  5
5CD
330
5CA
100
AcDbEntity
  8
0
100
AcDbBlockEnd
  0
BLOCK
  5
5D4
330
5D2
100
AcDbEntity
  8
0
100
AcDbBlockBegin
  2
block 204
 70
     0
 71
     0
 10
0.0
 20
0.0
 30
0.0
  3
block 204
  1

  0
POLYLINE
  5
5D6
330
5D2
100
AcDbEntity
  8
Capa 1
 62
     7
370
    25
100
AcDb2dPolyline
 66
     1
 10
0.0
 20
0.0
 30
0.0
  0
VERTEX
  5
5D7
330
5D6
100
AcDbEntity
  8
Capa 1
 62
     7
370
    25
100
AcDbVertex
100
AcDb2dVertex
 10
28.10045662747821
 20
93.84274037799742
 30
0.0
  0
VERTEX
  5
5D8
330
5D6
100
AcDbEntity
  8
Capa 1
 62
     7
370
    25
100
AcDbVertex
100
AcDb2dVertex
 10
28.10045662747821
 20
85.17797500694797
 30
0.0
  0
SEQEND
  5
5D9
330
5D6
100
AcDbEntity
  8
Capa 1
370
    25
  0
ENDBLK
  5
5D5
330
5D2
100
AcDbEntity
  8
0
100
AcDbBlockEnd
  0
BLOCK
  5
5DC
330
5DA
100
AcDbEntity
  8
0
100
AcDbBlockBegin
  2
block 205
 70
     0
 71
     0
 10
0.0
 20
0.0
 30
0.0
  3
block 205
  1

  0
POLYLINE
  5
5DE
330
5DA
100
AcDbEntity
  8
Capa 1
 62
     7
370
    25
100
AcDb2dPolyline
 66
     1
 10
0.0
 20
0.0
 30
0.0
  0
VERTEX
  5
5DF
330
5DE
100
AcDbEntity
  8
Capa 1
 62
     7
370
    25
100
AcDbVertex
100
AcDb2dVertex
 10
28.10045662747821
 20
70.15459270402864
 30
0.0
  0
VERTEX
  5
5E0
330
5DE
100
AcDbEntity
  8
Capa 1
 62
     7
370
    25
100
AcDbVertex
100
AcDb2dVertex
 10
28.10045662747821
 20
78.81935807507809
 30
0.0
  0
SEQEND
  5
5E1
330
5DE
100
AcDbEntity
  8
Capa 1
370
    25
  0
ENDBLK
  5
5DD
330
5DA
100
AcDbEntity
  8
0
100
AcDbBlockEnd
  0
BLOCK
  5
5E4
330
5E2
100
AcDbEntity
  8
0
100
AcDbBlockBegin
  2
block 206
 70
     0
 71
     0
 10
0.0
 20
0.0
 30
0.0
  3
block 206
  1

  0
POLYLINE
  5
5E6
330
5E2
100
AcDbEntity
  8
Capa 1
370
     0
100
AcDb2dPolyline
 66
     1
 10
0.0
 20
0.0
 30
0.0
  0
VERTEX
  5
5E7
330
5E6
100
AcDbEntity
  8
Capa 1
370
     0
100
AcDbVertex
100
AcDb2dVertex
 10
27.62365509777631
 20
93.84274037799742
 30
0.0
  0
VERTEX
  5
5E8
330
5E6
100
AcDbEntity
  8
Capa 1
370
     0
100
AcDbVertex
100
AcDb2dVertex
 10
28.577430412068
 20
93.84274037799742
 30
0.0
  0
VERTEX
  5
5E9
330
5E6
100
AcDbEntity
  8
Capa 1
370
     0
100
AcDbVertex
100
AcDb2dVertex
 10
28.10045662747821
 20
96.7038940659846
 30
0.0
  0
VERTEX
  5
5EA
330
5E6
100
AcDbEntity
  8
Capa 1
370
     0
100
AcDbVertex
100
AcDb2dVertex
 10
27.62365509777631
 20
93.84274037799742
 30
0.0
  0
SEQEND
  5
5EB
330
5E6
100
AcDbEntity
  8
Capa 1
370
     0
  0
HATCH
  5
5EC
330
5E2
100
AcDbEntity
  8
Capa 1
 62
     7
100
AcDbHatch
 10
0.0
 20
0.0
 30
0.0
210
0.0
220
0.0
230
1.0
  2
SOLID
 70
     1
 71
     0
 91
        1
 92
        1
 93
        3
 72
     1
 10
27.62365509777631
 20
93.84274037799742
 11
28.577430412068
 21
93.84274037799742
 72
     1
 10
28.577430412068
 20
93.84274037799742
 11
28.10045662747821
 21
96.7038940659846
 72
     1
 10
28.10045662747821
 20
96.7038940659846
 11
27.62365509777631
 21
93.84274037799742
 97
        0
 75
     2
 76
     1
 98
        0
  0
ENDBLK
  5
5E5
330
5E2
100
AcDbEntity
  8
0
100
AcDbBlockEnd
  0
BLOCK
  5
5EF
330
5ED
100
AcDbEntity
  8
0
100
AcDbBlockBegin
  2
block 207
 70
     0
 71
     0
 10
0.0
 20
0.0
 30
0.0
  3
block 207
  1

  0
POLYLINE
  5
5F1
330
5ED
100
AcDbEntity
  8
Capa 1
370
     0
100
AcDb2dPolyline
 66
     1
 10
0.0
 20
0.0
 30
0.0
  0
VERTEX
  5
5F2
330
5F1
100
AcDbEntity
  8
Capa 1
370
     0
100
AcDbVertex
100
AcDb2dVertex
 10
27.62365509777631
 20
70.15459270402864
 30
0.0
  0
VERTEX
  5
5F3
330
5F1
100
AcDbEntity
  8
Capa 1
370
     0
100
AcDbVertex
100
AcDb2dVertex
 10
28.577430412068
 20
70.15459270402864
 30
0.0
  0
VERTEX
  5
5F4
330
5F1
100
AcDbEntity
  8
Capa 1
370
     0
100
AcDbVertex
100
AcDb2dVertex
 10
28.10045662747821
 20
67.29343901604146
 30
0.0
  0
VERTEX
  5
5F5
330
5F1
100
AcDbEntity
  8
Capa 1
370
     0
100
AcDbVertex
100
AcDb2dVertex
 10
27.62365509777631
 20
70.15459270402864
 30
0.0
  0
SEQEND
  5
5F6
330
5F1
100
AcDbEntity
  8
Capa 1
370
     0
  0
HATCH
  5
5F7
330
5ED
100
AcDbEntity
  8
Capa 1
 62
     7
100
AcDbHatch
 10
0.0
 20
0.0
 30
0.0
210
0.0
220
0.0
230
1.0
  2
SOLID
 70
     1
 71
     0
 91
        1
 92
        1
 93
        3
 72
     1
 10
27.62365509777631
 20
70.15459270402864
 11
28.577430412068
 21
70.15459270402864
 72
     1
 10
28.577430412068
 20
70.15459270402864
 11
28.10045662747821
 21
67.29343901604146
 72
     1
 10
28.10045662747821
 20
67.29343901604146
 11
27.62365509777631
 21
70.15459270402864
 97
        0
 75
     2
 76
     1
 98
        0
  0
ENDBLK
  5
5F0
330
5ED
100
AcDbEntity
  8
0
100
AcDbBlockEnd
  0
BLOCK
  5
5FA
330
5F8
100
AcDbEntity
  8
0
100
AcDbBlockBegin
  2
block 208
 70
     0
 71
     0
 10
0.0
 20
0.0
 30
0.0
  3
block 208
  1

  0
MTEXT
  5
5FC
330
5F8
100
AcDbEntity
  8
Capa 1
 62
     7
100
AcDbMText
 10
23.33106329135605
 20
80.4092706903774
 30
0.0
 40
3.179522990557443
 41
0.0
 71
     7
 72
     1
  1
\fMyriad Pro|b0|i0|c0|p34;\W1;185
 73
     1
 44
1.0
  0
ENDBLK
  5
5FB
330
5F8
100
AcDbEntity
  8
0
100
AcDbBlockEnd
  0
BLOCK
  5
5FF
330
5FD
100
AcDbEntity
  8
0
100
AcDbBlockBegin
  2
block 209
 70
     0
 71
     0
 10
0.0
 20
0.0
 30
0.0
  3
block 209
  1

  0
POLYLINE
  5
601
330
5FD
100
AcDbEntity
  8
Capa 1
370
     0
100
AcDb2dPolyline
 66
     1
 10
0.0
 20
0.0
 30
0.0
  0
VERTEX
  5
602
330
601
100
AcDbEntity
  8
Capa 1
370
     0
100
AcDbVertex
100
AcDb2dVertex
 10
54.75379994172461
 20
96.7038940659846
 30
0.0
  0
VERTEX
  5
603
330
601
100
AcDbEntity
  8
Capa 1
370
     0
100
AcDbVertex
100
AcDb2dVertex
 10
54.75379994172461
 20
96.7038940659846
 30
0.0
  0
SEQEND
  5
604
330
601
100
AcDbEntity
  8
Capa 1
370
     0
  0
ENDBLK
  5
600
330
5FD
100
AcDbEntity
  8
0
100
AcDbBlockEnd
  0
BLOCK
  5
607
330
605
100
AcDbEntity
  8
0
100
AcDbBlockBegin
  2
block 210
 70
     0
 71
     0
 10
0.0
 20
0.0
 30
0.0
  3
block 210
  1

  0
POLYLINE
  5
609
330
605
100
AcDbEntity
  8
Capa 1
370
     0
100
AcDb2dPolyline
 66
     1
 10
0.0
 20
0.0
 30
0.0
  0
VERTEX
  5
60A
330
609
100
AcDbEntity
  8
Capa 1
370
     0
100
AcDbVertex
100
AcDb2dVertex
 10
40.44596444313392
 20
67.29343901604146
 30
0.0
  0
VERTEX
  5
60B
330
609
100
AcDbEntity
  8
Capa 1
370
     0
100
AcDbVertex
100
AcDb2dVertex
 10
40.44596444313392
 20
67.29343901604146
 30
0.0
  0
SEQEND
  5
60C
330
609
100
AcDbEntity
  8
Capa 1
370
     0
  0
ENDBLK
  5
608
330
605
100
AcDbEntity
  8
0
100
AcDbBlockEnd
  0
BLOCK
  5
60F
330
60D
100
AcDbEntity
  8
0
100
AcDbBlockBegin
  2
block 211
 70
     0
 71
     0
 10
0.0
 20
0.0
 30
0.0
  3
block 211
  1

  0
POLYLINE
  5
611
330
60D
100
AcDbEntity
  8
Capa 1
370
     0
100
AcDb2dPolyline
 66
     1
 10
0.0
 20
0.0
 30
0.0
  0
VERTEX
  5
612
330
611
100
AcDbEntity
  8
Capa 1
370
     0
100
AcDbVertex
100
AcDb2dVertex
 10
28.10045662747821
 20
67.29343901604146
 30
0.0
  0
VERTEX
  5
613
330
611
100
AcDbEntity
  8
Capa 1
370
     0
100
AcDbVertex
100
AcDb2dVertex
 10
28.10045662747821
 20
67.29343901604146
 30
0.0
  0
SEQEND
  5
614
330
611
100
AcDbEntity
  8
Capa 1
370
     0
  0
ENDBLK
  5
610
330
60D
100
AcDbEntity
  8
0
100
AcDbBlockEnd
  0
ENDSEC
  0
SECTION
  2
ENTITIES
  0
INSERT
  5
3D
330
1F
100
AcDbEntity
  8
Capa 1
100
AcDbBlockReference
  2
block 2
 10
0.0
 20
0.0
 30
0.0
  0
INSERT
  5
51
330
1F
100
AcDbEntity
  8
Capa 1
100
AcDbBlockReference
  2
block 3
 10
0.0
 20
0.0
 30
0.0
  0
INSERT
  5
63
330
1F
100
AcDbEntity
  8
Capa 1
100
AcDbBlockReference
  2
block 4
 10
0.0
 20
0.0
 30
0.0
  0
INSERT
  5
77
330
1F
100
AcDbEntity
  8
Capa 1
100
AcDbBlockReference
  2
block 5
 10
0.0
 20
0.0
 30
0.0
  0
INSERT
  5
98
330
1F
100
AcDbEntity
  8
Capa 1
100
AcDbBlockReference
  2
block 6
 10
0.0
 20
0.0
 30
0.0
  0
INSERT
  5
AC
330
1F
100
AcDbEntity
  8
Capa 1
100
AcDbBlockReference
  2
block 7
 10
0.0
 20
0.0
 30
0.0
  0
INSERT
  5
BE
330
1F
100
AcDbEntity
  8
Capa 1
100
AcDbBlockReference
  2
block 8
 10
0.0
 20
0.0
 30
0.0
  0
INSERT
  5
D2
330
1F
100
AcDbEntity
  8
Capa 1
100
AcDbBlockReference
  2
block 9
 10
0.0
 20
0.0
 30
0.0
  0
INSERT
  5
DA
330
1F
100
AcDbEntity
  8
Capa 1
100
AcDbBlockReference
  2
block 10
 10
0.0
 20
0.0
 30
0.0
  0
INSERT
  5
E2
330
1F
100
AcDbEntity
  8
Capa 1
100
AcDbBlockReference
  2
block 11
 10
0.0
 20
0.0
 30
0.0
  0
INSERT
  5
EA
330
1F
100
AcDbEntity
  8
Capa 1
100
AcDbBlockReference
  2
block 12
 10
0.0
 20
0.0
 30
0.0
  0
INSERT
  5
EF
330
1F
100
AcDbEntity
  8
Capa 1
100
AcDbBlockReference
  2
block 13
 10
0.0
 20
0.0
 30
0.0
  0
INSERT
  5
F4
330
1F
100
AcDbEntity
  8
Capa 1
100
AcDbBlockReference
  2
block 14
 10
0.0
 20
0.0
 30
0.0
  0
INSERT
  5
F9
330
1F
100
AcDbEntity
  8
Capa 1
100
AcDbBlockReference
  2
block 15
 10
0.0
 20
0.0
 30
0.0
  0
INSERT
  5
101
330
1F
100
AcDbEntity
  8
Capa 1
100
AcDbBlockReference
  2
block 16
 10
0.0
 20
0.0
 30
0.0
  0
INSERT
  5
106
330
1F
100
AcDbEntity
  8
Capa 1
100
AcDbBlockReference
  2
block 17
 10
0.0
 20
0.0
 30
0.0
  0
INSERT
  5
10B
330
1F
100
AcDbEntity
  8
Capa 1
100
AcDbBlockReference
  2
block 18
 10
0.0
 20
0.0
 30
0.0
  0
INSERT
  5
113
330
1F
100
AcDbEntity
  8
Capa 1
100
AcDbBlockReference
  2
block 19
 10
0.0
 20
0.0
 30
0.0
  0
INSERT
  5
11B
330
1F
100
AcDbEntity
  8
Capa 1
100
AcDbBlockReference
  2
block 20
 10
0.0
 20
0.0
 30
0.0
  0
INSERT
  5
123
330
1F
100
AcDbEntity
  8
Capa 1
100
AcDbBlockReference
  2
block 21
 10
0.0
 20
0.0
 30
0.0
  0
INSERT
  5
128
330
1F
100
AcDbEntity
  8
Capa 1
100
AcDbBlockReference
  2
block 22
 10
0.0
 20
0.0
 30
0.0
  0
INSERT
  5
12D
330
1F
100
AcDbEntity
  8
Capa 1
100
AcDbBlockReference
  2
block 23
 10
0.0
 20
0.0
 30
0.0
  0
INSERT
  5
135
330
1F
100
AcDbEntity
  8
Capa 1
100
AcDbBlockReference
  2
block 24
 10
0.0
 20
0.0
 30
0.0
  0
INSERT
  5
13D
330
1F
100
AcDbEntity
  8
Capa 1
100
AcDbBlockReference
  2
block 25
 10
0.0
 20
0.0
 30
0.0
  0
INSERT
  5
142
330
1F
100
AcDbEntity
  8
Capa 1
100
AcDbBlockReference
  2
block 26
 10
0.0
 20
0.0
 30
0.0
  0
INSERT
  5
14A
330
1F
100
AcDbEntity
  8
Capa 1
100
AcDbBlockReference
  2
block 27
 10
0.0
 20
0.0
 30
0.0
  0
INSERT
  5
152
330
1F
100
AcDbEntity
  8
Capa 1
100
AcDbBlockReference
  2
block 28
 10
0.0
 20
0.0
 30
0.0
  0
INSERT
  5
157
330
1F
100
AcDbEntity
  8
Capa 1
100
AcDbBlockReference
  2
block 29
 10
0.0
 20
0.0
 30
0.0
  0
INSERT
  5
15F
330
1F
100
AcDbEntity
  8
Capa 1
100
AcDbBlockReference
  2
block 30
 10
0.0
 20
0.0
 30
0.0
  0
INSERT
  5
167
330
1F
100
AcDbEntity
  8
Capa 1
100
AcDbBlockReference
  2
block 31
 10
0.0
 20
0.0
 30
0.0
  0
INSERT
  5
16C
330
1F
100
AcDbEntity
  8
Capa 1
100
AcDbBlockReference
  2
block 32
 10
0.0
 20
0.0
 30
0.0
  0
INSERT
  5
171
330
1F
100
AcDbEntity
  8
Capa 1
100
AcDbBlockReference
  2
block 33
 10
0.0
 20
0.0
 30
0.0
  0
INSERT
  5
176
330
1F
100
AcDbEntity
  8
Capa 1
100
AcDbBlockReference
  2
block 34
 10
0.0
 20
0.0
 30
0.0
  0
INSERT
  5
17B
330
1F
100
AcDbEntity
  8
Capa 1
100
AcDbBlockReference
  2
block 35
 10
0.0
 20
0.0
 30
0.0
  0
INSERT
  5
180
330
1F
100
AcDbEntity
  8
Capa 1
100
AcDbBlockReference
  2
block 36
 10
0.0
 20
0.0
 30
0.0
  0
INSERT
  5
185
330
1F
100
AcDbEntity
  8
Capa 1
100
AcDbBlockReference
  2
block 37
 10
0.0
 20
0.0
 30
0.0
  0
INSERT
  5
18A
330
1F
100
AcDbEntity
  8
Capa 1
100
AcDbBlockReference
  2
block 38
 10
0.0
 20
0.0
 30
0.0
  0
INSERT
  5
18F
330
1F
100
AcDbEntity
  8
Capa 1
100
AcDbBlockReference
  2
block 39
 10
0.0
 20
0.0
 30
0.0
  0
INSERT
  5
194
330
1F
100
AcDbEntity
  8
Capa 1
100
AcDbBlockReference
  2
block 40
 10
0.0
 20
0.0
 30
0.0
  0
INSERT
  5
199
330
1F
100
AcDbEntity
  8
Capa 1
100
AcDbBlockReference
  2
block 41
 10
0.0
 20
0.0
 30
0.0
  0
INSERT
  5
19E
330
1F
100
AcDbEntity
  8
Capa 1
100
AcDbBlockReference
  2
block 42
 10
0.0
 20
0.0
 30
0.0
  0
INSERT
  5
1A3
330
1F
100
AcDbEntity
  8
Capa 1
100
AcDbBlockReference
  2
block 43
 10
0.0
 20
0.0
 30
0.0
  0
INSERT
  5
1AB
330
1F
100
AcDbEntity
  8
Capa 1
100
AcDbBlockReference
  2
block 44
 10
0.0
 20
0.0
 30
0.0
  0
INSERT
  5
1B0
330
1F
100
AcDbEntity
  8
Capa 1
100
AcDbBlockReference
  2
block 45
 10
0.0
 20
0.0
 30
0.0
  0
INSERT
  5
1B8
330
1F
100
AcDbEntity
  8
Capa 1
100
AcDbBlockReference
  2
block 46
 10
0.0
 20
0.0
 30
0.0
  0
INSERT
  5
1C0
330
1F
100
AcDbEntity
  8
Capa 1
100
AcDbBlockReference
  2
block 47
 10
0.0
 20
0.0
 30
0.0
  0
INSERT
  5
1C5
330
1F
100
AcDbEntity
  8
Capa 1
100
AcDbBlockReference
  2
block 48
 10
0.0
 20
0.0
 30
0.0
  0
INSERT
  5
1CA
330
1F
100
AcDbEntity
  8
Capa 1
100
AcDbBlockReference
  2
block 49
 10
0.0
 20
0.0
 30
0.0
  0
INSERT
  5
1CF
330
1F
100
AcDbEntity
  8
Capa 1
100
AcDbBlockReference
  2
block 50
 10
0.0
 20
0.0
 30
0.0
  0
INSERT
  5
1D7
330
1F
100
AcDbEntity
  8
Capa 1
100
AcDbBlockReference
  2
block 51
 10
0.0
 20
0.0
 30
0.0
  0
INSERT
  5
1DF
330
1F
100
AcDbEntity
  8
Capa 1
100
AcDbBlockReference
  2
block 52
 10
0.0
 20
0.0
 30
0.0
  0
INSERT
  5
1E7
330
1F
100
AcDbEntity
  8
Capa 1
100
AcDbBlockReference
  2
block 53
 10
0.0
 20
0.0
 30
0.0
  0
INSERT
  5
1EF
330
1F
100
AcDbEntity
  8
Capa 1
100
AcDbBlockReference
  2
block 54
 10
0.0
 20
0.0
 30
0.0
  0
INSERT
  5
1F7
330
1F
100
AcDbEntity
  8
Capa 1
100
AcDbBlockReference
  2
block 55
 10
0.0
 20
0.0
 30
0.0
  0
INSERT
  5
1FF
330
1F
100
AcDbEntity
  8
Capa 1
100
AcDbBlockReference
  2
block 56
 10
0.0
 20
0.0
 30
0.0
  0
INSERT
  5
207
330
1F
100
AcDbEntity
  8
Capa 1
100
AcDbBlockReference
  2
block 57
 10
0.0
 20
0.0
 30
0.0
  0
INSERT
  5
20C
330
1F
100
AcDbEntity
  8
Capa 1
100
AcDbBlockReference
  2
block 58
 10
0.0
 20
0.0
 30
0.0
  0
INSERT
  5
214
330
1F
100
AcDbEntity
  8
Capa 1
100
AcDbBlockReference
  2
block 59
 10
0.0
 20
0.0
 30
0.0
  0
INSERT
  5
21C
330
1F
100
AcDbEntity
  8
Capa 1
100
AcDbBlockReference
  2
block 60
 10
0.0
 20
0.0
 30
0.0
  0
INSERT
  5
221
330
1F
100
AcDbEntity
  8
Capa 1
100
AcDbBlockReference
  2
block 61
 10
0.0
 20
0.0
 30
0.0
  0
INSERT
  5
229
330
1F
100
AcDbEntity
  8
Capa 1
100
AcDbBlockReference
  2
block 62
 10
0.0
 20
0.0
 30
0.0
  0
INSERT
  5
231
330
1F
100
AcDbEntity
  8
Capa 1
100
AcDbBlockReference
  2
block 63
 10
0.0
 20
0.0
 30
0.0
  0
INSERT
  5
236
330
1F
100
AcDbEntity
  8
Capa 1
100
AcDbBlockReference
  2
block 64
 10
0.0
 20
0.0
 30
0.0
  0
INSERT
  5
23B
330
1F
100
AcDbEntity
  8
Capa 1
100
AcDbBlockReference
  2
block 65
 10
0.0
 20
0.0
 30
0.0
  0
INSERT
  5
240
330
1F
100
AcDbEntity
  8
Capa 1
100
AcDbBlockReference
  2
block 66
 10
0.0
 20
0.0
 30
0.0
  0
INSERT
  5
245
330
1F
100
AcDbEntity
  8
Capa 1
100
AcDbBlockReference
  2
block 67
 10
0.0
 20
0.0
 30
0.0
  0
INSERT
  5
24A
330
1F
100
AcDbEntity
  8
Capa 1
100
AcDbBlockReference
  2
block 68
 10
0.0
 20
0.0
 30
0.0
  0
INSERT
  5
24F
330
1F
100
AcDbEntity
  8
Capa 1
100
AcDbBlockReference
  2
block 69
 10
0.0
 20
0.0
 30
0.0
  0
INSERT
  5
254
330
1F
100
AcDbEntity
  8
Capa 1
100
AcDbBlockReference
  2
block 70
 10
0.0
 20
0.0
 30
0.0
  0
INSERT
  5
259
330
1F
100
AcDbEntity
  8
Capa 1
100
AcDbBlockReference
  2
block 71
 10
0.0
 20
0.0
 30
0.0
  0
INSERT
  5
25E
330
1F
100
AcDbEntity
  8
Capa 1
100
AcDbBlockReference
  2
block 72
 10
0.0
 20
0.0
 30
0.0
  0
INSERT
  5
263
330
1F
100
AcDbEntity
  8
Capa 1
100
AcDbBlockReference
  2
block 73
 10
0.0
 20
0.0
 30
0.0
  0
INSERT
  5
268
330
1F
100
AcDbEntity
  8
Capa 1
100
AcDbBlockReference
  2
block 74
 10
0.0
 20
0.0
 30
0.0
  0
INSERT
  5
26D
330
1F
100
AcDbEntity
  8
Capa 1
100
AcDbBlockReference
  2
block 75
 10
0.0
 20
0.0
 30
0.0
  0
INSERT
  5
275
330
1F
100
AcDbEntity
  8
Capa 1
100
AcDbBlockReference
  2
block 76
 10
0.0
 20
0.0
 30
0.0
  0
INSERT
  5
27A
330
1F
100
AcDbEntity
  8
Capa 1
100
AcDbBlockReference
  2
block 77
 10
0.0
 20
0.0
 30
0.0
  0
INSERT
  5
282
330
1F
100
AcDbEntity
  8
Capa 1
100
AcDbBlockReference
  2
block 78
 10
0.0
 20
0.0
 30
0.0
  0
INSERT
  5
28A
330
1F
100
AcDbEntity
  8
Capa 1
100
AcDbBlockReference
  2
block 79
 10
0.0
 20
0.0
 30
0.0
  0
INSERT
  5
28F
330
1F
100
AcDbEntity
  8
Capa 1
100
AcDbBlockReference
  2
block 80
 10
0.0
 20
0.0
 30
0.0
  0
INSERT
  5
294
330
1F
100
AcDbEntity
  8
Capa 1
100
AcDbBlockReference
  2
block 81
 10
0.0
 20
0.0
 30
0.0
  0
INSERT
  5
299
330
1F
100
AcDbEntity
  8
Capa 1
100
AcDbBlockReference
  2
block 82
 10
0.0
 20
0.0
 30
0.0
  0
INSERT
  5
2A1
330
1F
100
AcDbEntity
  8
Capa 1
100
AcDbBlockReference
  2
block 83
 10
0.0
 20
0.0
 30
0.0
  0
INSERT
  5
2A9
330
1F
100
AcDbEntity
  8
Capa 1
100
AcDbBlockReference
  2
block 84
 10
0.0
 20
0.0
 30
0.0
  0
INSERT
  5
2B1
330
1F
100
AcDbEntity
  8
Capa 1
100
AcDbBlockReference
  2
block 85
 10
0.0
 20
0.0
 30
0.0
  0
INSERT
  5
2B9
330
1F
100
AcDbEntity
  8
Capa 1
100
AcDbBlockReference
  2
block 86
 10
0.0
 20
0.0
 30
0.0
  0
INSERT
  5
2C1
330
1F
100
AcDbEntity
  8
Capa 1
100
AcDbBlockReference
  2
block 87
 10
0.0
 20
0.0
 30
0.0
  0
INSERT
  5
2C9
330
1F
100
AcDbEntity
  8
Capa 1
100
AcDbBlockReference
  2
block 88
 10
0.0
 20
0.0
 30
0.0
  0
INSERT
  5
2D1
330
1F
100
AcDbEntity
  8
Capa 1
100
AcDbBlockReference
  2
block 89
 10
0.0
 20
0.0
 30
0.0
  0
INSERT
  5
2D9
330
1F
100
AcDbEntity
  8
Capa 1
100
AcDbBlockReference
  2
block 90
 10
0.0
 20
0.0
 30
0.0
  0
INSERT
  5
2E1
330
1F
100
AcDbEntity
  8
Capa 1
100
AcDbBlockReference
  2
block 91
 10
0.0
 20
0.0
 30
0.0
  0
INSERT
  5
2E6
330
1F
100
AcDbEntity
  8
Capa 1
100
AcDbBlockReference
  2
block 92
 10
0.0
 20
0.0
 30
0.0
  0
INSERT
  5
2EB
330
1F
100
AcDbEntity
  8
Capa 1
100
AcDbBlockReference
  2
block 93
 10
0.0
 20
0.0
 30
0.0
  0
INSERT
  5
2F0
330
1F
100
AcDbEntity
  8
Capa 1
100
AcDbBlockReference
  2
block 94
 10
0.0
 20
0.0
 30
0.0
  0
INSERT
  5
2F5
330
1F
100
AcDbEntity
  8
Capa 1
100
AcDbBlockReference
  2
block 95
 10
0.0
 20
0.0
 30
0.0
  0
INSERT
  5
2FA
330
1F
100
AcDbEntity
  8
Capa 1
100
AcDbBlockReference
  2
block 96
 10
0.0
 20
0.0
 30
0.0
  0
INSERT
  5
2FF
330
1F
100
AcDbEntity
  8
Capa 1
100
AcDbBlockReference
  2
block 97
 10
0.0
 20
0.0
 30
0.0
  0
INSERT
  5
304
330
1F
100
AcDbEntity
  8
Capa 1
100
AcDbBlockReference
  2
block 98
 10
0.0
 20
0.0
 30
0.0
  0
INSERT
  5
309
330
1F
100
AcDbEntity
  8
Capa 1
100
AcDbBlockReference
  2
block 99
 10
0.0
 20
0.0
 30
0.0
  0
INSERT
  5
30E
330
1F
100
AcDbEntity
  8
Capa 1
100
AcDbBlockReference
  2
block 100
 10
0.0
 20
0.0
 30
0.0
  0
INSERT
  5
313
330
1F
100
AcDbEntity
  8
Capa 1
100
AcDbBlockReference
  2
block 101
 10
0.0
 20
0.0
 30
0.0
  0
INSERT
  5
318
330
1F
100
AcDbEntity
  8
Capa 1
100
AcDbBlockReference
  2
block 102
 10
0.0
 20
0.0
 30
0.0
  0
INSERT
  5
31D
330
1F
100
AcDbEntity
  8
Capa 1
100
AcDbBlockReference
  2
block 103
 10
0.0
 20
0.0
 30
0.0
  0
INSERT
  5
322
330
1F
100
AcDbEntity
  8
Capa 1
100
AcDbBlockReference
  2
block 104
 10
0.0
 20
0.0
 30
0.0
  0
INSERT
  5
327
330
1F
100
AcDbEntity
  8
Capa 1
100
AcDbBlockReference
  2
block 105
 10
0.0
 20
0.0
 30
0.0
  0
INSERT
  5
32C
330
1F
100
AcDbEntity
  8
Capa 1
100
AcDbBlockReference
  2
block 106
 10
0.0
 20
0.0
 30
0.0
  0
INSERT
  5
331
330
1F
100
AcDbEntity
  8
Capa 1
100
AcDbBlockReference
  2
block 107
 10
0.0
 20
0.0
 30
0.0
  0
INSERT
  5
336
330
1F
100
AcDbEntity
  8
Capa 1
100
AcDbBlockReference
  2
block 108
 10
0.0
 20
0.0
 30
0.0
  0
INSERT
  5
33B
330
1F
100
AcDbEntity
  8
Capa 1
100
AcDbBlockReference
  2
block 109
 10
0.0
 20
0.0
 30
0.0
  0
INSERT
  5
340
330
1F
100
AcDbEntity
  8
Capa 1
100
AcDbBlockReference
  2
block 110
 10
0.0
 20
0.0
 30
0.0
  0
INSERT
  5
345
330
1F
100
AcDbEntity
  8
Capa 1
100
AcDbBlockReference
  2
block 111
 10
0.0
 20
0.0
 30
0.0
  0
INSERT
  5
34A
330
1F
100
AcDbEntity
  8
Capa 1
100
AcDbBlockReference
  2
block 112
 10
0.0
 20
0.0
 30
0.0
  0
INSERT
  5
34F
330
1F
100
AcDbEntity
  8
Capa 1
100
AcDbBlockReference
  2
block 113
 10
0.0
 20
0.0
 30
0.0
  0
INSERT
  5
354
330
1F
100
AcDbEntity
  8
Capa 1
100
AcDbBlockReference
  2
block 114
 10
0.0
 20
0.0
 30
0.0
  0
INSERT
  5
359
330
1F
100
AcDbEntity
  8
Capa 1
100
AcDbBlockReference
  2
block 115
 10
0.0
 20
0.0
 30
0.0
  0
INSERT
  5
35E
330
1F
100
AcDbEntity
  8
Capa 1
100
AcDbBlockReference
  2
block 116
 10
0.0
 20
0.0
 30
0.0
  0
INSERT
  5
363
330
1F
100
AcDbEntity
  8
Capa 1
100
AcDbBlockReference
  2
block 117
 10
0.0
 20
0.0
 30
0.0
  0
INSERT
  5
368
330
1F
100
AcDbEntity
  8
Capa 1
100
AcDbBlockReference
  2
block 118
 10
0.0
 20
0.0
 30
0.0
  0
INSERT
  5
36D
330
1F
100
AcDbEntity
  8
Capa 1
100
AcDbBlockReference
  2
block 119
 10
0.0
 20
0.0
 30
0.0
  0
INSERT
  5
372
330
1F
100
AcDbEntity
  8
Capa 1
100
AcDbBlockReference
  2
block 120
 10
0.0
 20
0.0
 30
0.0
  0
INSERT
  5
377
330
1F
100
AcDbEntity
  8
Capa 1
100
AcDbBlockReference
  2
block 121
 10
0.0
 20
0.0
 30
0.0
  0
INSERT
  5
37C
330
1F
100
AcDbEntity
  8
Capa 1
100
AcDbBlockReference
  2
block 122
 10
0.0
 20
0.0
 30
0.0
  0
INSERT
  5
381
330
1F
100
AcDbEntity
  8
Capa 1
100
AcDbBlockReference
  2
block 123
 10
0.0
 20
0.0
 30
0.0
  0
INSERT
  5
386
330
1F
100
AcDbEntity
  8
Capa 1
100
AcDbBlockReference
  2
block 124
 10
0.0
 20
0.0
 30
0.0
  0
INSERT
  5
38B
330
1F
100
AcDbEntity
  8
Capa 1
100
AcDbBlockReference
  2
block 125
 10
0.0
 20
0.0
 30
0.0
  0
INSERT
  5
390
330
1F
100
AcDbEntity
  8
Capa 1
100
AcDbBlockReference
  2
block 126
 10
0.0
 20
0.0
 30
0.0
  0
INSERT
  5
395
330
1F
100
AcDbEntity
  8
Capa 1
100
AcDbBlockReference
  2
block 127
 10
0.0
 20
0.0
 30
0.0
  0
INSERT
  5
39A
330
1F
100
AcDbEntity
  8
Capa 1
100
AcDbBlockReference
  2
block 128
 10
0.0
 20
0.0
 30
0.0
  0
INSERT
  5
39F
330
1F
100
AcDbEntity
  8
Capa 1
100
AcDbBlockReference
  2
block 129
 10
0.0
 20
0.0
 30
0.0
  0
INSERT
  5
3A4
330
1F
100
AcDbEntity
  8
Capa 1
100
AcDbBlockReference
  2
block 130
 10
0.0
 20
0.0
 30
0.0
  0
INSERT
  5
3A9
330
1F
100
AcDbEntity
  8
Capa 1
100
AcDbBlockReference
  2
block 131
 10
0.0
 20
0.0
 30
0.0
  0
INSERT
  5
3B1
330
1F
100
AcDbEntity
  8
Capa 1
100
AcDbBlockReference
  2
block 132
 10
0.0
 20
0.0
 30
0.0
  0
INSERT
  5
3B9
330
1F
100
AcDbEntity
  8
Capa 1
100
AcDbBlockReference
  2
block 133
 10
0.0
 20
0.0
 30
0.0
  0
INSERT
  5
3BE
330
1F
100
AcDbEntity
  8
Capa 1
100
AcDbBlockReference
  2
block 134
 10
0.0
 20
0.0
 30
0.0
  0
INSERT
  5
3C3
330
1F
100
AcDbEntity
  8
Capa 1
100
AcDbBlockReference
  2
block 135
 10
0.0
 20
0.0
 30
0.0
  0
INSERT
  5
3C8
330
1F
100
AcDbEntity
  8
Capa 1
100
AcDbBlockReference
  2
block 136
 10
0.0
 20
0.0
 30
0.0
  0
INSERT
  5
3CD
330
1F
100
AcDbEntity
  8
Capa 1
100
AcDbBlockReference
  2
block 137
 10
0.0
 20
0.0
 30
0.0
  0
INSERT
  5
3D2
330
1F
100
AcDbEntity
  8
Capa 1
100
AcDbBlockReference
  2
block 138
 10
0.0
 20
0.0
 30
0.0
  0
INSERT
  5
3D7
330
1F
100
AcDbEntity
  8
Capa 1
100
AcDbBlockReference
  2
block 139
 10
0.0
 20
0.0
 30
0.0
  0
INSERT
  5
3DC
330
1F
100
AcDbEntity
  8
Capa 1
100
AcDbBlockReference
  2
block 140
 10
0.0
 20
0.0
 30
0.0
  0
INSERT
  5
3E1
330
1F
100
AcDbEntity
  8
Capa 1
100
AcDbBlockReference
  2
block 141
 10
0.0
 20
0.0
 30
0.0
  0
INSERT
  5
3EA
330
1F
100
AcDbEntity
  8
Capa 1
100
AcDbBlockReference
  2
block 142
 10
0.0
 20
0.0
 30
0.0
  0
INSERT
  5
3F3
330
1F
100
AcDbEntity
  8
Capa 1
100
AcDbBlockReference
  2
block 143
 10
0.0
 20
0.0
 30
0.0
  0
INSERT
  5
3FC
330
1F
100
AcDbEntity
  8
Capa 1
100
AcDbBlockReference
  2
block 144
 10
0.0
 20
0.0
 30
0.0
  0
INSERT
  5
404
330
1F
100
AcDbEntity
  8
Capa 1
100
AcDbBlockReference
  2
block 145
 10
0.0
 20
0.0
 30
0.0
  0
INSERT
  5
40C
330
1F
100
AcDbEntity
  8
Capa 1
100
AcDbBlockReference
  2
block 146
 10
0.0
 20
0.0
 30
0.0
  0
INSERT
  5
463
330
1F
100
AcDbEntity
  8
Capa 1
100
AcDbBlockReference
  2
block 157
 10
0.0
 20
0.0
 30
0.0
  0
INSERT
  5
4BA
330
1F
100
AcDbEntity
  8
Capa 1
100
AcDbBlockReference
  2
block 168
 10
0.0
 20
0.0
 30
0.0
  0
INSERT
  5
511
330
1F
100
AcDbEntity
  8
Capa 1
100
AcDbBlockReference
  2
block 179
 10
0.0
 20
0.0
 30
0.0
  0
INSERT
  5
568
330
1F
100
AcDbEntity
  8
Capa 1
100
AcDbBlockReference
  2
block 190
 10
0.0
 20
0.0
 30
0.0
  0
INSERT
  5
5BF
330
1F
100
AcDbEntity
  8
Capa 1
100
AcDbBlockReference
  2
block 201
 10
0.0
 20
0.0
 30
0.0
  0
ENDSEC
  0
SECTION
  2
OBJECTS
  0
DICTIONARY
  5
C
330
0
100
AcDbDictionary
281
     1
  3
ACAD_GROUP
350
D
  3
ACAD_LAYOUT
350
1A
  3
ACAD_MLINESTYLE
350
17
  3
ACAD_PLOTSETTINGS
350
19
  3
ACAD_PLOTSTYLENAME
350
E
  3
ACAD_TABLESTYLE
350
615
  3
ACAD_VISUALSTYLE
350
2A
  0
DICTIONARY
  5
D
102
{ACAD_REACTORS
330
C
102
}
330
C
100
AcDbDictionary
281
     1
  0
DICTIONARY
  5
1A
102
{ACAD_REACTORS
330
C
102
}
330
C
100
AcDbDictionary
281
     1
  3
Layout1
350
1E
  3
Layout2
350
26
  3
Model
350
22
  0
DICTIONARY
  5
17
102
{ACAD_REACTORS
330
C
102
}
330
C
100
AcDbDictionary
281
     1
  3
Standard
350
18
  0
DICTIONARY
  5
19
102
{ACAD_REACTORS
330
C
102
}
330
C
100
AcDbDictionary
281
     1
  0
ACDBDICTIONARYWDFLT
  5
E
102
{ACAD_REACTORS
330
C
102
}
330
C
100
AcDbDictionary
281
     1
  3
Normal
350
F
100
AcDbDictionaryWithDefault
340
F
  0
DICTIONARY
  5
615
102
{ACAD_REACTORS
330
C
102
}
330
C
100
AcDbDictionary
281
     1
  0
DICTIONARY
  5
2A
102
{ACAD_REACTORS
330
C
102
}
330
C
100
AcDbDictionary
281
     1
  3
2dWireframe
350
2F
  3
3D Hidden
350
31
  3
3dWireframe
350
30
  3
Basic
350
32
  3
Brighten
350
36
  3
ColorChange
350
3A
  3
Conceptual
350
34
  3
Dim
350
35
  3
Facepattern
350
39
  3
Flat
350
2B
  3
FlatWithEdges
350
2C
  3
Gouraud
350
2D
  3
GouraudWithEdges
350
2E
  3
Linepattern
350
38
  3
Realistic
350
33
  3
Thicken
350
37
  0
LAYOUT
  5
1E
102
{ACAD_REACTORS
330
1A
102
}
330
1A
100
AcDbPlotSettings
  1

  2
none_device
  4

  6

 40
0.0
 41
0.0
 42
0.0
 43
0.0
 44
0.0
 45
0.0
 46
0.0
 47
0.0
 48
0.0
 49
0.0
140
0.0
141
0.0
142
1.0
143
1.0
 70
   688
 72
     0
 73
     0
 74
     5
  7

 75
    16
 76
     0
 77
     2
 78
   300
147
1.0
148
0.0
149
0.0
100
AcDbLayout
  1
Layout1
 70
     1
 71
     1
 10
0.0
 20
0.0
 11
12.0
 21
9.0
 12
0.0
 22
0.0
 32
0.0
 14
1.000000000000000E+20
 24
1.000000000000000E+20
 34
1.000000000000000E+20
 15
-1.000000000000000E+20
 25
-1.000000000000000E+20
 35
-1.000000000000000E+20
146
0.0
 13
0.0
 23
0.0
 33
0.0
 16
1.0
 26
0.0
 36
0.0
 17
0.0
 27
1.0
 37
0.0
 76
     0
330
1B
  0
LAYOUT
  5
26
102
{ACAD_REACTORS
330
1A
102
}
330
1A
100
AcDbPlotSettings
  1

  2
none_device
  4

  6

 40
0.0
 41
0.0
 42
0.0
 43
0.0
 44
0.0
 45
0.0
 46
0.0
 47
0.0
 48
0.0
 49
0.0
140
0.0
141
0.0
142
1.0
143
1.0
 70
   688
 72
     0
 73
     0
 74
     5
  7

 75
    16
 76
     0
 77
     2
 78
   300
147
1.0
148
0.0
149
0.0
100
AcDbLayout
  1
Layout2
 70
     1
 71
     2
 10
0.0
 20
0.0
 11
0.0
 21
0.0
 12
0.0
 22
0.0
 32
0.0
 14
0.0
 24
0.0
 34
0.0
 15
0.0
 25
0.0
 35
0.0
146
0.0
 13
0.0
 23
0.0
 33
0.0
 16
1.0
 26
0.0
 36
0.0
 17
0.0
 27
1.0
 37
0.0
 76
     0
330
23
  0
LAYOUT
  5
22
102
{ACAD_REACTORS
330
1A
102
}
330
1A
100
AcDbPlotSettings
  1

  2
none_device
  4

  6

 40
0.0
 41
0.0
 42
0.0
 43
0.0
 44
0.0
 45
0.0
 46
0.0
 47
0.0
 48
0.0
 49
0.0
140
0.0
141
0.0
142
1.0
143
1.0
 70
  1712
 72
     0
 73
     0
 74
     0
  7

 75
     0
 76
     0
 77
     2
 78
   300
147
1.0
148
0.0
149
0.0
100
AcDbLayout
  1
Model
 70
     1
 71
     0
 10
0.0
 20
0.0
 11
12.0
 21
9.0
 12
0.0
 22
0.0
 32
0.0
 14
1.000000000000000E+20
 24
1.000000000000000E+20
 34
1.000000000000000E+20
 15
-1.000000000000000E+20
 25
-1.000000000000000E+20
 35
-1.000000000000000E+20
146
0.0
 13
0.0
 23
0.0
 33
0.0
 16
1.0
 26
0.0
 36
0.0
 17
0.0
 27
1.0
 37
0.0
 76
     0
330
1F
331
29
  0
MLINESTYLE
  5
18
102
{ACAD_REACTORS
330
17
102
}
330
17
100
AcDbMlineStyle
  2
Standard
 70
     0
  3

 62
   256
 51
90.0
 52
90.0
 71
     2
 49
0.5
 62
   256
  6
BYLAYER
 49
-0.5
 62
   256
  6
BYLAYER
  0
ACDBPLACEHOLDER
  5
F
102
{ACAD_REACTORS
330
E
102
}
330
E
  0
VISUALSTYLE
  5
2F
102
{ACAD_REACTORS
330
2A
102
}
330
2A
100
AcDbVisualStyle
  2
2dWireframe
 70
     4
 71
     0
 72
     2
 73
     0
 90
        0
 40
-0.6
 41
-30.0
 62
     5
 63
     7
421
 16777215
 74
     1
 91
        4
 64
     7
 65
   257
 75
     1
175
     1
 42
1.0
 92
        0
 66
   257
 43
1.0
 76
     1
 77
     6
 78
     2
 67
     7
 79
     5
170
     0
171
     0
290
     0
174
     0
 93
        1
 44
0.0
173
     0
291
     0
 45
0.0
1001
ACAD
1000
AcDbSavedByObjectVersion
1070
     0
  0
VISUALSTYLE
  5
31
102
{ACAD_REACTORS
330
2A
102
}
330
2A
100
AcDbVisualStyle
  2
3D Hidden
 70
     6
 71
     1
 72
     2
 73
     2
 90
        0
 40
-0.6
 41
-30.0
 62
     5
 63
     7
421
 16777215
 74
     2
 91
        2
 64
     7
 65
   257
 75
     2
175
     1
 42
40.0
 92
        0
 66
   257
 43
1.0
 76
     1
 77
     6
 78
     2
 67
     7
 79
     3
170
     0
171
     0
290
     0
174
     0
 93
        1
 44
0.0
173
     0
291
     0
 45
0.0
1001
ACAD
1000
AcDbSavedByObjectVersion
1070
     0
  0
VISUALSTYLE
  5
30
102
{ACAD_REACTORS
330
2A
102
}
330
2A
100
AcDbVisualStyle
  2
3dWireframe
 70
     5
 71
     0
 72
     2
 73
     0
 90
        0
 40
-0.6
 41
-30.0
 62
     5
 63
     7
421
 16777215
 74
     1
 91
        4
 64
     7
 65
   257
 75
     1
175
     1
 42
1.0
 92
        0
 66
   257
 43
1.0
 76
     1
 77
     6
 78
     2
 67
     7
 79
     5
170
     0
171
     0
290
     0
174
     0
 93
        1
 44
0.0
173
     0
291
     0
 45
0.0
1001
ACAD
1000
AcDbSavedByObjectVersion
1070
     0
  0
VISUALSTYLE
  5
32
102
{ACAD_REACTORS
330
2A
102
}
330
2A
100
AcDbVisualStyle
  2
Basic
 70
     7
 71
     1
 72
     0
 73
     1
 90
        0
 40
-0.6
 41
-30.0
 62
     5
 63
     7
421
 16777215
 74
     0
 91
        4
 64
     7
 65
   257
 75
     1
175
     1
 42
1.0
 92
        8
 66
     7
 43
1.0
 76
     1
 77
     6
 78
     2
 67
     7
 79
     5
170
     0
171
     0
290
     0
174
     0
 93
        1
 44
0.0
173
     0
291
     1
 45
0.0
1001
ACAD
1000
AcDbSavedByObjectVersion
1070
     0
  0
VISUALSTYLE
  5
36
102
{ACAD_REACTORS
330
2A
102
}
330
2A
100
AcDbVisualStyle
  2
Brighten
 70
    12
 71
     2
 72
     2
 73
     0
 90
        0
 40
-0.6
 41
-30.0
 62
     5
 63
     7
421
 16777215
 74
     1
 91
        4
 64
     7
 65
   257
 75
     1
175
     1
 42
1.0
 92
        8
 66
     7
 43
1.0
 76
     1
 77
     6
 78
     2
 67
     7
 79
     5
170
     0
171
     0
290
     0
174
     0
 93
        1
 44
50.0
173
     0
291
     1
 45
0.0
1001
ACAD
1000
AcDbSavedByObjectVersion
1070
     0
  0
VISUALSTYLE
  5
3A
102
{ACAD_REACTORS
330
2A
102
}
330
2A
100
AcDbVisualStyle
  2
ColorChange
 70
    16
 71
     2
 72
     2
 73
     3
 90
        0
 40
-0.6
 41
-30.0
 62
     5
 63
     8
421
  8421504
 74
     1
 91
        4
 64
     7
 65
   257
 75
     1
175
     1
 42
1.0
 92
        8
 66
     8
424
  8421504
 43
1.0
 76
     1
 77
     6
 78
     2
 67
     7
 79
     5
170
     0
171
     0
290
     0
174
     0
 93
        1
 44
0.0
173
     0
291
     1
 45
0.0
1001
ACAD
1000
AcDbSavedByObjectVersion
1070
     0
  0
VISUALSTYLE
  5
34
102
{ACAD_REACTORS
330
2A
102
}
330
2A
100
AcDbVisualStyle
  2
Conceptual
 70
     9
 71
     3
 72
     2
 73
     0
 90
        0
 40
-0.6
 41
-30.0
 62
     5
 63
     7
421
 16777215
 74
     2
 91
        2
 64
     7
 65
   257
 75
     1
175
     1
 42
40.0
 92
        8
 66
     7
 43
1.0
 76
     1
 77
     6
 78
     2
 67
     7
 79
     3
170
     0
171
     0
290
     0
174
     0
 93
        1
 44
0.0
173
     0
291
     0
 45
0.0
1001
ACAD
1000
AcDbSavedByObjectVersion
1070
     0
  0
VISUALSTYLE
  5
35
102
{ACAD_REACTORS
330
2A
102
}
330
2A
100
AcDbVisualStyle
  2
Dim
 70
    11
 71
     2
 72
     2
 73
     0
 90
        0
 40
-0.6
 41
-30.0
 62
     5
 63
     7
421
 16777215
 74
     1
 91
        4
 64
     7
 65
   257
 75
     1
175
     1
 42
1.0
 92
        8
 66
     7
 43
1.0
 76
     1
 77
     6
 78
     2
 67
     7
 79
     5
170
     0
171
     0
290
     0
174
     0
 93
        1
 44
-50.0
173
     0
291
     1
 45
0.0
1001
ACAD
1000
AcDbSavedByObjectVersion
1070
     0
  0
VISUALSTYLE
  5
39
102
{ACAD_REACTORS
330
2A
102
}
330
2A
100
AcDbVisualStyle
  2
Facepattern
 70
    15
 71
     2
 72
     2
 73
     0
 90
        0
 40
-0.6
 41
-30.0
 62
     5
 63
     7
421
 16777215
 74
     1
 91
        4
 64
     7
 65
   257
 75
     1
175
     1
 42
1.0
 92
        8
 66
     7
 43
1.0
 76
     1
 77
     6
 78
     2
 67
     7
 79
     5
170
     0
171
     0
290
     0
174
     0
 93
        1
 44
0.0
173
     0
291
     1
 45
0.0
1001
ACAD
1000
AcDbSavedByObjectVersion
1070
     0
  0
VISUALSTYLE
  5
2B
102
{ACAD_REACTORS
330
2A
102
}
330
2A
100
AcDbVisualStyle
  2
Flat
 70
     0
 71
     2
 72
     1
 73
     1
 90
        2
 40
-0.6
 41
30.0
 62
     5
 63
     7
421
 16777215
 74
     0
 91
        4
 64
     7
 65
   257
 75
     1
175
     1
 42
1.0
 92
        8
 66
     7
 43
1.0
 76
     1
 77
     6
 78
     2
 67
     7
 79
     5
170
     0
171
     0
290
     0
174
     0
 93
       13
 44
0.0
173
     0
291
     1
 45
0.0
1001
ACAD
1000
AcDbSavedByObjectVersion
1070
     0
  0
VISUALSTYLE
  5
2C
102
{ACAD_REACTORS
330
2A
102
}
330
2A
100
AcDbVisualStyle
  2
FlatWithEdges
 70
     1
 71
     2
 72
     1
 73
     1
 90
        2
 40
-0.6
 41
30.0
 62
     5
 63
     7
421
 16777215
 74
     1
 91
        4
 64
     7
 65
   257
 75
     1
175
     1
 42
1.0
 92
        0
 66
   257
 43
1.0
 76
     1
 77
     6
 78
     2
 67
     7
 79
     5
170
     0
171
     0
290
     0
174
     0
 93
       13
 44
0.0
173
     0
291
     1
 45
0.0
1001
ACAD
1000
AcDbSavedByObjectVersion
1070
     0
  0
VISUALSTYLE
  5
2D
102
{ACAD_REACTORS
330
2A
102
}
330
2A
100
AcDbVisualStyle
  2
Gouraud
 70
     2
 71
     2
 72
     2
 73
     1
 90
        2
 40
-0.6
 41
30.0
 62
     5
 63
     7
421
 16777215
 74
     0
 91
        4
 64
     7
 65
   257
 75
     1
175
     1
 42
1.0
 92
        0
 66
     7
 43
1.0
 76
     1
 77
     6
 78
     2
 67
     7
 79
     5
170
     0
171
     0
290
     0
174
     0
 93
       13
 44
0.0
173
     0
291
     1
 45
0.0
1001
ACAD
1000
AcDbSavedByObjectVersion
1070
     0
  0
VISUALSTYLE
  5
2E
102
{ACAD_REACTORS
330
2A
102
}
330
2A
100
AcDbVisualStyle
  2
GouraudWithEdges
 70
     3
 71
     2
 72
     2
 73
     1
 90
        2
 40
-0.6
 41
30.0
 62
     5
 63
     7
421
 16777215
 74
     1
 91
        4
 64
     7
 65
   257
 75
     1
175
     1
 42
1.0
 92
        0
 66
   257
 43
1.0
 76
     1
 77
     6
 78
     2
 67
     7
 79
     5
170
     0
171
     0
290
     0
174
     0
 93
       13
 44
0.0
173
     0
291
     1
 45
0.0
1001
ACAD
1000
AcDbSavedByObjectVersion
1070
     0
  0
VISUALSTYLE
  5
38
102
{ACAD_REACTORS
330
2A
102
}
330
2A
100
AcDbVisualStyle
  2
Linepattern
 70
    14
 71
     2
 72
     2
 73
     0
 90
        0
 40
-0.6
 41
-30.0
 62
     5
 63
     7
421
 16777215
 74
     1
 91
        4
 64
     7
 65
   257
 75
     7
175
     7
 42
1.0
 92
        8
 66
     7
 43
1.0
 76
     1
 77
     6
 78
     2
 67
     7
 79
     5
170
     0
171
     0
290
     0
174
     0
 93
        1
 44
0.0
173
     0
291
     1
 45
0.0
1001
ACAD
1000
AcDbSavedByObjectVersion
1070
     0
  0
VISUALSTYLE
  5
33
102
{ACAD_REACTORS
330
2A
102
}
330
2A
100
AcDbVisualStyle
  2
Realistic
 70
     8
 71
     2
 72
     2
 73
     0
 90
        0
 40
-0.6
 41
-30.0
 62
     5
 63
     7
421
 16777215
 74
     1
 91
        0
 64
     7
 65
   257
 75
     1
175
     1
 42
1.0
 92
        8
 66
     8
424
  7895160
 43
1.0
 76
     1
 77
     6
 78
     2
 67
     7
 79
     5
170
     0
171
     0
290
     0
174
     0
 93
       13
 44
0.0
173
     0
291
     0
 45
0.0
1001
ACAD
1000
AcDbSavedByObjectVersion
1070
     0
  0
VISUALSTYLE
  5
37
102
{ACAD_REACTORS
330
2A
102
}
330
2A
100
AcDbVisualStyle
  2
Thicken
 70
    13
 71
     2
 72
     2
 73
     0
 90
        0
 40
-0.6
 41
-30.0
 62
     5
 63
     7
421
 16777215
 74
     1
 91
        4
 64
     7
 65
   257
 75
     1
175
     1
 42
1.0
 92
       12
 66
     7
 43
1.0
 76
     1
 77
     6
 78
     2
 67
     7
 79
     5
170
     0
171
     0
290
     0
174
     0
 93
        1
 44
0.0
173
     0
291
     1
 45
0.0
1001
ACAD
1000
AcDbSavedByObjectVersion
1070
     0
  0
ENDSEC
  0
EOF
