  0
SECTION
  2
HEADER
  9
$ACADVER
  1
AC1018
  9
$ACADMAINTVER
 70
     0
  9
$DWGCODEPAGE
  3
ASCII
  9
$INSBASE
 10
0.0
 20
0.0
 30
0.0
  9
$EXTMIN
 10
1.000000000000000E+20
 20
1.000000000000000E+20
 30
1.000000000000000E+20
  9
$EXTMAX
 10
-1.000000000000000E+20
 20
-1.000000000000000E+20
 30
-1.000000000000000E+20
  9
$LIMMIN
 10
0.0
 20
0.0
  9
$LIMMAX
 10
12.0
 20
9.0
  9
$ORTHOMODE
 70
     0
  9
$REGENMODE
 70
     1
  9
$FILLMODE
 70
     1
  9
$QTEXTMODE
 70
     0
  9
$MIRRTEXT
 70
     1
  9
$LTSCALE
 40
1.0
  9
$ATTMODE
 70
     1
  9
$TEXTSIZE
 40
0.2
  9
$TRACEWID
 40
0.05
  9
$TEXTSTYLE
  7
Standard
  9
$CLAYER
  8
0
  9
$CELTYPE
  6
ByLayer
  9
$CECOLOR
 62
   256
  9
$CELTSCALE
 40
1.0
  9
$DISPSILH
 70
     0
  9
$DIMSCALE
 40
1.0
  9
$DIMASZ
 40
0.18
  9
$DIMEXO
 40
0.0625
  9
$DIMDLI
 40
0.38
  9
$DIMRND
 40
0.0
  9
$DIMDLE
 40
0.0
  9
$DIMEXE
 40
0.18
  9
$DIMTP
 40
0.0
  9
$DIMTM
 40
0.0
  9
$DIMTXT
 40
0.18
  9
$DIMCEN
 40
0.09
  9
$DIMTSZ
 40
0.0
  9
$DIMTOL
 70
     0
  9
$DIMLIM
 70
     0
  9
$DIMTIH
 70
     1
  9
$DIMTOH
 70
     1
  9
$DIMSE1
 70
     0
  9
$DIMSE2
 70
     0
  9
$DIMTAD
 70
     0
  9
$DIMZIN
 70
     0
  9
$DIMBLK
  1

  9
$DIMASO
 70
     1
  9
$DIMSHO
 70
     1
  9
$DIMPOST
  1

  9
$DIMAPOST
  1

  9
$DIMALT
 70
     0
  9
$DIMALTD
 70
     2
  9
$DIMALTF
 40
25.4
  9
$DIMLFAC
 40
1.0
  9
$DIMTOFL
 70
     0
  9
$DIMTVP
 40
0.0
  9
$DIMTIX
 70
     0
  9
$DIMSOXD
 70
     0
  9
$DIMSAH
 70
     0
  9
$DIMBLK1
  1

  9
$DIMBLK2
  1

  9
$DIMSTYLE
  2
Standard
  9
$DIMCLRD
 70
     0
  9
$DIMCLRE
 70
     0
  9
$DIMCLRT
 70
     0
  9
$DIMTFAC
 40
1.0
  9
$DIMGAP
 40
0.09
  9
$DIMJUST
 70
     0
  9
$DIMSD1
 70
     0
  9
$DIMSD2
 70
     0
  9
$DIMTOLJ
 70
     1
  9
$DIMTZIN
 70
     0
  9
$DIMALTZ
 70
     0
  9
$DIMALTTZ
 70
     0
  9
$DIMUPT
 70
     0
  9
$DIMDEC
 70
     4
  9
$DIMTDEC
 70
     4
  9
$DIMALTU
 70
     2
  9
$DIMALTTD
 70
     2
  9
$DIMTXSTY
  7
Standard
  9
$DIMAUNIT
 70
     0
  9
$DIMADEC
 70
     0
  9
$DIMALTRND
 40
0.0
  9
$DIMAZIN
 70
     0
  9
$DIMDSEP
 70
    46
  9
$DIMATFIT
 70
     3
  9
$DIMFRAC
 70
     0
  9
$DIMLDRBLK
  1

  9
$DIMLUNIT
 70
     2
  9
$DIMLWD
 70
    -2
  9
$DIMLWE
 70
    -2
  9
$DIMTMOVE
 70
     0
  9
$LUNITS
 70
     2
  9
$LUPREC
 70
     4
  9
$SKETCHINC
 40
0.1
  9
$FILLETRAD
 40
0.5
  9
$AUNITS
 70
     0
  9
$AUPREC
 70
     0
  9
$MENU
  1
.
  9
$ELEVATION
 40
0.0
  9
$PELEVATION
 40
0.0
  9
$THICKNESS
 40
0.0
  9
$LIMCHECK
 70
     0
  9
$CHAMFERA
 40
0.5
  9
$CHAMFERB
 40
0.5
  9
$CHAMFERC
 40
1.0
  9
$CHAMFERD
 40
0.0
  9
$SKPOLY
 70
     0
  9
$TDCREATE
 40
2456966.964096493
  9
$TDUCREATE
 40
2456966.922429827
  9
$TDUPDATE
 40
2456966.964096505
  9
$TDUUPDATE
 40
2456966.922429838
  9
$TDINDWG
 40
0.0000000116
  9
$TDUSRTIMER
 40
0.0000000116
  9
$USRTIMER
 70
     1
  9
$ANGBASE
 50
0.0
  9
$ANGDIR
 70
     0
  9
$PDMODE
 70
     0
  9
$PDSIZE
 40
0.0
  9
$PLINEWID
 40
0.0
  9
$SPLFRAME
 70
     0
  9
$SPLINETYPE
 70
     6
  9
$SPLINESEGS
 70
     8
  9
$HANDSEED
  5
63F
  9
$SURFTAB1
 70
     6
  9
$SURFTAB2
 70
     6
  9
$SURFTYPE
 70
     6
  9
$SURFU
 70
     6
  9
$SURFV
 70
     6
  9
$UCSBASE
  2

  9
$UCSNAME
  2

  9
$UCSORG
 10
0.0
 20
0.0
 30
0.0
  9
$UCSXDIR
 10
1.0
 20
0.0
 30
0.0
  9
$UCSYDIR
 10
0.0
 20
1.0
 30
0.0
  9
$UCSORTHOREF
  2

  9
$UCSORTHOVIEW
 70
     0
  9
$UCSORGTOP
 10
0.0
 20
0.0
 30
0.0
  9
$UCSORGBOTTOM
 10
0.0
 20
0.0
 30
0.0
  9
$UCSORGLEFT
 10
0.0
 20
0.0
 30
0.0
  9
$UCSORGRIGHT
 10
0.0
 20
0.0
 30
0.0
  9
$UCSORGFRONT
 10
0.0
 20
0.0
 30
0.0
  9
$UCSORGBACK
 10
0.0
 20
0.0
 30
0.0
  9
$PUCSBASE
  2

  9
$PUCSNAME
  2

  9
$PUCSORG
 10
0.0
 20
0.0
 30
0.0
  9
$PUCSXDIR
 10
1.0
 20
0.0
 30
0.0
  9
$PUCSYDIR
 10
0.0
 20
1.0
 30
0.0
  9
$PUCSORTHOREF
  2

  9
$PUCSORTHOVIEW
 70
     0
  9
$PUCSORGTOP
 10
0.0
 20
0.0
 30
0.0
  9
$PUCSORGBOTTOM
 10
0.0
 20
0.0
 30
0.0
  9
$PUCSORGLEFT
 10
0.0
 20
0.0
 30
0.0
  9
$PUCSORGRIGHT
 10
0.0
 20
0.0
 30
0.0
  9
$PUCSORGFRONT
 10
0.0
 20
0.0
 30
0.0
  9
$PUCSORGBACK
 10
0.0
 20
0.0
 30
0.0
  9
$USERI1
 70
     0
  9
$USERI2
 70
     0
  9
$USERI3
 70
     0
  9
$USERI4
 70
     0
  9
$USERI5
 70
     0
  9
$USERR1
 40
0.0
  9
$USERR2
 40
0.0
  9
$USERR3
 40
0.0
  9
$USERR4
 40
0.0
  9
$USERR5
 40
0.0
  9
$WORLDVIEW
 70
     1
  9
$SHADEDGE
 70
     3
  9
$SHADEDIF
 70
    70
  9
$TILEMODE
 70
     1
  9
$MAXACTVP
 70
    64
  9
$PINSBASE
 10
0.0
 20
0.0
 30
0.0
  9
$PLIMCHECK
 70
     0
  9
$PEXTMIN
 10
1.000000000000000E+20
 20
1.000000000000000E+20
 30
1.000000000000000E+20
  9
$PEXTMAX
 10
-1.000000000000000E+20
 20
-1.000000000000000E+20
 30
-1.000000000000000E+20
  9
$PLIMMIN
 10
0.0
 20
0.0
  9
$PLIMMAX
 10
12.0
 20
9.0
  9
$UNITMODE
 70
     0
  9
$VISRETAIN
 70
     1
  9
$PLINEGEN
 70
     0
  9
$PSLTSCALE
 70
     1
  9
$TREEDEPTH
 70
  3020
  9
$CMLSTYLE
  2
Standard
  9
$CMLJUST
 70
     0
  9
$CMLSCALE
 40
1.0
  9
$PROXYGRAPHICS
 70
     1
  9
$MEASUREMENT
 70
     0
  9
$CELWEIGHT
370
    -1
  9
$ENDCAPS
280
     0
  9
$JOINSTYLE
280
     0
  9
$LWDISPLAY
290
     1
  9
$INSUNITS
 70
     1
  9
$HYPERLINKBASE
  1

  9
$STYLESHEET
  1

  9
$XEDIT
290
     1
  9
$CEPSNTYPE
380
     0
  9
$PSTYLEMODE
290
     1
  9
$FINGERPRINTGUID
  2
{7390736F-282B-4575-B841-85AEC98E3397}
  9
$VERSIONGUID
  2
{FAEB1C32-E019-11D5-929B-00C0DF256EC4}
  9
$EXTNAMES
290
     1
  9
$PSVPSCALE
 40
0.0
  9
$OLESTARTUP
290
     0
  9
$SORTENTS
280
   127
  9
$INDEXCTL
280
     0
  9
$HIDETEXT
280
     1
  9
$XCLIPFRAME
290
     0
  9
$HALOGAP
280
     0
  9
$OBSCOLOR
 70
   257
  9
$OBSLTYPE
280
     0
  9
$INTERSECTIONDISPLAY
280
     0
  9
$INTERSECTIONCOLOR
 70
   257
  9
$DIMASSOC
280
     2
  9
$PROJECTNAME
  1

  0
ENDSEC
  0
SECTION
  2
CLASSES
  0
CLASS
  1
ACDBDICTIONARYWDFLT
  2
AcDbDictionaryWithDefault
  3
ObjectDBX Classes
 90
        0
 91
        3
280
     0
281
     0
  0
CLASS
  1
VISUALSTYLE
  2
AcDbVisualStyle
  3
ObjectDBX Classes
 90
     4095
 91
        3
280
     0
281
     0
  0
ENDSEC
  0
SECTION
  2
TABLES
  0
TABLE
  2
VPORT
  5
8
330
0
100
AcDbSymbolTable
 70
     1
  0
VPORT
  5
29
330
8
100
AcDbSymbolTableRecord
100
AcDbViewportTableRecord
  2
*Active
 70
     0
 10
0.0
 20
0.0
 11
1.0
 21
1.0
 12
0.0
 22
0.0
 13
0.0
 23
0.0
 14
0.5
 24
0.5
 15
0.5
 25
0.5
 16
0.0
 26
0.0
 36
1.0
 17
105.0008091239277
 27
148.5001637099431
 37
0.0
 40
297.0003274198861
 41
0.7070753762199199
 42
50.0
 43
0.0
 44
0.0
 50
0.0
 51
0.0
 71
     0
 72
   100
 73
     1
 74
     3
 75
     0
 76
     0
 77
     0
 78
     0
281
     0
 65
     1
110
0.0
120
0.0
130
0.0
111
1.0
121
0.0
131
0.0
112
0.0
122
1.0
132
0.0
 79
     0
146
0.0
  0
ENDTAB
  0
TABLE
  2
LTYPE
  5
5
330
0
100
AcDbSymbolTable
 70
     4
  0
LTYPE
  5
14
330
5
100
AcDbSymbolTableRecord
100
AcDbLinetypeTableRecord
  2
ByBlock
 70
     0
  3

 72
    65
 73
     0
 40
0.0
  0
LTYPE
  5
15
330
5
100
AcDbSymbolTableRecord
100
AcDbLinetypeTableRecord
  2
ByLayer
 70
     0
  3

 72
    65
 73
     0
 40
0.0
  0
LTYPE
  5
16
330
5
100
AcDbSymbolTableRecord
100
AcDbLinetypeTableRecord
  2
Continuous
 70
     0
  3
Solid line
 72
    65
 73
     0
 40
0.0
  0
LTYPE
  5
40F
330
5
100
AcDbSymbolTableRecord
100
AcDbLinetypeTableRecord
  2
AI-Linetype-1
 70
     0
  3
Adobe Illustrator Linetype No. 1
 72
    65
 73
     4
 40
19.98659527776564
 49
9.991533748870172
 74
     0
 49
-4.995766874435086
 74
     0
 49
0.0035277800253007
 74
     0
 49
-4.995766874435086
 74
     0
  0
LTYPE
  5
418
330
5
100
AcDbSymbolTableRecord
100
AcDbLinetypeTableRecord
  2
AI-Linetype-2
 70
     0
  3
Adobe Illustrator Linetype No. 2
 72
    65
 73
     4
 40
24.98236248863606
 49
12.48941735430538
 74
     0
 49
-6.244708677152689
 74
     0
 49
0.0035277800253007
 74
     0
 49
-6.244708677152689
 74
     0
  0
LTYPE
  5
421
330
5
100
AcDbSymbolTableRecord
100
AcDbLinetypeTableRecord
  2
AI-Linetype-3
 70
     0
  3
Adobe Illustrator Linetype No. 3
 72
    65
 73
     4
 40
24.98236248863606
 49
12.48941735430538
 74
     0
 49
-6.244708677152689
 74
     0
 49
0.0035277800253007
 74
     0
 49
-6.244708677152689
 74
     0
  0
ENDTAB
  0
TABLE
  2
LAYER
  5
2
330
0
100
AcDbSymbolTable
 70
     9
  0
LAYER
  5
10
330
2
100
AcDbSymbolTableRecord
100
AcDbLayerTableRecord
  2
0
 70
     0
 62
     7
  6
Continuous
370
    -3
390
F
  0
LAYER
  5
3B
330
2
100
AcDbSymbolTableRecord
100
AcDbLayerTableRecord
  2
CAJETIN
 70
     0
 62
     7
  6
Continuous
370
    -3
390
F
  0
LAYER
  5
3C
330
2
100
AcDbSymbolTableRecord
100
AcDbLayerTableRecord
  2
TEXTO-NOMBRE
 70
     0
 62
     7
  6
Continuous
370
    -3
390
F
  0
LAYER
  5
3D
330
2
100
AcDbSymbolTableRecord
100
AcDbLayerTableRecord
  2
Fina
 70
     0
 62
     7
  6
Continuous
370
    -3
390
F
  0
LAYER
  5
182
330
2
100
AcDbSymbolTableRecord
100
AcDbLayerTableRecord
  2
SOMBREA
 70
     0
 62
     7
  6
Continuous
370
    -3
390
F
  0
LAYER
  5
1FE
330
2
100
AcDbSymbolTableRecord
100
AcDbLayerTableRecord
  2
PIEZA
 70
     0
 62
     7
  6
Continuous
370
    -3
390
F
  0
LAYER
  5
406
330
2
100
AcDbSymbolTableRecord
100
AcDbLayerTableRecord
  2
EJES
 70
     0
 62
     7
  6
Continuous
370
    -3
390
F
  0
LAYER
  5
422
330
2
100
AcDbSymbolTableRecord
100
AcDbLayerTableRecord
  2
LINEAS-FINAS
 70
     0
 62
     7
  6
Continuous
370
    -3
390
F
  0
LAYER
  5
433
330
2
100
AcDbSymbolTableRecord
100
AcDbLayerTableRecord
  2
COTAS
 70
     0
 62
     7
  6
Continuous
370
    -3
390
F
  0
ENDTAB
  0
TABLE
  2
STYLE
  5
3
330
0
100
AcDbSymbolTable
 70
     1
  0
STYLE
  5
11
330
3
100
AcDbSymbolTableRecord
100
AcDbTextStyleTableRecord
  2
Standard
 70
     0
 40
0.0
 41
1.0
 50
0.0
 71
     0
 42
0.2
  3
txt
  4

  0
ENDTAB
  0
TABLE
  2
VIEW
  5
6
330
0
100
AcDbSymbolTable
 70
     0
  0
ENDTAB
  0
TABLE
  2
UCS
  5
7
330
0
100
AcDbSymbolTable
 70
     0
  0
ENDTAB
  0
TABLE
  2
APPID
  5
9
330
0
100
AcDbSymbolTable
 70
     1
  0
APPID
  5
12
330
9
100
AcDbSymbolTableRecord
100
AcDbRegAppTableRecord
  2
ACAD
 70
     0
  0
ENDTAB
  0
TABLE
  2
DIMSTYLE
  5
A
330
0
100
AcDbSymbolTable
 70
     1
100
AcDbDimStyleTable
  0
DIMSTYLE
105
27
330
A
100
AcDbSymbolTableRecord
100
AcDbDimStyleTableRecord
  2
Standard
 70
     0
340
11
  0
ENDTAB
  0
TABLE
  2
BLOCK_RECORD
  5
1
330
0
100
AcDbSymbolTable
 70
   223
  0
BLOCK_RECORD
  5
1F
330
1
100
AcDbSymbolTableRecord
100
AcDbBlockTableRecord
  2
*Model_Space
340
22
  0
BLOCK_RECORD
  5
1B
330
1
100
AcDbSymbolTableRecord
100
AcDbBlockTableRecord
  2
*Paper_Space
340
1E
  0
BLOCK_RECORD
  5
23
330
1
100
AcDbSymbolTableRecord
100
AcDbBlockTableRecord
  2
*Paper_Space0
340
26
  0
BLOCK_RECORD
  5
3E
330
1
100
AcDbSymbolTableRecord
100
AcDbBlockTableRecord
  2
block 2
340
0
102
{BLKREFS
331
3F
102
}
  0
BLOCK_RECORD
  5
43
330
1
100
AcDbSymbolTableRecord
100
AcDbBlockTableRecord
  2
block 3
340
0
102
{BLKREFS
331
44
102
}
  0
BLOCK_RECORD
  5
48
330
1
100
AcDbSymbolTableRecord
100
AcDbBlockTableRecord
  2
block 4
340
0
102
{BLKREFS
331
49
102
}
  0
BLOCK_RECORD
  5
4D
330
1
100
AcDbSymbolTableRecord
100
AcDbBlockTableRecord
  2
block 5
340
0
102
{BLKREFS
331
4E
102
}
  0
BLOCK_RECORD
  5
52
330
1
100
AcDbSymbolTableRecord
100
AcDbBlockTableRecord
  2
block 6
340
0
102
{BLKREFS
331
53
102
}
  0
BLOCK_RECORD
  5
57
330
1
100
AcDbSymbolTableRecord
100
AcDbBlockTableRecord
  2
block 7
340
0
102
{BLKREFS
331
58
102
}
  0
BLOCK_RECORD
  5
5C
330
1
100
AcDbSymbolTableRecord
100
AcDbBlockTableRecord
  2
block 8
340
0
102
{BLKREFS
331
5D
102
}
  0
BLOCK_RECORD
  5
61
330
1
100
AcDbSymbolTableRecord
100
AcDbBlockTableRecord
  2
block 9
340
0
102
{BLKREFS
331
62
102
}
  0
BLOCK_RECORD
  5
66
330
1
100
AcDbSymbolTableRecord
100
AcDbBlockTableRecord
  2
block 10
340
0
102
{BLKREFS
331
67
102
}
  0
BLOCK_RECORD
  5
6B
330
1
100
AcDbSymbolTableRecord
100
AcDbBlockTableRecord
  2
block 11
340
0
102
{BLKREFS
331
6C
102
}
  0
BLOCK_RECORD
  5
70
330
1
100
AcDbSymbolTableRecord
100
AcDbBlockTableRecord
  2
block 12
340
0
102
{BLKREFS
331
71
102
}
  0
BLOCK_RECORD
  5
75
330
1
100
AcDbSymbolTableRecord
100
AcDbBlockTableRecord
  2
block 13
340
0
102
{BLKREFS
331
76
102
}
  0
BLOCK_RECORD
  5
7A
330
1
100
AcDbSymbolTableRecord
100
AcDbBlockTableRecord
  2
block 14
340
0
102
{BLKREFS
331
7B
102
}
  0
BLOCK_RECORD
  5
7F
330
1
100
AcDbSymbolTableRecord
100
AcDbBlockTableRecord
  2
block 15
340
0
102
{BLKREFS
331
80
102
}
  0
BLOCK_RECORD
  5
84
330
1
100
AcDbSymbolTableRecord
100
AcDbBlockTableRecord
  2
block 16
340
0
102
{BLKREFS
331
85
102
}
  0
BLOCK_RECORD
  5
89
330
1
100
AcDbSymbolTableRecord
100
AcDbBlockTableRecord
  2
block 17
340
0
102
{BLKREFS
331
8A
102
}
  0
BLOCK_RECORD
  5
8E
330
1
100
AcDbSymbolTableRecord
100
AcDbBlockTableRecord
  2
block 18
340
0
102
{BLKREFS
331
8F
102
}
  0
BLOCK_RECORD
  5
93
330
1
100
AcDbSymbolTableRecord
100
AcDbBlockTableRecord
  2
block 19
340
0
102
{BLKREFS
331
94
102
}
  0
BLOCK_RECORD
  5
98
330
1
100
AcDbSymbolTableRecord
100
AcDbBlockTableRecord
  2
block 20
340
0
102
{BLKREFS
331
99
102
}
  0
BLOCK_RECORD
  5
9D
330
1
100
AcDbSymbolTableRecord
100
AcDbBlockTableRecord
  2
block 21
340
0
102
{BLKREFS
331
9E
102
}
  0
BLOCK_RECORD
  5
A2
330
1
100
AcDbSymbolTableRecord
100
AcDbBlockTableRecord
  2
block 22
340
0
102
{BLKREFS
331
A3
102
}
  0
BLOCK_RECORD
  5
A7
330
1
100
AcDbSymbolTableRecord
100
AcDbBlockTableRecord
  2
block 23
340
0
102
{BLKREFS
331
A8
102
}
  0
BLOCK_RECORD
  5
AC
330
1
100
AcDbSymbolTableRecord
100
AcDbBlockTableRecord
  2
block 24
340
0
102
{BLKREFS
331
AD
102
}
  0
BLOCK_RECORD
  5
B1
330
1
100
AcDbSymbolTableRecord
100
AcDbBlockTableRecord
  2
block 25
340
0
102
{BLKREFS
331
B2
102
}
  0
BLOCK_RECORD
  5
B6
330
1
100
AcDbSymbolTableRecord
100
AcDbBlockTableRecord
  2
block 26
340
0
102
{BLKREFS
331
B7
102
}
  0
BLOCK_RECORD
  5
BB
330
1
100
AcDbSymbolTableRecord
100
AcDbBlockTableRecord
  2
block 27
340
0
102
{BLKREFS
331
BC
102
}
  0
BLOCK_RECORD
  5
C0
330
1
100
AcDbSymbolTableRecord
100
AcDbBlockTableRecord
  2
block 28
340
0
102
{BLKREFS
331
C1
102
}
  0
BLOCK_RECORD
  5
C5
330
1
100
AcDbSymbolTableRecord
100
AcDbBlockTableRecord
  2
block 29
340
0
102
{BLKREFS
331
C6
102
}
  0
BLOCK_RECORD
  5
CA
330
1
100
AcDbSymbolTableRecord
100
AcDbBlockTableRecord
  2
block 30
340
0
102
{BLKREFS
331
CB
102
}
  0
BLOCK_RECORD
  5
CF
330
1
100
AcDbSymbolTableRecord
100
AcDbBlockTableRecord
  2
block 31
340
0
102
{BLKREFS
331
D0
102
}
  0
BLOCK_RECORD
  5
D4
330
1
100
AcDbSymbolTableRecord
100
AcDbBlockTableRecord
  2
block 32
340
0
102
{BLKREFS
331
D5
102
}
  0
BLOCK_RECORD
  5
D9
330
1
100
AcDbSymbolTableRecord
100
AcDbBlockTableRecord
  2
block 33
340
0
102
{BLKREFS
331
DA
102
}
  0
BLOCK_RECORD
  5
DE
330
1
100
AcDbSymbolTableRecord
100
AcDbBlockTableRecord
  2
block 34
340
0
102
{BLKREFS
331
DF
102
}
  0
BLOCK_RECORD
  5
E3
330
1
100
AcDbSymbolTableRecord
100
AcDbBlockTableRecord
  2
block 35
340
0
102
{BLKREFS
331
E4
102
}
  0
BLOCK_RECORD
  5
E8
330
1
100
AcDbSymbolTableRecord
100
AcDbBlockTableRecord
  2
block 36
340
0
102
{BLKREFS
331
E9
102
}
  0
BLOCK_RECORD
  5
ED
330
1
100
AcDbSymbolTableRecord
100
AcDbBlockTableRecord
  2
block 37
340
0
102
{BLKREFS
331
EE
102
}
  0
BLOCK_RECORD
  5
F2
330
1
100
AcDbSymbolTableRecord
100
AcDbBlockTableRecord
  2
block 38
340
0
102
{BLKREFS
331
F3
102
}
  0
BLOCK_RECORD
  5
F7
330
1
100
AcDbSymbolTableRecord
100
AcDbBlockTableRecord
  2
block 39
340
0
102
{BLKREFS
331
F8
102
}
  0
BLOCK_RECORD
  5
FC
330
1
100
AcDbSymbolTableRecord
100
AcDbBlockTableRecord
  2
block 40
340
0
102
{BLKREFS
331
FD
102
}
  0
BLOCK_RECORD
  5
101
330
1
100
AcDbSymbolTableRecord
100
AcDbBlockTableRecord
  2
block 41
340
0
102
{BLKREFS
331
102
102
}
  0
BLOCK_RECORD
  5
106
330
1
100
AcDbSymbolTableRecord
100
AcDbBlockTableRecord
  2
block 42
340
0
102
{BLKREFS
331
107
102
}
  0
BLOCK_RECORD
  5
10B
330
1
100
AcDbSymbolTableRecord
100
AcDbBlockTableRecord
  2
block 43
340
0
102
{BLKREFS
331
10C
102
}
  0
BLOCK_RECORD
  5
110
330
1
100
AcDbSymbolTableRecord
100
AcDbBlockTableRecord
  2
block 44
340
0
102
{BLKREFS
331
111
102
}
  0
BLOCK_RECORD
  5
115
330
1
100
AcDbSymbolTableRecord
100
AcDbBlockTableRecord
  2
block 45
340
0
102
{BLKREFS
331
116
102
}
  0
BLOCK_RECORD
  5
11A
330
1
100
AcDbSymbolTableRecord
100
AcDbBlockTableRecord
  2
block 46
340
0
102
{BLKREFS
331
11B
102
}
  0
BLOCK_RECORD
  5
11F
330
1
100
AcDbSymbolTableRecord
100
AcDbBlockTableRecord
  2
block 47
340
0
102
{BLKREFS
331
120
102
}
  0
BLOCK_RECORD
  5
124
330
1
100
AcDbSymbolTableRecord
100
AcDbBlockTableRecord
  2
block 48
340
0
102
{BLKREFS
331
125
102
}
  0
BLOCK_RECORD
  5
129
330
1
100
AcDbSymbolTableRecord
100
AcDbBlockTableRecord
  2
block 49
340
0
102
{BLKREFS
331
12A
102
}
  0
BLOCK_RECORD
  5
12E
330
1
100
AcDbSymbolTableRecord
100
AcDbBlockTableRecord
  2
block 50
340
0
102
{BLKREFS
331
12F
102
}
  0
BLOCK_RECORD
  5
133
330
1
100
AcDbSymbolTableRecord
100
AcDbBlockTableRecord
  2
block 51
340
0
102
{BLKREFS
331
134
102
}
  0
BLOCK_RECORD
  5
138
330
1
100
AcDbSymbolTableRecord
100
AcDbBlockTableRecord
  2
block 52
340
0
102
{BLKREFS
331
139
102
}
  0
BLOCK_RECORD
  5
13D
330
1
100
AcDbSymbolTableRecord
100
AcDbBlockTableRecord
  2
block 53
340
0
102
{BLKREFS
331
13E
102
}
  0
BLOCK_RECORD
  5
142
330
1
100
AcDbSymbolTableRecord
100
AcDbBlockTableRecord
  2
block 54
340
0
102
{BLKREFS
331
143
102
}
  0
BLOCK_RECORD
  5
147
330
1
100
AcDbSymbolTableRecord
100
AcDbBlockTableRecord
  2
block 55
340
0
102
{BLKREFS
331
148
102
}
  0
BLOCK_RECORD
  5
14C
330
1
100
AcDbSymbolTableRecord
100
AcDbBlockTableRecord
  2
block 56
340
0
102
{BLKREFS
331
14D
102
}
  0
BLOCK_RECORD
  5
151
330
1
100
AcDbSymbolTableRecord
100
AcDbBlockTableRecord
  2
block 57
340
0
102
{BLKREFS
331
152
102
}
  0
BLOCK_RECORD
  5
156
330
1
100
AcDbSymbolTableRecord
100
AcDbBlockTableRecord
  2
block 58
340
0
102
{BLKREFS
331
157
102
}
  0
BLOCK_RECORD
  5
15B
330
1
100
AcDbSymbolTableRecord
100
AcDbBlockTableRecord
  2
block 59
340
0
102
{BLKREFS
331
15C
102
}
  0
BLOCK_RECORD
  5
160
330
1
100
AcDbSymbolTableRecord
100
AcDbBlockTableRecord
  2
block 60
340
0
102
{BLKREFS
331
161
102
}
  0
BLOCK_RECORD
  5
168
330
1
100
AcDbSymbolTableRecord
100
AcDbBlockTableRecord
  2
block 61
340
0
102
{BLKREFS
331
169
102
}
  0
BLOCK_RECORD
  5
16D
330
1
100
AcDbSymbolTableRecord
100
AcDbBlockTableRecord
  2
block 62
340
0
102
{BLKREFS
331
16E
102
}
  0
BLOCK_RECORD
  5
172
330
1
100
AcDbSymbolTableRecord
100
AcDbBlockTableRecord
  2
block 63
340
0
102
{BLKREFS
331
173
102
}
  0
BLOCK_RECORD
  5
17A
330
1
100
AcDbSymbolTableRecord
100
AcDbBlockTableRecord
  2
block 64
340
0
102
{BLKREFS
331
17B
102
}
  0
BLOCK_RECORD
  5
183
330
1
100
AcDbSymbolTableRecord
100
AcDbBlockTableRecord
  2
block 65
340
0
102
{BLKREFS
331
184
102
}
  0
BLOCK_RECORD
  5
197
330
1
100
AcDbSymbolTableRecord
100
AcDbBlockTableRecord
  2
block 66
340
0
102
{BLKREFS
331
198
102
}
  0
BLOCK_RECORD
  5
1A9
330
1
100
AcDbSymbolTableRecord
100
AcDbBlockTableRecord
  2
block 67
340
0
102
{BLKREFS
331
1AA
102
}
  0
BLOCK_RECORD
  5
1BD
330
1
100
AcDbSymbolTableRecord
100
AcDbBlockTableRecord
  2
block 68
340
0
102
{BLKREFS
331
1BE
102
}
  0
BLOCK_RECORD
  5
1C4
330
1
100
AcDbSymbolTableRecord
100
AcDbBlockTableRecord
  2
block 69
340
0
102
{BLKREFS
331
1C5
102
}
  0
BLOCK_RECORD
  5
1D8
330
1
100
AcDbSymbolTableRecord
100
AcDbBlockTableRecord
  2
block 70
340
0
102
{BLKREFS
331
1D9
102
}
  0
BLOCK_RECORD
  5
1EA
330
1
100
AcDbSymbolTableRecord
100
AcDbBlockTableRecord
  2
block 71
340
0
102
{BLKREFS
331
1EB
102
}
  0
BLOCK_RECORD
  5
1FF
330
1
100
AcDbSymbolTableRecord
100
AcDbBlockTableRecord
  2
block 72
340
0
102
{BLKREFS
331
200
102
}
  0
BLOCK_RECORD
  5
207
330
1
100
AcDbSymbolTableRecord
100
AcDbBlockTableRecord
  2
block 73
340
0
102
{BLKREFS
331
208
102
}
  0
BLOCK_RECORD
  5
20F
330
1
100
AcDbSymbolTableRecord
100
AcDbBlockTableRecord
  2
block 74
340
0
102
{BLKREFS
331
210
102
}
  0
BLOCK_RECORD
  5
217
330
1
100
AcDbSymbolTableRecord
100
AcDbBlockTableRecord
  2
block 75
340
0
102
{BLKREFS
331
218
102
}
  0
BLOCK_RECORD
  5
21C
330
1
100
AcDbSymbolTableRecord
100
AcDbBlockTableRecord
  2
block 76
340
0
102
{BLKREFS
331
21D
102
}
  0
BLOCK_RECORD
  5
221
330
1
100
AcDbSymbolTableRecord
100
AcDbBlockTableRecord
  2
block 77
340
0
102
{BLKREFS
331
222
102
}
  0
BLOCK_RECORD
  5
226
330
1
100
AcDbSymbolTableRecord
100
AcDbBlockTableRecord
  2
block 78
340
0
102
{BLKREFS
331
227
102
}
  0
BLOCK_RECORD
  5
22E
330
1
100
AcDbSymbolTableRecord
100
AcDbBlockTableRecord
  2
block 79
340
0
102
{BLKREFS
331
22F
102
}
  0
BLOCK_RECORD
  5
233
330
1
100
AcDbSymbolTableRecord
100
AcDbBlockTableRecord
  2
block 80
340
0
102
{BLKREFS
331
234
102
}
  0
BLOCK_RECORD
  5
238
330
1
100
AcDbSymbolTableRecord
100
AcDbBlockTableRecord
  2
block 81
340
0
102
{BLKREFS
331
239
102
}
  0
BLOCK_RECORD
  5
240
330
1
100
AcDbSymbolTableRecord
100
AcDbBlockTableRecord
  2
block 82
340
0
102
{BLKREFS
331
241
102
}
  0
BLOCK_RECORD
  5
248
330
1
100
AcDbSymbolTableRecord
100
AcDbBlockTableRecord
  2
block 83
340
0
102
{BLKREFS
331
249
102
}
  0
BLOCK_RECORD
  5
250
330
1
100
AcDbSymbolTableRecord
100
AcDbBlockTableRecord
  2
block 84
340
0
102
{BLKREFS
331
251
102
}
  0
BLOCK_RECORD
  5
255
330
1
100
AcDbSymbolTableRecord
100
AcDbBlockTableRecord
  2
block 85
340
0
102
{BLKREFS
331
256
102
}
  0
BLOCK_RECORD
  5
25A
330
1
100
AcDbSymbolTableRecord
100
AcDbBlockTableRecord
  2
block 86
340
0
102
{BLKREFS
331
25B
102
}
  0
BLOCK_RECORD
  5
262
330
1
100
AcDbSymbolTableRecord
100
AcDbBlockTableRecord
  2
block 87
340
0
102
{BLKREFS
331
263
102
}
  0
BLOCK_RECORD
  5
26A
330
1
100
AcDbSymbolTableRecord
100
AcDbBlockTableRecord
  2
block 88
340
0
102
{BLKREFS
331
26B
102
}
  0
BLOCK_RECORD
  5
26F
330
1
100
AcDbSymbolTableRecord
100
AcDbBlockTableRecord
  2
block 89
340
0
102
{BLKREFS
331
270
102
}
  0
BLOCK_RECORD
  5
277
330
1
100
AcDbSymbolTableRecord
100
AcDbBlockTableRecord
  2
block 90
340
0
102
{BLKREFS
331
278
102
}
  0
BLOCK_RECORD
  5
27F
330
1
100
AcDbSymbolTableRecord
100
AcDbBlockTableRecord
  2
block 91
340
0
102
{BLKREFS
331
280
102
}
  0
BLOCK_RECORD
  5
284
330
1
100
AcDbSymbolTableRecord
100
AcDbBlockTableRecord
  2
block 92
340
0
102
{BLKREFS
331
285
102
}
  0
BLOCK_RECORD
  5
28C
330
1
100
AcDbSymbolTableRecord
100
AcDbBlockTableRecord
  2
block 93
340
0
102
{BLKREFS
331
28D
102
}
  0
BLOCK_RECORD
  5
294
330
1
100
AcDbSymbolTableRecord
100
AcDbBlockTableRecord
  2
block 94
340
0
102
{BLKREFS
331
295
102
}
  0
BLOCK_RECORD
  5
299
330
1
100
AcDbSymbolTableRecord
100
AcDbBlockTableRecord
  2
block 95
340
0
102
{BLKREFS
331
29A
102
}
  0
BLOCK_RECORD
  5
29E
330
1
100
AcDbSymbolTableRecord
100
AcDbBlockTableRecord
  2
block 96
340
0
102
{BLKREFS
331
29F
102
}
  0
BLOCK_RECORD
  5
2A3
330
1
100
AcDbSymbolTableRecord
100
AcDbBlockTableRecord
  2
block 97
340
0
102
{BLKREFS
331
2A4
102
}
  0
BLOCK_RECORD
  5
2A8
330
1
100
AcDbSymbolTableRecord
100
AcDbBlockTableRecord
  2
block 98
340
0
102
{BLKREFS
331
2A9
102
}
  0
BLOCK_RECORD
  5
2AD
330
1
100
AcDbSymbolTableRecord
100
AcDbBlockTableRecord
  2
block 99
340
0
102
{BLKREFS
331
2AE
102
}
  0
BLOCK_RECORD
  5
2B2
330
1
100
AcDbSymbolTableRecord
100
AcDbBlockTableRecord
  2
block 100
340
0
102
{BLKREFS
331
2B3
102
}
  0
BLOCK_RECORD
  5
2B7
330
1
100
AcDbSymbolTableRecord
100
AcDbBlockTableRecord
  2
block 101
340
0
102
{BLKREFS
331
2B8
102
}
  0
BLOCK_RECORD
  5
2BC
330
1
100
AcDbSymbolTableRecord
100
AcDbBlockTableRecord
  2
block 102
340
0
102
{BLKREFS
331
2BD
102
}
  0
BLOCK_RECORD
  5
2C1
330
1
100
AcDbSymbolTableRecord
100
AcDbBlockTableRecord
  2
block 103
340
0
102
{BLKREFS
331
2C2
102
}
  0
BLOCK_RECORD
  5
2C6
330
1
100
AcDbSymbolTableRecord
100
AcDbBlockTableRecord
  2
block 104
340
0
102
{BLKREFS
331
2C7
102
}
  0
BLOCK_RECORD
  5
2CB
330
1
100
AcDbSymbolTableRecord
100
AcDbBlockTableRecord
  2
block 105
340
0
102
{BLKREFS
331
2CC
102
}
  0
BLOCK_RECORD
  5
2D0
330
1
100
AcDbSymbolTableRecord
100
AcDbBlockTableRecord
  2
block 106
340
0
102
{BLKREFS
331
2D1
102
}
  0
BLOCK_RECORD
  5
2D8
330
1
100
AcDbSymbolTableRecord
100
AcDbBlockTableRecord
  2
block 107
340
0
102
{BLKREFS
331
2D9
102
}
  0
BLOCK_RECORD
  5
2DD
330
1
100
AcDbSymbolTableRecord
100
AcDbBlockTableRecord
  2
block 108
340
0
102
{BLKREFS
331
2DE
102
}
  0
BLOCK_RECORD
  5
2E5
330
1
100
AcDbSymbolTableRecord
100
AcDbBlockTableRecord
  2
block 109
340
0
102
{BLKREFS
331
2E6
102
}
  0
BLOCK_RECORD
  5
2ED
330
1
100
AcDbSymbolTableRecord
100
AcDbBlockTableRecord
  2
block 110
340
0
102
{BLKREFS
331
2EE
102
}
  0
BLOCK_RECORD
  5
2F2
330
1
100
AcDbSymbolTableRecord
100
AcDbBlockTableRecord
  2
block 111
340
0
102
{BLKREFS
331
2F3
102
}
  0
BLOCK_RECORD
  5
2F7
330
1
100
AcDbSymbolTableRecord
100
AcDbBlockTableRecord
  2
block 112
340
0
102
{BLKREFS
331
2F8
102
}
  0
BLOCK_RECORD
  5
2FC
330
1
100
AcDbSymbolTableRecord
100
AcDbBlockTableRecord
  2
block 113
340
0
102
{BLKREFS
331
2FD
102
}
  0
BLOCK_RECORD
  5
304
330
1
100
AcDbSymbolTableRecord
100
AcDbBlockTableRecord
  2
block 114
340
0
102
{BLKREFS
331
305
102
}
  0
BLOCK_RECORD
  5
30C
330
1
100
AcDbSymbolTableRecord
100
AcDbBlockTableRecord
  2
block 115
340
0
102
{BLKREFS
331
30D
102
}
  0
BLOCK_RECORD
  5
314
330
1
100
AcDbSymbolTableRecord
100
AcDbBlockTableRecord
  2
block 116
340
0
102
{BLKREFS
331
315
102
}
  0
BLOCK_RECORD
  5
31C
330
1
100
AcDbSymbolTableRecord
100
AcDbBlockTableRecord
  2
block 117
340
0
102
{BLKREFS
331
31D
102
}
  0
BLOCK_RECORD
  5
324
330
1
100
AcDbSymbolTableRecord
100
AcDbBlockTableRecord
  2
block 118
340
0
102
{BLKREFS
331
325
102
}
  0
BLOCK_RECORD
  5
32C
330
1
100
AcDbSymbolTableRecord
100
AcDbBlockTableRecord
  2
block 119
340
0
102
{BLKREFS
331
32D
102
}
  0
BLOCK_RECORD
  5
334
330
1
100
AcDbSymbolTableRecord
100
AcDbBlockTableRecord
  2
block 120
340
0
102
{BLKREFS
331
335
102
}
  0
BLOCK_RECORD
  5
339
330
1
100
AcDbSymbolTableRecord
100
AcDbBlockTableRecord
  2
block 121
340
0
102
{BLKREFS
331
33A
102
}
  0
BLOCK_RECORD
  5
341
330
1
100
AcDbSymbolTableRecord
100
AcDbBlockTableRecord
  2
block 122
340
0
102
{BLKREFS
331
342
102
}
  0
BLOCK_RECORD
  5
349
330
1
100
AcDbSymbolTableRecord
100
AcDbBlockTableRecord
  2
block 123
340
0
102
{BLKREFS
331
34A
102
}
  0
BLOCK_RECORD
  5
34E
330
1
100
AcDbSymbolTableRecord
100
AcDbBlockTableRecord
  2
block 124
340
0
102
{BLKREFS
331
34F
102
}
  0
BLOCK_RECORD
  5
356
330
1
100
AcDbSymbolTableRecord
100
AcDbBlockTableRecord
  2
block 125
340
0
102
{BLKREFS
331
357
102
}
  0
BLOCK_RECORD
  5
35E
330
1
100
AcDbSymbolTableRecord
100
AcDbBlockTableRecord
  2
block 126
340
0
102
{BLKREFS
331
35F
102
}
  0
BLOCK_RECORD
  5
363
330
1
100
AcDbSymbolTableRecord
100
AcDbBlockTableRecord
  2
block 127
340
0
102
{BLKREFS
331
364
102
}
  0
BLOCK_RECORD
  5
368
330
1
100
AcDbSymbolTableRecord
100
AcDbBlockTableRecord
  2
block 128
340
0
102
{BLKREFS
331
369
102
}
  0
BLOCK_RECORD
  5
36D
330
1
100
AcDbSymbolTableRecord
100
AcDbBlockTableRecord
  2
block 129
340
0
102
{BLKREFS
331
36E
102
}
  0
BLOCK_RECORD
  5
372
330
1
100
AcDbSymbolTableRecord
100
AcDbBlockTableRecord
  2
block 130
340
0
102
{BLKREFS
331
373
102
}
  0
BLOCK_RECORD
  5
377
330
1
100
AcDbSymbolTableRecord
100
AcDbBlockTableRecord
  2
block 131
340
0
102
{BLKREFS
331
378
102
}
  0
BLOCK_RECORD
  5
37C
330
1
100
AcDbSymbolTableRecord
100
AcDbBlockTableRecord
  2
block 132
340
0
102
{BLKREFS
331
37D
102
}
  0
BLOCK_RECORD
  5
381
330
1
100
AcDbSymbolTableRecord
100
AcDbBlockTableRecord
  2
block 133
340
0
102
{BLKREFS
331
382
102
}
  0
BLOCK_RECORD
  5
386
330
1
100
AcDbSymbolTableRecord
100
AcDbBlockTableRecord
  2
block 134
340
0
102
{BLKREFS
331
387
102
}
  0
BLOCK_RECORD
  5
38B
330
1
100
AcDbSymbolTableRecord
100
AcDbBlockTableRecord
  2
block 135
340
0
102
{BLKREFS
331
38C
102
}
  0
BLOCK_RECORD
  5
390
330
1
100
AcDbSymbolTableRecord
100
AcDbBlockTableRecord
  2
block 136
340
0
102
{BLKREFS
331
391
102
}
  0
BLOCK_RECORD
  5
395
330
1
100
AcDbSymbolTableRecord
100
AcDbBlockTableRecord
  2
block 137
340
0
102
{BLKREFS
331
396
102
}
  0
BLOCK_RECORD
  5
39A
330
1
100
AcDbSymbolTableRecord
100
AcDbBlockTableRecord
  2
block 138
340
0
102
{BLKREFS
331
39B
102
}
  0
BLOCK_RECORD
  5
3A2
330
1
100
AcDbSymbolTableRecord
100
AcDbBlockTableRecord
  2
block 139
340
0
102
{BLKREFS
331
3A3
102
}
  0
BLOCK_RECORD
  5
3A7
330
1
100
AcDbSymbolTableRecord
100
AcDbBlockTableRecord
  2
block 140
340
0
102
{BLKREFS
331
3A8
102
}
  0
BLOCK_RECORD
  5
3AF
330
1
100
AcDbSymbolTableRecord
100
AcDbBlockTableRecord
  2
block 141
340
0
102
{BLKREFS
331
3B0
102
}
  0
BLOCK_RECORD
  5
3B7
330
1
100
AcDbSymbolTableRecord
100
AcDbBlockTableRecord
  2
block 142
340
0
102
{BLKREFS
331
3B8
102
}
  0
BLOCK_RECORD
  5
3BC
330
1
100
AcDbSymbolTableRecord
100
AcDbBlockTableRecord
  2
block 143
340
0
102
{BLKREFS
331
3BD
102
}
  0
BLOCK_RECORD
  5
3C1
330
1
100
AcDbSymbolTableRecord
100
AcDbBlockTableRecord
  2
block 144
340
0
102
{BLKREFS
331
3C2
102
}
  0
BLOCK_RECORD
  5
3C6
330
1
100
AcDbSymbolTableRecord
100
AcDbBlockTableRecord
  2
block 145
340
0
102
{BLKREFS
331
3C7
102
}
  0
BLOCK_RECORD
  5
3CE
330
1
100
AcDbSymbolTableRecord
100
AcDbBlockTableRecord
  2
block 146
340
0
102
{BLKREFS
331
3CF
102
}
  0
BLOCK_RECORD
  5
3D6
330
1
100
AcDbSymbolTableRecord
100
AcDbBlockTableRecord
  2
block 147
340
0
102
{BLKREFS
331
3D7
102
}
  0
BLOCK_RECORD
  5
3DE
330
1
100
AcDbSymbolTableRecord
100
AcDbBlockTableRecord
  2
block 148
340
0
102
{BLKREFS
331
3DF
102
}
  0
BLOCK_RECORD
  5
3E6
330
1
100
AcDbSymbolTableRecord
100
AcDbBlockTableRecord
  2
block 149
340
0
102
{BLKREFS
331
3E7
102
}
  0
BLOCK_RECORD
  5
3EE
330
1
100
AcDbSymbolTableRecord
100
AcDbBlockTableRecord
  2
block 150
340
0
102
{BLKREFS
331
3EF
102
}
  0
BLOCK_RECORD
  5
3F6
330
1
100
AcDbSymbolTableRecord
100
AcDbBlockTableRecord
  2
block 151
340
0
102
{BLKREFS
331
3F7
102
}
  0
BLOCK_RECORD
  5
3FE
330
1
100
AcDbSymbolTableRecord
100
AcDbBlockTableRecord
  2
block 152
340
0
102
{BLKREFS
331
3FF
102
}
  0
BLOCK_RECORD
  5
407
330
1
100
AcDbSymbolTableRecord
100
AcDbBlockTableRecord
  2
block 153
340
0
102
{BLKREFS
331
408
102
}
  0
BLOCK_RECORD
  5
410
330
1
100
AcDbSymbolTableRecord
100
AcDbBlockTableRecord
  2
block 154
340
0
102
{BLKREFS
331
411
102
}
  0
BLOCK_RECORD
  5
419
330
1
100
AcDbSymbolTableRecord
100
AcDbBlockTableRecord
  2
block 155
340
0
102
{BLKREFS
331
41A
102
}
  0
BLOCK_RECORD
  5
423
330
1
100
AcDbSymbolTableRecord
100
AcDbBlockTableRecord
  2
block 156
340
0
102
{BLKREFS
331
424
102
}
  0
BLOCK_RECORD
  5
42B
330
1
100
AcDbSymbolTableRecord
100
AcDbBlockTableRecord
  2
block 157
340
0
102
{BLKREFS
331
42C
102
}
  0
BLOCK_RECORD
  5
434
330
1
100
AcDbSymbolTableRecord
100
AcDbBlockTableRecord
  2
block 158
340
0
102
{BLKREFS
331
435
102
}
  0
BLOCK_RECORD
  5
438
330
1
100
AcDbSymbolTableRecord
100
AcDbBlockTableRecord
  2
block 159
340
0
102
{BLKREFS
331
439
102
}
  0
BLOCK_RECORD
  5
440
330
1
100
AcDbSymbolTableRecord
100
AcDbBlockTableRecord
  2
block 160
340
0
102
{BLKREFS
331
441
102
}
  0
BLOCK_RECORD
  5
448
330
1
100
AcDbSymbolTableRecord
100
AcDbBlockTableRecord
  2
block 161
340
0
102
{BLKREFS
331
449
102
}
  0
BLOCK_RECORD
  5
450
330
1
100
AcDbSymbolTableRecord
100
AcDbBlockTableRecord
  2
block 162
340
0
102
{BLKREFS
331
451
102
}
  0
BLOCK_RECORD
  5
458
330
1
100
AcDbSymbolTableRecord
100
AcDbBlockTableRecord
  2
block 163
340
0
102
{BLKREFS
331
459
102
}
  0
BLOCK_RECORD
  5
463
330
1
100
AcDbSymbolTableRecord
100
AcDbBlockTableRecord
  2
block 164
340
0
102
{BLKREFS
331
464
102
}
  0
BLOCK_RECORD
  5
46E
330
1
100
AcDbSymbolTableRecord
100
AcDbBlockTableRecord
  2
block 165
340
0
102
{BLKREFS
331
46F
102
}
  0
BLOCK_RECORD
  5
473
330
1
100
AcDbSymbolTableRecord
100
AcDbBlockTableRecord
  2
block 166
340
0
102
{BLKREFS
331
474
102
}
  0
BLOCK_RECORD
  5
47B
330
1
100
AcDbSymbolTableRecord
100
AcDbBlockTableRecord
  2
block 167
340
0
102
{BLKREFS
331
47C
102
}
  0
BLOCK_RECORD
  5
483
330
1
100
AcDbSymbolTableRecord
100
AcDbBlockTableRecord
  2
block 168
340
0
102
{BLKREFS
331
484
102
}
  0
BLOCK_RECORD
  5
48B
330
1
100
AcDbSymbolTableRecord
100
AcDbBlockTableRecord
  2
block 169
340
0
102
{BLKREFS
331
48C
102
}
  0
BLOCK_RECORD
  5
48F
330
1
100
AcDbSymbolTableRecord
100
AcDbBlockTableRecord
  2
block 170
340
0
102
{BLKREFS
331
490
102
}
  0
BLOCK_RECORD
  5
497
330
1
100
AcDbSymbolTableRecord
100
AcDbBlockTableRecord
  2
block 171
340
0
102
{BLKREFS
331
498
102
}
  0
BLOCK_RECORD
  5
49F
330
1
100
AcDbSymbolTableRecord
100
AcDbBlockTableRecord
  2
block 172
340
0
102
{BLKREFS
331
4A0
102
}
  0
BLOCK_RECORD
  5
4A7
330
1
100
AcDbSymbolTableRecord
100
AcDbBlockTableRecord
  2
block 173
340
0
102
{BLKREFS
331
4A8
102
}
  0
BLOCK_RECORD
  5
4AF
330
1
100
AcDbSymbolTableRecord
100
AcDbBlockTableRecord
  2
block 174
340
0
102
{BLKREFS
331
4B0
102
}
  0
BLOCK_RECORD
  5
4BA
330
1
100
AcDbSymbolTableRecord
100
AcDbBlockTableRecord
  2
block 175
340
0
102
{BLKREFS
331
4BB
102
}
  0
BLOCK_RECORD
  5
4C5
330
1
100
AcDbSymbolTableRecord
100
AcDbBlockTableRecord
  2
block 176
340
0
102
{BLKREFS
331
4C6
102
}
  0
BLOCK_RECORD
  5
4CA
330
1
100
AcDbSymbolTableRecord
100
AcDbBlockTableRecord
  2
block 177
340
0
102
{BLKREFS
331
4CB
102
}
  0
BLOCK_RECORD
  5
4D2
330
1
100
AcDbSymbolTableRecord
100
AcDbBlockTableRecord
  2
block 178
340
0
102
{BLKREFS
331
4D3
102
}
  0
BLOCK_RECORD
  5
4DA
330
1
100
AcDbSymbolTableRecord
100
AcDbBlockTableRecord
  2
block 179
340
0
102
{BLKREFS
331
4DB
102
}
  0
BLOCK_RECORD
  5
4E2
330
1
100
AcDbSymbolTableRecord
100
AcDbBlockTableRecord
  2
block 180
340
0
102
{BLKREFS
331
4E3
102
}
  0
BLOCK_RECORD
  5
4E6
330
1
100
AcDbSymbolTableRecord
100
AcDbBlockTableRecord
  2
block 181
340
0
102
{BLKREFS
331
4E7
102
}
  0
BLOCK_RECORD
  5
4EE
330
1
100
AcDbSymbolTableRecord
100
AcDbBlockTableRecord
  2
block 182
340
0
102
{BLKREFS
331
4EF
102
}
  0
BLOCK_RECORD
  5
4F6
330
1
100
AcDbSymbolTableRecord
100
AcDbBlockTableRecord
  2
block 183
340
0
102
{BLKREFS
331
4F7
102
}
  0
BLOCK_RECORD
  5
4FE
330
1
100
AcDbSymbolTableRecord
100
AcDbBlockTableRecord
  2
block 184
340
0
102
{BLKREFS
331
4FF
102
}
  0
BLOCK_RECORD
  5
506
330
1
100
AcDbSymbolTableRecord
100
AcDbBlockTableRecord
  2
block 185
340
0
102
{BLKREFS
331
507
102
}
  0
BLOCK_RECORD
  5
511
330
1
100
AcDbSymbolTableRecord
100
AcDbBlockTableRecord
  2
block 186
340
0
102
{BLKREFS
331
512
102
}
  0
BLOCK_RECORD
  5
51C
330
1
100
AcDbSymbolTableRecord
100
AcDbBlockTableRecord
  2
block 187
340
0
102
{BLKREFS
331
51D
102
}
  0
BLOCK_RECORD
  5
521
330
1
100
AcDbSymbolTableRecord
100
AcDbBlockTableRecord
  2
block 188
340
0
102
{BLKREFS
331
522
102
}
  0
BLOCK_RECORD
  5
529
330
1
100
AcDbSymbolTableRecord
100
AcDbBlockTableRecord
  2
block 189
340
0
102
{BLKREFS
331
52A
102
}
  0
BLOCK_RECORD
  5
531
330
1
100
AcDbSymbolTableRecord
100
AcDbBlockTableRecord
  2
block 190
340
0
102
{BLKREFS
331
532
102
}
  0
BLOCK_RECORD
  5
539
330
1
100
AcDbSymbolTableRecord
100
AcDbBlockTableRecord
  2
block 191
340
0
102
{BLKREFS
331
53A
102
}
  0
BLOCK_RECORD
  5
53D
330
1
100
AcDbSymbolTableRecord
100
AcDbBlockTableRecord
  2
block 192
340
0
102
{BLKREFS
331
53E
102
}
  0
BLOCK_RECORD
  5
545
330
1
100
AcDbSymbolTableRecord
100
AcDbBlockTableRecord
  2
block 193
340
0
102
{BLKREFS
331
546
102
}
  0
BLOCK_RECORD
  5
54D
330
1
100
AcDbSymbolTableRecord
100
AcDbBlockTableRecord
  2
block 194
340
0
102
{BLKREFS
331
54E
102
}
  0
BLOCK_RECORD
  5
555
330
1
100
AcDbSymbolTableRecord
100
AcDbBlockTableRecord
  2
block 195
340
0
102
{BLKREFS
331
556
102
}
  0
BLOCK_RECORD
  5
55D
330
1
100
AcDbSymbolTableRecord
100
AcDbBlockTableRecord
  2
block 196
340
0
102
{BLKREFS
331
55E
102
}
  0
BLOCK_RECORD
  5
568
330
1
100
AcDbSymbolTableRecord
100
AcDbBlockTableRecord
  2
block 197
340
0
102
{BLKREFS
331
569
102
}
  0
BLOCK_RECORD
  5
573
330
1
100
AcDbSymbolTableRecord
100
AcDbBlockTableRecord
  2
block 198
340
0
102
{BLKREFS
331
574
102
}
  0
BLOCK_RECORD
  5
578
330
1
100
AcDbSymbolTableRecord
100
AcDbBlockTableRecord
  2
block 199
340
0
102
{BLKREFS
331
579
102
}
  0
BLOCK_RECORD
  5
580
330
1
100
AcDbSymbolTableRecord
100
AcDbBlockTableRecord
  2
block 200
340
0
102
{BLKREFS
331
581
102
}
  0
BLOCK_RECORD
  5
588
330
1
100
AcDbSymbolTableRecord
100
AcDbBlockTableRecord
  2
block 201
340
0
102
{BLKREFS
331
589
102
}
  0
BLOCK_RECORD
  5
590
330
1
100
AcDbSymbolTableRecord
100
AcDbBlockTableRecord
  2
block 202
340
0
102
{BLKREFS
331
591
102
}
  0
BLOCK_RECORD
  5
594
330
1
100
AcDbSymbolTableRecord
100
AcDbBlockTableRecord
  2
block 203
340
0
102
{BLKREFS
331
595
102
}
  0
BLOCK_RECORD
  5
59C
330
1
100
AcDbSymbolTableRecord
100
AcDbBlockTableRecord
  2
block 204
340
0
102
{BLKREFS
331
59D
102
}
  0
BLOCK_RECORD
  5
5A4
330
1
100
AcDbSymbolTableRecord
100
AcDbBlockTableRecord
  2
block 205
340
0
102
{BLKREFS
331
5A5
102
}
  0
BLOCK_RECORD
  5
5AC
330
1
100
AcDbSymbolTableRecord
100
AcDbBlockTableRecord
  2
block 206
340
0
102
{BLKREFS
331
5AD
102
}
  0
BLOCK_RECORD
  5
5B4
330
1
100
AcDbSymbolTableRecord
100
AcDbBlockTableRecord
  2
block 207
340
0
102
{BLKREFS
331
5B5
102
}
  0
BLOCK_RECORD
  5
5BF
330
1
100
AcDbSymbolTableRecord
100
AcDbBlockTableRecord
  2
block 208
340
0
102
{BLKREFS
331
5C0
102
}
  0
BLOCK_RECORD
  5
5CA
330
1
100
AcDbSymbolTableRecord
100
AcDbBlockTableRecord
  2
block 209
340
0
102
{BLKREFS
331
5CB
102
}
  0
BLOCK_RECORD
  5
5CF
330
1
100
AcDbSymbolTableRecord
100
AcDbBlockTableRecord
  2
block 210
340
0
102
{BLKREFS
331
5D0
102
}
  0
BLOCK_RECORD
  5
5D7
330
1
100
AcDbSymbolTableRecord
100
AcDbBlockTableRecord
  2
block 211
340
0
102
{BLKREFS
331
5D8
102
}
  0
BLOCK_RECORD
  5
5DF
330
1
100
AcDbSymbolTableRecord
100
AcDbBlockTableRecord
  2
block 212
340
0
102
{BLKREFS
331
5E0
102
}
  0
BLOCK_RECORD
  5
5E7
330
1
100
AcDbSymbolTableRecord
100
AcDbBlockTableRecord
  2
block 213
340
0
102
{BLKREFS
331
5E8
102
}
  0
BLOCK_RECORD
  5
5EB
330
1
100
AcDbSymbolTableRecord
100
AcDbBlockTableRecord
  2
block 214
340
0
102
{BLKREFS
331
5EC
102
}
  0
BLOCK_RECORD
  5
5F3
330
1
100
AcDbSymbolTableRecord
100
AcDbBlockTableRecord
  2
block 215
340
0
102
{BLKREFS
331
5F4
102
}
  0
BLOCK_RECORD
  5
5FB
330
1
100
AcDbSymbolTableRecord
100
AcDbBlockTableRecord
  2
block 216
340
0
102
{BLKREFS
331
5FC
102
}
  0
BLOCK_RECORD
  5
603
330
1
100
AcDbSymbolTableRecord
100
AcDbBlockTableRecord
  2
block 217
340
0
102
{BLKREFS
331
604
102
}
  0
BLOCK_RECORD
  5
60B
330
1
100
AcDbSymbolTableRecord
100
AcDbBlockTableRecord
  2
block 218
340
0
102
{BLKREFS
331
60C
102
}
  0
BLOCK_RECORD
  5
616
330
1
100
AcDbSymbolTableRecord
100
AcDbBlockTableRecord
  2
block 219
340
0
102
{BLKREFS
331
617
102
}
  0
BLOCK_RECORD
  5
621
330
1
100
AcDbSymbolTableRecord
100
AcDbBlockTableRecord
  2
block 220
340
0
102
{BLKREFS
331
622
102
}
  0
BLOCK_RECORD
  5
626
330
1
100
AcDbSymbolTableRecord
100
AcDbBlockTableRecord
  2
block 221
340
0
102
{BLKREFS
331
627
102
}
  0
BLOCK_RECORD
  5
62E
330
1
100
AcDbSymbolTableRecord
100
AcDbBlockTableRecord
  2
block 222
340
0
102
{BLKREFS
331
62F
102
}
  0
BLOCK_RECORD
  5
636
330
1
100
AcDbSymbolTableRecord
100
AcDbBlockTableRecord
  2
block 223
340
0
102
{BLKREFS
331
637
102
}
  0
ENDTAB
  0
ENDSEC
  0
SECTION
  2
BLOCKS
  0
BLOCK
  5
20
330
1F
100
AcDbEntity
  8
0
100
AcDbBlockBegin
  2
*Model_Space
 70
     0
 71
     0
 10
0.0
 20
0.0
 30
0.0
  3
*Model_Space
  1

  0
ENDBLK
  5
21
330
1F
100
AcDbEntity
  8
0
100
AcDbBlockEnd
  0
BLOCK
  5
1C
330
1B
100
AcDbEntity
 67
     1
  8
0
100
AcDbBlockBegin
  2
*Paper_Space
 70
     0
 71
     0
 10
0.0
 20
0.0
 30
0.0
  3
*Paper_Space
  1

  0
ENDBLK
  5
1D
330
1B
100
AcDbEntity
 67
     1
  8
0
100
AcDbBlockEnd
  0
BLOCK
  5
24
330
23
100
AcDbEntity
  8
0
100
AcDbBlockBegin
  2
*Paper_Space0
 70
     0
 71
     0
 10
0.0
 20
0.0
 30
0.0
  3
*Paper_Space0
  1

  0
ENDBLK
  5
25
330
23
100
AcDbEntity
  8
0
100
AcDbBlockEnd
  0
BLOCK
  5
40
330
3E
100
AcDbEntity
  8
0
100
AcDbBlockBegin
  2
block 2
 70
     0
 71
     0
 10
0.0
 20
0.0
 30
0.0
  3
block 2
  1

  0
SPLINE
  5
42
330
3E
100
AcDbEntity
  8
Fina
 62
     7
420
 16777215
370
     9
100
AcDbSpline
210
0.0
220
0.0
230
1.0
 70
    11
 71
     3
 72
    23
 73
    19
 74
     0
 42
0.0000000001
 43
0.0000000001
 40
0.0
 40
0.0
 40
0.0
 40
0.0
 40
1.0
 40
1.0
 40
1.0
 40
2.0
 40
2.0
 40
2.0
 40
3.0
 40
3.0
 40
3.0
 40
4.0
 40
4.0
 40
4.0
 40
5.0
 40
5.0
 40
5.0
 40
6.0
 40
6.0
 40
6.0
 40
6.0
 10
111.438060412123
 20
134.9889209404371
 30
0.0
 10
111.438060412123
 20
135.8167779316752
 30
0.0
 10
110.7672998786479
 20
136.4878829749262
 30
0.0
 10
109.9394428874097
 20
136.4878829749262
 30
0.0
 10
109.1115858961715
 20
136.4878829749262
 30
0.0
 10
108.4408253626964
 20
135.8167779316752
 30
0.0
 10
108.4408253626964
 20
134.9889209404371
 30
0.0
 10
108.4408253626964
 20
134.1614084589746
 30
0.0
 10
109.1115858961715
 20
133.4903034157237
 30
0.0
 10
109.9394428874097
 20
133.4903034157237
 30
0.0
 10
110.7672998786479
 20
133.4903034157237
 30
0.0
 10
111.438060412123
 20
134.1614084589746
 30
0.0
 10
111.438060412123
 20
134.9889209404371
 30
0.0
 10
111.438060412123
 20
134.9889209404371
 30
0.0
 10
111.438060412123
 20
134.9889209404371
 30
0.0
 10
111.438060412123
 20
134.9889209404371
 30
0.0
 10
111.438060412123
 20
134.9889209404371
 30
0.0
 10
111.438060412123
 20
134.9889209404371
 30
0.0
 10
111.438060412123
 20
134.9889209404371
 30
0.0
  0
ENDBLK
  5
41
330
3E
100
AcDbEntity
  8
0
100
AcDbBlockEnd
  0
BLOCK
  5
45
330
43
100
AcDbEntity
  8
0
100
AcDbBlockBegin
  2
block 3
 70
     0
 71
     0
 10
0.0
 20
0.0
 30
0.0
  3
block 3
  1

  0
SPLINE
  5
47
330
43
100
AcDbEntity
  8
Fina
 62
     7
420
 16777215
370
     9
100
AcDbSpline
210
0.0
220
0.0
230
1.0
 70
    11
 71
     3
 72
    23
 73
    19
 74
     0
 42
0.0000000001
 43
0.0000000001
 40
0.0
 40
0.0
 40
0.0
 40
0.0
 40
1.0
 40
1.0
 40
1.0
 40
2.0
 40
2.0
 40
2.0
 40
3.0
 40
3.0
 40
3.0
 40
4.0
 40
4.0
 40
4.0
 40
5.0
 40
5.0
 40
5.0
 40
6.0
 40
6.0
 40
6.0
 40
6.0
 10
94.85215402108018
 20
134.9889209404371
 30
0.0
 10
94.85215402108018
 20
135.8167779316752
 30
0.0
 10
94.18122123271715
 20
136.4878829749262
 30
0.0
 10
93.35353649636686
 20
136.4878829749262
 30
0.0
 10
92.52585176001656
 20
136.4878829749262
 30
0.0
 10
91.85474671676562
 20
135.8167779316752
 30
0.0
 10
91.85474671676562
 20
134.9889209404371
 30
0.0
 10
91.85474671676562
 20
134.1614084589746
 30
0.0
 10
92.52585176001656
 20
133.4903034157237
 30
0.0
 10
93.35353649636686
 20
133.4903034157237
 30
0.0
 10
94.18122123271715
 20
133.4903034157237
 30
0.0
 10
94.85215402108018
 20
134.1614084589746
 30
0.0
 10
94.85215402108018
 20
134.9889209404371
 30
0.0
 10
94.85215402108018
 20
134.9889209404371
 30
0.0
 10
94.85215402108018
 20
134.9889209404371
 30
0.0
 10
94.85215402108018
 20
134.9889209404371
 30
0.0
 10
94.85215402108018
 20
134.9889209404371
 30
0.0
 10
94.85215402108018
 20
134.9889209404371
 30
0.0
 10
94.85215402108018
 20
134.9889209404371
 30
0.0
  0
ENDBLK
  5
46
330
43
100
AcDbEntity
  8
0
100
AcDbBlockEnd
  0
BLOCK
  5
4A
330
48
100
AcDbEntity
  8
0
100
AcDbBlockBegin
  2
block 4
 70
     0
 71
     0
 10
0.0
 20
0.0
 30
0.0
  3
block 4
  1

  0
SPLINE
  5
4C
330
48
100
AcDbEntity
  8
Fina
 62
     7
420
 16777215
370
     9
100
AcDbSpline
210
0.0
220
0.0
230
1.0
 70
    11
 71
     3
 72
    23
 73
    19
 74
     0
 42
0.0000000001
 43
0.0000000001
 40
0.0
 40
0.0
 40
0.0
 40
0.0
 40
1.0
 40
1.0
 40
1.0
 40
2.0
 40
2.0
 40
2.0
 40
3.0
 40
3.0
 40
3.0
 40
4.0
 40
4.0
 40
4.0
 40
5.0
 40
5.0
 40
5.0
 40
6.0
 40
6.0
 40
6.0
 40
6.0
 10
103.1451933440456
 20
134.9889209404371
 30
0.0
 10
103.1451933440456
 20
135.8167779316752
 30
0.0
 10
102.4742605556825
 20
136.4878829749262
 30
0.0
 10
101.6464035644443
 20
136.4878829749262
 30
0.0
 10
100.818718828094
 20
136.4878829749262
 30
0.0
 10
100.147786039731
 20
135.8167779316752
 30
0.0
 10
100.147786039731
 20
134.9889209404371
 30
0.0
 10
100.147786039731
 20
134.1614084589746
 30
0.0
 10
100.818718828094
 20
133.4903034157237
 30
0.0
 10
101.6464035644443
 20
133.4903034157237
 30
0.0
 10
102.4742605556825
 20
133.4903034157237
 30
0.0
 10
103.1451933440456
 20
134.1614084589746
 30
0.0
 10
103.1451933440456
 20
134.9889209404371
 30
0.0
 10
103.1451933440456
 20
134.9889209404371
 30
0.0
 10
103.1451933440456
 20
134.9889209404371
 30
0.0
 10
103.1451933440456
 20
134.9889209404371
 30
0.0
 10
103.1451933440456
 20
134.9889209404371
 30
0.0
 10
103.1451933440456
 20
134.9889209404371
 30
0.0
 10
103.1451933440456
 20
134.9889209404371
 30
0.0
  0
ENDBLK
  5
4B
330
48
100
AcDbEntity
  8
0
100
AcDbBlockEnd
  0
BLOCK
  5
4F
330
4D
100
AcDbEntity
  8
0
100
AcDbBlockBegin
  2
block 5
 70
     0
 71
     0
 10
0.0
 20
0.0
 30
0.0
  3
block 5
  1

  0
SPLINE
  5
51
330
4D
100
AcDbEntity
  8
Fina
 62
     7
420
 16777215
370
     9
100
AcDbSpline
210
0.0
220
0.0
230
1.0
 70
    11
 71
     3
 72
    23
 73
    19
 74
     0
 42
0.0000000001
 43
0.0000000001
 40
0.0
 40
0.0
 40
0.0
 40
0.0
 40
1.0
 40
1.0
 40
1.0
 40
2.0
 40
2.0
 40
2.0
 40
3.0
 40
3.0
 40
3.0
 40
4.0
 40
4.0
 40
4.0
 40
5.0
 40
5.0
 40
5.0
 40
6.0
 40
6.0
 40
6.0
 40
6.0
 10
86.55928695300271
 20
134.9889209404371
 30
0.0
 10
86.55928695300271
 20
135.8167779316752
 30
0.0
 10
85.88818190975178
 20
136.4878829749262
 30
0.0
 10
85.06049717340147
 20
136.4878829749262
 30
0.0
 10
84.23281243705118
 20
136.4878829749262
 30
0.0
 10
83.56170739380025
 20
135.8167779316752
 30
0.0
 10
83.56170739380025
 20
134.9889209404371
 30
0.0
 10
83.56170739380025
 20
134.1614084589746
 30
0.0
 10
84.23281243705118
 20
133.4903034157237
 30
0.0
 10
85.06049717340147
 20
133.4903034157237
 30
0.0
 10
85.88818190975178
 20
133.4903034157237
 30
0.0
 10
86.55928695300271
 20
134.1614084589746
 30
0.0
 10
86.55928695300271
 20
134.9889209404371
 30
0.0
 10
86.55928695300271
 20
134.9889209404371
 30
0.0
 10
86.55928695300271
 20
134.9889209404371
 30
0.0
 10
86.55928695300271
 20
134.9889209404371
 30
0.0
 10
86.55928695300271
 20
134.9889209404371
 30
0.0
 10
86.55928695300271
 20
134.9889209404371
 30
0.0
 10
86.55928695300271
 20
134.9889209404371
 30
0.0
  0
ENDBLK
  5
50
330
4D
100
AcDbEntity
  8
0
100
AcDbBlockEnd
  0
BLOCK
  5
54
330
52
100
AcDbEntity
  8
0
100
AcDbBlockBegin
  2
block 6
 70
     0
 71
     0
 10
0.0
 20
0.0
 30
0.0
  3
block 6
  1

  0
SPLINE
  5
56
330
52
100
AcDbEntity
  8
Fina
 62
     7
420
 16777215
370
     9
100
AcDbSpline
210
0.0
220
0.0
230
1.0
 70
    11
 71
     3
 72
    23
 73
    19
 74
     0
 42
0.0000000001
 43
0.0000000001
 40
0.0
 40
0.0
 40
0.0
 40
0.0
 40
1.0
 40
1.0
 40
1.0
 40
2.0
 40
2.0
 40
2.0
 40
3.0
 40
3.0
 40
3.0
 40
4.0
 40
4.0
 40
4.0
 40
5.0
 40
5.0
 40
5.0
 40
6.0
 40
6.0
 40
6.0
 40
6.0
 10
78.14101832653543
 20
134.9889209404371
 30
0.0
 10
78.14101832653543
 20
135.8167779316752
 30
0.0
 10
77.46991328328448
 20
136.4878829749262
 30
0.0
 10
76.64222854693419
 20
136.4878829749262
 30
0.0
 10
75.8145438105839
 20
136.4878829749262
 30
0.0
 10
75.14343876733297
 20
135.8167779316752
 30
0.0
 10
75.14343876733297
 20
134.9889209404371
 30
0.0
 10
75.14343876733297
 20
134.1614084589746
 30
0.0
 10
75.8145438105839
 20
133.4903034157237
 30
0.0
 10
76.64222854693419
 20
133.4903034157237
 30
0.0
 10
77.46991328328448
 20
133.4903034157237
 30
0.0
 10
78.14101832653543
 20
134.1614084589746
 30
0.0
 10
78.14101832653543
 20
134.9889209404371
 30
0.0
 10
78.14101832653543
 20
134.9889209404371
 30
0.0
 10
78.14101832653543
 20
134.9889209404371
 30
0.0
 10
78.14101832653543
 20
134.9889209404371
 30
0.0
 10
78.14101832653543
 20
134.9889209404371
 30
0.0
 10
78.14101832653543
 20
134.9889209404371
 30
0.0
 10
78.14101832653543
 20
134.9889209404371
 30
0.0
  0
ENDBLK
  5
55
330
52
100
AcDbEntity
  8
0
100
AcDbBlockEnd
  0
BLOCK
  5
59
330
57
100
AcDbEntity
  8
0
100
AcDbBlockBegin
  2
block 7
 70
     0
 71
     0
 10
0.0
 20
0.0
 30
0.0
  3
block 7
  1

  0
SPLINE
  5
5B
330
57
100
AcDbEntity
  8
Fina
 62
     7
420
 16777215
370
     9
100
AcDbSpline
210
0.0
220
0.0
230
1.0
 70
    11
 71
     3
 72
    23
 73
    19
 74
     0
 42
0.0000000001
 43
0.0000000001
 40
0.0
 40
0.0
 40
0.0
 40
0.0
 40
1.0
 40
1.0
 40
1.0
 40
2.0
 40
2.0
 40
2.0
 40
3.0
 40
3.0
 40
3.0
 40
4.0
 40
4.0
 40
4.0
 40
5.0
 40
5.0
 40
5.0
 40
6.0
 40
6.0
 40
6.0
 40
6.0
 10
130.0222957576716
 20
134.9889209404371
 30
0.0
 10
130.0222957576716
 20
135.8167779316752
 30
0.0
 10
129.3515352241964
 20
136.4878829749262
 30
0.0
 10
128.5236782329582
 20
136.4878829749262
 30
0.0
 10
127.69582124172
 20
136.4878829749262
 30
0.0
 10
127.0250607082449
 20
135.8167779316752
 30
0.0
 10
127.0250607082449
 20
134.9889209404371
 30
0.0
 10
127.0250607082449
 20
134.1614084589746
 30
0.0
 10
127.69582124172
 20
133.4903034157237
 30
0.0
 10
128.5236782329582
 20
133.4903034157237
 30
0.0
 10
129.3515352241964
 20
133.4903034157237
 30
0.0
 10
130.0222957576716
 20
134.1614084589746
 30
0.0
 10
130.0222957576716
 20
134.9889209404371
 30
0.0
 10
130.0222957576716
 20
134.9889209404371
 30
0.0
 10
130.0222957576716
 20
134.9889209404371
 30
0.0
 10
130.0222957576716
 20
134.9889209404371
 30
0.0
 10
130.0222957576716
 20
134.9889209404371
 30
0.0
 10
130.0222957576716
 20
134.9889209404371
 30
0.0
 10
130.0222957576716
 20
134.9889209404371
 30
0.0
  0
ENDBLK
  5
5A
330
57
100
AcDbEntity
  8
0
100
AcDbBlockEnd
  0
BLOCK
  5
5E
330
5C
100
AcDbEntity
  8
0
100
AcDbBlockBegin
  2
block 8
 70
     0
 71
     0
 10
0.0
 20
0.0
 30
0.0
  3
block 8
  1

  0
SPLINE
  5
60
330
5C
100
AcDbEntity
  8
Fina
 62
     7
420
 16777215
370
     9
100
AcDbSpline
210
0.0
220
0.0
230
1.0
 70
    11
 71
     3
 72
    23
 73
    19
 74
     0
 42
0.0000000001
 43
0.0000000001
 40
0.0
 40
0.0
 40
0.0
 40
0.0
 40
1.0
 40
1.0
 40
1.0
 40
2.0
 40
2.0
 40
2.0
 40
3.0
 40
3.0
 40
3.0
 40
4.0
 40
4.0
 40
4.0
 40
5.0
 40
5.0
 40
5.0
 40
6.0
 40
6.0
 40
6.0
 40
6.0
 10
138.3153350806369
 20
134.9889209404371
 30
0.0
 10
138.3153350806369
 20
135.8167779316752
 30
0.0
 10
137.644230037386
 20
136.4878829749262
 30
0.0
 10
136.8167175559236
 20
136.4878829749262
 30
0.0
 10
135.9888605646854
 20
136.4878829749262
 30
0.0
 10
135.3177555214345
 20
135.8167779316752
 30
0.0
 10
135.3177555214345
 20
134.9889209404371
 30
0.0
 10
135.3177555214345
 20
134.1614084589746
 30
0.0
 10
135.9888605646854
 20
133.4903034157237
 30
0.0
 10
136.8167175559236
 20
133.4903034157237
 30
0.0
 10
137.644230037386
 20
133.4903034157237
 30
0.0
 10
138.3153350806369
 20
134.1614084589746
 30
0.0
 10
138.3153350806369
 20
134.9889209404371
 30
0.0
 10
138.3153350806369
 20
134.9889209404371
 30
0.0
 10
138.3153350806369
 20
134.9889209404371
 30
0.0
 10
138.3153350806369
 20
134.9889209404371
 30
0.0
 10
138.3153350806369
 20
134.9889209404371
 30
0.0
 10
138.3153350806369
 20
134.9889209404371
 30
0.0
 10
138.3153350806369
 20
134.9889209404371
 30
0.0
  0
ENDBLK
  5
5F
330
5C
100
AcDbEntity
  8
0
100
AcDbBlockEnd
  0
BLOCK
  5
63
330
61
100
AcDbEntity
  8
0
100
AcDbBlockBegin
  2
block 9
 70
     0
 71
     0
 10
0.0
 20
0.0
 30
0.0
  3
block 9
  1

  0
SPLINE
  5
65
330
61
100
AcDbEntity
  8
Fina
 62
     7
420
 16777215
370
     9
100
AcDbSpline
210
0.0
220
0.0
230
1.0
 70
    11
 71
     3
 72
    23
 73
    19
 74
     0
 42
0.0000000001
 43
0.0000000001
 40
0.0
 40
0.0
 40
0.0
 40
0.0
 40
1.0
 40
1.0
 40
1.0
 40
2.0
 40
2.0
 40
2.0
 40
3.0
 40
3.0
 40
3.0
 40
4.0
 40
4.0
 40
4.0
 40
5.0
 40
5.0
 40
5.0
 40
6.0
 40
6.0
 40
6.0
 40
6.0
 10
146.6083744036023
 20
134.9889209404371
 30
0.0
 10
146.6083744036023
 20
135.8167779316752
 30
0.0
 10
145.9372693603514
 20
136.4878829749262
 30
0.0
 10
145.109756878889
 20
136.4878829749262
 30
0.0
 10
144.2818998876508
 20
136.4878829749262
 30
0.0
 10
143.6107948443999
 20
135.8167779316752
 30
0.0
 10
143.6107948443999
 20
134.9889209404371
 30
0.0
 10
143.6107948443999
 20
134.1614084589746
 30
0.0
 10
144.2818998876508
 20
133.4903034157237
 30
0.0
 10
145.109756878889
 20
133.4903034157237
 30
0.0
 10
145.9372693603514
 20
133.4903034157237
 30
0.0
 10
146.6083744036023
 20
134.1614084589746
 30
0.0
 10
146.6083744036023
 20
134.9889209404371
 30
0.0
 10
146.6083744036023
 20
134.9889209404371
 30
0.0
 10
146.6083744036023
 20
134.9889209404371
 30
0.0
 10
146.6083744036023
 20
134.9889209404371
 30
0.0
 10
146.6083744036023
 20
134.9889209404371
 30
0.0
 10
146.6083744036023
 20
134.9889209404371
 30
0.0
 10
146.6083744036023
 20
134.9889209404371
 30
0.0
  0
ENDBLK
  5
64
330
61
100
AcDbEntity
  8
0
100
AcDbBlockEnd
  0
BLOCK
  5
68
330
66
100
AcDbEntity
  8
0
100
AcDbBlockBegin
  2
block 10
 70
     0
 71
     0
 10
0.0
 20
0.0
 30
0.0
  3
block 10
  1

  0
SPLINE
  5
6A
330
66
100
AcDbEntity
  8
Fina
 62
     7
420
 16777215
370
     9
100
AcDbSpline
210
0.0
220
0.0
230
1.0
 70
    11
 71
     3
 72
    23
 73
    19
 74
     0
 42
0.0000000001
 43
0.0000000001
 40
0.0
 40
0.0
 40
0.0
 40
0.0
 40
1.0
 40
1.0
 40
1.0
 40
2.0
 40
2.0
 40
2.0
 40
3.0
 40
3.0
 40
3.0
 40
4.0
 40
4.0
 40
4.0
 40
5.0
 40
5.0
 40
5.0
 40
6.0
 40
6.0
 40
6.0
 40
6.0
 10
163.3195100981471
 20
134.9889209404371
 30
0.0
 10
163.3195100981471
 20
135.8167779316752
 30
0.0
 10
162.648749564672
 20
136.4878829749262
 30
0.0
 10
161.8208925734338
 20
136.4878829749262
 30
0.0
 10
160.9930355821956
 20
136.4878829749262
 30
0.0
 10
160.3222750487204
 20
135.8167779316752
 30
0.0
 10
160.3222750487204
 20
134.9889209404371
 30
0.0
 10
160.3222750487204
 20
134.1614084589746
 30
0.0
 10
160.9930355821956
 20
133.4903034157237
 30
0.0
 10
161.8208925734338
 20
133.4903034157237
 30
0.0
 10
162.648749564672
 20
133.4903034157237
 30
0.0
 10
163.3195100981471
 20
134.1614084589746
 30
0.0
 10
163.3195100981471
 20
134.9889209404371
 30
0.0
 10
163.3195100981471
 20
134.9889209404371
 30
0.0
 10
163.3195100981471
 20
134.9889209404371
 30
0.0
 10
163.3195100981471
 20
134.9889209404371
 30
0.0
 10
163.3195100981471
 20
134.9889209404371
 30
0.0
 10
163.3195100981471
 20
134.9889209404371
 30
0.0
 10
163.3195100981471
 20
134.9889209404371
 30
0.0
  0
ENDBLK
  5
69
330
66
100
AcDbEntity
  8
0
100
AcDbBlockEnd
  0
BLOCK
  5
6D
330
6B
100
AcDbEntity
  8
0
100
AcDbBlockBegin
  2
block 11
 70
     0
 71
     0
 10
0.0
 20
0.0
 30
0.0
  3
block 11
  1

  0
SPLINE
  5
6F
330
6B
100
AcDbEntity
  8
Fina
 62
     7
420
 16777215
370
     9
100
AcDbSpline
210
0.0
220
0.0
230
1.0
 70
    11
 71
     3
 72
    23
 73
    19
 74
     0
 42
0.0000000001
 43
0.0000000001
 40
0.0
 40
0.0
 40
0.0
 40
0.0
 40
1.0
 40
1.0
 40
1.0
 40
2.0
 40
2.0
 40
2.0
 40
3.0
 40
3.0
 40
3.0
 40
4.0
 40
4.0
 40
4.0
 40
5.0
 40
5.0
 40
5.0
 40
6.0
 40
6.0
 40
6.0
 40
6.0
 10
154.9014137265677
 20
134.9889209404371
 30
0.0
 10
154.9014137265677
 20
135.8167779316752
 30
0.0
 10
154.2303086833168
 20
136.4878829749262
 30
0.0
 10
153.4024516920786
 20
136.4878829749262
 30
0.0
 10
152.5749392106162
 20
136.4878829749262
 30
0.0
 10
151.9038341673652
 20
135.8167779316752
 30
0.0
 10
151.9038341673652
 20
134.9889209404371
 30
0.0
 10
151.9038341673652
 20
134.1614084589746
 30
0.0
 10
152.5749392106162
 20
133.4903034157237
 30
0.0
 10
153.4024516920786
 20
133.4903034157237
 30
0.0
 10
154.2303086833168
 20
133.4903034157237
 30
0.0
 10
154.9014137265677
 20
134.1614084589746
 30
0.0
 10
154.9014137265677
 20
134.9889209404371
 30
0.0
 10
154.9014137265677
 20
134.9889209404371
 30
0.0
 10
154.9014137265677
 20
134.9889209404371
 30
0.0
 10
154.9014137265677
 20
134.9889209404371
 30
0.0
 10
154.9014137265677
 20
134.9889209404371
 30
0.0
 10
154.9014137265677
 20
134.9889209404371
 30
0.0
 10
154.9014137265677
 20
134.9889209404371
 30
0.0
  0
ENDBLK
  5
6E
330
6B
100
AcDbEntity
  8
0
100
AcDbBlockEnd
  0
BLOCK
  5
72
330
70
100
AcDbEntity
  8
0
100
AcDbBlockBegin
  2
block 12
 70
     0
 71
     0
 10
0.0
 20
0.0
 30
0.0
  3
block 12
  1

  0
SPLINE
  5
74
330
70
100
AcDbEntity
  8
Fina
 62
     7
420
 16777215
370
     9
100
AcDbSpline
210
0.0
220
0.0
230
1.0
 70
    11
 71
     3
 72
    23
 73
    19
 74
     0
 42
0.0000000001
 43
0.0000000001
 40
0.0
 40
0.0
 40
0.0
 40
0.0
 40
1.0
 40
1.0
 40
1.0
 40
2.0
 40
2.0
 40
2.0
 40
3.0
 40
3.0
 40
3.0
 40
4.0
 40
4.0
 40
4.0
 40
5.0
 40
5.0
 40
5.0
 40
6.0
 40
6.0
 40
6.0
 40
6.0
 10
130.0222957576716
 20
143.2819602634024
 30
0.0
 10
130.0222957576716
 20
144.1098172546406
 30
0.0
 10
129.3515352241964
 20
144.7805777881157
 30
0.0
 10
128.5236782329582
 20
144.7805777881157
 30
0.0
 10
127.69582124172
 20
144.7805777881157
 30
0.0
 10
127.0250607082449
 20
144.1098172546406
 30
0.0
 10
127.0250607082449
 20
143.2819602634024
 30
0.0
 10
127.0250607082449
 20
142.4541032721642
 30
0.0
 10
127.69582124172
 20
141.7833427386891
 30
0.0
 10
128.5236782329582
 20
141.7833427386891
 30
0.0
 10
129.3515352241964
 20
141.7833427386891
 30
0.0
 10
130.0222957576716
 20
142.4541032721642
 30
0.0
 10
130.0222957576716
 20
143.2819602634024
 30
0.0
 10
130.0222957576716
 20
143.2819602634024
 30
0.0
 10
130.0222957576716
 20
143.2819602634024
 30
0.0
 10
130.0222957576716
 20
143.2819602634024
 30
0.0
 10
130.0222957576716
 20
143.2819602634024
 30
0.0
 10
130.0222957576716
 20
143.2819602634024
 30
0.0
 10
130.0222957576716
 20
143.2819602634024
 30
0.0
  0
ENDBLK
  5
73
330
70
100
AcDbEntity
  8
0
100
AcDbBlockEnd
  0
BLOCK
  5
77
330
75
100
AcDbEntity
  8
0
100
AcDbBlockBegin
  2
block 13
 70
     0
 71
     0
 10
0.0
 20
0.0
 30
0.0
  3
block 13
  1

  0
SPLINE
  5
79
330
75
100
AcDbEntity
  8
Fina
 62
     7
420
 16777215
370
     9
100
AcDbSpline
210
0.0
220
0.0
230
1.0
 70
    11
 71
     3
 72
    23
 73
    19
 74
     0
 42
0.0000000001
 43
0.0000000001
 40
0.0
 40
0.0
 40
0.0
 40
0.0
 40
1.0
 40
1.0
 40
1.0
 40
2.0
 40
2.0
 40
2.0
 40
3.0
 40
3.0
 40
3.0
 40
4.0
 40
4.0
 40
4.0
 40
5.0
 40
5.0
 40
5.0
 40
6.0
 40
6.0
 40
6.0
 40
6.0
 10
138.3153350806369
 20
143.2819602634024
 30
0.0
 10
138.3153350806369
 20
144.1098172546406
 30
0.0
 10
137.644230037386
 20
144.7805777881157
 30
0.0
 10
136.8167175559236
 20
144.7805777881157
 30
0.0
 10
135.9888605646854
 20
144.7805777881157
 30
0.0
 10
135.3177555214345
 20
144.1098172546406
 30
0.0
 10
135.3177555214345
 20
143.2819602634024
 30
0.0
 10
135.3177555214345
 20
142.4541032721642
 30
0.0
 10
135.9888605646854
 20
141.7833427386891
 30
0.0
 10
136.8167175559236
 20
141.7833427386891
 30
0.0
 10
137.644230037386
 20
141.7833427386891
 30
0.0
 10
138.3153350806369
 20
142.4541032721642
 30
0.0
 10
138.3153350806369
 20
143.2819602634024
 30
0.0
 10
138.3153350806369
 20
143.2819602634024
 30
0.0
 10
138.3153350806369
 20
143.2819602634024
 30
0.0
 10
138.3153350806369
 20
143.2819602634024
 30
0.0
 10
138.3153350806369
 20
143.2819602634024
 30
0.0
 10
138.3153350806369
 20
143.2819602634024
 30
0.0
 10
138.3153350806369
 20
143.2819602634024
 30
0.0
  0
ENDBLK
  5
78
330
75
100
AcDbEntity
  8
0
100
AcDbBlockEnd
  0
BLOCK
  5
7C
330
7A
100
AcDbEntity
  8
0
100
AcDbBlockBegin
  2
block 14
 70
     0
 71
     0
 10
0.0
 20
0.0
 30
0.0
  3
block 14
  1

  0
SPLINE
  5
7E
330
7A
100
AcDbEntity
  8
Fina
 62
     7
420
 16777215
370
     9
100
AcDbSpline
210
0.0
220
0.0
230
1.0
 70
    11
 71
     3
 72
    23
 73
    19
 74
     0
 42
0.0000000001
 43
0.0000000001
 40
0.0
 40
0.0
 40
0.0
 40
0.0
 40
1.0
 40
1.0
 40
1.0
 40
2.0
 40
2.0
 40
2.0
 40
3.0
 40
3.0
 40
3.0
 40
4.0
 40
4.0
 40
4.0
 40
5.0
 40
5.0
 40
5.0
 40
6.0
 40
6.0
 40
6.0
 40
6.0
 10
146.6083744036023
 20
143.2819602634024
 30
0.0
 10
146.6083744036023
 20
144.1098172546406
 30
0.0
 10
145.9372693603514
 20
144.7805777881157
 30
0.0
 10
145.109756878889
 20
144.7805777881157
 30
0.0
 10
144.2818998876508
 20
144.7805777881157
 30
0.0
 10
143.6107948443999
 20
144.1098172546406
 30
0.0
 10
143.6107948443999
 20
143.2819602634024
 30
0.0
 10
143.6107948443999
 20
142.4541032721642
 30
0.0
 10
144.2818998876508
 20
141.7833427386891
 30
0.0
 10
145.109756878889
 20
141.7833427386891
 30
0.0
 10
145.9372693603514
 20
141.7833427386891
 30
0.0
 10
146.6083744036023
 20
142.4541032721642
 30
0.0
 10
146.6083744036023
 20
143.2819602634024
 30
0.0
 10
146.6083744036023
 20
143.2819602634024
 30
0.0
 10
146.6083744036023
 20
143.2819602634024
 30
0.0
 10
146.6083744036023
 20
143.2819602634024
 30
0.0
 10
146.6083744036023
 20
143.2819602634024
 30
0.0
 10
146.6083744036023
 20
143.2819602634024
 30
0.0
 10
146.6083744036023
 20
143.2819602634024
 30
0.0
  0
ENDBLK
  5
7D
330
7A
100
AcDbEntity
  8
0
100
AcDbBlockEnd
  0
BLOCK
  5
81
330
7F
100
AcDbEntity
  8
0
100
AcDbBlockBegin
  2
block 15
 70
     0
 71
     0
 10
0.0
 20
0.0
 30
0.0
  3
block 15
  1

  0
SPLINE
  5
83
330
7F
100
AcDbEntity
  8
Fina
 62
     7
420
 16777215
370
     9
100
AcDbSpline
210
0.0
220
0.0
230
1.0
 70
    11
 71
     3
 72
    23
 73
    19
 74
     0
 42
0.0000000001
 43
0.0000000001
 40
0.0
 40
0.0
 40
0.0
 40
0.0
 40
1.0
 40
1.0
 40
1.0
 40
2.0
 40
2.0
 40
2.0
 40
3.0
 40
3.0
 40
3.0
 40
4.0
 40
4.0
 40
4.0
 40
5.0
 40
5.0
 40
5.0
 40
6.0
 40
6.0
 40
6.0
 40
6.0
 10
154.9014137265677
 20
143.2819602634024
 30
0.0
 10
154.9014137265677
 20
144.1098172546406
 30
0.0
 10
154.2303086833168
 20
144.7805777881157
 30
0.0
 10
153.4024516920786
 20
144.7805777881157
 30
0.0
 10
152.5749392106162
 20
144.7805777881157
 30
0.0
 10
151.9038341673652
 20
144.1098172546406
 30
0.0
 10
151.9038341673652
 20
143.2819602634024
 30
0.0
 10
151.9038341673652
 20
142.4541032721642
 30
0.0
 10
152.5749392106162
 20
141.7833427386891
 30
0.0
 10
153.4024516920786
 20
141.7833427386891
 30
0.0
 10
154.2303086833168
 20
141.7833427386891
 30
0.0
 10
154.9014137265677
 20
142.4541032721642
 30
0.0
 10
154.9014137265677
 20
143.2819602634024
 30
0.0
 10
154.9014137265677
 20
143.2819602634024
 30
0.0
 10
154.9014137265677
 20
143.2819602634024
 30
0.0
 10
154.9014137265677
 20
143.2819602634024
 30
0.0
 10
154.9014137265677
 20
143.2819602634024
 30
0.0
 10
154.9014137265677
 20
143.2819602634024
 30
0.0
 10
154.9014137265677
 20
143.2819602634024
 30
0.0
  0
ENDBLK
  5
82
330
7F
100
AcDbEntity
  8
0
100
AcDbBlockEnd
  0
BLOCK
  5
86
330
84
100
AcDbEntity
  8
0
100
AcDbBlockBegin
  2
block 16
 70
     0
 71
     0
 10
0.0
 20
0.0
 30
0.0
  3
block 16
  1

  0
SPLINE
  5
88
330
84
100
AcDbEntity
  8
Fina
 62
     7
420
 16777215
370
     9
100
AcDbSpline
210
0.0
220
0.0
230
1.0
 70
    11
 71
     3
 72
    23
 73
    19
 74
     0
 42
0.0000000001
 43
0.0000000001
 40
0.0
 40
0.0
 40
0.0
 40
0.0
 40
1.0
 40
1.0
 40
1.0
 40
2.0
 40
2.0
 40
2.0
 40
3.0
 40
3.0
 40
3.0
 40
4.0
 40
4.0
 40
4.0
 40
5.0
 40
5.0
 40
5.0
 40
6.0
 40
6.0
 40
6.0
 40
6.0
 10
163.3195100981471
 20
143.2819602634024
 30
0.0
 10
163.3195100981471
 20
144.1098172546406
 30
0.0
 10
162.648749564672
 20
144.7805777881157
 30
0.0
 10
161.8208925734338
 20
144.7805777881157
 30
0.0
 10
160.9930355821956
 20
144.7805777881157
 30
0.0
 10
160.3222750487204
 20
144.1098172546406
 30
0.0
 10
160.3222750487204
 20
143.2819602634024
 30
0.0
 10
160.3222750487204
 20
142.4541032721642
 30
0.0
 10
160.9930355821956
 20
141.7833427386891
 30
0.0
 10
161.8208925734338
 20
141.7833427386891
 30
0.0
 10
162.648749564672
 20
141.7833427386891
 30
0.0
 10
163.3195100981471
 20
142.4541032721642
 30
0.0
 10
163.3195100981471
 20
143.2819602634024
 30
0.0
 10
163.3195100981471
 20
143.2819602634024
 30
0.0
 10
163.3195100981471
 20
143.2819602634024
 30
0.0
 10
163.3195100981471
 20
143.2819602634024
 30
0.0
 10
163.3195100981471
 20
143.2819602634024
 30
0.0
 10
163.3195100981471
 20
143.2819602634024
 30
0.0
 10
163.3195100981471
 20
143.2819602634024
 30
0.0
  0
ENDBLK
  5
87
330
84
100
AcDbEntity
  8
0
100
AcDbBlockEnd
  0
BLOCK
  5
8B
330
89
100
AcDbEntity
  8
0
100
AcDbBlockBegin
  2
block 17
 70
     0
 71
     0
 10
0.0
 20
0.0
 30
0.0
  3
block 17
  1

  0
SPLINE
  5
8D
330
89
100
AcDbEntity
  8
Fina
 62
     7
420
 16777215
370
     9
100
AcDbSpline
210
0.0
220
0.0
230
1.0
 70
    11
 71
     3
 72
    23
 73
    19
 74
     0
 42
0.0000000001
 43
0.0000000001
 40
0.0
 40
0.0
 40
0.0
 40
0.0
 40
1.0
 40
1.0
 40
1.0
 40
2.0
 40
2.0
 40
2.0
 40
3.0
 40
3.0
 40
3.0
 40
4.0
 40
4.0
 40
4.0
 40
5.0
 40
5.0
 40
5.0
 40
6.0
 40
6.0
 40
6.0
 40
6.0
 10
111.438060412123
 20
143.2819602634024
 30
0.0
 10
111.438060412123
 20
144.1098172546406
 30
0.0
 10
110.7672998786479
 20
144.7805777881157
 30
0.0
 10
109.9394428874097
 20
144.7805777881157
 30
0.0
 10
109.1115858961715
 20
144.7805777881157
 30
0.0
 10
108.4408253626964
 20
144.1098172546406
 30
0.0
 10
108.4408253626964
 20
143.2819602634024
 30
0.0
 10
108.4408253626964
 20
142.4541032721642
 30
0.0
 10
109.1115858961715
 20
141.7833427386891
 30
0.0
 10
109.9394428874097
 20
141.7833427386891
 30
0.0
 10
110.7672998786479
 20
141.7833427386891
 30
0.0
 10
111.438060412123
 20
142.4541032721642
 30
0.0
 10
111.438060412123
 20
143.2819602634024
 30
0.0
 10
111.438060412123
 20
143.2819602634024
 30
0.0
 10
111.438060412123
 20
143.2819602634024
 30
0.0
 10
111.438060412123
 20
143.2819602634024
 30
0.0
 10
111.438060412123
 20
143.2819602634024
 30
0.0
 10
111.438060412123
 20
143.2819602634024
 30
0.0
 10
111.438060412123
 20
143.2819602634024
 30
0.0
  0
ENDBLK
  5
8C
330
89
100
AcDbEntity
  8
0
100
AcDbBlockEnd
  0
BLOCK
  5
90
330
8E
100
AcDbEntity
  8
0
100
AcDbBlockBegin
  2
block 18
 70
     0
 71
     0
 10
0.0
 20
0.0
 30
0.0
  3
block 18
  1

  0
SPLINE
  5
92
330
8E
100
AcDbEntity
  8
Fina
 62
     7
420
 16777215
370
     9
100
AcDbSpline
210
0.0
220
0.0
230
1.0
 70
    11
 71
     3
 72
    23
 73
    19
 74
     0
 42
0.0000000001
 43
0.0000000001
 40
0.0
 40
0.0
 40
0.0
 40
0.0
 40
1.0
 40
1.0
 40
1.0
 40
2.0
 40
2.0
 40
2.0
 40
3.0
 40
3.0
 40
3.0
 40
4.0
 40
4.0
 40
4.0
 40
5.0
 40
5.0
 40
5.0
 40
6.0
 40
6.0
 40
6.0
 40
6.0
 10
94.85215402108018
 20
143.2819602634024
 30
0.0
 10
94.85215402108018
 20
144.1098172546406
 30
0.0
 10
94.18122123271715
 20
144.7805777881157
 30
0.0
 10
93.35353649636686
 20
144.7805777881157
 30
0.0
 10
92.52585176001656
 20
144.7805777881157
 30
0.0
 10
91.85474671676562
 20
144.1098172546406
 30
0.0
 10
91.85474671676562
 20
143.2819602634024
 30
0.0
 10
91.85474671676562
 20
142.4541032721642
 30
0.0
 10
92.52585176001656
 20
141.7833427386891
 30
0.0
 10
93.35353649636686
 20
141.7833427386891
 30
0.0
 10
94.18122123271715
 20
141.7833427386891
 30
0.0
 10
94.85215402108018
 20
142.4541032721642
 30
0.0
 10
94.85215402108018
 20
143.2819602634024
 30
0.0
 10
94.85215402108018
 20
143.2819602634024
 30
0.0
 10
94.85215402108018
 20
143.2819602634024
 30
0.0
 10
94.85215402108018
 20
143.2819602634024
 30
0.0
 10
94.85215402108018
 20
143.2819602634024
 30
0.0
 10
94.85215402108018
 20
143.2819602634024
 30
0.0
 10
94.85215402108018
 20
143.2819602634024
 30
0.0
  0
ENDBLK
  5
91
330
8E
100
AcDbEntity
  8
0
100
AcDbBlockEnd
  0
BLOCK
  5
95
330
93
100
AcDbEntity
  8
0
100
AcDbBlockBegin
  2
block 19
 70
     0
 71
     0
 10
0.0
 20
0.0
 30
0.0
  3
block 19
  1

  0
SPLINE
  5
97
330
93
100
AcDbEntity
  8
Fina
 62
     7
420
 16777215
370
     9
100
AcDbSpline
210
0.0
220
0.0
230
1.0
 70
    11
 71
     3
 72
    23
 73
    19
 74
     0
 42
0.0000000001
 43
0.0000000001
 40
0.0
 40
0.0
 40
0.0
 40
0.0
 40
1.0
 40
1.0
 40
1.0
 40
2.0
 40
2.0
 40
2.0
 40
3.0
 40
3.0
 40
3.0
 40
4.0
 40
4.0
 40
4.0
 40
5.0
 40
5.0
 40
5.0
 40
6.0
 40
6.0
 40
6.0
 40
6.0
 10
103.1451933440456
 20
143.2819602634024
 30
0.0
 10
103.1451933440456
 20
144.1098172546406
 30
0.0
 10
102.4742605556825
 20
144.7805777881157
 30
0.0
 10
101.6464035644443
 20
144.7805777881157
 30
0.0
 10
100.818718828094
 20
144.7805777881157
 30
0.0
 10
100.147786039731
 20
144.1098172546406
 30
0.0
 10
100.147786039731
 20
143.2819602634024
 30
0.0
 10
100.147786039731
 20
142.4541032721642
 30
0.0
 10
100.818718828094
 20
141.7833427386891
 30
0.0
 10
101.6464035644443
 20
141.7833427386891
 30
0.0
 10
102.4742605556825
 20
141.7833427386891
 30
0.0
 10
103.1451933440456
 20
142.4541032721642
 30
0.0
 10
103.1451933440456
 20
143.2819602634024
 30
0.0
 10
103.1451933440456
 20
143.2819602634024
 30
0.0
 10
103.1451933440456
 20
143.2819602634024
 30
0.0
 10
103.1451933440456
 20
143.2819602634024
 30
0.0
 10
103.1451933440456
 20
143.2819602634024
 30
0.0
 10
103.1451933440456
 20
143.2819602634024
 30
0.0
 10
103.1451933440456
 20
143.2819602634024
 30
0.0
  0
ENDBLK
  5
96
330
93
100
AcDbEntity
  8
0
100
AcDbBlockEnd
  0
BLOCK
  5
9A
330
98
100
AcDbEntity
  8
0
100
AcDbBlockBegin
  2
block 20
 70
     0
 71
     0
 10
0.0
 20
0.0
 30
0.0
  3
block 20
  1

  0
SPLINE
  5
9C
330
98
100
AcDbEntity
  8
Fina
 62
     7
420
 16777215
370
     9
100
AcDbSpline
210
0.0
220
0.0
230
1.0
 70
    11
 71
     3
 72
    23
 73
    19
 74
     0
 42
0.0000000001
 43
0.0000000001
 40
0.0
 40
0.0
 40
0.0
 40
0.0
 40
1.0
 40
1.0
 40
1.0
 40
2.0
 40
2.0
 40
2.0
 40
3.0
 40
3.0
 40
3.0
 40
4.0
 40
4.0
 40
4.0
 40
5.0
 40
5.0
 40
5.0
 40
6.0
 40
6.0
 40
6.0
 40
6.0
 10
86.55928695300271
 20
143.2819602634024
 30
0.0
 10
86.55928695300271
 20
144.1098172546406
 30
0.0
 10
85.88818190975178
 20
144.7805777881157
 30
0.0
 10
85.06049717340147
 20
144.7805777881157
 30
0.0
 10
84.23281243705118
 20
144.7805777881157
 30
0.0
 10
83.56170739380025
 20
144.1098172546406
 30
0.0
 10
83.56170739380025
 20
143.2819602634024
 30
0.0
 10
83.56170739380025
 20
142.4541032721642
 30
0.0
 10
84.23281243705118
 20
141.7833427386891
 30
0.0
 10
85.06049717340147
 20
141.7833427386891
 30
0.0
 10
85.88818190975178
 20
141.7833427386891
 30
0.0
 10
86.55928695300271
 20
142.4541032721642
 30
0.0
 10
86.55928695300271
 20
143.2819602634024
 30
0.0
 10
86.55928695300271
 20
143.2819602634024
 30
0.0
 10
86.55928695300271
 20
143.2819602634024
 30
0.0
 10
86.55928695300271
 20
143.2819602634024
 30
0.0
 10
86.55928695300271
 20
143.2819602634024
 30
0.0
 10
86.55928695300271
 20
143.2819602634024
 30
0.0
 10
86.55928695300271
 20
143.2819602634024
 30
0.0
  0
ENDBLK
  5
9B
330
98
100
AcDbEntity
  8
0
100
AcDbBlockEnd
  0
BLOCK
  5
9F
330
9D
100
AcDbEntity
  8
0
100
AcDbBlockBegin
  2
block 21
 70
     0
 71
     0
 10
0.0
 20
0.0
 30
0.0
  3
block 21
  1

  0
SPLINE
  5
A1
330
9D
100
AcDbEntity
  8
Fina
 62
     7
420
 16777215
370
     9
100
AcDbSpline
210
0.0
220
0.0
230
1.0
 70
    11
 71
     3
 72
    23
 73
    19
 74
     0
 42
0.0000000001
 43
0.0000000001
 40
0.0
 40
0.0
 40
0.0
 40
0.0
 40
1.0
 40
1.0
 40
1.0
 40
2.0
 40
2.0
 40
2.0
 40
3.0
 40
3.0
 40
3.0
 40
4.0
 40
4.0
 40
4.0
 40
5.0
 40
5.0
 40
5.0
 40
6.0
 40
6.0
 40
6.0
 40
6.0
 10
78.14101832653543
 20
143.2819602634024
 30
0.0
 10
78.14101832653543
 20
144.1098172546406
 30
0.0
 10
77.46991328328448
 20
144.7805777881157
 30
0.0
 10
76.64222854693419
 20
144.7805777881157
 30
0.0
 10
75.8145438105839
 20
144.7805777881157
 30
0.0
 10
75.14343876733297
 20
144.1098172546406
 30
0.0
 10
75.14343876733297
 20
143.2819602634024
 30
0.0
 10
75.14343876733297
 20
142.4541032721642
 30
0.0
 10
75.8145438105839
 20
141.7833427386891
 30
0.0
 10
76.64222854693419
 20
141.7833427386891
 30
0.0
 10
77.46991328328448
 20
141.7833427386891
 30
0.0
 10
78.14101832653543
 20
142.4541032721642
 30
0.0
 10
78.14101832653543
 20
143.2819602634024
 30
0.0
 10
78.14101832653543
 20
143.2819602634024
 30
0.0
 10
78.14101832653543
 20
143.2819602634024
 30
0.0
 10
78.14101832653543
 20
143.2819602634024
 30
0.0
 10
78.14101832653543
 20
143.2819602634024
 30
0.0
 10
78.14101832653543
 20
143.2819602634024
 30
0.0
 10
78.14101832653543
 20
143.2819602634024
 30
0.0
  0
ENDBLK
  5
A0
330
9D
100
AcDbEntity
  8
0
100
AcDbBlockEnd
  0
BLOCK
  5
A4
330
A2
100
AcDbEntity
  8
0
100
AcDbBlockBegin
  2
block 22
 70
     0
 71
     0
 10
0.0
 20
0.0
 30
0.0
  3
block 22
  1

  0
SPLINE
  5
A6
330
A2
100
AcDbEntity
  8
Fina
 62
     7
420
 16777215
370
     9
100
AcDbSpline
210
0.0
220
0.0
230
1.0
 70
    11
 71
     3
 72
    23
 73
    19
 74
     0
 42
0.0000000001
 43
0.0000000001
 40
0.0
 40
0.0
 40
0.0
 40
0.0
 40
1.0
 40
1.0
 40
1.0
 40
2.0
 40
2.0
 40
2.0
 40
3.0
 40
3.0
 40
3.0
 40
4.0
 40
4.0
 40
4.0
 40
5.0
 40
5.0
 40
5.0
 40
6.0
 40
6.0
 40
6.0
 40
6.0
 10
111.438060412123
 20
126.6958816174717
 30
0.0
 10
111.438060412123
 20
127.5237386087099
 30
0.0
 10
110.7672998786479
 20
128.1948436519608
 30
0.0
 10
109.9394428874097
 20
128.1948436519608
 30
0.0
 10
109.1115858961715
 20
128.1948436519608
 30
0.0
 10
108.4408253626964
 20
127.5237386087099
 30
0.0
 10
108.4408253626964
 20
126.6958816174717
 30
0.0
 10
108.4408253626964
 20
125.8683691360093
 30
0.0
 10
109.1115858961715
 20
125.1972640927583
 30
0.0
 10
109.9394428874097
 20
125.1972640927583
 30
0.0
 10
110.7672998786479
 20
125.1972640927583
 30
0.0
 10
111.438060412123
 20
125.8683691360093
 30
0.0
 10
111.438060412123
 20
126.6958816174717
 30
0.0
 10
111.438060412123
 20
126.6958816174717
 30
0.0
 10
111.438060412123
 20
126.6958816174717
 30
0.0
 10
111.438060412123
 20
126.6958816174717
 30
0.0
 10
111.438060412123
 20
126.6958816174717
 30
0.0
 10
111.438060412123
 20
126.6958816174717
 30
0.0
 10
111.438060412123
 20
126.6958816174717
 30
0.0
  0
ENDBLK
  5
A5
330
A2
100
AcDbEntity
  8
0
100
AcDbBlockEnd
  0
BLOCK
  5
A9
330
A7
100
AcDbEntity
  8
0
100
AcDbBlockBegin
  2
block 23
 70
     0
 71
     0
 10
0.0
 20
0.0
 30
0.0
  3
block 23
  1

  0
SPLINE
  5
AB
330
A7
100
AcDbEntity
  8
Fina
 62
     7
420
 16777215
370
     9
100
AcDbSpline
210
0.0
220
0.0
230
1.0
 70
    11
 71
     3
 72
    23
 73
    19
 74
     0
 42
0.0000000001
 43
0.0000000001
 40
0.0
 40
0.0
 40
0.0
 40
0.0
 40
1.0
 40
1.0
 40
1.0
 40
2.0
 40
2.0
 40
2.0
 40
3.0
 40
3.0
 40
3.0
 40
4.0
 40
4.0
 40
4.0
 40
5.0
 40
5.0
 40
5.0
 40
6.0
 40
6.0
 40
6.0
 40
6.0
 10
94.85215402108018
 20
126.6958816174717
 30
0.0
 10
94.85215402108018
 20
127.5237386087099
 30
0.0
 10
94.18122123271715
 20
128.1948436519608
 30
0.0
 10
93.35353649636686
 20
128.1948436519608
 30
0.0
 10
92.52585176001656
 20
128.1948436519608
 30
0.0
 10
91.85474671676562
 20
127.5237386087099
 30
0.0
 10
91.85474671676562
 20
126.6958816174717
 30
0.0
 10
91.85474671676562
 20
125.8683691360093
 30
0.0
 10
92.52585176001656
 20
125.1972640927583
 30
0.0
 10
93.35353649636686
 20
125.1972640927583
 30
0.0
 10
94.18122123271715
 20
125.1972640927583
 30
0.0
 10
94.85215402108018
 20
125.8683691360093
 30
0.0
 10
94.85215402108018
 20
126.6958816174717
 30
0.0
 10
94.85215402108018
 20
126.6958816174717
 30
0.0
 10
94.85215402108018
 20
126.6958816174717
 30
0.0
 10
94.85215402108018
 20
126.6958816174717
 30
0.0
 10
94.85215402108018
 20
126.6958816174717
 30
0.0
 10
94.85215402108018
 20
126.6958816174717
 30
0.0
 10
94.85215402108018
 20
126.6958816174717
 30
0.0
  0
ENDBLK
  5
AA
330
A7
100
AcDbEntity
  8
0
100
AcDbBlockEnd
  0
BLOCK
  5
AE
330
AC
100
AcDbEntity
  8
0
100
AcDbBlockBegin
  2
block 24
 70
     0
 71
     0
 10
0.0
 20
0.0
 30
0.0
  3
block 24
  1

  0
SPLINE
  5
B0
330
AC
100
AcDbEntity
  8
Fina
 62
     7
420
 16777215
370
     9
100
AcDbSpline
210
0.0
220
0.0
230
1.0
 70
    11
 71
     3
 72
    23
 73
    19
 74
     0
 42
0.0000000001
 43
0.0000000001
 40
0.0
 40
0.0
 40
0.0
 40
0.0
 40
1.0
 40
1.0
 40
1.0
 40
2.0
 40
2.0
 40
2.0
 40
3.0
 40
3.0
 40
3.0
 40
4.0
 40
4.0
 40
4.0
 40
5.0
 40
5.0
 40
5.0
 40
6.0
 40
6.0
 40
6.0
 40
6.0
 10
103.1451933440456
 20
126.6958816174717
 30
0.0
 10
103.1451933440456
 20
127.5237386087099
 30
0.0
 10
102.4742605556825
 20
128.1948436519608
 30
0.0
 10
101.6464035644443
 20
128.1948436519608
 30
0.0
 10
100.818718828094
 20
128.1948436519608
 30
0.0
 10
100.147786039731
 20
127.5237386087099
 30
0.0
 10
100.147786039731
 20
126.6958816174717
 30
0.0
 10
100.147786039731
 20
125.8683691360093
 30
0.0
 10
100.818718828094
 20
125.1972640927583
 30
0.0
 10
101.6464035644443
 20
125.1972640927583
 30
0.0
 10
102.4742605556825
 20
125.1972640927583
 30
0.0
 10
103.1451933440456
 20
125.8683691360093
 30
0.0
 10
103.1451933440456
 20
126.6958816174717
 30
0.0
 10
103.1451933440456
 20
126.6958816174717
 30
0.0
 10
103.1451933440456
 20
126.6958816174717
 30
0.0
 10
103.1451933440456
 20
126.6958816174717
 30
0.0
 10
103.1451933440456
 20
126.6958816174717
 30
0.0
 10
103.1451933440456
 20
126.6958816174717
 30
0.0
 10
103.1451933440456
 20
126.6958816174717
 30
0.0
  0
ENDBLK
  5
AF
330
AC
100
AcDbEntity
  8
0
100
AcDbBlockEnd
  0
BLOCK
  5
B3
330
B1
100
AcDbEntity
  8
0
100
AcDbBlockBegin
  2
block 25
 70
     0
 71
     0
 10
0.0
 20
0.0
 30
0.0
  3
block 25
  1

  0
SPLINE
  5
B5
330
B1
100
AcDbEntity
  8
Fina
 62
     7
420
 16777215
370
     9
100
AcDbSpline
210
0.0
220
0.0
230
1.0
 70
    11
 71
     3
 72
    23
 73
    19
 74
     0
 42
0.0000000001
 43
0.0000000001
 40
0.0
 40
0.0
 40
0.0
 40
0.0
 40
1.0
 40
1.0
 40
1.0
 40
2.0
 40
2.0
 40
2.0
 40
3.0
 40
3.0
 40
3.0
 40
4.0
 40
4.0
 40
4.0
 40
5.0
 40
5.0
 40
5.0
 40
6.0
 40
6.0
 40
6.0
 40
6.0
 10
86.55928695300271
 20
126.6958816174717
 30
0.0
 10
86.55928695300271
 20
127.5237386087099
 30
0.0
 10
85.88818190975178
 20
128.1948436519608
 30
0.0
 10
85.06049717340147
 20
128.1948436519608
 30
0.0
 10
84.23281243705118
 20
128.1948436519608
 30
0.0
 10
83.56170739380025
 20
127.5237386087099
 30
0.0
 10
83.56170739380025
 20
126.6958816174717
 30
0.0
 10
83.56170739380025
 20
125.8683691360093
 30
0.0
 10
84.23281243705118
 20
125.1972640927583
 30
0.0
 10
85.06049717340147
 20
125.1972640927583
 30
0.0
 10
85.88818190975178
 20
125.1972640927583
 30
0.0
 10
86.55928695300271
 20
125.8683691360093
 30
0.0
 10
86.55928695300271
 20
126.6958816174717
 30
0.0
 10
86.55928695300271
 20
126.6958816174717
 30
0.0
 10
86.55928695300271
 20
126.6958816174717
 30
0.0
 10
86.55928695300271
 20
126.6958816174717
 30
0.0
 10
86.55928695300271
 20
126.6958816174717
 30
0.0
 10
86.55928695300271
 20
126.6958816174717
 30
0.0
 10
86.55928695300271
 20
126.6958816174717
 30
0.0
  0
ENDBLK
  5
B4
330
B1
100
AcDbEntity
  8
0
100
AcDbBlockEnd
  0
BLOCK
  5
B8
330
B6
100
AcDbEntity
  8
0
100
AcDbBlockBegin
  2
block 26
 70
     0
 71
     0
 10
0.0
 20
0.0
 30
0.0
  3
block 26
  1

  0
SPLINE
  5
BA
330
B6
100
AcDbEntity
  8
Fina
 62
     7
420
 16777215
370
     9
100
AcDbSpline
210
0.0
220
0.0
230
1.0
 70
    11
 71
     3
 72
    23
 73
    19
 74
     0
 42
0.0000000001
 43
0.0000000001
 40
0.0
 40
0.0
 40
0.0
 40
0.0
 40
1.0
 40
1.0
 40
1.0
 40
2.0
 40
2.0
 40
2.0
 40
3.0
 40
3.0
 40
3.0
 40
4.0
 40
4.0
 40
4.0
 40
5.0
 40
5.0
 40
5.0
 40
6.0
 40
6.0
 40
6.0
 40
6.0
 10
130.0222957576716
 20
126.6958816174717
 30
0.0
 10
130.0222957576716
 20
127.5237386087099
 30
0.0
 10
129.3515352241964
 20
128.1948436519608
 30
0.0
 10
128.5236782329582
 20
128.1948436519608
 30
0.0
 10
127.69582124172
 20
128.1948436519608
 30
0.0
 10
127.0250607082449
 20
127.5237386087099
 30
0.0
 10
127.0250607082449
 20
126.6958816174717
 30
0.0
 10
127.0250607082449
 20
125.8683691360093
 30
0.0
 10
127.69582124172
 20
125.1972640927583
 30
0.0
 10
128.5236782329582
 20
125.1972640927583
 30
0.0
 10
129.3515352241964
 20
125.1972640927583
 30
0.0
 10
130.0222957576716
 20
125.8683691360093
 30
0.0
 10
130.0222957576716
 20
126.6958816174717
 30
0.0
 10
130.0222957576716
 20
126.6958816174717
 30
0.0
 10
130.0222957576716
 20
126.6958816174717
 30
0.0
 10
130.0222957576716
 20
126.6958816174717
 30
0.0
 10
130.0222957576716
 20
126.6958816174717
 30
0.0
 10
130.0222957576716
 20
126.6958816174717
 30
0.0
 10
130.0222957576716
 20
126.6958816174717
 30
0.0
  0
ENDBLK
  5
B9
330
B6
100
AcDbEntity
  8
0
100
AcDbBlockEnd
  0
BLOCK
  5
BD
330
BB
100
AcDbEntity
  8
0
100
AcDbBlockBegin
  2
block 27
 70
     0
 71
     0
 10
0.0
 20
0.0
 30
0.0
  3
block 27
  1

  0
SPLINE
  5
BF
330
BB
100
AcDbEntity
  8
Fina
 62
     7
420
 16777215
370
     9
100
AcDbSpline
210
0.0
220
0.0
230
1.0
 70
    11
 71
     3
 72
    23
 73
    19
 74
     0
 42
0.0000000001
 43
0.0000000001
 40
0.0
 40
0.0
 40
0.0
 40
0.0
 40
1.0
 40
1.0
 40
1.0
 40
2.0
 40
2.0
 40
2.0
 40
3.0
 40
3.0
 40
3.0
 40
4.0
 40
4.0
 40
4.0
 40
5.0
 40
5.0
 40
5.0
 40
6.0
 40
6.0
 40
6.0
 40
6.0
 10
138.3153350806369
 20
126.6958816174717
 30
0.0
 10
138.3153350806369
 20
127.5237386087099
 30
0.0
 10
137.644230037386
 20
128.1948436519608
 30
0.0
 10
136.8167175559236
 20
128.1948436519608
 30
0.0
 10
135.9888605646854
 20
128.1948436519608
 30
0.0
 10
135.3177555214345
 20
127.5237386087099
 30
0.0
 10
135.3177555214345
 20
126.6958816174717
 30
0.0
 10
135.3177555214345
 20
125.8683691360093
 30
0.0
 10
135.9888605646854
 20
125.1972640927583
 30
0.0
 10
136.8167175559236
 20
125.1972640927583
 30
0.0
 10
137.644230037386
 20
125.1972640927583
 30
0.0
 10
138.3153350806369
 20
125.8683691360093
 30
0.0
 10
138.3153350806369
 20
126.6958816174717
 30
0.0
 10
138.3153350806369
 20
126.6958816174717
 30
0.0
 10
138.3153350806369
 20
126.6958816174717
 30
0.0
 10
138.3153350806369
 20
126.6958816174717
 30
0.0
 10
138.3153350806369
 20
126.6958816174717
 30
0.0
 10
138.3153350806369
 20
126.6958816174717
 30
0.0
 10
138.3153350806369
 20
126.6958816174717
 30
0.0
  0
ENDBLK
  5
BE
330
BB
100
AcDbEntity
  8
0
100
AcDbBlockEnd
  0
BLOCK
  5
C2
330
C0
100
AcDbEntity
  8
0
100
AcDbBlockBegin
  2
block 28
 70
     0
 71
     0
 10
0.0
 20
0.0
 30
0.0
  3
block 28
  1

  0
SPLINE
  5
C4
330
C0
100
AcDbEntity
  8
Fina
 62
     7
420
 16777215
370
     9
100
AcDbSpline
210
0.0
220
0.0
230
1.0
 70
    11
 71
     3
 72
    23
 73
    19
 74
     0
 42
0.0000000001
 43
0.0000000001
 40
0.0
 40
0.0
 40
0.0
 40
0.0
 40
1.0
 40
1.0
 40
1.0
 40
2.0
 40
2.0
 40
2.0
 40
3.0
 40
3.0
 40
3.0
 40
4.0
 40
4.0
 40
4.0
 40
5.0
 40
5.0
 40
5.0
 40
6.0
 40
6.0
 40
6.0
 40
6.0
 10
146.6083744036023
 20
126.6958816174717
 30
0.0
 10
146.6083744036023
 20
127.5237386087099
 30
0.0
 10
145.9372693603514
 20
128.1948436519608
 30
0.0
 10
145.109756878889
 20
128.1948436519608
 30
0.0
 10
144.2818998876508
 20
128.1948436519608
 30
0.0
 10
143.6107948443999
 20
127.5237386087099
 30
0.0
 10
143.6107948443999
 20
126.6958816174717
 30
0.0
 10
143.6107948443999
 20
125.8683691360093
 30
0.0
 10
144.2818998876508
 20
125.1972640927583
 30
0.0
 10
145.109756878889
 20
125.1972640927583
 30
0.0
 10
145.9372693603514
 20
125.1972640927583
 30
0.0
 10
146.6083744036023
 20
125.8683691360093
 30
0.0
 10
146.6083744036023
 20
126.6958816174717
 30
0.0
 10
146.6083744036023
 20
126.6958816174717
 30
0.0
 10
146.6083744036023
 20
126.6958816174717
 30
0.0
 10
146.6083744036023
 20
126.6958816174717
 30
0.0
 10
146.6083744036023
 20
126.6958816174717
 30
0.0
 10
146.6083744036023
 20
126.6958816174717
 30
0.0
 10
146.6083744036023
 20
126.6958816174717
 30
0.0
  0
ENDBLK
  5
C3
330
C0
100
AcDbEntity
  8
0
100
AcDbBlockEnd
  0
BLOCK
  5
C7
330
C5
100
AcDbEntity
  8
0
100
AcDbBlockBegin
  2
block 29
 70
     0
 71
     0
 10
0.0
 20
0.0
 30
0.0
  3
block 29
  1

  0
SPLINE
  5
C9
330
C5
100
AcDbEntity
  8
Fina
 62
     7
420
 16777215
370
     9
100
AcDbSpline
210
0.0
220
0.0
230
1.0
 70
    11
 71
     3
 72
    23
 73
    19
 74
     0
 42
0.0000000001
 43
0.0000000001
 40
0.0
 40
0.0
 40
0.0
 40
0.0
 40
1.0
 40
1.0
 40
1.0
 40
2.0
 40
2.0
 40
2.0
 40
3.0
 40
3.0
 40
3.0
 40
4.0
 40
4.0
 40
4.0
 40
5.0
 40
5.0
 40
5.0
 40
6.0
 40
6.0
 40
6.0
 40
6.0
 10
154.9014137265677
 20
126.6958816174717
 30
0.0
 10
154.9014137265677
 20
127.5237386087099
 30
0.0
 10
154.2303086833168
 20
128.1948436519608
 30
0.0
 10
153.4024516920786
 20
128.1948436519608
 30
0.0
 10
152.5749392106162
 20
128.1948436519608
 30
0.0
 10
151.9038341673652
 20
127.5237386087099
 30
0.0
 10
151.9038341673652
 20
126.6958816174717
 30
0.0
 10
151.9038341673652
 20
125.8683691360093
 30
0.0
 10
152.5749392106162
 20
125.1972640927583
 30
0.0
 10
153.4024516920786
 20
125.1972640927583
 30
0.0
 10
154.2303086833168
 20
125.1972640927583
 30
0.0
 10
154.9014137265677
 20
125.8683691360093
 30
0.0
 10
154.9014137265677
 20
126.6958816174717
 30
0.0
 10
154.9014137265677
 20
126.6958816174717
 30
0.0
 10
154.9014137265677
 20
126.6958816174717
 30
0.0
 10
154.9014137265677
 20
126.6958816174717
 30
0.0
 10
154.9014137265677
 20
126.6958816174717
 30
0.0
 10
154.9014137265677
 20
126.6958816174717
 30
0.0
 10
154.9014137265677
 20
126.6958816174717
 30
0.0
  0
ENDBLK
  5
C8
330
C5
100
AcDbEntity
  8
0
100
AcDbBlockEnd
  0
BLOCK
  5
CC
330
CA
100
AcDbEntity
  8
0
100
AcDbBlockBegin
  2
block 30
 70
     0
 71
     0
 10
0.0
 20
0.0
 30
0.0
  3
block 30
  1

  0
SPLINE
  5
CE
330
CA
100
AcDbEntity
  8
Fina
 62
     7
420
 16777215
370
     9
100
AcDbSpline
210
0.0
220
0.0
230
1.0
 70
    11
 71
     3
 72
    23
 73
    19
 74
     0
 42
0.0000000001
 43
0.0000000001
 40
0.0
 40
0.0
 40
0.0
 40
0.0
 40
1.0
 40
1.0
 40
1.0
 40
2.0
 40
2.0
 40
2.0
 40
3.0
 40
3.0
 40
3.0
 40
4.0
 40
4.0
 40
4.0
 40
5.0
 40
5.0
 40
5.0
 40
6.0
 40
6.0
 40
6.0
 40
6.0
 10
163.3195100981471
 20
126.6958816174717
 30
0.0
 10
163.3195100981471
 20
127.5237386087099
 30
0.0
 10
162.648749564672
 20
128.1948436519608
 30
0.0
 10
161.8208925734338
 20
128.1948436519608
 30
0.0
 10
160.9930355821956
 20
128.1948436519608
 30
0.0
 10
160.3222750487204
 20
127.5237386087099
 30
0.0
 10
160.3222750487204
 20
126.6958816174717
 30
0.0
 10
160.3222750487204
 20
125.8683691360093
 30
0.0
 10
160.9930355821956
 20
125.1972640927583
 30
0.0
 10
161.8208925734338
 20
125.1972640927583
 30
0.0
 10
162.648749564672
 20
125.1972640927583
 30
0.0
 10
163.3195100981471
 20
125.8683691360093
 30
0.0
 10
163.3195100981471
 20
126.6958816174717
 30
0.0
 10
163.3195100981471
 20
126.6958816174717
 30
0.0
 10
163.3195100981471
 20
126.6958816174717
 30
0.0
 10
163.3195100981471
 20
126.6958816174717
 30
0.0
 10
163.3195100981471
 20
126.6958816174717
 30
0.0
 10
163.3195100981471
 20
126.6958816174717
 30
0.0
 10
163.3195100981471
 20
126.6958816174717
 30
0.0
  0
ENDBLK
  5
CD
330
CA
100
AcDbEntity
  8
0
100
AcDbBlockEnd
  0
BLOCK
  5
D1
330
CF
100
AcDbEntity
  8
0
100
AcDbBlockBegin
  2
block 31
 70
     0
 71
     0
 10
0.0
 20
0.0
 30
0.0
  3
block 31
  1

  0
SPLINE
  5
D3
330
CF
100
AcDbEntity
  8
Fina
 62
     7
420
 16777215
370
     9
100
AcDbSpline
210
0.0
220
0.0
230
1.0
 70
    11
 71
     3
 72
    23
 73
    19
 74
     0
 42
0.0000000001
 43
0.0000000001
 40
0.0
 40
0.0
 40
0.0
 40
0.0
 40
1.0
 40
1.0
 40
1.0
 40
2.0
 40
2.0
 40
2.0
 40
3.0
 40
3.0
 40
3.0
 40
4.0
 40
4.0
 40
4.0
 40
5.0
 40
5.0
 40
5.0
 40
6.0
 40
6.0
 40
6.0
 40
6.0
 10
78.14101832653543
 20
126.6958816174717
 30
0.0
 10
78.14101832653543
 20
127.5237386087099
 30
0.0
 10
77.46991328328448
 20
128.1948436519608
 30
0.0
 10
76.64222854693419
 20
128.1948436519608
 30
0.0
 10
75.8145438105839
 20
128.1948436519608
 30
0.0
 10
75.14343876733297
 20
127.5237386087099
 30
0.0
 10
75.14343876733297
 20
126.6958816174717
 30
0.0
 10
75.14343876733297
 20
125.8683691360093
 30
0.0
 10
75.8145438105839
 20
125.1972640927583
 30
0.0
 10
76.64222854693419
 20
125.1972640927583
 30
0.0
 10
77.46991328328448
 20
125.1972640927583
 30
0.0
 10
78.14101832653543
 20
125.8683691360093
 30
0.0
 10
78.14101832653543
 20
126.6958816174717
 30
0.0
 10
78.14101832653543
 20
126.6958816174717
 30
0.0
 10
78.14101832653543
 20
126.6958816174717
 30
0.0
 10
78.14101832653543
 20
126.6958816174717
 30
0.0
 10
78.14101832653543
 20
126.6958816174717
 30
0.0
 10
78.14101832653543
 20
126.6958816174717
 30
0.0
 10
78.14101832653543
 20
126.6958816174717
 30
0.0
  0
ENDBLK
  5
D2
330
CF
100
AcDbEntity
  8
0
100
AcDbBlockEnd
  0
BLOCK
  5
D6
330
D4
100
AcDbEntity
  8
0
100
AcDbBlockBegin
  2
block 32
 70
     0
 71
     0
 10
0.0
 20
0.0
 30
0.0
  3
block 32
  1

  0
SPLINE
  5
D8
330
D4
100
AcDbEntity
  8
Fina
 62
     7
420
 16777215
370
     9
100
AcDbSpline
210
0.0
220
0.0
230
1.0
 70
    11
 71
     3
 72
    23
 73
    19
 74
     0
 42
0.0000000001
 43
0.0000000001
 40
0.0
 40
0.0
 40
0.0
 40
0.0
 40
1.0
 40
1.0
 40
1.0
 40
2.0
 40
2.0
 40
2.0
 40
3.0
 40
3.0
 40
3.0
 40
4.0
 40
4.0
 40
4.0
 40
5.0
 40
5.0
 40
5.0
 40
6.0
 40
6.0
 40
6.0
 40
6.0
 10
130.0222957576716
 20
118.4031868042821
 30
0.0
 10
130.0222957576716
 20
119.2306992857445
 30
0.0
 10
129.3515352241964
 20
119.9018043289954
 30
0.0
 10
128.5236782329582
 20
119.9018043289954
 30
0.0
 10
127.69582124172
 20
119.9018043289954
 30
0.0
 10
127.0250607082449
 20
119.2306992857445
 30
0.0
 10
127.0250607082449
 20
118.4031868042821
 30
0.0
 10
127.0250607082449
 20
117.5753298130439
 30
0.0
 10
127.69582124172
 20
116.904224769793
 30
0.0
 10
128.5236782329582
 20
116.904224769793
 30
0.0
 10
129.3515352241964
 20
116.904224769793
 30
0.0
 10
130.0222957576716
 20
117.5753298130439
 30
0.0
 10
130.0222957576716
 20
118.4031868042821
 30
0.0
 10
130.0222957576716
 20
118.4031868042821
 30
0.0
 10
130.0222957576716
 20
118.4031868042821
 30
0.0
 10
130.0222957576716
 20
118.4031868042821
 30
0.0
 10
130.0222957576716
 20
118.4031868042821
 30
0.0
 10
130.0222957576716
 20
118.4031868042821
 30
0.0
 10
130.0222957576716
 20
118.4031868042821
 30
0.0
  0
ENDBLK
  5
D7
330
D4
100
AcDbEntity
  8
0
100
AcDbBlockEnd
  0
BLOCK
  5
DB
330
D9
100
AcDbEntity
  8
0
100
AcDbBlockBegin
  2
block 33
 70
     0
 71
     0
 10
0.0
 20
0.0
 30
0.0
  3
block 33
  1

  0
SPLINE
  5
DD
330
D9
100
AcDbEntity
  8
Fina
 62
     7
420
 16777215
370
     9
100
AcDbSpline
210
0.0
220
0.0
230
1.0
 70
    11
 71
     3
 72
    23
 73
    19
 74
     0
 42
0.0000000001
 43
0.0000000001
 40
0.0
 40
0.0
 40
0.0
 40
0.0
 40
1.0
 40
1.0
 40
1.0
 40
2.0
 40
2.0
 40
2.0
 40
3.0
 40
3.0
 40
3.0
 40
4.0
 40
4.0
 40
4.0
 40
5.0
 40
5.0
 40
5.0
 40
6.0
 40
6.0
 40
6.0
 40
6.0
 10
138.3153350806369
 20
118.4031868042821
 30
0.0
 10
138.3153350806369
 20
119.2306992857445
 30
0.0
 10
137.644230037386
 20
119.9018043289954
 30
0.0
 10
136.8167175559236
 20
119.9018043289954
 30
0.0
 10
135.9888605646854
 20
119.9018043289954
 30
0.0
 10
135.3177555214345
 20
119.2306992857445
 30
0.0
 10
135.3177555214345
 20
118.4031868042821
 30
0.0
 10
135.3177555214345
 20
117.5753298130439
 30
0.0
 10
135.9888605646854
 20
116.904224769793
 30
0.0
 10
136.8167175559236
 20
116.904224769793
 30
0.0
 10
137.644230037386
 20
116.904224769793
 30
0.0
 10
138.3153350806369
 20
117.5753298130439
 30
0.0
 10
138.3153350806369
 20
118.4031868042821
 30
0.0
 10
138.3153350806369
 20
118.4031868042821
 30
0.0
 10
138.3153350806369
 20
118.4031868042821
 30
0.0
 10
138.3153350806369
 20
118.4031868042821
 30
0.0
 10
138.3153350806369
 20
118.4031868042821
 30
0.0
 10
138.3153350806369
 20
118.4031868042821
 30
0.0
 10
138.3153350806369
 20
118.4031868042821
 30
0.0
  0
ENDBLK
  5
DC
330
D9
100
AcDbEntity
  8
0
100
AcDbBlockEnd
  0
BLOCK
  5
E0
330
DE
100
AcDbEntity
  8
0
100
AcDbBlockBegin
  2
block 34
 70
     0
 71
     0
 10
0.0
 20
0.0
 30
0.0
  3
block 34
  1

  0
SPLINE
  5
E2
330
DE
100
AcDbEntity
  8
Fina
 62
     7
420
 16777215
370
     9
100
AcDbSpline
210
0.0
220
0.0
230
1.0
 70
    11
 71
     3
 72
    23
 73
    19
 74
     0
 42
0.0000000001
 43
0.0000000001
 40
0.0
 40
0.0
 40
0.0
 40
0.0
 40
1.0
 40
1.0
 40
1.0
 40
2.0
 40
2.0
 40
2.0
 40
3.0
 40
3.0
 40
3.0
 40
4.0
 40
4.0
 40
4.0
 40
5.0
 40
5.0
 40
5.0
 40
6.0
 40
6.0
 40
6.0
 40
6.0
 10
146.6083744036023
 20
118.4031868042821
 30
0.0
 10
146.6083744036023
 20
119.2306992857445
 30
0.0
 10
145.9372693603514
 20
119.9018043289954
 30
0.0
 10
145.109756878889
 20
119.9018043289954
 30
0.0
 10
144.2818998876508
 20
119.9018043289954
 30
0.0
 10
143.6107948443999
 20
119.2306992857445
 30
0.0
 10
143.6107948443999
 20
118.4031868042821
 30
0.0
 10
143.6107948443999
 20
117.5753298130439
 30
0.0
 10
144.2818998876508
 20
116.904224769793
 30
0.0
 10
145.109756878889
 20
116.904224769793
 30
0.0
 10
145.9372693603514
 20
116.904224769793
 30
0.0
 10
146.6083744036023
 20
117.5753298130439
 30
0.0
 10
146.6083744036023
 20
118.4031868042821
 30
0.0
 10
146.6083744036023
 20
118.4031868042821
 30
0.0
 10
146.6083744036023
 20
118.4031868042821
 30
0.0
 10
146.6083744036023
 20
118.4031868042821
 30
0.0
 10
146.6083744036023
 20
118.4031868042821
 30
0.0
 10
146.6083744036023
 20
118.4031868042821
 30
0.0
 10
146.6083744036023
 20
118.4031868042821
 30
0.0
  0
ENDBLK
  5
E1
330
DE
100
AcDbEntity
  8
0
100
AcDbBlockEnd
  0
BLOCK
  5
E5
330
E3
100
AcDbEntity
  8
0
100
AcDbBlockBegin
  2
block 35
 70
     0
 71
     0
 10
0.0
 20
0.0
 30
0.0
  3
block 35
  1

  0
SPLINE
  5
E7
330
E3
100
AcDbEntity
  8
Fina
 62
     7
420
 16777215
370
     9
100
AcDbSpline
210
0.0
220
0.0
230
1.0
 70
    11
 71
     3
 72
    23
 73
    19
 74
     0
 42
0.0000000001
 43
0.0000000001
 40
0.0
 40
0.0
 40
0.0
 40
0.0
 40
1.0
 40
1.0
 40
1.0
 40
2.0
 40
2.0
 40
2.0
 40
3.0
 40
3.0
 40
3.0
 40
4.0
 40
4.0
 40
4.0
 40
5.0
 40
5.0
 40
5.0
 40
6.0
 40
6.0
 40
6.0
 40
6.0
 10
163.3195100981471
 20
118.4031868042821
 30
0.0
 10
163.3195100981471
 20
119.2306992857445
 30
0.0
 10
162.648749564672
 20
119.9018043289954
 30
0.0
 10
161.8208925734338
 20
119.9018043289954
 30
0.0
 10
160.9930355821956
 20
119.9018043289954
 30
0.0
 10
160.3222750487204
 20
119.2306992857445
 30
0.0
 10
160.3222750487204
 20
118.4031868042821
 30
0.0
 10
160.3222750487204
 20
117.5753298130439
 30
0.0
 10
160.9930355821956
 20
116.904224769793
 30
0.0
 10
161.8208925734338
 20
116.904224769793
 30
0.0
 10
162.648749564672
 20
116.904224769793
 30
0.0
 10
163.3195100981471
 20
117.5753298130439
 30
0.0
 10
163.3195100981471
 20
118.4031868042821
 30
0.0
 10
163.3195100981471
 20
118.4031868042821
 30
0.0
 10
163.3195100981471
 20
118.4031868042821
 30
0.0
 10
163.3195100981471
 20
118.4031868042821
 30
0.0
 10
163.3195100981471
 20
118.4031868042821
 30
0.0
 10
163.3195100981471
 20
118.4031868042821
 30
0.0
 10
163.3195100981471
 20
118.4031868042821
 30
0.0
  0
ENDBLK
  5
E6
330
E3
100
AcDbEntity
  8
0
100
AcDbBlockEnd
  0
BLOCK
  5
EA
330
E8
100
AcDbEntity
  8
0
100
AcDbBlockBegin
  2
block 36
 70
     0
 71
     0
 10
0.0
 20
0.0
 30
0.0
  3
block 36
  1

  0
SPLINE
  5
EC
330
E8
100
AcDbEntity
  8
Fina
 62
     7
420
 16777215
370
     9
100
AcDbSpline
210
0.0
220
0.0
230
1.0
 70
    11
 71
     3
 72
    23
 73
    19
 74
     0
 42
0.0000000001
 43
0.0000000001
 40
0.0
 40
0.0
 40
0.0
 40
0.0
 40
1.0
 40
1.0
 40
1.0
 40
2.0
 40
2.0
 40
2.0
 40
3.0
 40
3.0
 40
3.0
 40
4.0
 40
4.0
 40
4.0
 40
5.0
 40
5.0
 40
5.0
 40
6.0
 40
6.0
 40
6.0
 40
6.0
 10
154.9014137265677
 20
118.4031868042821
 30
0.0
 10
154.9014137265677
 20
119.2306992857445
 30
0.0
 10
154.2303086833168
 20
119.9018043289954
 30
0.0
 10
153.4024516920786
 20
119.9018043289954
 30
0.0
 10
152.5749392106162
 20
119.9018043289954
 30
0.0
 10
151.9038341673652
 20
119.2306992857445
 30
0.0
 10
151.9038341673652
 20
118.4031868042821
 30
0.0
 10
151.9038341673652
 20
117.5753298130439
 30
0.0
 10
152.5749392106162
 20
116.904224769793
 30
0.0
 10
153.4024516920786
 20
116.904224769793
 30
0.0
 10
154.2303086833168
 20
116.904224769793
 30
0.0
 10
154.9014137265677
 20
117.5753298130439
 30
0.0
 10
154.9014137265677
 20
118.4031868042821
 30
0.0
 10
154.9014137265677
 20
118.4031868042821
 30
0.0
 10
154.9014137265677
 20
118.4031868042821
 30
0.0
 10
154.9014137265677
 20
118.4031868042821
 30
0.0
 10
154.9014137265677
 20
118.4031868042821
 30
0.0
 10
154.9014137265677
 20
118.4031868042821
 30
0.0
 10
154.9014137265677
 20
118.4031868042821
 30
0.0
  0
ENDBLK
  5
EB
330
E8
100
AcDbEntity
  8
0
100
AcDbBlockEnd
  0
BLOCK
  5
EF
330
ED
100
AcDbEntity
  8
0
100
AcDbBlockBegin
  2
block 37
 70
     0
 71
     0
 10
0.0
 20
0.0
 30
0.0
  3
block 37
  1

  0
SPLINE
  5
F1
330
ED
100
AcDbEntity
  8
Fina
 62
     7
420
 16777215
370
     9
100
AcDbSpline
210
0.0
220
0.0
230
1.0
 70
    11
 71
     3
 72
    23
 73
    19
 74
     0
 42
0.0000000001
 43
0.0000000001
 40
0.0
 40
0.0
 40
0.0
 40
0.0
 40
1.0
 40
1.0
 40
1.0
 40
2.0
 40
2.0
 40
2.0
 40
3.0
 40
3.0
 40
3.0
 40
4.0
 40
4.0
 40
4.0
 40
5.0
 40
5.0
 40
5.0
 40
6.0
 40
6.0
 40
6.0
 40
6.0
 10
94.85215402108018
 20
118.4031868042821
 30
0.0
 10
94.85215402108018
 20
119.2306992857445
 30
0.0
 10
94.18122123271715
 20
119.9018043289954
 30
0.0
 10
93.35353649636686
 20
119.9018043289954
 30
0.0
 10
92.52585176001656
 20
119.9018043289954
 30
0.0
 10
91.85474671676562
 20
119.2306992857445
 30
0.0
 10
91.85474671676562
 20
118.4031868042821
 30
0.0
 10
91.85474671676562
 20
117.5753298130439
 30
0.0
 10
92.52585176001656
 20
116.904224769793
 30
0.0
 10
93.35353649636686
 20
116.904224769793
 30
0.0
 10
94.18122123271715
 20
116.904224769793
 30
0.0
 10
94.85215402108018
 20
117.5753298130439
 30
0.0
 10
94.85215402108018
 20
118.4031868042821
 30
0.0
 10
94.85215402108018
 20
118.4031868042821
 30
0.0
 10
94.85215402108018
 20
118.4031868042821
 30
0.0
 10
94.85215402108018
 20
118.4031868042821
 30
0.0
 10
94.85215402108018
 20
118.4031868042821
 30
0.0
 10
94.85215402108018
 20
118.4031868042821
 30
0.0
 10
94.85215402108018
 20
118.4031868042821
 30
0.0
  0
ENDBLK
  5
F0
330
ED
100
AcDbEntity
  8
0
100
AcDbBlockEnd
  0
BLOCK
  5
F4
330
F2
100
AcDbEntity
  8
0
100
AcDbBlockBegin
  2
block 38
 70
     0
 71
     0
 10
0.0
 20
0.0
 30
0.0
  3
block 38
  1

  0
SPLINE
  5
F6
330
F2
100
AcDbEntity
  8
Fina
 62
     7
420
 16777215
370
     9
100
AcDbSpline
210
0.0
220
0.0
230
1.0
 70
    11
 71
     3
 72
    23
 73
    19
 74
     0
 42
0.0000000001
 43
0.0000000001
 40
0.0
 40
0.0
 40
0.0
 40
0.0
 40
1.0
 40
1.0
 40
1.0
 40
2.0
 40
2.0
 40
2.0
 40
3.0
 40
3.0
 40
3.0
 40
4.0
 40
4.0
 40
4.0
 40
5.0
 40
5.0
 40
5.0
 40
6.0
 40
6.0
 40
6.0
 40
6.0
 10
103.1451933440456
 20
118.4031868042821
 30
0.0
 10
103.1451933440456
 20
119.2306992857445
 30
0.0
 10
102.4742605556825
 20
119.9018043289954
 30
0.0
 10
101.6464035644443
 20
119.9018043289954
 30
0.0
 10
100.818718828094
 20
119.9018043289954
 30
0.0
 10
100.147786039731
 20
119.2306992857445
 30
0.0
 10
100.147786039731
 20
118.4031868042821
 30
0.0
 10
100.147786039731
 20
117.5753298130439
 30
0.0
 10
100.818718828094
 20
116.904224769793
 30
0.0
 10
101.6464035644443
 20
116.904224769793
 30
0.0
 10
102.4742605556825
 20
116.904224769793
 30
0.0
 10
103.1451933440456
 20
117.5753298130439
 30
0.0
 10
103.1451933440456
 20
118.4031868042821
 30
0.0
 10
103.1451933440456
 20
118.4031868042821
 30
0.0
 10
103.1451933440456
 20
118.4031868042821
 30
0.0
 10
103.1451933440456
 20
118.4031868042821
 30
0.0
 10
103.1451933440456
 20
118.4031868042821
 30
0.0
 10
103.1451933440456
 20
118.4031868042821
 30
0.0
 10
103.1451933440456
 20
118.4031868042821
 30
0.0
  0
ENDBLK
  5
F5
330
F2
100
AcDbEntity
  8
0
100
AcDbBlockEnd
  0
BLOCK
  5
F9
330
F7
100
AcDbEntity
  8
0
100
AcDbBlockBegin
  2
block 39
 70
     0
 71
     0
 10
0.0
 20
0.0
 30
0.0
  3
block 39
  1

  0
SPLINE
  5
FB
330
F7
100
AcDbEntity
  8
Fina
 62
     7
420
 16777215
370
     9
100
AcDbSpline
210
0.0
220
0.0
230
1.0
 70
    11
 71
     3
 72
    23
 73
    19
 74
     0
 42
0.0000000001
 43
0.0000000001
 40
0.0
 40
0.0
 40
0.0
 40
0.0
 40
1.0
 40
1.0
 40
1.0
 40
2.0
 40
2.0
 40
2.0
 40
3.0
 40
3.0
 40
3.0
 40
4.0
 40
4.0
 40
4.0
 40
5.0
 40
5.0
 40
5.0
 40
6.0
 40
6.0
 40
6.0
 40
6.0
 10
111.438060412123
 20
118.4031868042821
 30
0.0
 10
111.438060412123
 20
119.2306992857445
 30
0.0
 10
110.7672998786479
 20
119.9018043289954
 30
0.0
 10
109.9394428874097
 20
119.9018043289954
 30
0.0
 10
109.1115858961715
 20
119.9018043289954
 30
0.0
 10
108.4408253626964
 20
119.2306992857445
 30
0.0
 10
108.4408253626964
 20
118.4031868042821
 30
0.0
 10
108.4408253626964
 20
117.5753298130439
 30
0.0
 10
109.1115858961715
 20
116.904224769793
 30
0.0
 10
109.9394428874097
 20
116.904224769793
 30
0.0
 10
110.7672998786479
 20
116.904224769793
 30
0.0
 10
111.438060412123
 20
117.5753298130439
 30
0.0
 10
111.438060412123
 20
118.4031868042821
 30
0.0
 10
111.438060412123
 20
118.4031868042821
 30
0.0
 10
111.438060412123
 20
118.4031868042821
 30
0.0
 10
111.438060412123
 20
118.4031868042821
 30
0.0
 10
111.438060412123
 20
118.4031868042821
 30
0.0
 10
111.438060412123
 20
118.4031868042821
 30
0.0
 10
111.438060412123
 20
118.4031868042821
 30
0.0
  0
ENDBLK
  5
FA
330
F7
100
AcDbEntity
  8
0
100
AcDbBlockEnd
  0
BLOCK
  5
FE
330
FC
100
AcDbEntity
  8
0
100
AcDbBlockBegin
  2
block 40
 70
     0
 71
     0
 10
0.0
 20
0.0
 30
0.0
  3
block 40
  1

  0
SPLINE
  5
100
330
FC
100
AcDbEntity
  8
Fina
 62
     7
420
 16777215
370
     9
100
AcDbSpline
210
0.0
220
0.0
230
1.0
 70
    11
 71
     3
 72
    23
 73
    19
 74
     0
 42
0.0000000001
 43
0.0000000001
 40
0.0
 40
0.0
 40
0.0
 40
0.0
 40
1.0
 40
1.0
 40
1.0
 40
2.0
 40
2.0
 40
2.0
 40
3.0
 40
3.0
 40
3.0
 40
4.0
 40
4.0
 40
4.0
 40
5.0
 40
5.0
 40
5.0
 40
6.0
 40
6.0
 40
6.0
 40
6.0
 10
86.55928695300271
 20
118.4031868042821
 30
0.0
 10
86.55928695300271
 20
119.2306992857445
 30
0.0
 10
85.88818190975178
 20
119.9018043289954
 30
0.0
 10
85.06049717340147
 20
119.9018043289954
 30
0.0
 10
84.23281243705118
 20
119.9018043289954
 30
0.0
 10
83.56170739380025
 20
119.2306992857445
 30
0.0
 10
83.56170739380025
 20
118.4031868042821
 30
0.0
 10
83.56170739380025
 20
117.5753298130439
 30
0.0
 10
84.23281243705118
 20
116.904224769793
 30
0.0
 10
85.06049717340147
 20
116.904224769793
 30
0.0
 10
85.88818190975178
 20
116.904224769793
 30
0.0
 10
86.55928695300271
 20
117.5753298130439
 30
0.0
 10
86.55928695300271
 20
118.4031868042821
 30
0.0
 10
86.55928695300271
 20
118.4031868042821
 30
0.0
 10
86.55928695300271
 20
118.4031868042821
 30
0.0
 10
86.55928695300271
 20
118.4031868042821
 30
0.0
 10
86.55928695300271
 20
118.4031868042821
 30
0.0
 10
86.55928695300271
 20
118.4031868042821
 30
0.0
 10
86.55928695300271
 20
118.4031868042821
 30
0.0
  0
ENDBLK
  5
FF
330
FC
100
AcDbEntity
  8
0
100
AcDbBlockEnd
  0
BLOCK
  5
103
330
101
100
AcDbEntity
  8
0
100
AcDbBlockBegin
  2
block 41
 70
     0
 71
     0
 10
0.0
 20
0.0
 30
0.0
  3
block 41
  1

  0
SPLINE
  5
105
330
101
100
AcDbEntity
  8
Fina
 62
     7
420
 16777215
370
     9
100
AcDbSpline
210
0.0
220
0.0
230
1.0
 70
    11
 71
     3
 72
    23
 73
    19
 74
     0
 42
0.0000000001
 43
0.0000000001
 40
0.0
 40
0.0
 40
0.0
 40
0.0
 40
1.0
 40
1.0
 40
1.0
 40
2.0
 40
2.0
 40
2.0
 40
3.0
 40
3.0
 40
3.0
 40
4.0
 40
4.0
 40
4.0
 40
5.0
 40
5.0
 40
5.0
 40
6.0
 40
6.0
 40
6.0
 40
6.0
 10
146.6083744036023
 20
110.1101474813167
 30
0.0
 10
146.6083744036023
 20
110.9376599627791
 30
0.0
 10
145.9372693603514
 20
111.60876500603
 30
0.0
 10
145.109756878889
 20
111.60876500603
 30
0.0
 10
144.2818998876508
 20
111.60876500603
 30
0.0
 10
143.6107948443999
 20
110.9376599627791
 30
0.0
 10
143.6107948443999
 20
110.1101474813167
 30
0.0
 10
143.6107948443999
 20
109.2822904900785
 30
0.0
 10
144.2818998876508
 20
108.6115299566034
 30
0.0
 10
145.109756878889
 20
108.6115299566034
 30
0.0
 10
145.9372693603514
 20
108.6115299566034
 30
0.0
 10
146.6083744036023
 20
109.2822904900785
 30
0.0
 10
146.6083744036023
 20
110.1101474813167
 30
0.0
 10
146.6083744036023
 20
110.1101474813167
 30
0.0
 10
146.6083744036023
 20
110.1101474813167
 30
0.0
 10
146.6083744036023
 20
110.1101474813167
 30
0.0
 10
146.6083744036023
 20
110.1101474813167
 30
0.0
 10
146.6083744036023
 20
110.1101474813167
 30
0.0
 10
146.6083744036023
 20
110.1101474813167
 30
0.0
  0
ENDBLK
  5
104
330
101
100
AcDbEntity
  8
0
100
AcDbBlockEnd
  0
BLOCK
  5
108
330
106
100
AcDbEntity
  8
0
100
AcDbBlockBegin
  2
block 42
 70
     0
 71
     0
 10
0.0
 20
0.0
 30
0.0
  3
block 42
  1

  0
SPLINE
  5
10A
330
106
100
AcDbEntity
  8
Fina
 62
     7
420
 16777215
370
     9
100
AcDbSpline
210
0.0
220
0.0
230
1.0
 70
    11
 71
     3
 72
    23
 73
    19
 74
     0
 42
0.0000000001
 43
0.0000000001
 40
0.0
 40
0.0
 40
0.0
 40
0.0
 40
1.0
 40
1.0
 40
1.0
 40
2.0
 40
2.0
 40
2.0
 40
3.0
 40
3.0
 40
3.0
 40
4.0
 40
4.0
 40
4.0
 40
5.0
 40
5.0
 40
5.0
 40
6.0
 40
6.0
 40
6.0
 40
6.0
 10
138.3153350806369
 20
110.1101474813167
 30
0.0
 10
138.3153350806369
 20
110.9376599627791
 30
0.0
 10
137.644230037386
 20
111.60876500603
 30
0.0
 10
136.8167175559236
 20
111.60876500603
 30
0.0
 10
135.9888605646854
 20
111.60876500603
 30
0.0
 10
135.3177555214345
 20
110.9376599627791
 30
0.0
 10
135.3177555214345
 20
110.1101474813167
 30
0.0
 10
135.3177555214345
 20
109.2822904900785
 30
0.0
 10
135.9888605646854
 20
108.6115299566034
 30
0.0
 10
136.8167175559236
 20
108.6115299566034
 30
0.0
 10
137.644230037386
 20
108.6115299566034
 30
0.0
 10
138.3153350806369
 20
109.2822904900785
 30
0.0
 10
138.3153350806369
 20
110.1101474813167
 30
0.0
 10
138.3153350806369
 20
110.1101474813167
 30
0.0
 10
138.3153350806369
 20
110.1101474813167
 30
0.0
 10
138.3153350806369
 20
110.1101474813167
 30
0.0
 10
138.3153350806369
 20
110.1101474813167
 30
0.0
 10
138.3153350806369
 20
110.1101474813167
 30
0.0
 10
138.3153350806369
 20
110.1101474813167
 30
0.0
  0
ENDBLK
  5
109
330
106
100
AcDbEntity
  8
0
100
AcDbBlockEnd
  0
BLOCK
  5
10D
330
10B
100
AcDbEntity
  8
0
100
AcDbBlockBegin
  2
block 43
 70
     0
 71
     0
 10
0.0
 20
0.0
 30
0.0
  3
block 43
  1

  0
SPLINE
  5
10F
330
10B
100
AcDbEntity
  8
Fina
 62
     7
420
 16777215
370
     9
100
AcDbSpline
210
0.0
220
0.0
230
1.0
 70
    11
 71
     3
 72
    23
 73
    19
 74
     0
 42
0.0000000001
 43
0.0000000001
 40
0.0
 40
0.0
 40
0.0
 40
0.0
 40
1.0
 40
1.0
 40
1.0
 40
2.0
 40
2.0
 40
2.0
 40
3.0
 40
3.0
 40
3.0
 40
4.0
 40
4.0
 40
4.0
 40
5.0
 40
5.0
 40
5.0
 40
6.0
 40
6.0
 40
6.0
 40
6.0
 10
130.0222957576716
 20
110.1101474813167
 30
0.0
 10
130.0222957576716
 20
110.9376599627791
 30
0.0
 10
129.3515352241964
 20
111.60876500603
 30
0.0
 10
128.5236782329582
 20
111.60876500603
 30
0.0
 10
127.69582124172
 20
111.60876500603
 30
0.0
 10
127.0250607082449
 20
110.9376599627791
 30
0.0
 10
127.0250607082449
 20
110.1101474813167
 30
0.0
 10
127.0250607082449
 20
109.2822904900785
 30
0.0
 10
127.69582124172
 20
108.6115299566034
 30
0.0
 10
128.5236782329582
 20
108.6115299566034
 30
0.0
 10
129.3515352241964
 20
108.6115299566034
 30
0.0
 10
130.0222957576716
 20
109.2822904900785
 30
0.0
 10
130.0222957576716
 20
110.1101474813167
 30
0.0
 10
130.0222957576716
 20
110.1101474813167
 30
0.0
 10
130.0222957576716
 20
110.1101474813167
 30
0.0
 10
130.0222957576716
 20
110.1101474813167
 30
0.0
 10
130.0222957576716
 20
110.1101474813167
 30
0.0
 10
130.0222957576716
 20
110.1101474813167
 30
0.0
 10
130.0222957576716
 20
110.1101474813167
 30
0.0
  0
ENDBLK
  5
10E
330
10B
100
AcDbEntity
  8
0
100
AcDbBlockEnd
  0
BLOCK
  5
112
330
110
100
AcDbEntity
  8
0
100
AcDbBlockBegin
  2
block 44
 70
     0
 71
     0
 10
0.0
 20
0.0
 30
0.0
  3
block 44
  1

  0
SPLINE
  5
114
330
110
100
AcDbEntity
  8
Fina
 62
     7
420
 16777215
370
     9
100
AcDbSpline
210
0.0
220
0.0
230
1.0
 70
    11
 71
     3
 72
    23
 73
    19
 74
     0
 42
0.0000000001
 43
0.0000000001
 40
0.0
 40
0.0
 40
0.0
 40
0.0
 40
1.0
 40
1.0
 40
1.0
 40
2.0
 40
2.0
 40
2.0
 40
3.0
 40
3.0
 40
3.0
 40
4.0
 40
4.0
 40
4.0
 40
5.0
 40
5.0
 40
5.0
 40
6.0
 40
6.0
 40
6.0
 40
6.0
 10
163.3195100981471
 20
110.1101474813167
 30
0.0
 10
163.3195100981471
 20
110.9376599627791
 30
0.0
 10
162.648749564672
 20
111.60876500603
 30
0.0
 10
161.8208925734338
 20
111.60876500603
 30
0.0
 10
160.9930355821956
 20
111.60876500603
 30
0.0
 10
160.3222750487204
 20
110.9376599627791
 30
0.0
 10
160.3222750487204
 20
110.1101474813167
 30
0.0
 10
160.3222750487204
 20
109.2822904900785
 30
0.0
 10
160.9930355821956
 20
108.6115299566034
 30
0.0
 10
161.8208925734338
 20
108.6115299566034
 30
0.0
 10
162.648749564672
 20
108.6115299566034
 30
0.0
 10
163.3195100981471
 20
109.2822904900785
 30
0.0
 10
163.3195100981471
 20
110.1101474813167
 30
0.0
 10
163.3195100981471
 20
110.1101474813167
 30
0.0
 10
163.3195100981471
 20
110.1101474813167
 30
0.0
 10
163.3195100981471
 20
110.1101474813167
 30
0.0
 10
163.3195100981471
 20
110.1101474813167
 30
0.0
 10
163.3195100981471
 20
110.1101474813167
 30
0.0
 10
163.3195100981471
 20
110.1101474813167
 30
0.0
  0
ENDBLK
  5
113
330
110
100
AcDbEntity
  8
0
100
AcDbBlockEnd
  0
BLOCK
  5
117
330
115
100
AcDbEntity
  8
0
100
AcDbBlockBegin
  2
block 45
 70
     0
 71
     0
 10
0.0
 20
0.0
 30
0.0
  3
block 45
  1

  0
SPLINE
  5
119
330
115
100
AcDbEntity
  8
Fina
 62
     7
420
 16777215
370
     9
100
AcDbSpline
210
0.0
220
0.0
230
1.0
 70
    11
 71
     3
 72
    23
 73
    19
 74
     0
 42
0.0000000001
 43
0.0000000001
 40
0.0
 40
0.0
 40
0.0
 40
0.0
 40
1.0
 40
1.0
 40
1.0
 40
2.0
 40
2.0
 40
2.0
 40
3.0
 40
3.0
 40
3.0
 40
4.0
 40
4.0
 40
4.0
 40
5.0
 40
5.0
 40
5.0
 40
6.0
 40
6.0
 40
6.0
 40
6.0
 10
154.9014137265677
 20
110.1101474813167
 30
0.0
 10
154.9014137265677
 20
110.9376599627791
 30
0.0
 10
154.2303086833168
 20
111.60876500603
 30
0.0
 10
153.4024516920786
 20
111.60876500603
 30
0.0
 10
152.5749392106162
 20
111.60876500603
 30
0.0
 10
151.9038341673652
 20
110.9376599627791
 30
0.0
 10
151.9038341673652
 20
110.1101474813167
 30
0.0
 10
151.9038341673652
 20
109.2822904900785
 30
0.0
 10
152.5749392106162
 20
108.6115299566034
 30
0.0
 10
153.4024516920786
 20
108.6115299566034
 30
0.0
 10
154.2303086833168
 20
108.6115299566034
 30
0.0
 10
154.9014137265677
 20
109.2822904900785
 30
0.0
 10
154.9014137265677
 20
110.1101474813167
 30
0.0
 10
154.9014137265677
 20
110.1101474813167
 30
0.0
 10
154.9014137265677
 20
110.1101474813167
 30
0.0
 10
154.9014137265677
 20
110.1101474813167
 30
0.0
 10
154.9014137265677
 20
110.1101474813167
 30
0.0
 10
154.9014137265677
 20
110.1101474813167
 30
0.0
 10
154.9014137265677
 20
110.1101474813167
 30
0.0
  0
ENDBLK
  5
118
330
115
100
AcDbEntity
  8
0
100
AcDbBlockEnd
  0
BLOCK
  5
11C
330
11A
100
AcDbEntity
  8
0
100
AcDbBlockBegin
  2
block 46
 70
     0
 71
     0
 10
0.0
 20
0.0
 30
0.0
  3
block 46
  1

  0
SPLINE
  5
11E
330
11A
100
AcDbEntity
  8
Fina
 62
     7
420
 16777215
370
     9
100
AcDbSpline
210
0.0
220
0.0
230
1.0
 70
    11
 71
     3
 72
    23
 73
    19
 74
     0
 42
0.0000000001
 43
0.0000000001
 40
0.0
 40
0.0
 40
0.0
 40
0.0
 40
1.0
 40
1.0
 40
1.0
 40
2.0
 40
2.0
 40
2.0
 40
3.0
 40
3.0
 40
3.0
 40
4.0
 40
4.0
 40
4.0
 40
5.0
 40
5.0
 40
5.0
 40
6.0
 40
6.0
 40
6.0
 40
6.0
 10
86.55928695300271
 20
110.1101474813167
 30
0.0
 10
86.55928695300271
 20
110.9376599627791
 30
0.0
 10
85.88818190975178
 20
111.60876500603
 30
0.0
 10
85.06049717340147
 20
111.60876500603
 30
0.0
 10
84.23281243705118
 20
111.60876500603
 30
0.0
 10
83.56170739380025
 20
110.9376599627791
 30
0.0
 10
83.56170739380025
 20
110.1101474813167
 30
0.0
 10
83.56170739380025
 20
109.2822904900785
 30
0.0
 10
84.23281243705118
 20
108.6115299566034
 30
0.0
 10
85.06049717340147
 20
108.6115299566034
 30
0.0
 10
85.88818190975178
 20
108.6115299566034
 30
0.0
 10
86.55928695300271
 20
109.2822904900785
 30
0.0
 10
86.55928695300271
 20
110.1101474813167
 30
0.0
 10
86.55928695300271
 20
110.1101474813167
 30
0.0
 10
86.55928695300271
 20
110.1101474813167
 30
0.0
 10
86.55928695300271
 20
110.1101474813167
 30
0.0
 10
86.55928695300271
 20
110.1101474813167
 30
0.0
 10
86.55928695300271
 20
110.1101474813167
 30
0.0
 10
86.55928695300271
 20
110.1101474813167
 30
0.0
  0
ENDBLK
  5
11D
330
11A
100
AcDbEntity
  8
0
100
AcDbBlockEnd
  0
BLOCK
  5
121
330
11F
100
AcDbEntity
  8
0
100
AcDbBlockBegin
  2
block 47
 70
     0
 71
     0
 10
0.0
 20
0.0
 30
0.0
  3
block 47
  1

  0
SPLINE
  5
123
330
11F
100
AcDbEntity
  8
Fina
 62
     7
420
 16777215
370
     9
100
AcDbSpline
210
0.0
220
0.0
230
1.0
 70
    11
 71
     3
 72
    23
 73
    19
 74
     0
 42
0.0000000001
 43
0.0000000001
 40
0.0
 40
0.0
 40
0.0
 40
0.0
 40
1.0
 40
1.0
 40
1.0
 40
2.0
 40
2.0
 40
2.0
 40
3.0
 40
3.0
 40
3.0
 40
4.0
 40
4.0
 40
4.0
 40
5.0
 40
5.0
 40
5.0
 40
6.0
 40
6.0
 40
6.0
 40
6.0
 10
111.438060412123
 20
110.1101474813167
 30
0.0
 10
111.438060412123
 20
110.9376599627791
 30
0.0
 10
110.7672998786479
 20
111.60876500603
 30
0.0
 10
109.9394428874097
 20
111.60876500603
 30
0.0
 10
109.1115858961715
 20
111.60876500603
 30
0.0
 10
108.4408253626964
 20
110.9376599627791
 30
0.0
 10
108.4408253626964
 20
110.1101474813167
 30
0.0
 10
108.4408253626964
 20
109.2822904900785
 30
0.0
 10
109.1115858961715
 20
108.6115299566034
 30
0.0
 10
109.9394428874097
 20
108.6115299566034
 30
0.0
 10
110.7672998786479
 20
108.6115299566034
 30
0.0
 10
111.438060412123
 20
109.2822904900785
 30
0.0
 10
111.438060412123
 20
110.1101474813167
 30
0.0
 10
111.438060412123
 20
110.1101474813167
 30
0.0
 10
111.438060412123
 20
110.1101474813167
 30
0.0
 10
111.438060412123
 20
110.1101474813167
 30
0.0
 10
111.438060412123
 20
110.1101474813167
 30
0.0
 10
111.438060412123
 20
110.1101474813167
 30
0.0
 10
111.438060412123
 20
110.1101474813167
 30
0.0
  0
ENDBLK
  5
122
330
11F
100
AcDbEntity
  8
0
100
AcDbBlockEnd
  0
BLOCK
  5
126
330
124
100
AcDbEntity
  8
0
100
AcDbBlockBegin
  2
block 48
 70
     0
 71
     0
 10
0.0
 20
0.0
 30
0.0
  3
block 48
  1

  0
SPLINE
  5
128
330
124
100
AcDbEntity
  8
Fina
 62
     7
420
 16777215
370
     9
100
AcDbSpline
210
0.0
220
0.0
230
1.0
 70
    11
 71
     3
 72
    23
 73
    19
 74
     0
 42
0.0000000001
 43
0.0000000001
 40
0.0
 40
0.0
 40
0.0
 40
0.0
 40
1.0
 40
1.0
 40
1.0
 40
2.0
 40
2.0
 40
2.0
 40
3.0
 40
3.0
 40
3.0
 40
4.0
 40
4.0
 40
4.0
 40
5.0
 40
5.0
 40
5.0
 40
6.0
 40
6.0
 40
6.0
 40
6.0
 10
103.1451933440456
 20
110.1101474813167
 30
0.0
 10
103.1451933440456
 20
110.9376599627791
 30
0.0
 10
102.4742605556825
 20
111.60876500603
 30
0.0
 10
101.6464035644443
 20
111.60876500603
 30
0.0
 10
100.818718828094
 20
111.60876500603
 30
0.0
 10
100.147786039731
 20
110.9376599627791
 30
0.0
 10
100.147786039731
 20
110.1101474813167
 30
0.0
 10
100.147786039731
 20
109.2822904900785
 30
0.0
 10
100.818718828094
 20
108.6115299566034
 30
0.0
 10
101.6464035644443
 20
108.6115299566034
 30
0.0
 10
102.4742605556825
 20
108.6115299566034
 30
0.0
 10
103.1451933440456
 20
109.2822904900785
 30
0.0
 10
103.1451933440456
 20
110.1101474813167
 30
0.0
 10
103.1451933440456
 20
110.1101474813167
 30
0.0
 10
103.1451933440456
 20
110.1101474813167
 30
0.0
 10
103.1451933440456
 20
110.1101474813167
 30
0.0
 10
103.1451933440456
 20
110.1101474813167
 30
0.0
 10
103.1451933440456
 20
110.1101474813167
 30
0.0
 10
103.1451933440456
 20
110.1101474813167
 30
0.0
  0
ENDBLK
  5
127
330
124
100
AcDbEntity
  8
0
100
AcDbBlockEnd
  0
BLOCK
  5
12B
330
129
100
AcDbEntity
  8
0
100
AcDbBlockBegin
  2
block 49
 70
     0
 71
     0
 10
0.0
 20
0.0
 30
0.0
  3
block 49
  1

  0
SPLINE
  5
12D
330
129
100
AcDbEntity
  8
Fina
 62
     7
420
 16777215
370
     9
100
AcDbSpline
210
0.0
220
0.0
230
1.0
 70
    11
 71
     3
 72
    23
 73
    19
 74
     0
 42
0.0000000001
 43
0.0000000001
 40
0.0
 40
0.0
 40
0.0
 40
0.0
 40
1.0
 40
1.0
 40
1.0
 40
2.0
 40
2.0
 40
2.0
 40
3.0
 40
3.0
 40
3.0
 40
4.0
 40
4.0
 40
4.0
 40
5.0
 40
5.0
 40
5.0
 40
6.0
 40
6.0
 40
6.0
 40
6.0
 10
94.85215402108018
 20
110.1101474813167
 30
0.0
 10
94.85215402108018
 20
110.9376599627791
 30
0.0
 10
94.18122123271715
 20
111.60876500603
 30
0.0
 10
93.35353649636686
 20
111.60876500603
 30
0.0
 10
92.52585176001656
 20
111.60876500603
 30
0.0
 10
91.85474671676562
 20
110.9376599627791
 30
0.0
 10
91.85474671676562
 20
110.1101474813167
 30
0.0
 10
91.85474671676562
 20
109.2822904900785
 30
0.0
 10
92.52585176001656
 20
108.6115299566034
 30
0.0
 10
93.35353649636686
 20
108.6115299566034
 30
0.0
 10
94.18122123271715
 20
108.6115299566034
 30
0.0
 10
94.85215402108018
 20
109.2822904900785
 30
0.0
 10
94.85215402108018
 20
110.1101474813167
 30
0.0
 10
94.85215402108018
 20
110.1101474813167
 30
0.0
 10
94.85215402108018
 20
110.1101474813167
 30
0.0
 10
94.85215402108018
 20
110.1101474813167
 30
0.0
 10
94.85215402108018
 20
110.1101474813167
 30
0.0
 10
94.85215402108018
 20
110.1101474813167
 30
0.0
 10
94.85215402108018
 20
110.1101474813167
 30
0.0
  0
ENDBLK
  5
12C
330
129
100
AcDbEntity
  8
0
100
AcDbBlockEnd
  0
BLOCK
  5
130
330
12E
100
AcDbEntity
  8
0
100
AcDbBlockBegin
  2
block 50
 70
     0
 71
     0
 10
0.0
 20
0.0
 30
0.0
  3
block 50
  1

  0
SPLINE
  5
132
330
12E
100
AcDbEntity
  8
Fina
 62
     7
420
 16777215
370
     9
100
AcDbSpline
210
0.0
220
0.0
230
1.0
 70
    11
 71
     3
 72
    23
 73
    19
 74
     0
 42
0.0000000001
 43
0.0000000001
 40
0.0
 40
0.0
 40
0.0
 40
0.0
 40
1.0
 40
1.0
 40
1.0
 40
2.0
 40
2.0
 40
2.0
 40
3.0
 40
3.0
 40
3.0
 40
4.0
 40
4.0
 40
4.0
 40
5.0
 40
5.0
 40
5.0
 40
6.0
 40
6.0
 40
6.0
 40
6.0
 10
78.14101832653543
 20
118.4031868042821
 30
0.0
 10
78.14101832653543
 20
119.2306992857445
 30
0.0
 10
77.46991328328448
 20
119.9018043289954
 30
0.0
 10
76.64222854693419
 20
119.9018043289954
 30
0.0
 10
75.8145438105839
 20
119.9018043289954
 30
0.0
 10
75.14343876733297
 20
119.2306992857445
 30
0.0
 10
75.14343876733297
 20
118.4031868042821
 30
0.0
 10
75.14343876733297
 20
117.5753298130439
 30
0.0
 10
75.8145438105839
 20
116.904224769793
 30
0.0
 10
76.64222854693419
 20
116.904224769793
 30
0.0
 10
77.46991328328448
 20
116.904224769793
 30
0.0
 10
78.14101832653543
 20
117.5753298130439
 30
0.0
 10
78.14101832653543
 20
118.4031868042821
 30
0.0
 10
78.14101832653543
 20
118.4031868042821
 30
0.0
 10
78.14101832653543
 20
118.4031868042821
 30
0.0
 10
78.14101832653543
 20
118.4031868042821
 30
0.0
 10
78.14101832653543
 20
118.4031868042821
 30
0.0
 10
78.14101832653543
 20
118.4031868042821
 30
0.0
 10
78.14101832653543
 20
118.4031868042821
 30
0.0
  0
ENDBLK
  5
131
330
12E
100
AcDbEntity
  8
0
100
AcDbBlockEnd
  0
BLOCK
  5
135
330
133
100
AcDbEntity
  8
0
100
AcDbBlockBegin
  2
block 51
 70
     0
 71
     0
 10
0.0
 20
0.0
 30
0.0
  3
block 51
  1

  0
SPLINE
  5
137
330
133
100
AcDbEntity
  8
Fina
 62
     7
420
 16777215
370
     9
100
AcDbSpline
210
0.0
220
0.0
230
1.0
 70
    11
 71
     3
 72
    23
 73
    19
 74
     0
 42
0.0000000001
 43
0.0000000001
 40
0.0
 40
0.0
 40
0.0
 40
0.0
 40
1.0
 40
1.0
 40
1.0
 40
2.0
 40
2.0
 40
2.0
 40
3.0
 40
3.0
 40
3.0
 40
4.0
 40
4.0
 40
4.0
 40
5.0
 40
5.0
 40
5.0
 40
6.0
 40
6.0
 40
6.0
 40
6.0
 10
78.14101832653543
 20
110.1101474813167
 30
0.0
 10
78.14101832653543
 20
110.9376599627791
 30
0.0
 10
77.46991328328448
 20
111.60876500603
 30
0.0
 10
76.64222854693419
 20
111.60876500603
 30
0.0
 10
75.8145438105839
 20
111.60876500603
 30
0.0
 10
75.14343876733297
 20
110.9376599627791
 30
0.0
 10
75.14343876733297
 20
110.1101474813167
 30
0.0
 10
75.14343876733297
 20
109.2822904900785
 30
0.0
 10
75.8145438105839
 20
108.6115299566034
 30
0.0
 10
76.64222854693419
 20
108.6115299566034
 30
0.0
 10
77.46991328328448
 20
108.6115299566034
 30
0.0
 10
78.14101832653543
 20
109.2822904900785
 30
0.0
 10
78.14101832653543
 20
110.1101474813167
 30
0.0
 10
78.14101832653543
 20
110.1101474813167
 30
0.0
 10
78.14101832653543
 20
110.1101474813167
 30
0.0
 10
78.14101832653543
 20
110.1101474813167
 30
0.0
 10
78.14101832653543
 20
110.1101474813167
 30
0.0
 10
78.14101832653543
 20
110.1101474813167
 30
0.0
 10
78.14101832653543
 20
110.1101474813167
 30
0.0
  0
ENDBLK
  5
136
330
133
100
AcDbEntity
  8
0
100
AcDbBlockEnd
  0
BLOCK
  5
13A
330
138
100
AcDbEntity
  8
0
100
AcDbBlockBegin
  2
block 52
 70
     0
 71
     0
 10
0.0
 20
0.0
 30
0.0
  3
block 52
  1

  0
SPLINE
  5
13C
330
138
100
AcDbEntity
  8
Fina
 62
     7
420
 16777215
370
     9
100
AcDbSpline
210
0.0
220
0.0
230
1.0
 70
    11
 71
     3
 72
    23
 73
    19
 74
     0
 42
0.0000000001
 43
0.0000000001
 40
0.0
 40
0.0
 40
0.0
 40
0.0
 40
1.0
 40
1.0
 40
1.0
 40
2.0
 40
2.0
 40
2.0
 40
3.0
 40
3.0
 40
3.0
 40
4.0
 40
4.0
 40
4.0
 40
5.0
 40
5.0
 40
5.0
 40
6.0
 40
6.0
 40
6.0
 40
6.0
 10
94.85215402108018
 20
100.1186749636762
 30
0.0
 10
94.85215402108018
 20
100.9461874451386
 30
0.0
 10
94.18122123271715
 20
101.6172924883896
 30
0.0
 10
93.35353649636686
 20
101.6172924883896
 30
0.0
 10
92.52585176001656
 20
101.6172924883896
 30
0.0
 10
91.85474671676562
 20
100.9461874451386
 30
0.0
 10
91.85474671676562
 20
100.1186749636762
 30
0.0
 10
91.85474671676562
 20
99.29081797243802
 30
0.0
 10
92.52585176001656
 20
98.61971292918709
 30
0.0
 10
93.35353649636686
 20
98.61971292918709
 30
0.0
 10
94.18122123271715
 20
98.61971292918709
 30
0.0
 10
94.85215402108018
 20
99.29081797243802
 30
0.0
 10
94.85215402108018
 20
100.1186749636762
 30
0.0
 10
94.85215402108018
 20
100.1186749636762
 30
0.0
 10
94.85215402108018
 20
100.1186749636762
 30
0.0
 10
94.85215402108018
 20
100.1186749636762
 30
0.0
 10
94.85215402108018
 20
100.1186749636762
 30
0.0
 10
94.85215402108018
 20
100.1186749636762
 30
0.0
 10
94.85215402108018
 20
100.1186749636762
 30
0.0
  0
ENDBLK
  5
13B
330
138
100
AcDbEntity
  8
0
100
AcDbBlockEnd
  0
BLOCK
  5
13F
330
13D
100
AcDbEntity
  8
0
100
AcDbBlockBegin
  2
block 53
 70
     0
 71
     0
 10
0.0
 20
0.0
 30
0.0
  3
block 53
  1

  0
SPLINE
  5
141
330
13D
100
AcDbEntity
  8
Fina
 62
     7
420
 16777215
370
     9
100
AcDbSpline
210
0.0
220
0.0
230
1.0
 70
    11
 71
     3
 72
    23
 73
    19
 74
     0
 42
0.0000000001
 43
0.0000000001
 40
0.0
 40
0.0
 40
0.0
 40
0.0
 40
1.0
 40
1.0
 40
1.0
 40
2.0
 40
2.0
 40
2.0
 40
3.0
 40
3.0
 40
3.0
 40
4.0
 40
4.0
 40
4.0
 40
5.0
 40
5.0
 40
5.0
 40
6.0
 40
6.0
 40
6.0
 40
6.0
 10
103.1451933440456
 20
100.1186749636762
 30
0.0
 10
103.1451933440456
 20
100.9461874451386
 30
0.0
 10
102.4742605556825
 20
101.6172924883896
 30
0.0
 10
101.6464035644443
 20
101.6172924883896
 30
0.0
 10
100.818718828094
 20
101.6172924883896
 30
0.0
 10
100.147786039731
 20
100.9461874451386
 30
0.0
 10
100.147786039731
 20
100.1186749636762
 30
0.0
 10
100.147786039731
 20
99.29081797243802
 30
0.0
 10
100.818718828094
 20
98.61971292918709
 30
0.0
 10
101.6464035644443
 20
98.61971292918709
 30
0.0
 10
102.4742605556825
 20
98.61971292918709
 30
0.0
 10
103.1451933440456
 20
99.29081797243802
 30
0.0
 10
103.1451933440456
 20
100.1186749636762
 30
0.0
 10
103.1451933440456
 20
100.1186749636762
 30
0.0
 10
103.1451933440456
 20
100.1186749636762
 30
0.0
 10
103.1451933440456
 20
100.1186749636762
 30
0.0
 10
103.1451933440456
 20
100.1186749636762
 30
0.0
 10
103.1451933440456
 20
100.1186749636762
 30
0.0
 10
103.1451933440456
 20
100.1186749636762
 30
0.0
  0
ENDBLK
  5
140
330
13D
100
AcDbEntity
  8
0
100
AcDbBlockEnd
  0
BLOCK
  5
144
330
142
100
AcDbEntity
  8
0
100
AcDbBlockBegin
  2
block 54
 70
     0
 71
     0
 10
0.0
 20
0.0
 30
0.0
  3
block 54
  1

  0
SPLINE
  5
146
330
142
100
AcDbEntity
  8
Fina
 62
     7
420
 16777215
370
     9
100
AcDbSpline
210
0.0
220
0.0
230
1.0
 70
    11
 71
     3
 72
    23
 73
    19
 74
     0
 42
0.0000000001
 43
0.0000000001
 40
0.0
 40
0.0
 40
0.0
 40
0.0
 40
1.0
 40
1.0
 40
1.0
 40
2.0
 40
2.0
 40
2.0
 40
3.0
 40
3.0
 40
3.0
 40
4.0
 40
4.0
 40
4.0
 40
5.0
 40
5.0
 40
5.0
 40
6.0
 40
6.0
 40
6.0
 40
6.0
 10
86.55928695300271
 20
100.1186749636762
 30
0.0
 10
86.55928695300271
 20
100.9461874451386
 30
0.0
 10
85.88818190975178
 20
101.6172924883896
 30
0.0
 10
85.06049717340147
 20
101.6172924883896
 30
0.0
 10
84.23281243705118
 20
101.6172924883896
 30
0.0
 10
83.56170739380025
 20
100.9461874451386
 30
0.0
 10
83.56170739380025
 20
100.1186749636762
 30
0.0
 10
83.56170739380025
 20
99.29081797243802
 30
0.0
 10
84.23281243705118
 20
98.61971292918709
 30
0.0
 10
85.06049717340147
 20
98.61971292918709
 30
0.0
 10
85.88818190975178
 20
98.61971292918709
 30
0.0
 10
86.55928695300271
 20
99.29081797243802
 30
0.0
 10
86.55928695300271
 20
100.1186749636762
 30
0.0
 10
86.55928695300271
 20
100.1186749636762
 30
0.0
 10
86.55928695300271
 20
100.1186749636762
 30
0.0
 10
86.55928695300271
 20
100.1186749636762
 30
0.0
 10
86.55928695300271
 20
100.1186749636762
 30
0.0
 10
86.55928695300271
 20
100.1186749636762
 30
0.0
 10
86.55928695300271
 20
100.1186749636762
 30
0.0
  0
ENDBLK
  5
145
330
142
100
AcDbEntity
  8
0
100
AcDbBlockEnd
  0
BLOCK
  5
149
330
147
100
AcDbEntity
  8
0
100
AcDbBlockBegin
  2
block 55
 70
     0
 71
     0
 10
0.0
 20
0.0
 30
0.0
  3
block 55
  1

  0
SPLINE
  5
14B
330
147
100
AcDbEntity
  8
Fina
 62
     7
420
 16777215
370
     9
100
AcDbSpline
210
0.0
220
0.0
230
1.0
 70
    11
 71
     3
 72
    23
 73
    19
 74
     0
 42
0.0000000001
 43
0.0000000001
 40
0.0
 40
0.0
 40
0.0
 40
0.0
 40
1.0
 40
1.0
 40
1.0
 40
2.0
 40
2.0
 40
2.0
 40
3.0
 40
3.0
 40
3.0
 40
4.0
 40
4.0
 40
4.0
 40
5.0
 40
5.0
 40
5.0
 40
6.0
 40
6.0
 40
6.0
 40
6.0
 10
138.3153350806369
 20
100.1186749636762
 30
0.0
 10
138.3153350806369
 20
100.9461874451386
 30
0.0
 10
137.644230037386
 20
101.6172924883896
 30
0.0
 10
136.8167175559236
 20
101.6172924883896
 30
0.0
 10
135.9888605646854
 20
101.6172924883896
 30
0.0
 10
135.3177555214345
 20
100.9461874451386
 30
0.0
 10
135.3177555214345
 20
100.1186749636762
 30
0.0
 10
135.3177555214345
 20
99.29081797243802
 30
0.0
 10
135.9888605646854
 20
98.61971292918709
 30
0.0
 10
136.8167175559236
 20
98.61971292918709
 30
0.0
 10
137.644230037386
 20
98.61971292918709
 30
0.0
 10
138.3153350806369
 20
99.29081797243802
 30
0.0
 10
138.3153350806369
 20
100.1186749636762
 30
0.0
 10
138.3153350806369
 20
100.1186749636762
 30
0.0
 10
138.3153350806369
 20
100.1186749636762
 30
0.0
 10
138.3153350806369
 20
100.1186749636762
 30
0.0
 10
138.3153350806369
 20
100.1186749636762
 30
0.0
 10
138.3153350806369
 20
100.1186749636762
 30
0.0
 10
138.3153350806369
 20
100.1186749636762
 30
0.0
  0
ENDBLK
  5
14A
330
147
100
AcDbEntity
  8
0
100
AcDbBlockEnd
  0
BLOCK
  5
14E
330
14C
100
AcDbEntity
  8
0
100
AcDbBlockBegin
  2
block 56
 70
     0
 71
     0
 10
0.0
 20
0.0
 30
0.0
  3
block 56
  1

  0
SPLINE
  5
150
330
14C
100
AcDbEntity
  8
Fina
 62
     7
420
 16777215
370
     9
100
AcDbSpline
210
0.0
220
0.0
230
1.0
 70
    11
 71
     3
 72
    23
 73
    19
 74
     0
 42
0.0000000001
 43
0.0000000001
 40
0.0
 40
0.0
 40
0.0
 40
0.0
 40
1.0
 40
1.0
 40
1.0
 40
2.0
 40
2.0
 40
2.0
 40
3.0
 40
3.0
 40
3.0
 40
4.0
 40
4.0
 40
4.0
 40
5.0
 40
5.0
 40
5.0
 40
6.0
 40
6.0
 40
6.0
 40
6.0
 10
146.6083744036023
 20
100.1186749636762
 30
0.0
 10
146.6083744036023
 20
100.9461874451386
 30
0.0
 10
145.9372693603514
 20
101.6172924883896
 30
0.0
 10
145.109756878889
 20
101.6172924883896
 30
0.0
 10
144.2818998876508
 20
101.6172924883896
 30
0.0
 10
143.6107948443999
 20
100.9461874451386
 30
0.0
 10
143.6107948443999
 20
100.1186749636762
 30
0.0
 10
143.6107948443999
 20
99.29081797243802
 30
0.0
 10
144.2818998876508
 20
98.61971292918709
 30
0.0
 10
145.109756878889
 20
98.61971292918709
 30
0.0
 10
145.9372693603514
 20
98.61971292918709
 30
0.0
 10
146.6083744036023
 20
99.29081797243802
 30
0.0
 10
146.6083744036023
 20
100.1186749636762
 30
0.0
 10
146.6083744036023
 20
100.1186749636762
 30
0.0
 10
146.6083744036023
 20
100.1186749636762
 30
0.0
 10
146.6083744036023
 20
100.1186749636762
 30
0.0
 10
146.6083744036023
 20
100.1186749636762
 30
0.0
 10
146.6083744036023
 20
100.1186749636762
 30
0.0
 10
146.6083744036023
 20
100.1186749636762
 30
0.0
  0
ENDBLK
  5
14F
330
14C
100
AcDbEntity
  8
0
100
AcDbBlockEnd
  0
BLOCK
  5
153
330
151
100
AcDbEntity
  8
0
100
AcDbBlockBegin
  2
block 57
 70
     0
 71
     0
 10
0.0
 20
0.0
 30
0.0
  3
block 57
  1

  0
SPLINE
  5
155
330
151
100
AcDbEntity
  8
Fina
 62
     7
420
 16777215
370
     9
100
AcDbSpline
210
0.0
220
0.0
230
1.0
 70
    11
 71
     3
 72
    23
 73
    19
 74
     0
 42
0.0000000001
 43
0.0000000001
 40
0.0
 40
0.0
 40
0.0
 40
0.0
 40
1.0
 40
1.0
 40
1.0
 40
2.0
 40
2.0
 40
2.0
 40
3.0
 40
3.0
 40
3.0
 40
4.0
 40
4.0
 40
4.0
 40
5.0
 40
5.0
 40
5.0
 40
6.0
 40
6.0
 40
6.0
 40
6.0
 10
154.9014137265677
 20
100.1186749636762
 30
0.0
 10
154.9014137265677
 20
100.9461874451386
 30
0.0
 10
154.2303086833168
 20
101.6172924883896
 30
0.0
 10
153.4024516920786
 20
101.6172924883896
 30
0.0
 10
152.5749392106162
 20
101.6172924883896
 30
0.0
 10
151.9038341673652
 20
100.9461874451386
 30
0.0
 10
151.9038341673652
 20
100.1186749636762
 30
0.0
 10
151.9038341673652
 20
99.29081797243802
 30
0.0
 10
152.5749392106162
 20
98.61971292918709
 30
0.0
 10
153.4024516920786
 20
98.61971292918709
 30
0.0
 10
154.2303086833168
 20
98.61971292918709
 30
0.0
 10
154.9014137265677
 20
99.29081797243802
 30
0.0
 10
154.9014137265677
 20
100.1186749636762
 30
0.0
 10
154.9014137265677
 20
100.1186749636762
 30
0.0
 10
154.9014137265677
 20
100.1186749636762
 30
0.0
 10
154.9014137265677
 20
100.1186749636762
 30
0.0
 10
154.9014137265677
 20
100.1186749636762
 30
0.0
 10
154.9014137265677
 20
100.1186749636762
 30
0.0
 10
154.9014137265677
 20
100.1186749636762
 30
0.0
  0
ENDBLK
  5
154
330
151
100
AcDbEntity
  8
0
100
AcDbBlockEnd
  0
BLOCK
  5
158
330
156
100
AcDbEntity
  8
0
100
AcDbBlockBegin
  2
block 58
 70
     0
 71
     0
 10
0.0
 20
0.0
 30
0.0
  3
block 58
  1

  0
SPLINE
  5
15A
330
156
100
AcDbEntity
  8
Fina
 62
     7
420
 16777215
370
     9
100
AcDbSpline
210
0.0
220
0.0
230
1.0
 70
    11
 71
     3
 72
    23
 73
    19
 74
     0
 42
0.0000000001
 43
0.0000000001
 40
0.0
 40
0.0
 40
0.0
 40
0.0
 40
1.0
 40
1.0
 40
1.0
 40
2.0
 40
2.0
 40
2.0
 40
3.0
 40
3.0
 40
3.0
 40
4.0
 40
4.0
 40
4.0
 40
5.0
 40
5.0
 40
5.0
 40
6.0
 40
6.0
 40
6.0
 40
6.0
 10
163.3195100981471
 20
100.1186749636762
 30
0.0
 10
163.3195100981471
 20
100.9461874451386
 30
0.0
 10
162.648749564672
 20
101.6172924883896
 30
0.0
 10
161.8208925734338
 20
101.6172924883896
 30
0.0
 10
160.9930355821956
 20
101.6172924883896
 30
0.0
 10
160.3222750487204
 20
100.9461874451386
 30
0.0
 10
160.3222750487204
 20
100.1186749636762
 30
0.0
 10
160.3222750487204
 20
99.29081797243802
 30
0.0
 10
160.9930355821956
 20
98.61971292918709
 30
0.0
 10
161.8208925734338
 20
98.61971292918709
 30
0.0
 10
162.648749564672
 20
98.61971292918709
 30
0.0
 10
163.3195100981471
 20
99.29081797243802
 30
0.0
 10
163.3195100981471
 20
100.1186749636762
 30
0.0
 10
163.3195100981471
 20
100.1186749636762
 30
0.0
 10
163.3195100981471
 20
100.1186749636762
 30
0.0
 10
163.3195100981471
 20
100.1186749636762
 30
0.0
 10
163.3195100981471
 20
100.1186749636762
 30
0.0
 10
163.3195100981471
 20
100.1186749636762
 30
0.0
 10
163.3195100981471
 20
100.1186749636762
 30
0.0
  0
ENDBLK
  5
159
330
156
100
AcDbEntity
  8
0
100
AcDbBlockEnd
  0
BLOCK
  5
15D
330
15B
100
AcDbEntity
  8
0
100
AcDbBlockBegin
  2
block 59
 70
     0
 71
     0
 10
0.0
 20
0.0
 30
0.0
  3
block 59
  1

  0
SPLINE
  5
15F
330
15B
100
AcDbEntity
  8
Fina
 62
     7
420
 16777215
370
     9
100
AcDbSpline
210
0.0
220
0.0
230
1.0
 70
    11
 71
     3
 72
    23
 73
    19
 74
     0
 42
0.0000000001
 43
0.0000000001
 40
0.0
 40
0.0
 40
0.0
 40
0.0
 40
1.0
 40
1.0
 40
1.0
 40
2.0
 40
2.0
 40
2.0
 40
3.0
 40
3.0
 40
3.0
 40
4.0
 40
4.0
 40
4.0
 40
5.0
 40
5.0
 40
5.0
 40
6.0
 40
6.0
 40
6.0
 40
6.0
 10
78.14101832653543
 20
100.1186749636762
 30
0.0
 10
78.14101832653543
 20
100.9461874451386
 30
0.0
 10
77.46991328328448
 20
101.6172924883896
 30
0.0
 10
76.64222854693419
 20
101.6172924883896
 30
0.0
 10
75.8145438105839
 20
101.6172924883896
 30
0.0
 10
75.14343876733297
 20
100.9461874451386
 30
0.0
 10
75.14343876733297
 20
100.1186749636762
 30
0.0
 10
75.14343876733297
 20
99.29081797243802
 30
0.0
 10
75.8145438105839
 20
98.61971292918709
 30
0.0
 10
76.64222854693419
 20
98.61971292918709
 30
0.0
 10
77.46991328328448
 20
98.61971292918709
 30
0.0
 10
78.14101832653543
 20
99.29081797243802
 30
0.0
 10
78.14101832653543
 20
100.1186749636762
 30
0.0
 10
78.14101832653543
 20
100.1186749636762
 30
0.0
 10
78.14101832653543
 20
100.1186749636762
 30
0.0
 10
78.14101832653543
 20
100.1186749636762
 30
0.0
 10
78.14101832653543
 20
100.1186749636762
 30
0.0
 10
78.14101832653543
 20
100.1186749636762
 30
0.0
 10
78.14101832653543
 20
100.1186749636762
 30
0.0
  0
ENDBLK
  5
15E
330
15B
100
AcDbEntity
  8
0
100
AcDbBlockEnd
  0
BLOCK
  5
162
330
160
100
AcDbEntity
  8
0
100
AcDbBlockBegin
  2
block 60
 70
     0
 71
     0
 10
0.0
 20
0.0
 30
0.0
  3
block 60
  1

  0
POLYLINE
  5
164
330
160
100
AcDbEntity
  8
Fina
 62
     7
420
 16777215
370
     9
100
AcDb2dPolyline
 66
     1
 10
0.0
 20
0.0
 30
0.0
  0
VERTEX
  5
165
330
164
100
AcDbEntity
  8
Fina
 62
     7
420
 16777215
370
     9
100
AcDbVertex
100
AcDb2dVertex
 10
64.77765637828993
 20
85.5807069348537
 30
0.0
  0
VERTEX
  5
166
330
164
100
AcDbEntity
  8
Fina
 62
     7
420
 16777215
370
     9
100
AcDbVertex
100
AcDb2dVertex
 10
173.685464742078
 20
85.5807069348537
 30
0.0
  0
SEQEND
  5
167
330
164
100
AcDbEntity
  8
Fina
370
     9
  0
ENDBLK
  5
163
330
160
100
AcDbEntity
  8
0
100
AcDbBlockEnd
  0
BLOCK
  5
16A
330
168
100
AcDbEntity
  8
0
100
AcDbBlockBegin
  2
block 61
 70
     0
 71
     0
 10
0.0
 20
0.0
 30
0.0
  3
block 61
  1

  0
SPLINE
  5
16C
330
168
100
AcDbEntity
  8
Fina
 62
     7
420
 16777215
370
     9
100
AcDbSpline
210
0.0
220
0.0
230
1.0
 70
     8
 71
     3
 72
    14
 73
    10
 74
     0
 42
0.0000000001
 43
0.0000000001
 40
0.0
 40
0.0
 40
0.0
 40
0.0
 40
1.0
 40
1.0
 40
1.0
 40
2.0
 40
2.0
 40
2.0
 40
3.0
 40
3.0
 40
3.0
 40
3.0
 10
119.231560560184
 20
93.97365409279996
 30
0.0
 10
121.7699085882501
 20
93.97365409279996
 30
0.0
 10
123.8276654790807
 20
96.03141098363048
 30
0.0
 10
123.8276654790807
 20
98.56975901169665
 30
0.0
 10
123.8276654790807
 20
101.1081070397628
 30
0.0
 10
121.7699085882501
 20
103.1658639305933
 30
0.0
 10
119.231560560184
 20
103.1658639305933
 30
0.0
 10
119.231560560184
 20
103.1658639305933
 30
0.0
 10
119.231560560184
 20
103.1658639305933
 30
0.0
 10
119.231560560184
 20
103.1658639305933
 30
0.0
  0
ENDBLK
  5
16B
330
168
100
AcDbEntity
  8
0
100
AcDbBlockEnd
  0
BLOCK
  5
16F
330
16D
100
AcDbEntity
  8
0
100
AcDbBlockBegin
  2
block 62
 70
     0
 71
     0
 10
0.0
 20
0.0
 30
0.0
  3
block 62
  1

  0
SPLINE
  5
171
330
16D
100
AcDbEntity
  8
Fina
 62
     7
420
 16777215
370
     9
100
AcDbSpline
210
0.0
220
0.0
230
1.0
 70
     8
 71
     3
 72
    14
 73
    10
 74
     0
 42
0.0000000001
 43
0.0000000001
 40
0.0
 40
0.0
 40
0.0
 40
0.0
 40
1.0
 40
1.0
 40
1.0
 40
2.0
 40
2.0
 40
2.0
 40
3.0
 40
3.0
 40
3.0
 40
3.0
 10
119.231560560184
 20
103.1658639305933
 30
0.0
 10
116.6932125321178
 20
103.1658639305933
 30
0.0
 10
114.6354556412873
 20
101.1081070397628
 30
0.0
 10
114.6354556412873
 20
98.56975901169665
 30
0.0
 10
114.6354556412873
 20
96.03141098363048
 30
0.0
 10
116.6932125321178
 20
93.97365409279996
 30
0.0
 10
119.231560560184
 20
93.97365409279996
 30
0.0
 10
119.231560560184
 20
93.97365409279996
 30
0.0
 10
119.231560560184
 20
93.97365409279996
 30
0.0
 10
119.231560560184
 20
93.97365409279996
 30
0.0
  0
ENDBLK
  5
170
330
16D
100
AcDbEntity
  8
0
100
AcDbBlockEnd
  0
BLOCK
  5
174
330
172
100
AcDbEntity
  8
0
100
AcDbBlockBegin
  2
block 63
 70
     0
 71
     0
 10
0.0
 20
0.0
 30
0.0
  3
block 63
  1

  0
POLYLINE
  5
176
330
172
100
AcDbEntity
  8
Fina
 62
     7
420
 16777215
370
     9
100
AcDb2dPolyline
 66
     1
 10
0.0
 20
0.0
 30
0.0
  0
VERTEX
  5
177
330
176
100
AcDbEntity
  8
Fina
 62
     7
420
 16777215
370
     9
100
AcDbVertex
100
AcDb2dVertex
 10
60.98098639412826
 20
158.3192952122415
 30
0.0
  0
VERTEX
  5
178
330
176
100
AcDbEntity
  8
Fina
 62
     7
420
 16777215
370
     9
100
AcDbVertex
100
AcDb2dVertex
 10
68.27477511239684
 20
151.0255064939729
 30
0.0
  0
SEQEND
  5
179
330
176
100
AcDbEntity
  8
Fina
370
     9
  0
ENDBLK
  5
175
330
172
100
AcDbEntity
  8
0
100
AcDbBlockEnd
  0
BLOCK
  5
17C
330
17A
100
AcDbEntity
  8
0
100
AcDbBlockBegin
  2
block 64
 70
     0
 71
     0
 10
0.0
 20
0.0
 30
0.0
  3
block 64
  1

  0
POLYLINE
  5
17E
330
17A
100
AcDbEntity
  8
Fina
 62
     7
420
 16777215
370
     9
100
AcDb2dPolyline
 66
     1
 10
0.0
 20
0.0
 30
0.0
  0
VERTEX
  5
17F
330
17E
100
AcDbEntity
  8
Fina
 62
     7
420
 16777215
370
     9
100
AcDbVertex
100
AcDb2dVertex
 10
170.1883460079711
 20
151.0255064939729
 30
0.0
  0
VERTEX
  5
180
330
17E
100
AcDbEntity
  8
Fina
 62
     7
420
 16777215
370
     9
100
AcDbVertex
100
AcDb2dVertex
 10
177.4823069811276
 20
158.3192952122415
 30
0.0
  0
SEQEND
  5
181
330
17E
100
AcDbEntity
  8
Fina
370
     9
  0
ENDBLK
  5
17D
330
17A
100
AcDbEntity
  8
0
100
AcDbBlockEnd
  0
BLOCK
  5
185
330
183
100
AcDbEntity
  8
0
100
AcDbBlockBegin
  2
block 65
 70
     0
 71
     0
 10
0.0
 20
0.0
 30
0.0
  3
block 65
  1

  0
POLYLINE
  5
187
330
183
100
AcDbEntity
  8
SOMBREA
370
     0
100
AcDb2dPolyline
 66
     1
 10
0.0
 20
0.0
 30
0.0
  0
VERTEX
  5
188
330
187
100
AcDbEntity
  8
SOMBREA
370
     0
100
AcDbVertex
100
AcDb2dVertex
 10
67.98418111651277
 20
193.6804676195119
 30
0.0
  0
VERTEX
  5
189
330
187
100
AcDbEntity
  8
SOMBREA
370
     0
100
AcDbVertex
100
AcDb2dVertex
 10
67.82415632565545
 20
194.1791455199768
 30
0.0
  0
VERTEX
  5
18A
330
187
100
AcDbEntity
  8
SOMBREA
370
     0
100
AcDbVertex
100
AcDb2dVertex
 10
66.73378288526058
 20
194.1791455199768
 30
0.0
  0
VERTEX
  5
18B
330
187
100
AcDbEntity
  8
SOMBREA
370
     0
100
AcDbVertex
100
AcDb2dVertex
 10
67.13823736204529
 20
192.5954340806418
 30
0.0
  0
VERTEX
  5
18C
330
187
100
AcDbEntity
  8
SOMBREA
370
     0
100
AcDbVertex
100
AcDb2dVertex
 10
66.83868611199051
 20
192.2862365568648
 30
0.0
  0
VERTEX
  5
18D
330
187
100
AcDbEntity
  8
SOMBREA
370
     0
100
AcDbVertex
100
AcDb2dVertex
 10
66.38789507036122
 20
192.2862365568648
 30
0.0
  0
VERTEX
  5
18E
330
187
100
AcDbEntity
  8
SOMBREA
370
     0
100
AcDbVertex
100
AcDb2dVertex
 10
65.41465495373706
 20
192.1475713721068
 30
0.0
  0
VERTEX
  5
18F
330
187
100
AcDbEntity
  8
SOMBREA
370
     0
100
AcDbVertex
100
AcDb2dVertex
 10
65.41465495373706
 20
191.1074963589782
 30
0.0
  0
VERTEX
  5
190
330
187
100
AcDbEntity
  8
SOMBREA
370
     0
100
AcDbVertex
100
AcDb2dVertex
 10
66.42355183215614
 20
191.3045559507336
 30
0.0
  0
VERTEX
  5
191
330
187
100
AcDbEntity
  8
SOMBREA
370
     0
100
AcDbVertex
100
AcDb2dVertex
 10
71.36657809527956
 20
191.2334146820317
 30
0.0
  0
VERTEX
  5
192
330
187
100
AcDbEntity
  8
SOMBREA
370
     0
100
AcDbVertex
100
AcDb2dVertex
 10
71.36657809527956
 20
192.5330778112227
 30
0.0
  0
VERTEX
  5
193
330
187
100
AcDbEntity
  8
SOMBREA
370
     0
100
AcDbVertex
100
AcDb2dVertex
 10
69.41320766651529
 20
192.5602940835106
 30
0.0
  0
VERTEX
  5
194
330
187
100
AcDbEntity
  8
SOMBREA
370
     0
100
AcDbVertex
100
AcDb2dVertex
 10
67.98418111651277
 20
193.6804676195119
 30
0.0
  0
SEQEND
  5
195
330
187
100
AcDbEntity
  8
SOMBREA
370
     0
  0
HATCH
  5
196
330
183
100
AcDbEntity
  8
SOMBREA
 62
     7
420
 16777215
100
AcDbHatch
 10
0.0
 20
0.0
 30
0.0
210
0.0
220
0.0
230
1.0
  2
SOLID
 70
     1
 71
     0
 91
        1
 92
        1
 93
       12
 72
     1
 10
67.98418111651277
 20
193.6804676195119
 11
67.82415632565545
 21
194.1791455199768
 72
     1
 10
67.82415632565545
 20
194.1791455199768
 11
66.73378288526058
 21
194.1791455199768
 72
     1
 10
66.73378288526058
 20
194.1791455199768
 11
67.13823736204529
 21
192.5954340806418
 72
     1
 10
67.13823736204529
 20
192.5954340806418
 11
66.83868611199051
 21
192.2862365568648
 72
     1
 10
66.83868611199051
 20
192.2862365568648
 11
66.38789507036122
 21
192.2862365568648
 72
     1
 10
66.38789507036122
 20
192.2862365568648
 11
65.41465495373706
 21
192.1475713721068
 72
     1
 10
65.41465495373706
 20
192.1475713721068
 11
65.41465495373706
 21
191.1074963589782
 72
     1
 10
65.41465495373706
 20
191.1074963589782
 11
66.42355183215614
 21
191.3045559507336
 72
     1
 10
66.42355183215614
 20
191.3045559507336
 11
71.36657809527956
 21
191.2334146820317
 72
     1
 10
71.36657809527956
 20
191.2334146820317
 11
71.36657809527956
 21
192.5330778112227
 72
     1
 10
71.36657809527956
 20
192.5330778112227
 11
69.41320766651529
 21
192.5602940835106
 72
     1
 10
69.41320766651529
 20
192.5602940835106
 11
67.98418111651277
 21
193.6804676195119
 97
        0
 75
     0
 76
     1
 98
        0
  0
ENDBLK
  5
186
330
183
100
AcDbEntity
  8
0
100
AcDbBlockEnd
  0
BLOCK
  5
199
330
197
100
AcDbEntity
  8
0
100
AcDbBlockBegin
  2
block 66
 70
     0
 71
     0
 10
0.0
 20
0.0
 30
0.0
  3
block 66
  1

  0
POLYLINE
  5
19B
330
197
100
AcDbEntity
  8
SOMBREA
370
     0
100
AcDb2dPolyline
 66
     1
 10
0.0
 20
0.0
 30
0.0
  0
VERTEX
  5
19C
330
19B
100
AcDbEntity
  8
SOMBREA
370
     0
100
AcDbVertex
100
AcDb2dVertex
 10
60.30368017491299
 20
197.6869440571334
 30
0.0
  0
VERTEX
  5
19D
330
19B
100
AcDbEntity
  8
SOMBREA
370
     0
100
AcDbVertex
100
AcDb2dVertex
 10
64.6462258988237
 20
197.0847409690417
 30
0.0
  0
VERTEX
  5
19E
330
19B
100
AcDbEntity
  8
SOMBREA
370
     0
100
AcDbVertex
100
AcDb2dVertex
 10
67.82415632565545
 20
194.1791455199768
 30
0.0
  0
VERTEX
  5
19F
330
19B
100
AcDbEntity
  8
SOMBREA
370
     0
100
AcDbVertex
100
AcDb2dVertex
 10
66.73378288526058
 20
194.1791455199768
 30
0.0
  0
VERTEX
  5
1A0
330
19B
100
AcDbEntity
  8
SOMBREA
370
     0
100
AcDbVertex
100
AcDb2dVertex
 10
64.37492445038421
 20
196.1237309494583
 30
0.0
  0
VERTEX
  5
1A1
330
19B
100
AcDbEntity
  8
SOMBREA
370
     0
100
AcDbVertex
100
AcDb2dVertex
 10
60.80821474156647
 20
196.6789084531538
 30
0.0
  0
VERTEX
  5
1A2
330
19B
100
AcDbEntity
  8
SOMBREA
370
     0
100
AcDbVertex
100
AcDb2dVertex
 10
60.39497526549897
 20
196.2866840734099
 30
0.0
  0
VERTEX
  5
1A3
330
19B
100
AcDbEntity
  8
SOMBREA
370
     0
100
AcDbVertex
100
AcDb2dVertex
 10
60.35845722926458
 20
194.1791455199768
 30
0.0
  0
VERTEX
  5
1A4
330
19B
100
AcDbEntity
  8
SOMBREA
370
     0
100
AcDbVertex
100
AcDb2dVertex
 10
59.3586898599041
 20
194.1791455199768
 30
0.0
  0
VERTEX
  5
1A5
330
19B
100
AcDbEntity
  8
SOMBREA
370
     0
100
AcDbVertex
100
AcDb2dVertex
 10
59.40468191497288
 20
196.7872567776417
 30
0.0
  0
VERTEX
  5
1A6
330
19B
100
AcDbEntity
  8
SOMBREA
370
     0
100
AcDbVertex
100
AcDb2dVertex
 10
60.30368017491299
 20
197.6869440571334
 30
0.0
  0
SEQEND
  5
1A7
330
19B
100
AcDbEntity
  8
SOMBREA
370
     0
  0
HATCH
  5
1A8
330
197
100
AcDbEntity
  8
SOMBREA
 62
     7
420
 16777215
100
AcDbHatch
 10
0.0
 20
0.0
 30
0.0
210
0.0
220
0.0
230
1.0
  2
SOLID
 70
     1
 71
     0
 91
        1
 92
        1
 93
       10
 72
     1
 10
60.30368017491299
 20
197.6869440571334
 11
64.6462258988237
 21
197.0847409690417
 72
     1
 10
64.6462258988237
 20
197.0847409690417
 11
67.82415632565545
 21
194.1791455199768
 72
     1
 10
67.82415632565545
 20
194.1791455199768
 11
66.73378288526058
 21
194.1791455199768
 72
     1
 10
66.73378288526058
 20
194.1791455199768
 11
64.37492445038421
 21
196.1237309494583
 72
     1
 10
64.37492445038421
 20
196.1237309494583
 11
60.80821474156647
 21
196.6789084531538
 72
     1
 10
60.80821474156647
 20
196.6789084531538
 11
60.39497526549897
 21
196.2866840734099
 72
     1
 10
60.39497526549897
 20
196.2866840734099
 11
60.35845722926458
 21
194.1791455199768
 72
     1
 10
60.35845722926458
 20
194.1791455199768
 11
59.3586898599041
 21
194.1791455199768
 72
     1
 10
59.3586898599041
 20
194.1791455199768
 11
59.40468191497288
 21
196.7872567776417
 72
     1
 10
59.40468191497288
 20
196.7872567776417
 11
60.30368017491299
 21
197.6869440571334
 97
        0
 75
     0
 76
     1
 98
        0
  0
ENDBLK
  5
19A
330
197
100
AcDbEntity
  8
0
100
AcDbBlockEnd
  0
BLOCK
  5
1AB
330
1A9
100
AcDbEntity
  8
0
100
AcDbBlockBegin
  2
block 67
 70
     0
 71
     0
 10
0.0
 20
0.0
 30
0.0
  3
block 67
  1

  0
POLYLINE
  5
1AD
330
1A9
100
AcDbEntity
  8
SOMBREA
370
     0
100
AcDb2dPolyline
 66
     1
 10
0.0
 20
0.0
 30
0.0
  0
VERTEX
  5
1AE
330
1AD
100
AcDbEntity
  8
SOMBREA
370
     0
100
AcDbVertex
100
AcDb2dVertex
 10
65.41465495373706
 20
192.1475713721068
 30
0.0
  0
VERTEX
  5
1AF
330
1AD
100
AcDbEntity
  8
SOMBREA
370
     0
100
AcDbVertex
100
AcDb2dVertex
 10
65.41465495373706
 20
191.1074963589782
 30
0.0
  0
VERTEX
  5
1B0
330
1AD
100
AcDbEntity
  8
SOMBREA
370
     0
100
AcDbVertex
100
AcDb2dVertex
 10
64.02025163620206
 20
189.6028499131884
 30
0.0
  0
VERTEX
  5
1B1
330
1AD
100
AcDbEntity
  8
SOMBREA
370
     0
100
AcDbVertex
100
AcDb2dVertex
 10
63.45198276102628
 20
189.1951225935336
 30
0.0
  0
VERTEX
  5
1B2
330
1AD
100
AcDbEntity
  8
SOMBREA
370
     0
100
AcDbVertex
100
AcDb2dVertex
 10
59.88165569956268
 20
189.1951225935336
 30
0.0
  0
VERTEX
  5
1B3
330
1AD
100
AcDbEntity
  8
SOMBREA
370
     0
100
AcDbVertex
100
AcDb2dVertex
 10
59.28255319945314
 20
189.8145511704151
 30
0.0
  0
VERTEX
  5
1B4
330
1AD
100
AcDbEntity
  8
SOMBREA
370
     0
100
AcDbVertex
100
AcDb2dVertex
 10
59.3586898599041
 20
194.1791455199768
 30
0.0
  0
VERTEX
  5
1B5
330
1AD
100
AcDbEntity
  8
SOMBREA
370
     0
100
AcDbVertex
100
AcDb2dVertex
 10
60.35845722926458
 20
194.1791455199768
 30
0.0
  0
VERTEX
  5
1B6
330
1AD
100
AcDbEntity
  8
SOMBREA
370
     0
100
AcDbVertex
100
AcDb2dVertex
 10
60.30075184181872
 20
190.8811534362801
 30
0.0
  0
VERTEX
  5
1B7
330
1AD
100
AcDbEntity
  8
SOMBREA
370
     0
100
AcDbVertex
100
AcDb2dVertex
 10
60.60030309187349
 20
190.5757455200368
 30
0.0
  0
VERTEX
  5
1B8
330
1AD
100
AcDbEntity
  8
SOMBREA
370
     0
100
AcDbVertex
100
AcDb2dVertex
 10
63.2251230736645
 20
190.5757455200368
 30
0.0
  0
VERTEX
  5
1B9
330
1AD
100
AcDbEntity
  8
SOMBREA
370
     0
100
AcDbVertex
100
AcDb2dVertex
 10
63.47592619044411
 20
190.7113101168126
 30
0.0
  0
VERTEX
  5
1BA
330
1AD
100
AcDbEntity
  8
SOMBREA
370
     0
100
AcDbVertex
100
AcDb2dVertex
 10
65.41465495373706
 20
192.1475713721068
 30
0.0
  0
SEQEND
  5
1BB
330
1AD
100
AcDbEntity
  8
SOMBREA
370
     0
  0
HATCH
  5
1BC
330
1A9
100
AcDbEntity
  8
SOMBREA
 62
     7
420
 16777215
100
AcDbHatch
 10
0.0
 20
0.0
 30
0.0
210
0.0
220
0.0
230
1.0
  2
SOLID
 70
     1
 71
     0
 91
        1
 92
        1
 93
       12
 72
     1
 10
65.41465495373706
 20
192.1475713721068
 11
65.41465495373706
 21
191.1074963589782
 72
     1
 10
65.41465495373706
 20
191.1074963589782
 11
64.02025163620206
 21
189.6028499131884
 72
     1
 10
64.02025163620206
 20
189.6028499131884
 11
63.45198276102628
 21
189.1951225935336
 72
     1
 10
63.45198276102628
 20
189.1951225935336
 11
59.88165569956268
 21
189.1951225935336
 72
     1
 10
59.88165569956268
 20
189.1951225935336
 11
59.28255319945314
 21
189.8145511704151
 72
     1
 10
59.28255319945314
 20
189.8145511704151
 11
59.3586898599041
 21
194.1791455199768
 72
     1
 10
59.3586898599041
 20
194.1791455199768
 11
60.35845722926458
 21
194.1791455199768
 72
     1
 10
60.35845722926458
 20
194.1791455199768
 11
60.30075184181872
 21
190.8811534362801
 72
     1
 10
60.30075184181872
 20
190.8811534362801
 11
60.60030309187349
 21
190.5757455200368
 72
     1
 10
60.60030309187349
 20
190.5757455200368
 11
63.2251230736645
 21
190.5757455200368
 72
     1
 10
63.2251230736645
 20
190.5757455200368
 11
63.47592619044411
 21
190.7113101168126
 72
     1
 10
63.47592619044411
 20
190.7113101168126
 11
65.41465495373706
 21
192.1475713721068
 97
        0
 75
     0
 76
     1
 98
        0
  0
ENDBLK
  5
1AC
330
1A9
100
AcDbEntity
  8
0
100
AcDbBlockEnd
  0
BLOCK
  5
1BF
330
1BD
100
AcDbEntity
  8
0
100
AcDbBlockBegin
  2
block 68
 70
     0
 71
     0
 10
0.0
 20
0.0
 30
0.0
  3
block 68
  1

  0
SPLINE
  5
1C1
330
1BD
100
AcDbEntity
  8
SOMBREA
370
     0
100
AcDbSpline
210
0.0
220
0.0
230
1.0
 70
    11
 71
     3
 72
    71
 73
    67
 74
     0
 42
0.0000000001
 43
0.0000000001
 40
0.0
 40
0.0
 40
0.0
 40
0.0
 40
1.0
 40
1.0
 40
1.0
 40
2.0
 40
2.0
 40
2.0
 40
3.0
 40
3.0
 40
3.0
 40
4.0
 40
4.0
 40
4.0
 40
5.0
 40
5.0
 40
5.0
 40
6.0
 40
6.0
 40
6.0
 40
7.0
 40
7.0
 40
7.0
 40
8.0
 40
8.0
 40
8.0
 40
9.0
 40
9.0
 40
9.0
 40
10.0
 40
10.0
 40
10.0
 40
11.0
 40
11.0
 40
11.0
 40
12.0
 40
12.0
 40
12.0
 40
13.0
 40
13.0
 40
13.0
 40
14.0
 40
14.0
 40
14.0
 40
15.0
 40
15.0
 40
15.0
 40
16.0
 40
16.0
 40
16.0
 40
17.0
 40
17.0
 40
17.0
 40
18.0
 40
18.0
 40
18.0
 40
19.0
 40
19.0
 40
19.0
 40
20.0
 40
20.0
 40
20.0
 40
21.0
 40
21.0
 40
21.0
 40
22.0
 40
22.0
 40
22.0
 40
22.0
 10
114.0315300043166
 20
192.0705734372164
 30
0.0
 10
114.0315300043166
 20
192.0705734372164
 30
0.0
 10
71.36657809527956
 20
192.5330778112227
 30
0.0
 10
71.36657809527956
 20
192.5330778112227
 30
0.0
 10
71.36657809527956
 20
192.5330778112227
 30
0.0
 10
71.36657809527956
 20
192.5330778112227
 30
0.0
 10
71.36657809527956
 20
192.5330778112227
 30
0.0
 10
71.36657809527956
 20
192.5330778112227
 30
0.0
 10
71.36657809527956
 20
191.2334146820317
 30
0.0
 10
71.36657809527956
 20
191.2334146820317
 30
0.0
 10
71.36657809527956
 20
191.2334146820317
 30
0.0
 10
71.36657809527956
 20
191.2334146820317
 30
0.0
 10
71.36657809527956
 20
191.2334146820317
 30
0.0
 10
71.36657809527956
 20
191.2334146820317
 30
0.0
 10
113.9981125560644
 20
190.7659149162763
 30
0.0
 10
113.9981125560644
 20
190.7659149162763
 30
0.0
 10
113.9981125560644
 20
190.7659149162763
 30
0.0
 10
113.9981125560644
 20
190.7659149162763
 30
0.0
 10
113.9981125560644
 20
190.7659149162763
 30
0.0
 10
114.0628803939141
 20
190.7738386411196
 30
0.0
 10
114.1417731325714
 20
190.7337032522393
 30
0.0
 10
114.174501561272
 20
190.6772036490088
 30
0.0
 10
114.174501561272
 20
190.6772036490088
 30
0.0
 10
114.174501561272
 20
190.6772036490088
 30
0.0
 10
114.174501561272
 20
190.6772036490088
 30
0.0
 10
114.174501561272
 20
190.6772036490088
 30
0.0
 10
114.7801497471217
 20
189.7327300986636
 30
0.0
 10
114.7801497471217
 20
189.7327300986636
 30
0.0
 10
114.7801497471217
 20
189.7327300986636
 30
0.0
 10
114.7801497471217
 20
189.7327300986636
 30
0.0
 10
114.7801497471217
 20
189.7327300986636
 30
0.0
 10
114.7801497471217
 20
189.7327300986636
 30
0.0
 10
114.7801497471217
 20
189.1951225935336
 30
0.0
 10
114.7801497471217
 20
189.1951225935336
 30
0.0
 10
114.7801497471217
 20
189.1951225935336
 30
0.0
 10
114.7801497471217
 20
189.1951225935336
 30
0.0
 10
114.7801497471217
 20
189.1951225935336
 30
0.0
 10
114.7801497471217
 20
189.1951225935336
 30
0.0
 10
116.0841192485102
 20
189.1951225935336
 30
0.0
 10
116.0841192485102
 20
189.1951225935336
 30
0.0
 10
116.0841192485102
 20
189.1951225935336
 30
0.0
 10
116.0841192485102
 20
189.1951225935336
 30
0.0
 10
116.0841192485102
 20
189.1951225935336
 30
0.0
 10
116.0841192485102
 20
189.1951225935336
 30
0.0
 10
116.0841192485102
 20
189.9687192950839
 30
0.0
 10
116.0841192485102
 20
189.9687192950839
 30
0.0
 10
116.0841192485102
 20
189.9687192950839
 30
0.0
 10
116.0841192485102
 20
189.9687192950839
 30
0.0
 10
116.0841192485102
 20
189.9687192950839
 30
0.0
 10
116.0889423853713
 20
190.0488178179565
 30
0.0
 10
116.0524243491369
 20
190.1737026116826
 30
0.0
 10
116.0052265098528
 20
190.2381259397565
 30
0.0
 10
116.0052265098528
 20
190.2381259397565
 30
0.0
 10
116.0052265098528
 20
190.2381259397565
 30
0.0
 10
116.0052265098528
 20
190.2381259397565
 30
0.0
 10
116.0052265098528
 20
190.2381259397565
 30
0.0
 10
115.2724542167344
 20
191.3806926111845
 30
0.0
 10
115.2724542167344
 20
191.3806926111845
 30
0.0
 10
115.2724542167344
 20
191.3806926111845
 30
0.0
 10
115.2724542167344
 20
191.3806926111845
 30
0.0
 10
115.2724542167344
 20
191.3806926111845
 30
0.0
 10
115.0454222744847
 20
191.7798071864444
 30
0.0
 10
114.4897280061255
 20
192.088143435782
 30
0.0
 10
114.0315300043166
 20
192.0705734372164
 30
0.0
 10
114.0315300043166
 20
192.0705734372164
 30
0.0
 10
114.0315300043166
 20
192.0705734372164
 30
0.0
 10
114.0315300043166
 20
192.0705734372164
 30
0.0
  0
SPLINE
  5
1C2
330
1BD
100
AcDbEntity
  8
SOMBREA
370
     0
100
AcDbSpline
210
0.0
220
0.0
230
1.0
 70
    11
 71
     3
 72
    71
 73
    67
 74
     0
 42
0.0000000001
 43
0.0000000001
 40
0.0
 40
0.0
 40
0.0
 40
0.0
 40
1.0
 40
1.0
 40
1.0
 40
2.0
 40
2.0
 40
2.0
 40
3.0
 40
3.0
 40
3.0
 40
4.0
 40
4.0
 40
4.0
 40
5.0
 40
5.0
 40
5.0
 40
6.0
 40
6.0
 40
6.0
 40
7.0
 40
7.0
 40
7.0
 40
8.0
 40
8.0
 40
8.0
 40
9.0
 40
9.0
 40
9.0
 40
10.0
 40
10.0
 40
10.0
 40
11.0
 40
11.0
 40
11.0
 40
12.0
 40
12.0
 40
12.0
 40
13.0
 40
13.0
 40
13.0
 40
14.0
 40
14.0
 40
14.0
 40
15.0
 40
15.0
 40
15.0
 40
16.0
 40
16.0
 40
16.0
 40
17.0
 40
17.0
 40
17.0
 40
18.0
 40
18.0
 40
18.0
 40
19.0
 40
19.0
 40
19.0
 40
20.0
 40
20.0
 40
20.0
 40
21.0
 40
21.0
 40
21.0
 40
22.0
 40
22.0
 40
22.0
 40
22.0
 10
167.0967152799763
 20
192.5330778112227
 30
0.0
 10
167.0967152799763
 20
192.5330778112227
 30
0.0
 10
124.4315911160514
 20
192.0705734372164
 30
0.0
 10
124.4315911160514
 20
192.0705734372164
 30
0.0
 10
124.4315911160514
 20
192.0705734372164
 30
0.0
 10
124.4315911160514
 20
192.0705734372164
 30
0.0
 10
124.4315911160514
 20
192.0705734372164
 30
0.0
 10
123.9733931142424
 20
192.088143435782
 30
0.0
 10
123.4176988458832
 20
191.7798071864444
 30
0.0
 10
123.1910114134093
 20
191.3806926111845
 30
0.0
 10
123.1910114134093
 20
191.3806926111845
 30
0.0
 10
123.1910114134093
 20
191.3806926111845
 30
0.0
 10
123.1910114134093
 20
191.3806926111845
 30
0.0
 10
123.1910114134093
 20
191.3806926111845
 30
0.0
 10
122.4582391202909
 20
190.2381259397565
 30
0.0
 10
122.4582391202909
 20
190.2381259397565
 30
0.0
 10
122.4582391202909
 20
190.2381259397565
 30
0.0
 10
122.4582391202909
 20
190.2381259397565
 30
0.0
 10
122.4582391202909
 20
190.2381259397565
 30
0.0
 10
122.410696771231
 20
190.1737026116826
 30
0.0
 10
122.3741787349966
 20
190.0488178179565
 30
0.0
 10
122.3790018718578
 20
189.9687192950839
 30
0.0
 10
122.3790018718578
 20
189.9687192950839
 30
0.0
 10
122.3790018718578
 20
189.9687192950839
 30
0.0
 10
122.3790018718578
 20
189.9687192950839
 30
0.0
 10
122.3790018718578
 20
189.9687192950839
 30
0.0
 10
122.3790018718578
 20
189.1951225935336
 30
0.0
 10
122.3790018718578
 20
189.1951225935336
 30
0.0
 10
122.3790018718578
 20
189.1951225935336
 30
0.0
 10
122.3790018718578
 20
189.1951225935336
 30
0.0
 10
122.3790018718578
 20
189.1951225935336
 30
0.0
 10
122.3790018718578
 20
189.1951225935336
 30
0.0
 10
123.6829713732463
 20
189.1951225935336
 30
0.0
 10
123.6829713732463
 20
189.1951225935336
 30
0.0
 10
123.6829713732463
 20
189.1951225935336
 30
0.0
 10
123.6829713732463
 20
189.1951225935336
 30
0.0
 10
123.6829713732463
 20
189.1951225935336
 30
0.0
 10
123.6829713732463
 20
189.1951225935336
 30
0.0
 10
123.6829713732463
 20
189.7327300986636
 30
0.0
 10
123.6829713732463
 20
189.7327300986636
 30
0.0
 10
123.6829713732463
 20
189.7327300986636
 30
0.0
 10
123.6829713732463
 20
189.7327300986636
 30
0.0
 10
123.6829713732463
 20
189.7327300986636
 30
0.0
 10
123.6829713732463
 20
189.7327300986636
 30
0.0
 10
124.2886195590959
 20
190.6772036490088
 30
0.0
 10
124.2886195590959
 20
190.6772036490088
 30
0.0
 10
124.2886195590959
 20
190.6772036490088
 30
0.0
 10
124.2886195590959
 20
190.6772036490088
 30
0.0
 10
124.2886195590959
 20
190.6772036490088
 30
0.0
 10
124.315491321608
 20
190.724056978517
 30
0.0
 10
124.3809481790093
 20
190.7640201125094
 30
0.0
 10
124.4343471942577
 20
190.7659149162763
 30
0.0
 10
124.4343471942577
 20
190.7659149162763
 30
0.0
 10
124.4343471942577
 20
190.7659149162763
 30
0.0
 10
124.4343471942577
 20
190.7659149162763
 30
0.0
 10
124.4343471942577
 20
190.7659149162763
 30
0.0
 10
167.0967152799763
 20
191.2334146820317
 30
0.0
 10
167.0967152799763
 20
191.2334146820317
 30
0.0
 10
167.0967152799763
 20
191.2334146820317
 30
0.0
 10
167.0967152799763
 20
191.2334146820317
 30
0.0
 10
167.0967152799763
 20
191.2334146820317
 30
0.0
 10
167.0967152799763
 20
191.2334146820317
 30
0.0
 10
167.0967152799763
 20
192.5330778112227
 30
0.0
 10
167.0967152799763
 20
192.5330778112227
 30
0.0
 10
167.0967152799763
 20
192.5330778112227
 30
0.0
 10
167.0967152799763
 20
192.5330778112227
 30
0.0
 10
167.0967152799763
 20
192.5330778112227
 30
0.0
  0
HATCH
  5
1C3
330
1BD
100
AcDbEntity
  8
SOMBREA
 62
     7
420
 16777215
100
AcDbHatch
 10
0.0
 20
0.0
 30
0.0
210
0.0
220
0.0
230
1.0
  2
SOLID
 70
     1
 71
     0
 91
        2
 92
        1
 93
        1
 72
     4
 94
        3
 73
     0
 74
     1
 95
       71
 96
       67
 40
0.0
 40
0.0
 40
0.0
 40
0.0
 40
1.0
 40
1.0
 40
1.0
 40
2.0
 40
2.0
 40
2.0
 40
3.0
 40
3.0
 40
3.0
 40
4.0
 40
4.0
 40
4.0
 40
5.0
 40
5.0
 40
5.0
 40
6.0
 40
6.0
 40
6.0
 40
7.0
 40
7.0
 40
7.0
 40
8.0
 40
8.0
 40
8.0
 40
9.0
 40
9.0
 40
9.0
 40
10.0
 40
10.0
 40
10.0
 40
11.0
 40
11.0
 40
11.0
 40
12.0
 40
12.0
 40
12.0
 40
13.0
 40
13.0
 40
13.0
 40
14.0
 40
14.0
 40
14.0
 40
15.0
 40
15.0
 40
15.0
 40
16.0
 40
16.0
 40
16.0
 40
17.0
 40
17.0
 40
17.0
 40
18.0
 40
18.0
 40
18.0
 40
19.0
 40
19.0
 40
19.0
 40
20.0
 40
20.0
 40
20.0
 40
21.0
 40
21.0
 40
21.0
 40
22.0
 40
22.0
 40
22.0
 40
22.0
 10
114.0315300043166
 20
192.0705734372164
 10
114.0315300043166
 20
192.0705734372164
 10
71.36657809527956
 20
192.5330778112227
 10
71.36657809527956
 20
192.5330778112227
 10
71.36657809527956
 20
192.5330778112227
 10
71.36657809527956
 20
192.5330778112227
 10
71.36657809527956
 20
192.5330778112227
 10
71.36657809527956
 20
192.5330778112227
 10
71.36657809527956
 20
191.2334146820317
 10
71.36657809527956
 20
191.2334146820317
 10
71.36657809527956
 20
191.2334146820317
 10
71.36657809527956
 20
191.2334146820317
 10
71.36657809527956
 20
191.2334146820317
 10
71.36657809527956
 20
191.2334146820317
 10
113.9981125560644
 20
190.7659149162763
 10
113.9981125560644
 20
190.7659149162763
 10
113.9981125560644
 20
190.7659149162763
 10
113.9981125560644
 20
190.7659149162763
 10
113.9981125560644
 20
190.7659149162763
 10
114.0628803939141
 20
190.7738386411196
 10
114.1417731325714
 20
190.7337032522393
 10
114.174501561272
 20
190.6772036490088
 10
114.174501561272
 20
190.6772036490088
 10
114.174501561272
 20
190.6772036490088
 10
114.174501561272
 20
190.6772036490088
 10
114.174501561272
 20
190.6772036490088
 10
114.7801497471217
 20
189.7327300986636
 10
114.7801497471217
 20
189.7327300986636
 10
114.7801497471217
 20
189.7327300986636
 10
114.7801497471217
 20
189.7327300986636
 10
114.7801497471217
 20
189.7327300986636
 10
114.7801497471217
 20
189.7327300986636
 10
114.7801497471217
 20
189.1951225935336
 10
114.7801497471217
 20
189.1951225935336
 10
114.7801497471217
 20
189.1951225935336
 10
114.7801497471217
 20
189.1951225935336
 10
114.7801497471217
 20
189.1951225935336
 10
114.7801497471217
 20
189.1951225935336
 10
116.0841192485102
 20
189.1951225935336
 10
116.0841192485102
 20
189.1951225935336
 10
116.0841192485102
 20
189.1951225935336
 10
116.0841192485102
 20
189.1951225935336
 10
116.0841192485102
 20
189.1951225935336
 10
116.0841192485102
 20
189.1951225935336
 10
116.0841192485102
 20
189.9687192950839
 10
116.0841192485102
 20
189.9687192950839
 10
116.0841192485102
 20
189.9687192950839
 10
116.0841192485102
 20
189.9687192950839
 10
116.0841192485102
 20
189.9687192950839
 10
116.0889423853713
 20
190.0488178179565
 10
116.0524243491369
 20
190.1737026116826
 10
116.0052265098528
 20
190.2381259397565
 10
116.0052265098528
 20
190.2381259397565
 10
116.0052265098528
 20
190.2381259397565
 10
116.0052265098528
 20
190.2381259397565
 10
116.0052265098528
 20
190.2381259397565
 10
115.2724542167344
 20
191.3806926111845
 10
115.2724542167344
 20
191.3806926111845
 10
115.2724542167344
 20
191.3806926111845
 10
115.2724542167344
 20
191.3806926111845
 10
115.2724542167344
 20
191.3806926111845
 10
115.0454222744847
 20
191.7798071864444
 10
114.4897280061255
 20
192.088143435782
 10
114.0315300043166
 20
192.0705734372164
 10
114.0315300043166
 20
192.0705734372164
 10
114.0315300043166
 20
192.0705734372164
 10
114.0315300043166
 20
192.0705734372164
 97
        0
 92
        1
 93
        1
 72
     4
 94
        3
 73
     0
 74
     1
 95
       71
 96
       67
 40
0.0
 40
0.0
 40
0.0
 40
0.0
 40
1.0
 40
1.0
 40
1.0
 40
2.0
 40
2.0
 40
2.0
 40
3.0
 40
3.0
 40
3.0
 40
4.0
 40
4.0
 40
4.0
 40
5.0
 40
5.0
 40
5.0
 40
6.0
 40
6.0
 40
6.0
 40
7.0
 40
7.0
 40
7.0
 40
8.0
 40
8.0
 40
8.0
 40
9.0
 40
9.0
 40
9.0
 40
10.0
 40
10.0
 40
10.0
 40
11.0
 40
11.0
 40
11.0
 40
12.0
 40
12.0
 40
12.0
 40
13.0
 40
13.0
 40
13.0
 40
14.0
 40
14.0
 40
14.0
 40
15.0
 40
15.0
 40
15.0
 40
16.0
 40
16.0
 40
16.0
 40
17.0
 40
17.0
 40
17.0
 40
18.0
 40
18.0
 40
18.0
 40
19.0
 40
19.0
 40
19.0
 40
20.0
 40
20.0
 40
20.0
 40
21.0
 40
21.0
 40
21.0
 40
22.0
 40
22.0
 40
22.0
 40
22.0
 10
167.0967152799763
 20
192.5330778112227
 10
167.0967152799763
 20
192.5330778112227
 10
124.4315911160514
 20
192.0705734372164
 10
124.4315911160514
 20
192.0705734372164
 10
124.4315911160514
 20
192.0705734372164
 10
124.4315911160514
 20
192.0705734372164
 10
124.4315911160514
 20
192.0705734372164
 10
123.9733931142424
 20
192.088143435782
 10
123.4176988458832
 20
191.7798071864444
 10
123.1910114134093
 20
191.3806926111845
 10
123.1910114134093
 20
191.3806926111845
 10
123.1910114134093
 20
191.3806926111845
 10
123.1910114134093
 20
191.3806926111845
 10
123.1910114134093
 20
191.3806926111845
 10
122.4582391202909
 20
190.2381259397565
 10
122.4582391202909
 20
190.2381259397565
 10
122.4582391202909
 20
190.2381259397565
 10
122.4582391202909
 20
190.2381259397565
 10
122.4582391202909
 20
190.2381259397565
 10
122.410696771231
 20
190.1737026116826
 10
122.3741787349966
 20
190.0488178179565
 10
122.3790018718578
 20
189.9687192950839
 10
122.3790018718578
 20
189.9687192950839
 10
122.3790018718578
 20
189.9687192950839
 10
122.3790018718578
 20
189.9687192950839
 10
122.3790018718578
 20
189.9687192950839
 10
122.3790018718578
 20
189.1951225935336
 10
122.3790018718578
 20
189.1951225935336
 10
122.3790018718578
 20
189.1951225935336
 10
122.3790018718578
 20
189.1951225935336
 10
122.3790018718578
 20
189.1951225935336
 10
122.3790018718578
 20
189.1951225935336
 10
123.6829713732463
 20
189.1951225935336
 10
123.6829713732463
 20
189.1951225935336
 10
123.6829713732463
 20
189.1951225935336
 10
123.6829713732463
 20
189.1951225935336
 10
123.6829713732463
 20
189.1951225935336
 10
123.6829713732463
 20
189.1951225935336
 10
123.6829713732463
 20
189.7327300986636
 10
123.6829713732463
 20
189.7327300986636
 10
123.6829713732463
 20
189.7327300986636
 10
123.6829713732463
 20
189.7327300986636
 10
123.6829713732463
 20
189.7327300986636
 10
123.6829713732463
 20
189.7327300986636
 10
124.2886195590959
 20
190.6772036490088
 10
124.2886195590959
 20
190.6772036490088
 10
124.2886195590959
 20
190.6772036490088
 10
124.2886195590959
 20
190.6772036490088
 10
124.2886195590959
 20
190.6772036490088
 10
124.315491321608
 20
190.724056978517
 10
124.3809481790093
 20
190.7640201125094
 10
124.4343471942577
 20
190.7659149162763
 10
124.4343471942577
 20
190.7659149162763
 10
124.4343471942577
 20
190.7659149162763
 10
124.4343471942577
 20
190.7659149162763
 10
124.4343471942577
 20
190.7659149162763
 10
167.0967152799763
 20
191.2334146820317
 10
167.0967152799763
 20
191.2334146820317
 10
167.0967152799763
 20
191.2334146820317
 10
167.0967152799763
 20
191.2334146820317
 10
167.0967152799763
 20
191.2334146820317
 10
167.0967152799763
 20
191.2334146820317
 10
167.0967152799763
 20
192.5330778112227
 10
167.0967152799763
 20
192.5330778112227
 10
167.0967152799763
 20
192.5330778112227
 10
167.0967152799763
 20
192.5330778112227
 10
167.0967152799763
 20
192.5330778112227
 97
        0
 75
     0
 76
     1
 98
        0
  0
ENDBLK
  5
1C0
330
1BD
100
AcDbEntity
  8
0
100
AcDbBlockEnd
  0
BLOCK
  5
1C6
330
1C4
100
AcDbEntity
  8
0
100
AcDbBlockBegin
  2
block 69
 70
     0
 71
     0
 10
0.0
 20
0.0
 30
0.0
  3
block 69
  1

  0
POLYLINE
  5
1C8
330
1C4
100
AcDbEntity
  8
SOMBREA
370
     0
100
AcDb2dPolyline
 66
     1
 10
0.0
 20
0.0
 30
0.0
  0
VERTEX
  5
1C9
330
1C8
100
AcDbEntity
  8
SOMBREA
370
     0
100
AcDbVertex
100
AcDb2dVertex
 10
170.4791122587431
 20
193.6804676195119
 30
0.0
  0
VERTEX
  5
1CA
330
1C8
100
AcDbEntity
  8
SOMBREA
370
     0
100
AcDbVertex
100
AcDb2dVertex
 10
170.6386202849367
 20
194.1791455199768
 30
0.0
  0
VERTEX
  5
1CB
330
1C8
100
AcDbEntity
  8
SOMBREA
370
     0
100
AcDbVertex
100
AcDb2dVertex
 10
171.7293382351074
 20
194.1791455199768
 30
0.0
  0
VERTEX
  5
1CC
330
1C8
100
AcDbEntity
  8
SOMBREA
370
     0
100
AcDbVertex
100
AcDb2dVertex
 10
171.3248837583227
 20
192.5954340806418
 30
0.0
  0
VERTEX
  5
1CD
330
1C8
100
AcDbEntity
  8
SOMBREA
370
     0
100
AcDbVertex
100
AcDb2dVertex
 10
171.6246072632653
 20
192.2862365568648
 30
0.0
  0
VERTEX
  5
1CE
330
1C8
100
AcDbEntity
  8
SOMBREA
370
     0
100
AcDbVertex
100
AcDb2dVertex
 10
172.0752260500067
 20
192.2862365568648
 30
0.0
  0
VERTEX
  5
1CF
330
1C8
100
AcDbEntity
  8
SOMBREA
370
     0
100
AcDbVertex
100
AcDb2dVertex
 10
173.0484661666309
 20
192.1475713721068
 30
0.0
  0
VERTEX
  5
1D0
330
1C8
100
AcDbEntity
  8
SOMBREA
370
     0
100
AcDbVertex
100
AcDb2dVertex
 10
173.0484661666309
 20
191.1074963589782
 30
0.0
  0
VERTEX
  5
1D1
330
1C8
100
AcDbEntity
  8
SOMBREA
370
     0
100
AcDbVertex
100
AcDb2dVertex
 10
172.0397415430997
 20
191.3045559507336
 30
0.0
  0
VERTEX
  5
1D2
330
1C8
100
AcDbEntity
  8
SOMBREA
370
     0
100
AcDbVertex
100
AcDb2dVertex
 10
167.0967152799763
 20
191.2334146820317
 30
0.0
  0
VERTEX
  5
1D3
330
1C8
100
AcDbEntity
  8
SOMBREA
370
     0
100
AcDbVertex
100
AcDb2dVertex
 10
167.0967152799763
 20
192.5330778112227
 30
0.0
  0
VERTEX
  5
1D4
330
1C8
100
AcDbEntity
  8
SOMBREA
370
     0
100
AcDbVertex
100
AcDb2dVertex
 10
169.0500857087406
 20
192.5602940835106
 30
0.0
  0
VERTEX
  5
1D5
330
1C8
100
AcDbEntity
  8
SOMBREA
370
     0
100
AcDbVertex
100
AcDb2dVertex
 10
170.4791122587431
 20
193.6804676195119
 30
0.0
  0
SEQEND
  5
1D6
330
1C8
100
AcDbEntity
  8
SOMBREA
370
     0
  0
HATCH
  5
1D7
330
1C4
100
AcDbEntity
  8
SOMBREA
 62
     7
420
 16777215
100
AcDbHatch
 10
0.0
 20
0.0
 30
0.0
210
0.0
220
0.0
230
1.0
  2
SOLID
 70
     1
 71
     0
 91
        1
 92
        1
 93
       12
 72
     1
 10
170.4791122587431
 20
193.6804676195119
 11
170.6386202849367
 21
194.1791455199768
 72
     1
 10
170.6386202849367
 20
194.1791455199768
 11
171.7293382351074
 21
194.1791455199768
 72
     1
 10
171.7293382351074
 20
194.1791455199768
 11
171.3248837583227
 21
192.5954340806418
 72
     1
 10
171.3248837583227
 20
192.5954340806418
 11
171.6246072632653
 21
192.2862365568648
 72
     1
 10
171.6246072632653
 20
192.2862365568648
 11
172.0752260500067
 21
192.2862365568648
 72
     1
 10
172.0752260500067
 20
192.2862365568648
 11
173.0484661666309
 21
192.1475713721068
 72
     1
 10
173.0484661666309
 20
192.1475713721068
 11
173.0484661666309
 21
191.1074963589782
 72
     1
 10
173.0484661666309
 20
191.1074963589782
 11
172.0397415430997
 21
191.3045559507336
 72
     1
 10
172.0397415430997
 20
191.3045559507336
 11
167.0967152799763
 21
191.2334146820317
 72
     1
 10
167.0967152799763
 20
191.2334146820317
 11
167.0967152799763
 21
192.5330778112227
 72
     1
 10
167.0967152799763
 20
192.5330778112227
 11
169.0500857087406
 21
192.5602940835106
 72
     1
 10
169.0500857087406
 20
192.5602940835106
 11
170.4791122587431
 21
193.6804676195119
 97
        0
 75
     0
 76
     1
 98
        0
  0
ENDBLK
  5
1C7
330
1C4
100
AcDbEntity
  8
0
100
AcDbBlockEnd
  0
BLOCK
  5
1DA
330
1D8
100
AcDbEntity
  8
0
100
AcDbBlockBegin
  2
block 70
 70
     0
 71
     0
 10
0.0
 20
0.0
 30
0.0
  3
block 70
  1

  0
POLYLINE
  5
1DC
330
1D8
100
AcDbEntity
  8
SOMBREA
370
     0
100
AcDb2dPolyline
 66
     1
 10
0.0
 20
0.0
 30
0.0
  0
VERTEX
  5
1DD
330
1DC
100
AcDbEntity
  8
SOMBREA
370
     0
100
AcDbVertex
100
AcDb2dVertex
 10
178.1596132003428
 20
197.6869440571334
 30
0.0
  0
VERTEX
  5
1DE
330
1DC
100
AcDbEntity
  8
SOMBREA
370
     0
100
AcDbVertex
100
AcDb2dVertex
 10
173.8163784568806
 20
197.0847409690417
 30
0.0
  0
VERTEX
  5
1DF
330
1DC
100
AcDbEntity
  8
SOMBREA
370
     0
100
AcDbVertex
100
AcDb2dVertex
 10
170.6386202849367
 20
194.1791455199768
 30
0.0
  0
VERTEX
  5
1E0
330
1DC
100
AcDbEntity
  8
SOMBREA
370
     0
100
AcDbVertex
100
AcDb2dVertex
 10
171.7293382351074
 20
194.1791455199768
 30
0.0
  0
VERTEX
  5
1E1
330
1DC
100
AcDbEntity
  8
SOMBREA
370
     0
100
AcDbVertex
100
AcDb2dVertex
 10
174.0881966699837
 20
196.1237309494583
 30
0.0
  0
VERTEX
  5
1E2
330
1DC
100
AcDbEntity
  8
SOMBREA
370
     0
100
AcDbVertex
100
AcDb2dVertex
 10
177.6549063788015
 20
196.6789084531538
 30
0.0
  0
VERTEX
  5
1E3
330
1DC
100
AcDbEntity
  8
SOMBREA
370
     0
100
AcDbVertex
100
AcDb2dVertex
 10
178.0683181097569
 20
196.2866840734099
 30
0.0
  0
VERTEX
  5
1E4
330
1DC
100
AcDbEntity
  8
SOMBREA
370
     0
100
AcDbVertex
100
AcDb2dVertex
 10
178.1048361459913
 20
194.1791455199768
 30
0.0
  0
VERTEX
  5
1E5
330
1DC
100
AcDbEntity
  8
SOMBREA
370
     0
100
AcDbVertex
100
AcDb2dVertex
 10
179.1046035153518
 20
194.1791455199768
 30
0.0
  0
VERTEX
  5
1E6
330
1DC
100
AcDbEntity
  8
SOMBREA
370
     0
100
AcDbVertex
100
AcDb2dVertex
 10
179.0584392053951
 20
196.7872567776417
 30
0.0
  0
VERTEX
  5
1E7
330
1DC
100
AcDbEntity
  8
SOMBREA
370
     0
100
AcDbVertex
100
AcDb2dVertex
 10
178.1596132003428
 20
197.6869440571334
 30
0.0
  0
SEQEND
  5
1E8
330
1DC
100
AcDbEntity
  8
SOMBREA
370
     0
  0
HATCH
  5
1E9
330
1D8
100
AcDbEntity
  8
SOMBREA
 62
     7
420
 16777215
100
AcDbHatch
 10
0.0
 20
0.0
 30
0.0
210
0.0
220
0.0
230
1.0
  2
SOLID
 70
     1
 71
     0
 91
        1
 92
        1
 93
       10
 72
     1
 10
178.1596132003428
 20
197.6869440571334
 11
173.8163784568806
 21
197.0847409690417
 72
     1
 10
173.8163784568806
 20
197.0847409690417
 11
170.6386202849367
 21
194.1791455199768
 72
     1
 10
170.6386202849367
 20
194.1791455199768
 11
171.7293382351074
 21
194.1791455199768
 72
     1
 10
171.7293382351074
 20
194.1791455199768
 11
174.0881966699837
 21
196.1237309494583
 72
     1
 10
174.0881966699837
 20
196.1237309494583
 11
177.6549063788015
 21
196.6789084531538
 72
     1
 10
177.6549063788015
 20
196.6789084531538
 11
178.0683181097569
 21
196.2866840734099
 72
     1
 10
178.0683181097569
 20
196.2866840734099
 11
178.1048361459913
 21
194.1791455199768
 72
     1
 10
178.1048361459913
 20
194.1791455199768
 11
179.1046035153518
 21
194.1791455199768
 72
     1
 10
179.1046035153518
 20
194.1791455199768
 11
179.0584392053951
 21
196.7872567776417
 72
     1
 10
179.0584392053951
 20
196.7872567776417
 11
178.1596132003428
 21
197.6869440571334
 97
        0
 75
     0
 76
     1
 98
        0
  0
ENDBLK
  5
1DB
330
1D8
100
AcDbEntity
  8
0
100
AcDbBlockEnd
  0
BLOCK
  5
1EC
330
1EA
100
AcDbEntity
  8
0
100
AcDbBlockBegin
  2
block 71
 70
     0
 71
     0
 10
0.0
 20
0.0
 30
0.0
  3
block 71
  1

  0
POLYLINE
  5
1EE
330
1EA
100
AcDbEntity
  8
SOMBREA
370
     0
100
AcDb2dPolyline
 66
     1
 10
0.0
 20
0.0
 30
0.0
  0
VERTEX
  5
1EF
330
1EE
100
AcDbEntity
  8
SOMBREA
370
     0
100
AcDbVertex
100
AcDb2dVertex
 10
173.0484661666309
 20
192.1475713721068
 30
0.0
  0
VERTEX
  5
1F0
330
1EE
100
AcDbEntity
  8
SOMBREA
370
     0
100
AcDbVertex
100
AcDb2dVertex
 10
173.0484661666309
 20
191.1074963589782
 30
0.0
  0
VERTEX
  5
1F1
330
1EE
100
AcDbEntity
  8
SOMBREA
370
     0
100
AcDbVertex
100
AcDb2dVertex
 10
174.4430417390538
 20
189.6028499131884
 30
0.0
  0
VERTEX
  5
1F2
330
1EE
100
AcDbEntity
  8
SOMBREA
370
     0
100
AcDbVertex
100
AcDb2dVertex
 10
175.0111383593417
 20
189.1951225935336
 30
0.0
  0
VERTEX
  5
1F3
330
1EE
100
AcDbEntity
  8
SOMBREA
370
     0
100
AcDbVertex
100
AcDb2dVertex
 10
178.5812931659174
 20
189.1951225935336
 30
0.0
  0
VERTEX
  5
1F4
330
1EE
100
AcDbEntity
  8
SOMBREA
370
     0
100
AcDbVertex
100
AcDb2dVertex
 10
179.1803956660269
 20
189.8145511704151
 30
0.0
  0
VERTEX
  5
1F5
330
1EE
100
AcDbEntity
  8
SOMBREA
370
     0
100
AcDbVertex
100
AcDb2dVertex
 10
179.1046035153518
 20
194.1791455199768
 30
0.0
  0
VERTEX
  5
1F6
330
1EE
100
AcDbEntity
  8
SOMBREA
370
     0
100
AcDbVertex
100
AcDb2dVertex
 10
178.1048361459913
 20
194.1791455199768
 30
0.0
  0
VERTEX
  5
1F7
330
1EE
100
AcDbEntity
  8
SOMBREA
370
     0
100
AcDbVertex
100
AcDb2dVertex
 10
178.1623692785492
 20
190.8811534362801
 30
0.0
  0
VERTEX
  5
1F8
330
1EE
100
AcDbEntity
  8
SOMBREA
370
     0
100
AcDbVertex
100
AcDb2dVertex
 10
177.8626457736066
 20
190.5757455200368
 30
0.0
  0
VERTEX
  5
1F9
330
1EE
100
AcDbEntity
  8
SOMBREA
370
     0
100
AcDbVertex
100
AcDb2dVertex
 10
175.2381703015913
 20
190.5757455200368
 30
0.0
  0
VERTEX
  5
1FA
330
1EE
100
AcDbEntity
  8
SOMBREA
370
     0
100
AcDbVertex
100
AcDb2dVertex
 10
174.9866781652601
 20
190.7113101168126
 30
0.0
  0
VERTEX
  5
1FB
330
1EE
100
AcDbEntity
  8
SOMBREA
370
     0
100
AcDbVertex
100
AcDb2dVertex
 10
173.0484661666309
 20
192.1475713721068
 30
0.0
  0
SEQEND
  5
1FC
330
1EE
100
AcDbEntity
  8
SOMBREA
370
     0
  0
HATCH
  5
1FD
330
1EA
100
AcDbEntity
  8
SOMBREA
 62
     7
420
 16777215
100
AcDbHatch
 10
0.0
 20
0.0
 30
0.0
210
0.0
220
0.0
230
1.0
  2
SOLID
 70
     1
 71
     0
 91
        1
 92
        1
 93
       12
 72
     1
 10
173.0484661666309
 20
192.1475713721068
 11
173.0484661666309
 21
191.1074963589782
 72
     1
 10
173.0484661666309
 20
191.1074963589782
 11
174.4430417390538
 21
189.6028499131884
 72
     1
 10
174.4430417390538
 20
189.6028499131884
 11
175.0111383593417
 21
189.1951225935336
 72
     1
 10
175.0111383593417
 20
189.1951225935336
 11
178.5812931659174
 21
189.1951225935336
 72
     1
 10
178.5812931659174
 20
189.1951225935336
 11
179.1803956660269
 21
189.8145511704151
 72
     1
 10
179.1803956660269
 20
189.8145511704151
 11
179.1046035153518
 21
194.1791455199768
 72
     1
 10
179.1046035153518
 20
194.1791455199768
 11
178.1048361459913
 21
194.1791455199768
 72
     1
 10
178.1048361459913
 20
194.1791455199768
 11
178.1623692785492
 21
190.8811534362801
 72
     1
 10
178.1623692785492
 20
190.8811534362801
 11
177.8626457736066
 21
190.5757455200368
 72
     1
 10
177.8626457736066
 20
190.5757455200368
 11
175.2381703015913
 21
190.5757455200368
 72
     1
 10
175.2381703015913
 20
190.5757455200368
 11
174.9866781652601
 21
190.7113101168126
 72
     1
 10
174.9866781652601
 20
190.7113101168126
 11
173.0484661666309
 21
192.1475713721068
 97
        0
 75
     0
 76
     1
 98
        0
  0
ENDBLK
  5
1ED
330
1EA
100
AcDbEntity
  8
0
100
AcDbBlockEnd
  0
BLOCK
  5
201
330
1FF
100
AcDbEntity
  8
0
100
AcDbBlockBegin
  2
block 72
 70
     0
 71
     0
 10
0.0
 20
0.0
 30
0.0
  3
block 72
  1

  0
POLYLINE
  5
203
330
1FF
100
AcDbEntity
  8
PIEZA
 62
     7
420
 16777215
370
     9
100
AcDb2dPolyline
 66
     1
 10
0.0
 20
0.0
 30
0.0
  0
VERTEX
  5
204
330
203
100
AcDbEntity
  8
PIEZA
 62
     7
420
 16777215
370
     9
100
AcDbVertex
100
AcDb2dVertex
 10
177.4823069811276
 20
160.0177284069166
 30
0.0
  0
VERTEX
  5
205
330
203
100
AcDbEntity
  8
PIEZA
 62
     7
420
 16777215
370
     9
100
AcDbVertex
100
AcDb2dVertex
 10
60.98098639412826
 20
160.0177284069166
 30
0.0
  0
SEQEND
  5
206
330
203
100
AcDbEntity
  8
PIEZA
370
     9
  0
ENDBLK
  5
202
330
1FF
100
AcDbEntity
  8
0
100
AcDbBlockEnd
  0
BLOCK
  5
209
330
207
100
AcDbEntity
  8
0
100
AcDbBlockBegin
  2
block 73
 70
     0
 71
     0
 10
0.0
 20
0.0
 30
0.0
  3
block 73
  1

  0
POLYLINE
  5
20B
330
207
100
AcDbEntity
  8
PIEZA
 62
     7
420
 16777215
370
     9
100
AcDb2dPolyline
 66
     1
 10
0.0
 20
0.0
 30
0.0
  0
VERTEX
  5
20C
330
20B
100
AcDbEntity
  8
PIEZA
 62
     7
420
 16777215
370
     9
100
AcDbVertex
100
AcDb2dVertex
 10
60.98098639412826
 20
80.08543150112901
 30
0.0
  0
VERTEX
  5
20D
330
20B
100
AcDbEntity
  8
PIEZA
 62
     7
420
 16777215
370
     9
100
AcDbVertex
100
AcDb2dVertex
 10
177.4823069811276
 20
80.08543150112901
 30
0.0
  0
SEQEND
  5
20E
330
20B
100
AcDbEntity
  8
PIEZA
370
     9
  0
ENDBLK
  5
20A
330
207
100
AcDbEntity
  8
0
100
AcDbBlockEnd
  0
BLOCK
  5
211
330
20F
100
AcDbEntity
  8
0
100
AcDbBlockBegin
  2
block 74
 70
     0
 71
     0
 10
0.0
 20
0.0
 30
0.0
  3
block 74
  1

  0
POLYLINE
  5
213
330
20F
100
AcDbEntity
  8
PIEZA
 62
     7
420
 16777215
370
     9
100
AcDb2dPolyline
 66
     1
 10
0.0
 20
0.0
 30
0.0
  0
VERTEX
  5
214
330
213
100
AcDbEntity
  8
PIEZA
 62
     7
420
 16777215
370
     9
100
AcDbVertex
100
AcDb2dVertex
 10
59.28238094456525
 20
158.3192952122415
 30
0.0
  0
VERTEX
  5
215
330
213
100
AcDbEntity
  8
PIEZA
 62
     7
420
 16777215
370
     9
100
AcDbVertex
100
AcDb2dVertex
 10
59.28238094456525
 20
81.78420920557991
 30
0.0
  0
SEQEND
  5
216
330
213
100
AcDbEntity
  8
PIEZA
370
     9
  0
ENDBLK
  5
212
330
20F
100
AcDbEntity
  8
0
100
AcDbBlockEnd
  0
BLOCK
  5
219
330
217
100
AcDbEntity
  8
0
100
AcDbBlockBegin
  2
block 75
 70
     0
 71
     0
 10
0.0
 20
0.0
 30
0.0
  3
block 75
  1

  0
SPLINE
  5
21B
330
217
100
AcDbEntity
  8
PIEZA
 62
     7
420
 16777215
370
     9
100
AcDbSpline
210
0.0
220
0.0
230
1.0
 70
     8
 71
     3
 72
    11
 73
     7
 74
     0
 42
0.0000000001
 43
0.0000000001
 40
0.0
 40
0.0
 40
0.0
 40
0.0
 40
1.0
 40
1.0
 40
1.0
 40
2.0
 40
2.0
 40
2.0
 40
2.0
 10
60.98098639412826
 20
160.0177284069166
 30
0.0
 10
60.04288627463529
 20
160.0177284069166
 30
0.0
 10
59.28238094456525
 20
159.2573953317345
 30
0.0
 10
59.28238094456525
 20
158.3192952122415
 30
0.0
 10
59.28238094456525
 20
158.3192952122415
 30
0.0
 10
59.28238094456525
 20
158.3192952122415
 30
0.0
 10
59.28238094456525
 20
158.3192952122415
 30
0.0
  0
ENDBLK
  5
21A
330
217
100
AcDbEntity
  8
0
100
AcDbBlockEnd
  0
BLOCK
  5
21E
330
21C
100
AcDbEntity
  8
0
100
AcDbBlockBegin
  2
block 76
 70
     0
 71
     0
 10
0.0
 20
0.0
 30
0.0
  3
block 76
  1

  0
SPLINE
  5
220
330
21C
100
AcDbEntity
  8
PIEZA
 62
     7
420
 16777215
370
     9
100
AcDbSpline
210
0.0
220
0.0
230
1.0
 70
     8
 71
     3
 72
    11
 73
     7
 74
     0
 42
0.0000000001
 43
0.0000000001
 40
0.0
 40
0.0
 40
0.0
 40
0.0
 40
1.0
 40
1.0
 40
1.0
 40
2.0
 40
2.0
 40
2.0
 40
2.0
 10
59.28238094456525
 20
81.78420920557991
 30
0.0
 10
59.28238094456525
 20
80.84610908608694
 30
0.0
 10
60.04288627463529
 20
80.08543150112901
 30
0.0
 10
60.98098639412826
 20
80.08543150112901
 30
0.0
 10
60.98098639412826
 20
80.08543150112901
 30
0.0
 10
60.98098639412826
 20
80.08543150112901
 30
0.0
 10
60.98098639412826
 20
80.08543150112901
 30
0.0
  0
ENDBLK
  5
21F
330
21C
100
AcDbEntity
  8
0
100
AcDbBlockEnd
  0
BLOCK
  5
223
330
221
100
AcDbEntity
  8
0
100
AcDbBlockBegin
  2
block 77
 70
     0
 71
     0
 10
0.0
 20
0.0
 30
0.0
  3
block 77
  1

  0
SPLINE
  5
225
330
221
100
AcDbEntity
  8
PIEZA
 62
     7
420
 16777215
370
     9
100
AcDbSpline
210
0.0
220
0.0
230
1.0
 70
    11
 71
     3
 72
    23
 73
    19
 74
     0
 42
0.0000000001
 43
0.0000000001
 40
0.0
 40
0.0
 40
0.0
 40
0.0
 40
1.0
 40
1.0
 40
1.0
 40
2.0
 40
2.0
 40
2.0
 40
3.0
 40
3.0
 40
3.0
 40
4.0
 40
4.0
 40
4.0
 40
5.0
 40
5.0
 40
5.0
 40
6.0
 40
6.0
 40
6.0
 40
6.0
 10
122.3790018718578
 20
98.56975901169665
 30
0.0
 10
122.3790018718578
 20
100.3081553403641
 30
0.0
 10
120.9696123790756
 20
101.7172003233704
 30
0.0
 10
119.231560560184
 20
101.7172003233704
 30
0.0
 10
117.4935087412923
 20
101.7172003233704
 30
0.0
 10
116.0841192485102
 20
100.3081553403641
 30
0.0
 10
116.0841192485102
 20
98.56975901169665
 30
0.0
 10
116.0841192485102
 20
96.83170719280497
 30
0.0
 10
117.4935087412923
 20
95.42266220979864
 30
0.0
 10
119.231560560184
 20
95.42266220979864
 30
0.0
 10
120.9696123790756
 20
95.42266220979864
 30
0.0
 10
122.3790018718578
 20
96.83170719280497
 30
0.0
 10
122.3790018718578
 20
98.56975901169665
 30
0.0
 10
122.3790018718578
 20
98.56975901169665
 30
0.0
 10
122.3790018718578
 20
98.56975901169665
 30
0.0
 10
122.3790018718578
 20
98.56975901169665
 30
0.0
 10
122.3790018718578
 20
98.56975901169665
 30
0.0
 10
122.3790018718578
 20
98.56975901169665
 30
0.0
 10
122.3790018718578
 20
98.56975901169665
 30
0.0
  0
ENDBLK
  5
224
330
221
100
AcDbEntity
  8
0
100
AcDbBlockEnd
  0
BLOCK
  5
228
330
226
100
AcDbEntity
  8
0
100
AcDbBlockBegin
  2
block 78
 70
     0
 71
     0
 10
0.0
 20
0.0
 30
0.0
  3
block 78
  1

  0
POLYLINE
  5
22A
330
226
100
AcDbEntity
  8
PIEZA
 62
     7
420
 16777215
370
     9
100
AcDb2dPolyline
 66
     1
 10
0.0
 20
0.0
 30
0.0
  0
VERTEX
  5
22B
330
22A
100
AcDbEntity
  8
PIEZA
 62
     7
420
 16777215
370
     9
100
AcDbVertex
100
AcDb2dVertex
 10
179.1807401758027
 20
81.78420920557991
 30
0.0
  0
VERTEX
  5
22C
330
22A
100
AcDbEntity
  8
PIEZA
 62
     7
420
 16777215
370
     9
100
AcDbVertex
100
AcDb2dVertex
 10
179.1807401758027
 20
158.3192952122415
 30
0.0
  0
SEQEND
  5
22D
330
22A
100
AcDbEntity
  8
PIEZA
370
     9
  0
ENDBLK
  5
229
330
226
100
AcDbEntity
  8
0
100
AcDbBlockEnd
  0
BLOCK
  5
230
330
22E
100
AcDbEntity
  8
0
100
AcDbBlockBegin
  2
block 79
 70
     0
 71
     0
 10
0.0
 20
0.0
 30
0.0
  3
block 79
  1

  0
SPLINE
  5
232
330
22E
100
AcDbEntity
  8
PIEZA
 62
     7
420
 16777215
370
     9
100
AcDbSpline
210
0.0
220
0.0
230
1.0
 70
     8
 71
     3
 72
    11
 73
     7
 74
     0
 42
0.0000000001
 43
0.0000000001
 40
0.0
 40
0.0
 40
0.0
 40
0.0
 40
1.0
 40
1.0
 40
1.0
 40
2.0
 40
2.0
 40
2.0
 40
2.0
 10
179.1807401758027
 20
158.3192952122415
 30
0.0
 10
179.1807401758027
 20
159.2573953317345
 30
0.0
 10
178.4204071006206
 20
160.0177284069166
 30
0.0
 10
177.4823069811276
 20
160.0177284069166
 30
0.0
 10
177.4823069811276
 20
160.0177284069166
 30
0.0
 10
177.4823069811276
 20
160.0177284069166
 30
0.0
 10
177.4823069811276
 20
160.0177284069166
 30
0.0
  0
ENDBLK
  5
231
330
22E
100
AcDbEntity
  8
0
100
AcDbBlockEnd
  0
BLOCK
  5
235
330
233
100
AcDbEntity
  8
0
100
AcDbBlockBegin
  2
block 80
 70
     0
 71
     0
 10
0.0
 20
0.0
 30
0.0
  3
block 80
  1

  0
SPLINE
  5
237
330
233
100
AcDbEntity
  8
PIEZA
 62
     7
420
 16777215
370
     9
100
AcDbSpline
210
0.0
220
0.0
230
1.0
 70
     8
 71
     3
 72
    11
 73
     7
 74
     0
 42
0.0000000001
 43
0.0000000001
 40
0.0
 40
0.0
 40
0.0
 40
0.0
 40
1.0
 40
1.0
 40
1.0
 40
2.0
 40
2.0
 40
2.0
 40
2.0
 10
177.4823069811276
 20
80.08543150112901
 30
0.0
 10
178.4204071006206
 20
80.08543150112901
 30
0.0
 10
179.1807401758027
 20
80.84610908608694
 30
0.0
 10
179.1807401758027
 20
81.78420920557991
 30
0.0
 10
179.1807401758027
 20
81.78420920557991
 30
0.0
 10
179.1807401758027
 20
81.78420920557991
 30
0.0
 10
179.1807401758027
 20
81.78420920557991
 30
0.0
  0
ENDBLK
  5
236
330
233
100
AcDbEntity
  8
0
100
AcDbBlockEnd
  0
BLOCK
  5
23A
330
238
100
AcDbEntity
  8
0
100
AcDbBlockBegin
  2
block 81
 70
     0
 71
     0
 10
0.0
 20
0.0
 30
0.0
  3
block 81
  1

  0
POLYLINE
  5
23C
330
238
100
AcDbEntity
  8
PIEZA
 62
     7
420
 16777215
370
     9
100
AcDb2dPolyline
 66
     1
 10
0.0
 20
0.0
 30
0.0
  0
VERTEX
  5
23D
330
23C
100
AcDbEntity
  8
PIEZA
 62
     7
420
 16777215
370
     9
100
AcDbVertex
100
AcDb2dVertex
 10
170.1883460079711
 20
85.5807069348537
 30
0.0
  0
VERTEX
  5
23E
330
23C
100
AcDbEntity
  8
PIEZA
 62
     7
420
 16777215
370
     9
100
AcDbVertex
100
AcDb2dVertex
 10
170.1883460079711
 20
151.0255064939729
 30
0.0
  0
SEQEND
  5
23F
330
23C
100
AcDbEntity
  8
PIEZA
370
     9
  0
ENDBLK
  5
23B
330
238
100
AcDbEntity
  8
0
100
AcDbBlockEnd
  0
BLOCK
  5
242
330
240
100
AcDbEntity
  8
0
100
AcDbBlockBegin
  2
block 82
 70
     0
 71
     0
 10
0.0
 20
0.0
 30
0.0
  3
block 82
  1

  0
POLYLINE
  5
244
330
240
100
AcDbEntity
  8
PIEZA
 62
     7
420
 16777215
370
     9
100
AcDb2dPolyline
 66
     1
 10
0.0
 20
0.0
 30
0.0
  0
VERTEX
  5
245
330
244
100
AcDbEntity
  8
PIEZA
 62
     7
420
 16777215
370
     9
100
AcDbVertex
100
AcDb2dVertex
 10
170.1883460079711
 20
151.0255064939729
 30
0.0
  0
VERTEX
  5
246
330
244
100
AcDbEntity
  8
PIEZA
 62
     7
420
 16777215
370
     9
100
AcDbVertex
100
AcDb2dVertex
 10
68.27477511239684
 20
151.0255064939729
 30
0.0
  0
SEQEND
  5
247
330
244
100
AcDbEntity
  8
PIEZA
370
     9
  0
ENDBLK
  5
243
330
240
100
AcDbEntity
  8
0
100
AcDbBlockEnd
  0
BLOCK
  5
24A
330
248
100
AcDbEntity
  8
0
100
AcDbBlockBegin
  2
block 83
 70
     0
 71
     0
 10
0.0
 20
0.0
 30
0.0
  3
block 83
  1

  0
POLYLINE
  5
24C
330
248
100
AcDbEntity
  8
PIEZA
 62
     7
420
 16777215
370
     9
100
AcDb2dPolyline
 66
     1
 10
0.0
 20
0.0
 30
0.0
  0
VERTEX
  5
24D
330
24C
100
AcDbEntity
  8
PIEZA
 62
     7
420
 16777215
370
     9
100
AcDbVertex
100
AcDb2dVertex
 10
68.27477511239684
 20
151.0255064939729
 30
0.0
  0
VERTEX
  5
24E
330
24C
100
AcDbEntity
  8
PIEZA
 62
     7
420
 16777215
370
     9
100
AcDbVertex
100
AcDb2dVertex
 10
68.27477511239684
 20
85.5807069348537
 30
0.0
  0
SEQEND
  5
24F
330
24C
100
AcDbEntity
  8
PIEZA
370
     9
  0
ENDBLK
  5
24B
330
248
100
AcDbEntity
  8
0
100
AcDbBlockEnd
  0
BLOCK
  5
252
330
250
100
AcDbEntity
  8
0
100
AcDbBlockBegin
  2
block 84
 70
     0
 71
     0
 10
0.0
 20
0.0
 30
0.0
  3
block 84
  1

  0
SPLINE
  5
254
330
250
100
AcDbEntity
  8
PIEZA
 62
     7
420
 16777215
370
     9
100
AcDbSpline
210
0.0
220
0.0
230
1.0
 70
     8
 71
     3
 72
    14
 73
    10
 74
     0
 42
0.0000000001
 43
0.0000000001
 40
0.0
 40
0.0
 40
0.0
 40
0.0
 40
1.0
 40
1.0
 40
1.0
 40
2.0
 40
2.0
 40
2.0
 40
3.0
 40
3.0
 40
3.0
 40
3.0
 10
119.231560560184
 20
95.42266220979864
 30
0.0
 10
120.9696123790756
 20
95.42266220979864
 30
0.0
 10
122.3790018718578
 20
96.83170719280497
 30
0.0
 10
122.3790018718578
 20
98.56975901169665
 30
0.0
 10
122.3790018718578
 20
100.3081553403641
 30
0.0
 10
120.9696123790756
 20
101.7172003233704
 30
0.0
 10
119.231560560184
 20
101.7172003233704
 30
0.0
 10
119.231560560184
 20
101.7172003233704
 30
0.0
 10
119.231560560184
 20
101.7172003233704
 30
0.0
 10
119.231560560184
 20
101.7172003233704
 30
0.0
  0
ENDBLK
  5
253
330
250
100
AcDbEntity
  8
0
100
AcDbBlockEnd
  0
BLOCK
  5
257
330
255
100
AcDbEntity
  8
0
100
AcDbBlockBegin
  2
block 85
 70
     0
 71
     0
 10
0.0
 20
0.0
 30
0.0
  3
block 85
  1

  0
SPLINE
  5
259
330
255
100
AcDbEntity
  8
PIEZA
 62
     7
420
 16777215
370
     9
100
AcDbSpline
210
0.0
220
0.0
230
1.0
 70
     8
 71
     3
 72
    14
 73
    10
 74
     0
 42
0.0000000001
 43
0.0000000001
 40
0.0
 40
0.0
 40
0.0
 40
0.0
 40
1.0
 40
1.0
 40
1.0
 40
2.0
 40
2.0
 40
2.0
 40
3.0
 40
3.0
 40
3.0
 40
3.0
 10
119.231560560184
 20
101.7172003233704
 30
0.0
 10
117.4935087412923
 20
101.7172003233704
 30
0.0
 10
116.0841192485102
 20
100.3081553403641
 30
0.0
 10
116.0841192485102
 20
98.56975901169665
 30
0.0
 10
116.0841192485102
 20
96.83170719280497
 30
0.0
 10
117.4935087412923
 20
95.42266220979864
 30
0.0
 10
119.231560560184
 20
95.42266220979864
 30
0.0
 10
119.231560560184
 20
95.42266220979864
 30
0.0
 10
119.231560560184
 20
95.42266220979864
 30
0.0
 10
119.231560560184
 20
95.42266220979864
 30
0.0
  0
ENDBLK
  5
258
330
255
100
AcDbEntity
  8
0
100
AcDbBlockEnd
  0
BLOCK
  5
25C
330
25A
100
AcDbEntity
  8
0
100
AcDbBlockBegin
  2
block 86
 70
     0
 71
     0
 10
0.0
 20
0.0
 30
0.0
  3
block 86
  1

  0
POLYLINE
  5
25E
330
25A
100
AcDbEntity
  8
PIEZA
 62
     7
420
 16777215
370
     9
100
AcDb2dPolyline
 66
     1
 10
0.0
 20
0.0
 30
0.0
  0
VERTEX
  5
25F
330
25E
100
AcDbEntity
  8
PIEZA
 62
     7
420
 16777215
370
     9
100
AcDbVertex
100
AcDb2dVertex
 10
123.1910114134093
 20
191.3812093758482
 30
0.0
  0
VERTEX
  5
260
330
25E
100
AcDbEntity
  8
PIEZA
 62
     7
420
 16777215
370
     9
100
AcDbVertex
100
AcDb2dVertex
 10
122.4578946105151
 20
190.2382981946444
 30
0.0
  0
SEQEND
  5
261
330
25E
100
AcDbEntity
  8
PIEZA
370
     9
  0
ENDBLK
  5
25D
330
25A
100
AcDbEntity
  8
0
100
AcDbBlockEnd
  0
BLOCK
  5
264
330
262
100
AcDbEntity
  8
0
100
AcDbBlockBegin
  2
block 87
 70
     0
 71
     0
 10
0.0
 20
0.0
 30
0.0
  3
block 87
  1

  0
POLYLINE
  5
266
330
262
100
AcDbEntity
  8
PIEZA
 62
     7
420
 16777215
370
     9
100
AcDb2dPolyline
 66
     1
 10
0.0
 20
0.0
 30
0.0
  0
VERTEX
  5
267
330
266
100
AcDbEntity
  8
PIEZA
 62
     7
420
 16777215
370
     9
100
AcDbVertex
100
AcDb2dVertex
 10
124.2886195590959
 20
190.6770313941209
 30
0.0
  0
VERTEX
  5
268
330
266
100
AcDbEntity
  8
PIEZA
 62
     7
420
 16777215
370
     9
100
AcDbVertex
100
AcDb2dVertex
 10
123.7029529402425
 20
189.7637359784852
 30
0.0
  0
SEQEND
  5
269
330
266
100
AcDbEntity
  8
PIEZA
370
     9
  0
ENDBLK
  5
265
330
262
100
AcDbEntity
  8
0
100
AcDbBlockEnd
  0
BLOCK
  5
26C
330
26A
100
AcDbEntity
  8
0
100
AcDbBlockBegin
  2
block 88
 70
     0
 71
     0
 10
0.0
 20
0.0
 30
0.0
  3
block 88
  1

  0
SPLINE
  5
26E
330
26A
100
AcDbEntity
  8
PIEZA
 62
     7
420
 16777215
370
     9
100
AcDbSpline
210
0.0
220
0.0
230
1.0
 70
     8
 71
     3
 72
     8
 73
     4
 74
     0
 42
0.0000000001
 43
0.0000000001
 40
0.0
 40
0.0
 40
0.0
 40
0.0
 40
1.0
 40
1.0
 40
1.0
 40
1.0
 10
123.7029529402425
 20
189.7637359784852
 30
0.0
 10
123.6912396078654
 20
189.7473717641349
 30
0.0
 10
123.6819378439189
 20
189.7161936294253
 30
0.0
 10
123.6829713732463
 20
189.6962120624292
 30
0.0
  0
ENDBLK
  5
26D
330
26A
100
AcDbEntity
  8
0
100
AcDbBlockEnd
  0
BLOCK
  5
271
330
26F
100
AcDbEntity
  8
0
100
AcDbBlockBegin
  2
block 89
 70
     0
 71
     0
 10
0.0
 20
0.0
 30
0.0
  3
block 89
  1

  0
POLYLINE
  5
273
330
26F
100
AcDbEntity
  8
PIEZA
 62
     7
420
 16777215
370
     9
100
AcDb2dPolyline
 66
     1
 10
0.0
 20
0.0
 30
0.0
  0
VERTEX
  5
274
330
273
100
AcDbEntity
  8
PIEZA
 62
     7
420
 16777215
370
     9
100
AcDbVertex
100
AcDb2dVertex
 10
122.3790018718578
 20
189.9683747853081
 30
0.0
  0
VERTEX
  5
275
330
273
100
AcDbEntity
  8
PIEZA
 62
     7
420
 16777215
370
     9
100
AcDbVertex
100
AcDb2dVertex
 10
122.3793463816336
 20
189.19460582887
 30
0.0
  0
SEQEND
  5
276
330
273
100
AcDbEntity
  8
PIEZA
370
     9
  0
ENDBLK
  5
272
330
26F
100
AcDbEntity
  8
0
100
AcDbBlockEnd
  0
BLOCK
  5
279
330
277
100
AcDbEntity
  8
0
100
AcDbBlockBegin
  2
block 90
 70
     0
 71
     0
 10
0.0
 20
0.0
 30
0.0
  3
block 90
  1

  0
POLYLINE
  5
27B
330
277
100
AcDbEntity
  8
PIEZA
 62
     7
420
 16777215
370
     9
100
AcDb2dPolyline
 66
     1
 10
0.0
 20
0.0
 30
0.0
  0
VERTEX
  5
27C
330
27B
100
AcDbEntity
  8
PIEZA
 62
     7
420
 16777215
370
     9
100
AcDbVertex
100
AcDb2dVertex
 10
123.6829713732463
 20
189.6962120624292
 30
0.0
  0
VERTEX
  5
27D
330
27B
100
AcDbEntity
  8
PIEZA
 62
     7
420
 16777215
370
     9
100
AcDbVertex
100
AcDb2dVertex
 10
123.6833158830221
 20
189.19460582887
 30
0.0
  0
SEQEND
  5
27E
330
27B
100
AcDbEntity
  8
PIEZA
370
     9
  0
ENDBLK
  5
27A
330
277
100
AcDbEntity
  8
0
100
AcDbBlockEnd
  0
BLOCK
  5
281
330
27F
100
AcDbEntity
  8
0
100
AcDbBlockBegin
  2
block 91
 70
     0
 71
     0
 10
0.0
 20
0.0
 30
0.0
  3
block 91
  1

  0
SPLINE
  5
283
330
27F
100
AcDbEntity
  8
PIEZA
 62
     7
420
 16777215
370
     9
100
AcDbSpline
210
0.0
220
0.0
230
1.0
 70
     8
 71
     3
 72
     8
 73
     4
 74
     0
 42
0.0000000001
 43
0.0000000001
 40
0.0
 40
0.0
 40
0.0
 40
0.0
 40
1.0
 40
1.0
 40
1.0
 40
1.0
 10
122.4578946105151
 20
190.2382981946444
 30
0.0
 10
122.4110412810068
 20
190.1733581019069
 30
0.0
 10
122.3741787349966
 20
190.0484733081807
 30
0.0
 10
122.3790018718578
 20
189.9683747853081
 30
0.0
  0
ENDBLK
  5
282
330
27F
100
AcDbEntity
  8
0
100
AcDbBlockEnd
  0
BLOCK
  5
286
330
284
100
AcDbEntity
  8
0
100
AcDbBlockBegin
  2
block 92
 70
     0
 71
     0
 10
0.0
 20
0.0
 30
0.0
  3
block 92
  1

  0
POLYLINE
  5
288
330
284
100
AcDbEntity
  8
PIEZA
 62
     7
420
 16777215
370
     9
100
AcDb2dPolyline
 66
     1
 10
0.0
 20
0.0
 30
0.0
  0
VERTEX
  5
289
330
288
100
AcDbEntity
  8
PIEZA
 62
     7
420
 16777215
370
     9
100
AcDbVertex
100
AcDb2dVertex
 10
124.4346917040335
 20
190.7657426613884
 30
0.0
  0
VERTEX
  5
28A
330
288
100
AcDbEntity
  8
PIEZA
 62
     7
420
 16777215
370
     9
100
AcDbVertex
100
AcDb2dVertex
 10
172.0397415430997
 20
191.3042114409578
 30
0.0
  0
SEQEND
  5
28B
330
288
100
AcDbEntity
  8
PIEZA
370
     9
  0
ENDBLK
  5
287
330
284
100
AcDbEntity
  8
0
100
AcDbBlockEnd
  0
BLOCK
  5
28E
330
28C
100
AcDbEntity
  8
0
100
AcDbBlockBegin
  2
block 93
 70
     0
 71
     0
 10
0.0
 20
0.0
 30
0.0
  3
block 93
  1

  0
POLYLINE
  5
290
330
28C
100
AcDbEntity
  8
PIEZA
 62
     7
420
 16777215
370
     9
100
AcDb2dPolyline
 66
     1
 10
0.0
 20
0.0
 30
0.0
  0
VERTEX
  5
291
330
290
100
AcDbEntity
  8
PIEZA
 62
     7
420
 16777215
370
     9
100
AcDbVertex
100
AcDb2dVertex
 10
124.4315911160514
 20
192.0705734372164
 30
0.0
  0
VERTEX
  5
292
330
290
100
AcDbEntity
  8
PIEZA
 62
     7
420
 16777215
370
     9
100
AcDbVertex
100
AcDb2dVertex
 10
169.0500857087406
 20
192.5606385932864
 30
0.0
  0
SEQEND
  5
293
330
290
100
AcDbEntity
  8
PIEZA
370
     9
  0
ENDBLK
  5
28F
330
28C
100
AcDbEntity
  8
0
100
AcDbBlockEnd
  0
BLOCK
  5
296
330
294
100
AcDbEntity
  8
0
100
AcDbBlockBegin
  2
block 94
 70
     0
 71
     0
 10
0.0
 20
0.0
 30
0.0
  3
block 94
  1

  0
SPLINE
  5
298
330
294
100
AcDbEntity
  8
PIEZA
 62
     7
420
 16777215
370
     9
100
AcDbSpline
210
0.0
220
0.0
230
1.0
 70
     8
 71
     3
 72
     8
 73
     4
 74
     0
 42
0.0000000001
 43
0.0000000001
 40
0.0
 40
0.0
 40
0.0
 40
0.0
 40
1.0
 40
1.0
 40
1.0
 40
1.0
 10
124.4315911160514
 20
192.0705734372164
 30
0.0
 10
123.9733931142424
 20
192.0883156906699
 30
0.0
 10
123.4176988458832
 20
191.7796349315565
 30
0.0
 10
123.1910114134093
 20
191.3812093758482
 30
0.0
  0
ENDBLK
  5
297
330
294
100
AcDbEntity
  8
0
100
AcDbBlockEnd
  0
BLOCK
  5
29B
330
299
100
AcDbEntity
  8
0
100
AcDbBlockBegin
  2
block 95
 70
     0
 71
     0
 10
0.0
 20
0.0
 30
0.0
  3
block 95
  1

  0
SPLINE
  5
29D
330
299
100
AcDbEntity
  8
PIEZA
 62
     7
420
 16777215
370
     9
100
AcDbSpline
210
0.0
220
0.0
230
1.0
 70
     8
 71
     3
 72
     8
 73
     4
 74
     0
 42
0.0000000001
 43
0.0000000001
 40
0.0
 40
0.0
 40
0.0
 40
0.0
 40
1.0
 40
1.0
 40
1.0
 40
1.0
 10
124.4498501341685
 20
190.7666039358279
 30
0.0
 10
124.3902499429558
 20
190.7688432493705
 30
0.0
 10
124.3182473998144
 20
190.7288801153782
 30
0.0
 10
124.2886195590959
 20
190.6770313941209
 30
0.0
  0
ENDBLK
  5
29C
330
299
100
AcDbEntity
  8
0
100
AcDbBlockEnd
  0
BLOCK
  5
2A0
330
29E
100
AcDbEntity
  8
0
100
AcDbBlockBegin
  2
block 96
 70
     0
 71
     0
 10
0.0
 20
0.0
 30
0.0
  3
block 96
  1

  0
SPLINE
  5
2A2
330
29E
100
AcDbEntity
  8
PIEZA
 62
     7
420
 16777215
370
     9
100
AcDbSpline
210
0.0
220
0.0
230
1.0
 70
     8
 71
     3
 72
     8
 73
     4
 74
     0
 42
0.0000000001
 43
0.0000000001
 40
0.0
 40
0.0
 40
0.0
 40
0.0
 40
1.0
 40
1.0
 40
1.0
 40
1.0
 10
177.6552508885773
 20
196.6787361982659
 30
0.0
 10
176.7081935149136
 20
196.678563943378
 30
0.0
 10
174.9901232630181
 20
196.4112243573602
 30
0.0
 10
174.0881966699837
 20
196.1235586945704
 30
0.0
  0
ENDBLK
  5
2A1
330
29E
100
AcDbEntity
  8
0
100
AcDbBlockEnd
  0
BLOCK
  5
2A5
330
2A3
100
AcDbEntity
  8
0
100
AcDbBlockBegin
  2
block 97
 70
     0
 71
     0
 10
0.0
 20
0.0
 30
0.0
  3
block 97
  1

  0
SPLINE
  5
2A7
330
2A3
100
AcDbEntity
  8
PIEZA
 62
     7
420
 16777215
370
     9
100
AcDbSpline
210
0.0
220
0.0
230
1.0
 70
     8
 71
     3
 72
     8
 73
     4
 74
     0
 42
0.0000000001
 43
0.0000000001
 40
0.0
 40
0.0
 40
0.0
 40
0.0
 40
1.0
 40
1.0
 40
1.0
 40
1.0
 10
178.1596132003428
 20
197.6864272924697
 30
0.0
 10
177.0013713341161
 20
197.7293187595563
 30
0.0
 10
174.9194987589799
 20
197.4411363321028
 30
0.0
 10
173.8167229666564
 20
197.0852577337054
 30
0.0
  0
ENDBLK
  5
2A6
330
2A3
100
AcDbEntity
  8
0
100
AcDbBlockEnd
  0
BLOCK
  5
2AA
330
2A8
100
AcDbEntity
  8
0
100
AcDbBlockBegin
  2
block 98
 70
     0
 71
     0
 10
0.0
 20
0.0
 30
0.0
  3
block 98
  1

  0
SPLINE
  5
2AC
330
2A8
100
AcDbEntity
  8
PIEZA
 62
     7
420
 16777215
370
     9
100
AcDbSpline
210
0.0
220
0.0
230
1.0
 70
     8
 71
     3
 72
     8
 73
     4
 74
     0
 42
0.0000000001
 43
0.0000000001
 40
0.0
 40
0.0
 40
0.0
 40
0.0
 40
1.0
 40
1.0
 40
1.0
 40
1.0
 10
173.8167229666564
 20
197.0852577337054
 30
0.0
 10
172.2891666207761
 20
196.7355803112723
 30
0.0
 10
170.7984728209061
 20
195.2147419060201
 30
0.0
 10
170.4791122587431
 20
193.6808121292877
 30
0.0
  0
ENDBLK
  5
2AB
330
2A8
100
AcDbEntity
  8
0
100
AcDbBlockEnd
  0
BLOCK
  5
2AF
330
2AD
100
AcDbEntity
  8
0
100
AcDbBlockBegin
  2
block 99
 70
     0
 71
     0
 10
0.0
 20
0.0
 30
0.0
  3
block 99
  1

  0
SPLINE
  5
2B1
330
2AD
100
AcDbEntity
  8
PIEZA
 62
     7
420
 16777215
370
     9
100
AcDbSpline
210
0.0
220
0.0
230
1.0
 70
     8
 71
     3
 72
     8
 73
     4
 74
     0
 42
0.0000000001
 43
0.0000000001
 40
0.0
 40
0.0
 40
0.0
 40
0.0
 40
1.0
 40
1.0
 40
1.0
 40
1.0
 10
169.0500857087406
 20
192.5606385932864
 30
0.0
 10
169.6987976165647
 20
192.5504755549004
 30
0.0
 10
170.3340736431329
 20
193.0482921809259
 30
0.0
 10
170.4791122587431
 20
193.6808121292877
 30
0.0
  0
ENDBLK
  5
2B0
330
2AD
100
AcDbEntity
  8
0
100
AcDbBlockEnd
  0
BLOCK
  5
2B4
330
2B2
100
AcDbEntity
  8
0
100
AcDbBlockBegin
  2
block 100
 70
     0
 71
     0
 10
0.0
 20
0.0
 30
0.0
  3
block 100
  1

  0
SPLINE
  5
2B6
330
2B2
100
AcDbEntity
  8
PIEZA
 62
     7
420
 16777215
370
     9
100
AcDbSpline
210
0.0
220
0.0
230
1.0
 70
     8
 71
     3
 72
     8
 73
     4
 74
     0
 42
0.0000000001
 43
0.0000000001
 40
0.0
 40
0.0
 40
0.0
 40
0.0
 40
1.0
 40
1.0
 40
1.0
 40
1.0
 10
174.0881966699837
 20
196.1235586945704
 30
0.0
 10
172.5527165992602
 20
195.7452869607462
 30
0.0
 10
171.3245392485469
 20
194.1772507162099
 30
0.0
 10
171.3248837583227
 20
192.5957785904176
 30
0.0
  0
ENDBLK
  5
2B5
330
2B2
100
AcDbEntity
  8
0
100
AcDbBlockEnd
  0
BLOCK
  5
2B9
330
2B7
100
AcDbEntity
  8
0
100
AcDbBlockBegin
  2
block 101
 70
     0
 71
     0
 10
0.0
 20
0.0
 30
0.0
  3
block 101
  1

  0
SPLINE
  5
2BB
330
2B7
100
AcDbEntity
  8
PIEZA
 62
     7
420
 16777215
370
     9
100
AcDbSpline
210
0.0
220
0.0
230
1.0
 70
     8
 71
     3
 72
    11
 73
     7
 74
     0
 42
0.0000000001
 43
0.0000000001
 40
0.0
 40
0.0
 40
0.0
 40
0.0
 40
1.0
 40
1.0
 40
1.0
 40
2.0
 40
2.0
 40
2.0
 40
2.0
 10
171.3248837583227
 20
192.5957785904176
 30
0.0
 10
171.3193716019099
 20
192.4302416431476
 30
0.0
 10
171.4489072776093
 20
192.2917487132775
 30
0.0
 10
171.6142719699914
 20
192.2862365568648
 30
0.0
 10
171.6170280481978
 20
192.2860643019769
 30
0.0
 10
171.621851185059
 20
192.2860643019769
 30
0.0
 10
171.6242627534895
 20
192.2860643019769
 30
0.0
  0
ENDBLK
  5
2BA
330
2B7
100
AcDbEntity
  8
0
100
AcDbBlockEnd
  0
BLOCK
  5
2BE
330
2BC
100
AcDbEntity
  8
0
100
AcDbBlockBegin
  2
block 102
 70
     0
 71
     0
 10
0.0
 20
0.0
 30
0.0
  3
block 102
  1

  0
SPLINE
  5
2C0
330
2BC
100
AcDbEntity
  8
PIEZA
 62
     7
420
 16777215
370
     9
100
AcDbSpline
210
0.0
220
0.0
230
1.0
 70
     8
 71
     3
 72
     8
 73
     4
 74
     0
 42
0.0000000001
 43
0.0000000001
 40
0.0
 40
0.0
 40
0.0
 40
0.0
 40
1.0
 40
1.0
 40
1.0
 40
1.0
 10
174.4430417390538
 20
189.6030221680763
 30
0.0
 10
174.5129772235404
 20
189.3675497363196
 30
0.0
 10
174.765502889199
 20
189.1861653393629
 30
0.0
 10
175.0111383593417
 20
189.19460582887
 30
0.0
  0
ENDBLK
  5
2BF
330
2BC
100
AcDbEntity
  8
0
100
AcDbBlockEnd
  0
BLOCK
  5
2C3
330
2C1
100
AcDbEntity
  8
0
100
AcDbBlockBegin
  2
block 103
 70
     0
 71
     0
 10
0.0
 20
0.0
 30
0.0
  3
block 103
  1

  0
SPLINE
  5
2C5
330
2C1
100
AcDbEntity
  8
PIEZA
 62
     7
420
 16777215
370
     9
100
AcDbSpline
210
0.0
220
0.0
230
1.0
 70
     8
 71
     3
 72
     8
 73
     4
 74
     0
 42
0.0000000001
 43
0.0000000001
 40
0.0
 40
0.0
 40
0.0
 40
0.0
 40
1.0
 40
1.0
 40
1.0
 40
1.0
 10
174.4430417390538
 20
189.6030221680763
 30
0.0
 10
174.1450407829901
 20
190.5977941456877
 30
0.0
 10
173.077060478022
 20
191.3539931035603
 30
0.0
 10
172.0397415430997
 20
191.3042114409578
 30
0.0
  0
ENDBLK
  5
2C4
330
2C1
100
AcDbEntity
  8
0
100
AcDbBlockEnd
  0
BLOCK
  5
2C8
330
2C6
100
AcDbEntity
  8
0
100
AcDbBlockBegin
  2
block 104
 70
     0
 71
     0
 10
0.0
 20
0.0
 30
0.0
  3
block 104
  1

  0
SPLINE
  5
2CA
330
2C6
100
AcDbEntity
  8
PIEZA
 62
     7
420
 16777215
370
     9
100
AcDbSpline
210
0.0
220
0.0
230
1.0
 70
     8
 71
     3
 72
     8
 73
     4
 74
     0
 42
0.0000000001
 43
0.0000000001
 40
0.0
 40
0.0
 40
0.0
 40
0.0
 40
1.0
 40
1.0
 40
1.0
 40
1.0
 10
174.9870226750359
 20
190.7114823717005
 30
0.0
 10
174.4485538954665
 20
191.6375246490406
 30
0.0
 10
173.1452734136296
 20
192.3423916503195
 30
0.0
 10
172.0752260500067
 20
192.2860643019769
 30
0.0
  0
ENDBLK
  5
2C9
330
2C6
100
AcDbEntity
  8
0
100
AcDbBlockEnd
  0
BLOCK
  5
2CD
330
2CB
100
AcDbEntity
  8
0
100
AcDbBlockBegin
  2
block 105
 70
     0
 71
     0
 10
0.0
 20
0.0
 30
0.0
  3
block 105
  1

  0
SPLINE
  5
2CF
330
2CB
100
AcDbEntity
  8
PIEZA
 62
     7
420
 16777215
370
     9
100
AcDbSpline
210
0.0
220
0.0
230
1.0
 70
     8
 71
     3
 72
     8
 73
     4
 74
     0
 42
0.0000000001
 43
0.0000000001
 40
0.0
 40
0.0
 40
0.0
 40
0.0
 40
1.0
 40
1.0
 40
1.0
 40
1.0
 10
174.9870226750359
 20
190.7114823717005
 30
0.0
 10
175.0335314947684
 20
190.6317283586037
 30
0.0
 10
175.145841681678
 20
190.5710946380635
 30
0.0
 10
175.2378257918155
 20
190.5759177749247
 30
0.0
  0
ENDBLK
  5
2CE
330
2CB
100
AcDbEntity
  8
0
100
AcDbBlockEnd
  0
BLOCK
  5
2D2
330
2D0
100
AcDbEntity
  8
0
100
AcDbBlockBegin
  2
block 106
 70
     0
 71
     0
 10
0.0
 20
0.0
 30
0.0
  3
block 106
  1

  0
POLYLINE
  5
2D4
330
2D0
100
AcDbEntity
  8
PIEZA
 62
     7
420
 16777215
370
     9
100
AcDb2dPolyline
 66
     1
 10
0.0
 20
0.0
 30
0.0
  0
VERTEX
  5
2D5
330
2D4
100
AcDbEntity
  8
PIEZA
 62
     7
420
 16777215
370
     9
100
AcDbVertex
100
AcDb2dVertex
 10
178.0679735999811
 20
196.2863395636341
 30
0.0
  0
VERTEX
  5
2D6
330
2D4
100
AcDbEntity
  8
PIEZA
 62
     7
420
 16777215
370
     9
100
AcDbVertex
100
AcDb2dVertex
 10
178.1623692785492
 20
190.8808089265043
 30
0.0
  0
SEQEND
  5
2D7
330
2D4
100
AcDbEntity
  8
PIEZA
370
     9
  0
ENDBLK
  5
2D3
330
2D0
100
AcDbEntity
  8
0
100
AcDbBlockEnd
  0
BLOCK
  5
2DA
330
2D8
100
AcDbEntity
  8
0
100
AcDbBlockBegin
  2
block 107
 70
     0
 71
     0
 10
0.0
 20
0.0
 30
0.0
  3
block 107
  1

  0
SPLINE
  5
2DC
330
2D8
100
AcDbEntity
  8
PIEZA
 62
     7
420
 16777215
370
     9
100
AcDbSpline
210
0.0
220
0.0
230
1.0
 70
     8
 71
     3
 72
    11
 73
     7
 74
     0
 42
0.0000000001
 43
0.0000000001
 40
0.0
 40
0.0
 40
0.0
 40
0.0
 40
1.0
 40
1.0
 40
1.0
 40
2.0
 40
2.0
 40
2.0
 40
2.0
 10
177.8626457736066
 20
190.5759177749247
 30
0.0
 10
178.0283549757645
 20
190.5759177749247
 30
0.0
 10
178.1623692785492
 20
190.7101043325973
 30
0.0
 10
178.1623692785492
 20
190.8756412798674
 30
0.0
 10
178.1623692785492
 20
190.8770193189705
 30
0.0
 10
178.1623692785492
 20
190.879603142289
 30
0.0
 10
178.1623692785492
 20
190.8808089265043
 30
0.0
  0
ENDBLK
  5
2DB
330
2D8
100
AcDbEntity
  8
0
100
AcDbBlockEnd
  0
BLOCK
  5
2DF
330
2DD
100
AcDbEntity
  8
0
100
AcDbBlockBegin
  2
block 108
 70
     0
 71
     0
 10
0.0
 20
0.0
 30
0.0
  3
block 108
  1

  0
POLYLINE
  5
2E1
330
2DD
100
AcDbEntity
  8
PIEZA
 62
     7
420
 16777215
370
     9
100
AcDb2dPolyline
 66
     1
 10
0.0
 20
0.0
 30
0.0
  0
VERTEX
  5
2E2
330
2E1
100
AcDbEntity
  8
PIEZA
 62
     7
420
 16777215
370
     9
100
AcDbVertex
100
AcDb2dVertex
 10
179.0587837151708
 20
196.7870845227538
 30
0.0
  0
VERTEX
  5
2E3
330
2E1
100
AcDbEntity
  8
PIEZA
 62
     7
420
 16777215
370
     9
100
AcDbVertex
100
AcDb2dVertex
 10
179.1807401758027
 20
189.7942250936432
 30
0.0
  0
SEQEND
  5
2E4
330
2E1
100
AcDbEntity
  8
PIEZA
370
     9
  0
ENDBLK
  5
2E0
330
2DD
100
AcDbEntity
  8
0
100
AcDbBlockEnd
  0
BLOCK
  5
2E7
330
2E5
100
AcDbEntity
  8
0
100
AcDbBlockBegin
  2
block 109
 70
     0
 71
     0
 10
0.0
 20
0.0
 30
0.0
  3
block 109
  1

  0
POLYLINE
  5
2E9
330
2E5
100
AcDbEntity
  8
PIEZA
 62
     7
420
 16777215
370
     9
100
AcDb2dPolyline
 66
     1
 10
0.0
 20
0.0
 30
0.0
  0
VERTEX
  5
2EA
330
2E9
100
AcDbEntity
  8
PIEZA
 62
     7
420
 16777215
370
     9
100
AcDbVertex
100
AcDb2dVertex
 10
177.8626457736066
 20
190.5759177749247
 30
0.0
  0
VERTEX
  5
2EB
330
2E9
100
AcDbEntity
  8
PIEZA
 62
     7
420
 16777215
370
     9
100
AcDbVertex
100
AcDb2dVertex
 10
175.2378257918155
 20
190.5759177749247
 30
0.0
  0
SEQEND
  5
2EC
330
2E9
100
AcDbEntity
  8
PIEZA
370
     9
  0
ENDBLK
  5
2E8
330
2E5
100
AcDbEntity
  8
0
100
AcDbBlockEnd
  0
BLOCK
  5
2EF
330
2ED
100
AcDbEntity
  8
0
100
AcDbBlockBegin
  2
block 110
 70
     0
 71
     0
 10
0.0
 20
0.0
 30
0.0
  3
block 110
  1

  0
SPLINE
  5
2F1
330
2ED
100
AcDbEntity
  8
PIEZA
 62
     7
420
 16777215
370
     9
100
AcDbSpline
210
0.0
220
0.0
230
1.0
 70
     8
 71
     3
 72
    11
 73
     7
 74
     0
 42
0.0000000001
 43
0.0000000001
 40
0.0
 40
0.0
 40
0.0
 40
0.0
 40
1.0
 40
1.0
 40
1.0
 40
2.0
 40
2.0
 40
2.0
 40
2.0
 10
178.5812931659174
 20
189.19460582887
 30
0.0
 10
178.9123670604575
 20
189.19460582887
 30
0.0
 10
179.1807401758027
 20
189.4631511991031
 30
0.0
 10
179.1807401758027
 20
189.7942250936432
 30
0.0
 10
179.1807401758027
 20
189.7942250936432
 30
0.0
 10
179.1807401758027
 20
189.7942250936432
 30
0.0
 10
179.1807401758027
 20
189.7942250936432
 30
0.0
  0
ENDBLK
  5
2F0
330
2ED
100
AcDbEntity
  8
0
100
AcDbBlockEnd
  0
BLOCK
  5
2F4
330
2F2
100
AcDbEntity
  8
0
100
AcDbBlockBegin
  2
block 111
 70
     0
 71
     0
 10
0.0
 20
0.0
 30
0.0
  3
block 111
  1

  0
SPLINE
  5
2F6
330
2F2
100
AcDbEntity
  8
PIEZA
 62
     7
420
 16777215
370
     9
100
AcDbSpline
210
0.0
220
0.0
230
1.0
 70
     8
 71
     3
 72
    11
 73
     7
 74
     0
 42
0.0000000001
 43
0.0000000001
 40
0.0
 40
0.0
 40
0.0
 40
0.0
 40
1.0
 40
1.0
 40
1.0
 40
2.0
 40
2.0
 40
2.0
 40
2.0
 10
179.0587837151708
 20
196.7870845227538
 30
0.0
 10
179.0587837151708
 20
197.2838676194519
 30
0.0
 10
178.6560517872651
 20
197.6864272924697
 30
0.0
 10
178.1596132003428
 20
197.6864272924697
 30
0.0
 10
178.1596132003428
 20
197.6864272924697
 30
0.0
 10
178.1596132003428
 20
197.6864272924697
 30
0.0
 10
178.1596132003428
 20
197.6864272924697
 30
0.0
  0
ENDBLK
  5
2F5
330
2F2
100
AcDbEntity
  8
0
100
AcDbBlockEnd
  0
BLOCK
  5
2F9
330
2F7
100
AcDbEntity
  8
0
100
AcDbBlockBegin
  2
block 112
 70
     0
 71
     0
 10
0.0
 20
0.0
 30
0.0
  3
block 112
  1

  0
SPLINE
  5
2FB
330
2F7
100
AcDbEntity
  8
PIEZA
 62
     7
420
 16777215
370
     9
100
AcDbSpline
210
0.0
220
0.0
230
1.0
 70
     8
 71
     3
 72
    11
 73
     7
 74
     0
 42
0.0000000001
 43
0.0000000001
 40
0.0
 40
0.0
 40
0.0
 40
0.0
 40
1.0
 40
1.0
 40
1.0
 40
2.0
 40
2.0
 40
2.0
 40
2.0
 10
178.0679735999811
 20
196.2863395636341
 30
0.0
 10
178.0641839924473
 20
196.5069980750315
 30
0.0
 10
177.8822828308269
 20
196.6826980606876
 30
0.0
 10
177.6614520645416
 20
196.6789084531538
 30
0.0
 10
177.6600740254384
 20
196.6789084531538
 30
0.0
 10
177.6566289276805
 20
196.6789084531538
 30
0.0
 10
177.6552508885773
 20
196.6787361982659
 30
0.0
  0
ENDBLK
  5
2FA
330
2F7
100
AcDbEntity
  8
0
100
AcDbBlockEnd
  0
BLOCK
  5
2FE
330
2FC
100
AcDbEntity
  8
0
100
AcDbBlockBegin
  2
block 113
 70
     0
 71
     0
 10
0.0
 20
0.0
 30
0.0
  3
block 113
  1

  0
POLYLINE
  5
300
330
2FC
100
AcDbEntity
  8
PIEZA
 62
     7
420
 16777215
370
     9
100
AcDb2dPolyline
 66
     1
 10
0.0
 20
0.0
 30
0.0
  0
VERTEX
  5
301
330
300
100
AcDbEntity
  8
PIEZA
 62
     7
420
 16777215
370
     9
100
AcDbVertex
100
AcDb2dVertex
 10
172.0752260500067
 20
192.2860643019769
 30
0.0
  0
VERTEX
  5
302
330
300
100
AcDbEntity
  8
PIEZA
 62
     7
420
 16777215
370
     9
100
AcDbVertex
100
AcDb2dVertex
 10
171.6242627534895
 20
192.2860643019769
 30
0.0
  0
SEQEND
  5
303
330
300
100
AcDbEntity
  8
PIEZA
370
     9
  0
ENDBLK
  5
2FF
330
2FC
100
AcDbEntity
  8
0
100
AcDbBlockEnd
  0
BLOCK
  5
306
330
304
100
AcDbEntity
  8
0
100
AcDbBlockBegin
  2
block 114
 70
     0
 71
     0
 10
0.0
 20
0.0
 30
0.0
  3
block 114
  1

  0
POLYLINE
  5
308
330
304
100
AcDbEntity
  8
PIEZA
 62
     7
420
 16777215
370
     9
100
AcDb2dPolyline
 66
     1
 10
0.0
 20
0.0
 30
0.0
  0
VERTEX
  5
309
330
308
100
AcDbEntity
  8
PIEZA
 62
     7
420
 16777215
370
     9
100
AcDbVertex
100
AcDb2dVertex
 10
119.231560560184
 20
197.6864272924697
 30
0.0
  0
VERTEX
  5
30A
330
308
100
AcDbEntity
  8
PIEZA
 62
     7
420
 16777215
370
     9
100
AcDbVertex
100
AcDb2dVertex
 10
178.1596132003428
 20
197.6864272924697
 30
0.0
  0
SEQEND
  5
30B
330
308
100
AcDbEntity
  8
PIEZA
370
     9
  0
ENDBLK
  5
307
330
304
100
AcDbEntity
  8
0
100
AcDbBlockEnd
  0
BLOCK
  5
30E
330
30C
100
AcDbEntity
  8
0
100
AcDbBlockBegin
  2
block 115
 70
     0
 71
     0
 10
0.0
 20
0.0
 30
0.0
  3
block 115
  1

  0
POLYLINE
  5
310
330
30C
100
AcDbEntity
  8
PIEZA
 62
     7
420
 16777215
370
     9
100
AcDb2dPolyline
 66
     1
 10
0.0
 20
0.0
 30
0.0
  0
VERTEX
  5
311
330
310
100
AcDbEntity
  8
PIEZA
 62
     7
420
 16777215
370
     9
100
AcDbVertex
100
AcDb2dVertex
 10
178.5812931659174
 20
189.19460582887
 30
0.0
  0
VERTEX
  5
312
330
310
100
AcDbEntity
  8
PIEZA
 62
     7
420
 16777215
370
     9
100
AcDbVertex
100
AcDb2dVertex
 10
175.0111383593417
 20
189.19460582887
 30
0.0
  0
SEQEND
  5
313
330
310
100
AcDbEntity
  8
PIEZA
370
     9
  0
ENDBLK
  5
30F
330
30C
100
AcDbEntity
  8
0
100
AcDbBlockEnd
  0
BLOCK
  5
316
330
314
100
AcDbEntity
  8
0
100
AcDbBlockBegin
  2
block 116
 70
     0
 71
     0
 10
0.0
 20
0.0
 30
0.0
  3
block 116
  1

  0
POLYLINE
  5
318
330
314
100
AcDbEntity
  8
PIEZA
 62
     7
420
 16777215
370
     9
100
AcDb2dPolyline
 66
     1
 10
0.0
 20
0.0
 30
0.0
  0
VERTEX
  5
319
330
318
100
AcDbEntity
  8
PIEZA
 62
     7
420
 16777215
370
     9
100
AcDbVertex
100
AcDb2dVertex
 10
175.0111383593417
 20
189.19460582887
 30
0.0
  0
VERTEX
  5
31A
330
318
100
AcDbEntity
  8
PIEZA
 62
     7
420
 16777215
370
     9
100
AcDbVertex
100
AcDb2dVertex
 10
123.6833158830221
 20
189.19460582887
 30
0.0
  0
SEQEND
  5
31B
330
318
100
AcDbEntity
  8
PIEZA
370
     9
  0
ENDBLK
  5
317
330
314
100
AcDbEntity
  8
0
100
AcDbBlockEnd
  0
BLOCK
  5
31E
330
31C
100
AcDbEntity
  8
0
100
AcDbBlockBegin
  2
block 117
 70
     0
 71
     0
 10
0.0
 20
0.0
 30
0.0
  3
block 117
  1

  0
POLYLINE
  5
320
330
31C
100
AcDbEntity
  8
PIEZA
 62
     7
420
 16777215
370
     9
100
AcDb2dPolyline
 66
     1
 10
0.0
 20
0.0
 30
0.0
  0
VERTEX
  5
321
330
320
100
AcDbEntity
  8
PIEZA
 62
     7
420
 16777215
370
     9
100
AcDbVertex
100
AcDb2dVertex
 10
119.231560560184
 20
189.19460582887
 30
0.0
  0
VERTEX
  5
322
330
320
100
AcDbEntity
  8
PIEZA
 62
     7
420
 16777215
370
     9
100
AcDbVertex
100
AcDb2dVertex
 10
119.2308715406324
 20
189.19460582887
 30
0.0
  0
SEQEND
  5
323
330
320
100
AcDbEntity
  8
PIEZA
370
     9
  0
ENDBLK
  5
31F
330
31C
100
AcDbEntity
  8
0
100
AcDbBlockEnd
  0
BLOCK
  5
326
330
324
100
AcDbEntity
  8
0
100
AcDbBlockBegin
  2
block 118
 70
     0
 71
     0
 10
0.0
 20
0.0
 30
0.0
  3
block 118
  1

  0
POLYLINE
  5
328
330
324
100
AcDbEntity
  8
PIEZA
 62
     7
420
 16777215
370
     9
100
AcDb2dPolyline
 66
     1
 10
0.0
 20
0.0
 30
0.0
  0
VERTEX
  5
329
330
328
100
AcDbEntity
  8
PIEZA
 62
     7
420
 16777215
370
     9
100
AcDbVertex
100
AcDb2dVertex
 10
115.2721097069586
 20
191.3812093758482
 30
0.0
  0
VERTEX
  5
32A
330
328
100
AcDbEntity
  8
PIEZA
 62
     7
420
 16777215
370
     9
100
AcDbVertex
100
AcDb2dVertex
 10
116.0052265098528
 20
190.2382981946444
 30
0.0
  0
SEQEND
  5
32B
330
328
100
AcDbEntity
  8
PIEZA
370
     9
  0
ENDBLK
  5
327
330
324
100
AcDbEntity
  8
0
100
AcDbBlockEnd
  0
BLOCK
  5
32E
330
32C
100
AcDbEntity
  8
0
100
AcDbBlockBegin
  2
block 119
 70
     0
 71
     0
 10
0.0
 20
0.0
 30
0.0
  3
block 119
  1

  0
POLYLINE
  5
330
330
32C
100
AcDbEntity
  8
PIEZA
 62
     7
420
 16777215
370
     9
100
AcDb2dPolyline
 66
     1
 10
0.0
 20
0.0
 30
0.0
  0
VERTEX
  5
331
330
330
100
AcDbEntity
  8
PIEZA
 62
     7
420
 16777215
370
     9
100
AcDbVertex
100
AcDb2dVertex
 10
114.174501561272
 20
190.6770313941209
 30
0.0
  0
VERTEX
  5
332
330
330
100
AcDbEntity
  8
PIEZA
 62
     7
420
 16777215
370
     9
100
AcDbVertex
100
AcDb2dVertex
 10
114.7601681801255
 20
189.7637359784852
 30
0.0
  0
SEQEND
  5
333
330
330
100
AcDbEntity
  8
PIEZA
370
     9
  0
ENDBLK
  5
32F
330
32C
100
AcDbEntity
  8
0
100
AcDbBlockEnd
  0
BLOCK
  5
336
330
334
100
AcDbEntity
  8
0
100
AcDbBlockBegin
  2
block 120
 70
     0
 71
     0
 10
0.0
 20
0.0
 30
0.0
  3
block 120
  1

  0
SPLINE
  5
338
330
334
100
AcDbEntity
  8
PIEZA
 62
     7
420
 16777215
370
     9
100
AcDbSpline
210
0.0
220
0.0
230
1.0
 70
     8
 71
     3
 72
     8
 73
     4
 74
     0
 42
0.0000000001
 43
0.0000000001
 40
0.0
 40
0.0
 40
0.0
 40
0.0
 40
1.0
 40
1.0
 40
1.0
 40
1.0
 10
114.7801497471217
 20
189.6962120624292
 30
0.0
 10
114.7811832764491
 20
189.7161936294253
 30
0.0
 10
114.7718815125026
 20
189.7473717641349
 30
0.0
 10
114.7601681801255
 20
189.7637359784852
 30
0.0
  0
ENDBLK
  5
337
330
334
100
AcDbEntity
  8
0
100
AcDbBlockEnd
  0
BLOCK
  5
33B
330
339
100
AcDbEntity
  8
0
100
AcDbBlockBegin
  2
block 121
 70
     0
 71
     0
 10
0.0
 20
0.0
 30
0.0
  3
block 121
  1

  0
POLYLINE
  5
33D
330
339
100
AcDbEntity
  8
PIEZA
 62
     7
420
 16777215
370
     9
100
AcDb2dPolyline
 66
     1
 10
0.0
 20
0.0
 30
0.0
  0
VERTEX
  5
33E
330
33D
100
AcDbEntity
  8
PIEZA
 62
     7
420
 16777215
370
     9
100
AcDbVertex
100
AcDb2dVertex
 10
116.0841192485102
 20
189.9683747853081
 30
0.0
  0
VERTEX
  5
33F
330
33D
100
AcDbEntity
  8
PIEZA
 62
     7
420
 16777215
370
     9
100
AcDbVertex
100
AcDb2dVertex
 10
116.0837747387344
 20
189.19460582887
 30
0.0
  0
SEQEND
  5
340
330
33D
100
AcDbEntity
  8
PIEZA
370
     9
  0
ENDBLK
  5
33C
330
339
100
AcDbEntity
  8
0
100
AcDbBlockEnd
  0
BLOCK
  5
343
330
341
100
AcDbEntity
  8
0
100
AcDbBlockBegin
  2
block 122
 70
     0
 71
     0
 10
0.0
 20
0.0
 30
0.0
  3
block 122
  1

  0
POLYLINE
  5
345
330
341
100
AcDbEntity
  8
PIEZA
 62
     7
420
 16777215
370
     9
100
AcDb2dPolyline
 66
     1
 10
0.0
 20
0.0
 30
0.0
  0
VERTEX
  5
346
330
345
100
AcDbEntity
  8
PIEZA
 62
     7
420
 16777215
370
     9
100
AcDbVertex
100
AcDb2dVertex
 10
114.7801497471217
 20
189.6962120624292
 30
0.0
  0
VERTEX
  5
347
330
345
100
AcDbEntity
  8
PIEZA
 62
     7
420
 16777215
370
     9
100
AcDbVertex
100
AcDb2dVertex
 10
114.7798052373459
 20
189.19460582887
 30
0.0
  0
SEQEND
  5
348
330
345
100
AcDbEntity
  8
PIEZA
370
     9
  0
ENDBLK
  5
344
330
341
100
AcDbEntity
  8
0
100
AcDbBlockEnd
  0
BLOCK
  5
34B
330
349
100
AcDbEntity
  8
0
100
AcDbBlockBegin
  2
block 123
 70
     0
 71
     0
 10
0.0
 20
0.0
 30
0.0
  3
block 123
  1

  0
SPLINE
  5
34D
330
349
100
AcDbEntity
  8
PIEZA
 62
     7
420
 16777215
370
     9
100
AcDbSpline
210
0.0
220
0.0
230
1.0
 70
     8
 71
     3
 72
     8
 73
     4
 74
     0
 42
0.0000000001
 43
0.0000000001
 40
0.0
 40
0.0
 40
0.0
 40
0.0
 40
1.0
 40
1.0
 40
1.0
 40
1.0
 10
116.0841192485102
 20
189.9683747853081
 30
0.0
 10
116.0889423853713
 20
190.0484733081807
 30
0.0
 10
116.0520798393611
 20
190.1733581019069
 30
0.0
 10
116.0052265098528
 20
190.2382981946444
 30
0.0
  0
ENDBLK
  5
34C
330
349
100
AcDbEntity
  8
0
100
AcDbBlockEnd
  0
BLOCK
  5
350
330
34E
100
AcDbEntity
  8
0
100
AcDbBlockBegin
  2
block 124
 70
     0
 71
     0
 10
0.0
 20
0.0
 30
0.0
  3
block 124
  1

  0
POLYLINE
  5
352
330
34E
100
AcDbEntity
  8
PIEZA
 62
     7
420
 16777215
370
     9
100
AcDb2dPolyline
 66
     1
 10
0.0
 20
0.0
 30
0.0
  0
VERTEX
  5
353
330
352
100
AcDbEntity
  8
PIEZA
 62
     7
420
 16777215
370
     9
100
AcDbVertex
100
AcDb2dVertex
 10
114.0284294163344
 20
190.7657426613884
 30
0.0
  0
VERTEX
  5
354
330
352
100
AcDbEntity
  8
PIEZA
 62
     7
420
 16777215
370
     9
100
AcDbVertex
100
AcDb2dVertex
 10
66.42337957726824
 20
191.3042114409578
 30
0.0
  0
SEQEND
  5
355
330
352
100
AcDbEntity
  8
PIEZA
370
     9
  0
ENDBLK
  5
351
330
34E
100
AcDbEntity
  8
0
100
AcDbBlockEnd
  0
BLOCK
  5
358
330
356
100
AcDbEntity
  8
0
100
AcDbBlockBegin
  2
block 125
 70
     0
 71
     0
 10
0.0
 20
0.0
 30
0.0
  3
block 125
  1

  0
POLYLINE
  5
35A
330
356
100
AcDbEntity
  8
PIEZA
 62
     7
420
 16777215
370
     9
100
AcDb2dPolyline
 66
     1
 10
0.0
 20
0.0
 30
0.0
  0
VERTEX
  5
35B
330
35A
100
AcDbEntity
  8
PIEZA
 62
     7
420
 16777215
370
     9
100
AcDbVertex
100
AcDb2dVertex
 10
114.0315300043166
 20
192.0705734372164
 30
0.0
  0
VERTEX
  5
35C
330
35A
100
AcDbEntity
  8
PIEZA
 62
     7
420
 16777215
370
     9
100
AcDbVertex
100
AcDb2dVertex
 10
69.41286315673949
 20
192.5606385932864
 30
0.0
  0
SEQEND
  5
35D
330
35A
100
AcDbEntity
  8
PIEZA
370
     9
  0
ENDBLK
  5
359
330
356
100
AcDbEntity
  8
0
100
AcDbBlockEnd
  0
BLOCK
  5
360
330
35E
100
AcDbEntity
  8
0
100
AcDbBlockBegin
  2
block 126
 70
     0
 71
     0
 10
0.0
 20
0.0
 30
0.0
  3
block 126
  1

  0
SPLINE
  5
362
330
35E
100
AcDbEntity
  8
PIEZA
 62
     7
420
 16777215
370
     9
100
AcDbSpline
210
0.0
220
0.0
230
1.0
 70
     8
 71
     3
 72
     8
 73
     4
 74
     0
 42
0.0000000001
 43
0.0000000001
 40
0.0
 40
0.0
 40
0.0
 40
0.0
 40
1.0
 40
1.0
 40
1.0
 40
1.0
 10
115.2721097069586
 20
191.3812093758482
 30
0.0
 10
115.0454222744847
 20
191.7796349315565
 30
0.0
 10
114.4897280061255
 20
192.0883156906699
 30
0.0
 10
114.0315300043166
 20
192.0705734372164
 30
0.0
  0
ENDBLK
  5
361
330
35E
100
AcDbEntity
  8
0
100
AcDbBlockEnd
  0
BLOCK
  5
365
330
363
100
AcDbEntity
  8
0
100
AcDbBlockBegin
  2
block 127
 70
     0
 71
     0
 10
0.0
 20
0.0
 30
0.0
  3
block 127
  1

  0
SPLINE
  5
367
330
363
100
AcDbEntity
  8
PIEZA
 62
     7
420
 16777215
370
     9
100
AcDbSpline
210
0.0
220
0.0
230
1.0
 70
     8
 71
     3
 72
     8
 73
     4
 74
     0
 42
0.0000000001
 43
0.0000000001
 40
0.0
 40
0.0
 40
0.0
 40
0.0
 40
1.0
 40
1.0
 40
1.0
 40
1.0
 10
114.174501561272
 20
190.6770313941209
 30
0.0
 10
114.1448737205535
 20
190.7288801153782
 30
0.0
 10
114.0728711774121
 20
190.7688432493705
 30
0.0
 10
114.0132709861994
 20
190.7666039358279
 30
0.0
  0
ENDBLK
  5
366
330
363
100
AcDbEntity
  8
0
100
AcDbBlockEnd
  0
BLOCK
  5
36A
330
368
100
AcDbEntity
  8
0
100
AcDbBlockBegin
  2
block 128
 70
     0
 71
     0
 10
0.0
 20
0.0
 30
0.0
  3
block 128
  1

  0
SPLINE
  5
36C
330
368
100
AcDbEntity
  8
PIEZA
 62
     7
420
 16777215
370
     9
100
AcDbSpline
210
0.0
220
0.0
230
1.0
 70
     8
 71
     3
 72
     8
 73
     4
 74
     0
 42
0.0000000001
 43
0.0000000001
 40
0.0
 40
0.0
 40
0.0
 40
0.0
 40
1.0
 40
1.0
 40
1.0
 40
1.0
 10
64.37509670527211
 20
196.1235586945704
 30
0.0
 10
63.47299785734985
 20
196.4112243573602
 30
0.0
 10
61.75475535056645
 20
196.678563943378
 30
0.0
 10
60.80804248667858
 20
196.6787361982659
 30
0.0
  0
ENDBLK
  5
36B
330
368
100
AcDbEntity
  8
0
100
AcDbBlockEnd
  0
BLOCK
  5
36F
330
36D
100
AcDbEntity
  8
0
100
AcDbBlockBegin
  2
block 129
 70
     0
 71
     0
 10
0.0
 20
0.0
 30
0.0
  3
block 129
  1

  0
SPLINE
  5
371
330
36D
100
AcDbEntity
  8
PIEZA
 62
     7
420
 16777215
370
     9
100
AcDbSpline
210
0.0
220
0.0
230
1.0
 70
     8
 71
     3
 72
     8
 73
     4
 74
     0
 42
0.0000000001
 43
0.0000000001
 40
0.0
 40
0.0
 40
0.0
 40
0.0
 40
1.0
 40
1.0
 40
1.0
 40
1.0
 10
64.64639815371159
 20
197.0852577337054
 30
0.0
 10
63.54362236138806
 20
197.4411363321028
 30
0.0
 10
61.46174978625181
 20
197.7293187595563
 30
0.0
 10
60.30368017491299
 20
197.6864272924697
 30
0.0
  0
ENDBLK
  5
370
330
36D
100
AcDbEntity
  8
0
100
AcDbBlockEnd
  0
BLOCK
  5
374
330
372
100
AcDbEntity
  8
0
100
AcDbBlockBegin
  2
block 130
 70
     0
 71
     0
 10
0.0
 20
0.0
 30
0.0
  3
block 130
  1

  0
SPLINE
  5
376
330
372
100
AcDbEntity
  8
PIEZA
 62
     7
420
 16777215
370
     9
100
AcDbSpline
210
0.0
220
0.0
230
1.0
 70
     8
 71
     3
 72
     8
 73
     4
 74
     0
 42
0.0000000001
 43
0.0000000001
 40
0.0
 40
0.0
 40
0.0
 40
0.0
 40
1.0
 40
1.0
 40
1.0
 40
1.0
 10
67.98418111651277
 20
193.6808121292877
 30
0.0
 10
67.66482055434973
 20
195.2147419060201
 30
0.0
 10
66.17378224470392
 20
196.7355803112723
 30
0.0
 10
64.64639815371159
 20
197.0852577337054
 30
0.0
  0
ENDBLK
  5
375
330
372
100
AcDbEntity
  8
0
100
AcDbBlockEnd
  0
BLOCK
  5
379
330
377
100
AcDbEntity
  8
0
100
AcDbBlockBegin
  2
block 131
 70
     0
 71
     0
 10
0.0
 20
0.0
 30
0.0
  3
block 131
  1

  0
SPLINE
  5
37B
330
377
100
AcDbEntity
  8
PIEZA
 62
     7
420
 16777215
370
     9
100
AcDbSpline
210
0.0
220
0.0
230
1.0
 70
     8
 71
     3
 72
     8
 73
     4
 74
     0
 42
0.0000000001
 43
0.0000000001
 40
0.0
 40
0.0
 40
0.0
 40
0.0
 40
1.0
 40
1.0
 40
1.0
 40
1.0
 10
67.98418111651277
 20
193.6808121292877
 30
0.0
 10
68.12921973212296
 20
193.0482921809259
 30
0.0
 10
68.7641512489153
 20
192.5504755549004
 30
0.0
 10
69.41286315673949
 20
192.5606385932864
 30
0.0
  0
ENDBLK
  5
37A
330
377
100
AcDbEntity
  8
0
100
AcDbBlockEnd
  0
BLOCK
  5
37E
330
37C
100
AcDbEntity
  8
0
100
AcDbBlockBegin
  2
block 132
 70
     0
 71
     0
 10
0.0
 20
0.0
 30
0.0
  3
block 132
  1

  0
SPLINE
  5
380
330
37C
100
AcDbEntity
  8
PIEZA
 62
     7
420
 16777215
370
     9
100
AcDbSpline
210
0.0
220
0.0
230
1.0
 70
     8
 71
     3
 72
     8
 73
     4
 74
     0
 42
0.0000000001
 43
0.0000000001
 40
0.0
 40
0.0
 40
0.0
 40
0.0
 40
1.0
 40
1.0
 40
1.0
 40
1.0
 10
67.13823736204529
 20
192.5957785904176
 30
0.0
 10
67.13875412670897
 20
194.1772507162099
 30
0.0
 10
65.91057677599564
 20
195.7452869607462
 30
0.0
 10
64.37509670527211
 20
196.1235586945704
 30
0.0
  0
ENDBLK
  5
37F
330
37C
100
AcDbEntity
  8
0
100
AcDbBlockEnd
  0
BLOCK
  5
383
330
381
100
AcDbEntity
  8
0
100
AcDbBlockBegin
  2
block 133
 70
     0
 71
     0
 10
0.0
 20
0.0
 30
0.0
  3
block 133
  1

  0
SPLINE
  5
385
330
381
100
AcDbEntity
  8
PIEZA
 62
     7
420
 16777215
370
     9
100
AcDbSpline
210
0.0
220
0.0
230
1.0
 70
     8
 71
     3
 72
    11
 73
     7
 74
     0
 42
0.0000000001
 43
0.0000000001
 40
0.0
 40
0.0
 40
0.0
 40
0.0
 40
1.0
 40
1.0
 40
1.0
 40
2.0
 40
2.0
 40
2.0
 40
2.0
 10
66.83868611199051
 20
192.2860643019769
 30
0.0
 10
67.00422305926057
 20
192.2860643019769
 30
0.0
 10
67.13840961693317
 20
192.4202508596495
 30
0.0
 10
67.13840961693317
 20
192.5857878069195
 30
0.0
 10
67.13858187182107
 20
192.5881993753501
 30
0.0
 10
67.13840961693317
 20
192.5931947670992
 30
0.0
 10
67.13823736204529
 20
192.5957785904176
 30
0.0
  0
ENDBLK
  5
384
330
381
100
AcDbEntity
  8
0
100
AcDbBlockEnd
  0
BLOCK
  5
388
330
386
100
AcDbEntity
  8
0
100
AcDbBlockBegin
  2
block 134
 70
     0
 71
     0
 10
0.0
 20
0.0
 30
0.0
  3
block 134
  1

  0
SPLINE
  5
38A
330
386
100
AcDbEntity
  8
PIEZA
 62
     7
420
 16777215
370
     9
100
AcDbSpline
210
0.0
220
0.0
230
1.0
 70
     8
 71
     3
 72
     8
 73
     4
 74
     0
 42
0.0000000001
 43
0.0000000001
 40
0.0
 40
0.0
 40
0.0
 40
0.0
 40
1.0
 40
1.0
 40
1.0
 40
1.0
 10
63.45198276102628
 20
189.19460582887
 30
0.0
 10
63.69744597628105
 20
189.1861653393629
 30
0.0
 10
63.95014389682753
 20
189.3675497363196
 30
0.0
 10
64.02025163620206
 20
189.6030221680763
 30
0.0
  0
ENDBLK
  5
389
330
386
100
AcDbEntity
  8
0
100
AcDbBlockEnd
  0
BLOCK
  5
38D
330
38B
100
AcDbEntity
  8
0
100
AcDbBlockBegin
  2
block 135
 70
     0
 71
     0
 10
0.0
 20
0.0
 30
0.0
  3
block 135
  1

  0
SPLINE
  5
38F
330
38B
100
AcDbEntity
  8
PIEZA
 62
     7
420
 16777215
370
     9
100
AcDbSpline
210
0.0
220
0.0
230
1.0
 70
     8
 71
     3
 72
     8
 73
     4
 74
     0
 42
0.0000000001
 43
0.0000000001
 40
0.0
 40
0.0
 40
0.0
 40
0.0
 40
1.0
 40
1.0
 40
1.0
 40
1.0
 10
66.42337957726824
 20
191.3042114409578
 30
0.0
 10
65.38606064234597
 20
191.3539931035603
 30
0.0
 10
64.31808033737785
 20
190.5977941456877
 30
0.0
 10
64.02025163620206
 20
189.6030221680763
 30
0.0
  0
ENDBLK
  5
38E
330
38B
100
AcDbEntity
  8
0
100
AcDbBlockEnd
  0
BLOCK
  5
392
330
390
100
AcDbEntity
  8
0
100
AcDbBlockBegin
  2
block 136
 70
     0
 71
     0
 10
0.0
 20
0.0
 30
0.0
  3
block 136
  1

  0
SPLINE
  5
394
330
390
100
AcDbEntity
  8
PIEZA
 62
     7
420
 16777215
370
     9
100
AcDbSpline
210
0.0
220
0.0
230
1.0
 70
     8
 71
     3
 72
     8
 73
     4
 74
     0
 42
0.0000000001
 43
0.0000000001
 40
0.0
 40
0.0
 40
0.0
 40
0.0
 40
1.0
 40
1.0
 40
1.0
 40
1.0
 10
66.38772281547332
 20
192.2860643019769
 30
0.0
 10
65.31801996162622
 20
192.3423916503195
 30
0.0
 10
64.01456722490143
 20
191.6375246490406
 30
0.0
 10
63.47609844533201
 20
190.7114823717005
 30
0.0
  0
ENDBLK
  5
393
330
390
100
AcDbEntity
  8
0
100
AcDbBlockEnd
  0
BLOCK
  5
397
330
395
100
AcDbEntity
  8
0
100
AcDbBlockBegin
  2
block 137
 70
     0
 71
     0
 10
0.0
 20
0.0
 30
0.0
  3
block 137
  1

  0
SPLINE
  5
399
330
395
100
AcDbEntity
  8
PIEZA
 62
     7
420
 16777215
370
     9
100
AcDbSpline
210
0.0
220
0.0
230
1.0
 70
     8
 71
     3
 72
     8
 73
     4
 74
     0
 42
0.0000000001
 43
0.0000000001
 40
0.0
 40
0.0
 40
0.0
 40
0.0
 40
1.0
 40
1.0
 40
1.0
 40
1.0
 10
63.2252953285524
 20
190.5759177749247
 30
0.0
 10
63.31745169357787
 20
190.5710946380635
 30
0.0
 10
63.42976188048743
 20
190.6317283586037
 30
0.0
 10
63.47609844533201
 20
190.7114823717005
 30
0.0
  0
ENDBLK
  5
398
330
395
100
AcDbEntity
  8
0
100
AcDbBlockEnd
  0
BLOCK
  5
39C
330
39A
100
AcDbEntity
  8
0
100
AcDbBlockBegin
  2
block 138
 70
     0
 71
     0
 10
0.0
 20
0.0
 30
0.0
  3
block 138
  1

  0
POLYLINE
  5
39E
330
39A
100
AcDbEntity
  8
PIEZA
 62
     7
420
 16777215
370
     9
100
AcDb2dPolyline
 66
     1
 10
0.0
 20
0.0
 30
0.0
  0
VERTEX
  5
39F
330
39E
100
AcDbEntity
  8
PIEZA
 62
     7
420
 16777215
370
     9
100
AcDbVertex
100
AcDb2dVertex
 10
60.39497526549897
 20
196.2863395636341
 30
0.0
  0
VERTEX
  5
3A0
330
39E
100
AcDbEntity
  8
PIEZA
 62
     7
420
 16777215
370
     9
100
AcDbVertex
100
AcDb2dVertex
 10
60.30057958693082
 20
190.8808089265043
 30
0.0
  0
SEQEND
  5
3A1
330
39E
100
AcDbEntity
  8
PIEZA
370
     9
  0
ENDBLK
  5
39D
330
39A
100
AcDbEntity
  8
0
100
AcDbBlockEnd
  0
BLOCK
  5
3A4
330
3A2
100
AcDbEntity
  8
0
100
AcDbBlockBegin
  2
block 139
 70
     0
 71
     0
 10
0.0
 20
0.0
 30
0.0
  3
block 139
  1

  0
SPLINE
  5
3A6
330
3A2
100
AcDbEntity
  8
PIEZA
 62
     7
420
 16777215
370
     9
100
AcDbSpline
210
0.0
220
0.0
230
1.0
 70
     8
 71
     3
 72
    11
 73
     7
 74
     0
 42
0.0000000001
 43
0.0000000001
 40
0.0
 40
0.0
 40
0.0
 40
0.0
 40
1.0
 40
1.0
 40
1.0
 40
2.0
 40
2.0
 40
2.0
 40
2.0
 10
60.30057958693082
 20
190.8808089265043
 30
0.0
 10
60.29782350872446
 20
190.7154442341221
 30
0.0
 10
60.42959849796649
 20
190.578846108019
 30
0.0
 10
60.59513544523654
 20
190.5759177749247
 30
0.0
 10
60.59634122945183
 20
190.5759177749247
 30
0.0
 10
60.59909730765821
 20
190.5759177749247
 30
0.0
 10
60.60030309187349
 20
190.5759177749247
 30
0.0
  0
ENDBLK
  5
3A5
330
3A2
100
AcDbEntity
  8
0
100
AcDbBlockEnd
  0
BLOCK
  5
3A9
330
3A7
100
AcDbEntity
  8
0
100
AcDbBlockBegin
  2
block 140
 70
     0
 71
     0
 10
0.0
 20
0.0
 30
0.0
  3
block 140
  1

  0
POLYLINE
  5
3AB
330
3A7
100
AcDbEntity
  8
PIEZA
 62
     7
420
 16777215
370
     9
100
AcDb2dPolyline
 66
     1
 10
0.0
 20
0.0
 30
0.0
  0
VERTEX
  5
3AC
330
3AB
100
AcDbEntity
  8
PIEZA
 62
     7
420
 16777215
370
     9
100
AcDbVertex
100
AcDb2dVertex
 10
59.40433740519709
 20
196.7870845227538
 30
0.0
  0
VERTEX
  5
3AD
330
3AB
100
AcDbEntity
  8
PIEZA
 62
     7
420
 16777215
370
     9
100
AcDbVertex
100
AcDb2dVertex
 10
59.28238094456525
 20
189.7942250936432
 30
0.0
  0
SEQEND
  5
3AE
330
3AB
100
AcDbEntity
  8
PIEZA
370
     9
  0
ENDBLK
  5
3AA
330
3A7
100
AcDbEntity
  8
0
100
AcDbBlockEnd
  0
BLOCK
  5
3B1
330
3AF
100
AcDbEntity
  8
0
100
AcDbBlockBegin
  2
block 141
 70
     0
 71
     0
 10
0.0
 20
0.0
 30
0.0
  3
block 141
  1

  0
POLYLINE
  5
3B3
330
3AF
100
AcDbEntity
  8
PIEZA
 62
     7
420
 16777215
370
     9
100
AcDb2dPolyline
 66
     1
 10
0.0
 20
0.0
 30
0.0
  0
VERTEX
  5
3B4
330
3B3
100
AcDbEntity
  8
PIEZA
 62
     7
420
 16777215
370
     9
100
AcDbVertex
100
AcDb2dVertex
 10
60.60030309187349
 20
190.5759177749247
 30
0.0
  0
VERTEX
  5
3B5
330
3B3
100
AcDbEntity
  8
PIEZA
 62
     7
420
 16777215
370
     9
100
AcDbVertex
100
AcDb2dVertex
 10
63.2252953285524
 20
190.5759177749247
 30
0.0
  0
SEQEND
  5
3B6
330
3B3
100
AcDbEntity
  8
PIEZA
370
     9
  0
ENDBLK
  5
3B2
330
3AF
100
AcDbEntity
  8
0
100
AcDbBlockEnd
  0
BLOCK
  5
3B9
330
3B7
100
AcDbEntity
  8
0
100
AcDbBlockBegin
  2
block 142
 70
     0
 71
     0
 10
0.0
 20
0.0
 30
0.0
  3
block 142
  1

  0
SPLINE
  5
3BB
330
3B7
100
AcDbEntity
  8
PIEZA
 62
     7
420
 16777215
370
     9
100
AcDbSpline
210
0.0
220
0.0
230
1.0
 70
     8
 71
     3
 72
    11
 73
     7
 74
     0
 42
0.0000000001
 43
0.0000000001
 40
0.0
 40
0.0
 40
0.0
 40
0.0
 40
1.0
 40
1.0
 40
1.0
 40
2.0
 40
2.0
 40
2.0
 40
2.0
 10
59.28238094456525
 20
189.7942250936432
 30
0.0
 10
59.28238094456525
 20
189.4631511991031
 30
0.0
 10
59.55075405991046
 20
189.19460582887
 30
0.0
 10
59.88182795445058
 20
189.19460582887
 30
0.0
 10
59.88182795445058
 20
189.19460582887
 30
0.0
 10
59.88182795445058
 20
189.19460582887
 30
0.0
 10
59.88182795445058
 20
189.19460582887
 30
0.0
  0
ENDBLK
  5
3BA
330
3B7
100
AcDbEntity
  8
0
100
AcDbBlockEnd
  0
BLOCK
  5
3BE
330
3BC
100
AcDbEntity
  8
0
100
AcDbBlockBegin
  2
block 143
 70
     0
 71
     0
 10
0.0
 20
0.0
 30
0.0
  3
block 143
  1

  0
SPLINE
  5
3C0
330
3BC
100
AcDbEntity
  8
PIEZA
 62
     7
420
 16777215
370
     9
100
AcDbSpline
210
0.0
220
0.0
230
1.0
 70
     8
 71
     3
 72
    11
 73
     7
 74
     0
 42
0.0000000001
 43
0.0000000001
 40
0.0
 40
0.0
 40
0.0
 40
0.0
 40
1.0
 40
1.0
 40
1.0
 40
2.0
 40
2.0
 40
2.0
 40
2.0
 10
60.30368017491299
 20
197.6864272924697
 30
0.0
 10
59.80706933310281
 20
197.6864272924697
 30
0.0
 10
59.40433740519709
 20
197.2838676194519
 30
0.0
 10
59.40433740519709
 20
196.7870845227538
 30
0.0
 10
59.40433740519709
 20
196.7870845227538
 30
0.0
 10
59.40433740519709
 20
196.7870845227538
 30
0.0
 10
59.40433740519709
 20
196.7870845227538
 30
0.0
  0
ENDBLK
  5
3BF
330
3BC
100
AcDbEntity
  8
0
100
AcDbBlockEnd
  0
BLOCK
  5
3C3
330
3C1
100
AcDbEntity
  8
0
100
AcDbBlockBegin
  2
block 144
 70
     0
 71
     0
 10
0.0
 20
0.0
 30
0.0
  3
block 144
  1

  0
SPLINE
  5
3C5
330
3C1
100
AcDbEntity
  8
PIEZA
 62
     7
420
 16777215
370
     9
100
AcDbSpline
210
0.0
220
0.0
230
1.0
 70
     8
 71
     3
 72
    11
 73
     7
 74
     0
 42
0.0000000001
 43
0.0000000001
 40
0.0
 40
0.0
 40
0.0
 40
0.0
 40
1.0
 40
1.0
 40
1.0
 40
2.0
 40
2.0
 40
2.0
 40
2.0
 10
60.80804248667858
 20
196.6787361982659
 30
0.0
 10
60.58738397528113
 20
196.6861431584455
 30
0.0
 10
60.40255448056649
 20
196.5133715058838
 30
0.0
 10
60.39514752038687
 20
196.2927129944863
 30
0.0
 10
60.39514752038687
 20
196.2911627004952
 30
0.0
 10
60.39497526549897
 20
196.2878898576252
 30
0.0
 10
60.39497526549897
 20
196.2863395636341
 30
0.0
  0
ENDBLK
  5
3C4
330
3C1
100
AcDbEntity
  8
0
100
AcDbBlockEnd
  0
BLOCK
  5
3C8
330
3C6
100
AcDbEntity
  8
0
100
AcDbBlockBegin
  2
block 145
 70
     0
 71
     0
 10
0.0
 20
0.0
 30
0.0
  3
block 145
  1

  0
POLYLINE
  5
3CA
330
3C6
100
AcDbEntity
  8
PIEZA
 62
     7
420
 16777215
370
     9
100
AcDb2dPolyline
 66
     1
 10
0.0
 20
0.0
 30
0.0
  0
VERTEX
  5
3CB
330
3CA
100
AcDbEntity
  8
PIEZA
 62
     7
420
 16777215
370
     9
100
AcDbVertex
100
AcDb2dVertex
 10
66.38772281547332
 20
192.2860643019769
 30
0.0
  0
VERTEX
  5
3CC
330
3CA
100
AcDbEntity
  8
PIEZA
 62
     7
420
 16777215
370
     9
100
AcDbVertex
100
AcDb2dVertex
 10
66.83868611199051
 20
192.2860643019769
 30
0.0
  0
SEQEND
  5
3CD
330
3CA
100
AcDbEntity
  8
PIEZA
370
     9
  0
ENDBLK
  5
3C9
330
3C6
100
AcDbEntity
  8
0
100
AcDbBlockEnd
  0
BLOCK
  5
3D0
330
3CE
100
AcDbEntity
  8
0
100
AcDbBlockBegin
  2
block 146
 70
     0
 71
     0
 10
0.0
 20
0.0
 30
0.0
  3
block 146
  1

  0
POLYLINE
  5
3D2
330
3CE
100
AcDbEntity
  8
PIEZA
 62
     7
420
 16777215
370
     9
100
AcDb2dPolyline
 66
     1
 10
0.0
 20
0.0
 30
0.0
  0
VERTEX
  5
3D3
330
3D2
100
AcDbEntity
  8
PIEZA
 62
     7
420
 16777215
370
     9
100
AcDbVertex
100
AcDb2dVertex
 10
119.231560560184
 20
197.6864272924697
 30
0.0
  0
VERTEX
  5
3D4
330
3D2
100
AcDbEntity
  8
PIEZA
 62
     7
420
 16777215
370
     9
100
AcDbVertex
100
AcDb2dVertex
 10
60.30368017491299
 20
197.6864272924697
 30
0.0
  0
SEQEND
  5
3D5
330
3D2
100
AcDbEntity
  8
PIEZA
370
     9
  0
ENDBLK
  5
3D1
330
3CE
100
AcDbEntity
  8
0
100
AcDbBlockEnd
  0
BLOCK
  5
3D8
330
3D6
100
AcDbEntity
  8
0
100
AcDbBlockBegin
  2
block 147
 70
     0
 71
     0
 10
0.0
 20
0.0
 30
0.0
  3
block 147
  1

  0
POLYLINE
  5
3DA
330
3D6
100
AcDbEntity
  8
PIEZA
 62
     7
420
 16777215
370
     9
100
AcDb2dPolyline
 66
     1
 10
0.0
 20
0.0
 30
0.0
  0
VERTEX
  5
3DB
330
3DA
100
AcDbEntity
  8
PIEZA
 62
     7
420
 16777215
370
     9
100
AcDbVertex
100
AcDb2dVertex
 10
59.88182795445058
 20
189.19460582887
 30
0.0
  0
VERTEX
  5
3DC
330
3DA
100
AcDbEntity
  8
PIEZA
 62
     7
420
 16777215
370
     9
100
AcDbVertex
100
AcDb2dVertex
 10
63.45198276102628
 20
189.19460582887
 30
0.0
  0
SEQEND
  5
3DD
330
3DA
100
AcDbEntity
  8
PIEZA
370
     9
  0
ENDBLK
  5
3D9
330
3D6
100
AcDbEntity
  8
0
100
AcDbBlockEnd
  0
BLOCK
  5
3E0
330
3DE
100
AcDbEntity
  8
0
100
AcDbBlockBegin
  2
block 148
 70
     0
 71
     0
 10
0.0
 20
0.0
 30
0.0
  3
block 148
  1

  0
POLYLINE
  5
3E2
330
3DE
100
AcDbEntity
  8
PIEZA
 62
     7
420
 16777215
370
     9
100
AcDb2dPolyline
 66
     1
 10
0.0
 20
0.0
 30
0.0
  0
VERTEX
  5
3E3
330
3E2
100
AcDbEntity
  8
PIEZA
 62
     7
420
 16777215
370
     9
100
AcDbVertex
100
AcDb2dVertex
 10
63.45198276102628
 20
189.19460582887
 30
0.0
  0
VERTEX
  5
3E4
330
3E2
100
AcDbEntity
  8
PIEZA
 62
     7
420
 16777215
370
     9
100
AcDbVertex
100
AcDb2dVertex
 10
114.7798052373459
 20
189.19460582887
 30
0.0
  0
SEQEND
  5
3E5
330
3E2
100
AcDbEntity
  8
PIEZA
370
     9
  0
ENDBLK
  5
3E1
330
3DE
100
AcDbEntity
  8
0
100
AcDbBlockEnd
  0
BLOCK
  5
3E8
330
3E6
100
AcDbEntity
  8
0
100
AcDbBlockBegin
  2
block 149
 70
     0
 71
     0
 10
0.0
 20
0.0
 30
0.0
  3
block 149
  1

  0
POLYLINE
  5
3EA
330
3E6
100
AcDbEntity
  8
PIEZA
 62
     7
420
 16777215
370
     9
100
AcDb2dPolyline
 66
     1
 10
0.0
 20
0.0
 30
0.0
  0
VERTEX
  5
3EB
330
3EA
100
AcDbEntity
  8
PIEZA
 62
     7
420
 16777215
370
     9
100
AcDbVertex
100
AcDb2dVertex
 10
119.231560560184
 20
189.19460582887
 30
0.0
  0
VERTEX
  5
3EC
330
3EA
100
AcDbEntity
  8
PIEZA
 62
     7
420
 16777215
370
     9
100
AcDbVertex
100
AcDb2dVertex
 10
119.2322495797356
 20
189.19460582887
 30
0.0
  0
SEQEND
  5
3ED
330
3EA
100
AcDbEntity
  8
PIEZA
370
     9
  0
ENDBLK
  5
3E9
330
3E6
100
AcDbEntity
  8
0
100
AcDbBlockEnd
  0
BLOCK
  5
3F0
330
3EE
100
AcDbEntity
  8
0
100
AcDbBlockBegin
  2
block 150
 70
     0
 71
     0
 10
0.0
 20
0.0
 30
0.0
  3
block 150
  1

  0
POLYLINE
  5
3F2
330
3EE
100
AcDbEntity
  8
PIEZA
 62
     7
420
 16777215
370
     9
100
AcDb2dPolyline
 66
     1
 10
0.0
 20
0.0
 30
0.0
  0
VERTEX
  5
3F3
330
3F2
100
AcDbEntity
  8
PIEZA
 62
     7
420
 16777215
370
     9
100
AcDbVertex
100
AcDb2dVertex
 10
116.0837747387344
 20
189.19460582887
 30
0.0
  0
VERTEX
  5
3F4
330
3F2
100
AcDbEntity
  8
PIEZA
 62
     7
420
 16777215
370
     9
100
AcDbVertex
100
AcDb2dVertex
 10
122.3793463816336
 20
189.19460582887
 30
0.0
  0
SEQEND
  5
3F5
330
3F2
100
AcDbEntity
  8
PIEZA
370
     9
  0
ENDBLK
  5
3F1
330
3EE
100
AcDbEntity
  8
0
100
AcDbBlockEnd
  0
BLOCK
  5
3F8
330
3F6
100
AcDbEntity
  8
0
100
AcDbBlockBegin
  2
block 151
 70
     0
 71
     0
 10
0.0
 20
0.0
 30
0.0
  3
block 151
  1

  0
POLYLINE
  5
3FA
330
3F6
100
AcDbEntity
  8
PIEZA
 62
     7
420
 16777215
370
     9
100
AcDb2dPolyline
 66
     1
 10
0.0
 20
0.0
 30
0.0
  0
VERTEX
  5
3FB
330
3FA
100
AcDbEntity
  8
PIEZA
 62
     7
420
 16777215
370
     9
100
AcDbVertex
100
AcDb2dVertex
 10
122.3793463816336
 20
189.19460582887
 30
0.0
  0
VERTEX
  5
3FC
330
3FA
100
AcDbEntity
  8
PIEZA
 62
     7
420
 16777215
370
     9
100
AcDbVertex
100
AcDb2dVertex
 10
123.6833158830221
 20
189.19460582887
 30
0.0
  0
SEQEND
  5
3FD
330
3FA
100
AcDbEntity
  8
PIEZA
370
     9
  0
ENDBLK
  5
3F9
330
3F6
100
AcDbEntity
  8
0
100
AcDbBlockEnd
  0
BLOCK
  5
400
330
3FE
100
AcDbEntity
  8
0
100
AcDbBlockBegin
  2
block 152
 70
     0
 71
     0
 10
0.0
 20
0.0
 30
0.0
  3
block 152
  1

  0
POLYLINE
  5
402
330
3FE
100
AcDbEntity
  8
PIEZA
 62
     7
420
 16777215
370
     9
100
AcDb2dPolyline
 66
     1
 10
0.0
 20
0.0
 30
0.0
  0
VERTEX
  5
403
330
402
100
AcDbEntity
  8
PIEZA
 62
     7
420
 16777215
370
     9
100
AcDbVertex
100
AcDb2dVertex
 10
114.7798052373459
 20
189.19460582887
 30
0.0
  0
VERTEX
  5
404
330
402
100
AcDbEntity
  8
PIEZA
 62
     7
420
 16777215
370
     9
100
AcDbVertex
100
AcDb2dVertex
 10
116.0837747387344
 20
189.19460582887
 30
0.0
  0
SEQEND
  5
405
330
402
100
AcDbEntity
  8
PIEZA
370
     9
  0
ENDBLK
  5
401
330
3FE
100
AcDbEntity
  8
0
100
AcDbBlockEnd
  0
BLOCK
  5
409
330
407
100
AcDbEntity
  8
0
100
AcDbBlockBegin
  2
block 153
 70
     0
 71
     0
 10
0.0
 20
0.0
 30
0.0
  3
block 153
  1

  0
POLYLINE
  5
40B
330
407
100
AcDbEntity
  8
EJES
  6
AI-Linetype-1
 62
     7
420
 16777215
370
     9
100
AcDb2dPolyline
 66
     1
 10
0.0
 20
0.0
 30
0.0
  0
VERTEX
  5
40C
330
40B
100
AcDbEntity
  8
EJES
  6
AI-Linetype-1
 62
     7
420
 16777215
370
     9
100
AcDbVertex
100
AcDb2dVertex
 10
119.231560560184
 20
187.2398573610025
 30
0.0
  0
VERTEX
  5
40D
330
40B
100
AcDbEntity
  8
EJES
  6
AI-Linetype-1
 62
     7
420
 16777215
370
     9
100
AcDbVertex
100
AcDb2dVertex
 10
119.231560560184
 20
193.9047434835552
 30
0.0
  0
SEQEND
  5
40E
330
40B
100
AcDbEntity
  8
EJES
  6
AI-Linetype-1
370
     9
  0
ENDBLK
  5
40A
330
407
100
AcDbEntity
  8
0
100
AcDbBlockEnd
  0
BLOCK
  5
412
330
410
100
AcDbEntity
  8
0
100
AcDbBlockBegin
  2
block 154
 70
     0
 71
     0
 10
0.0
 20
0.0
 30
0.0
  3
block 154
  1

  0
POLYLINE
  5
414
330
410
100
AcDbEntity
  8
EJES
  6
AI-Linetype-2
 62
     7
420
 16777215
370
     9
100
AcDb2dPolyline
 66
     1
 10
0.0
 20
0.0
 30
0.0
  0
VERTEX
  5
415
330
414
100
AcDbEntity
  8
EJES
  6
AI-Linetype-2
 62
     7
420
 16777215
370
     9
100
AcDbVertex
100
AcDb2dVertex
 10
119.231560560184
 20
92.72136105778088
 30
0.0
  0
VERTEX
  5
416
330
414
100
AcDbEntity
  8
EJES
  6
AI-Linetype-2
 62
     7
420
 16777215
370
     9
100
AcDbVertex
100
AcDb2dVertex
 10
119.231560560184
 20
104.4185014753882
 30
0.0
  0
SEQEND
  5
417
330
414
100
AcDbEntity
  8
EJES
  6
AI-Linetype-2
370
     9
  0
ENDBLK
  5
413
330
410
100
AcDbEntity
  8
0
100
AcDbBlockEnd
  0
BLOCK
  5
41B
330
419
100
AcDbEntity
  8
0
100
AcDbBlockBegin
  2
block 155
 70
     0
 71
     0
 10
0.0
 20
0.0
 30
0.0
  3
block 155
  1

  0
POLYLINE
  5
41D
330
419
100
AcDbEntity
  8
EJES
  6
AI-Linetype-3
 62
     7
420
 16777215
370
     9
100
AcDb2dPolyline
 66
     1
 10
0.0
 20
0.0
 30
0.0
  0
VERTEX
  5
41E
330
41D
100
AcDbEntity
  8
EJES
  6
AI-Linetype-3
 62
     7
420
 16777215
370
     9
100
AcDbVertex
100
AcDb2dVertex
 10
73.13132942179544
 20
98.56975901169665
 30
0.0
  0
VERTEX
  5
41F
330
41D
100
AcDbEntity
  8
EJES
  6
AI-Linetype-3
 62
     7
420
 16777215
370
     9
100
AcDbVertex
100
AcDb2dVertex
 10
125.0799585140997
 20
98.56975901169665
 30
0.0
  0
SEQEND
  5
420
330
41D
100
AcDbEntity
  8
EJES
  6
AI-Linetype-3
370
     9
  0
ENDBLK
  5
41C
330
419
100
AcDbEntity
  8
0
100
AcDbBlockEnd
  0
BLOCK
  5
425
330
423
100
AcDbEntity
  8
0
100
AcDbBlockBegin
  2
block 156
 70
     0
 71
     0
 10
0.0
 20
0.0
 30
0.0
  3
block 156
  1

  0
POLYLINE
  5
427
330
423
100
AcDbEntity
  8
LINEAS-FINAS
 62
     7
420
 16777215
370
     9
100
AcDb2dPolyline
 66
     1
 10
0.0
 20
0.0
 30
0.0
  0
VERTEX
  5
428
330
427
100
AcDbEntity
  8
LINEAS-FINAS
 62
     7
420
 16777215
370
     9
100
AcDbVertex
100
AcDb2dVertex
 10
114.0315300043166
 20
192.0705734372164
 30
0.0
  0
VERTEX
  5
429
330
427
100
AcDbEntity
  8
LINEAS-FINAS
 62
     7
420
 16777215
370
     9
100
AcDbVertex
100
AcDb2dVertex
 10
124.4315911160514
 20
192.0705734372164
 30
0.0
  0
SEQEND
  5
42A
330
427
100
AcDbEntity
  8
LINEAS-FINAS
370
     9
  0
ENDBLK
  5
426
330
423
100
AcDbEntity
  8
0
100
AcDbBlockEnd
  0
BLOCK
  5
42D
330
42B
100
AcDbEntity
  8
0
100
AcDbBlockBegin
  2
block 157
 70
     0
 71
     0
 10
0.0
 20
0.0
 30
0.0
  3
block 157
  1

  0
POLYLINE
  5
42F
330
42B
100
AcDbEntity
  8
LINEAS-FINAS
 62
     7
420
 16777215
370
     9
100
AcDb2dPolyline
 66
     1
 10
0.0
 20
0.0
 30
0.0
  0
VERTEX
  5
430
330
42F
100
AcDbEntity
  8
LINEAS-FINAS
 62
     7
420
 16777215
370
     9
100
AcDbVertex
100
AcDb2dVertex
 10
116.064137681514
 20
190.1091070287209
 30
0.0
  0
VERTEX
  5
431
330
42F
100
AcDbEntity
  8
LINEAS-FINAS
 62
     7
420
 16777215
370
     9
100
AcDbVertex
100
AcDb2dVertex
 10
122.3989834388539
 20
190.1091070287209
 30
0.0
  0
SEQEND
  5
432
330
42F
100
AcDbEntity
  8
LINEAS-FINAS
370
     9
  0
ENDBLK
  5
42E
330
42B
100
AcDbEntity
  8
0
100
AcDbBlockEnd
  0
BLOCK
  5
436
330
434
100
AcDbEntity
  8
0
100
AcDbBlockBegin
  2
block 158
 70
     0
 71
     0
 10
0.0
 20
0.0
 30
0.0
  3
block 158
  1

  0
INSERT
  5
439
330
434
100
AcDbEntity
  8
COTAS
100
AcDbBlockReference
  2
block 159
 10
0.0
 20
0.0
 30
0.0
  0
INSERT
  5
441
330
434
100
AcDbEntity
  8
COTAS
100
AcDbBlockReference
  2
block 160
 10
0.0
 20
0.0
 30
0.0
  0
INSERT
  5
449
330
434
100
AcDbEntity
  8
COTAS
100
AcDbBlockReference
  2
block 161
 10
0.0
 20
0.0
 30
0.0
  0
INSERT
  5
451
330
434
100
AcDbEntity
  8
COTAS
100
AcDbBlockReference
  2
block 162
 10
0.0
 20
0.0
 30
0.0
  0
INSERT
  5
459
330
434
100
AcDbEntity
  8
COTAS
100
AcDbBlockReference
  2
block 163
 10
0.0
 20
0.0
 30
0.0
  0
INSERT
  5
464
330
434
100
AcDbEntity
  8
COTAS
100
AcDbBlockReference
  2
block 164
 10
0.0
 20
0.0
 30
0.0
  0
INSERT
  5
46F
330
434
100
AcDbEntity
  8
COTAS
100
AcDbBlockReference
  2
block 165
 10
0.0
 20
0.0
 30
0.0
  0
INSERT
  5
474
330
434
100
AcDbEntity
  8
COTAS
100
AcDbBlockReference
  2
block 166
 10
0.0
 20
0.0
 30
0.0
  0
INSERT
  5
47C
330
434
100
AcDbEntity
  8
COTAS
100
AcDbBlockReference
  2
block 167
 10
0.0
 20
0.0
 30
0.0
  0
INSERT
  5
484
330
434
100
AcDbEntity
  8
COTAS
100
AcDbBlockReference
  2
block 168
 10
0.0
 20
0.0
 30
0.0
  0
ENDBLK
  5
437
330
434
100
AcDbEntity
  8
0
100
AcDbBlockEnd
  0
BLOCK
  5
43A
330
438
100
AcDbEntity
  8
0
100
AcDbBlockBegin
  2
block 159
 70
     0
 71
     0
 10
0.0
 20
0.0
 30
0.0
  3
block 159
  1

  0
POLYLINE
  5
43C
330
438
100
AcDbEntity
  8
COTAS
 62
     7
420
 16777215
370
     9
100
AcDb2dPolyline
 66
     1
 10
0.0
 20
0.0
 30
0.0
  0
VERTEX
  5
43D
330
43C
100
AcDbEntity
  8
COTAS
 62
     7
420
 16777215
370
     9
100
AcDbVertex
100
AcDb2dVertex
 10
116.1337286562248
 20
188.6950666539655
 30
0.0
  0
VERTEX
  5
43E
330
43C
100
AcDbEntity
  8
COTAS
 62
     7
420
 16777215
370
     9
100
AcDbVertex
100
AcDb2dVertex
 10
116.1337286562248
 20
183.1179701484892
 30
0.0
  0
SEQEND
  5
43F
330
43C
100
AcDbEntity
  8
COTAS
370
     9
  0
ENDBLK
  5
43B
330
438
100
AcDbEntity
  8
0
100
AcDbBlockEnd
  0
BLOCK
  5
442
330
440
100
AcDbEntity
  8
0
100
AcDbBlockBegin
  2
block 160
 70
     0
 71
     0
 10
0.0
 20
0.0
 30
0.0
  3
block 160
  1

  0
POLYLINE
  5
444
330
440
100
AcDbEntity
  8
COTAS
 62
     7
420
 16777215
370
     9
100
AcDb2dPolyline
 66
     1
 10
0.0
 20
0.0
 30
0.0
  0
VERTEX
  5
445
330
444
100
AcDbEntity
  8
COTAS
 62
     7
420
 16777215
370
     9
100
AcDbVertex
100
AcDb2dVertex
 10
122.3283589348157
 20
188.6950666539655
 30
0.0
  0
VERTEX
  5
446
330
444
100
AcDbEntity
  8
COTAS
 62
     7
420
 16777215
370
     9
100
AcDbVertex
100
AcDb2dVertex
 10
122.3283589348157
 20
183.1179701484892
 30
0.0
  0
SEQEND
  5
447
330
444
100
AcDbEntity
  8
COTAS
370
     9
  0
ENDBLK
  5
443
330
440
100
AcDbEntity
  8
0
100
AcDbBlockEnd
  0
BLOCK
  5
44A
330
448
100
AcDbEntity
  8
0
100
AcDbBlockBegin
  2
block 161
 70
     0
 71
     0
 10
0.0
 20
0.0
 30
0.0
  3
block 161
  1

  0
POLYLINE
  5
44C
330
448
100
AcDbEntity
  8
COTAS
 62
     7
420
 16777215
370
     9
100
AcDb2dPolyline
 66
     1
 10
0.0
 20
0.0
 30
0.0
  0
VERTEX
  5
44D
330
44C
100
AcDbEntity
  8
COTAS
 62
     7
420
 16777215
370
     9
100
AcDbVertex
100
AcDb2dVertex
 10
117.9320696858808
 20
184.1170484982981
 30
0.0
  0
VERTEX
  5
44E
330
44C
100
AcDbEntity
  8
COTAS
 62
     7
420
 16777215
370
     9
100
AcDbVertex
100
AcDb2dVertex
 10
120.5300179051597
 20
184.1170484982981
 30
0.0
  0
SEQEND
  5
44F
330
44C
100
AcDbEntity
  8
COTAS
370
     9
  0
ENDBLK
  5
44B
330
448
100
AcDbEntity
  8
0
100
AcDbBlockEnd
  0
BLOCK
  5
452
330
450
100
AcDbEntity
  8
0
100
AcDbBlockBegin
  2
block 162
 70
     0
 71
     0
 10
0.0
 20
0.0
 30
0.0
  3
block 162
  1

  0
POLYLINE
  5
454
330
450
100
AcDbEntity
  8
COTAS
 62
     7
420
 16777215
370
     9
100
AcDb2dPolyline
 66
     1
 10
0.0
 20
0.0
 30
0.0
  0
VERTEX
  5
455
330
454
100
AcDbEntity
  8
COTAS
 62
     7
420
 16777215
370
     9
100
AcDbVertex
100
AcDb2dVertex
 10
122.3283589348157
 20
184.1170484982981
 30
0.0
  0
VERTEX
  5
456
330
454
100
AcDbEntity
  8
COTAS
 62
     7
420
 16777215
370
     9
100
AcDbVertex
100
AcDb2dVertex
 10
124.1266999644717
 20
184.1170484982981
 30
0.0
  0
SEQEND
  5
457
330
454
100
AcDbEntity
  8
COTAS
370
     9
  0
ENDBLK
  5
453
330
450
100
AcDbEntity
  8
0
100
AcDbBlockEnd
  0
BLOCK
  5
45A
330
458
100
AcDbEntity
  8
0
100
AcDbBlockBegin
  2
block 163
 70
     0
 71
     0
 10
0.0
 20
0.0
 30
0.0
  3
block 163
  1

  0
POLYLINE
  5
45C
330
458
100
AcDbEntity
  8
COTAS
370
     0
100
AcDb2dPolyline
 66
     1
 10
0.0
 20
0.0
 30
0.0
  0
VERTEX
  5
45D
330
45C
100
AcDbEntity
  8
COTAS
370
     0
100
AcDbVertex
100
AcDb2dVertex
 10
117.9320696858808
 20
184.4167720032408
 30
0.0
  0
VERTEX
  5
45E
330
45C
100
AcDbEntity
  8
COTAS
370
     0
100
AcDbVertex
100
AcDb2dVertex
 10
117.9320696858808
 20
183.8173249933554
 30
0.0
  0
VERTEX
  5
45F
330
45C
100
AcDbEntity
  8
COTAS
370
     0
100
AcDbVertex
100
AcDb2dVertex
 10
116.1337286562248
 20
184.1170484982981
 30
0.0
  0
VERTEX
  5
460
330
45C
100
AcDbEntity
  8
COTAS
370
     0
100
AcDbVertex
100
AcDb2dVertex
 10
117.9320696858808
 20
184.4167720032408
 30
0.0
  0
SEQEND
  5
461
330
45C
100
AcDbEntity
  8
COTAS
370
     0
  0
HATCH
  5
462
330
458
100
AcDbEntity
  8
COTAS
 62
     7
420
 16777215
100
AcDbHatch
 10
0.0
 20
0.0
 30
0.0
210
0.0
220
0.0
230
1.0
  2
SOLID
 70
     1
 71
     0
 91
        1
 92
        1
 93
        3
 72
     1
 10
117.9320696858808
 20
184.4167720032408
 11
117.9320696858808
 21
183.8173249933554
 72
     1
 10
117.9320696858808
 20
183.8173249933554
 11
116.1337286562248
 21
184.1170484982981
 72
     1
 10
116.1337286562248
 20
184.1170484982981
 11
117.9320696858808
 21
184.4167720032408
 97
        0
 75
     2
 76
     1
 98
        0
  0
ENDBLK
  5
45B
330
458
100
AcDbEntity
  8
0
100
AcDbBlockEnd
  0
BLOCK
  5
465
330
463
100
AcDbEntity
  8
0
100
AcDbBlockBegin
  2
block 164
 70
     0
 71
     0
 10
0.0
 20
0.0
 30
0.0
  3
block 164
  1

  0
POLYLINE
  5
467
330
463
100
AcDbEntity
  8
COTAS
370
     0
100
AcDb2dPolyline
 66
     1
 10
0.0
 20
0.0
 30
0.0
  0
VERTEX
  5
468
330
467
100
AcDbEntity
  8
COTAS
370
     0
100
AcDbVertex
100
AcDb2dVertex
 10
120.5300179051597
 20
184.4167720032408
 30
0.0
  0
VERTEX
  5
469
330
467
100
AcDbEntity
  8
COTAS
370
     0
100
AcDbVertex
100
AcDb2dVertex
 10
120.5300179051597
 20
183.8173249933554
 30
0.0
  0
VERTEX
  5
46A
330
467
100
AcDbEntity
  8
COTAS
370
     0
100
AcDbVertex
100
AcDb2dVertex
 10
122.3283589348157
 20
184.1170484982981
 30
0.0
  0
VERTEX
  5
46B
330
467
100
AcDbEntity
  8
COTAS
370
     0
100
AcDbVertex
100
AcDb2dVertex
 10
120.5300179051597
 20
184.4167720032408
 30
0.0
  0
SEQEND
  5
46C
330
467
100
AcDbEntity
  8
COTAS
370
     0
  0
HATCH
  5
46D
330
463
100
AcDbEntity
  8
COTAS
 62
     7
420
 16777215
100
AcDbHatch
 10
0.0
 20
0.0
 30
0.0
210
0.0
220
0.0
230
1.0
  2
SOLID
 70
     1
 71
     0
 91
        1
 92
        1
 93
        3
 72
     1
 10
120.5300179051597
 20
184.4167720032408
 11
120.5300179051597
 21
183.8173249933554
 72
     1
 10
120.5300179051597
 20
183.8173249933554
 11
122.3283589348157
 21
184.1170484982981
 72
     1
 10
122.3283589348157
 20
184.1170484982981
 11
120.5300179051597
 21
184.4167720032408
 97
        0
 75
     2
 76
     1
 98
        0
  0
ENDBLK
  5
466
330
463
100
AcDbEntity
  8
0
100
AcDbBlockEnd
  0
BLOCK
  5
470
330
46E
100
AcDbEntity
  8
0
100
AcDbBlockBegin
  2
block 165
 70
     0
 71
     0
 10
0.0
 20
0.0
 30
0.0
  3
block 165
  1

  0
MTEXT
  5
472
330
46E
100
AcDbEntity
  8
COTAS
 62
     7
420
 16777215
100
AcDbMText
 10
124.8405242199214
 20
183.1179701484892
 30
0.0
 40
2.398890470823883
 41
0.0
 71
     7
 72
     1
  1
\fArial|b1|i0|c0|p34;\W1;\U+00D862
 73
     1
 44
1.0
  0
ENDBLK
  5
471
330
46E
100
AcDbEntity
  8
0
100
AcDbBlockEnd
  0
BLOCK
  5
475
330
473
100
AcDbEntity
  8
0
100
AcDbBlockBegin
  2
block 166
 70
     0
 71
     0
 10
0.0
 20
0.0
 30
0.0
  3
block 166
  1

  0
POLYLINE
  5
477
330
473
100
AcDbEntity
  8
COTAS
 62
     7
420
 16777215
370
     9
100
AcDb2dPolyline
 66
     1
 10
0.0
 20
0.0
 30
0.0
  0
VERTEX
  5
478
330
477
100
AcDbEntity
  8
COTAS
 62
     7
420
 16777215
370
     9
100
AcDbVertex
100
AcDb2dVertex
 10
116.1337286562248
 20
189.6943172586623
 30
0.0
  0
VERTEX
  5
479
330
477
100
AcDbEntity
  8
COTAS
 62
     7
420
 16777215
370
     9
100
AcDbVertex
100
AcDb2dVertex
 10
116.1337286562248
 20
189.6943172586623
 30
0.0
  0
SEQEND
  5
47A
330
477
100
AcDbEntity
  8
COTAS
370
     9
  0
ENDBLK
  5
476
330
473
100
AcDbEntity
  8
0
100
AcDbBlockEnd
  0
BLOCK
  5
47D
330
47B
100
AcDbEntity
  8
0
100
AcDbBlockBegin
  2
block 167
 70
     0
 71
     0
 10
0.0
 20
0.0
 30
0.0
  3
block 167
  1

  0
POLYLINE
  5
47F
330
47B
100
AcDbEntity
  8
COTAS
 62
     7
420
 16777215
370
     9
100
AcDb2dPolyline
 66
     1
 10
0.0
 20
0.0
 30
0.0
  0
VERTEX
  5
480
330
47F
100
AcDbEntity
  8
COTAS
 62
     7
420
 16777215
370
     9
100
AcDbVertex
100
AcDb2dVertex
 10
122.3283589348157
 20
189.6943172586623
 30
0.0
  0
VERTEX
  5
481
330
47F
100
AcDbEntity
  8
COTAS
 62
     7
420
 16777215
370
     9
100
AcDbVertex
100
AcDb2dVertex
 10
122.3283589348157
 20
189.6943172586623
 30
0.0
  0
SEQEND
  5
482
330
47F
100
AcDbEntity
  8
COTAS
370
     9
  0
ENDBLK
  5
47E
330
47B
100
AcDbEntity
  8
0
100
AcDbBlockEnd
  0
BLOCK
  5
485
330
483
100
AcDbEntity
  8
0
100
AcDbBlockBegin
  2
block 168
 70
     0
 71
     0
 10
0.0
 20
0.0
 30
0.0
  3
block 168
  1

  0
POLYLINE
  5
487
330
483
100
AcDbEntity
  8
COTAS
 62
     7
420
 16777215
370
     9
100
AcDb2dPolyline
 66
     1
 10
0.0
 20
0.0
 30
0.0
  0
VERTEX
  5
488
330
487
100
AcDbEntity
  8
COTAS
 62
     7
420
 16777215
370
     9
100
AcDbVertex
100
AcDb2dVertex
 10
122.3283589348157
 20
184.1170484982981
 30
0.0
  0
VERTEX
  5
489
330
487
100
AcDbEntity
  8
COTAS
 62
     7
420
 16777215
370
     9
100
AcDbVertex
100
AcDb2dVertex
 10
122.3283589348157
 20
184.1170484982981
 30
0.0
  0
SEQEND
  5
48A
330
487
100
AcDbEntity
  8
COTAS
370
     9
  0
ENDBLK
  5
486
330
483
100
AcDbEntity
  8
0
100
AcDbBlockEnd
  0
BLOCK
  5
48D
330
48B
100
AcDbEntity
  8
0
100
AcDbBlockBegin
  2
block 169
 70
     0
 71
     0
 10
0.0
 20
0.0
 30
0.0
  3
block 169
  1

  0
INSERT
  5
490
330
48B
100
AcDbEntity
  8
COTAS
100
AcDbBlockReference
  2
block 170
 10
0.0
 20
0.0
 30
0.0
  0
INSERT
  5
498
330
48B
100
AcDbEntity
  8
COTAS
100
AcDbBlockReference
  2
block 171
 10
0.0
 20
0.0
 30
0.0
  0
INSERT
  5
4A0
330
48B
100
AcDbEntity
  8
COTAS
100
AcDbBlockReference
  2
block 172
 10
0.0
 20
0.0
 30
0.0
  0
INSERT
  5
4A8
330
48B
100
AcDbEntity
  8
COTAS
100
AcDbBlockReference
  2
block 173
 10
0.0
 20
0.0
 30
0.0
  0
INSERT
  5
4B0
330
48B
100
AcDbEntity
  8
COTAS
100
AcDbBlockReference
  2
block 174
 10
0.0
 20
0.0
 30
0.0
  0
INSERT
  5
4BB
330
48B
100
AcDbEntity
  8
COTAS
100
AcDbBlockReference
  2
block 175
 10
0.0
 20
0.0
 30
0.0
  0
INSERT
  5
4C6
330
48B
100
AcDbEntity
  8
COTAS
100
AcDbBlockReference
  2
block 176
 10
0.0
 20
0.0
 30
0.0
  0
INSERT
  5
4CB
330
48B
100
AcDbEntity
  8
COTAS
100
AcDbBlockReference
  2
block 177
 10
0.0
 20
0.0
 30
0.0
  0
INSERT
  5
4D3
330
48B
100
AcDbEntity
  8
COTAS
100
AcDbBlockReference
  2
block 178
 10
0.0
 20
0.0
 30
0.0
  0
INSERT
  5
4DB
330
48B
100
AcDbEntity
  8
COTAS
100
AcDbBlockReference
  2
block 179
 10
0.0
 20
0.0
 30
0.0
  0
ENDBLK
  5
48E
330
48B
100
AcDbEntity
  8
0
100
AcDbBlockEnd
  0
BLOCK
  5
491
330
48F
100
AcDbEntity
  8
0
100
AcDbBlockBegin
  2
block 170
 70
     0
 71
     0
 10
0.0
 20
0.0
 30
0.0
  3
block 170
  1

  0
POLYLINE
  5
493
330
48F
100
AcDbEntity
  8
COTAS
 62
     7
420
 16777215
370
     9
100
AcDb2dPolyline
 66
     1
 10
0.0
 20
0.0
 30
0.0
  0
VERTEX
  5
494
330
493
100
AcDbEntity
  8
COTAS
 62
     7
420
 16777215
370
     9
100
AcDbVertex
100
AcDb2dVertex
 10
59.3044295702162
 20
197.6864272924697
 30
0.0
  0
VERTEX
  5
495
330
493
100
AcDbEntity
  8
COTAS
 62
     7
420
 16777215
370
     9
100
AcDbVertex
100
AcDb2dVertex
 10
47.87376746418722
 20
197.6864272924697
 30
0.0
  0
SEQEND
  5
496
330
493
100
AcDbEntity
  8
COTAS
370
     9
  0
ENDBLK
  5
492
330
48F
100
AcDbEntity
  8
0
100
AcDbBlockEnd
  0
BLOCK
  5
499
330
497
100
AcDbEntity
  8
0
100
AcDbBlockBegin
  2
block 171
 70
     0
 71
     0
 10
0.0
 20
0.0
 30
0.0
  3
block 171
  1

  0
POLYLINE
  5
49B
330
497
100
AcDbEntity
  8
COTAS
 62
     7
420
 16777215
370
     9
100
AcDb2dPolyline
 66
     1
 10
0.0
 20
0.0
 30
0.0
  0
VERTEX
  5
49C
330
49B
100
AcDbEntity
  8
COTAS
 62
     7
420
 16777215
370
     9
100
AcDbVertex
100
AcDb2dVertex
 10
58.88274960464169
 20
189.19460582887
 30
0.0
  0
VERTEX
  5
49D
330
49B
100
AcDbEntity
  8
COTAS
 62
     7
420
 16777215
370
     9
100
AcDbVertex
100
AcDb2dVertex
 10
47.87376746418722
 20
189.19460582887
 30
0.0
  0
SEQEND
  5
49E
330
49B
100
AcDbEntity
  8
COTAS
370
     9
  0
ENDBLK
  5
49A
330
497
100
AcDbEntity
  8
0
100
AcDbBlockEnd
  0
BLOCK
  5
4A1
330
49F
100
AcDbEntity
  8
0
100
AcDbBlockBegin
  2
block 172
 70
     0
 71
     0
 10
0.0
 20
0.0
 30
0.0
  3
block 172
  1

  0
POLYLINE
  5
4A3
330
49F
100
AcDbEntity
  8
COTAS
 62
     7
420
 16777215
370
     9
100
AcDb2dPolyline
 66
     1
 10
0.0
 20
0.0
 30
0.0
  0
VERTEX
  5
4A4
330
4A3
100
AcDbEntity
  8
COTAS
 62
     7
420
 16777215
370
     9
100
AcDbVertex
100
AcDb2dVertex
 10
48.87284581399611
 20
195.8879140079258
 30
0.0
  0
VERTEX
  5
4A5
330
4A3
100
AcDbEntity
  8
COTAS
 62
     7
420
 16777215
370
     9
100
AcDbVertex
100
AcDb2dVertex
 10
48.87284581399611
 20
195.625569813657
 30
0.0
  0
SEQEND
  5
4A6
330
4A3
100
AcDbEntity
  8
COTAS
370
     9
  0
ENDBLK
  5
4A2
330
49F
100
AcDbEntity
  8
0
100
AcDbBlockEnd
  0
BLOCK
  5
4A9
330
4A7
100
AcDbEntity
  8
0
100
AcDbBlockBegin
  2
block 173
 70
     0
 71
     0
 10
0.0
 20
0.0
 30
0.0
  3
block 173
  1

  0
POLYLINE
  5
4AB
330
4A7
100
AcDbEntity
  8
COTAS
 62
     7
420
 16777215
370
     9
100
AcDb2dPolyline
 66
     1
 10
0.0
 20
0.0
 30
0.0
  0
VERTEX
  5
4AC
330
4AB
100
AcDbEntity
  8
COTAS
 62
     7
420
 16777215
370
     9
100
AcDbVertex
100
AcDb2dVertex
 10
48.87284581399611
 20
190.9931191134139
 30
0.0
  0
VERTEX
  5
4AD
330
4AB
100
AcDbEntity
  8
COTAS
 62
     7
420
 16777215
370
     9
100
AcDbVertex
100
AcDb2dVertex
 10
48.87284581399611
 20
191.6289119046457
 30
0.0
  0
SEQEND
  5
4AE
330
4AB
100
AcDbEntity
  8
COTAS
370
     9
  0
ENDBLK
  5
4AA
330
4A7
100
AcDbEntity
  8
0
100
AcDbBlockEnd
  0
BLOCK
  5
4B1
330
4AF
100
AcDbEntity
  8
0
100
AcDbBlockBegin
  2
block 174
 70
     0
 71
     0
 10
0.0
 20
0.0
 30
0.0
  3
block 174
  1

  0
POLYLINE
  5
4B3
330
4AF
100
AcDbEntity
  8
COTAS
370
     0
100
AcDb2dPolyline
 66
     1
 10
0.0
 20
0.0
 30
0.0
  0
VERTEX
  5
4B4
330
4B3
100
AcDbEntity
  8
COTAS
370
     0
100
AcDbVertex
100
AcDb2dVertex
 10
48.57312230905344
 20
195.8879140079258
 30
0.0
  0
VERTEX
  5
4B5
330
4B3
100
AcDbEntity
  8
COTAS
370
     0
100
AcDbVertex
100
AcDb2dVertex
 10
49.17256931893877
 20
195.8879140079258
 30
0.0
  0
VERTEX
  5
4B6
330
4B3
100
AcDbEntity
  8
COTAS
370
     0
100
AcDbVertex
100
AcDb2dVertex
 10
48.87284581399611
 20
197.6864272924697
 30
0.0
  0
VERTEX
  5
4B7
330
4B3
100
AcDbEntity
  8
COTAS
370
     0
100
AcDbVertex
100
AcDb2dVertex
 10
48.57312230905344
 20
195.8879140079258
 30
0.0
  0
SEQEND
  5
4B8
330
4B3
100
AcDbEntity
  8
COTAS
370
     0
  0
HATCH
  5
4B9
330
4AF
100
AcDbEntity
  8
COTAS
 62
     7
420
 16777215
100
AcDbHatch
 10
0.0
 20
0.0
 30
0.0
210
0.0
220
0.0
230
1.0
  2
SOLID
 70
     1
 71
     0
 91
        1
 92
        1
 93
        3
 72
     1
 10
48.57312230905344
 20
195.8879140079258
 11
49.17256931893877
 21
195.8879140079258
 72
     1
 10
49.17256931893877
 20
195.8879140079258
 11
48.87284581399611
 21
197.6864272924697
 72
     1
 10
48.87284581399611
 20
197.6864272924697
 11
48.57312230905344
 21
195.8879140079258
 97
        0
 75
     2
 76
     1
 98
        0
  0
ENDBLK
  5
4B2
330
4AF
100
AcDbEntity
  8
0
100
AcDbBlockEnd
  0
BLOCK
  5
4BC
330
4BA
100
AcDbEntity
  8
0
100
AcDbBlockBegin
  2
block 175
 70
     0
 71
     0
 10
0.0
 20
0.0
 30
0.0
  3
block 175
  1

  0
POLYLINE
  5
4BE
330
4BA
100
AcDbEntity
  8
COTAS
370
     0
100
AcDb2dPolyline
 66
     1
 10
0.0
 20
0.0
 30
0.0
  0
VERTEX
  5
4BF
330
4BE
100
AcDbEntity
  8
COTAS
370
     0
100
AcDbVertex
100
AcDb2dVertex
 10
48.57312230905344
 20
190.9931191134139
 30
0.0
  0
VERTEX
  5
4C0
330
4BE
100
AcDbEntity
  8
COTAS
370
     0
100
AcDbVertex
100
AcDb2dVertex
 10
49.17256931893877
 20
190.9931191134139
 30
0.0
  0
VERTEX
  5
4C1
330
4BE
100
AcDbEntity
  8
COTAS
370
     0
100
AcDbVertex
100
AcDb2dVertex
 10
48.87284581399611
 20
189.19460582887
 30
0.0
  0
VERTEX
  5
4C2
330
4BE
100
AcDbEntity
  8
COTAS
370
     0
100
AcDbVertex
100
AcDb2dVertex
 10
48.57312230905344
 20
190.9931191134139
 30
0.0
  0
SEQEND
  5
4C3
330
4BE
100
AcDbEntity
  8
COTAS
370
     0
  0
HATCH
  5
4C4
330
4BA
100
AcDbEntity
  8
COTAS
 62
     7
420
 16777215
100
AcDbHatch
 10
0.0
 20
0.0
 30
0.0
210
0.0
220
0.0
230
1.0
  2
SOLID
 70
     1
 71
     0
 91
        1
 92
        1
 93
        3
 72
     1
 10
48.57312230905344
 20
190.9931191134139
 11
49.17256931893877
 21
190.9931191134139
 72
     1
 10
49.17256931893877
 20
190.9931191134139
 11
48.87284581399611
 21
189.19460582887
 72
     1
 10
48.87284581399611
 20
189.19460582887
 11
48.57312230905344
 21
190.9931191134139
 97
        0
 75
     2
 76
     1
 98
        0
  0
ENDBLK
  5
4BD
330
4BA
100
AcDbEntity
  8
0
100
AcDbBlockEnd
  0
BLOCK
  5
4C7
330
4C5
100
AcDbEntity
  8
0
100
AcDbBlockBegin
  2
block 176
 70
     0
 71
     0
 10
0.0
 20
0.0
 30
0.0
  3
block 176
  1

  0
MTEXT
  5
4C9
330
4C5
100
AcDbEntity
  8
COTAS
 62
     7
420
 16777215
100
AcDbMText
 10
46.96977381249807
 20
192.6281625093425
 30
0.0
 40
2.398890470823883
 41
0.0
 71
     7
 72
     1
  1
\fArial|b1|i0|c0|p34;\W1;85
 73
     1
 44
1.0
  0
ENDBLK
  5
4C8
330
4C5
100
AcDbEntity
  8
0
100
AcDbBlockEnd
  0
BLOCK
  5
4CC
330
4CA
100
AcDbEntity
  8
0
100
AcDbBlockBegin
  2
block 177
 70
     0
 71
     0
 10
0.0
 20
0.0
 30
0.0
  3
block 177
  1

  0
POLYLINE
  5
4CE
330
4CA
100
AcDbEntity
  8
COTAS
 62
     7
420
 16777215
370
     9
100
AcDb2dPolyline
 66
     1
 10
0.0
 20
0.0
 30
0.0
  0
VERTEX
  5
4CF
330
4CE
100
AcDbEntity
  8
COTAS
 62
     7
420
 16777215
370
     9
100
AcDbVertex
100
AcDb2dVertex
 10
60.30368017491299
 20
197.6864272924697
 30
0.0
  0
VERTEX
  5
4D0
330
4CE
100
AcDbEntity
  8
COTAS
 62
     7
420
 16777215
370
     9
100
AcDbVertex
100
AcDb2dVertex
 10
60.30368017491299
 20
197.6864272924697
 30
0.0
  0
SEQEND
  5
4D1
330
4CE
100
AcDbEntity
  8
COTAS
370
     9
  0
ENDBLK
  5
4CD
330
4CA
100
AcDbEntity
  8
0
100
AcDbBlockEnd
  0
BLOCK
  5
4D4
330
4D2
100
AcDbEntity
  8
0
100
AcDbBlockBegin
  2
block 178
 70
     0
 71
     0
 10
0.0
 20
0.0
 30
0.0
  3
block 178
  1

  0
POLYLINE
  5
4D6
330
4D2
100
AcDbEntity
  8
COTAS
 62
     7
420
 16777215
370
     9
100
AcDb2dPolyline
 66
     1
 10
0.0
 20
0.0
 30
0.0
  0
VERTEX
  5
4D7
330
4D6
100
AcDbEntity
  8
COTAS
 62
     7
420
 16777215
370
     9
100
AcDbVertex
100
AcDb2dVertex
 10
59.88182795445058
 20
189.19460582887
 30
0.0
  0
VERTEX
  5
4D8
330
4D6
100
AcDbEntity
  8
COTAS
 62
     7
420
 16777215
370
     9
100
AcDbVertex
100
AcDb2dVertex
 10
59.88182795445058
 20
189.19460582887
 30
0.0
  0
SEQEND
  5
4D9
330
4D6
100
AcDbEntity
  8
COTAS
370
     9
  0
ENDBLK
  5
4D5
330
4D2
100
AcDbEntity
  8
0
100
AcDbBlockEnd
  0
BLOCK
  5
4DC
330
4DA
100
AcDbEntity
  8
0
100
AcDbBlockBegin
  2
block 179
 70
     0
 71
     0
 10
0.0
 20
0.0
 30
0.0
  3
block 179
  1

  0
POLYLINE
  5
4DE
330
4DA
100
AcDbEntity
  8
COTAS
 62
     7
420
 16777215
370
     9
100
AcDb2dPolyline
 66
     1
 10
0.0
 20
0.0
 30
0.0
  0
VERTEX
  5
4DF
330
4DE
100
AcDbEntity
  8
COTAS
 62
     7
420
 16777215
370
     9
100
AcDbVertex
100
AcDb2dVertex
 10
48.87284581399611
 20
189.19460582887
 30
0.0
  0
VERTEX
  5
4E0
330
4DE
100
AcDbEntity
  8
COTAS
 62
     7
420
 16777215
370
     9
100
AcDbVertex
100
AcDb2dVertex
 10
48.87284581399611
 20
189.19460582887
 30
0.0
  0
SEQEND
  5
4E1
330
4DE
100
AcDbEntity
  8
COTAS
370
     9
  0
ENDBLK
  5
4DD
330
4DA
100
AcDbEntity
  8
0
100
AcDbBlockEnd
  0
BLOCK
  5
4E4
330
4E2
100
AcDbEntity
  8
0
100
AcDbBlockBegin
  2
block 180
 70
     0
 71
     0
 10
0.0
 20
0.0
 30
0.0
  3
block 180
  1

  0
INSERT
  5
4E7
330
4E2
100
AcDbEntity
  8
COTAS
100
AcDbBlockReference
  2
block 181
 10
0.0
 20
0.0
 30
0.0
  0
INSERT
  5
4EF
330
4E2
100
AcDbEntity
  8
COTAS
100
AcDbBlockReference
  2
block 182
 10
0.0
 20
0.0
 30
0.0
  0
INSERT
  5
4F7
330
4E2
100
AcDbEntity
  8
COTAS
100
AcDbBlockReference
  2
block 183
 10
0.0
 20
0.0
 30
0.0
  0
INSERT
  5
4FF
330
4E2
100
AcDbEntity
  8
COTAS
100
AcDbBlockReference
  2
block 184
 10
0.0
 20
0.0
 30
0.0
  0
INSERT
  5
507
330
4E2
100
AcDbEntity
  8
COTAS
100
AcDbBlockReference
  2
block 185
 10
0.0
 20
0.0
 30
0.0
  0
INSERT
  5
512
330
4E2
100
AcDbEntity
  8
COTAS
100
AcDbBlockReference
  2
block 186
 10
0.0
 20
0.0
 30
0.0
  0
INSERT
  5
51D
330
4E2
100
AcDbEntity
  8
COTAS
100
AcDbBlockReference
  2
block 187
 10
0.0
 20
0.0
 30
0.0
  0
INSERT
  5
522
330
4E2
100
AcDbEntity
  8
COTAS
100
AcDbBlockReference
  2
block 188
 10
0.0
 20
0.0
 30
0.0
  0
INSERT
  5
52A
330
4E2
100
AcDbEntity
  8
COTAS
100
AcDbBlockReference
  2
block 189
 10
0.0
 20
0.0
 30
0.0
  0
INSERT
  5
532
330
4E2
100
AcDbEntity
  8
COTAS
100
AcDbBlockReference
  2
block 190
 10
0.0
 20
0.0
 30
0.0
  0
ENDBLK
  5
4E5
330
4E2
100
AcDbEntity
  8
0
100
AcDbBlockEnd
  0
BLOCK
  5
4E8
330
4E6
100
AcDbEntity
  8
0
100
AcDbBlockBegin
  2
block 181
 70
     0
 71
     0
 10
0.0
 20
0.0
 30
0.0
  3
block 181
  1

  0
POLYLINE
  5
4EA
330
4E6
100
AcDbEntity
  8
COTAS
 62
     7
420
 16777215
370
     9
100
AcDb2dPolyline
 66
     1
 10
0.0
 20
0.0
 30
0.0
  0
VERTEX
  5
4EB
330
4EA
100
AcDbEntity
  8
COTAS
 62
     7
420
 16777215
370
     9
100
AcDbVertex
100
AcDb2dVertex
 10
119.231560560184
 20
84.5816285850448
 30
0.0
  0
VERTEX
  5
4EC
330
4EA
100
AcDbEntity
  8
COTAS
 62
     7
420
 16777215
370
     9
100
AcDbVertex
100
AcDb2dVertex
 10
119.231560560184
 20
71.99427490678018
 30
0.0
  0
SEQEND
  5
4ED
330
4EA
100
AcDbEntity
  8
COTAS
370
     9
  0
ENDBLK
  5
4E9
330
4E6
100
AcDbEntity
  8
0
100
AcDbBlockEnd
  0
BLOCK
  5
4F0
330
4EE
100
AcDbEntity
  8
0
100
AcDbBlockBegin
  2
block 182
 70
     0
 71
     0
 10
0.0
 20
0.0
 30
0.0
  3
block 182
  1

  0
POLYLINE
  5
4F2
330
4EE
100
AcDbEntity
  8
COTAS
 62
     7
420
 16777215
370
     9
100
AcDb2dPolyline
 66
     1
 10
0.0
 20
0.0
 30
0.0
  0
VERTEX
  5
4F3
330
4F2
100
AcDbEntity
  8
COTAS
 62
     7
420
 16777215
370
     9
100
AcDbVertex
100
AcDb2dVertex
 10
59.28238094456525
 20
79.08635315132011
 30
0.0
  0
VERTEX
  5
4F4
330
4F2
100
AcDbEntity
  8
COTAS
 62
     7
420
 16777215
370
     9
100
AcDbVertex
100
AcDb2dVertex
 10
59.28238094456525
 20
71.99427490678018
 30
0.0
  0
SEQEND
  5
4F5
330
4F2
100
AcDbEntity
  8
COTAS
370
     9
  0
ENDBLK
  5
4F1
330
4EE
100
AcDbEntity
  8
0
100
AcDbBlockEnd
  0
BLOCK
  5
4F8
330
4F6
100
AcDbEntity
  8
0
100
AcDbBlockBegin
  2
block 183
 70
     0
 71
     0
 10
0.0
 20
0.0
 30
0.0
  3
block 183
  1

  0
POLYLINE
  5
4FA
330
4F6
100
AcDbEntity
  8
COTAS
 62
     7
420
 16777215
370
     9
100
AcDb2dPolyline
 66
     1
 10
0.0
 20
0.0
 30
0.0
  0
VERTEX
  5
4FB
330
4FA
100
AcDbEntity
  8
COTAS
 62
     7
420
 16777215
370
     9
100
AcDbVertex
100
AcDb2dVertex
 10
117.433219530528
 20
72.99335325658907
 30
0.0
  0
VERTEX
  5
4FC
330
4FA
100
AcDbEntity
  8
COTAS
 62
     7
420
 16777215
370
     9
100
AcDbVertex
100
AcDb2dVertex
 10
92.77786066101146
 20
72.99335325658907
 30
0.0
  0
SEQEND
  5
4FD
330
4FA
100
AcDbEntity
  8
COTAS
370
     9
  0
ENDBLK
  5
4F9
330
4F6
100
AcDbEntity
  8
0
100
AcDbBlockEnd
  0
BLOCK
  5
500
330
4FE
100
AcDbEntity
  8
0
100
AcDbBlockBegin
  2
block 184
 70
     0
 71
     0
 10
0.0
 20
0.0
 30
0.0
  3
block 184
  1

  0
POLYLINE
  5
502
330
4FE
100
AcDbEntity
  8
COTAS
 62
     7
420
 16777215
370
     9
100
AcDb2dPolyline
 66
     1
 10
0.0
 20
0.0
 30
0.0
  0
VERTEX
  5
503
330
502
100
AcDbEntity
  8
COTAS
 62
     7
420
 16777215
370
     9
100
AcDbVertex
100
AcDb2dVertex
 10
61.08089422910914
 20
72.99335325658907
 30
0.0
  0
VERTEX
  5
504
330
502
100
AcDbEntity
  8
COTAS
 62
     7
420
 16777215
370
     9
100
AcDbVertex
100
AcDb2dVertex
 10
85.73608084373777
 20
72.99335325658907
 30
0.0
  0
SEQEND
  5
505
330
502
100
AcDbEntity
  8
COTAS
370
     9
  0
ENDBLK
  5
501
330
4FE
100
AcDbEntity
  8
0
100
AcDbBlockEnd
  0
BLOCK
  5
508
330
506
100
AcDbEntity
  8
0
100
AcDbBlockBegin
  2
block 185
 70
     0
 71
     0
 10
0.0
 20
0.0
 30
0.0
  3
block 185
  1

  0
POLYLINE
  5
50A
330
506
100
AcDbEntity
  8
COTAS
370
     0
100
AcDb2dPolyline
 66
     1
 10
0.0
 20
0.0
 30
0.0
  0
VERTEX
  5
50B
330
50A
100
AcDbEntity
  8
COTAS
370
     0
100
AcDbVertex
100
AcDb2dVertex
 10
117.433219530528
 20
73.29307676153174
 30
0.0
  0
VERTEX
  5
50C
330
50A
100
AcDbEntity
  8
COTAS
370
     0
100
AcDbVertex
100
AcDb2dVertex
 10
117.433219530528
 20
72.6936297516464
 30
0.0
  0
VERTEX
  5
50D
330
50A
100
AcDbEntity
  8
COTAS
370
     0
100
AcDbVertex
100
AcDb2dVertex
 10
119.231560560184
 20
72.99335325658907
 30
0.0
  0
VERTEX
  5
50E
330
50A
100
AcDbEntity
  8
COTAS
370
     0
100
AcDbVertex
100
AcDb2dVertex
 10
117.433219530528
 20
73.29307676153174
 30
0.0
  0
SEQEND
  5
50F
330
50A
100
AcDbEntity
  8
COTAS
370
     0
  0
HATCH
  5
510
330
506
100
AcDbEntity
  8
COTAS
 62
     7
420
 16777215
100
AcDbHatch
 10
0.0
 20
0.0
 30
0.0
210
0.0
220
0.0
230
1.0
  2
SOLID
 70
     1
 71
     0
 91
        1
 92
        1
 93
        3
 72
     1
 10
117.433219530528
 20
73.29307676153174
 11
117.433219530528
 21
72.6936297516464
 72
     1
 10
117.433219530528
 20
72.6936297516464
 11
119.231560560184
 21
72.99335325658907
 72
     1
 10
119.231560560184
 20
72.99335325658907
 11
117.433219530528
 21
73.29307676153174
 97
        0
 75
     2
 76
     1
 98
        0
  0
ENDBLK
  5
509
330
506
100
AcDbEntity
  8
0
100
AcDbBlockEnd
  0
BLOCK
  5
513
330
511
100
AcDbEntity
  8
0
100
AcDbBlockBegin
  2
block 186
 70
     0
 71
     0
 10
0.0
 20
0.0
 30
0.0
  3
block 186
  1

  0
POLYLINE
  5
515
330
511
100
AcDbEntity
  8
COTAS
370
     0
100
AcDb2dPolyline
 66
     1
 10
0.0
 20
0.0
 30
0.0
  0
VERTEX
  5
516
330
515
100
AcDbEntity
  8
COTAS
370
     0
100
AcDbVertex
100
AcDb2dVertex
 10
61.08089422910914
 20
73.29307676153174
 30
0.0
  0
VERTEX
  5
517
330
515
100
AcDbEntity
  8
COTAS
370
     0
100
AcDbVertex
100
AcDb2dVertex
 10
61.08089422910914
 20
72.6936297516464
 30
0.0
  0
VERTEX
  5
518
330
515
100
AcDbEntity
  8
COTAS
370
     0
100
AcDbVertex
100
AcDb2dVertex
 10
59.28238094456525
 20
72.99335325658907
 30
0.0
  0
VERTEX
  5
519
330
515
100
AcDbEntity
  8
COTAS
370
     0
100
AcDbVertex
100
AcDb2dVertex
 10
61.08089422910914
 20
73.29307676153174
 30
0.0
  0
SEQEND
  5
51A
330
515
100
AcDbEntity
  8
COTAS
370
     0
  0
HATCH
  5
51B
330
511
100
AcDbEntity
  8
COTAS
 62
     7
420
 16777215
100
AcDbHatch
 10
0.0
 20
0.0
 30
0.0
210
0.0
220
0.0
230
1.0
  2
SOLID
 70
     1
 71
     0
 91
        1
 92
        1
 93
        3
 72
     1
 10
61.08089422910914
 20
73.29307676153174
 11
61.08089422910914
 21
72.6936297516464
 72
     1
 10
61.08089422910914
 20
72.6936297516464
 11
59.28238094456525
 21
72.99335325658907
 72
     1
 10
59.28238094456525
 20
72.99335325658907
 11
61.08089422910914
 21
73.29307676153174
 97
        0
 75
     2
 76
     1
 98
        0
  0
ENDBLK
  5
514
330
511
100
AcDbEntity
  8
0
100
AcDbBlockEnd
  0
BLOCK
  5
51E
330
51C
100
AcDbEntity
  8
0
100
AcDbBlockBegin
  2
block 187
 70
     0
 71
     0
 10
0.0
 20
0.0
 30
0.0
  3
block 187
  1

  0
MTEXT
  5
520
330
51C
100
AcDbEntity
  8
COTAS
 62
     7
420
 16777215
100
AcDbMText
 10
86.35464814617978
 20
71.99427490678018
 30
0.0
 40
2.398890470823883
 41
0.0
 71
     7
 72
     1
  1
\fArial|b1|i0|c0|p34;\W1;600
 73
     1
 44
1.0
  0
ENDBLK
  5
51F
330
51C
100
AcDbEntity
  8
0
100
AcDbBlockEnd
  0
BLOCK
  5
523
330
521
100
AcDbEntity
  8
0
100
AcDbBlockBegin
  2
block 188
 70
     0
 71
     0
 10
0.0
 20
0.0
 30
0.0
  3
block 188
  1

  0
POLYLINE
  5
525
330
521
100
AcDbEntity
  8
COTAS
 62
     7
420
 16777215
370
     9
100
AcDb2dPolyline
 66
     1
 10
0.0
 20
0.0
 30
0.0
  0
VERTEX
  5
526
330
525
100
AcDbEntity
  8
COTAS
 62
     7
420
 16777215
370
     9
100
AcDbVertex
100
AcDb2dVertex
 10
119.231560560184
 20
85.5807069348537
 30
0.0
  0
VERTEX
  5
527
330
525
100
AcDbEntity
  8
COTAS
 62
     7
420
 16777215
370
     9
100
AcDbVertex
100
AcDb2dVertex
 10
119.231560560184
 20
85.5807069348537
 30
0.0
  0
SEQEND
  5
528
330
525
100
AcDbEntity
  8
COTAS
370
     9
  0
ENDBLK
  5
524
330
521
100
AcDbEntity
  8
0
100
AcDbBlockEnd
  0
BLOCK
  5
52B
330
529
100
AcDbEntity
  8
0
100
AcDbBlockBegin
  2
block 189
 70
     0
 71
     0
 10
0.0
 20
0.0
 30
0.0
  3
block 189
  1

  0
POLYLINE
  5
52D
330
529
100
AcDbEntity
  8
COTAS
 62
     7
420
 16777215
370
     9
100
AcDb2dPolyline
 66
     1
 10
0.0
 20
0.0
 30
0.0
  0
VERTEX
  5
52E
330
52D
100
AcDbEntity
  8
COTAS
 62
     7
420
 16777215
370
     9
100
AcDbVertex
100
AcDb2dVertex
 10
59.28238094456525
 20
80.08543150112901
 30
0.0
  0
VERTEX
  5
52F
330
52D
100
AcDbEntity
  8
COTAS
 62
     7
420
 16777215
370
     9
100
AcDbVertex
100
AcDb2dVertex
 10
59.28238094456525
 20
80.08543150112901
 30
0.0
  0
SEQEND
  5
530
330
52D
100
AcDbEntity
  8
COTAS
370
     9
  0
ENDBLK
  5
52C
330
529
100
AcDbEntity
  8
0
100
AcDbBlockEnd
  0
BLOCK
  5
533
330
531
100
AcDbEntity
  8
0
100
AcDbBlockBegin
  2
block 190
 70
     0
 71
     0
 10
0.0
 20
0.0
 30
0.0
  3
block 190
  1

  0
POLYLINE
  5
535
330
531
100
AcDbEntity
  8
COTAS
 62
     7
420
 16777215
370
     9
100
AcDb2dPolyline
 66
     1
 10
0.0
 20
0.0
 30
0.0
  0
VERTEX
  5
536
330
535
100
AcDbEntity
  8
COTAS
 62
     7
420
 16777215
370
     9
100
AcDbVertex
100
AcDb2dVertex
 10
59.28238094456525
 20
72.99335325658907
 30
0.0
  0
VERTEX
  5
537
330
535
100
AcDbEntity
  8
COTAS
 62
     7
420
 16777215
370
     9
100
AcDbVertex
100
AcDb2dVertex
 10
59.28238094456525
 20
72.99335325658907
 30
0.0
  0
SEQEND
  5
538
330
535
100
AcDbEntity
  8
COTAS
370
     9
  0
ENDBLK
  5
534
330
531
100
AcDbEntity
  8
0
100
AcDbBlockEnd
  0
BLOCK
  5
53B
330
539
100
AcDbEntity
  8
0
100
AcDbBlockBegin
  2
block 191
 70
     0
 71
     0
 10
0.0
 20
0.0
 30
0.0
  3
block 191
  1

  0
INSERT
  5
53E
330
539
100
AcDbEntity
  8
COTAS
100
AcDbBlockReference
  2
block 192
 10
0.0
 20
0.0
 30
0.0
  0
INSERT
  5
546
330
539
100
AcDbEntity
  8
COTAS
100
AcDbBlockReference
  2
block 193
 10
0.0
 20
0.0
 30
0.0
  0
INSERT
  5
54E
330
539
100
AcDbEntity
  8
COTAS
100
AcDbBlockReference
  2
block 194
 10
0.0
 20
0.0
 30
0.0
  0
INSERT
  5
556
330
539
100
AcDbEntity
  8
COTAS
100
AcDbBlockReference
  2
block 195
 10
0.0
 20
0.0
 30
0.0
  0
INSERT
  5
55E
330
539
100
AcDbEntity
  8
COTAS
100
AcDbBlockReference
  2
block 196
 10
0.0
 20
0.0
 30
0.0
  0
INSERT
  5
569
330
539
100
AcDbEntity
  8
COTAS
100
AcDbBlockReference
  2
block 197
 10
0.0
 20
0.0
 30
0.0
  0
INSERT
  5
574
330
539
100
AcDbEntity
  8
COTAS
100
AcDbBlockReference
  2
block 198
 10
0.0
 20
0.0
 30
0.0
  0
INSERT
  5
579
330
539
100
AcDbEntity
  8
COTAS
100
AcDbBlockReference
  2
block 199
 10
0.0
 20
0.0
 30
0.0
  0
INSERT
  5
581
330
539
100
AcDbEntity
  8
COTAS
100
AcDbBlockReference
  2
block 200
 10
0.0
 20
0.0
 30
0.0
  0
INSERT
  5
589
330
539
100
AcDbEntity
  8
COTAS
100
AcDbBlockReference
  2
block 201
 10
0.0
 20
0.0
 30
0.0
  0
ENDBLK
  5
53C
330
539
100
AcDbEntity
  8
0
100
AcDbBlockEnd
  0
BLOCK
  5
53F
330
53D
100
AcDbEntity
  8
0
100
AcDbBlockBegin
  2
block 192
 70
     0
 71
     0
 10
0.0
 20
0.0
 30
0.0
  3
block 192
  1

  0
POLYLINE
  5
541
330
53D
100
AcDbEntity
  8
COTAS
 62
     7
420
 16777215
370
     9
100
AcDb2dPolyline
 66
     1
 10
0.0
 20
0.0
 30
0.0
  0
VERTEX
  5
542
330
541
100
AcDbEntity
  8
COTAS
 62
     7
420
 16777215
370
     9
100
AcDbVertex
100
AcDb2dVertex
 10
59.28238094456525
 20
79.08635315132011
 30
0.0
  0
VERTEX
  5
543
330
541
100
AcDbEntity
  8
COTAS
 62
     7
420
 16777215
370
     9
100
AcDbVertex
100
AcDb2dVertex
 10
59.28238094456525
 20
65.04103410188611
 30
0.0
  0
SEQEND
  5
544
330
541
100
AcDbEntity
  8
COTAS
370
     9
  0
ENDBLK
  5
540
330
53D
100
AcDbEntity
  8
0
100
AcDbBlockEnd
  0
BLOCK
  5
547
330
545
100
AcDbEntity
  8
0
100
AcDbBlockBegin
  2
block 193
 70
     0
 71
     0
 10
0.0
 20
0.0
 30
0.0
  3
block 193
  1

  0
POLYLINE
  5
549
330
545
100
AcDbEntity
  8
COTAS
 62
     7
420
 16777215
370
     9
100
AcDb2dPolyline
 66
     1
 10
0.0
 20
0.0
 30
0.0
  0
VERTEX
  5
54A
330
549
100
AcDbEntity
  8
COTAS
 62
     7
420
 16777215
370
     9
100
AcDbVertex
100
AcDb2dVertex
 10
179.1807401758027
 20
79.08635315132011
 30
0.0
  0
VERTEX
  5
54B
330
549
100
AcDbEntity
  8
COTAS
 62
     7
420
 16777215
370
     9
100
AcDbVertex
100
AcDb2dVertex
 10
179.1807401758027
 20
65.04103410188611
 30
0.0
  0
SEQEND
  5
54C
330
549
100
AcDbEntity
  8
COTAS
370
     9
  0
ENDBLK
  5
548
330
545
100
AcDbEntity
  8
0
100
AcDbBlockEnd
  0
BLOCK
  5
54F
330
54D
100
AcDbEntity
  8
0
100
AcDbBlockBegin
  2
block 194
 70
     0
 71
     0
 10
0.0
 20
0.0
 30
0.0
  3
block 194
  1

  0
POLYLINE
  5
551
330
54D
100
AcDbEntity
  8
COTAS
 62
     7
420
 16777215
370
     9
100
AcDb2dPolyline
 66
     1
 10
0.0
 20
0.0
 30
0.0
  0
VERTEX
  5
552
330
551
100
AcDbEntity
  8
COTAS
 62
     7
420
 16777215
370
     9
100
AcDbVertex
100
AcDb2dVertex
 10
61.08089422910914
 20
66.040112451695
 30
0.0
  0
VERTEX
  5
553
330
551
100
AcDbEntity
  8
COTAS
 62
     7
420
 16777215
370
     9
100
AcDbVertex
100
AcDb2dVertex
 10
114.8542193489179
 20
66.040112451695
 30
0.0
  0
SEQEND
  5
554
330
551
100
AcDbEntity
  8
COTAS
370
     9
  0
ENDBLK
  5
550
330
54D
100
AcDbEntity
  8
0
100
AcDbBlockEnd
  0
BLOCK
  5
557
330
555
100
AcDbEntity
  8
0
100
AcDbBlockBegin
  2
block 195
 70
     0
 71
     0
 10
0.0
 20
0.0
 30
0.0
  3
block 195
  1

  0
POLYLINE
  5
559
330
555
100
AcDbEntity
  8
COTAS
 62
     7
420
 16777215
370
     9
100
AcDb2dPolyline
 66
     1
 10
0.0
 20
0.0
 30
0.0
  0
VERTEX
  5
55A
330
559
100
AcDbEntity
  8
COTAS
 62
     7
420
 16777215
370
     9
100
AcDbVertex
100
AcDb2dVertex
 10
177.3823991461467
 20
66.040112451695
 30
0.0
  0
VERTEX
  5
55B
330
559
100
AcDbEntity
  8
COTAS
 62
     7
420
 16777215
370
     9
100
AcDbVertex
100
AcDb2dVertex
 10
123.6089017714501
 20
66.040112451695
 30
0.0
  0
SEQEND
  5
55C
330
559
100
AcDbEntity
  8
COTAS
370
     9
  0
ENDBLK
  5
558
330
555
100
AcDbEntity
  8
0
100
AcDbBlockEnd
  0
BLOCK
  5
55F
330
55D
100
AcDbEntity
  8
0
100
AcDbBlockBegin
  2
block 196
 70
     0
 71
     0
 10
0.0
 20
0.0
 30
0.0
  3
block 196
  1

  0
POLYLINE
  5
561
330
55D
100
AcDbEntity
  8
COTAS
370
     0
100
AcDb2dPolyline
 66
     1
 10
0.0
 20
0.0
 30
0.0
  0
VERTEX
  5
562
330
561
100
AcDbEntity
  8
COTAS
370
     0
100
AcDbVertex
100
AcDb2dVertex
 10
61.08089422910914
 20
66.33983595663766
 30
0.0
  0
VERTEX
  5
563
330
561
100
AcDbEntity
  8
COTAS
370
     0
100
AcDbVertex
100
AcDb2dVertex
 10
61.08089422910914
 20
65.74038894675233
 30
0.0
  0
VERTEX
  5
564
330
561
100
AcDbEntity
  8
COTAS
370
     0
100
AcDbVertex
100
AcDb2dVertex
 10
59.28238094456525
 20
66.040112451695
 30
0.0
  0
VERTEX
  5
565
330
561
100
AcDbEntity
  8
COTAS
370
     0
100
AcDbVertex
100
AcDb2dVertex
 10
61.08089422910914
 20
66.33983595663766
 30
0.0
  0
SEQEND
  5
566
330
561
100
AcDbEntity
  8
COTAS
370
     0
  0
HATCH
  5
567
330
55D
100
AcDbEntity
  8
COTAS
 62
     7
420
 16777215
100
AcDbHatch
 10
0.0
 20
0.0
 30
0.0
210
0.0
220
0.0
230
1.0
  2
SOLID
 70
     1
 71
     0
 91
        1
 92
        1
 93
        3
 72
     1
 10
61.08089422910914
 20
66.33983595663766
 11
61.08089422910914
 21
65.74038894675233
 72
     1
 10
61.08089422910914
 20
65.74038894675233
 11
59.28238094456525
 21
66.040112451695
 72
     1
 10
59.28238094456525
 20
66.040112451695
 11
61.08089422910914
 21
66.33983595663766
 97
        0
 75
     2
 76
     1
 98
        0
  0
ENDBLK
  5
560
330
55D
100
AcDbEntity
  8
0
100
AcDbBlockEnd
  0
BLOCK
  5
56A
330
568
100
AcDbEntity
  8
0
100
AcDbBlockBegin
  2
block 197
 70
     0
 71
     0
 10
0.0
 20
0.0
 30
0.0
  3
block 197
  1

  0
POLYLINE
  5
56C
330
568
100
AcDbEntity
  8
COTAS
370
     0
100
AcDb2dPolyline
 66
     1
 10
0.0
 20
0.0
 30
0.0
  0
VERTEX
  5
56D
330
56C
100
AcDbEntity
  8
COTAS
370
     0
100
AcDbVertex
100
AcDb2dVertex
 10
177.3823991461467
 20
66.33983595663766
 30
0.0
  0
VERTEX
  5
56E
330
56C
100
AcDbEntity
  8
COTAS
370
     0
100
AcDbVertex
100
AcDb2dVertex
 10
177.3823991461467
 20
65.74038894675233
 30
0.0
  0
VERTEX
  5
56F
330
56C
100
AcDbEntity
  8
COTAS
370
     0
100
AcDbVertex
100
AcDb2dVertex
 10
179.1807401758027
 20
66.040112451695
 30
0.0
  0
VERTEX
  5
570
330
56C
100
AcDbEntity
  8
COTAS
370
     0
100
AcDbVertex
100
AcDb2dVertex
 10
177.3823991461467
 20
66.33983595663766
 30
0.0
  0
SEQEND
  5
571
330
56C
100
AcDbEntity
  8
COTAS
370
     0
  0
HATCH
  5
572
330
568
100
AcDbEntity
  8
COTAS
 62
     7
420
 16777215
100
AcDbHatch
 10
0.0
 20
0.0
 30
0.0
210
0.0
220
0.0
230
1.0
  2
SOLID
 70
     1
 71
     0
 91
        1
 92
        1
 93
        3
 72
     1
 10
177.3823991461467
 20
66.33983595663766
 11
177.3823991461467
 21
65.74038894675233
 72
     1
 10
177.3823991461467
 20
65.74038894675233
 11
179.1807401758027
 21
66.040112451695
 72
     1
 10
179.1807401758027
 20
66.040112451695
 11
177.3823991461467
 21
66.33983595663766
 97
        0
 75
     2
 76
     1
 98
        0
  0
ENDBLK
  5
56B
330
568
100
AcDbEntity
  8
0
100
AcDbBlockEnd
  0
BLOCK
  5
575
330
573
100
AcDbEntity
  8
0
100
AcDbBlockBegin
  2
block 198
 70
     0
 71
     0
 10
0.0
 20
0.0
 30
0.0
  3
block 198
  1

  0
MTEXT
  5
577
330
573
100
AcDbEntity
  8
COTAS
 62
     7
420
 16777215
100
AcDbMText
 10
115.2824450002325
 20
65.04103410188611
 30
0.0
 40
2.398890470823883
 41
0.0
 71
     7
 72
     1
  1
\fArial|b1|i0|c0|p34;\W1;1200
 73
     1
 44
1.0
  0
ENDBLK
  5
576
330
573
100
AcDbEntity
  8
0
100
AcDbBlockEnd
  0
BLOCK
  5
57A
330
578
100
AcDbEntity
  8
0
100
AcDbBlockBegin
  2
block 199
 70
     0
 71
     0
 10
0.0
 20
0.0
 30
0.0
  3
block 199
  1

  0
POLYLINE
  5
57C
330
578
100
AcDbEntity
  8
COTAS
 62
     7
420
 16777215
370
     9
100
AcDb2dPolyline
 66
     1
 10
0.0
 20
0.0
 30
0.0
  0
VERTEX
  5
57D
330
57C
100
AcDbEntity
  8
COTAS
 62
     7
420
 16777215
370
     9
100
AcDbVertex
100
AcDb2dVertex
 10
59.28238094456525
 20
80.08543150112901
 30
0.0
  0
VERTEX
  5
57E
330
57C
100
AcDbEntity
  8
COTAS
 62
     7
420
 16777215
370
     9
100
AcDbVertex
100
AcDb2dVertex
 10
59.28238094456525
 20
80.08543150112901
 30
0.0
  0
SEQEND
  5
57F
330
57C
100
AcDbEntity
  8
COTAS
370
     9
  0
ENDBLK
  5
57B
330
578
100
AcDbEntity
  8
0
100
AcDbBlockEnd
  0
BLOCK
  5
582
330
580
100
AcDbEntity
  8
0
100
AcDbBlockBegin
  2
block 200
 70
     0
 71
     0
 10
0.0
 20
0.0
 30
0.0
  3
block 200
  1

  0
POLYLINE
  5
584
330
580
100
AcDbEntity
  8
COTAS
 62
     7
420
 16777215
370
     9
100
AcDb2dPolyline
 66
     1
 10
0.0
 20
0.0
 30
0.0
  0
VERTEX
  5
585
330
584
100
AcDbEntity
  8
COTAS
 62
     7
420
 16777215
370
     9
100
AcDbVertex
100
AcDb2dVertex
 10
179.1807401758027
 20
80.08543150112901
 30
0.0
  0
VERTEX
  5
586
330
584
100
AcDbEntity
  8
COTAS
 62
     7
420
 16777215
370
     9
100
AcDbVertex
100
AcDb2dVertex
 10
179.1807401758027
 20
80.08543150112901
 30
0.0
  0
SEQEND
  5
587
330
584
100
AcDbEntity
  8
COTAS
370
     9
  0
ENDBLK
  5
583
330
580
100
AcDbEntity
  8
0
100
AcDbBlockEnd
  0
BLOCK
  5
58A
330
588
100
AcDbEntity
  8
0
100
AcDbBlockBegin
  2
block 201
 70
     0
 71
     0
 10
0.0
 20
0.0
 30
0.0
  3
block 201
  1

  0
POLYLINE
  5
58C
330
588
100
AcDbEntity
  8
COTAS
 62
     7
420
 16777215
370
     9
100
AcDb2dPolyline
 66
     1
 10
0.0
 20
0.0
 30
0.0
  0
VERTEX
  5
58D
330
58C
100
AcDbEntity
  8
COTAS
 62
     7
420
 16777215
370
     9
100
AcDbVertex
100
AcDb2dVertex
 10
179.1807401758027
 20
66.040112451695
 30
0.0
  0
VERTEX
  5
58E
330
58C
100
AcDbEntity
  8
COTAS
 62
     7
420
 16777215
370
     9
100
AcDbVertex
100
AcDb2dVertex
 10
179.1807401758027
 20
66.040112451695
 30
0.0
  0
SEQEND
  5
58F
330
58C
100
AcDbEntity
  8
COTAS
370
     9
  0
ENDBLK
  5
58B
330
588
100
AcDbEntity
  8
0
100
AcDbBlockEnd
  0
BLOCK
  5
592
330
590
100
AcDbEntity
  8
0
100
AcDbBlockBegin
  2
block 202
 70
     0
 71
     0
 10
0.0
 20
0.0
 30
0.0
  3
block 202
  1

  0
INSERT
  5
595
330
590
100
AcDbEntity
  8
COTAS
100
AcDbBlockReference
  2
block 203
 10
0.0
 20
0.0
 30
0.0
  0
INSERT
  5
59D
330
590
100
AcDbEntity
  8
COTAS
100
AcDbBlockReference
  2
block 204
 10
0.0
 20
0.0
 30
0.0
  0
INSERT
  5
5A5
330
590
100
AcDbEntity
  8
COTAS
100
AcDbBlockReference
  2
block 205
 10
0.0
 20
0.0
 30
0.0
  0
INSERT
  5
5AD
330
590
100
AcDbEntity
  8
COTAS
100
AcDbBlockReference
  2
block 206
 10
0.0
 20
0.0
 30
0.0
  0
INSERT
  5
5B5
330
590
100
AcDbEntity
  8
COTAS
100
AcDbBlockReference
  2
block 207
 10
0.0
 20
0.0
 30
0.0
  0
INSERT
  5
5C0
330
590
100
AcDbEntity
  8
COTAS
100
AcDbBlockReference
  2
block 208
 10
0.0
 20
0.0
 30
0.0
  0
INSERT
  5
5CB
330
590
100
AcDbEntity
  8
COTAS
100
AcDbBlockReference
  2
block 209
 10
0.0
 20
0.0
 30
0.0
  0
INSERT
  5
5D0
330
590
100
AcDbEntity
  8
COTAS
100
AcDbBlockReference
  2
block 210
 10
0.0
 20
0.0
 30
0.0
  0
INSERT
  5
5D8
330
590
100
AcDbEntity
  8
COTAS
100
AcDbBlockReference
  2
block 211
 10
0.0
 20
0.0
 30
0.0
  0
INSERT
  5
5E0
330
590
100
AcDbEntity
  8
COTAS
100
AcDbBlockReference
  2
block 212
 10
0.0
 20
0.0
 30
0.0
  0
ENDBLK
  5
593
330
590
100
AcDbEntity
  8
0
100
AcDbBlockEnd
  0
BLOCK
  5
596
330
594
100
AcDbEntity
  8
0
100
AcDbBlockBegin
  2
block 203
 70
     0
 71
     0
 10
0.0
 20
0.0
 30
0.0
  3
block 203
  1

  0
POLYLINE
  5
598
330
594
100
AcDbEntity
  8
COTAS
 62
     7
420
 16777215
370
     9
100
AcDb2dPolyline
 66
     1
 10
0.0
 20
0.0
 30
0.0
  0
VERTEX
  5
599
330
598
100
AcDbEntity
  8
COTAS
 62
     7
420
 16777215
370
     9
100
AcDbVertex
100
AcDb2dVertex
 10
58.28313033986846
 20
160.0177284069166
 30
0.0
  0
VERTEX
  5
59A
330
598
100
AcDbEntity
  8
COTAS
 62
     7
420
 16777215
370
     9
100
AcDbVertex
100
AcDb2dVertex
 10
42.63153446078481
 20
160.0177284069166
 30
0.0
  0
SEQEND
  5
59B
330
598
100
AcDbEntity
  8
COTAS
370
     9
  0
ENDBLK
  5
597
330
594
100
AcDbEntity
  8
0
100
AcDbBlockEnd
  0
BLOCK
  5
59E
330
59C
100
AcDbEntity
  8
0
100
AcDbBlockBegin
  2
block 204
 70
     0
 71
     0
 10
0.0
 20
0.0
 30
0.0
  3
block 204
  1

  0
POLYLINE
  5
5A0
330
59C
100
AcDbEntity
  8
COTAS
 62
     7
420
 16777215
370
     9
100
AcDb2dPolyline
 66
     1
 10
0.0
 20
0.0
 30
0.0
  0
VERTEX
  5
5A1
330
5A0
100
AcDbEntity
  8
COTAS
 62
     7
420
 16777215
370
     9
100
AcDbVertex
100
AcDb2dVertex
 10
58.28313033986846
 20
80.08543150112901
 30
0.0
  0
VERTEX
  5
5A2
330
5A0
100
AcDbEntity
  8
COTAS
 62
     7
420
 16777215
370
     9
100
AcDbVertex
100
AcDb2dVertex
 10
42.63153446078481
 20
80.08543150112901
 30
0.0
  0
SEQEND
  5
5A3
330
5A0
100
AcDbEntity
  8
COTAS
370
     9
  0
ENDBLK
  5
59F
330
59C
100
AcDbEntity
  8
0
100
AcDbBlockEnd
  0
BLOCK
  5
5A6
330
5A4
100
AcDbEntity
  8
0
100
AcDbBlockBegin
  2
block 205
 70
     0
 71
     0
 10
0.0
 20
0.0
 30
0.0
  3
block 205
  1

  0
POLYLINE
  5
5A8
330
5A4
100
AcDbEntity
  8
COTAS
 62
     7
420
 16777215
370
     9
100
AcDb2dPolyline
 66
     1
 10
0.0
 20
0.0
 30
0.0
  0
VERTEX
  5
5A9
330
5A8
100
AcDbEntity
  8
COTAS
 62
     7
420
 16777215
370
     9
100
AcDbVertex
100
AcDb2dVertex
 10
43.6306128105937
 20
158.2193873772606
 30
0.0
  0
VERTEX
  5
5AA
330
5A8
100
AcDbEntity
  8
COTAS
 62
     7
420
 16777215
370
     9
100
AcDbVertex
100
AcDb2dVertex
 10
43.6306128105937
 20
122.0498227810845
 30
0.0
  0
SEQEND
  5
5AB
330
5A8
100
AcDbEntity
  8
COTAS
370
     9
  0
ENDBLK
  5
5A7
330
5A4
100
AcDbEntity
  8
0
100
AcDbBlockEnd
  0
BLOCK
  5
5AE
330
5AC
100
AcDbEntity
  8
0
100
AcDbBlockBegin
  2
block 206
 70
     0
 71
     0
 10
0.0
 20
0.0
 30
0.0
  3
block 206
  1

  0
POLYLINE
  5
5B0
330
5AC
100
AcDbEntity
  8
COTAS
 62
     7
420
 16777215
370
     9
100
AcDb2dPolyline
 66
     1
 10
0.0
 20
0.0
 30
0.0
  0
VERTEX
  5
5B1
330
5B0
100
AcDbEntity
  8
COTAS
 62
     7
420
 16777215
370
     9
100
AcDbVertex
100
AcDb2dVertex
 10
43.6306128105937
 20
81.8841170405608
 30
0.0
  0
VERTEX
  5
5B2
330
5B0
100
AcDbEntity
  8
COTAS
 62
     7
420
 16777215
370
     9
100
AcDbVertex
100
AcDb2dVertex
 10
43.6306128105937
 20
118.053509381849
 30
0.0
  0
SEQEND
  5
5B3
330
5B0
100
AcDbEntity
  8
COTAS
370
     9
  0
ENDBLK
  5
5AF
330
5AC
100
AcDbEntity
  8
0
100
AcDbBlockEnd
  0
BLOCK
  5
5B6
330
5B4
100
AcDbEntity
  8
0
100
AcDbBlockBegin
  2
block 207
 70
     0
 71
     0
 10
0.0
 20
0.0
 30
0.0
  3
block 207
  1

  0
POLYLINE
  5
5B8
330
5B4
100
AcDbEntity
  8
COTAS
370
     0
100
AcDb2dPolyline
 66
     1
 10
0.0
 20
0.0
 30
0.0
  0
VERTEX
  5
5B9
330
5B8
100
AcDbEntity
  8
COTAS
370
     0
100
AcDbVertex
100
AcDb2dVertex
 10
43.33088930565103
 20
158.2193873772606
 30
0.0
  0
VERTEX
  5
5BA
330
5B8
100
AcDbEntity
  8
COTAS
370
     0
100
AcDbVertex
100
AcDb2dVertex
 10
43.93033631553637
 20
158.2193873772606
 30
0.0
  0
VERTEX
  5
5BB
330
5B8
100
AcDbEntity
  8
COTAS
370
     0
100
AcDbVertex
100
AcDb2dVertex
 10
43.6306128105937
 20
160.0177284069166
 30
0.0
  0
VERTEX
  5
5BC
330
5B8
100
AcDbEntity
  8
COTAS
370
     0
100
AcDbVertex
100
AcDb2dVertex
 10
43.33088930565103
 20
158.2193873772606
 30
0.0
  0
SEQEND
  5
5BD
330
5B8
100
AcDbEntity
  8
COTAS
370
     0
  0
HATCH
  5
5BE
330
5B4
100
AcDbEntity
  8
COTAS
 62
     7
420
 16777215
100
AcDbHatch
 10
0.0
 20
0.0
 30
0.0
210
0.0
220
0.0
230
1.0
  2
SOLID
 70
     1
 71
     0
 91
        1
 92
        1
 93
        3
 72
     1
 10
43.33088930565103
 20
158.2193873772606
 11
43.93033631553637
 21
158.2193873772606
 72
     1
 10
43.93033631553637
 20
158.2193873772606
 11
43.6306128105937
 21
160.0177284069166
 72
     1
 10
43.6306128105937
 20
160.0177284069166
 11
43.33088930565103
 21
158.2193873772606
 97
        0
 75
     2
 76
     1
 98
        0
  0
ENDBLK
  5
5B7
330
5B4
100
AcDbEntity
  8
0
100
AcDbBlockEnd
  0
BLOCK
  5
5C1
330
5BF
100
AcDbEntity
  8
0
100
AcDbBlockBegin
  2
block 208
 70
     0
 71
     0
 10
0.0
 20
0.0
 30
0.0
  3
block 208
  1

  0
POLYLINE
  5
5C3
330
5BF
100
AcDbEntity
  8
COTAS
370
     0
100
AcDb2dPolyline
 66
     1
 10
0.0
 20
0.0
 30
0.0
  0
VERTEX
  5
5C4
330
5C3
100
AcDbEntity
  8
COTAS
370
     0
100
AcDbVertex
100
AcDb2dVertex
 10
43.33088930565103
 20
81.8841170405608
 30
0.0
  0
VERTEX
  5
5C5
330
5C3
100
AcDbEntity
  8
COTAS
370
     0
100
AcDbVertex
100
AcDb2dVertex
 10
43.93033631553637
 20
81.8841170405608
 30
0.0
  0
VERTEX
  5
5C6
330
5C3
100
AcDbEntity
  8
COTAS
370
     0
100
AcDbVertex
100
AcDb2dVertex
 10
43.6306128105937
 20
80.08543150112901
 30
0.0
  0
VERTEX
  5
5C7
330
5C3
100
AcDbEntity
  8
COTAS
370
     0
100
AcDbVertex
100
AcDb2dVertex
 10
43.33088930565103
 20
81.8841170405608
 30
0.0
  0
SEQEND
  5
5C8
330
5C3
100
AcDbEntity
  8
COTAS
370
     0
  0
HATCH
  5
5C9
330
5BF
100
AcDbEntity
  8
COTAS
 62
     7
420
 16777215
100
AcDbHatch
 10
0.0
 20
0.0
 30
0.0
210
0.0
220
0.0
230
1.0
  2
SOLID
 70
     1
 71
     0
 91
        1
 92
        1
 93
        3
 72
     1
 10
43.33088930565103
 20
81.8841170405608
 11
43.93033631553637
 21
81.8841170405608
 72
     1
 10
43.93033631553637
 20
81.8841170405608
 11
43.6306128105937
 21
80.08543150112901
 72
     1
 10
43.6306128105937
 20
80.08543150112901
 11
43.33088930565103
 21
81.8841170405608
 97
        0
 75
     2
 76
     1
 98
        0
  0
ENDBLK
  5
5C2
330
5BF
100
AcDbEntity
  8
0
100
AcDbBlockEnd
  0
BLOCK
  5
5CC
330
5CA
100
AcDbEntity
  8
0
100
AcDbBlockBegin
  2
block 209
 70
     0
 71
     0
 10
0.0
 20
0.0
 30
0.0
  3
block 209
  1

  0
MTEXT
  5
5CE
330
5CA
100
AcDbEntity
  8
COTAS
 62
     7
420
 16777215
100
AcDbMText
 10
40.77583255345875
 20
119.0525877316579
 30
0.0
 40
2.398890470823883
 41
0.0
 71
     7
 72
     1
  1
\fArial|b1|i0|c0|p34;\W1;800
 73
     1
 44
1.0
  0
ENDBLK
  5
5CD
330
5CA
100
AcDbEntity
  8
0
100
AcDbBlockEnd
  0
BLOCK
  5
5D1
330
5CF
100
AcDbEntity
  8
0
100
AcDbBlockBegin
  2
block 210
 70
     0
 71
     0
 10
0.0
 20
0.0
 30
0.0
  3
block 210
  1

  0
POLYLINE
  5
5D3
330
5CF
100
AcDbEntity
  8
COTAS
 62
     7
420
 16777215
370
     9
100
AcDb2dPolyline
 66
     1
 10
0.0
 20
0.0
 30
0.0
  0
VERTEX
  5
5D4
330
5D3
100
AcDbEntity
  8
COTAS
 62
     7
420
 16777215
370
     9
100
AcDbVertex
100
AcDb2dVertex
 10
59.28238094456525
 20
160.0177284069166
 30
0.0
  0
VERTEX
  5
5D5
330
5D3
100
AcDbEntity
  8
COTAS
 62
     7
420
 16777215
370
     9
100
AcDbVertex
100
AcDb2dVertex
 10
59.28238094456525
 20
160.0177284069166
 30
0.0
  0
SEQEND
  5
5D6
330
5D3
100
AcDbEntity
  8
COTAS
370
     9
  0
ENDBLK
  5
5D2
330
5CF
100
AcDbEntity
  8
0
100
AcDbBlockEnd
  0
BLOCK
  5
5D9
330
5D7
100
AcDbEntity
  8
0
100
AcDbBlockBegin
  2
block 211
 70
     0
 71
     0
 10
0.0
 20
0.0
 30
0.0
  3
block 211
  1

  0
POLYLINE
  5
5DB
330
5D7
100
AcDbEntity
  8
COTAS
 62
     7
420
 16777215
370
     9
100
AcDb2dPolyline
 66
     1
 10
0.0
 20
0.0
 30
0.0
  0
VERTEX
  5
5DC
330
5DB
100
AcDbEntity
  8
COTAS
 62
     7
420
 16777215
370
     9
100
AcDbVertex
100
AcDb2dVertex
 10
59.28238094456525
 20
80.08543150112901
 30
0.0
  0
VERTEX
  5
5DD
330
5DB
100
AcDbEntity
  8
COTAS
 62
     7
420
 16777215
370
     9
100
AcDbVertex
100
AcDb2dVertex
 10
59.28238094456525
 20
80.08543150112901
 30
0.0
  0
SEQEND
  5
5DE
330
5DB
100
AcDbEntity
  8
COTAS
370
     9
  0
ENDBLK
  5
5DA
330
5D7
100
AcDbEntity
  8
0
100
AcDbBlockEnd
  0
BLOCK
  5
5E1
330
5DF
100
AcDbEntity
  8
0
100
AcDbBlockBegin
  2
block 212
 70
     0
 71
     0
 10
0.0
 20
0.0
 30
0.0
  3
block 212
  1

  0
POLYLINE
  5
5E3
330
5DF
100
AcDbEntity
  8
COTAS
 62
     7
420
 16777215
370
     9
100
AcDb2dPolyline
 66
     1
 10
0.0
 20
0.0
 30
0.0
  0
VERTEX
  5
5E4
330
5E3
100
AcDbEntity
  8
COTAS
 62
     7
420
 16777215
370
     9
100
AcDbVertex
100
AcDb2dVertex
 10
43.6306128105937
 20
80.08543150112901
 30
0.0
  0
VERTEX
  5
5E5
330
5E3
100
AcDbEntity
  8
COTAS
 62
     7
420
 16777215
370
     9
100
AcDbVertex
100
AcDb2dVertex
 10
43.6306128105937
 20
80.08543150112901
 30
0.0
  0
SEQEND
  5
5E6
330
5E3
100
AcDbEntity
  8
COTAS
370
     9
  0
ENDBLK
  5
5E2
330
5DF
100
AcDbEntity
  8
0
100
AcDbBlockEnd
  0
BLOCK
  5
5E9
330
5E7
100
AcDbEntity
  8
0
100
AcDbBlockBegin
  2
block 213
 70
     0
 71
     0
 10
0.0
 20
0.0
 30
0.0
  3
block 213
  1

  0
INSERT
  5
5EC
330
5E7
100
AcDbEntity
  8
COTAS
100
AcDbBlockReference
  2
block 214
 10
0.0
 20
0.0
 30
0.0
  0
INSERT
  5
5F4
330
5E7
100
AcDbEntity
  8
COTAS
100
AcDbBlockReference
  2
block 215
 10
0.0
 20
0.0
 30
0.0
  0
INSERT
  5
5FC
330
5E7
100
AcDbEntity
  8
COTAS
100
AcDbBlockReference
  2
block 216
 10
0.0
 20
0.0
 30
0.0
  0
INSERT
  5
604
330
5E7
100
AcDbEntity
  8
COTAS
100
AcDbBlockReference
  2
block 217
 10
0.0
 20
0.0
 30
0.0
  0
INSERT
  5
60C
330
5E7
100
AcDbEntity
  8
COTAS
100
AcDbBlockReference
  2
block 218
 10
0.0
 20
0.0
 30
0.0
  0
INSERT
  5
617
330
5E7
100
AcDbEntity
  8
COTAS
100
AcDbBlockReference
  2
block 219
 10
0.0
 20
0.0
 30
0.0
  0
INSERT
  5
622
330
5E7
100
AcDbEntity
  8
COTAS
100
AcDbBlockReference
  2
block 220
 10
0.0
 20
0.0
 30
0.0
  0
INSERT
  5
627
330
5E7
100
AcDbEntity
  8
COTAS
100
AcDbBlockReference
  2
block 221
 10
0.0
 20
0.0
 30
0.0
  0
INSERT
  5
62F
330
5E7
100
AcDbEntity
  8
COTAS
100
AcDbBlockReference
  2
block 222
 10
0.0
 20
0.0
 30
0.0
  0
INSERT
  5
637
330
5E7
100
AcDbEntity
  8
COTAS
100
AcDbBlockReference
  2
block 223
 10
0.0
 20
0.0
 30
0.0
  0
ENDBLK
  5
5EA
330
5E7
100
AcDbEntity
  8
0
100
AcDbBlockEnd
  0
BLOCK
  5
5ED
330
5EB
100
AcDbEntity
  8
0
100
AcDbBlockBegin
  2
block 214
 70
     0
 71
     0
 10
0.0
 20
0.0
 30
0.0
  3
block 214
  1

  0
POLYLINE
  5
5EF
330
5EB
100
AcDbEntity
  8
COTAS
 62
     7
420
 16777215
370
     9
100
AcDb2dPolyline
 66
     1
 10
0.0
 20
0.0
 30
0.0
  0
VERTEX
  5
5F0
330
5EF
100
AcDbEntity
  8
COTAS
 62
     7
420
 16777215
370
     9
100
AcDbVertex
100
AcDb2dVertex
 10
67.27552450770006
 20
98.56975901169665
 30
0.0
  0
VERTEX
  5
5F1
330
5EF
100
AcDbEntity
  8
COTAS
 62
     7
420
 16777215
370
     9
100
AcDbVertex
100
AcDb2dVertex
 10
50.52408116938714
 20
98.56975901169665
 30
0.0
  0
SEQEND
  5
5F2
330
5EF
100
AcDbEntity
  8
COTAS
370
     9
  0
ENDBLK
  5
5EE
330
5EB
100
AcDbEntity
  8
0
100
AcDbBlockEnd
  0
BLOCK
  5
5F5
330
5F3
100
AcDbEntity
  8
0
100
AcDbBlockBegin
  2
block 215
 70
     0
 71
     0
 10
0.0
 20
0.0
 30
0.0
  3
block 215
  1

  0
POLYLINE
  5
5F7
330
5F3
100
AcDbEntity
  8
COTAS
 62
     7
420
 16777215
370
     9
100
AcDb2dPolyline
 66
     1
 10
0.0
 20
0.0
 30
0.0
  0
VERTEX
  5
5F8
330
5F7
100
AcDbEntity
  8
COTAS
 62
     7
420
 16777215
370
     9
100
AcDbVertex
100
AcDb2dVertex
 10
58.28313033986846
 20
80.08543150112901
 30
0.0
  0
VERTEX
  5
5F9
330
5F7
100
AcDbEntity
  8
COTAS
 62
     7
420
 16777215
370
     9
100
AcDbVertex
100
AcDb2dVertex
 10
50.52408116938714
 20
80.08543150112901
 30
0.0
  0
SEQEND
  5
5FA
330
5F7
100
AcDbEntity
  8
COTAS
370
     9
  0
ENDBLK
  5
5F6
330
5F3
100
AcDbEntity
  8
0
100
AcDbBlockEnd
  0
BLOCK
  5
5FD
330
5FB
100
AcDbEntity
  8
0
100
AcDbBlockBegin
  2
block 216
 70
     0
 71
     0
 10
0.0
 20
0.0
 30
0.0
  3
block 216
  1

  0
POLYLINE
  5
5FF
330
5FB
100
AcDbEntity
  8
COTAS
 62
     7
420
 16777215
370
     9
100
AcDb2dPolyline
 66
     1
 10
0.0
 20
0.0
 30
0.0
  0
VERTEX
  5
600
330
5FF
100
AcDbEntity
  8
COTAS
 62
     7
420
 16777215
370
     9
100
AcDbVertex
100
AcDb2dVertex
 10
51.52333177408393
 20
96.77141798204065
 30
0.0
  0
VERTEX
  5
601
330
5FF
100
AcDbEntity
  8
COTAS
 62
     7
420
 16777215
370
     9
100
AcDbVertex
100
AcDb2dVertex
 10
51.52333177408393
 20
91.3260964658064
 30
0.0
  0
SEQEND
  5
602
330
5FF
100
AcDbEntity
  8
COTAS
370
     9
  0
ENDBLK
  5
5FE
330
5FB
100
AcDbEntity
  8
0
100
AcDbBlockEnd
  0
BLOCK
  5
605
330
603
100
AcDbEntity
  8
0
100
AcDbBlockBegin
  2
block 217
 70
     0
 71
     0
 10
0.0
 20
0.0
 30
0.0
  3
block 217
  1

  0
POLYLINE
  5
607
330
603
100
AcDbEntity
  8
COTAS
 62
     7
420
 16777215
370
     9
100
AcDb2dPolyline
 66
     1
 10
0.0
 20
0.0
 30
0.0
  0
VERTEX
  5
608
330
607
100
AcDbEntity
  8
COTAS
 62
     7
420
 16777215
370
     9
100
AcDbVertex
100
AcDb2dVertex
 10
51.52333177408393
 20
81.8841170405608
 30
0.0
  0
VERTEX
  5
609
330
607
100
AcDbEntity
  8
COTAS
 62
     7
420
 16777215
370
     9
100
AcDbVertex
100
AcDb2dVertex
 10
51.52333177408393
 20
87.32943855679504
 30
0.0
  0
SEQEND
  5
60A
330
607
100
AcDbEntity
  8
COTAS
370
     9
  0
ENDBLK
  5
606
330
603
100
AcDbEntity
  8
0
100
AcDbBlockEnd
  0
BLOCK
  5
60D
330
60B
100
AcDbEntity
  8
0
100
AcDbBlockBegin
  2
block 218
 70
     0
 71
     0
 10
0.0
 20
0.0
 30
0.0
  3
block 218
  1

  0
POLYLINE
  5
60F
330
60B
100
AcDbEntity
  8
COTAS
370
     0
100
AcDb2dPolyline
 66
     1
 10
0.0
 20
0.0
 30
0.0
  0
VERTEX
  5
610
330
60F
100
AcDbEntity
  8
COTAS
370
     0
100
AcDbVertex
100
AcDb2dVertex
 10
51.22360826914127
 20
96.77141798204065
 30
0.0
  0
VERTEX
  5
611
330
60F
100
AcDbEntity
  8
COTAS
370
     0
100
AcDbVertex
100
AcDb2dVertex
 10
51.8230552790266
 20
96.77141798204065
 30
0.0
  0
VERTEX
  5
612
330
60F
100
AcDbEntity
  8
COTAS
370
     0
100
AcDbVertex
100
AcDb2dVertex
 10
51.52333177408393
 20
98.56975901169665
 30
0.0
  0
VERTEX
  5
613
330
60F
100
AcDbEntity
  8
COTAS
370
     0
100
AcDbVertex
100
AcDb2dVertex
 10
51.22360826914127
 20
96.77141798204065
 30
0.0
  0
SEQEND
  5
614
330
60F
100
AcDbEntity
  8
COTAS
370
     0
  0
HATCH
  5
615
330
60B
100
AcDbEntity
  8
COTAS
 62
     7
420
 16777215
100
AcDbHatch
 10
0.0
 20
0.0
 30
0.0
210
0.0
220
0.0
230
1.0
  2
SOLID
 70
     1
 71
     0
 91
        1
 92
        1
 93
        3
 72
     1
 10
51.22360826914127
 20
96.77141798204065
 11
51.8230552790266
 21
96.77141798204065
 72
     1
 10
51.8230552790266
 20
96.77141798204065
 11
51.52333177408393
 21
98.56975901169665
 72
     1
 10
51.52333177408393
 20
98.56975901169665
 11
51.22360826914127
 21
96.77141798204065
 97
        0
 75
     2
 76
     1
 98
        0
  0
ENDBLK
  5
60E
330
60B
100
AcDbEntity
  8
0
100
AcDbBlockEnd
  0
BLOCK
  5
618
330
616
100
AcDbEntity
  8
0
100
AcDbBlockBegin
  2
block 219
 70
     0
 71
     0
 10
0.0
 20
0.0
 30
0.0
  3
block 219
  1

  0
POLYLINE
  5
61A
330
616
100
AcDbEntity
  8
COTAS
370
     0
100
AcDb2dPolyline
 66
     1
 10
0.0
 20
0.0
 30
0.0
  0
VERTEX
  5
61B
330
61A
100
AcDbEntity
  8
COTAS
370
     0
100
AcDbVertex
100
AcDb2dVertex
 10
51.22360826914127
 20
81.8841170405608
 30
0.0
  0
VERTEX
  5
61C
330
61A
100
AcDbEntity
  8
COTAS
370
     0
100
AcDbVertex
100
AcDb2dVertex
 10
51.8230552790266
 20
81.8841170405608
 30
0.0
  0
VERTEX
  5
61D
330
61A
100
AcDbEntity
  8
COTAS
370
     0
100
AcDbVertex
100
AcDb2dVertex
 10
51.52333177408393
 20
80.08543150112901
 30
0.0
  0
VERTEX
  5
61E
330
61A
100
AcDbEntity
  8
COTAS
370
     0
100
AcDbVertex
100
AcDb2dVertex
 10
51.22360826914127
 20
81.8841170405608
 30
0.0
  0
SEQEND
  5
61F
330
61A
100
AcDbEntity
  8
COTAS
370
     0
  0
HATCH
  5
620
330
616
100
AcDbEntity
  8
COTAS
 62
     7
420
 16777215
100
AcDbHatch
 10
0.0
 20
0.0
 30
0.0
210
0.0
220
0.0
230
1.0
  2
SOLID
 70
     1
 71
     0
 91
        1
 92
        1
 93
        3
 72
     1
 10
51.22360826914127
 20
81.8841170405608
 11
51.8230552790266
 21
81.8841170405608
 72
     1
 10
51.8230552790266
 20
81.8841170405608
 11
51.52333177408393
 21
80.08543150112901
 72
     1
 10
51.52333177408393
 20
80.08543150112901
 11
51.22360826914127
 21
81.8841170405608
 97
        0
 75
     2
 76
     1
 98
        0
  0
ENDBLK
  5
619
330
616
100
AcDbEntity
  8
0
100
AcDbBlockEnd
  0
BLOCK
  5
623
330
621
100
AcDbEntity
  8
0
100
AcDbBlockBegin
  2
block 220
 70
     0
 71
     0
 10
0.0
 20
0.0
 30
0.0
  3
block 220
  1

  0
MTEXT
  5
625
330
621
100
AcDbEntity
  8
COTAS
 62
     7
420
 16777215
100
AcDbMText
 10
48.52575221488146
 20
88.32851690660394
 30
0.0
 40
2.398890470823883
 41
0.0
 71
     7
 72
     1
  1
\fArial|b1|i0|c0|p34;\W1;185
 73
     1
 44
1.0
  0
ENDBLK
  5
624
330
621
100
AcDbEntity
  8
0
100
AcDbBlockEnd
  0
BLOCK
  5
628
330
626
100
AcDbEntity
  8
0
100
AcDbBlockBegin
  2
block 221
 70
     0
 71
     0
 10
0.0
 20
0.0
 30
0.0
  3
block 221
  1

  0
POLYLINE
  5
62A
330
626
100
AcDbEntity
  8
COTAS
 62
     7
420
 16777215
370
     9
100
AcDb2dPolyline
 66
     1
 10
0.0
 20
0.0
 30
0.0
  0
VERTEX
  5
62B
330
62A
100
AcDbEntity
  8
COTAS
 62
     7
420
 16777215
370
     9
100
AcDbVertex
100
AcDb2dVertex
 10
68.27477511239684
 20
98.56975901169665
 30
0.0
  0
VERTEX
  5
62C
330
62A
100
AcDbEntity
  8
COTAS
 62
     7
420
 16777215
370
     9
100
AcDbVertex
100
AcDb2dVertex
 10
68.27477511239684
 20
98.56975901169665
 30
0.0
  0
SEQEND
  5
62D
330
62A
100
AcDbEntity
  8
COTAS
370
     9
  0
ENDBLK
  5
629
330
626
100
AcDbEntity
  8
0
100
AcDbBlockEnd
  0
BLOCK
  5
630
330
62E
100
AcDbEntity
  8
0
100
AcDbBlockBegin
  2
block 222
 70
     0
 71
     0
 10
0.0
 20
0.0
 30
0.0
  3
block 222
  1

  0
POLYLINE
  5
632
330
62E
100
AcDbEntity
  8
COTAS
 62
     7
420
 16777215
370
     9
100
AcDb2dPolyline
 66
     1
 10
0.0
 20
0.0
 30
0.0
  0
VERTEX
  5
633
330
632
100
AcDbEntity
  8
COTAS
 62
     7
420
 16777215
370
     9
100
AcDbVertex
100
AcDb2dVertex
 10
59.28238094456525
 20
80.08543150112901
 30
0.0
  0
VERTEX
  5
634
330
632
100
AcDbEntity
  8
COTAS
 62
     7
420
 16777215
370
     9
100
AcDbVertex
100
AcDb2dVertex
 10
59.28238094456525
 20
80.08543150112901
 30
0.0
  0
SEQEND
  5
635
330
632
100
AcDbEntity
  8
COTAS
370
     9
  0
ENDBLK
  5
631
330
62E
100
AcDbEntity
  8
0
100
AcDbBlockEnd
  0
BLOCK
  5
638
330
636
100
AcDbEntity
  8
0
100
AcDbBlockBegin
  2
block 223
 70
     0
 71
     0
 10
0.0
 20
0.0
 30
0.0
  3
block 223
  1

  0
POLYLINE
  5
63A
330
636
100
AcDbEntity
  8
COTAS
 62
     7
420
 16777215
370
     9
100
AcDb2dPolyline
 66
     1
 10
0.0
 20
0.0
 30
0.0
  0
VERTEX
  5
63B
330
63A
100
AcDbEntity
  8
COTAS
 62
     7
420
 16777215
370
     9
100
AcDbVertex
100
AcDb2dVertex
 10
51.52333177408393
 20
80.08543150112901
 30
0.0
  0
VERTEX
  5
63C
330
63A
100
AcDbEntity
  8
COTAS
 62
     7
420
 16777215
370
     9
100
AcDbVertex
100
AcDb2dVertex
 10
51.52333177408393
 20
80.08543150112901
 30
0.0
  0
SEQEND
  5
63D
330
63A
100
AcDbEntity
  8
COTAS
370
     9
  0
ENDBLK
  5
639
330
636
100
AcDbEntity
  8
0
100
AcDbBlockEnd
  0
ENDSEC
  0
SECTION
  2
ENTITIES
  0
INSERT
  5
3F
330
1F
100
AcDbEntity
  8
Fina
100
AcDbBlockReference
  2
block 2
 10
0.0
 20
0.0
 30
0.0
  0
INSERT
  5
44
330
1F
100
AcDbEntity
  8
Fina
100
AcDbBlockReference
  2
block 3
 10
0.0
 20
0.0
 30
0.0
  0
INSERT
  5
49
330
1F
100
AcDbEntity
  8
Fina
100
AcDbBlockReference
  2
block 4
 10
0.0
 20
0.0
 30
0.0
  0
INSERT
  5
4E
330
1F
100
AcDbEntity
  8
Fina
100
AcDbBlockReference
  2
block 5
 10
0.0
 20
0.0
 30
0.0
  0
INSERT
  5
53
330
1F
100
AcDbEntity
  8
Fina
100
AcDbBlockReference
  2
block 6
 10
0.0
 20
0.0
 30
0.0
  0
INSERT
  5
58
330
1F
100
AcDbEntity
  8
Fina
100
AcDbBlockReference
  2
block 7
 10
0.0
 20
0.0
 30
0.0
  0
INSERT
  5
5D
330
1F
100
AcDbEntity
  8
Fina
100
AcDbBlockReference
  2
block 8
 10
0.0
 20
0.0
 30
0.0
  0
INSERT
  5
62
330
1F
100
AcDbEntity
  8
Fina
100
AcDbBlockReference
  2
block 9
 10
0.0
 20
0.0
 30
0.0
  0
INSERT
  5
67
330
1F
100
AcDbEntity
  8
Fina
100
AcDbBlockReference
  2
block 10
 10
0.0
 20
0.0
 30
0.0
  0
INSERT
  5
6C
330
1F
100
AcDbEntity
  8
Fina
100
AcDbBlockReference
  2
block 11
 10
0.0
 20
0.0
 30
0.0
  0
INSERT
  5
71
330
1F
100
AcDbEntity
  8
Fina
100
AcDbBlockReference
  2
block 12
 10
0.0
 20
0.0
 30
0.0
  0
INSERT
  5
76
330
1F
100
AcDbEntity
  8
Fina
100
AcDbBlockReference
  2
block 13
 10
0.0
 20
0.0
 30
0.0
  0
INSERT
  5
7B
330
1F
100
AcDbEntity
  8
Fina
100
AcDbBlockReference
  2
block 14
 10
0.0
 20
0.0
 30
0.0
  0
INSERT
  5
80
330
1F
100
AcDbEntity
  8
Fina
100
AcDbBlockReference
  2
block 15
 10
0.0
 20
0.0
 30
0.0
  0
INSERT
  5
85
330
1F
100
AcDbEntity
  8
Fina
100
AcDbBlockReference
  2
block 16
 10
0.0
 20
0.0
 30
0.0
  0
INSERT
  5
8A
330
1F
100
AcDbEntity
  8
Fina
100
AcDbBlockReference
  2
block 17
 10
0.0
 20
0.0
 30
0.0
  0
INSERT
  5
8F
330
1F
100
AcDbEntity
  8
Fina
100
AcDbBlockReference
  2
block 18
 10
0.0
 20
0.0
 30
0.0
  0
INSERT
  5
94
330
1F
100
AcDbEntity
  8
Fina
100
AcDbBlockReference
  2
block 19
 10
0.0
 20
0.0
 30
0.0
  0
INSERT
  5
99
330
1F
100
AcDbEntity
  8
Fina
100
AcDbBlockReference
  2
block 20
 10
0.0
 20
0.0
 30
0.0
  0
INSERT
  5
9E
330
1F
100
AcDbEntity
  8
Fina
100
AcDbBlockReference
  2
block 21
 10
0.0
 20
0.0
 30
0.0
  0
INSERT
  5
A3
330
1F
100
AcDbEntity
  8
Fina
100
AcDbBlockReference
  2
block 22
 10
0.0
 20
0.0
 30
0.0
  0
INSERT
  5
A8
330
1F
100
AcDbEntity
  8
Fina
100
AcDbBlockReference
  2
block 23
 10
0.0
 20
0.0
 30
0.0
  0
INSERT
  5
AD
330
1F
100
AcDbEntity
  8
Fina
100
AcDbBlockReference
  2
block 24
 10
0.0
 20
0.0
 30
0.0
  0
INSERT
  5
B2
330
1F
100
AcDbEntity
  8
Fina
100
AcDbBlockReference
  2
block 25
 10
0.0
 20
0.0
 30
0.0
  0
INSERT
  5
B7
330
1F
100
AcDbEntity
  8
Fina
100
AcDbBlockReference
  2
block 26
 10
0.0
 20
0.0
 30
0.0
  0
INSERT
  5
BC
330
1F
100
AcDbEntity
  8
Fina
100
AcDbBlockReference
  2
block 27
 10
0.0
 20
0.0
 30
0.0
  0
INSERT
  5
C1
330
1F
100
AcDbEntity
  8
Fina
100
AcDbBlockReference
  2
block 28
 10
0.0
 20
0.0
 30
0.0
  0
INSERT
  5
C6
330
1F
100
AcDbEntity
  8
Fina
100
AcDbBlockReference
  2
block 29
 10
0.0
 20
0.0
 30
0.0
  0
INSERT
  5
CB
330
1F
100
AcDbEntity
  8
Fina
100
AcDbBlockReference
  2
block 30
 10
0.0
 20
0.0
 30
0.0
  0
INSERT
  5
D0
330
1F
100
AcDbEntity
  8
Fina
100
AcDbBlockReference
  2
block 31
 10
0.0
 20
0.0
 30
0.0
  0
INSERT
  5
D5
330
1F
100
AcDbEntity
  8
Fina
100
AcDbBlockReference
  2
block 32
 10
0.0
 20
0.0
 30
0.0
  0
INSERT
  5
DA
330
1F
100
AcDbEntity
  8
Fina
100
AcDbBlockReference
  2
block 33
 10
0.0
 20
0.0
 30
0.0
  0
INSERT
  5
DF
330
1F
100
AcDbEntity
  8
Fina
100
AcDbBlockReference
  2
block 34
 10
0.0
 20
0.0
 30
0.0
  0
INSERT
  5
E4
330
1F
100
AcDbEntity
  8
Fina
100
AcDbBlockReference
  2
block 35
 10
0.0
 20
0.0
 30
0.0
  0
INSERT
  5
E9
330
1F
100
AcDbEntity
  8
Fina
100
AcDbBlockReference
  2
block 36
 10
0.0
 20
0.0
 30
0.0
  0
INSERT
  5
EE
330
1F
100
AcDbEntity
  8
Fina
100
AcDbBlockReference
  2
block 37
 10
0.0
 20
0.0
 30
0.0
  0
INSERT
  5
F3
330
1F
100
AcDbEntity
  8
Fina
100
AcDbBlockReference
  2
block 38
 10
0.0
 20
0.0
 30
0.0
  0
INSERT
  5
F8
330
1F
100
AcDbEntity
  8
Fina
100
AcDbBlockReference
  2
block 39
 10
0.0
 20
0.0
 30
0.0
  0
INSERT
  5
FD
330
1F
100
AcDbEntity
  8
Fina
100
AcDbBlockReference
  2
block 40
 10
0.0
 20
0.0
 30
0.0
  0
INSERT
  5
102
330
1F
100
AcDbEntity
  8
Fina
100
AcDbBlockReference
  2
block 41
 10
0.0
 20
0.0
 30
0.0
  0
INSERT
  5
107
330
1F
100
AcDbEntity
  8
Fina
100
AcDbBlockReference
  2
block 42
 10
0.0
 20
0.0
 30
0.0
  0
INSERT
  5
10C
330
1F
100
AcDbEntity
  8
Fina
100
AcDbBlockReference
  2
block 43
 10
0.0
 20
0.0
 30
0.0
  0
INSERT
  5
111
330
1F
100
AcDbEntity
  8
Fina
100
AcDbBlockReference
  2
block 44
 10
0.0
 20
0.0
 30
0.0
  0
INSERT
  5
116
330
1F
100
AcDbEntity
  8
Fina
100
AcDbBlockReference
  2
block 45
 10
0.0
 20
0.0
 30
0.0
  0
INSERT
  5
11B
330
1F
100
AcDbEntity
  8
Fina
100
AcDbBlockReference
  2
block 46
 10
0.0
 20
0.0
 30
0.0
  0
INSERT
  5
120
330
1F
100
AcDbEntity
  8
Fina
100
AcDbBlockReference
  2
block 47
 10
0.0
 20
0.0
 30
0.0
  0
INSERT
  5
125
330
1F
100
AcDbEntity
  8
Fina
100
AcDbBlockReference
  2
block 48
 10
0.0
 20
0.0
 30
0.0
  0
INSERT
  5
12A
330
1F
100
AcDbEntity
  8
Fina
100
AcDbBlockReference
  2
block 49
 10
0.0
 20
0.0
 30
0.0
  0
INSERT
  5
12F
330
1F
100
AcDbEntity
  8
Fina
100
AcDbBlockReference
  2
block 50
 10
0.0
 20
0.0
 30
0.0
  0
INSERT
  5
134
330
1F
100
AcDbEntity
  8
Fina
100
AcDbBlockReference
  2
block 51
 10
0.0
 20
0.0
 30
0.0
  0
INSERT
  5
139
330
1F
100
AcDbEntity
  8
Fina
100
AcDbBlockReference
  2
block 52
 10
0.0
 20
0.0
 30
0.0
  0
INSERT
  5
13E
330
1F
100
AcDbEntity
  8
Fina
100
AcDbBlockReference
  2
block 53
 10
0.0
 20
0.0
 30
0.0
  0
INSERT
  5
143
330
1F
100
AcDbEntity
  8
Fina
100
AcDbBlockReference
  2
block 54
 10
0.0
 20
0.0
 30
0.0
  0
INSERT
  5
148
330
1F
100
AcDbEntity
  8
Fina
100
AcDbBlockReference
  2
block 55
 10
0.0
 20
0.0
 30
0.0
  0
INSERT
  5
14D
330
1F
100
AcDbEntity
  8
Fina
100
AcDbBlockReference
  2
block 56
 10
0.0
 20
0.0
 30
0.0
  0
INSERT
  5
152
330
1F
100
AcDbEntity
  8
Fina
100
AcDbBlockReference
  2
block 57
 10
0.0
 20
0.0
 30
0.0
  0
INSERT
  5
157
330
1F
100
AcDbEntity
  8
Fina
100
AcDbBlockReference
  2
block 58
 10
0.0
 20
0.0
 30
0.0
  0
INSERT
  5
15C
330
1F
100
AcDbEntity
  8
Fina
100
AcDbBlockReference
  2
block 59
 10
0.0
 20
0.0
 30
0.0
  0
INSERT
  5
161
330
1F
100
AcDbEntity
  8
Fina
100
AcDbBlockReference
  2
block 60
 10
0.0
 20
0.0
 30
0.0
  0
INSERT
  5
169
330
1F
100
AcDbEntity
  8
Fina
100
AcDbBlockReference
  2
block 61
 10
0.0
 20
0.0
 30
0.0
  0
INSERT
  5
16E
330
1F
100
AcDbEntity
  8
Fina
100
AcDbBlockReference
  2
block 62
 10
0.0
 20
0.0
 30
0.0
  0
INSERT
  5
173
330
1F
100
AcDbEntity
  8
Fina
100
AcDbBlockReference
  2
block 63
 10
0.0
 20
0.0
 30
0.0
  0
INSERT
  5
17B
330
1F
100
AcDbEntity
  8
Fina
100
AcDbBlockReference
  2
block 64
 10
0.0
 20
0.0
 30
0.0
  0
INSERT
  5
184
330
1F
100
AcDbEntity
  8
SOMBREA
100
AcDbBlockReference
  2
block 65
 10
0.0
 20
0.0
 30
0.0
  0
INSERT
  5
198
330
1F
100
AcDbEntity
  8
SOMBREA
100
AcDbBlockReference
  2
block 66
 10
0.0
 20
0.0
 30
0.0
  0
INSERT
  5
1AA
330
1F
100
AcDbEntity
  8
SOMBREA
100
AcDbBlockReference
  2
block 67
 10
0.0
 20
0.0
 30
0.0
  0
INSERT
  5
1BE
330
1F
100
AcDbEntity
  8
SOMBREA
100
AcDbBlockReference
  2
block 68
 10
0.0
 20
0.0
 30
0.0
  0
INSERT
  5
1C5
330
1F
100
AcDbEntity
  8
SOMBREA
100
AcDbBlockReference
  2
block 69
 10
0.0
 20
0.0
 30
0.0
  0
INSERT
  5
1D9
330
1F
100
AcDbEntity
  8
SOMBREA
100
AcDbBlockReference
  2
block 70
 10
0.0
 20
0.0
 30
0.0
  0
INSERT
  5
1EB
330
1F
100
AcDbEntity
  8
SOMBREA
100
AcDbBlockReference
  2
block 71
 10
0.0
 20
0.0
 30
0.0
  0
INSERT
  5
200
330
1F
100
AcDbEntity
  8
PIEZA
100
AcDbBlockReference
  2
block 72
 10
0.0
 20
0.0
 30
0.0
  0
INSERT
  5
208
330
1F
100
AcDbEntity
  8
PIEZA
100
AcDbBlockReference
  2
block 73
 10
0.0
 20
0.0
 30
0.0
  0
INSERT
  5
210
330
1F
100
AcDbEntity
  8
PIEZA
100
AcDbBlockReference
  2
block 74
 10
0.0
 20
0.0
 30
0.0
  0
INSERT
  5
218
330
1F
100
AcDbEntity
  8
PIEZA
100
AcDbBlockReference
  2
block 75
 10
0.0
 20
0.0
 30
0.0
  0
INSERT
  5
21D
330
1F
100
AcDbEntity
  8
PIEZA
100
AcDbBlockReference
  2
block 76
 10
0.0
 20
0.0
 30
0.0
  0
INSERT
  5
222
330
1F
100
AcDbEntity
  8
PIEZA
100
AcDbBlockReference
  2
block 77
 10
0.0
 20
0.0
 30
0.0
  0
INSERT
  5
227
330
1F
100
AcDbEntity
  8
PIEZA
100
AcDbBlockReference
  2
block 78
 10
0.0
 20
0.0
 30
0.0
  0
INSERT
  5
22F
330
1F
100
AcDbEntity
  8
PIEZA
100
AcDbBlockReference
  2
block 79
 10
0.0
 20
0.0
 30
0.0
  0
INSERT
  5
234
330
1F
100
AcDbEntity
  8
PIEZA
100
AcDbBlockReference
  2
block 80
 10
0.0
 20
0.0
 30
0.0
  0
INSERT
  5
239
330
1F
100
AcDbEntity
  8
PIEZA
100
AcDbBlockReference
  2
block 81
 10
0.0
 20
0.0
 30
0.0
  0
INSERT
  5
241
330
1F
100
AcDbEntity
  8
PIEZA
100
AcDbBlockReference
  2
block 82
 10
0.0
 20
0.0
 30
0.0
  0
INSERT
  5
249
330
1F
100
AcDbEntity
  8
PIEZA
100
AcDbBlockReference
  2
block 83
 10
0.0
 20
0.0
 30
0.0
  0
INSERT
  5
251
330
1F
100
AcDbEntity
  8
PIEZA
100
AcDbBlockReference
  2
block 84
 10
0.0
 20
0.0
 30
0.0
  0
INSERT
  5
256
330
1F
100
AcDbEntity
  8
PIEZA
100
AcDbBlockReference
  2
block 85
 10
0.0
 20
0.0
 30
0.0
  0
INSERT
  5
25B
330
1F
100
AcDbEntity
  8
PIEZA
100
AcDbBlockReference
  2
block 86
 10
0.0
 20
0.0
 30
0.0
  0
INSERT
  5
263
330
1F
100
AcDbEntity
  8
PIEZA
100
AcDbBlockReference
  2
block 87
 10
0.0
 20
0.0
 30
0.0
  0
INSERT
  5
26B
330
1F
100
AcDbEntity
  8
PIEZA
100
AcDbBlockReference
  2
block 88
 10
0.0
 20
0.0
 30
0.0
  0
INSERT
  5
270
330
1F
100
AcDbEntity
  8
PIEZA
100
AcDbBlockReference
  2
block 89
 10
0.0
 20
0.0
 30
0.0
  0
INSERT
  5
278
330
1F
100
AcDbEntity
  8
PIEZA
100
AcDbBlockReference
  2
block 90
 10
0.0
 20
0.0
 30
0.0
  0
INSERT
  5
280
330
1F
100
AcDbEntity
  8
PIEZA
100
AcDbBlockReference
  2
block 91
 10
0.0
 20
0.0
 30
0.0
  0
INSERT
  5
285
330
1F
100
AcDbEntity
  8
PIEZA
100
AcDbBlockReference
  2
block 92
 10
0.0
 20
0.0
 30
0.0
  0
INSERT
  5
28D
330
1F
100
AcDbEntity
  8
PIEZA
100
AcDbBlockReference
  2
block 93
 10
0.0
 20
0.0
 30
0.0
  0
INSERT
  5
295
330
1F
100
AcDbEntity
  8
PIEZA
100
AcDbBlockReference
  2
block 94
 10
0.0
 20
0.0
 30
0.0
  0
INSERT
  5
29A
330
1F
100
AcDbEntity
  8
PIEZA
100
AcDbBlockReference
  2
block 95
 10
0.0
 20
0.0
 30
0.0
  0
INSERT
  5
29F
330
1F
100
AcDbEntity
  8
PIEZA
100
AcDbBlockReference
  2
block 96
 10
0.0
 20
0.0
 30
0.0
  0
INSERT
  5
2A4
330
1F
100
AcDbEntity
  8
PIEZA
100
AcDbBlockReference
  2
block 97
 10
0.0
 20
0.0
 30
0.0
  0
INSERT
  5
2A9
330
1F
100
AcDbEntity
  8
PIEZA
100
AcDbBlockReference
  2
block 98
 10
0.0
 20
0.0
 30
0.0
  0
INSERT
  5
2AE
330
1F
100
AcDbEntity
  8
PIEZA
100
AcDbBlockReference
  2
block 99
 10
0.0
 20
0.0
 30
0.0
  0
INSERT
  5
2B3
330
1F
100
AcDbEntity
  8
PIEZA
100
AcDbBlockReference
  2
block 100
 10
0.0
 20
0.0
 30
0.0
  0
INSERT
  5
2B8
330
1F
100
AcDbEntity
  8
PIEZA
100
AcDbBlockReference
  2
block 101
 10
0.0
 20
0.0
 30
0.0
  0
INSERT
  5
2BD
330
1F
100
AcDbEntity
  8
PIEZA
100
AcDbBlockReference
  2
block 102
 10
0.0
 20
0.0
 30
0.0
  0
INSERT
  5
2C2
330
1F
100
AcDbEntity
  8
PIEZA
100
AcDbBlockReference
  2
block 103
 10
0.0
 20
0.0
 30
0.0
  0
INSERT
  5
2C7
330
1F
100
AcDbEntity
  8
PIEZA
100
AcDbBlockReference
  2
block 104
 10
0.0
 20
0.0
 30
0.0
  0
INSERT
  5
2CC
330
1F
100
AcDbEntity
  8
PIEZA
100
AcDbBlockReference
  2
block 105
 10
0.0
 20
0.0
 30
0.0
  0
INSERT
  5
2D1
330
1F
100
AcDbEntity
  8
PIEZA
100
AcDbBlockReference
  2
block 106
 10
0.0
 20
0.0
 30
0.0
  0
INSERT
  5
2D9
330
1F
100
AcDbEntity
  8
PIEZA
100
AcDbBlockReference
  2
block 107
 10
0.0
 20
0.0
 30
0.0
  0
INSERT
  5
2DE
330
1F
100
AcDbEntity
  8
PIEZA
100
AcDbBlockReference
  2
block 108
 10
0.0
 20
0.0
 30
0.0
  0
INSERT
  5
2E6
330
1F
100
AcDbEntity
  8
PIEZA
100
AcDbBlockReference
  2
block 109
 10
0.0
 20
0.0
 30
0.0
  0
INSERT
  5
2EE
330
1F
100
AcDbEntity
  8
PIEZA
100
AcDbBlockReference
  2
block 110
 10
0.0
 20
0.0
 30
0.0
  0
INSERT
  5
2F3
330
1F
100
AcDbEntity
  8
PIEZA
100
AcDbBlockReference
  2
block 111
 10
0.0
 20
0.0
 30
0.0
  0
INSERT
  5
2F8
330
1F
100
AcDbEntity
  8
PIEZA
100
AcDbBlockReference
  2
block 112
 10
0.0
 20
0.0
 30
0.0
  0
INSERT
  5
2FD
330
1F
100
AcDbEntity
  8
PIEZA
100
AcDbBlockReference
  2
block 113
 10
0.0
 20
0.0
 30
0.0
  0
INSERT
  5
305
330
1F
100
AcDbEntity
  8
PIEZA
100
AcDbBlockReference
  2
block 114
 10
0.0
 20
0.0
 30
0.0
  0
INSERT
  5
30D
330
1F
100
AcDbEntity
  8
PIEZA
100
AcDbBlockReference
  2
block 115
 10
0.0
 20
0.0
 30
0.0
  0
INSERT
  5
315
330
1F
100
AcDbEntity
  8
PIEZA
100
AcDbBlockReference
  2
block 116
 10
0.0
 20
0.0
 30
0.0
  0
INSERT
  5
31D
330
1F
100
AcDbEntity
  8
PIEZA
100
AcDbBlockReference
  2
block 117
 10
0.0
 20
0.0
 30
0.0
  0
INSERT
  5
325
330
1F
100
AcDbEntity
  8
PIEZA
100
AcDbBlockReference
  2
block 118
 10
0.0
 20
0.0
 30
0.0
  0
INSERT
  5
32D
330
1F
100
AcDbEntity
  8
PIEZA
100
AcDbBlockReference
  2
block 119
 10
0.0
 20
0.0
 30
0.0
  0
INSERT
  5
335
330
1F
100
AcDbEntity
  8
PIEZA
100
AcDbBlockReference
  2
block 120
 10
0.0
 20
0.0
 30
0.0
  0
INSERT
  5
33A
330
1F
100
AcDbEntity
  8
PIEZA
100
AcDbBlockReference
  2
block 121
 10
0.0
 20
0.0
 30
0.0
  0
INSERT
  5
342
330
1F
100
AcDbEntity
  8
PIEZA
100
AcDbBlockReference
  2
block 122
 10
0.0
 20
0.0
 30
0.0
  0
INSERT
  5
34A
330
1F
100
AcDbEntity
  8
PIEZA
100
AcDbBlockReference
  2
block 123
 10
0.0
 20
0.0
 30
0.0
  0
INSERT
  5
34F
330
1F
100
AcDbEntity
  8
PIEZA
100
AcDbBlockReference
  2
block 124
 10
0.0
 20
0.0
 30
0.0
  0
INSERT
  5
357
330
1F
100
AcDbEntity
  8
PIEZA
100
AcDbBlockReference
  2
block 125
 10
0.0
 20
0.0
 30
0.0
  0
INSERT
  5
35F
330
1F
100
AcDbEntity
  8
PIEZA
100
AcDbBlockReference
  2
block 126
 10
0.0
 20
0.0
 30
0.0
  0
INSERT
  5
364
330
1F
100
AcDbEntity
  8
PIEZA
100
AcDbBlockReference
  2
block 127
 10
0.0
 20
0.0
 30
0.0
  0
INSERT
  5
369
330
1F
100
AcDbEntity
  8
PIEZA
100
AcDbBlockReference
  2
block 128
 10
0.0
 20
0.0
 30
0.0
  0
INSERT
  5
36E
330
1F
100
AcDbEntity
  8
PIEZA
100
AcDbBlockReference
  2
block 129
 10
0.0
 20
0.0
 30
0.0
  0
INSERT
  5
373
330
1F
100
AcDbEntity
  8
PIEZA
100
AcDbBlockReference
  2
block 130
 10
0.0
 20
0.0
 30
0.0
  0
INSERT
  5
378
330
1F
100
AcDbEntity
  8
PIEZA
100
AcDbBlockReference
  2
block 131
 10
0.0
 20
0.0
 30
0.0
  0
INSERT
  5
37D
330
1F
100
AcDbEntity
  8
PIEZA
100
AcDbBlockReference
  2
block 132
 10
0.0
 20
0.0
 30
0.0
  0
INSERT
  5
382
330
1F
100
AcDbEntity
  8
PIEZA
100
AcDbBlockReference
  2
block 133
 10
0.0
 20
0.0
 30
0.0
  0
INSERT
  5
387
330
1F
100
AcDbEntity
  8
PIEZA
100
AcDbBlockReference
  2
block 134
 10
0.0
 20
0.0
 30
0.0
  0
INSERT
  5
38C
330
1F
100
AcDbEntity
  8
PIEZA
100
AcDbBlockReference
  2
block 135
 10
0.0
 20
0.0
 30
0.0
  0
INSERT
  5
391
330
1F
100
AcDbEntity
  8
PIEZA
100
AcDbBlockReference
  2
block 136
 10
0.0
 20
0.0
 30
0.0
  0
INSERT
  5
396
330
1F
100
AcDbEntity
  8
PIEZA
100
AcDbBlockReference
  2
block 137
 10
0.0
 20
0.0
 30
0.0
  0
INSERT
  5
39B
330
1F
100
AcDbEntity
  8
PIEZA
100
AcDbBlockReference
  2
block 138
 10
0.0
 20
0.0
 30
0.0
  0
INSERT
  5
3A3
330
1F
100
AcDbEntity
  8
PIEZA
100
AcDbBlockReference
  2
block 139
 10
0.0
 20
0.0
 30
0.0
  0
INSERT
  5
3A8
330
1F
100
AcDbEntity
  8
PIEZA
100
AcDbBlockReference
  2
block 140
 10
0.0
 20
0.0
 30
0.0
  0
INSERT
  5
3B0
330
1F
100
AcDbEntity
  8
PIEZA
100
AcDbBlockReference
  2
block 141
 10
0.0
 20
0.0
 30
0.0
  0
INSERT
  5
3B8
330
1F
100
AcDbEntity
  8
PIEZA
100
AcDbBlockReference
  2
block 142
 10
0.0
 20
0.0
 30
0.0
  0
INSERT
  5
3BD
330
1F
100
AcDbEntity
  8
PIEZA
100
AcDbBlockReference
  2
block 143
 10
0.0
 20
0.0
 30
0.0
  0
INSERT
  5
3C2
330
1F
100
AcDbEntity
  8
PIEZA
100
AcDbBlockReference
  2
block 144
 10
0.0
 20
0.0
 30
0.0
  0
INSERT
  5
3C7
330
1F
100
AcDbEntity
  8
PIEZA
100
AcDbBlockReference
  2
block 145
 10
0.0
 20
0.0
 30
0.0
  0
INSERT
  5
3CF
330
1F
100
AcDbEntity
  8
PIEZA
100
AcDbBlockReference
  2
block 146
 10
0.0
 20
0.0
 30
0.0
  0
INSERT
  5
3D7
330
1F
100
AcDbEntity
  8
PIEZA
100
AcDbBlockReference
  2
block 147
 10
0.0
 20
0.0
 30
0.0
  0
INSERT
  5
3DF
330
1F
100
AcDbEntity
  8
PIEZA
100
AcDbBlockReference
  2
block 148
 10
0.0
 20
0.0
 30
0.0
  0
INSERT
  5
3E7
330
1F
100
AcDbEntity
  8
PIEZA
100
AcDbBlockReference
  2
block 149
 10
0.0
 20
0.0
 30
0.0
  0
INSERT
  5
3EF
330
1F
100
AcDbEntity
  8
PIEZA
100
AcDbBlockReference
  2
block 150
 10
0.0
 20
0.0
 30
0.0
  0
INSERT
  5
3F7
330
1F
100
AcDbEntity
  8
PIEZA
100
AcDbBlockReference
  2
block 151
 10
0.0
 20
0.0
 30
0.0
  0
INSERT
  5
3FF
330
1F
100
AcDbEntity
  8
PIEZA
100
AcDbBlockReference
  2
block 152
 10
0.0
 20
0.0
 30
0.0
  0
INSERT
  5
408
330
1F
100
AcDbEntity
  8
EJES
100
AcDbBlockReference
  2
block 153
 10
0.0
 20
0.0
 30
0.0
  0
INSERT
  5
411
330
1F
100
AcDbEntity
  8
EJES
100
AcDbBlockReference
  2
block 154
 10
0.0
 20
0.0
 30
0.0
  0
INSERT
  5
41A
330
1F
100
AcDbEntity
  8
EJES
100
AcDbBlockReference
  2
block 155
 10
0.0
 20
0.0
 30
0.0
  0
INSERT
  5
424
330
1F
100
AcDbEntity
  8
LINEAS-FINAS
100
AcDbBlockReference
  2
block 156
 10
0.0
 20
0.0
 30
0.0
  0
INSERT
  5
42C
330
1F
100
AcDbEntity
  8
LINEAS-FINAS
100
AcDbBlockReference
  2
block 157
 10
0.0
 20
0.0
 30
0.0
  0
INSERT
  5
435
330
1F
100
AcDbEntity
  8
COTAS
100
AcDbBlockReference
  2
block 158
 10
0.0
 20
0.0
 30
0.0
  0
INSERT
  5
48C
330
1F
100
AcDbEntity
  8
COTAS
100
AcDbBlockReference
  2
block 169
 10
0.0
 20
0.0
 30
0.0
  0
INSERT
  5
4E3
330
1F
100
AcDbEntity
  8
COTAS
100
AcDbBlockReference
  2
block 180
 10
0.0
 20
0.0
 30
0.0
  0
INSERT
  5
53A
330
1F
100
AcDbEntity
  8
COTAS
100
AcDbBlockReference
  2
block 191
 10
0.0
 20
0.0
 30
0.0
  0
INSERT
  5
591
330
1F
100
AcDbEntity
  8
COTAS
100
AcDbBlockReference
  2
block 202
 10
0.0
 20
0.0
 30
0.0
  0
INSERT
  5
5E8
330
1F
100
AcDbEntity
  8
COTAS
100
AcDbBlockReference
  2
block 213
 10
0.0
 20
0.0
 30
0.0
  0
ENDSEC
  0
SECTION
  2
OBJECTS
  0
DICTIONARY
  5
C
330
0
100
AcDbDictionary
281
     1
  3
ACAD_GROUP
350
D
  3
ACAD_LAYOUT
350
1A
  3
ACAD_MLINESTYLE
350
17
  3
ACAD_PLOTSETTINGS
350
19
  3
ACAD_PLOTSTYLENAME
350
E
  3
ACAD_TABLESTYLE
350
63E
  3
ACAD_VISUALSTYLE
350
2A
  0
DICTIONARY
  5
D
102
{ACAD_REACTORS
330
C
102
}
330
C
100
AcDbDictionary
281
     1
  0
DICTIONARY
  5
1A
102
{ACAD_REACTORS
330
C
102
}
330
C
100
AcDbDictionary
281
     1
  3
Layout1
350
1E
  3
Layout2
350
26
  3
Model
350
22
  0
DICTIONARY
  5
17
102
{ACAD_REACTORS
330
C
102
}
330
C
100
AcDbDictionary
281
     1
  3
Standard
350
18
  0
DICTIONARY
  5
19
102
{ACAD_REACTORS
330
C
102
}
330
C
100
AcDbDictionary
281
     1
  0
ACDBDICTIONARYWDFLT
  5
E
102
{ACAD_REACTORS
330
C
102
}
330
C
100
AcDbDictionary
281
     1
  3
Normal
350
F
100
AcDbDictionaryWithDefault
340
F
  0
DICTIONARY
  5
63E
102
{ACAD_REACTORS
330
C
102
}
330
C
100
AcDbDictionary
281
     1
  0
DICTIONARY
  5
2A
102
{ACAD_REACTORS
330
C
102
}
330
C
100
AcDbDictionary
281
     1
  3
2dWireframe
350
2F
  3
3D Hidden
350
31
  3
3dWireframe
350
30
  3
Basic
350
32
  3
Brighten
350
36
  3
ColorChange
350
3A
  3
Conceptual
350
34
  3
Dim
350
35
  3
Facepattern
350
39
  3
Flat
350
2B
  3
FlatWithEdges
350
2C
  3
Gouraud
350
2D
  3
GouraudWithEdges
350
2E
  3
Linepattern
350
38
  3
Realistic
350
33
  3
Thicken
350
37
  0
LAYOUT
  5
1E
102
{ACAD_REACTORS
330
1A
102
}
330
1A
100
AcDbPlotSettings
  1

  2
none_device
  4

  6

 40
0.0
 41
0.0
 42
0.0
 43
0.0
 44
0.0
 45
0.0
 46
0.0
 47
0.0
 48
0.0
 49
0.0
140
0.0
141
0.0
142
1.0
143
1.0
 70
   688
 72
     0
 73
     0
 74
     5
  7

 75
    16
 76
     0
 77
     2
 78
   300
147
1.0
148
0.0
149
0.0
100
AcDbLayout
  1
Layout1
 70
     1
 71
     1
 10
0.0
 20
0.0
 11
12.0
 21
9.0
 12
0.0
 22
0.0
 32
0.0
 14
1.000000000000000E+20
 24
1.000000000000000E+20
 34
1.000000000000000E+20
 15
-1.000000000000000E+20
 25
-1.000000000000000E+20
 35
-1.000000000000000E+20
146
0.0
 13
0.0
 23
0.0
 33
0.0
 16
1.0
 26
0.0
 36
0.0
 17
0.0
 27
1.0
 37
0.0
 76
     0
330
1B
  0
LAYOUT
  5
26
102
{ACAD_REACTORS
330
1A
102
}
330
1A
100
AcDbPlotSettings
  1

  2
none_device
  4

  6

 40
0.0
 41
0.0
 42
0.0
 43
0.0
 44
0.0
 45
0.0
 46
0.0
 47
0.0
 48
0.0
 49
0.0
140
0.0
141
0.0
142
1.0
143
1.0
 70
   688
 72
     0
 73
     0
 74
     5
  7

 75
    16
 76
     0
 77
     2
 78
   300
147
1.0
148
0.0
149
0.0
100
AcDbLayout
  1
Layout2
 70
     1
 71
     2
 10
0.0
 20
0.0
 11
0.0
 21
0.0
 12
0.0
 22
0.0
 32
0.0
 14
0.0
 24
0.0
 34
0.0
 15
0.0
 25
0.0
 35
0.0
146
0.0
 13
0.0
 23
0.0
 33
0.0
 16
1.0
 26
0.0
 36
0.0
 17
0.0
 27
1.0
 37
0.0
 76
     0
330
23
  0
LAYOUT
  5
22
102
{ACAD_REACTORS
330
1A
102
}
330
1A
100
AcDbPlotSettings
  1

  2
none_device
  4

  6

 40
0.0
 41
0.0
 42
0.0
 43
0.0
 44
0.0
 45
0.0
 46
0.0
 47
0.0
 48
0.0
 49
0.0
140
0.0
141
0.0
142
1.0
143
1.0
 70
  1712
 72
     0
 73
     0
 74
     0
  7

 75
     0
 76
     0
 77
     2
 78
   300
147
1.0
148
0.0
149
0.0
100
AcDbLayout
  1
Model
 70
     1
 71
     0
 10
0.0
 20
0.0
 11
12.0
 21
9.0
 12
0.0
 22
0.0
 32
0.0
 14
1.000000000000000E+20
 24
1.000000000000000E+20
 34
1.000000000000000E+20
 15
-1.000000000000000E+20
 25
-1.000000000000000E+20
 35
-1.000000000000000E+20
146
0.0
 13
0.0
 23
0.0
 33
0.0
 16
1.0
 26
0.0
 36
0.0
 17
0.0
 27
1.0
 37
0.0
 76
     0
330
1F
331
29
  0
MLINESTYLE
  5
18
102
{ACAD_REACTORS
330
17
102
}
330
17
100
AcDbMlineStyle
  2
Standard
 70
     0
  3

 62
   256
 51
90.0
 52
90.0
 71
     2
 49
0.5
 62
   256
  6
BYLAYER
 49
-0.5
 62
   256
  6
BYLAYER
  0
ACDBPLACEHOLDER
  5
F
102
{ACAD_REACTORS
330
E
102
}
330
E
  0
VISUALSTYLE
  5
2F
102
{ACAD_REACTORS
330
2A
102
}
330
2A
100
AcDbVisualStyle
  2
2dWireframe
 70
     4
 71
     0
 72
     2
 73
     0
 90
        0
 40
-0.6
 41
-30.0
 62
     5
 63
     7
421
 16777215
 74
     1
 91
        4
 64
     7
 65
   257
 75
     1
175
     1
 42
1.0
 92
        0
 66
   257
 43
1.0
 76
     1
 77
     6
 78
     2
 67
     7
 79
     5
170
     0
171
     0
290
     0
174
     0
 93
        1
 44
0.0
173
     0
291
     0
 45
0.0
1001
ACAD
1000
AcDbSavedByObjectVersion
1070
     0
  0
VISUALSTYLE
  5
31
102
{ACAD_REACTORS
330
2A
102
}
330
2A
100
AcDbVisualStyle
  2
3D Hidden
 70
     6
 71
     1
 72
     2
 73
     2
 90
        0
 40
-0.6
 41
-30.0
 62
     5
 63
     7
421
 16777215
 74
     2
 91
        2
 64
     7
 65
   257
 75
     2
175
     1
 42
40.0
 92
        0
 66
   257
 43
1.0
 76
     1
 77
     6
 78
     2
 67
     7
 79
     3
170
     0
171
     0
290
     0
174
     0
 93
        1
 44
0.0
173
     0
291
     0
 45
0.0
1001
ACAD
1000
AcDbSavedByObjectVersion
1070
     0
  0
VISUALSTYLE
  5
30
102
{ACAD_REACTORS
330
2A
102
}
330
2A
100
AcDbVisualStyle
  2
3dWireframe
 70
     5
 71
     0
 72
     2
 73
     0
 90
        0
 40
-0.6
 41
-30.0
 62
     5
 63
     7
421
 16777215
 74
     1
 91
        4
 64
     7
 65
   257
 75
     1
175
     1
 42
1.0
 92
        0
 66
   257
 43
1.0
 76
     1
 77
     6
 78
     2
 67
     7
 79
     5
170
     0
171
     0
290
     0
174
     0
 93
        1
 44
0.0
173
     0
291
     0
 45
0.0
1001
ACAD
1000
AcDbSavedByObjectVersion
1070
     0
  0
VISUALSTYLE
  5
32
102
{ACAD_REACTORS
330
2A
102
}
330
2A
100
AcDbVisualStyle
  2
Basic
 70
     7
 71
     1
 72
     0
 73
     1
 90
        0
 40
-0.6
 41
-30.0
 62
     5
 63
     7
421
 16777215
 74
     0
 91
        4
 64
     7
 65
   257
 75
     1
175
     1
 42
1.0
 92
        8
 66
     7
 43
1.0
 76
     1
 77
     6
 78
     2
 67
     7
 79
     5
170
     0
171
     0
290
     0
174
     0
 93
        1
 44
0.0
173
     0
291
     1
 45
0.0
1001
ACAD
1000
AcDbSavedByObjectVersion
1070
     0
  0
VISUALSTYLE
  5
36
102
{ACAD_REACTORS
330
2A
102
}
330
2A
100
AcDbVisualStyle
  2
Brighten
 70
    12
 71
     2
 72
     2
 73
     0
 90
        0
 40
-0.6
 41
-30.0
 62
     5
 63
     7
421
 16777215
 74
     1
 91
        4
 64
     7
 65
   257
 75
     1
175
     1
 42
1.0
 92
        8
 66
     7
 43
1.0
 76
     1
 77
     6
 78
     2
 67
     7
 79
     5
170
     0
171
     0
290
     0
174
     0
 93
        1
 44
50.0
173
     0
291
     1
 45
0.0
1001
ACAD
1000
AcDbSavedByObjectVersion
1070
     0
  0
VISUALSTYLE
  5
3A
102
{ACAD_REACTORS
330
2A
102
}
330
2A
100
AcDbVisualStyle
  2
ColorChange
 70
    16
 71
     2
 72
     2
 73
     3
 90
        0
 40
-0.6
 41
-30.0
 62
     5
 63
     8
421
  8421504
 74
     1
 91
        4
 64
     7
 65
   257
 75
     1
175
     1
 42
1.0
 92
        8
 66
     8
424
  8421504
 43
1.0
 76
     1
 77
     6
 78
     2
 67
     7
 79
     5
170
     0
171
     0
290
     0
174
     0
 93
        1
 44
0.0
173
     0
291
     1
 45
0.0
1001
ACAD
1000
AcDbSavedByObjectVersion
1070
     0
  0
VISUALSTYLE
  5
34
102
{ACAD_REACTORS
330
2A
102
}
330
2A
100
AcDbVisualStyle
  2
Conceptual
 70
     9
 71
     3
 72
     2
 73
     0
 90
        0
 40
-0.6
 41
-30.0
 62
     5
 63
     7
421
 16777215
 74
     2
 91
        2
 64
     7
 65
   257
 75
     1
175
     1
 42
40.0
 92
        8
 66
     7
 43
1.0
 76
     1
 77
     6
 78
     2
 67
     7
 79
     3
170
     0
171
     0
290
     0
174
     0
 93
        1
 44
0.0
173
     0
291
     0
 45
0.0
1001
ACAD
1000
AcDbSavedByObjectVersion
1070
     0
  0
VISUALSTYLE
  5
35
102
{ACAD_REACTORS
330
2A
102
}
330
2A
100
AcDbVisualStyle
  2
Dim
 70
    11
 71
     2
 72
     2
 73
     0
 90
        0
 40
-0.6
 41
-30.0
 62
     5
 63
     7
421
 16777215
 74
     1
 91
        4
 64
     7
 65
   257
 75
     1
175
     1
 42
1.0
 92
        8
 66
     7
 43
1.0
 76
     1
 77
     6
 78
     2
 67
     7
 79
     5
170
     0
171
     0
290
     0
174
     0
 93
        1
 44
-50.0
173
     0
291
     1
 45
0.0
1001
ACAD
1000
AcDbSavedByObjectVersion
1070
     0
  0
VISUALSTYLE
  5
39
102
{ACAD_REACTORS
330
2A
102
}
330
2A
100
AcDbVisualStyle
  2
Facepattern
 70
    15
 71
     2
 72
     2
 73
     0
 90
        0
 40
-0.6
 41
-30.0
 62
     5
 63
     7
421
 16777215
 74
     1
 91
        4
 64
     7
 65
   257
 75
     1
175
     1
 42
1.0
 92
        8
 66
     7
 43
1.0
 76
     1
 77
     6
 78
     2
 67
     7
 79
     5
170
     0
171
     0
290
     0
174
     0
 93
        1
 44
0.0
173
     0
291
     1
 45
0.0
1001
ACAD
1000
AcDbSavedByObjectVersion
1070
     0
  0
VISUALSTYLE
  5
2B
102
{ACAD_REACTORS
330
2A
102
}
330
2A
100
AcDbVisualStyle
  2
Flat
 70
     0
 71
     2
 72
     1
 73
     1
 90
        2
 40
-0.6
 41
30.0
 62
     5
 63
     7
421
 16777215
 74
     0
 91
        4
 64
     7
 65
   257
 75
     1
175
     1
 42
1.0
 92
        8
 66
     7
 43
1.0
 76
     1
 77
     6
 78
     2
 67
     7
 79
     5
170
     0
171
     0
290
     0
174
     0
 93
       13
 44
0.0
173
     0
291
     1
 45
0.0
1001
ACAD
1000
AcDbSavedByObjectVersion
1070
     0
  0
VISUALSTYLE
  5
2C
102
{ACAD_REACTORS
330
2A
102
}
330
2A
100
AcDbVisualStyle
  2
FlatWithEdges
 70
     1
 71
     2
 72
     1
 73
     1
 90
        2
 40
-0.6
 41
30.0
 62
     5
 63
     7
421
 16777215
 74
     1
 91
        4
 64
     7
 65
   257
 75
     1
175
     1
 42
1.0
 92
        0
 66
   257
 43
1.0
 76
     1
 77
     6
 78
     2
 67
     7
 79
     5
170
     0
171
     0
290
     0
174
     0
 93
       13
 44
0.0
173
     0
291
     1
 45
0.0
1001
ACAD
1000
AcDbSavedByObjectVersion
1070
     0
  0
VISUALSTYLE
  5
2D
102
{ACAD_REACTORS
330
2A
102
}
330
2A
100
AcDbVisualStyle
  2
Gouraud
 70
     2
 71
     2
 72
     2
 73
     1
 90
        2
 40
-0.6
 41
30.0
 62
     5
 63
     7
421
 16777215
 74
     0
 91
        4
 64
     7
 65
   257
 75
     1
175
     1
 42
1.0
 92
        0
 66
     7
 43
1.0
 76
     1
 77
     6
 78
     2
 67
     7
 79
     5
170
     0
171
     0
290
     0
174
     0
 93
       13
 44
0.0
173
     0
291
     1
 45
0.0
1001
ACAD
1000
AcDbSavedByObjectVersion
1070
     0
  0
VISUALSTYLE
  5
2E
102
{ACAD_REACTORS
330
2A
102
}
330
2A
100
AcDbVisualStyle
  2
GouraudWithEdges
 70
     3
 71
     2
 72
     2
 73
     1
 90
        2
 40
-0.6
 41
30.0
 62
     5
 63
     7
421
 16777215
 74
     1
 91
        4
 64
     7
 65
   257
 75
     1
175
     1
 42
1.0
 92
        0
 66
   257
 43
1.0
 76
     1
 77
     6
 78
     2
 67
     7
 79
     5
170
     0
171
     0
290
     0
174
     0
 93
       13
 44
0.0
173
     0
291
     1
 45
0.0
1001
ACAD
1000
AcDbSavedByObjectVersion
1070
     0
  0
VISUALSTYLE
  5
38
102
{ACAD_REACTORS
330
2A
102
}
330
2A
100
AcDbVisualStyle
  2
Linepattern
 70
    14
 71
     2
 72
     2
 73
     0
 90
        0
 40
-0.6
 41
-30.0
 62
     5
 63
     7
421
 16777215
 74
     1
 91
        4
 64
     7
 65
   257
 75
     7
175
     7
 42
1.0
 92
        8
 66
     7
 43
1.0
 76
     1
 77
     6
 78
     2
 67
     7
 79
     5
170
     0
171
     0
290
     0
174
     0
 93
        1
 44
0.0
173
     0
291
     1
 45
0.0
1001
ACAD
1000
AcDbSavedByObjectVersion
1070
     0
  0
VISUALSTYLE
  5
33
102
{ACAD_REACTORS
330
2A
102
}
330
2A
100
AcDbVisualStyle
  2
Realistic
 70
     8
 71
     2
 72
     2
 73
     0
 90
        0
 40
-0.6
 41
-30.0
 62
     5
 63
     7
421
 16777215
 74
     1
 91
        0
 64
     7
 65
   257
 75
     1
175
     1
 42
1.0
 92
        8
 66
     8
424
  7895160
 43
1.0
 76
     1
 77
     6
 78
     2
 67
     7
 79
     5
170
     0
171
     0
290
     0
174
     0
 93
       13
 44
0.0
173
     0
291
     0
 45
0.0
1001
ACAD
1000
AcDbSavedByObjectVersion
1070
     0
  0
VISUALSTYLE
  5
37
102
{ACAD_REACTORS
330
2A
102
}
330
2A
100
AcDbVisualStyle
  2
Thicken
 70
    13
 71
     2
 72
     2
 73
     0
 90
        0
 40
-0.6
 41
-30.0
 62
     5
 63
     7
421
 16777215
 74
     1
 91
        4
 64
     7
 65
   257
 75
     1
175
     1
 42
1.0
 92
       12
 66
     7
 43
1.0
 76
     1
 77
     6
 78
     2
 67
     7
 79
     5
170
     0
171
     0
290
     0
174
     0
 93
        1
 44
0.0
173
     0
291
     1
 45
0.0
1001
ACAD
1000
AcDbSavedByObjectVersion
1070
     0
  0
ENDSEC
  0
EOF
