  0
SECTION
  2
HEADER
  9
$ACADVER
  1
AC1018
  9
$ACADMAINTVER
 70
     0
  9
$DWGCODEPAGE
  3
ASCII
  9
$INSBASE
 10
0.0
 20
0.0
 30
0.0
  9
$EXTMIN
 10
1.000000000000000E+20
 20
1.000000000000000E+20
 30
1.000000000000000E+20
  9
$EXTMAX
 10
-1.000000000000000E+20
 20
-1.000000000000000E+20
 30
-1.000000000000000E+20
  9
$LIMMIN
 10
0.0
 20
0.0
  9
$LIMMAX
 10
12.0
 20
9.0
  9
$ORTHOMODE
 70
     0
  9
$REGENMODE
 70
     1
  9
$FILLMODE
 70
     1
  9
$QTEXTMODE
 70
     0
  9
$MIRRTEXT
 70
     1
  9
$LTSCALE
 40
1.0
  9
$ATTMODE
 70
     1
  9
$TEXTSIZE
 40
0.2
  9
$TRACEWID
 40
0.05
  9
$TEXTSTYLE
  7
Standard
  9
$CLAYER
  8
0
  9
$CELTYPE
  6
ByLayer
  9
$CECOLOR
 62
   256
  9
$CELTSCALE
 40
1.0
  9
$DISPSILH
 70
     0
  9
$DIMSCALE
 40
1.0
  9
$DIMASZ
 40
0.18
  9
$DIMEXO
 40
0.0625
  9
$DIMDLI
 40
0.38
  9
$DIMRND
 40
0.0
  9
$DIMDLE
 40
0.0
  9
$DIMEXE
 40
0.18
  9
$DIMTP
 40
0.0
  9
$DIMTM
 40
0.0
  9
$DIMTXT
 40
0.18
  9
$DIMCEN
 40
0.09
  9
$DIMTSZ
 40
0.0
  9
$DIMTOL
 70
     0
  9
$DIMLIM
 70
     0
  9
$DIMTIH
 70
     1
  9
$DIMTOH
 70
     1
  9
$DIMSE1
 70
     0
  9
$DIMSE2
 70
     0
  9
$DIMTAD
 70
     0
  9
$DIMZIN
 70
     0
  9
$DIMBLK
  1

  9
$DIMASO
 70
     1
  9
$DIMSHO
 70
     1
  9
$DIMPOST
  1

  9
$DIMAPOST
  1

  9
$DIMALT
 70
     0
  9
$DIMALTD
 70
     2
  9
$DIMALTF
 40
25.4
  9
$DIMLFAC
 40
1.0
  9
$DIMTOFL
 70
     0
  9
$DIMTVP
 40
0.0
  9
$DIMTIX
 70
     0
  9
$DIMSOXD
 70
     0
  9
$DIMSAH
 70
     0
  9
$DIMBLK1
  1

  9
$DIMBLK2
  1

  9
$DIMSTYLE
  2
Standard
  9
$DIMCLRD
 70
     0
  9
$DIMCLRE
 70
     0
  9
$DIMCLRT
 70
     0
  9
$DIMTFAC
 40
1.0
  9
$DIMGAP
 40
0.09
  9
$DIMJUST
 70
     0
  9
$DIMSD1
 70
     0
  9
$DIMSD2
 70
     0
  9
$DIMTOLJ
 70
     1
  9
$DIMTZIN
 70
     0
  9
$DIMALTZ
 70
     0
  9
$DIMALTTZ
 70
     0
  9
$DIMUPT
 70
     0
  9
$DIMDEC
 70
     4
  9
$DIMTDEC
 70
     4
  9
$DIMALTU
 70
     2
  9
$DIMALTTD
 70
     2
  9
$DIMTXSTY
  7
Standard
  9
$DIMAUNIT
 70
     0
  9
$DIMADEC
 70
     0
  9
$DIMALTRND
 40
0.0
  9
$DIMAZIN
 70
     0
  9
$DIMDSEP
 70
    46
  9
$DIMATFIT
 70
     3
  9
$DIMFRAC
 70
     0
  9
$DIMLDRBLK
  1

  9
$DIMLUNIT
 70
     2
  9
$DIMLWD
 70
    -2
  9
$DIMLWE
 70
    -2
  9
$DIMTMOVE
 70
     0
  9
$LUNITS
 70
     2
  9
$LUPREC
 70
     4
  9
$SKETCHINC
 40
0.1
  9
$FILLETRAD
 40
0.5
  9
$AUNITS
 70
     0
  9
$AUPREC
 70
     0
  9
$MENU
  1
.
  9
$ELEVATION
 40
0.0
  9
$PELEVATION
 40
0.0
  9
$THICKNESS
 40
0.0
  9
$LIMCHECK
 70
     0
  9
$CHAMFERA
 40
0.5
  9
$CHAMFERB
 40
0.5
  9
$CHAMFERC
 40
1.0
  9
$CHAMFERD
 40
0.0
  9
$SKPOLY
 70
     0
  9
$TDCREATE
 40
2456720.994801794
  9
$TDUCREATE
 40
2456720.953135127
  9
$TDUPDATE
 40
2456720.994801805
  9
$TDUUPDATE
 40
2456720.953135139
  9
$TDINDWG
 40
0.0000000116
  9
$TDUSRTIMER
 40
0.0000000116
  9
$USRTIMER
 70
     1
  9
$ANGBASE
 50
0.0
  9
$ANGDIR
 70
     0
  9
$PDMODE
 70
     0
  9
$PDSIZE
 40
0.0
  9
$PLINEWID
 40
0.0
  9
$SPLFRAME
 70
     0
  9
$SPLINETYPE
 70
     6
  9
$SPLINESEGS
 70
     8
  9
$HANDSEED
  5
606
  9
$SURFTAB1
 70
     6
  9
$SURFTAB2
 70
     6
  9
$SURFTYPE
 70
     6
  9
$SURFU
 70
     6
  9
$SURFV
 70
     6
  9
$UCSBASE
  2

  9
$UCSNAME
  2

  9
$UCSORG
 10
0.0
 20
0.0
 30
0.0
  9
$UCSXDIR
 10
1.0
 20
0.0
 30
0.0
  9
$UCSYDIR
 10
0.0
 20
1.0
 30
0.0
  9
$UCSORTHOREF
  2

  9
$UCSORTHOVIEW
 70
     0
  9
$UCSORGTOP
 10
0.0
 20
0.0
 30
0.0
  9
$UCSORGBOTTOM
 10
0.0
 20
0.0
 30
0.0
  9
$UCSORGLEFT
 10
0.0
 20
0.0
 30
0.0
  9
$UCSORGRIGHT
 10
0.0
 20
0.0
 30
0.0
  9
$UCSORGFRONT
 10
0.0
 20
0.0
 30
0.0
  9
$UCSORGBACK
 10
0.0
 20
0.0
 30
0.0
  9
$PUCSBASE
  2

  9
$PUCSNAME
  2

  9
$PUCSORG
 10
0.0
 20
0.0
 30
0.0
  9
$PUCSXDIR
 10
1.0
 20
0.0
 30
0.0
  9
$PUCSYDIR
 10
0.0
 20
1.0
 30
0.0
  9
$PUCSORTHOREF
  2

  9
$PUCSORTHOVIEW
 70
     0
  9
$PUCSORGTOP
 10
0.0
 20
0.0
 30
0.0
  9
$PUCSORGBOTTOM
 10
0.0
 20
0.0
 30
0.0
  9
$PUCSORGLEFT
 10
0.0
 20
0.0
 30
0.0
  9
$PUCSORGRIGHT
 10
0.0
 20
0.0
 30
0.0
  9
$PUCSORGFRONT
 10
0.0
 20
0.0
 30
0.0
  9
$PUCSORGBACK
 10
0.0
 20
0.0
 30
0.0
  9
$USERI1
 70
     0
  9
$USERI2
 70
     0
  9
$USERI3
 70
     0
  9
$USERI4
 70
     0
  9
$USERI5
 70
     0
  9
$USERR1
 40
0.0
  9
$USERR2
 40
0.0
  9
$USERR3
 40
0.0
  9
$USERR4
 40
0.0
  9
$USERR5
 40
0.0
  9
$WORLDVIEW
 70
     1
  9
$SHADEDGE
 70
     3
  9
$SHADEDIF
 70
    70
  9
$TILEMODE
 70
     1
  9
$MAXACTVP
 70
    64
  9
$PINSBASE
 10
0.0
 20
0.0
 30
0.0
  9
$PLIMCHECK
 70
     0
  9
$PEXTMIN
 10
1.000000000000000E+20
 20
1.000000000000000E+20
 30
1.000000000000000E+20
  9
$PEXTMAX
 10
-1.000000000000000E+20
 20
-1.000000000000000E+20
 30
-1.000000000000000E+20
  9
$PLIMMIN
 10
0.0
 20
0.0
  9
$PLIMMAX
 10
12.0
 20
9.0
  9
$UNITMODE
 70
     0
  9
$VISRETAIN
 70
     1
  9
$PLINEGEN
 70
     0
  9
$PSLTSCALE
 70
     1
  9
$TREEDEPTH
 70
  3020
  9
$CMLSTYLE
  2
Standard
  9
$CMLJUST
 70
     0
  9
$CMLSCALE
 40
1.0
  9
$PROXYGRAPHICS
 70
     1
  9
$MEASUREMENT
 70
     0
  9
$CELWEIGHT
370
    -1
  9
$ENDCAPS
280
     0
  9
$JOINSTYLE
280
     0
  9
$LWDISPLAY
290
     1
  9
$INSUNITS
 70
     1
  9
$HYPERLINKBASE
  1

  9
$STYLESHEET
  1

  9
$XEDIT
290
     1
  9
$CEPSNTYPE
380
     0
  9
$PSTYLEMODE
290
     1
  9
$FINGERPRINTGUID
  2
{5BB45327-C643-4E7D-BF80-22A35B794F85}
  9
$VERSIONGUID
  2
{FAEB1C32-E019-11D5-929B-00C0DF256EC4}
  9
$EXTNAMES
290
     1
  9
$PSVPSCALE
 40
0.0
  9
$OLESTARTUP
290
     0
  9
$SORTENTS
280
   127
  9
$INDEXCTL
280
     0
  9
$HIDETEXT
280
     1
  9
$XCLIPFRAME
290
     0
  9
$HALOGAP
280
     0
  9
$OBSCOLOR
 70
   257
  9
$OBSLTYPE
280
     0
  9
$INTERSECTIONDISPLAY
280
     0
  9
$INTERSECTIONCOLOR
 70
   257
  9
$DIMASSOC
280
     2
  9
$PROJECTNAME
  1

  0
ENDSEC
  0
SECTION
  2
CLASSES
  0
CLASS
  1
ACDBDICTIONARYWDFLT
  2
AcDbDictionaryWithDefault
  3
ObjectDBX Classes
 90
        0
 91
        3
280
     0
281
     0
  0
CLASS
  1
VISUALSTYLE
  2
AcDbVisualStyle
  3
ObjectDBX Classes
 90
     4095
 91
        3
280
     0
281
     0
  0
ENDSEC
  0
SECTION
  2
TABLES
  0
TABLE
  2
VPORT
  5
8
330
0
100
AcDbSymbolTable
 70
     1
  0
VPORT
  5
29
330
8
100
AcDbSymbolTableRecord
100
AcDbViewportTableRecord
  2
*Active
 70
     0
 10
0.0
 20
0.0
 11
1.0
 21
1.0
 12
0.0
 22
0.0
 13
0.0
 23
0.0
 14
0.5
 24
0.5
 15
0.5
 25
0.5
 16
0.0
 26
0.0
 36
1.0
 17
105.0008952513716
 27
148.5000775824991
 37
0.0
 40
297.0001551649982
 41
0.7070763662937379
 42
50.0
 43
0.0
 44
0.0
 50
0.0
 51
0.0
 71
     0
 72
   100
 73
     1
 74
     3
 75
     0
 76
     0
 77
     0
 78
     0
281
     0
 65
     1
110
0.0
120
0.0
130
0.0
111
1.0
121
0.0
131
0.0
112
0.0
122
1.0
132
0.0
 79
     0
146
0.0
  0
ENDTAB
  0
TABLE
  2
LTYPE
  5
5
330
0
100
AcDbSymbolTable
 70
     4
  0
LTYPE
  5
14
330
5
100
AcDbSymbolTableRecord
100
AcDbLinetypeTableRecord
  2
ByBlock
 70
     0
  3

 72
    65
 73
     0
 40
0.0
  0
LTYPE
  5
15
330
5
100
AcDbSymbolTableRecord
100
AcDbLinetypeTableRecord
  2
ByLayer
 70
     0
  3

 72
    65
 73
     0
 40
0.0
  0
LTYPE
  5
16
330
5
100
AcDbSymbolTableRecord
100
AcDbLinetypeTableRecord
  2
Continuous
 70
     0
  3
Solid line
 72
    65
 73
     0
 40
0.0
  0
LTYPE
  5
3D8
330
5
100
AcDbSymbolTableRecord
100
AcDbLinetypeTableRecord
  2
AI-Linetype-1
 70
     0
  3
Adobe Illustrator Linetype No. 1
 72
    65
 73
     4
 40
19.9865670171981
 49
9.991519618586398
 74
     0
 49
-4.995759809293199
 74
     0
 49
0.0035277800253007
 74
     0
 49
-4.995759809293199
 74
     0
  0
LTYPE
  5
3E1
330
5
100
AcDbSymbolTableRecord
100
AcDbLinetypeTableRecord
  2
AI-Linetype-2
 70
     0
  3
Adobe Illustrator Linetype No. 2
 72
    65
 73
     4
 40
24.98232749936195
 49
12.48939985966833
 74
     0
 49
-6.244699929834163
 74
     0
 49
0.0035277800253007
 74
     0
 49
-6.244699929834163
 74
     0
  0
LTYPE
  5
3EA
330
5
100
AcDbSymbolTableRecord
100
AcDbLinetypeTableRecord
  2
AI-Linetype-3
 70
     0
  3
Adobe Illustrator Linetype No. 3
 72
    65
 73
     4
 40
24.98232749936195
 49
12.48939985966833
 74
     0
 49
-6.244699929834163
 74
     0
 49
0.0035277800253007
 74
     0
 49
-6.244699929834163
 74
     0
  0
ENDTAB
  0
TABLE
  2
LAYER
  5
2
330
0
100
AcDbSymbolTable
 70
     2
  0
LAYER
  5
10
330
2
100
AcDbSymbolTableRecord
100
AcDbLayerTableRecord
  2
0
 70
     0
 62
     7
  6
Continuous
370
    -3
390
F
  0
LAYER
  5
3B
330
2
100
AcDbSymbolTableRecord
100
AcDbLayerTableRecord
  2
Capa 1
 70
     0
 62
     7
  6
Continuous
370
    -3
390
F
  0
ENDTAB
  0
TABLE
  2
STYLE
  5
3
330
0
100
AcDbSymbolTable
 70
     1
  0
STYLE
  5
11
330
3
100
AcDbSymbolTableRecord
100
AcDbTextStyleTableRecord
  2
Standard
 70
     0
 40
0.0
 41
1.0
 50
0.0
 71
     0
 42
0.2
  3
txt
  4

  0
ENDTAB
  0
TABLE
  2
VIEW
  5
6
330
0
100
AcDbSymbolTable
 70
     0
  0
ENDTAB
  0
TABLE
  2
UCS
  5
7
330
0
100
AcDbSymbolTable
 70
     0
  0
ENDTAB
  0
TABLE
  2
APPID
  5
9
330
0
100
AcDbSymbolTable
 70
     1
  0
APPID
  5
12
330
9
100
AcDbSymbolTableRecord
100
AcDbRegAppTableRecord
  2
ACAD
 70
     0
  0
ENDTAB
  0
TABLE
  2
DIMSTYLE
  5
A
330
0
100
AcDbSymbolTable
 70
     1
100
AcDbDimStyleTable
  0
DIMSTYLE
105
27
330
A
100
AcDbSymbolTableRecord
100
AcDbDimStyleTableRecord
  2
Standard
 70
     0
340
11
  0
ENDTAB
  0
TABLE
  2
BLOCK_RECORD
  5
1
330
0
100
AcDbSymbolTable
 70
   213
  0
BLOCK_RECORD
  5
1F
330
1
100
AcDbSymbolTableRecord
100
AcDbBlockTableRecord
  2
*Model_Space
340
22
  0
BLOCK_RECORD
  5
1B
330
1
100
AcDbSymbolTableRecord
100
AcDbBlockTableRecord
  2
*Paper_Space
340
1E
  0
BLOCK_RECORD
  5
23
330
1
100
AcDbSymbolTableRecord
100
AcDbBlockTableRecord
  2
*Paper_Space0
340
26
  0
BLOCK_RECORD
  5
3C
330
1
100
AcDbSymbolTableRecord
100
AcDbBlockTableRecord
  2
block 2
340
0
102
{BLKREFS
331
3D
102
}
  0
BLOCK_RECORD
  5
50
330
1
100
AcDbSymbolTableRecord
100
AcDbBlockTableRecord
  2
block 3
340
0
102
{BLKREFS
331
51
102
}
  0
BLOCK_RECORD
  5
62
330
1
100
AcDbSymbolTableRecord
100
AcDbBlockTableRecord
  2
block 4
340
0
102
{BLKREFS
331
63
102
}
  0
BLOCK_RECORD
  5
76
330
1
100
AcDbSymbolTableRecord
100
AcDbBlockTableRecord
  2
block 5
340
0
102
{BLKREFS
331
77
102
}
  0
BLOCK_RECORD
  5
7D
330
1
100
AcDbSymbolTableRecord
100
AcDbBlockTableRecord
  2
block 6
340
0
102
{BLKREFS
331
7E
102
}
  0
BLOCK_RECORD
  5
91
330
1
100
AcDbSymbolTableRecord
100
AcDbBlockTableRecord
  2
block 7
340
0
102
{BLKREFS
331
92
102
}
  0
BLOCK_RECORD
  5
A3
330
1
100
AcDbSymbolTableRecord
100
AcDbBlockTableRecord
  2
block 8
340
0
102
{BLKREFS
331
A4
102
}
  0
BLOCK_RECORD
  5
B7
330
1
100
AcDbSymbolTableRecord
100
AcDbBlockTableRecord
  2
block 9
340
0
102
{BLKREFS
331
B8
102
}
  0
BLOCK_RECORD
  5
BF
330
1
100
AcDbSymbolTableRecord
100
AcDbBlockTableRecord
  2
block 10
340
0
102
{BLKREFS
331
C0
102
}
  0
BLOCK_RECORD
  5
C7
330
1
100
AcDbSymbolTableRecord
100
AcDbBlockTableRecord
  2
block 11
340
0
102
{BLKREFS
331
C8
102
}
  0
BLOCK_RECORD
  5
CF
330
1
100
AcDbSymbolTableRecord
100
AcDbBlockTableRecord
  2
block 12
340
0
102
{BLKREFS
331
D0
102
}
  0
BLOCK_RECORD
  5
D4
330
1
100
AcDbSymbolTableRecord
100
AcDbBlockTableRecord
  2
block 13
340
0
102
{BLKREFS
331
D5
102
}
  0
BLOCK_RECORD
  5
D9
330
1
100
AcDbSymbolTableRecord
100
AcDbBlockTableRecord
  2
block 14
340
0
102
{BLKREFS
331
DA
102
}
  0
BLOCK_RECORD
  5
DE
330
1
100
AcDbSymbolTableRecord
100
AcDbBlockTableRecord
  2
block 15
340
0
102
{BLKREFS
331
DF
102
}
  0
BLOCK_RECORD
  5
E6
330
1
100
AcDbSymbolTableRecord
100
AcDbBlockTableRecord
  2
block 16
340
0
102
{BLKREFS
331
E7
102
}
  0
BLOCK_RECORD
  5
EB
330
1
100
AcDbSymbolTableRecord
100
AcDbBlockTableRecord
  2
block 17
340
0
102
{BLKREFS
331
EC
102
}
  0
BLOCK_RECORD
  5
F0
330
1
100
AcDbSymbolTableRecord
100
AcDbBlockTableRecord
  2
block 18
340
0
102
{BLKREFS
331
F1
102
}
  0
BLOCK_RECORD
  5
F8
330
1
100
AcDbSymbolTableRecord
100
AcDbBlockTableRecord
  2
block 19
340
0
102
{BLKREFS
331
F9
102
}
  0
BLOCK_RECORD
  5
100
330
1
100
AcDbSymbolTableRecord
100
AcDbBlockTableRecord
  2
block 20
340
0
102
{BLKREFS
331
101
102
}
  0
BLOCK_RECORD
  5
108
330
1
100
AcDbSymbolTableRecord
100
AcDbBlockTableRecord
  2
block 21
340
0
102
{BLKREFS
331
109
102
}
  0
BLOCK_RECORD
  5
10D
330
1
100
AcDbSymbolTableRecord
100
AcDbBlockTableRecord
  2
block 22
340
0
102
{BLKREFS
331
10E
102
}
  0
BLOCK_RECORD
  5
112
330
1
100
AcDbSymbolTableRecord
100
AcDbBlockTableRecord
  2
block 23
340
0
102
{BLKREFS
331
113
102
}
  0
BLOCK_RECORD
  5
11A
330
1
100
AcDbSymbolTableRecord
100
AcDbBlockTableRecord
  2
block 24
340
0
102
{BLKREFS
331
11B
102
}
  0
BLOCK_RECORD
  5
122
330
1
100
AcDbSymbolTableRecord
100
AcDbBlockTableRecord
  2
block 25
340
0
102
{BLKREFS
331
123
102
}
  0
BLOCK_RECORD
  5
127
330
1
100
AcDbSymbolTableRecord
100
AcDbBlockTableRecord
  2
block 26
340
0
102
{BLKREFS
331
128
102
}
  0
BLOCK_RECORD
  5
12F
330
1
100
AcDbSymbolTableRecord
100
AcDbBlockTableRecord
  2
block 27
340
0
102
{BLKREFS
331
130
102
}
  0
BLOCK_RECORD
  5
137
330
1
100
AcDbSymbolTableRecord
100
AcDbBlockTableRecord
  2
block 28
340
0
102
{BLKREFS
331
138
102
}
  0
BLOCK_RECORD
  5
13C
330
1
100
AcDbSymbolTableRecord
100
AcDbBlockTableRecord
  2
block 29
340
0
102
{BLKREFS
331
13D
102
}
  0
BLOCK_RECORD
  5
144
330
1
100
AcDbSymbolTableRecord
100
AcDbBlockTableRecord
  2
block 30
340
0
102
{BLKREFS
331
145
102
}
  0
BLOCK_RECORD
  5
14C
330
1
100
AcDbSymbolTableRecord
100
AcDbBlockTableRecord
  2
block 31
340
0
102
{BLKREFS
331
14D
102
}
  0
BLOCK_RECORD
  5
151
330
1
100
AcDbSymbolTableRecord
100
AcDbBlockTableRecord
  2
block 32
340
0
102
{BLKREFS
331
152
102
}
  0
BLOCK_RECORD
  5
156
330
1
100
AcDbSymbolTableRecord
100
AcDbBlockTableRecord
  2
block 33
340
0
102
{BLKREFS
331
157
102
}
  0
BLOCK_RECORD
  5
15B
330
1
100
AcDbSymbolTableRecord
100
AcDbBlockTableRecord
  2
block 34
340
0
102
{BLKREFS
331
15C
102
}
  0
BLOCK_RECORD
  5
160
330
1
100
AcDbSymbolTableRecord
100
AcDbBlockTableRecord
  2
block 35
340
0
102
{BLKREFS
331
161
102
}
  0
BLOCK_RECORD
  5
165
330
1
100
AcDbSymbolTableRecord
100
AcDbBlockTableRecord
  2
block 36
340
0
102
{BLKREFS
331
166
102
}
  0
BLOCK_RECORD
  5
16A
330
1
100
AcDbSymbolTableRecord
100
AcDbBlockTableRecord
  2
block 37
340
0
102
{BLKREFS
331
16B
102
}
  0
BLOCK_RECORD
  5
16F
330
1
100
AcDbSymbolTableRecord
100
AcDbBlockTableRecord
  2
block 38
340
0
102
{BLKREFS
331
170
102
}
  0
BLOCK_RECORD
  5
174
330
1
100
AcDbSymbolTableRecord
100
AcDbBlockTableRecord
  2
block 39
340
0
102
{BLKREFS
331
175
102
}
  0
BLOCK_RECORD
  5
179
330
1
100
AcDbSymbolTableRecord
100
AcDbBlockTableRecord
  2
block 40
340
0
102
{BLKREFS
331
17A
102
}
  0
BLOCK_RECORD
  5
17E
330
1
100
AcDbSymbolTableRecord
100
AcDbBlockTableRecord
  2
block 41
340
0
102
{BLKREFS
331
17F
102
}
  0
BLOCK_RECORD
  5
183
330
1
100
AcDbSymbolTableRecord
100
AcDbBlockTableRecord
  2
block 42
340
0
102
{BLKREFS
331
184
102
}
  0
BLOCK_RECORD
  5
188
330
1
100
AcDbSymbolTableRecord
100
AcDbBlockTableRecord
  2
block 43
340
0
102
{BLKREFS
331
189
102
}
  0
BLOCK_RECORD
  5
190
330
1
100
AcDbSymbolTableRecord
100
AcDbBlockTableRecord
  2
block 44
340
0
102
{BLKREFS
331
191
102
}
  0
BLOCK_RECORD
  5
195
330
1
100
AcDbSymbolTableRecord
100
AcDbBlockTableRecord
  2
block 45
340
0
102
{BLKREFS
331
196
102
}
  0
BLOCK_RECORD
  5
19D
330
1
100
AcDbSymbolTableRecord
100
AcDbBlockTableRecord
  2
block 46
340
0
102
{BLKREFS
331
19E
102
}
  0
BLOCK_RECORD
  5
1A5
330
1
100
AcDbSymbolTableRecord
100
AcDbBlockTableRecord
  2
block 47
340
0
102
{BLKREFS
331
1A6
102
}
  0
BLOCK_RECORD
  5
1AA
330
1
100
AcDbSymbolTableRecord
100
AcDbBlockTableRecord
  2
block 48
340
0
102
{BLKREFS
331
1AB
102
}
  0
BLOCK_RECORD
  5
1AF
330
1
100
AcDbSymbolTableRecord
100
AcDbBlockTableRecord
  2
block 49
340
0
102
{BLKREFS
331
1B0
102
}
  0
BLOCK_RECORD
  5
1B4
330
1
100
AcDbSymbolTableRecord
100
AcDbBlockTableRecord
  2
block 50
340
0
102
{BLKREFS
331
1B5
102
}
  0
BLOCK_RECORD
  5
1BC
330
1
100
AcDbSymbolTableRecord
100
AcDbBlockTableRecord
  2
block 51
340
0
102
{BLKREFS
331
1BD
102
}
  0
BLOCK_RECORD
  5
1C4
330
1
100
AcDbSymbolTableRecord
100
AcDbBlockTableRecord
  2
block 52
340
0
102
{BLKREFS
331
1C5
102
}
  0
BLOCK_RECORD
  5
1CC
330
1
100
AcDbSymbolTableRecord
100
AcDbBlockTableRecord
  2
block 53
340
0
102
{BLKREFS
331
1CD
102
}
  0
BLOCK_RECORD
  5
1D4
330
1
100
AcDbSymbolTableRecord
100
AcDbBlockTableRecord
  2
block 54
340
0
102
{BLKREFS
331
1D5
102
}
  0
BLOCK_RECORD
  5
1DC
330
1
100
AcDbSymbolTableRecord
100
AcDbBlockTableRecord
  2
block 55
340
0
102
{BLKREFS
331
1DD
102
}
  0
BLOCK_RECORD
  5
1E4
330
1
100
AcDbSymbolTableRecord
100
AcDbBlockTableRecord
  2
block 56
340
0
102
{BLKREFS
331
1E5
102
}
  0
BLOCK_RECORD
  5
1EC
330
1
100
AcDbSymbolTableRecord
100
AcDbBlockTableRecord
  2
block 57
340
0
102
{BLKREFS
331
1ED
102
}
  0
BLOCK_RECORD
  5
1F1
330
1
100
AcDbSymbolTableRecord
100
AcDbBlockTableRecord
  2
block 58
340
0
102
{BLKREFS
331
1F2
102
}
  0
BLOCK_RECORD
  5
1F9
330
1
100
AcDbSymbolTableRecord
100
AcDbBlockTableRecord
  2
block 59
340
0
102
{BLKREFS
331
1FA
102
}
  0
BLOCK_RECORD
  5
201
330
1
100
AcDbSymbolTableRecord
100
AcDbBlockTableRecord
  2
block 60
340
0
102
{BLKREFS
331
202
102
}
  0
BLOCK_RECORD
  5
206
330
1
100
AcDbSymbolTableRecord
100
AcDbBlockTableRecord
  2
block 61
340
0
102
{BLKREFS
331
207
102
}
  0
BLOCK_RECORD
  5
20E
330
1
100
AcDbSymbolTableRecord
100
AcDbBlockTableRecord
  2
block 62
340
0
102
{BLKREFS
331
20F
102
}
  0
BLOCK_RECORD
  5
216
330
1
100
AcDbSymbolTableRecord
100
AcDbBlockTableRecord
  2
block 63
340
0
102
{BLKREFS
331
217
102
}
  0
BLOCK_RECORD
  5
21B
330
1
100
AcDbSymbolTableRecord
100
AcDbBlockTableRecord
  2
block 64
340
0
102
{BLKREFS
331
21C
102
}
  0
BLOCK_RECORD
  5
220
330
1
100
AcDbSymbolTableRecord
100
AcDbBlockTableRecord
  2
block 65
340
0
102
{BLKREFS
331
221
102
}
  0
BLOCK_RECORD
  5
225
330
1
100
AcDbSymbolTableRecord
100
AcDbBlockTableRecord
  2
block 66
340
0
102
{BLKREFS
331
226
102
}
  0
BLOCK_RECORD
  5
22A
330
1
100
AcDbSymbolTableRecord
100
AcDbBlockTableRecord
  2
block 67
340
0
102
{BLKREFS
331
22B
102
}
  0
BLOCK_RECORD
  5
22F
330
1
100
AcDbSymbolTableRecord
100
AcDbBlockTableRecord
  2
block 68
340
0
102
{BLKREFS
331
230
102
}
  0
BLOCK_RECORD
  5
234
330
1
100
AcDbSymbolTableRecord
100
AcDbBlockTableRecord
  2
block 69
340
0
102
{BLKREFS
331
235
102
}
  0
BLOCK_RECORD
  5
239
330
1
100
AcDbSymbolTableRecord
100
AcDbBlockTableRecord
  2
block 70
340
0
102
{BLKREFS
331
23A
102
}
  0
BLOCK_RECORD
  5
23E
330
1
100
AcDbSymbolTableRecord
100
AcDbBlockTableRecord
  2
block 71
340
0
102
{BLKREFS
331
23F
102
}
  0
BLOCK_RECORD
  5
243
330
1
100
AcDbSymbolTableRecord
100
AcDbBlockTableRecord
  2
block 72
340
0
102
{BLKREFS
331
244
102
}
  0
BLOCK_RECORD
  5
248
330
1
100
AcDbSymbolTableRecord
100
AcDbBlockTableRecord
  2
block 73
340
0
102
{BLKREFS
331
249
102
}
  0
BLOCK_RECORD
  5
24D
330
1
100
AcDbSymbolTableRecord
100
AcDbBlockTableRecord
  2
block 74
340
0
102
{BLKREFS
331
24E
102
}
  0
BLOCK_RECORD
  5
252
330
1
100
AcDbSymbolTableRecord
100
AcDbBlockTableRecord
  2
block 75
340
0
102
{BLKREFS
331
253
102
}
  0
BLOCK_RECORD
  5
25A
330
1
100
AcDbSymbolTableRecord
100
AcDbBlockTableRecord
  2
block 76
340
0
102
{BLKREFS
331
25B
102
}
  0
BLOCK_RECORD
  5
25F
330
1
100
AcDbSymbolTableRecord
100
AcDbBlockTableRecord
  2
block 77
340
0
102
{BLKREFS
331
260
102
}
  0
BLOCK_RECORD
  5
267
330
1
100
AcDbSymbolTableRecord
100
AcDbBlockTableRecord
  2
block 78
340
0
102
{BLKREFS
331
268
102
}
  0
BLOCK_RECORD
  5
26F
330
1
100
AcDbSymbolTableRecord
100
AcDbBlockTableRecord
  2
block 79
340
0
102
{BLKREFS
331
270
102
}
  0
BLOCK_RECORD
  5
274
330
1
100
AcDbSymbolTableRecord
100
AcDbBlockTableRecord
  2
block 80
340
0
102
{BLKREFS
331
275
102
}
  0
BLOCK_RECORD
  5
279
330
1
100
AcDbSymbolTableRecord
100
AcDbBlockTableRecord
  2
block 81
340
0
102
{BLKREFS
331
27A
102
}
  0
BLOCK_RECORD
  5
27E
330
1
100
AcDbSymbolTableRecord
100
AcDbBlockTableRecord
  2
block 82
340
0
102
{BLKREFS
331
27F
102
}
  0
BLOCK_RECORD
  5
286
330
1
100
AcDbSymbolTableRecord
100
AcDbBlockTableRecord
  2
block 83
340
0
102
{BLKREFS
331
287
102
}
  0
BLOCK_RECORD
  5
28E
330
1
100
AcDbSymbolTableRecord
100
AcDbBlockTableRecord
  2
block 84
340
0
102
{BLKREFS
331
28F
102
}
  0
BLOCK_RECORD
  5
296
330
1
100
AcDbSymbolTableRecord
100
AcDbBlockTableRecord
  2
block 85
340
0
102
{BLKREFS
331
297
102
}
  0
BLOCK_RECORD
  5
29E
330
1
100
AcDbSymbolTableRecord
100
AcDbBlockTableRecord
  2
block 86
340
0
102
{BLKREFS
331
29F
102
}
  0
BLOCK_RECORD
  5
2A6
330
1
100
AcDbSymbolTableRecord
100
AcDbBlockTableRecord
  2
block 87
340
0
102
{BLKREFS
331
2A7
102
}
  0
BLOCK_RECORD
  5
2AE
330
1
100
AcDbSymbolTableRecord
100
AcDbBlockTableRecord
  2
block 88
340
0
102
{BLKREFS
331
2AF
102
}
  0
BLOCK_RECORD
  5
2B6
330
1
100
AcDbSymbolTableRecord
100
AcDbBlockTableRecord
  2
block 89
340
0
102
{BLKREFS
331
2B7
102
}
  0
BLOCK_RECORD
  5
2BE
330
1
100
AcDbSymbolTableRecord
100
AcDbBlockTableRecord
  2
block 90
340
0
102
{BLKREFS
331
2BF
102
}
  0
BLOCK_RECORD
  5
2C6
330
1
100
AcDbSymbolTableRecord
100
AcDbBlockTableRecord
  2
block 91
340
0
102
{BLKREFS
331
2C7
102
}
  0
BLOCK_RECORD
  5
2CB
330
1
100
AcDbSymbolTableRecord
100
AcDbBlockTableRecord
  2
block 92
340
0
102
{BLKREFS
331
2CC
102
}
  0
BLOCK_RECORD
  5
2D0
330
1
100
AcDbSymbolTableRecord
100
AcDbBlockTableRecord
  2
block 93
340
0
102
{BLKREFS
331
2D1
102
}
  0
BLOCK_RECORD
  5
2D8
330
1
100
AcDbSymbolTableRecord
100
AcDbBlockTableRecord
  2
block 94
340
0
102
{BLKREFS
331
2D9
102
}
  0
BLOCK_RECORD
  5
2E0
330
1
100
AcDbSymbolTableRecord
100
AcDbBlockTableRecord
  2
block 95
340
0
102
{BLKREFS
331
2E1
102
}
  0
BLOCK_RECORD
  5
2E5
330
1
100
AcDbSymbolTableRecord
100
AcDbBlockTableRecord
  2
block 96
340
0
102
{BLKREFS
331
2E6
102
}
  0
BLOCK_RECORD
  5
2EA
330
1
100
AcDbSymbolTableRecord
100
AcDbBlockTableRecord
  2
block 97
340
0
102
{BLKREFS
331
2EB
102
}
  0
BLOCK_RECORD
  5
2EF
330
1
100
AcDbSymbolTableRecord
100
AcDbBlockTableRecord
  2
block 98
340
0
102
{BLKREFS
331
2F0
102
}
  0
BLOCK_RECORD
  5
2F4
330
1
100
AcDbSymbolTableRecord
100
AcDbBlockTableRecord
  2
block 99
340
0
102
{BLKREFS
331
2F5
102
}
  0
BLOCK_RECORD
  5
2F9
330
1
100
AcDbSymbolTableRecord
100
AcDbBlockTableRecord
  2
block 100
340
0
102
{BLKREFS
331
2FA
102
}
  0
BLOCK_RECORD
  5
2FE
330
1
100
AcDbSymbolTableRecord
100
AcDbBlockTableRecord
  2
block 101
340
0
102
{BLKREFS
331
2FF
102
}
  0
BLOCK_RECORD
  5
303
330
1
100
AcDbSymbolTableRecord
100
AcDbBlockTableRecord
  2
block 102
340
0
102
{BLKREFS
331
304
102
}
  0
BLOCK_RECORD
  5
308
330
1
100
AcDbSymbolTableRecord
100
AcDbBlockTableRecord
  2
block 103
340
0
102
{BLKREFS
331
309
102
}
  0
BLOCK_RECORD
  5
30D
330
1
100
AcDbSymbolTableRecord
100
AcDbBlockTableRecord
  2
block 104
340
0
102
{BLKREFS
331
30E
102
}
  0
BLOCK_RECORD
  5
312
330
1
100
AcDbSymbolTableRecord
100
AcDbBlockTableRecord
  2
block 105
340
0
102
{BLKREFS
331
313
102
}
  0
BLOCK_RECORD
  5
317
330
1
100
AcDbSymbolTableRecord
100
AcDbBlockTableRecord
  2
block 106
340
0
102
{BLKREFS
331
318
102
}
  0
BLOCK_RECORD
  5
31C
330
1
100
AcDbSymbolTableRecord
100
AcDbBlockTableRecord
  2
block 107
340
0
102
{BLKREFS
331
31D
102
}
  0
BLOCK_RECORD
  5
321
330
1
100
AcDbSymbolTableRecord
100
AcDbBlockTableRecord
  2
block 108
340
0
102
{BLKREFS
331
322
102
}
  0
BLOCK_RECORD
  5
326
330
1
100
AcDbSymbolTableRecord
100
AcDbBlockTableRecord
  2
block 109
340
0
102
{BLKREFS
331
327
102
}
  0
BLOCK_RECORD
  5
32B
330
1
100
AcDbSymbolTableRecord
100
AcDbBlockTableRecord
  2
block 110
340
0
102
{BLKREFS
331
32C
102
}
  0
BLOCK_RECORD
  5
330
330
1
100
AcDbSymbolTableRecord
100
AcDbBlockTableRecord
  2
block 111
340
0
102
{BLKREFS
331
331
102
}
  0
BLOCK_RECORD
  5
335
330
1
100
AcDbSymbolTableRecord
100
AcDbBlockTableRecord
  2
block 112
340
0
102
{BLKREFS
331
336
102
}
  0
BLOCK_RECORD
  5
33A
330
1
100
AcDbSymbolTableRecord
100
AcDbBlockTableRecord
  2
block 113
340
0
102
{BLKREFS
331
33B
102
}
  0
BLOCK_RECORD
  5
33F
330
1
100
AcDbSymbolTableRecord
100
AcDbBlockTableRecord
  2
block 114
340
0
102
{BLKREFS
331
340
102
}
  0
BLOCK_RECORD
  5
344
330
1
100
AcDbSymbolTableRecord
100
AcDbBlockTableRecord
  2
block 115
340
0
102
{BLKREFS
331
345
102
}
  0
BLOCK_RECORD
  5
349
330
1
100
AcDbSymbolTableRecord
100
AcDbBlockTableRecord
  2
block 116
340
0
102
{BLKREFS
331
34A
102
}
  0
BLOCK_RECORD
  5
34E
330
1
100
AcDbSymbolTableRecord
100
AcDbBlockTableRecord
  2
block 117
340
0
102
{BLKREFS
331
34F
102
}
  0
BLOCK_RECORD
  5
353
330
1
100
AcDbSymbolTableRecord
100
AcDbBlockTableRecord
  2
block 118
340
0
102
{BLKREFS
331
354
102
}
  0
BLOCK_RECORD
  5
358
330
1
100
AcDbSymbolTableRecord
100
AcDbBlockTableRecord
  2
block 119
340
0
102
{BLKREFS
331
359
102
}
  0
BLOCK_RECORD
  5
35D
330
1
100
AcDbSymbolTableRecord
100
AcDbBlockTableRecord
  2
block 120
340
0
102
{BLKREFS
331
35E
102
}
  0
BLOCK_RECORD
  5
362
330
1
100
AcDbSymbolTableRecord
100
AcDbBlockTableRecord
  2
block 121
340
0
102
{BLKREFS
331
363
102
}
  0
BLOCK_RECORD
  5
367
330
1
100
AcDbSymbolTableRecord
100
AcDbBlockTableRecord
  2
block 122
340
0
102
{BLKREFS
331
368
102
}
  0
BLOCK_RECORD
  5
36C
330
1
100
AcDbSymbolTableRecord
100
AcDbBlockTableRecord
  2
block 123
340
0
102
{BLKREFS
331
36D
102
}
  0
BLOCK_RECORD
  5
371
330
1
100
AcDbSymbolTableRecord
100
AcDbBlockTableRecord
  2
block 124
340
0
102
{BLKREFS
331
372
102
}
  0
BLOCK_RECORD
  5
376
330
1
100
AcDbSymbolTableRecord
100
AcDbBlockTableRecord
  2
block 125
340
0
102
{BLKREFS
331
377
102
}
  0
BLOCK_RECORD
  5
37B
330
1
100
AcDbSymbolTableRecord
100
AcDbBlockTableRecord
  2
block 126
340
0
102
{BLKREFS
331
37C
102
}
  0
BLOCK_RECORD
  5
380
330
1
100
AcDbSymbolTableRecord
100
AcDbBlockTableRecord
  2
block 127
340
0
102
{BLKREFS
331
381
102
}
  0
BLOCK_RECORD
  5
385
330
1
100
AcDbSymbolTableRecord
100
AcDbBlockTableRecord
  2
block 128
340
0
102
{BLKREFS
331
386
102
}
  0
BLOCK_RECORD
  5
38A
330
1
100
AcDbSymbolTableRecord
100
AcDbBlockTableRecord
  2
block 129
340
0
102
{BLKREFS
331
38B
102
}
  0
BLOCK_RECORD
  5
38F
330
1
100
AcDbSymbolTableRecord
100
AcDbBlockTableRecord
  2
block 130
340
0
102
{BLKREFS
331
390
102
}
  0
BLOCK_RECORD
  5
394
330
1
100
AcDbSymbolTableRecord
100
AcDbBlockTableRecord
  2
block 131
340
0
102
{BLKREFS
331
395
102
}
  0
BLOCK_RECORD
  5
399
330
1
100
AcDbSymbolTableRecord
100
AcDbBlockTableRecord
  2
block 132
340
0
102
{BLKREFS
331
39A
102
}
  0
BLOCK_RECORD
  5
39E
330
1
100
AcDbSymbolTableRecord
100
AcDbBlockTableRecord
  2
block 133
340
0
102
{BLKREFS
331
39F
102
}
  0
BLOCK_RECORD
  5
3A3
330
1
100
AcDbSymbolTableRecord
100
AcDbBlockTableRecord
  2
block 134
340
0
102
{BLKREFS
331
3A4
102
}
  0
BLOCK_RECORD
  5
3A8
330
1
100
AcDbSymbolTableRecord
100
AcDbBlockTableRecord
  2
block 135
340
0
102
{BLKREFS
331
3A9
102
}
  0
BLOCK_RECORD
  5
3AD
330
1
100
AcDbSymbolTableRecord
100
AcDbBlockTableRecord
  2
block 136
340
0
102
{BLKREFS
331
3AE
102
}
  0
BLOCK_RECORD
  5
3B2
330
1
100
AcDbSymbolTableRecord
100
AcDbBlockTableRecord
  2
block 137
340
0
102
{BLKREFS
331
3B3
102
}
  0
BLOCK_RECORD
  5
3B7
330
1
100
AcDbSymbolTableRecord
100
AcDbBlockTableRecord
  2
block 138
340
0
102
{BLKREFS
331
3B8
102
}
  0
BLOCK_RECORD
  5
3BC
330
1
100
AcDbSymbolTableRecord
100
AcDbBlockTableRecord
  2
block 139
340
0
102
{BLKREFS
331
3BD
102
}
  0
BLOCK_RECORD
  5
3C1
330
1
100
AcDbSymbolTableRecord
100
AcDbBlockTableRecord
  2
block 140
340
0
102
{BLKREFS
331
3C2
102
}
  0
BLOCK_RECORD
  5
3C6
330
1
100
AcDbSymbolTableRecord
100
AcDbBlockTableRecord
  2
block 141
340
0
102
{BLKREFS
331
3C7
102
}
  0
BLOCK_RECORD
  5
3CB
330
1
100
AcDbSymbolTableRecord
100
AcDbBlockTableRecord
  2
block 142
340
0
102
{BLKREFS
331
3CC
102
}
  0
BLOCK_RECORD
  5
3D0
330
1
100
AcDbSymbolTableRecord
100
AcDbBlockTableRecord
  2
block 143
340
0
102
{BLKREFS
331
3D1
102
}
  0
BLOCK_RECORD
  5
3D9
330
1
100
AcDbSymbolTableRecord
100
AcDbBlockTableRecord
  2
block 144
340
0
102
{BLKREFS
331
3DA
102
}
  0
BLOCK_RECORD
  5
3E2
330
1
100
AcDbSymbolTableRecord
100
AcDbBlockTableRecord
  2
block 145
340
0
102
{BLKREFS
331
3E3
102
}
  0
BLOCK_RECORD
  5
3EB
330
1
100
AcDbSymbolTableRecord
100
AcDbBlockTableRecord
  2
block 146
340
0
102
{BLKREFS
331
3EC
102
}
  0
BLOCK_RECORD
  5
3F3
330
1
100
AcDbSymbolTableRecord
100
AcDbBlockTableRecord
  2
block 147
340
0
102
{BLKREFS
331
3F4
102
}
  0
BLOCK_RECORD
  5
3FB
330
1
100
AcDbSymbolTableRecord
100
AcDbBlockTableRecord
  2
block 148
340
0
102
{BLKREFS
331
3FC
102
}
  0
BLOCK_RECORD
  5
3FF
330
1
100
AcDbSymbolTableRecord
100
AcDbBlockTableRecord
  2
block 149
340
0
102
{BLKREFS
331
400
102
}
  0
BLOCK_RECORD
  5
407
330
1
100
AcDbSymbolTableRecord
100
AcDbBlockTableRecord
  2
block 150
340
0
102
{BLKREFS
331
408
102
}
  0
BLOCK_RECORD
  5
40F
330
1
100
AcDbSymbolTableRecord
100
AcDbBlockTableRecord
  2
block 151
340
0
102
{BLKREFS
331
410
102
}
  0
BLOCK_RECORD
  5
417
330
1
100
AcDbSymbolTableRecord
100
AcDbBlockTableRecord
  2
block 152
340
0
102
{BLKREFS
331
418
102
}
  0
BLOCK_RECORD
  5
41F
330
1
100
AcDbSymbolTableRecord
100
AcDbBlockTableRecord
  2
block 153
340
0
102
{BLKREFS
331
420
102
}
  0
BLOCK_RECORD
  5
42A
330
1
100
AcDbSymbolTableRecord
100
AcDbBlockTableRecord
  2
block 154
340
0
102
{BLKREFS
331
42B
102
}
  0
BLOCK_RECORD
  5
435
330
1
100
AcDbSymbolTableRecord
100
AcDbBlockTableRecord
  2
block 155
340
0
102
{BLKREFS
331
436
102
}
  0
BLOCK_RECORD
  5
43A
330
1
100
AcDbSymbolTableRecord
100
AcDbBlockTableRecord
  2
block 156
340
0
102
{BLKREFS
331
43B
102
}
  0
BLOCK_RECORD
  5
442
330
1
100
AcDbSymbolTableRecord
100
AcDbBlockTableRecord
  2
block 157
340
0
102
{BLKREFS
331
443
102
}
  0
BLOCK_RECORD
  5
44A
330
1
100
AcDbSymbolTableRecord
100
AcDbBlockTableRecord
  2
block 158
340
0
102
{BLKREFS
331
44B
102
}
  0
BLOCK_RECORD
  5
452
330
1
100
AcDbSymbolTableRecord
100
AcDbBlockTableRecord
  2
block 159
340
0
102
{BLKREFS
331
453
102
}
  0
BLOCK_RECORD
  5
456
330
1
100
AcDbSymbolTableRecord
100
AcDbBlockTableRecord
  2
block 160
340
0
102
{BLKREFS
331
457
102
}
  0
BLOCK_RECORD
  5
45E
330
1
100
AcDbSymbolTableRecord
100
AcDbBlockTableRecord
  2
block 161
340
0
102
{BLKREFS
331
45F
102
}
  0
BLOCK_RECORD
  5
466
330
1
100
AcDbSymbolTableRecord
100
AcDbBlockTableRecord
  2
block 162
340
0
102
{BLKREFS
331
467
102
}
  0
BLOCK_RECORD
  5
46E
330
1
100
AcDbSymbolTableRecord
100
AcDbBlockTableRecord
  2
block 163
340
0
102
{BLKREFS
331
46F
102
}
  0
BLOCK_RECORD
  5
476
330
1
100
AcDbSymbolTableRecord
100
AcDbBlockTableRecord
  2
block 164
340
0
102
{BLKREFS
331
477
102
}
  0
BLOCK_RECORD
  5
481
330
1
100
AcDbSymbolTableRecord
100
AcDbBlockTableRecord
  2
block 165
340
0
102
{BLKREFS
331
482
102
}
  0
BLOCK_RECORD
  5
48C
330
1
100
AcDbSymbolTableRecord
100
AcDbBlockTableRecord
  2
block 166
340
0
102
{BLKREFS
331
48D
102
}
  0
BLOCK_RECORD
  5
491
330
1
100
AcDbSymbolTableRecord
100
AcDbBlockTableRecord
  2
block 167
340
0
102
{BLKREFS
331
492
102
}
  0
BLOCK_RECORD
  5
499
330
1
100
AcDbSymbolTableRecord
100
AcDbBlockTableRecord
  2
block 168
340
0
102
{BLKREFS
331
49A
102
}
  0
BLOCK_RECORD
  5
4A1
330
1
100
AcDbSymbolTableRecord
100
AcDbBlockTableRecord
  2
block 169
340
0
102
{BLKREFS
331
4A2
102
}
  0
BLOCK_RECORD
  5
4A9
330
1
100
AcDbSymbolTableRecord
100
AcDbBlockTableRecord
  2
block 170
340
0
102
{BLKREFS
331
4AA
102
}
  0
BLOCK_RECORD
  5
4AD
330
1
100
AcDbSymbolTableRecord
100
AcDbBlockTableRecord
  2
block 171
340
0
102
{BLKREFS
331
4AE
102
}
  0
BLOCK_RECORD
  5
4B5
330
1
100
AcDbSymbolTableRecord
100
AcDbBlockTableRecord
  2
block 172
340
0
102
{BLKREFS
331
4B6
102
}
  0
BLOCK_RECORD
  5
4BD
330
1
100
AcDbSymbolTableRecord
100
AcDbBlockTableRecord
  2
block 173
340
0
102
{BLKREFS
331
4BE
102
}
  0
BLOCK_RECORD
  5
4C5
330
1
100
AcDbSymbolTableRecord
100
AcDbBlockTableRecord
  2
block 174
340
0
102
{BLKREFS
331
4C6
102
}
  0
BLOCK_RECORD
  5
4CD
330
1
100
AcDbSymbolTableRecord
100
AcDbBlockTableRecord
  2
block 175
340
0
102
{BLKREFS
331
4CE
102
}
  0
BLOCK_RECORD
  5
4D8
330
1
100
AcDbSymbolTableRecord
100
AcDbBlockTableRecord
  2
block 176
340
0
102
{BLKREFS
331
4D9
102
}
  0
BLOCK_RECORD
  5
4E3
330
1
100
AcDbSymbolTableRecord
100
AcDbBlockTableRecord
  2
block 177
340
0
102
{BLKREFS
331
4E4
102
}
  0
BLOCK_RECORD
  5
4E8
330
1
100
AcDbSymbolTableRecord
100
AcDbBlockTableRecord
  2
block 178
340
0
102
{BLKREFS
331
4E9
102
}
  0
BLOCK_RECORD
  5
4F0
330
1
100
AcDbSymbolTableRecord
100
AcDbBlockTableRecord
  2
block 179
340
0
102
{BLKREFS
331
4F1
102
}
  0
BLOCK_RECORD
  5
4F8
330
1
100
AcDbSymbolTableRecord
100
AcDbBlockTableRecord
  2
block 180
340
0
102
{BLKREFS
331
4F9
102
}
  0
BLOCK_RECORD
  5
500
330
1
100
AcDbSymbolTableRecord
100
AcDbBlockTableRecord
  2
block 181
340
0
102
{BLKREFS
331
501
102
}
  0
BLOCK_RECORD
  5
504
330
1
100
AcDbSymbolTableRecord
100
AcDbBlockTableRecord
  2
block 182
340
0
102
{BLKREFS
331
505
102
}
  0
BLOCK_RECORD
  5
50C
330
1
100
AcDbSymbolTableRecord
100
AcDbBlockTableRecord
  2
block 183
340
0
102
{BLKREFS
331
50D
102
}
  0
BLOCK_RECORD
  5
514
330
1
100
AcDbSymbolTableRecord
100
AcDbBlockTableRecord
  2
block 184
340
0
102
{BLKREFS
331
515
102
}
  0
BLOCK_RECORD
  5
51C
330
1
100
AcDbSymbolTableRecord
100
AcDbBlockTableRecord
  2
block 185
340
0
102
{BLKREFS
331
51D
102
}
  0
BLOCK_RECORD
  5
524
330
1
100
AcDbSymbolTableRecord
100
AcDbBlockTableRecord
  2
block 186
340
0
102
{BLKREFS
331
525
102
}
  0
BLOCK_RECORD
  5
52F
330
1
100
AcDbSymbolTableRecord
100
AcDbBlockTableRecord
  2
block 187
340
0
102
{BLKREFS
331
530
102
}
  0
BLOCK_RECORD
  5
53A
330
1
100
AcDbSymbolTableRecord
100
AcDbBlockTableRecord
  2
block 188
340
0
102
{BLKREFS
331
53B
102
}
  0
BLOCK_RECORD
  5
53F
330
1
100
AcDbSymbolTableRecord
100
AcDbBlockTableRecord
  2
block 189
340
0
102
{BLKREFS
331
540
102
}
  0
BLOCK_RECORD
  5
547
330
1
100
AcDbSymbolTableRecord
100
AcDbBlockTableRecord
  2
block 190
340
0
102
{BLKREFS
331
548
102
}
  0
BLOCK_RECORD
  5
54F
330
1
100
AcDbSymbolTableRecord
100
AcDbBlockTableRecord
  2
block 191
340
0
102
{BLKREFS
331
550
102
}
  0
BLOCK_RECORD
  5
557
330
1
100
AcDbSymbolTableRecord
100
AcDbBlockTableRecord
  2
block 192
340
0
102
{BLKREFS
331
558
102
}
  0
BLOCK_RECORD
  5
55B
330
1
100
AcDbSymbolTableRecord
100
AcDbBlockTableRecord
  2
block 193
340
0
102
{BLKREFS
331
55C
102
}
  0
BLOCK_RECORD
  5
563
330
1
100
AcDbSymbolTableRecord
100
AcDbBlockTableRecord
  2
block 194
340
0
102
{BLKREFS
331
564
102
}
  0
BLOCK_RECORD
  5
56B
330
1
100
AcDbSymbolTableRecord
100
AcDbBlockTableRecord
  2
block 195
340
0
102
{BLKREFS
331
56C
102
}
  0
BLOCK_RECORD
  5
573
330
1
100
AcDbSymbolTableRecord
100
AcDbBlockTableRecord
  2
block 196
340
0
102
{BLKREFS
331
574
102
}
  0
BLOCK_RECORD
  5
57B
330
1
100
AcDbSymbolTableRecord
100
AcDbBlockTableRecord
  2
block 197
340
0
102
{BLKREFS
331
57C
102
}
  0
BLOCK_RECORD
  5
586
330
1
100
AcDbSymbolTableRecord
100
AcDbBlockTableRecord
  2
block 198
340
0
102
{BLKREFS
331
587
102
}
  0
BLOCK_RECORD
  5
591
330
1
100
AcDbSymbolTableRecord
100
AcDbBlockTableRecord
  2
block 199
340
0
102
{BLKREFS
331
592
102
}
  0
BLOCK_RECORD
  5
596
330
1
100
AcDbSymbolTableRecord
100
AcDbBlockTableRecord
  2
block 200
340
0
102
{BLKREFS
331
597
102
}
  0
BLOCK_RECORD
  5
59E
330
1
100
AcDbSymbolTableRecord
100
AcDbBlockTableRecord
  2
block 201
340
0
102
{BLKREFS
331
59F
102
}
  0
BLOCK_RECORD
  5
5A6
330
1
100
AcDbSymbolTableRecord
100
AcDbBlockTableRecord
  2
block 202
340
0
102
{BLKREFS
331
5A7
102
}
  0
BLOCK_RECORD
  5
5AE
330
1
100
AcDbSymbolTableRecord
100
AcDbBlockTableRecord
  2
block 203
340
0
102
{BLKREFS
331
5AF
102
}
  0
BLOCK_RECORD
  5
5B2
330
1
100
AcDbSymbolTableRecord
100
AcDbBlockTableRecord
  2
block 204
340
0
102
{BLKREFS
331
5B3
102
}
  0
BLOCK_RECORD
  5
5BA
330
1
100
AcDbSymbolTableRecord
100
AcDbBlockTableRecord
  2
block 205
340
0
102
{BLKREFS
331
5BB
102
}
  0
BLOCK_RECORD
  5
5C2
330
1
100
AcDbSymbolTableRecord
100
AcDbBlockTableRecord
  2
block 206
340
0
102
{BLKREFS
331
5C3
102
}
  0
BLOCK_RECORD
  5
5CA
330
1
100
AcDbSymbolTableRecord
100
AcDbBlockTableRecord
  2
block 207
340
0
102
{BLKREFS
331
5CB
102
}
  0
BLOCK_RECORD
  5
5D2
330
1
100
AcDbSymbolTableRecord
100
AcDbBlockTableRecord
  2
block 208
340
0
102
{BLKREFS
331
5D3
102
}
  0
BLOCK_RECORD
  5
5DD
330
1
100
AcDbSymbolTableRecord
100
AcDbBlockTableRecord
  2
block 209
340
0
102
{BLKREFS
331
5DE
102
}
  0
BLOCK_RECORD
  5
5E8
330
1
100
AcDbSymbolTableRecord
100
AcDbBlockTableRecord
  2
block 210
340
0
102
{BLKREFS
331
5E9
102
}
  0
BLOCK_RECORD
  5
5ED
330
1
100
AcDbSymbolTableRecord
100
AcDbBlockTableRecord
  2
block 211
340
0
102
{BLKREFS
331
5EE
102
}
  0
BLOCK_RECORD
  5
5F5
330
1
100
AcDbSymbolTableRecord
100
AcDbBlockTableRecord
  2
block 212
340
0
102
{BLKREFS
331
5F6
102
}
  0
BLOCK_RECORD
  5
5FD
330
1
100
AcDbSymbolTableRecord
100
AcDbBlockTableRecord
  2
block 213
340
0
102
{BLKREFS
331
5FE
102
}
  0
ENDTAB
  0
ENDSEC
  0
SECTION
  2
BLOCKS
  0
BLOCK
  5
20
330
1F
100
AcDbEntity
  8
0
100
AcDbBlockBegin
  2
*Model_Space
 70
     0
 71
     0
 10
0.0
 20
0.0
 30
0.0
  3
*Model_Space
  1

  0
ENDBLK
  5
21
330
1F
100
AcDbEntity
  8
0
100
AcDbBlockEnd
  0
BLOCK
  5
1C
330
1B
100
AcDbEntity
 67
     1
  8
0
100
AcDbBlockBegin
  2
*Paper_Space
 70
     0
 71
     0
 10
0.0
 20
0.0
 30
0.0
  3
*Paper_Space
  1

  0
ENDBLK
  5
1D
330
1B
100
AcDbEntity
 67
     1
  8
0
100
AcDbBlockEnd
  0
BLOCK
  5
24
330
23
100
AcDbEntity
  8
0
100
AcDbBlockBegin
  2
*Paper_Space0
 70
     0
 71
     0
 10
0.0
 20
0.0
 30
0.0
  3
*Paper_Space0
  1

  0
ENDBLK
  5
25
330
23
100
AcDbEntity
  8
0
100
AcDbBlockEnd
  0
BLOCK
  5
3E
330
3C
100
AcDbEntity
  8
0
100
AcDbBlockBegin
  2
block 2
 70
     0
 71
     0
 10
0.0
 20
0.0
 30
0.0
  3
block 2
  1

  0
POLYLINE
  5
40
330
3C
100
AcDbEntity
  8
Capa 1
370
     0
100
AcDb2dPolyline
 66
     1
 10
0.0
 20
0.0
 30
0.0
  0
VERTEX
  5
41
330
40
100
AcDbEntity
  8
Capa 1
370
     0
100
AcDbVertex
100
AcDb2dVertex
 10
48.01846157002161
 20
226.9466760801657
 30
0.0
  0
VERTEX
  5
42
330
40
100
AcDbEntity
  8
Capa 1
370
     0
100
AcDbVertex
100
AcDb2dVertex
 10
47.80107590149422
 20
227.6255325933721
 30
0.0
  0
VERTEX
  5
43
330
40
100
AcDbEntity
  8
Capa 1
370
     0
100
AcDbVertex
100
AcDb2dVertex
 10
46.31623876781273
 20
227.6255325933721
 30
0.0
  0
VERTEX
  5
44
330
40
100
AcDbEntity
  8
Capa 1
370
     0
100
AcDbVertex
100
AcDb2dVertex
 10
46.8672821541987
 20
225.4695904164396
 30
0.0
  0
VERTEX
  5
45
330
40
100
AcDbEntity
  8
Capa 1
370
     0
100
AcDbVertex
100
AcDb2dVertex
 10
46.45955483454394
 20
225.0472214313135
 30
0.0
  0
VERTEX
  5
46
330
40
100
AcDbEntity
  8
Capa 1
370
     0
100
AcDbVertex
100
AcDb2dVertex
 10
45.84546615918727
 20
225.0472214313135
 30
0.0
  0
VERTEX
  5
47
330
40
100
AcDbEntity
  8
Capa 1
370
     0
100
AcDbVertex
100
AcDb2dVertex
 10
44.5211705810268
 20
224.8586023290651
 30
0.0
  0
VERTEX
  5
48
330
40
100
AcDbEntity
  8
Capa 1
370
     0
100
AcDbVertex
100
AcDb2dVertex
 10
44.5211705810268
 20
223.4426671505429
 30
0.0
  0
VERTEX
  5
49
330
40
100
AcDbEntity
  8
Capa 1
370
     0
100
AcDbVertex
100
AcDb2dVertex
 10
45.89369752779874
 20
223.7110402658881
 30
0.0
  0
VERTEX
  5
4A
330
40
100
AcDbEntity
  8
Capa 1
370
     0
100
AcDbVertex
100
AcDb2dVertex
 10
52.6231792333132
 20
223.6154388031047
 30
0.0
  0
VERTEX
  5
4B
330
40
100
AcDbEntity
  8
Capa 1
370
     0
100
AcDbVertex
100
AcDb2dVertex
 10
52.6231792333132
 20
225.3832907176027
 30
0.0
  0
VERTEX
  5
4C
330
40
100
AcDbEntity
  8
Capa 1
370
     0
100
AcDbVertex
100
AcDb2dVertex
 10
49.96425278371836
 20
225.421703557604
 30
0.0
  0
VERTEX
  5
4D
330
40
100
AcDbEntity
  8
Capa 1
370
     0
100
AcDbVertex
100
AcDb2dVertex
 10
48.01846157002161
 20
226.9466760801657
 30
0.0
  0
SEQEND
  5
4E
330
40
100
AcDbEntity
  8
Capa 1
370
     0
  0
HATCH
  5
4F
330
3C
100
AcDbEntity
  8
Capa 1
 62
     7
100
AcDbHatch
 10
0.0
 20
0.0
 30
0.0
210
0.0
220
0.0
230
1.0
  2
SOLID
 70
     1
 71
     0
 91
        1
 92
        1
 93
       12
 72
     1
 10
48.01846157002161
 20
226.9466760801657
 11
47.80107590149422
 21
227.6255325933721
 72
     1
 10
47.80107590149422
 20
227.6255325933721
 11
46.31623876781273
 21
227.6255325933721
 72
     1
 10
46.31623876781273
 20
227.6255325933721
 11
46.8672821541987
 21
225.4695904164396
 72
     1
 10
46.8672821541987
 20
225.4695904164396
 11
46.45955483454394
 21
225.0472214313135
 72
     1
 10
46.45955483454394
 20
225.0472214313135
 11
45.84546615918727
 21
225.0472214313135
 72
     1
 10
45.84546615918727
 20
225.0472214313135
 11
44.5211705810268
 21
224.8586023290651
 72
     1
 10
44.5211705810268
 20
224.8586023290651
 11
44.5211705810268
 21
223.4426671505429
 72
     1
 10
44.5211705810268
 20
223.4426671505429
 11
45.89369752779874
 21
223.7110402658881
 72
     1
 10
45.89369752779874
 20
223.7110402658881
 11
52.6231792333132
 21
223.6154388031047
 72
     1
 10
52.6231792333132
 20
223.6154388031047
 11
52.6231792333132
 21
225.3832907176027
 72
     1
 10
52.6231792333132
 20
225.3832907176027
 11
49.96425278371836
 21
225.421703557604
 72
     1
 10
49.96425278371836
 20
225.421703557604
 11
48.01846157002161
 21
226.9466760801657
 97
        0
 75
     0
 76
     1
 98
        0
  0
ENDBLK
  5
3F
330
3C
100
AcDbEntity
  8
0
100
AcDbBlockEnd
  0
BLOCK
  5
52
330
50
100
AcDbEntity
  8
0
100
AcDbBlockBegin
  2
block 3
 70
     0
 71
     0
 10
0.0
 20
0.0
 30
0.0
  3
block 3
  1

  0
POLYLINE
  5
54
330
50
100
AcDbEntity
  8
Capa 1
370
     0
100
AcDb2dPolyline
 66
     1
 10
0.0
 20
0.0
 30
0.0
  0
VERTEX
  5
55
330
54
100
AcDbEntity
  8
Capa 1
370
     0
100
AcDbVertex
100
AcDb2dVertex
 10
37.56327889415947
 20
232.3990600468038
 30
0.0
  0
VERTEX
  5
56
330
54
100
AcDbEntity
  8
Capa 1
370
     0
100
AcDbVertex
100
AcDb2dVertex
 10
43.47506664682173
 20
231.5806770744
 30
0.0
  0
VERTEX
  5
57
330
54
100
AcDbEntity
  8
Capa 1
370
     0
100
AcDbVertex
100
AcDb2dVertex
 10
47.80107590149422
 20
227.6255325933721
 30
0.0
  0
VERTEX
  5
58
330
54
100
AcDbEntity
  8
Capa 1
370
     0
100
AcDbVertex
100
AcDb2dVertex
 10
46.31623876781273
 20
227.6255325933721
 30
0.0
  0
VERTEX
  5
59
330
54
100
AcDbEntity
  8
Capa 1
370
     0
100
AcDbVertex
100
AcDb2dVertex
 10
43.10575216716824
 20
230.2710231617108
 30
0.0
  0
VERTEX
  5
5A
330
54
100
AcDbEntity
  8
Capa 1
370
     0
100
AcDbVertex
100
AcDb2dVertex
 10
38.24988687732124
 20
231.0268776098077
 30
0.0
  0
VERTEX
  5
5B
330
54
100
AcDbEntity
  8
Capa 1
370
     0
100
AcDbVertex
100
AcDb2dVertex
 10
37.68799143299768
 20
230.4928874573236
 30
0.0
  0
VERTEX
  5
5C
330
54
100
AcDbEntity
  8
Capa 1
370
     0
100
AcDbVertex
100
AcDb2dVertex
 10
37.63752075084355
 20
227.6255325933721
 30
0.0
  0
VERTEX
  5
5D
330
54
100
AcDbEntity
  8
Capa 1
370
     0
100
AcDbVertex
100
AcDb2dVertex
 10
36.27739615600027
 20
227.6255325933721
 30
0.0
  0
VERTEX
  5
5E
330
54
100
AcDbEntity
  8
Capa 1
370
     0
100
AcDbVertex
100
AcDb2dVertex
 10
36.33923566075568
 20
231.1743277938484
 30
0.0
  0
VERTEX
  5
5F
330
54
100
AcDbEntity
  8
Capa 1
370
     0
100
AcDbVertex
100
AcDb2dVertex
 10
37.56327889415947
 20
232.3990600468038
 30
0.0
  0
SEQEND
  5
60
330
54
100
AcDbEntity
  8
Capa 1
370
     0
  0
HATCH
  5
61
330
50
100
AcDbEntity
  8
Capa 1
 62
     7
100
AcDbHatch
 10
0.0
 20
0.0
 30
0.0
210
0.0
220
0.0
230
1.0
  2
SOLID
 70
     1
 71
     0
 91
        1
 92
        1
 93
       10
 72
     1
 10
37.56327889415947
 20
232.3990600468038
 11
43.47506664682173
 21
231.5806770744
 72
     1
 10
43.47506664682173
 20
231.5806770744
 11
47.80107590149422
 21
227.6255325933721
 72
     1
 10
47.80107590149422
 20
227.6255325933721
 11
46.31623876781273
 21
227.6255325933721
 72
     1
 10
46.31623876781273
 20
227.6255325933721
 11
43.10575216716824
 21
230.2710231617108
 72
     1
 10
43.10575216716824
 20
230.2710231617108
 11
38.24988687732124
 21
231.0268776098077
 72
     1
 10
38.24988687732124
 20
231.0268776098077
 11
37.68799143299768
 21
230.4928874573236
 72
     1
 10
37.68799143299768
 20
230.4928874573236
 11
37.63752075084355
 21
227.6255325933721
 72
     1
 10
37.63752075084355
 20
227.6255325933721
 11
36.27739615600027
 21
227.6255325933721
 72
     1
 10
36.27739615600027
 20
227.6255325933721
 11
36.33923566075568
 21
231.1743277938484
 72
     1
 10
36.33923566075568
 20
231.1743277938484
 11
37.56327889415947
 21
232.3990600468038
 97
        0
 75
     0
 76
     1
 98
        0
  0
ENDBLK
  5
53
330
50
100
AcDbEntity
  8
0
100
AcDbBlockEnd
  0
BLOCK
  5
64
330
62
100
AcDbEntity
  8
0
100
AcDbBlockBegin
  2
block 4
 70
     0
 71
     0
 10
0.0
 20
0.0
 30
0.0
  3
block 4
  1

  0
POLYLINE
  5
66
330
62
100
AcDbEntity
  8
Capa 1
370
     0
100
AcDb2dPolyline
 66
     1
 10
0.0
 20
0.0
 30
0.0
  0
VERTEX
  5
67
330
66
100
AcDbEntity
  8
Capa 1
370
     0
100
AcDbVertex
100
AcDb2dVertex
 10
44.5211705810268
 20
224.8586023290651
 30
0.0
  0
VERTEX
  5
68
330
66
100
AcDbEntity
  8
Capa 1
370
     0
100
AcDbVertex
100
AcDb2dVertex
 10
44.5211705810268
 20
223.4426671505429
 30
0.0
  0
VERTEX
  5
69
330
66
100
AcDbEntity
  8
Capa 1
370
     0
100
AcDbVertex
100
AcDb2dVertex
 10
42.62240495172621
 20
221.3947287883226
 30
0.0
  0
VERTEX
  5
6A
330
66
100
AcDbEntity
  8
Capa 1
370
     0
100
AcDbVertex
100
AcDb2dVertex
 10
41.84932501483961
 20
220.839551284627
 30
0.0
  0
VERTEX
  5
6B
330
66
100
AcDbEntity
  8
Capa 1
370
     0
100
AcDbVertex
100
AcDb2dVertex
 10
36.98949786257096
 20
220.839551284627
 30
0.0
  0
VERTEX
  5
6C
330
66
100
AcDbEntity
  8
Capa 1
370
     0
100
AcDbVertex
100
AcDb2dVertex
 10
36.17387096837353
 20
221.6841169999913
 30
0.0
  0
VERTEX
  5
6D
330
66
100
AcDbEntity
  8
Capa 1
370
     0
100
AcDbVertex
100
AcDb2dVertex
 10
36.27739615600027
 20
227.6255325933721
 30
0.0
  0
VERTEX
  5
6E
330
66
100
AcDbEntity
  8
Capa 1
370
     0
100
AcDbVertex
100
AcDb2dVertex
 10
37.63752075084355
 20
227.6255325933721
 30
0.0
  0
VERTEX
  5
6F
330
66
100
AcDbEntity
  8
Capa 1
370
     0
100
AcDbVertex
100
AcDb2dVertex
 10
37.55931703173782
 20
223.1346754109811
 30
0.0
  0
VERTEX
  5
70
330
66
100
AcDbEntity
  8
Capa 1
370
     0
100
AcDbVertex
100
AcDb2dVertex
 10
37.96704435139259
 20
222.7202301506983
 30
0.0
  0
VERTEX
  5
71
330
66
100
AcDbEntity
  8
Capa 1
370
     0
100
AcDbVertex
100
AcDb2dVertex
 10
41.54064425572624
 20
222.7202301506983
 30
0.0
  0
VERTEX
  5
72
330
66
100
AcDbEntity
  8
Capa 1
370
     0
100
AcDbVertex
100
AcDb2dVertex
 10
41.88205344354024
 20
222.9048873905251
 30
0.0
  0
VERTEX
  5
73
330
66
100
AcDbEntity
  8
Capa 1
370
     0
100
AcDbVertex
100
AcDb2dVertex
 10
44.5211705810268
 20
224.8586023290651
 30
0.0
  0
SEQEND
  5
74
330
66
100
AcDbEntity
  8
Capa 1
370
     0
  0
HATCH
  5
75
330
62
100
AcDbEntity
  8
Capa 1
 62
     7
100
AcDbHatch
 10
0.0
 20
0.0
 30
0.0
210
0.0
220
0.0
230
1.0
  2
SOLID
 70
     1
 71
     0
 91
        1
 92
        1
 93
       12
 72
     1
 10
44.5211705810268
 20
224.8586023290651
 11
44.5211705810268
 21
223.4426671505429
 72
     1
 10
44.5211705810268
 20
223.4426671505429
 11
42.62240495172621
 21
221.3947287883226
 72
     1
 10
42.62240495172621
 20
221.3947287883226
 11
41.84932501483961
 21
220.839551284627
 72
     1
 10
41.84932501483961
 20
220.839551284627
 11
36.98949786257096
 21
220.839551284627
 72
     1
 10
36.98949786257096
 20
220.839551284627
 11
36.17387096837353
 21
221.6841169999913
 72
     1
 10
36.17387096837353
 20
221.6841169999913
 11
36.27739615600027
 21
227.6255325933721
 72
     1
 10
36.27739615600027
 20
227.6255325933721
 11
37.63752075084355
 21
227.6255325933721
 72
     1
 10
37.63752075084355
 20
227.6255325933721
 11
37.55931703173782
 21
223.1346754109811
 72
     1
 10
37.55931703173782
 20
223.1346754109811
 11
37.96704435139259
 21
222.7202301506983
 72
     1
 10
37.96704435139259
 20
222.7202301506983
 11
41.54064425572624
 21
222.7202301506983
 72
     1
 10
41.54064425572624
 20
222.7202301506983
 11
41.88205344354024
 21
222.9048873905251
 72
     1
 10
41.88205344354024
 20
222.9048873905251
 11
44.5211705810268
 21
224.8586023290651
 97
        0
 75
     0
 76
     1
 98
        0
  0
ENDBLK
  5
65
330
62
100
AcDbEntity
  8
0
100
AcDbBlockEnd
  0
BLOCK
  5
78
330
76
100
AcDbEntity
  8
0
100
AcDbBlockBegin
  2
block 5
 70
     0
 71
     0
 10
0.0
 20
0.0
 30
0.0
  3
block 5
  1

  0
SPLINE
  5
7A
330
76
100
AcDbEntity
  8
Capa 1
370
     0
100
AcDbSpline
210
0.0
220
0.0
230
1.0
 70
    11
 71
     3
 72
    71
 73
    67
 74
     0
 42
0.0000000001
 43
0.0000000001
 40
0.0
 40
0.0
 40
0.0
 40
0.0
 40
1.0
 40
1.0
 40
1.0
 40
2.0
 40
2.0
 40
2.0
 40
3.0
 40
3.0
 40
3.0
 40
4.0
 40
4.0
 40
4.0
 40
5.0
 40
5.0
 40
5.0
 40
6.0
 40
6.0
 40
6.0
 40
7.0
 40
7.0
 40
7.0
 40
8.0
 40
8.0
 40
8.0
 40
9.0
 40
9.0
 40
9.0
 40
10.0
 40
10.0
 40
10.0
 40
11.0
 40
11.0
 40
11.0
 40
12.0
 40
12.0
 40
12.0
 40
13.0
 40
13.0
 40
13.0
 40
14.0
 40
14.0
 40
14.0
 40
15.0
 40
15.0
 40
15.0
 40
16.0
 40
16.0
 40
16.0
 40
17.0
 40
17.0
 40
17.0
 40
18.0
 40
18.0
 40
18.0
 40
19.0
 40
19.0
 40
19.0
 40
20.0
 40
20.0
 40
20.0
 40
21.0
 40
21.0
 40
21.0
 40
22.0
 40
22.0
 40
22.0
 40
22.0
 10
110.7016707663587
 20
224.7536991023352
 30
0.0
 10
110.7016707663587
 20
224.7536991023352
 30
0.0
 10
52.6231792333132
 20
225.3832907176027
 30
0.0
 10
52.6231792333132
 20
225.3832907176027
 30
0.0
 10
52.6231792333132
 20
225.3832907176027
 30
0.0
 10
52.6231792333132
 20
225.3832907176027
 30
0.0
 10
52.6231792333132
 20
225.3832907176027
 30
0.0
 10
52.6231792333132
 20
225.3832907176027
 30
0.0
 10
52.6231792333132
 20
223.6154388031047
 30
0.0
 10
52.6231792333132
 20
223.6154388031047
 30
0.0
 10
52.6231792333132
 20
223.6154388031047
 30
0.0
 10
52.6231792333132
 20
223.6154388031047
 30
0.0
 10
52.6231792333132
 20
223.6154388031047
 30
0.0
 10
52.6231792333132
 20
223.6154388031047
 30
0.0
 10
110.6555064564021
 20
222.9791292472091
 30
0.0
 10
110.6555064564021
 20
222.9791292472091
 30
0.0
 10
110.6555064564021
 20
222.9791292472091
 30
0.0
 10
110.6555064564021
 20
222.9791292472091
 30
0.0
 10
110.6555064564021
 20
222.9791292472091
 30
0.0
 10
110.7437009590059
 20
222.9884310111556
 30
0.0
 10
110.8508434992785
 20
222.9341707214678
 30
0.0
 10
110.895629770132
 20
222.8570005316894
 30
0.0
 10
110.895629770132
 20
222.8570005316894
 30
0.0
 10
110.895629770132
 20
222.8570005316894
 30
0.0
 10
110.895629770132
 20
222.8570005316894
 30
0.0
 10
110.895629770132
 20
222.8570005316894
 30
0.0
 10
111.7193526440606
 20
221.5726680875213
 30
0.0
 10
111.7193526440606
 20
221.5726680875213
 30
0.0
 10
111.7193526440606
 20
221.5726680875213
 30
0.0
 10
111.7193526440606
 20
221.5726680875213
 30
0.0
 10
111.7193526440606
 20
221.5726680875213
 30
0.0
 10
111.7193526440606
 20
221.5726680875213
 30
0.0
 10
111.7193526440606
 20
220.839551284627
 30
0.0
 10
111.7193526440606
 20
220.839551284627
 30
0.0
 10
111.7193526440606
 20
220.839551284627
 30
0.0
 10
111.7193526440606
 20
220.839551284627
 30
0.0
 10
111.7193526440606
 20
220.839551284627
 30
0.0
 10
111.7193526440606
 20
220.839551284627
 30
0.0
 10
113.4946115187383
 20
220.839551284627
 30
0.0
 10
113.4946115187383
 20
220.839551284627
 30
0.0
 10
113.4946115187383
 20
220.839551284627
 30
0.0
 10
113.4946115187383
 20
220.839551284627
 30
0.0
 10
113.4946115187383
 20
220.839551284627
 30
0.0
 10
113.4946115187383
 20
220.839551284627
 30
0.0
 10
113.4956450480657
 20
221.8927176692359
 30
0.0
 10
113.4956450480657
 20
221.8927176692359
 30
0.0
 10
113.4956450480657
 20
221.8927176692359
 30
0.0
 10
113.4956450480657
 20
221.8927176692359
 30
0.0
 10
113.4956450480657
 20
221.8927176692359
 30
0.0
 10
113.5011572044784
 20
222.0015827583875
 30
0.0
 10
113.4515477967637
 20
222.1715983327429
 30
0.0
 10
113.3878134882415
 20
222.2606541097862
 30
0.0
 10
113.3878134882415
 20
222.2606541097862
 30
0.0
 10
113.3878134882415
 20
222.2606541097862
 30
0.0
 10
113.3878134882415
 20
222.2606541097862
 30
0.0
 10
113.3878134882415
 20
222.2606541097862
 30
0.0
 10
112.38976866776
 20
223.815943492618
 30
0.0
 10
112.38976866776
 20
223.815943492618
 30
0.0
 10
112.38976866776
 20
223.815943492618
 30
0.0
 10
112.38976866776
 20
223.815943492618
 30
0.0
 10
112.38976866776
 20
223.815943492618
 30
0.0
 10
112.0814324184224
 20
224.3578573699454
 30
0.0
 10
111.3252334605498
 20
224.7790205708562
 30
0.0
 10
110.7016707663587
 20
224.7536991023352
 30
0.0
 10
110.7016707663587
 20
224.7536991023352
 30
0.0
 10
110.7016707663587
 20
224.7536991023352
 30
0.0
 10
110.7016707663587
 20
224.7536991023352
 30
0.0
  0
SPLINE
  5
7B
330
76
100
AcDbEntity
  8
Capa 1
370
     0
100
AcDbSpline
210
0.0
220
0.0
230
1.0
 70
    11
 71
     3
 72
    71
 73
    67
 74
     0
 42
0.0000000001
 43
0.0000000001
 40
0.0
 40
0.0
 40
0.0
 40
0.0
 40
1.0
 40
1.0
 40
1.0
 40
2.0
 40
2.0
 40
2.0
 40
3.0
 40
3.0
 40
3.0
 40
4.0
 40
4.0
 40
4.0
 40
5.0
 40
5.0
 40
5.0
 40
6.0
 40
6.0
 40
6.0
 40
7.0
 40
7.0
 40
7.0
 40
8.0
 40
8.0
 40
8.0
 40
9.0
 40
9.0
 40
9.0
 40
10.0
 40
10.0
 40
10.0
 40
11.0
 40
11.0
 40
11.0
 40
12.0
 40
12.0
 40
12.0
 40
13.0
 40
13.0
 40
13.0
 40
14.0
 40
14.0
 40
14.0
 40
15.0
 40
15.0
 40
15.0
 40
16.0
 40
16.0
 40
16.0
 40
17.0
 40
17.0
 40
17.0
 40
18.0
 40
18.0
 40
18.0
 40
19.0
 40
19.0
 40
19.0
 40
20.0
 40
20.0
 40
20.0
 40
21.0
 40
21.0
 40
21.0
 40
22.0
 40
22.0
 40
22.0
 40
22.0
 10
182.935724477093
 20
225.3832907176027
 30
0.0
 10
182.935724477093
 20
225.3832907176027
 30
0.0
 10
124.8579219635991
 20
224.7536991023352
 30
0.0
 10
124.8579219635991
 20
224.7536991023352
 30
0.0
 10
124.8579219635991
 20
224.7536991023352
 30
0.0
 10
124.8579219635991
 20
224.7536991023352
 30
0.0
 10
124.8579219635991
 20
224.7536991023352
 30
0.0
 10
124.2340147596322
 20
224.7790205708562
 30
0.0
 10
123.4781603115354
 20
224.3578573699454
 30
0.0
 10
123.1694795524221
 20
223.815943492618
 30
0.0
 10
123.1694795524221
 20
223.815943492618
 30
0.0
 10
123.1694795524221
 20
223.815943492618
 30
0.0
 10
123.1694795524221
 20
223.815943492618
 30
0.0
 10
123.1694795524221
 20
223.815943492618
 30
0.0
 10
122.1714347319406
 20
222.2606541097862
 30
0.0
 10
122.1714347319406
 20
222.2606541097862
 30
0.0
 10
122.1714347319406
 20
222.2606541097862
 30
0.0
 10
122.1714347319406
 20
222.2606541097862
 30
0.0
 10
122.1714347319406
 20
222.2606541097862
 30
0.0
 10
122.1077004234183
 20
222.1715983327429
 30
0.0
 10
122.0580910157036
 20
222.0015827583875
 30
0.0
 10
122.0636031721164
 20
221.8927176692359
 30
0.0
 10
122.0636031721164
 20
221.8927176692359
 30
0.0
 10
122.0636031721164
 20
221.8927176692359
 30
0.0
 10
122.0636031721164
 20
221.8927176692359
 30
0.0
 10
122.0636031721164
 20
221.8927176692359
 30
0.0
 10
122.0646367014438
 20
220.839551284627
 30
0.0
 10
122.0646367014438
 20
220.839551284627
 30
0.0
 10
122.0646367014438
 20
220.839551284627
 30
0.0
 10
122.0646367014438
 20
220.839551284627
 30
0.0
 10
122.0646367014438
 20
220.839551284627
 30
0.0
 10
122.0646367014438
 20
220.839551284627
 30
0.0
 10
123.8402400858972
 20
220.839551284627
 30
0.0
 10
123.8402400858972
 20
220.839551284627
 30
0.0
 10
123.8402400858972
 20
220.839551284627
 30
0.0
 10
123.8402400858972
 20
220.839551284627
 30
0.0
 10
123.8402400858972
 20
220.839551284627
 30
0.0
 10
123.8402400858972
 20
220.839551284627
 30
0.0
 10
123.8392065565698
 20
221.5726680875213
 30
0.0
 10
123.8392065565698
 20
221.5726680875213
 30
0.0
 10
123.8392065565698
 20
221.5726680875213
 30
0.0
 10
123.8392065565698
 20
221.5726680875213
 30
0.0
 10
123.8392065565698
 20
221.5726680875213
 30
0.0
 10
123.8392065565698
 20
221.5726680875213
 30
0.0
 10
124.6636184500501
 20
222.8570005316894
 30
0.0
 10
124.6636184500501
 20
222.8570005316894
 30
0.0
 10
124.6636184500501
 20
222.8570005316894
 30
0.0
 10
124.6636184500501
 20
222.8570005316894
 30
0.0
 10
124.6636184500501
 20
222.8570005316894
 30
0.0
 10
124.6994474667329
 20
222.9207348402117
 30
0.0
 10
124.7893645182157
 20
222.9751673847875
 30
0.0
 10
124.8624005906845
 20
222.9779234629939
 30
0.0
 10
124.8624005906845
 20
222.9779234629939
 30
0.0
 10
124.8624005906845
 20
222.9779234629939
 30
0.0
 10
124.8624005906845
 20
222.9779234629939
 30
0.0
 10
124.8624005906845
 20
222.9779234629939
 30
0.0
 10
182.935724477093
 20
223.6154388031047
 30
0.0
 10
182.935724477093
 20
223.6154388031047
 30
0.0
 10
182.935724477093
 20
223.6154388031047
 30
0.0
 10
182.935724477093
 20
223.6154388031047
 30
0.0
 10
182.935724477093
 20
223.6154388031047
 30
0.0
 10
182.935724477093
 20
223.6154388031047
 30
0.0
 10
182.935724477093
 20
225.3832907176027
 30
0.0
 10
182.935724477093
 20
225.3832907176027
 30
0.0
 10
182.935724477093
 20
225.3832907176027
 30
0.0
 10
182.935724477093
 20
225.3832907176027
 30
0.0
 10
182.935724477093
 20
225.3832907176027
 30
0.0
  0
HATCH
  5
7C
330
76
100
AcDbEntity
  8
Capa 1
 62
     7
100
AcDbHatch
 10
0.0
 20
0.0
 30
0.0
210
0.0
220
0.0
230
1.0
  2
SOLID
 70
     1
 71
     0
 91
        2
 92
        1
 93
        1
 72
     4
 94
        3
 73
     0
 74
     1
 95
       71
 96
       67
 40
0.0
 40
0.0
 40
0.0
 40
0.0
 40
1.0
 40
1.0
 40
1.0
 40
2.0
 40
2.0
 40
2.0
 40
3.0
 40
3.0
 40
3.0
 40
4.0
 40
4.0
 40
4.0
 40
5.0
 40
5.0
 40
5.0
 40
6.0
 40
6.0
 40
6.0
 40
7.0
 40
7.0
 40
7.0
 40
8.0
 40
8.0
 40
8.0
 40
9.0
 40
9.0
 40
9.0
 40
10.0
 40
10.0
 40
10.0
 40
11.0
 40
11.0
 40
11.0
 40
12.0
 40
12.0
 40
12.0
 40
13.0
 40
13.0
 40
13.0
 40
14.0
 40
14.0
 40
14.0
 40
15.0
 40
15.0
 40
15.0
 40
16.0
 40
16.0
 40
16.0
 40
17.0
 40
17.0
 40
17.0
 40
18.0
 40
18.0
 40
18.0
 40
19.0
 40
19.0
 40
19.0
 40
20.0
 40
20.0
 40
20.0
 40
21.0
 40
21.0
 40
21.0
 40
22.0
 40
22.0
 40
22.0
 40
22.0
 10
110.7016707663587
 20
224.7536991023352
 10
110.7016707663587
 20
224.7536991023352
 10
52.6231792333132
 20
225.3832907176027
 10
52.6231792333132
 20
225.3832907176027
 10
52.6231792333132
 20
225.3832907176027
 10
52.6231792333132
 20
225.3832907176027
 10
52.6231792333132
 20
225.3832907176027
 10
52.6231792333132
 20
225.3832907176027
 10
52.6231792333132
 20
223.6154388031047
 10
52.6231792333132
 20
223.6154388031047
 10
52.6231792333132
 20
223.6154388031047
 10
52.6231792333132
 20
223.6154388031047
 10
52.6231792333132
 20
223.6154388031047
 10
52.6231792333132
 20
223.6154388031047
 10
110.6555064564021
 20
222.9791292472091
 10
110.6555064564021
 20
222.9791292472091
 10
110.6555064564021
 20
222.9791292472091
 10
110.6555064564021
 20
222.9791292472091
 10
110.6555064564021
 20
222.9791292472091
 10
110.7437009590059
 20
222.9884310111556
 10
110.8508434992785
 20
222.9341707214678
 10
110.895629770132
 20
222.8570005316894
 10
110.895629770132
 20
222.8570005316894
 10
110.895629770132
 20
222.8570005316894
 10
110.895629770132
 20
222.8570005316894
 10
110.895629770132
 20
222.8570005316894
 10
111.7193526440606
 20
221.5726680875213
 10
111.7193526440606
 20
221.5726680875213
 10
111.7193526440606
 20
221.5726680875213
 10
111.7193526440606
 20
221.5726680875213
 10
111.7193526440606
 20
221.5726680875213
 10
111.7193526440606
 20
221.5726680875213
 10
111.7193526440606
 20
220.839551284627
 10
111.7193526440606
 20
220.839551284627
 10
111.7193526440606
 20
220.839551284627
 10
111.7193526440606
 20
220.839551284627
 10
111.7193526440606
 20
220.839551284627
 10
111.7193526440606
 20
220.839551284627
 10
113.4946115187383
 20
220.839551284627
 10
113.4946115187383
 20
220.839551284627
 10
113.4946115187383
 20
220.839551284627
 10
113.4946115187383
 20
220.839551284627
 10
113.4946115187383
 20
220.839551284627
 10
113.4946115187383
 20
220.839551284627
 10
113.4956450480657
 20
221.8927176692359
 10
113.4956450480657
 20
221.8927176692359
 10
113.4956450480657
 20
221.8927176692359
 10
113.4956450480657
 20
221.8927176692359
 10
113.4956450480657
 20
221.8927176692359
 10
113.5011572044784
 20
222.0015827583875
 10
113.4515477967637
 20
222.1715983327429
 10
113.3878134882415
 20
222.2606541097862
 10
113.3878134882415
 20
222.2606541097862
 10
113.3878134882415
 20
222.2606541097862
 10
113.3878134882415
 20
222.2606541097862
 10
113.3878134882415
 20
222.2606541097862
 10
112.38976866776
 20
223.815943492618
 10
112.38976866776
 20
223.815943492618
 10
112.38976866776
 20
223.815943492618
 10
112.38976866776
 20
223.815943492618
 10
112.38976866776
 20
223.815943492618
 10
112.0814324184224
 20
224.3578573699454
 10
111.3252334605498
 20
224.7790205708562
 10
110.7016707663587
 20
224.7536991023352
 10
110.7016707663587
 20
224.7536991023352
 10
110.7016707663587
 20
224.7536991023352
 10
110.7016707663587
 20
224.7536991023352
 97
        0
 92
        1
 93
        1
 72
     4
 94
        3
 73
     0
 74
     1
 95
       71
 96
       67
 40
0.0
 40
0.0
 40
0.0
 40
0.0
 40
1.0
 40
1.0
 40
1.0
 40
2.0
 40
2.0
 40
2.0
 40
3.0
 40
3.0
 40
3.0
 40
4.0
 40
4.0
 40
4.0
 40
5.0
 40
5.0
 40
5.0
 40
6.0
 40
6.0
 40
6.0
 40
7.0
 40
7.0
 40
7.0
 40
8.0
 40
8.0
 40
8.0
 40
9.0
 40
9.0
 40
9.0
 40
10.0
 40
10.0
 40
10.0
 40
11.0
 40
11.0
 40
11.0
 40
12.0
 40
12.0
 40
12.0
 40
13.0
 40
13.0
 40
13.0
 40
14.0
 40
14.0
 40
14.0
 40
15.0
 40
15.0
 40
15.0
 40
16.0
 40
16.0
 40
16.0
 40
17.0
 40
17.0
 40
17.0
 40
18.0
 40
18.0
 40
18.0
 40
19.0
 40
19.0
 40
19.0
 40
20.0
 40
20.0
 40
20.0
 40
21.0
 40
21.0
 40
21.0
 40
22.0
 40
22.0
 40
22.0
 40
22.0
 10
182.935724477093
 20
225.3832907176027
 10
182.935724477093
 20
225.3832907176027
 10
124.8579219635991
 20
224.7536991023352
 10
124.8579219635991
 20
224.7536991023352
 10
124.8579219635991
 20
224.7536991023352
 10
124.8579219635991
 20
224.7536991023352
 10
124.8579219635991
 20
224.7536991023352
 10
124.2340147596322
 20
224.7790205708562
 10
123.4781603115354
 20
224.3578573699454
 10
123.1694795524221
 20
223.815943492618
 10
123.1694795524221
 20
223.815943492618
 10
123.1694795524221
 20
223.815943492618
 10
123.1694795524221
 20
223.815943492618
 10
123.1694795524221
 20
223.815943492618
 10
122.1714347319406
 20
222.2606541097862
 10
122.1714347319406
 20
222.2606541097862
 10
122.1714347319406
 20
222.2606541097862
 10
122.1714347319406
 20
222.2606541097862
 10
122.1714347319406
 20
222.2606541097862
 10
122.1077004234183
 20
222.1715983327429
 10
122.0580910157036
 20
222.0015827583875
 10
122.0636031721164
 20
221.8927176692359
 10
122.0636031721164
 20
221.8927176692359
 10
122.0636031721164
 20
221.8927176692359
 10
122.0636031721164
 20
221.8927176692359
 10
122.0636031721164
 20
221.8927176692359
 10
122.0646367014438
 20
220.839551284627
 10
122.0646367014438
 20
220.839551284627
 10
122.0646367014438
 20
220.839551284627
 10
122.0646367014438
 20
220.839551284627
 10
122.0646367014438
 20
220.839551284627
 10
122.0646367014438
 20
220.839551284627
 10
123.8402400858972
 20
220.839551284627
 10
123.8402400858972
 20
220.839551284627
 10
123.8402400858972
 20
220.839551284627
 10
123.8402400858972
 20
220.839551284627
 10
123.8402400858972
 20
220.839551284627
 10
123.8402400858972
 20
220.839551284627
 10
123.8392065565698
 20
221.5726680875213
 10
123.8392065565698
 20
221.5726680875213
 10
123.8392065565698
 20
221.5726680875213
 10
123.8392065565698
 20
221.5726680875213
 10
123.8392065565698
 20
221.5726680875213
 10
123.8392065565698
 20
221.5726680875213
 10
124.6636184500501
 20
222.8570005316894
 10
124.6636184500501
 20
222.8570005316894
 10
124.6636184500501
 20
222.8570005316894
 10
124.6636184500501
 20
222.8570005316894
 10
124.6636184500501
 20
222.8570005316894
 10
124.6994474667329
 20
222.9207348402117
 10
124.7893645182157
 20
222.9751673847875
 10
124.8624005906845
 20
222.9779234629939
 10
124.8624005906845
 20
222.9779234629939
 10
124.8624005906845
 20
222.9779234629939
 10
124.8624005906845
 20
222.9779234629939
 10
124.8624005906845
 20
222.9779234629939
 10
182.935724477093
 20
223.6154388031047
 10
182.935724477093
 20
223.6154388031047
 10
182.935724477093
 20
223.6154388031047
 10
182.935724477093
 20
223.6154388031047
 10
182.935724477093
 20
223.6154388031047
 10
182.935724477093
 20
223.6154388031047
 10
182.935724477093
 20
225.3832907176027
 10
182.935724477093
 20
225.3832907176027
 10
182.935724477093
 20
225.3832907176027
 10
182.935724477093
 20
225.3832907176027
 10
182.935724477093
 20
225.3832907176027
 97
        0
 75
     0
 76
     1
 98
        0
  0
ENDBLK
  5
79
330
76
100
AcDbEntity
  8
0
100
AcDbBlockEnd
  0
BLOCK
  5
7F
330
7D
100
AcDbEntity
  8
0
100
AcDbBlockBegin
  2
block 6
 70
     0
 71
     0
 10
0.0
 20
0.0
 30
0.0
  3
block 6
  1

  0
POLYLINE
  5
81
330
7D
100
AcDbEntity
  8
Capa 1
370
     0
100
AcDb2dPolyline
 66
     1
 10
0.0
 20
0.0
 30
0.0
  0
VERTEX
  5
82
330
81
100
AcDbEntity
  8
Capa 1
370
     0
100
AcDbVertex
100
AcDb2dVertex
 10
187.5407866501604
 20
226.9466760801657
 30
0.0
  0
VERTEX
  5
83
330
81
100
AcDbEntity
  8
Capa 1
370
     0
100
AcDbVertex
100
AcDb2dVertex
 10
187.7585168284636
 20
227.6255325933721
 30
0.0
  0
VERTEX
  5
84
330
81
100
AcDbEntity
  8
Capa 1
370
     0
100
AcDbVertex
100
AcDb2dVertex
 10
189.2433539621451
 20
227.6255325933721
 30
0.0
  0
VERTEX
  5
85
330
81
100
AcDbEntity
  8
Capa 1
370
     0
100
AcDbVertex
100
AcDb2dVertex
 10
188.6917938110954
 20
225.4695904164396
 30
0.0
  0
VERTEX
  5
86
330
81
100
AcDbEntity
  8
Capa 1
370
     0
100
AcDbVertex
100
AcDb2dVertex
 10
189.0996933856381
 20
225.0472214313135
 30
0.0
  0
VERTEX
  5
87
330
81
100
AcDbEntity
  8
Capa 1
370
     0
100
AcDbVertex
100
AcDb2dVertex
 10
189.7142988256585
 20
225.0472214313135
 30
0.0
  0
VERTEX
  5
88
330
81
100
AcDbEntity
  8
Capa 1
370
     0
100
AcDbVertex
100
AcDb2dVertex
 10
191.0385944038189
 20
224.8586023290651
 30
0.0
  0
VERTEX
  5
89
330
81
100
AcDbEntity
  8
Capa 1
370
     0
100
AcDbVertex
100
AcDb2dVertex
 10
191.0385944038189
 20
223.4426671505429
 30
0.0
  0
VERTEX
  5
8A
330
81
100
AcDbEntity
  8
Capa 1
370
     0
100
AcDbVertex
100
AcDb2dVertex
 10
189.6653784374954
 20
223.7110402658881
 30
0.0
  0
VERTEX
  5
8B
330
81
100
AcDbEntity
  8
Capa 1
370
     0
100
AcDbVertex
100
AcDb2dVertex
 10
182.935724477093
 20
223.6154388031047
 30
0.0
  0
VERTEX
  5
8C
330
81
100
AcDbEntity
  8
Capa 1
370
     0
100
AcDbVertex
100
AcDb2dVertex
 10
182.935724477093
 20
225.3832907176027
 30
0.0
  0
VERTEX
  5
8D
330
81
100
AcDbEntity
  8
Capa 1
370
     0
100
AcDbVertex
100
AcDb2dVertex
 10
185.5946509266879
 20
225.421703557604
 30
0.0
  0
VERTEX
  5
8E
330
81
100
AcDbEntity
  8
Capa 1
370
     0
100
AcDbVertex
100
AcDb2dVertex
 10
187.5407866501604
 20
226.9466760801657
 30
0.0
  0
SEQEND
  5
8F
330
81
100
AcDbEntity
  8
Capa 1
370
     0
  0
HATCH
  5
90
330
7D
100
AcDbEntity
  8
Capa 1
 62
     7
100
AcDbHatch
 10
0.0
 20
0.0
 30
0.0
210
0.0
220
0.0
230
1.0
  2
SOLID
 70
     1
 71
     0
 91
        1
 92
        1
 93
       12
 72
     1
 10
187.5407866501604
 20
226.9466760801657
 11
187.7585168284636
 21
227.6255325933721
 72
     1
 10
187.7585168284636
 20
227.6255325933721
 11
189.2433539621451
 21
227.6255325933721
 72
     1
 10
189.2433539621451
 20
227.6255325933721
 11
188.6917938110954
 21
225.4695904164396
 72
     1
 10
188.6917938110954
 20
225.4695904164396
 11
189.0996933856381
 21
225.0472214313135
 72
     1
 10
189.0996933856381
 20
225.0472214313135
 11
189.7142988256585
 21
225.0472214313135
 72
     1
 10
189.7142988256585
 20
225.0472214313135
 11
191.0385944038189
 21
224.8586023290651
 72
     1
 10
191.0385944038189
 20
224.8586023290651
 11
191.0385944038189
 21
223.4426671505429
 72
     1
 10
191.0385944038189
 20
223.4426671505429
 11
189.6653784374954
 21
223.7110402658881
 72
     1
 10
189.6653784374954
 20
223.7110402658881
 11
182.935724477093
 21
223.6154388031047
 72
     1
 10
182.935724477093
 20
223.6154388031047
 11
182.935724477093
 21
225.3832907176027
 72
     1
 10
182.935724477093
 20
225.3832907176027
 11
185.5946509266879
 21
225.421703557604
 72
     1
 10
185.5946509266879
 20
225.421703557604
 11
187.5407866501604
 21
226.9466760801657
 97
        0
 75
     0
 76
     1
 98
        0
  0
ENDBLK
  5
80
330
7D
100
AcDbEntity
  8
0
100
AcDbBlockEnd
  0
BLOCK
  5
93
330
91
100
AcDbEntity
  8
0
100
AcDbBlockBegin
  2
block 7
 70
     0
 71
     0
 10
0.0
 20
0.0
 30
0.0
  3
block 7
  1

  0
POLYLINE
  5
95
330
91
100
AcDbEntity
  8
Capa 1
370
     0
100
AcDb2dPolyline
 66
     1
 10
0.0
 20
0.0
 30
0.0
  0
VERTEX
  5
96
330
95
100
AcDbEntity
  8
Capa 1
370
     0
100
AcDbVertex
100
AcDb2dVertex
 10
197.9959693260226
 20
232.3990600468038
 30
0.0
  0
VERTEX
  5
97
330
95
100
AcDbEntity
  8
Capa 1
370
     0
100
AcDbVertex
100
AcDb2dVertex
 10
192.0841815733603
 20
231.5806770744
 30
0.0
  0
VERTEX
  5
98
330
95
100
AcDbEntity
  8
Capa 1
370
     0
100
AcDbVertex
100
AcDb2dVertex
 10
187.7585168284636
 20
227.6255325933721
 30
0.0
  0
VERTEX
  5
99
330
95
100
AcDbEntity
  8
Capa 1
370
     0
100
AcDbVertex
100
AcDb2dVertex
 10
189.2433539621451
 20
227.6255325933721
 30
0.0
  0
VERTEX
  5
9A
330
95
100
AcDbEntity
  8
Capa 1
370
     0
100
AcDbVertex
100
AcDb2dVertex
 10
192.4538405627896
 20
230.2710231617108
 30
0.0
  0
VERTEX
  5
9B
330
95
100
AcDbEntity
  8
Capa 1
370
     0
100
AcDbVertex
100
AcDb2dVertex
 10
197.3097058526366
 20
231.0268776098077
 30
0.0
  0
VERTEX
  5
9C
330
95
100
AcDbEntity
  8
Capa 1
370
     0
100
AcDbVertex
100
AcDb2dVertex
 10
197.8712567871844
 20
230.4928874573236
 30
0.0
  0
VERTEX
  5
9D
330
95
100
AcDbEntity
  8
Capa 1
370
     0
100
AcDbVertex
100
AcDb2dVertex
 10
197.9218997242264
 20
227.6255325933721
 30
0.0
  0
VERTEX
  5
9E
330
95
100
AcDbEntity
  8
Capa 1
370
     0
100
AcDbVertex
100
AcDb2dVertex
 10
199.2820243190697
 20
227.6255325933721
 30
0.0
  0
VERTEX
  5
9F
330
95
100
AcDbEntity
  8
Capa 1
370
     0
100
AcDbVertex
100
AcDb2dVertex
 10
199.2200125594264
 20
231.1743277938484
 30
0.0
  0
VERTEX
  5
A0
330
95
100
AcDbEntity
  8
Capa 1
370
     0
100
AcDbVertex
100
AcDb2dVertex
 10
197.9959693260226
 20
232.3990600468038
 30
0.0
  0
SEQEND
  5
A1
330
95
100
AcDbEntity
  8
Capa 1
370
     0
  0
HATCH
  5
A2
330
91
100
AcDbEntity
  8
Capa 1
 62
     7
100
AcDbHatch
 10
0.0
 20
0.0
 30
0.0
210
0.0
220
0.0
230
1.0
  2
SOLID
 70
     1
 71
     0
 91
        1
 92
        1
 93
       10
 72
     1
 10
197.9959693260226
 20
232.3990600468038
 11
192.0841815733603
 21
231.5806770744
 72
     1
 10
192.0841815733603
 20
231.5806770744
 11
187.7585168284636
 21
227.6255325933721
 72
     1
 10
187.7585168284636
 20
227.6255325933721
 11
189.2433539621451
 21
227.6255325933721
 72
     1
 10
189.2433539621451
 20
227.6255325933721
 11
192.4538405627896
 21
230.2710231617108
 72
     1
 10
192.4538405627896
 20
230.2710231617108
 11
197.3097058526366
 21
231.0268776098077
 72
     1
 10
197.3097058526366
 20
231.0268776098077
 11
197.8712567871844
 21
230.4928874573236
 72
     1
 10
197.8712567871844
 20
230.4928874573236
 11
197.9218997242264
 21
227.6255325933721
 72
     1
 10
197.9218997242264
 20
227.6255325933721
 11
199.2820243190697
 21
227.6255325933721
 72
     1
 10
199.2820243190697
 20
227.6255325933721
 11
199.2200125594264
 21
231.1743277938484
 72
     1
 10
199.2200125594264
 20
231.1743277938484
 11
197.9959693260226
 21
232.3990600468038
 97
        0
 75
     0
 76
     1
 98
        0
  0
ENDBLK
  5
94
330
91
100
AcDbEntity
  8
0
100
AcDbBlockEnd
  0
BLOCK
  5
A5
330
A3
100
AcDbEntity
  8
0
100
AcDbBlockBegin
  2
block 8
 70
     0
 71
     0
 10
0.0
 20
0.0
 30
0.0
  3
block 8
  1

  0
POLYLINE
  5
A7
330
A3
100
AcDbEntity
  8
Capa 1
370
     0
100
AcDb2dPolyline
 66
     1
 10
0.0
 20
0.0
 30
0.0
  0
VERTEX
  5
A8
330
A7
100
AcDbEntity
  8
Capa 1
370
     0
100
AcDbVertex
100
AcDb2dVertex
 10
191.0385944038189
 20
224.8586023290651
 30
0.0
  0
VERTEX
  5
A9
330
A7
100
AcDbEntity
  8
Capa 1
370
     0
100
AcDbVertex
100
AcDb2dVertex
 10
191.0385944038189
 20
223.4426671505429
 30
0.0
  0
VERTEX
  5
AA
330
A7
100
AcDbEntity
  8
Capa 1
370
     0
100
AcDbVertex
100
AcDb2dVertex
 10
192.9368432684558
 20
221.3947287883226
 30
0.0
  0
VERTEX
  5
AB
330
A7
100
AcDbEntity
  8
Capa 1
370
     0
100
AcDbVertex
100
AcDb2dVertex
 10
193.7095786955666
 20
220.839551284627
 30
0.0
  0
VERTEX
  5
AC
330
A7
100
AcDbEntity
  8
Capa 1
370
     0
100
AcDbVertex
100
AcDb2dVertex
 10
198.5702671222748
 20
220.839551284627
 30
0.0
  0
VERTEX
  5
AD
330
A7
100
AcDbEntity
  8
Capa 1
370
     0
100
AcDbVertex
100
AcDb2dVertex
 10
199.3850327420327
 20
221.6841169999913
 30
0.0
  0
VERTEX
  5
AE
330
A7
100
AcDbEntity
  8
Capa 1
370
     0
100
AcDbVertex
100
AcDb2dVertex
 10
199.2820243190697
 20
227.6255325933721
 30
0.0
  0
VERTEX
  5
AF
330
A7
100
AcDbEntity
  8
Capa 1
370
     0
100
AcDbVertex
100
AcDb2dVertex
 10
197.9218997242264
 20
227.6255325933721
 30
0.0
  0
VERTEX
  5
B0
330
A7
100
AcDbEntity
  8
Capa 1
370
     0
100
AcDbVertex
100
AcDb2dVertex
 10
197.9997589335563
 20
223.1346754109811
 30
0.0
  0
VERTEX
  5
B1
330
A7
100
AcDbEntity
  8
Capa 1
370
     0
100
AcDbVertex
100
AcDb2dVertex
 10
197.5918593590137
 20
222.7202301506983
 30
0.0
  0
VERTEX
  5
B2
330
A7
100
AcDbEntity
  8
Capa 1
370
     0
100
AcDbVertex
100
AcDb2dVertex
 10
194.01825945468
 20
222.7202301506983
 30
0.0
  0
VERTEX
  5
B3
330
A7
100
AcDbEntity
  8
Capa 1
370
     0
100
AcDbVertex
100
AcDb2dVertex
 10
193.6778837961934
 20
222.9048873905251
 30
0.0
  0
VERTEX
  5
B4
330
A7
100
AcDbEntity
  8
Capa 1
370
     0
100
AcDbVertex
100
AcDb2dVertex
 10
191.0385944038189
 20
224.8586023290651
 30
0.0
  0
SEQEND
  5
B5
330
A7
100
AcDbEntity
  8
Capa 1
370
     0
  0
HATCH
  5
B6
330
A3
100
AcDbEntity
  8
Capa 1
 62
     7
100
AcDbHatch
 10
0.0
 20
0.0
 30
0.0
210
0.0
220
0.0
230
1.0
  2
SOLID
 70
     1
 71
     0
 91
        1
 92
        1
 93
       12
 72
     1
 10
191.0385944038189
 20
224.8586023290651
 11
191.0385944038189
 21
223.4426671505429
 72
     1
 10
191.0385944038189
 20
223.4426671505429
 11
192.9368432684558
 21
221.3947287883226
 72
     1
 10
192.9368432684558
 20
221.3947287883226
 11
193.7095786955666
 21
220.839551284627
 72
     1
 10
193.7095786955666
 20
220.839551284627
 11
198.5702671222748
 21
220.839551284627
 72
     1
 10
198.5702671222748
 20
220.839551284627
 11
199.3850327420327
 21
221.6841169999913
 72
     1
 10
199.3850327420327
 20
221.6841169999913
 11
199.2820243190697
 21
227.6255325933721
 72
     1
 10
199.2820243190697
 20
227.6255325933721
 11
197.9218997242264
 21
227.6255325933721
 72
     1
 10
197.9218997242264
 20
227.6255325933721
 11
197.9997589335563
 21
223.1346754109811
 72
     1
 10
197.9997589335563
 20
223.1346754109811
 11
197.5918593590137
 21
222.7202301506983
 72
     1
 10
197.5918593590137
 20
222.7202301506983
 11
194.01825945468
 21
222.7202301506983
 72
     1
 10
194.01825945468
 20
222.7202301506983
 11
193.6778837961934
 21
222.9048873905251
 72
     1
 10
193.6778837961934
 20
222.9048873905251
 11
191.0385944038189
 21
224.8586023290651
 97
        0
 75
     0
 76
     1
 98
        0
  0
ENDBLK
  5
A6
330
A3
100
AcDbEntity
  8
0
100
AcDbBlockEnd
  0
BLOCK
  5
B9
330
B7
100
AcDbEntity
  8
0
100
AcDbBlockBegin
  2
block 9
 70
     0
 71
     0
 10
0.0
 20
0.0
 30
0.0
  3
block 9
  1

  0
POLYLINE
  5
BB
330
B7
100
AcDbEntity
  8
Capa 1
 62
     7
370
    25
100
AcDb2dPolyline
 66
     1
 10
0.0
 20
0.0
 30
0.0
  0
VERTEX
  5
BC
330
BB
100
AcDbEntity
  8
Capa 1
 62
     7
370
    25
100
AcDbVertex
100
AcDb2dVertex
 10
197.074061165992
 20
181.122225017302
 30
0.0
  0
VERTEX
  5
BD
330
BB
100
AcDbEntity
  8
Capa 1
 62
     7
370
    25
100
AcDbVertex
100
AcDb2dVertex
 10
38.48518705419002
 20
181.122225017302
 30
0.0
  0
SEQEND
  5
BE
330
BB
100
AcDbEntity
  8
Capa 1
370
    25
  0
ENDBLK
  5
BA
330
B7
100
AcDbEntity
  8
0
100
AcDbBlockEnd
  0
BLOCK
  5
C1
330
BF
100
AcDbEntity
  8
0
100
AcDbBlockBegin
  2
block 10
 70
     0
 71
     0
 10
0.0
 20
0.0
 30
0.0
  3
block 10
  1

  0
POLYLINE
  5
C3
330
BF
100
AcDbEntity
  8
Capa 1
 62
     7
370
    25
100
AcDb2dPolyline
 66
     1
 10
0.0
 20
0.0
 30
0.0
  0
VERTEX
  5
C4
330
C3
100
AcDbEntity
  8
Capa 1
 62
     7
370
    25
100
AcDbVertex
100
AcDb2dVertex
 10
38.48518705419002
 20
85.91488141737598
 30
0.0
  0
VERTEX
  5
C5
330
C3
100
AcDbEntity
  8
Capa 1
 62
     7
370
    25
100
AcDbVertex
100
AcDb2dVertex
 10
197.074061165992
 20
85.91488141737598
 30
0.0
  0
SEQEND
  5
C6
330
C3
100
AcDbEntity
  8
Capa 1
370
    25
  0
ENDBLK
  5
C2
330
BF
100
AcDbEntity
  8
0
100
AcDbBlockEnd
  0
BLOCK
  5
C9
330
C7
100
AcDbEntity
  8
0
100
AcDbBlockBegin
  2
block 11
 70
     0
 71
     0
 10
0.0
 20
0.0
 30
0.0
  3
block 11
  1

  0
POLYLINE
  5
CB
330
C7
100
AcDbEntity
  8
Capa 1
 62
     7
370
    25
100
AcDb2dPolyline
 66
     1
 10
0.0
 20
0.0
 30
0.0
  0
VERTEX
  5
CC
330
CB
100
AcDbEntity
  8
Capa 1
 62
     7
370
    25
100
AcDbVertex
100
AcDb2dVertex
 10
36.17318194882193
 20
178.8098754021581
 30
0.0
  0
VERTEX
  5
CD
330
CB
100
AcDbEntity
  8
Capa 1
 62
     7
370
    25
100
AcDbVertex
100
AcDb2dVertex
 10
36.17318194882193
 20
88.22688652274407
 30
0.0
  0
SEQEND
  5
CE
330
CB
100
AcDbEntity
  8
Capa 1
370
    25
  0
ENDBLK
  5
CA
330
C7
100
AcDbEntity
  8
0
100
AcDbBlockEnd
  0
BLOCK
  5
D1
330
CF
100
AcDbEntity
  8
0
100
AcDbBlockBegin
  2
block 12
 70
     0
 71
     0
 10
0.0
 20
0.0
 30
0.0
  3
block 12
  1

  0
SPLINE
  5
D3
330
CF
100
AcDbEntity
  8
Capa 1
 62
     7
370
    25
100
AcDbSpline
210
0.0
220
0.0
230
1.0
 70
     8
 71
     3
 72
    11
 73
     7
 74
     0
 42
0.0000000001
 43
0.0000000001
 40
0.0
 40
0.0
 40
0.0
 40
0.0
 40
1.0
 40
1.0
 40
1.0
 40
2.0
 40
2.0
 40
2.0
 40
2.0
 10
38.48518705419002
 20
181.122225017302
 30
0.0
 10
37.20826157020152
 20
181.122225017302
 30
0.0
 10
36.17318194882193
 20
180.0869731410345
 30
0.0
 10
36.17318194882193
 20
178.8098754021581
 30
0.0
 10
36.17318194882193
 20
178.8098754021581
 30
0.0
 10
36.17318194882193
 20
178.8098754021581
 30
0.0
 10
36.17318194882193
 20
178.8098754021581
 30
0.0
  0
ENDBLK
  5
D2
330
CF
100
AcDbEntity
  8
0
100
AcDbBlockEnd
  0
BLOCK
  5
D6
330
D4
100
AcDbEntity
  8
0
100
AcDbBlockBegin
  2
block 13
 70
     0
 71
     0
 10
0.0
 20
0.0
 30
0.0
  3
block 13
  1

  0
SPLINE
  5
D8
330
D4
100
AcDbEntity
  8
Capa 1
 62
     7
370
    25
100
AcDbSpline
210
0.0
220
0.0
230
1.0
 70
     8
 71
     3
 72
    11
 73
     7
 74
     0
 42
0.0000000001
 43
0.0000000001
 40
0.0
 40
0.0
 40
0.0
 40
0.0
 40
1.0
 40
1.0
 40
1.0
 40
2.0
 40
2.0
 40
2.0
 40
2.0
 10
36.17318194882193
 20
88.22688652274407
 30
0.0
 10
36.17318194882193
 20
86.94978878386766
 30
0.0
 10
37.20826157020152
 20
85.91488141737598
 30
0.0
 10
38.48518705419002
 20
85.91488141737598
 30
0.0
 10
38.48518705419002
 20
85.91488141737598
 30
0.0
 10
38.48518705419002
 20
85.91488141737598
 30
0.0
 10
38.48518705419002
 20
85.91488141737598
 30
0.0
  0
ENDBLK
  5
D7
330
D4
100
AcDbEntity
  8
0
100
AcDbBlockEnd
  0
BLOCK
  5
DB
330
D9
100
AcDbEntity
  8
0
100
AcDbBlockBegin
  2
block 14
 70
     0
 71
     0
 10
0.0
 20
0.0
 30
0.0
  3
block 14
  1

  0
SPLINE
  5
DD
330
D9
100
AcDbEntity
  8
Capa 1
 62
     7
370
    25
100
AcDbSpline
210
0.0
220
0.0
230
1.0
 70
    11
 71
     3
 72
    23
 73
    19
 74
     0
 42
0.0000000001
 43
0.0000000001
 40
0.0
 40
0.0
 40
0.0
 40
0.0
 40
1.0
 40
1.0
 40
1.0
 40
2.0
 40
2.0
 40
2.0
 40
3.0
 40
3.0
 40
3.0
 40
4.0
 40
4.0
 40
4.0
 40
5.0
 40
5.0
 40
5.0
 40
6.0
 40
6.0
 40
6.0
 40
6.0
 10
122.0636031721164
 20
111.0768419122008
 30
0.0
 10
122.0636031721164
 20
113.4425905425931
 30
0.0
 10
120.1457172502591
 20
115.3608209742261
 30
0.0
 10
117.7792796003152
 20
115.3608209742261
 30
0.0
 10
115.4138754796987
 20
115.3608209742261
 30
0.0
 10
113.4956450480657
 20
113.4425905425931
 30
0.0
 10
113.4956450480657
 20
111.0768419122008
 30
0.0
 10
113.4956450480657
 20
108.7104042622569
 30
0.0
 10
115.4138754796987
 20
106.7921738306238
 30
0.0
 10
117.7792796003152
 20
106.7921738306238
 30
0.0
 10
120.1457172502591
 20
106.7921738306238
 30
0.0
 10
122.0636031721164
 20
108.7104042622569
 30
0.0
 10
122.0636031721164
 20
111.0768419122008
 30
0.0
 10
122.0636031721164
 20
111.0768419122008
 30
0.0
 10
122.0636031721164
 20
111.0768419122008
 30
0.0
 10
122.0636031721164
 20
111.0768419122008
 30
0.0
 10
122.0636031721164
 20
111.0768419122008
 30
0.0
 10
122.0636031721164
 20
111.0768419122008
 30
0.0
 10
122.0636031721164
 20
111.0768419122008
 30
0.0
  0
ENDBLK
  5
DC
330
D9
100
AcDbEntity
  8
0
100
AcDbBlockEnd
  0
BLOCK
  5
E0
330
DE
100
AcDbEntity
  8
0
100
AcDbBlockBegin
  2
block 15
 70
     0
 71
     0
 10
0.0
 20
0.0
 30
0.0
  3
block 15
  1

  0
POLYLINE
  5
E2
330
DE
100
AcDbEntity
  8
Capa 1
 62
     7
370
    25
100
AcDb2dPolyline
 66
     1
 10
0.0
 20
0.0
 30
0.0
  0
VERTEX
  5
E3
330
E2
100
AcDbEntity
  8
Capa 1
 62
     7
370
    25
100
AcDbVertex
100
AcDb2dVertex
 10
199.3860662713601
 20
88.22688652274407
 30
0.0
  0
VERTEX
  5
E4
330
E2
100
AcDbEntity
  8
Capa 1
 62
     7
370
    25
100
AcDbVertex
100
AcDb2dVertex
 10
199.3860662713601
 20
178.8098754021581
 30
0.0
  0
SEQEND
  5
E5
330
E2
100
AcDbEntity
  8
Capa 1
370
    25
  0
ENDBLK
  5
E1
330
DE
100
AcDbEntity
  8
0
100
AcDbBlockEnd
  0
BLOCK
  5
E8
330
E6
100
AcDbEntity
  8
0
100
AcDbBlockBegin
  2
block 16
 70
     0
 71
     0
 10
0.0
 20
0.0
 30
0.0
  3
block 16
  1

  0
SPLINE
  5
EA
330
E6
100
AcDbEntity
  8
Capa 1
 62
     7
370
    25
100
AcDbSpline
210
0.0
220
0.0
230
1.0
 70
     8
 71
     3
 72
    11
 73
     7
 74
     0
 42
0.0000000001
 43
0.0000000001
 40
0.0
 40
0.0
 40
0.0
 40
0.0
 40
1.0
 40
1.0
 40
1.0
 40
2.0
 40
2.0
 40
2.0
 40
2.0
 10
199.3860662713601
 20
178.8098754021581
 30
0.0
 10
199.3860662713601
 20
180.0869731410345
 30
0.0
 10
198.3508143950926
 20
181.122225017302
 30
0.0
 10
197.074061165992
 20
181.122225017302
 30
0.0
 10
197.074061165992
 20
181.122225017302
 30
0.0
 10
197.074061165992
 20
181.122225017302
 30
0.0
 10
197.074061165992
 20
181.122225017302
 30
0.0
  0
ENDBLK
  5
E9
330
E6
100
AcDbEntity
  8
0
100
AcDbBlockEnd
  0
BLOCK
  5
ED
330
EB
100
AcDbEntity
  8
0
100
AcDbBlockBegin
  2
block 17
 70
     0
 71
     0
 10
0.0
 20
0.0
 30
0.0
  3
block 17
  1

  0
SPLINE
  5
EF
330
EB
100
AcDbEntity
  8
Capa 1
 62
     7
370
    25
100
AcDbSpline
210
0.0
220
0.0
230
1.0
 70
     8
 71
     3
 72
    11
 73
     7
 74
     0
 42
0.0000000001
 43
0.0000000001
 40
0.0
 40
0.0
 40
0.0
 40
0.0
 40
1.0
 40
1.0
 40
1.0
 40
2.0
 40
2.0
 40
2.0
 40
2.0
 10
197.074061165992
 20
85.91488141737598
 30
0.0
 10
198.3508143950926
 20
85.91488141737598
 30
0.0
 10
199.3860662713601
 20
86.94978878386766
 30
0.0
 10
199.3860662713601
 20
88.22688652274407
 30
0.0
 10
199.3860662713601
 20
88.22688652274407
 30
0.0
 10
199.3860662713601
 20
88.22688652274407
 30
0.0
 10
199.3860662713601
 20
88.22688652274407
 30
0.0
  0
ENDBLK
  5
EE
330
EB
100
AcDbEntity
  8
0
100
AcDbBlockEnd
  0
BLOCK
  5
F2
330
F0
100
AcDbEntity
  8
0
100
AcDbBlockBegin
  2
block 18
 70
     0
 71
     0
 10
0.0
 20
0.0
 30
0.0
  3
block 18
  1

  0
POLYLINE
  5
F4
330
F0
100
AcDbEntity
  8
Capa 1
 62
     7
370
    25
100
AcDb2dPolyline
 66
     1
 10
0.0
 20
0.0
 30
0.0
  0
VERTEX
  5
F5
330
F4
100
AcDbEntity
  8
Capa 1
 62
     7
370
    25
100
AcDbVertex
100
AcDb2dVertex
 10
187.1452894275464
 20
93.39522217923819
 30
0.0
  0
VERTEX
  5
F6
330
F4
100
AcDbEntity
  8
Capa 1
 62
     7
370
    25
100
AcDbVertex
100
AcDb2dVertex
 10
187.1452894275464
 20
168.8811036637125
 30
0.0
  0
SEQEND
  5
F7
330
F4
100
AcDbEntity
  8
Capa 1
370
    25
  0
ENDBLK
  5
F3
330
F0
100
AcDbEntity
  8
0
100
AcDbBlockEnd
  0
BLOCK
  5
FA
330
F8
100
AcDbEntity
  8
0
100
AcDbBlockBegin
  2
block 19
 70
     0
 71
     0
 10
0.0
 20
0.0
 30
0.0
  3
block 19
  1

  0
POLYLINE
  5
FC
330
F8
100
AcDbEntity
  8
Capa 1
 62
     7
370
    25
100
AcDb2dPolyline
 66
     1
 10
0.0
 20
0.0
 30
0.0
  0
VERTEX
  5
FD
330
FC
100
AcDbEntity
  8
Capa 1
 62
     7
370
    25
100
AcDbVertex
100
AcDb2dVertex
 10
187.1452894275464
 20
168.8811036637125
 30
0.0
  0
VERTEX
  5
FE
330
FC
100
AcDbEntity
  8
Capa 1
 62
     7
370
    25
100
AcDbVertex
100
AcDb2dVertex
 10
48.4143033024114
 20
168.8811036637125
 30
0.0
  0
SEQEND
  5
FF
330
FC
100
AcDbEntity
  8
Capa 1
370
    25
  0
ENDBLK
  5
FB
330
F8
100
AcDbEntity
  8
0
100
AcDbBlockEnd
  0
BLOCK
  5
102
330
100
100
AcDbEntity
  8
0
100
AcDbBlockBegin
  2
block 20
 70
     0
 71
     0
 10
0.0
 20
0.0
 30
0.0
  3
block 20
  1

  0
POLYLINE
  5
104
330
100
100
AcDbEntity
  8
Capa 1
 62
     7
370
    25
100
AcDb2dPolyline
 66
     1
 10
0.0
 20
0.0
 30
0.0
  0
VERTEX
  5
105
330
104
100
AcDbEntity
  8
Capa 1
 62
     7
370
    25
100
AcDbVertex
100
AcDb2dVertex
 10
48.4143033024114
 20
168.8811036637125
 30
0.0
  0
VERTEX
  5
106
330
104
100
AcDbEntity
  8
Capa 1
 62
     7
370
    25
100
AcDbVertex
100
AcDb2dVertex
 10
48.4143033024114
 20
93.39522217923819
 30
0.0
  0
SEQEND
  5
107
330
104
100
AcDbEntity
  8
Capa 1
370
    25
  0
ENDBLK
  5
103
330
100
100
AcDbEntity
  8
0
100
AcDbBlockEnd
  0
BLOCK
  5
10A
330
108
100
AcDbEntity
  8
0
100
AcDbBlockBegin
  2
block 21
 70
     0
 71
     0
 10
0.0
 20
0.0
 30
0.0
  3
block 21
  1

  0
SPLINE
  5
10C
330
108
100
AcDbEntity
  8
Capa 1
 62
     7
370
    25
100
AcDbSpline
210
0.0
220
0.0
230
1.0
 70
     8
 71
     3
 72
    14
 73
    10
 74
     0
 42
0.0000000001
 43
0.0000000001
 40
0.0
 40
0.0
 40
0.0
 40
0.0
 40
1.0
 40
1.0
 40
1.0
 40
2.0
 40
2.0
 40
2.0
 40
3.0
 40
3.0
 40
3.0
 40
3.0
 10
117.7792796003152
 20
106.7921738306238
 30
0.0
 10
120.1457172502591
 20
106.7921738306238
 30
0.0
 10
122.0636031721164
 20
108.7104042622569
 30
0.0
 10
122.0636031721164
 20
111.0768419122008
 30
0.0
 10
122.0636031721164
 20
113.4425905425931
 30
0.0
 10
120.1457172502591
 20
115.3608209742261
 30
0.0
 10
117.7792796003152
 20
115.3608209742261
 30
0.0
 10
117.7792796003152
 20
115.3608209742261
 30
0.0
 10
117.7792796003152
 20
115.3608209742261
 30
0.0
 10
117.7792796003152
 20
115.3608209742261
 30
0.0
  0
ENDBLK
  5
10B
330
108
100
AcDbEntity
  8
0
100
AcDbBlockEnd
  0
BLOCK
  5
10F
330
10D
100
AcDbEntity
  8
0
100
AcDbBlockBegin
  2
block 22
 70
     0
 71
     0
 10
0.0
 20
0.0
 30
0.0
  3
block 22
  1

  0
SPLINE
  5
111
330
10D
100
AcDbEntity
  8
Capa 1
 62
     7
370
    25
100
AcDbSpline
210
0.0
220
0.0
230
1.0
 70
     8
 71
     3
 72
    14
 73
    10
 74
     0
 42
0.0000000001
 43
0.0000000001
 40
0.0
 40
0.0
 40
0.0
 40
0.0
 40
1.0
 40
1.0
 40
1.0
 40
2.0
 40
2.0
 40
2.0
 40
3.0
 40
3.0
 40
3.0
 40
3.0
 10
117.7792796003152
 20
115.3608209742261
 30
0.0
 10
115.4138754796987
 20
115.3608209742261
 30
0.0
 10
113.4956450480657
 20
113.4425905425931
 30
0.0
 10
113.4956450480657
 20
111.0768419122008
 30
0.0
 10
113.4956450480657
 20
108.7104042622569
 30
0.0
 10
115.4138754796987
 20
106.7921738306238
 30
0.0
 10
117.7792796003152
 20
106.7921738306238
 30
0.0
 10
117.7792796003152
 20
106.7921738306238
 30
0.0
 10
117.7792796003152
 20
106.7921738306238
 30
0.0
 10
117.7792796003152
 20
106.7921738306238
 30
0.0
  0
ENDBLK
  5
110
330
10D
100
AcDbEntity
  8
0
100
AcDbBlockEnd
  0
BLOCK
  5
114
330
112
100
AcDbEntity
  8
0
100
AcDbBlockBegin
  2
block 23
 70
     0
 71
     0
 10
0.0
 20
0.0
 30
0.0
  3
block 23
  1

  0
POLYLINE
  5
116
330
112
100
AcDbEntity
  8
Capa 1
 62
     7
370
    25
100
AcDb2dPolyline
 66
     1
 10
0.0
 20
0.0
 30
0.0
  0
VERTEX
  5
117
330
116
100
AcDbEntity
  8
Capa 1
 62
     7
370
    25
100
AcDbVertex
100
AcDb2dVertex
 10
123.1694795524221
 20
223.8157712377301
 30
0.0
  0
VERTEX
  5
118
330
116
100
AcDbEntity
  8
Capa 1
 62
     7
370
    25
100
AcDbVertex
100
AcDb2dVertex
 10
122.1714347319406
 20
222.2599650902346
 30
0.0
  0
SEQEND
  5
119
330
116
100
AcDbEntity
  8
Capa 1
370
    25
  0
ENDBLK
  5
115
330
112
100
AcDbEntity
  8
0
100
AcDbBlockEnd
  0
BLOCK
  5
11C
330
11A
100
AcDbEntity
  8
0
100
AcDbBlockBegin
  2
block 24
 70
     0
 71
     0
 10
0.0
 20
0.0
 30
0.0
  3
block 24
  1

  0
POLYLINE
  5
11E
330
11A
100
AcDbEntity
  8
Capa 1
 62
     7
370
    25
100
AcDb2dPolyline
 66
     1
 10
0.0
 20
0.0
 30
0.0
  0
VERTEX
  5
11F
330
11E
100
AcDbEntity
  8
Capa 1
 62
     7
370
    25
100
AcDbVertex
100
AcDb2dVertex
 10
124.6636184500501
 20
222.8571727865773
 30
0.0
  0
VERTEX
  5
120
330
11E
100
AcDbEntity
  8
Capa 1
 62
     7
370
    25
100
AcDbVertex
100
AcDb2dVertex
 10
123.8664228288577
 20
221.6140092606168
 30
0.0
  0
SEQEND
  5
121
330
11E
100
AcDbEntity
  8
Capa 1
370
    25
  0
ENDBLK
  5
11D
330
11A
100
AcDbEntity
  8
0
100
AcDbBlockEnd
  0
BLOCK
  5
124
330
122
100
AcDbEntity
  8
0
100
AcDbBlockBegin
  2
block 25
 70
     0
 71
     0
 10
0.0
 20
0.0
 30
0.0
  3
block 25
  1

  0
SPLINE
  5
126
330
122
100
AcDbEntity
  8
Capa 1
 62
     7
370
    25
100
AcDbSpline
210
0.0
220
0.0
230
1.0
 70
     8
 71
     3
 72
     8
 73
     4
 74
     0
 42
0.0000000001
 43
0.0000000001
 40
0.0
 40
0.0
 40
0.0
 40
0.0
 40
1.0
 40
1.0
 40
1.0
 40
1.0
 10
123.8664228288577
 20
221.6140092606168
 30
0.0
 10
123.8505753791711
 20
221.5919606349659
 30
0.0
 10
123.8381730272424
 20
221.549413677655
 30
0.0
 10
123.8392065565698
 20
221.5220251504792
 30
0.0
  0
ENDBLK
  5
125
330
122
100
AcDbEntity
  8
0
100
AcDbBlockEnd
  0
BLOCK
  5
129
330
127
100
AcDbEntity
  8
0
100
AcDbBlockBegin
  2
block 26
 70
     0
 71
     0
 10
0.0
 20
0.0
 30
0.0
  3
block 26
  1

  0
POLYLINE
  5
12B
330
127
100
AcDbEntity
  8
Capa 1
 62
     7
370
    25
100
AcDb2dPolyline
 66
     1
 10
0.0
 20
0.0
 30
0.0
  0
VERTEX
  5
12C
330
12B
100
AcDbEntity
  8
Capa 1
 62
     7
370
    25
100
AcDbVertex
100
AcDb2dVertex
 10
122.0636031721164
 20
221.892545414348
 30
0.0
  0
VERTEX
  5
12D
330
12B
100
AcDbEntity
  8
Capa 1
 62
     7
370
    25
100
AcDbVertex
100
AcDb2dVertex
 10
122.0646367014438
 20
220.839551284627
 30
0.0
  0
SEQEND
  5
12E
330
12B
100
AcDbEntity
  8
Capa 1
370
    25
  0
ENDBLK
  5
12A
330
127
100
AcDbEntity
  8
0
100
AcDbBlockEnd
  0
BLOCK
  5
131
330
12F
100
AcDbEntity
  8
0
100
AcDbBlockBegin
  2
block 27
 70
     0
 71
     0
 10
0.0
 20
0.0
 30
0.0
  3
block 27
  1

  0
POLYLINE
  5
133
330
12F
100
AcDbEntity
  8
Capa 1
 62
     7
370
    25
100
AcDb2dPolyline
 66
     1
 10
0.0
 20
0.0
 30
0.0
  0
VERTEX
  5
134
330
133
100
AcDbEntity
  8
Capa 1
 62
     7
370
    25
100
AcDbVertex
100
AcDb2dVertex
 10
123.8392065565698
 20
221.5220251504792
 30
0.0
  0
VERTEX
  5
135
330
133
100
AcDbEntity
  8
Capa 1
 62
     7
370
    25
100
AcDbVertex
100
AcDb2dVertex
 10
123.8392065565698
 20
220.839551284627
 30
0.0
  0
SEQEND
  5
136
330
133
100
AcDbEntity
  8
Capa 1
370
    25
  0
ENDBLK
  5
132
330
12F
100
AcDbEntity
  8
0
100
AcDbBlockEnd
  0
BLOCK
  5
139
330
137
100
AcDbEntity
  8
0
100
AcDbBlockBegin
  2
block 28
 70
     0
 71
     0
 10
0.0
 20
0.0
 30
0.0
  3
block 28
  1

  0
SPLINE
  5
13B
330
137
100
AcDbEntity
  8
Capa 1
 62
     7
370
    25
100
AcDbSpline
210
0.0
220
0.0
230
1.0
 70
     8
 71
     3
 72
     8
 73
     4
 74
     0
 42
0.0000000001
 43
0.0000000001
 40
0.0
 40
0.0
 40
0.0
 40
0.0
 40
1.0
 40
1.0
 40
1.0
 40
1.0
 10
122.1714347319406
 20
222.2599650902346
 30
0.0
 10
122.1077004234183
 20
222.1715983327429
 30
0.0
 10
122.0580910157036
 20
222.0015827583875
 30
0.0
 10
122.0636031721164
 20
221.892545414348
 30
0.0
  0
ENDBLK
  5
13A
330
137
100
AcDbEntity
  8
0
100
AcDbBlockEnd
  0
BLOCK
  5
13E
330
13C
100
AcDbEntity
  8
0
100
AcDbBlockBegin
  2
block 29
 70
     0
 71
     0
 10
0.0
 20
0.0
 30
0.0
  3
block 29
  1

  0
POLYLINE
  5
140
330
13C
100
AcDbEntity
  8
Capa 1
 62
     7
370
    25
100
AcDb2dPolyline
 66
     1
 10
0.0
 20
0.0
 30
0.0
  0
VERTEX
  5
141
330
140
100
AcDbEntity
  8
Capa 1
 62
     7
370
    25
100
AcDbVertex
100
AcDb2dVertex
 10
124.8624005906845
 20
222.9779234629939
 30
0.0
  0
VERTEX
  5
142
330
140
100
AcDbEntity
  8
Capa 1
 62
     7
370
    25
100
AcDbVertex
100
AcDb2dVertex
 10
189.6653784374954
 20
223.7110402658881
 30
0.0
  0
SEQEND
  5
143
330
140
100
AcDbEntity
  8
Capa 1
370
    25
  0
ENDBLK
  5
13F
330
13C
100
AcDbEntity
  8
0
100
AcDbBlockEnd
  0
BLOCK
  5
146
330
144
100
AcDbEntity
  8
0
100
AcDbBlockBegin
  2
block 30
 70
     0
 71
     0
 10
0.0
 20
0.0
 30
0.0
  3
block 30
  1

  0
POLYLINE
  5
148
330
144
100
AcDbEntity
  8
Capa 1
 62
     7
370
    25
100
AcDb2dPolyline
 66
     1
 10
0.0
 20
0.0
 30
0.0
  0
VERTEX
  5
149
330
148
100
AcDbEntity
  8
Capa 1
 62
     7
370
    25
100
AcDbVertex
100
AcDb2dVertex
 10
124.8579219635991
 20
224.7542158669989
 30
0.0
  0
VERTEX
  5
14A
330
148
100
AcDbEntity
  8
Capa 1
 62
     7
370
    25
100
AcDbVertex
100
AcDb2dVertex
 10
185.5956844560153
 20
225.4213590478282
 30
0.0
  0
SEQEND
  5
14B
330
148
100
AcDbEntity
  8
Capa 1
370
    25
  0
ENDBLK
  5
147
330
144
100
AcDbEntity
  8
0
100
AcDbBlockEnd
  0
BLOCK
  5
14E
330
14C
100
AcDbEntity
  8
0
100
AcDbBlockBegin
  2
block 31
 70
     0
 71
     0
 10
0.0
 20
0.0
 30
0.0
  3
block 31
  1

  0
SPLINE
  5
150
330
14C
100
AcDbEntity
  8
Capa 1
 62
     7
370
    25
100
AcDbSpline
210
0.0
220
0.0
230
1.0
 70
     8
 71
     3
 72
     8
 73
     4
 74
     0
 42
0.0000000001
 43
0.0000000001
 40
0.0
 40
0.0
 40
0.0
 40
0.0
 40
1.0
 40
1.0
 40
1.0
 40
1.0
 10
124.8579219635991
 20
224.7542158669989
 30
0.0
 10
124.2340147596322
 20
224.7783315513046
 30
0.0
 10
123.4781603115354
 20
224.3582018797212
 30
0.0
 10
123.1694795524221
 20
223.8157712377301
 30
0.0
  0
ENDBLK
  5
14F
330
14C
100
AcDbEntity
  8
0
100
AcDbBlockEnd
  0
BLOCK
  5
153
330
151
100
AcDbEntity
  8
0
100
AcDbBlockBegin
  2
block 32
 70
     0
 71
     0
 10
0.0
 20
0.0
 30
0.0
  3
block 32
  1

  0
SPLINE
  5
155
330
151
100
AcDbEntity
  8
Capa 1
 62
     7
370
    25
100
AcDbSpline
210
0.0
220
0.0
230
1.0
 70
     8
 71
     3
 72
     8
 73
     4
 74
     0
 42
0.0000000001
 43
0.0000000001
 40
0.0
 40
0.0
 40
0.0
 40
0.0
 40
1.0
 40
1.0
 40
1.0
 40
1.0
 10
124.8830711772322
 20
222.9791292472091
 30
0.0
 10
124.8024558896959
 20
222.9822298351913
 30
0.0
 10
124.7039260938182
 20
222.9277972906155
 30
0.0
 10
124.6636184500501
 20
222.8571727865773
 30
0.0
  0
ENDBLK
  5
154
330
151
100
AcDbEntity
  8
0
100
AcDbBlockEnd
  0
BLOCK
  5
158
330
156
100
AcDbEntity
  8
0
100
AcDbBlockBegin
  2
block 33
 70
     0
 71
     0
 10
0.0
 20
0.0
 30
0.0
  3
block 33
  1

  0
SPLINE
  5
15A
330
156
100
AcDbEntity
  8
Capa 1
 62
     7
370
    25
100
AcDbSpline
210
0.0
220
0.0
230
1.0
 70
     8
 71
     3
 72
     8
 73
     4
 74
     0
 42
0.0000000001
 43
0.0000000001
 40
0.0
 40
0.0
 40
0.0
 40
0.0
 40
1.0
 40
1.0
 40
1.0
 40
1.0
 10
197.3097058526366
 20
231.0270498646956
 30
0.0
 10
196.0208947813831
 20
231.0268776098077
 30
0.0
 10
193.6816734037271
 20
230.662903031679
 30
0.0
 10
192.4538405627896
 20
230.2715399263745
 30
0.0
  0
ENDBLK
  5
159
330
156
100
AcDbEntity
  8
0
100
AcDbBlockEnd
  0
BLOCK
  5
15D
330
15B
100
AcDbEntity
  8
0
100
AcDbBlockBegin
  2
block 34
 70
     0
 71
     0
 10
0.0
 20
0.0
 30
0.0
  3
block 34
  1

  0
SPLINE
  5
15F
330
15B
100
AcDbEntity
  8
Capa 1
 62
     7
370
    25
100
AcDbSpline
210
0.0
220
0.0
230
1.0
 70
     8
 71
     3
 72
     8
 73
     4
 74
     0
 42
0.0000000001
 43
0.0000000001
 40
0.0
 40
0.0
 40
0.0
 40
0.0
 40
1.0
 40
1.0
 40
1.0
 40
1.0
 10
197.9959693260226
 20
232.3988877919159
 30
0.0
 10
196.4194925919793
 20
232.4572821989133
 30
0.0
 10
193.5848661567284
 20
232.0648855642815
 30
0.0
 10
192.0841815733603
 20
231.5805048195121
 30
0.0
  0
ENDBLK
  5
15E
330
15B
100
AcDbEntity
  8
0
100
AcDbBlockEnd
  0
BLOCK
  5
162
330
160
100
AcDbEntity
  8
0
100
AcDbBlockBegin
  2
block 35
 70
     0
 71
     0
 10
0.0
 20
0.0
 30
0.0
  3
block 35
  1

  0
SPLINE
  5
164
330
160
100
AcDbEntity
  8
Capa 1
 62
     7
370
    25
100
AcDbSpline
210
0.0
220
0.0
230
1.0
 70
     8
 71
     3
 72
     8
 73
     4
 74
     0
 42
0.0000000001
 43
0.0000000001
 40
0.0
 40
0.0
 40
0.0
 40
0.0
 40
1.0
 40
1.0
 40
1.0
 40
1.0
 10
192.0841815733603
 20
231.5805048195121
 30
0.0
 10
190.0047205666546
 20
231.1043923093618
 30
0.0
 10
187.9752134774394
 20
229.0342330666026
 30
0.0
 10
187.5407866501604
 20
226.946159315502
 30
0.0
  0
ENDBLK
  5
163
330
160
100
AcDbEntity
  8
0
100
AcDbBlockEnd
  0
BLOCK
  5
167
330
165
100
AcDbEntity
  8
0
100
AcDbBlockBegin
  2
block 36
 70
     0
 71
     0
 10
0.0
 20
0.0
 30
0.0
  3
block 36
  1

  0
SPLINE
  5
169
330
165
100
AcDbEntity
  8
Capa 1
 62
     7
370
    25
100
AcDbSpline
210
0.0
220
0.0
230
1.0
 70
     8
 71
     3
 72
     8
 73
     4
 74
     0
 42
0.0000000001
 43
0.0000000001
 40
0.0
 40
0.0
 40
0.0
 40
0.0
 40
1.0
 40
1.0
 40
1.0
 40
1.0
 10
185.5956844560153
 20
225.4213590478282
 30
0.0
 10
186.4793520309324
 20
225.4074064019084
 30
0.0
 10
187.3430380388534
 20
226.0850571308995
 30
0.0
 10
187.5407866501604
 20
226.946159315502
 30
0.0
  0
ENDBLK
  5
168
330
165
100
AcDbEntity
  8
0
100
AcDbBlockEnd
  0
BLOCK
  5
16C
330
16A
100
AcDbEntity
  8
0
100
AcDbBlockBegin
  2
block 37
 70
     0
 71
     0
 10
0.0
 20
0.0
 30
0.0
  3
block 37
  1

  0
SPLINE
  5
16E
330
16A
100
AcDbEntity
  8
Capa 1
 62
     7
370
    25
100
AcDbSpline
210
0.0
220
0.0
230
1.0
 70
     8
 71
     3
 72
     8
 73
     4
 74
     0
 42
0.0000000001
 43
0.0000000001
 40
0.0
 40
0.0
 40
0.0
 40
0.0
 40
1.0
 40
1.0
 40
1.0
 40
1.0
 10
192.4538405627896
 20
230.2715399263745
 30
0.0
 10
190.3633552432584
 20
229.7564978115593
 30
0.0
 10
188.6917938110954
 20
227.6219152407262
 30
0.0
 10
188.6917938110954
 20
225.4690736517759
 30
0.0
  0
ENDBLK
  5
16D
330
16A
100
AcDbEntity
  8
0
100
AcDbBlockEnd
  0
BLOCK
  5
171
330
16F
100
AcDbEntity
  8
0
100
AcDbBlockBegin
  2
block 38
 70
     0
 71
     0
 10
0.0
 20
0.0
 30
0.0
  3
block 38
  1

  0
SPLINE
  5
173
330
16F
100
AcDbEntity
  8
Capa 1
 62
     7
370
    25
100
AcDbSpline
210
0.0
220
0.0
230
1.0
 70
     8
 71
     3
 72
    11
 73
     7
 74
     0
 42
0.0000000001
 43
0.0000000001
 40
0.0
 40
0.0
 40
0.0
 40
0.0
 40
1.0
 40
1.0
 40
1.0
 40
2.0
 40
2.0
 40
2.0
 40
2.0
 10
188.6917938110954
 20
225.4690736517759
 30
0.0
 10
188.6842145960279
 20
225.2437642584053
 30
0.0
 10
188.8616371305629
 20
225.0553174110447
 30
0.0
 10
189.0866020141578
 20
225.0477381959772
 30
0.0
 10
189.0893580923642
 20
225.0475659410893
 30
0.0
 10
189.0969373074317
 20
225.0475659410893
 30
0.0
 10
189.0996933856381
 20
225.0475659410893
 30
0.0
  0
ENDBLK
  5
172
330
16F
100
AcDbEntity
  8
0
100
AcDbBlockEnd
  0
BLOCK
  5
176
330
174
100
AcDbEntity
  8
0
100
AcDbBlockBegin
  2
block 39
 70
     0
 71
     0
 10
0.0
 20
0.0
 30
0.0
  3
block 39
  1

  0
SPLINE
  5
178
330
174
100
AcDbEntity
  8
Capa 1
 62
     7
370
    25
100
AcDbSpline
210
0.0
220
0.0
230
1.0
 70
     8
 71
     3
 72
     8
 73
     4
 74
     0
 42
0.0000000001
 43
0.0000000001
 40
0.0
 40
0.0
 40
0.0
 40
0.0
 40
1.0
 40
1.0
 40
1.0
 40
1.0
 10
192.9368432684558
 20
221.3952455529863
 30
0.0
 10
193.0326169861272
 20
221.0746792066079
 30
0.0
 10
193.3757487228201
 20
220.8276656973621
 30
0.0
 10
193.7095786955666
 20
220.839551284627
 30
0.0
  0
ENDBLK
  5
177
330
174
100
AcDbEntity
  8
0
100
AcDbBlockEnd
  0
BLOCK
  5
17B
330
179
100
AcDbEntity
  8
0
100
AcDbBlockBegin
  2
block 40
 70
     0
 71
     0
 10
0.0
 20
0.0
 30
0.0
  3
block 40
  1

  0
SPLINE
  5
17D
330
179
100
AcDbEntity
  8
Capa 1
 62
     7
370
    25
100
AcDbSpline
210
0.0
220
0.0
230
1.0
 70
     8
 71
     3
 72
     8
 73
     4
 74
     0
 42
0.0000000001
 43
0.0000000001
 40
0.0
 40
0.0
 40
0.0
 40
0.0
 40
1.0
 40
1.0
 40
1.0
 40
1.0
 10
192.9368432684558
 20
221.3952455529863
 30
0.0
 10
192.5316997721195
 20
222.7493412267531
 30
0.0
 10
191.0768349889323
 20
223.778736436832
 30
0.0
 10
189.6653784374954
 20
223.7110402658881
 30
0.0
  0
ENDBLK
  5
17C
330
179
100
AcDbEntity
  8
0
100
AcDbBlockEnd
  0
BLOCK
  5
180
330
17E
100
AcDbEntity
  8
0
100
AcDbBlockBegin
  2
block 41
 70
     0
 71
     0
 10
0.0
 20
0.0
 30
0.0
  3
block 41
  1

  0
SPLINE
  5
182
330
17E
100
AcDbEntity
  8
Capa 1
 62
     7
370
    25
100
AcDbSpline
210
0.0
220
0.0
230
1.0
 70
     8
 71
     3
 72
     8
 73
     4
 74
     0
 42
0.0000000001
 43
0.0000000001
 40
0.0
 40
0.0
 40
0.0
 40
0.0
 40
1.0
 40
1.0
 40
1.0
 40
1.0
 10
193.676850266866
 20
222.9043706258614
 30
0.0
 10
192.9444224835233
 20
224.1649318954996
 30
0.0
 10
191.1698526283973
 20
225.124219366204
 30
0.0
 10
189.7142988256585
 20
225.0475659410893
 30
0.0
  0
ENDBLK
  5
181
330
17E
100
AcDbEntity
  8
0
100
AcDbBlockEnd
  0
BLOCK
  5
185
330
183
100
AcDbEntity
  8
0
100
AcDbBlockBegin
  2
block 42
 70
     0
 71
     0
 10
0.0
 20
0.0
 30
0.0
  3
block 42
  1

  0
SPLINE
  5
187
330
183
100
AcDbEntity
  8
Capa 1
 62
     7
370
    25
100
AcDbSpline
210
0.0
220
0.0
230
1.0
 70
     8
 71
     3
 72
     8
 73
     4
 74
     0
 42
0.0000000001
 43
0.0000000001
 40
0.0
 40
0.0
 40
0.0
 40
0.0
 40
1.0
 40
1.0
 40
1.0
 40
1.0
 10
193.676850266866
 20
222.9043706258614
 30
0.0
 10
193.7405845753883
 20
222.7955055367098
 30
0.0
 10
193.8935469158418
 20
222.7129954454066
 30
0.0
 10
194.0192929840074
 20
222.7195411311467
 30
0.0
  0
ENDBLK
  5
186
330
183
100
AcDbEntity
  8
0
100
AcDbBlockEnd
  0
BLOCK
  5
18A
330
188
100
AcDbEntity
  8
0
100
AcDbBlockBegin
  2
block 43
 70
     0
 71
     0
 10
0.0
 20
0.0
 30
0.0
  3
block 43
  1

  0
POLYLINE
  5
18C
330
188
100
AcDbEntity
  8
Capa 1
 62
     7
370
    25
100
AcDb2dPolyline
 66
     1
 10
0.0
 20
0.0
 30
0.0
  0
VERTEX
  5
18D
330
18C
100
AcDbEntity
  8
Capa 1
 62
     7
370
    25
100
AcDbVertex
100
AcDb2dVertex
 10
197.8712567871844
 20
230.4928874573236
 30
0.0
  0
VERTEX
  5
18E
330
18C
100
AcDbEntity
  8
Capa 1
 62
     7
370
    25
100
AcDbVertex
100
AcDb2dVertex
 10
197.9997589335563
 20
223.1346754109811
 30
0.0
  0
SEQEND
  5
18F
330
18C
100
AcDbEntity
  8
Capa 1
370
    25
  0
ENDBLK
  5
18B
330
188
100
AcDbEntity
  8
0
100
AcDbBlockEnd
  0
BLOCK
  5
192
330
190
100
AcDbEntity
  8
0
100
AcDbBlockBegin
  2
block 44
 70
     0
 71
     0
 10
0.0
 20
0.0
 30
0.0
  3
block 44
  1

  0
SPLINE
  5
194
330
190
100
AcDbEntity
  8
Capa 1
 62
     7
370
    25
100
AcDbSpline
210
0.0
220
0.0
230
1.0
 70
     8
 71
     3
 72
    11
 73
     7
 74
     0
 42
0.0000000001
 43
0.0000000001
 40
0.0
 40
0.0
 40
0.0
 40
0.0
 40
1.0
 40
1.0
 40
1.0
 40
2.0
 40
2.0
 40
2.0
 40
2.0
 10
197.5918593590137
 20
222.7195411311467
 30
0.0
 10
197.8168242426086
 20
222.7195411311467
 30
0.0
 10
197.9997589335563
 20
222.9023035672066
 30
0.0
 10
197.9997589335563
 20
223.1276129605773
 30
0.0
 10
197.9997589335563
 20
223.1295077643442
 30
0.0
 10
197.9997589335563
 20
223.1329528621021
 30
0.0
 10
197.9997589335563
 20
223.1346754109811
 30
0.0
  0
ENDBLK
  5
193
330
190
100
AcDbEntity
  8
0
100
AcDbBlockEnd
  0
BLOCK
  5
197
330
195
100
AcDbEntity
  8
0
100
AcDbBlockBegin
  2
block 45
 70
     0
 71
     0
 10
0.0
 20
0.0
 30
0.0
  3
block 45
  1

  0
POLYLINE
  5
199
330
195
100
AcDbEntity
  8
Capa 1
 62
     7
370
    25
100
AcDb2dPolyline
 66
     1
 10
0.0
 20
0.0
 30
0.0
  0
VERTEX
  5
19A
330
199
100
AcDbEntity
  8
Capa 1
 62
     7
370
    25
100
AcDbVertex
100
AcDb2dVertex
 10
199.2200125594264
 20
231.1748445585121
 30
0.0
  0
VERTEX
  5
19B
330
199
100
AcDbEntity
  8
Capa 1
 62
     7
370
    25
100
AcDbVertex
100
AcDb2dVertex
 10
199.3860662713601
 20
221.6555226886003
 30
0.0
  0
SEQEND
  5
19C
330
199
100
AcDbEntity
  8
Capa 1
370
    25
  0
ENDBLK
  5
198
330
195
100
AcDbEntity
  8
0
100
AcDbBlockEnd
  0
BLOCK
  5
19F
330
19D
100
AcDbEntity
  8
0
100
AcDbBlockBegin
  2
block 46
 70
     0
 71
     0
 10
0.0
 20
0.0
 30
0.0
  3
block 46
  1

  0
POLYLINE
  5
1A1
330
19D
100
AcDbEntity
  8
Capa 1
 62
     7
370
    25
100
AcDb2dPolyline
 66
     1
 10
0.0
 20
0.0
 30
0.0
  0
VERTEX
  5
1A2
330
1A1
100
AcDbEntity
  8
Capa 1
 62
     7
370
    25
100
AcDbVertex
100
AcDb2dVertex
 10
197.5918593590137
 20
222.7195411311467
 30
0.0
  0
VERTEX
  5
1A3
330
1A1
100
AcDbEntity
  8
Capa 1
 62
     7
370
    25
100
AcDbVertex
100
AcDb2dVertex
 10
194.0192929840074
 20
222.7195411311467
 30
0.0
  0
SEQEND
  5
1A4
330
1A1
100
AcDbEntity
  8
Capa 1
370
    25
  0
ENDBLK
  5
1A0
330
19D
100
AcDbEntity
  8
0
100
AcDbBlockEnd
  0
BLOCK
  5
1A7
330
1A5
100
AcDbEntity
  8
0
100
AcDbBlockBegin
  2
block 47
 70
     0
 71
     0
 10
0.0
 20
0.0
 30
0.0
  3
block 47
  1

  0
SPLINE
  5
1A9
330
1A5
100
AcDbEntity
  8
Capa 1
 62
     7
370
    25
100
AcDbSpline
210
0.0
220
0.0
230
1.0
 70
     8
 71
     3
 72
    11
 73
     7
 74
     0
 42
0.0000000001
 43
0.0000000001
 40
0.0
 40
0.0
 40
0.0
 40
0.0
 40
1.0
 40
1.0
 40
1.0
 40
2.0
 40
2.0
 40
2.0
 40
2.0
 10
198.5702671222748
 20
220.839551284627
 30
0.0
 10
199.0201968894646
 20
220.839551284627
 30
0.0
 10
199.3860662713601
 20
221.204731646971
 30
0.0
 10
199.3860662713601
 20
221.6555226886003
 30
0.0
 10
199.3860662713601
 20
221.6555226886003
 30
0.0
 10
199.3860662713601
 20
221.6555226886003
 30
0.0
 10
199.3860662713601
 20
221.6555226886003
 30
0.0
  0
ENDBLK
  5
1A8
330
1A5
100
AcDbEntity
  8
0
100
AcDbBlockEnd
  0
BLOCK
  5
1AC
330
1AA
100
AcDbEntity
  8
0
100
AcDbBlockBegin
  2
block 48
 70
     0
 71
     0
 10
0.0
 20
0.0
 30
0.0
  3
block 48
  1

  0
SPLINE
  5
1AE
330
1AA
100
AcDbEntity
  8
Capa 1
 62
     7
370
    25
100
AcDbSpline
210
0.0
220
0.0
230
1.0
 70
     8
 71
     3
 72
    11
 73
     7
 74
     0
 42
0.0000000001
 43
0.0000000001
 40
0.0
 40
0.0
 40
0.0
 40
0.0
 40
1.0
 40
1.0
 40
1.0
 40
2.0
 40
2.0
 40
2.0
 40
2.0
 10
199.2200125594264
 20
231.1748445585121
 30
0.0
 10
199.2200125594264
 20
231.8507727386242
 30
0.0
 10
198.6722420159105
 20
232.3988877919159
 30
0.0
 10
197.9959693260226
 20
232.3988877919159
 30
0.0
 10
197.9959693260226
 20
232.3988877919159
 30
0.0
 10
197.9959693260226
 20
232.3988877919159
 30
0.0
 10
197.9959693260226
 20
232.3988877919159
 30
0.0
  0
ENDBLK
  5
1AD
330
1AA
100
AcDbEntity
  8
0
100
AcDbBlockEnd
  0
BLOCK
  5
1B1
330
1AF
100
AcDbEntity
  8
0
100
AcDbBlockBegin
  2
block 49
 70
     0
 71
     0
 10
0.0
 20
0.0
 30
0.0
  3
block 49
  1

  0
SPLINE
  5
1B3
330
1AF
100
AcDbEntity
  8
Capa 1
 62
     7
370
    25
100
AcDbSpline
210
0.0
220
0.0
230
1.0
 70
     8
 71
     3
 72
    11
 73
     7
 74
     0
 42
0.0000000001
 43
0.0000000001
 40
0.0
 40
0.0
 40
0.0
 40
0.0
 40
1.0
 40
1.0
 40
1.0
 40
2.0
 40
2.0
 40
2.0
 40
2.0
 10
197.8712567871844
 20
230.4928874573236
 30
0.0
 10
197.866778160099
 20
230.7932999818179
 30
0.0
 10
197.6180421019742
 20
231.0327342759962
 30
0.0
 10
197.3179740872557
 20
231.0273943744713
 30
0.0
 10
197.3162515383767
 20
231.0273943744713
 30
0.0
 10
197.3114284015156
 20
231.0273943744713
 30
0.0
 10
197.3097058526366
 20
231.0270498646956
 30
0.0
  0
ENDBLK
  5
1B2
330
1AF
100
AcDbEntity
  8
0
100
AcDbBlockEnd
  0
BLOCK
  5
1B6
330
1B4
100
AcDbEntity
  8
0
100
AcDbBlockBegin
  2
block 50
 70
     0
 71
     0
 10
0.0
 20
0.0
 30
0.0
  3
block 50
  1

  0
POLYLINE
  5
1B8
330
1B4
100
AcDbEntity
  8
Capa 1
 62
     7
370
    25
100
AcDb2dPolyline
 66
     1
 10
0.0
 20
0.0
 30
0.0
  0
VERTEX
  5
1B9
330
1B8
100
AcDbEntity
  8
Capa 1
 62
     7
370
    25
100
AcDbVertex
100
AcDb2dVertex
 10
189.7142988256585
 20
225.0475659410893
 30
0.0
  0
VERTEX
  5
1BA
330
1B8
100
AcDbEntity
  8
Capa 1
 62
     7
370
    25
100
AcDbVertex
100
AcDb2dVertex
 10
189.0996933856381
 20
225.0475659410893
 30
0.0
  0
SEQEND
  5
1BB
330
1B8
100
AcDbEntity
  8
Capa 1
370
    25
  0
ENDBLK
  5
1B7
330
1B4
100
AcDbEntity
  8
0
100
AcDbBlockEnd
  0
BLOCK
  5
1BE
330
1BC
100
AcDbEntity
  8
0
100
AcDbBlockBegin
  2
block 51
 70
     0
 71
     0
 10
0.0
 20
0.0
 30
0.0
  3
block 51
  1

  0
POLYLINE
  5
1C0
330
1BC
100
AcDbEntity
  8
Capa 1
 62
     7
370
    25
100
AcDb2dPolyline
 66
     1
 10
0.0
 20
0.0
 30
0.0
  0
VERTEX
  5
1C1
330
1C0
100
AcDbEntity
  8
Capa 1
 62
     7
370
    25
100
AcDbVertex
100
AcDb2dVertex
 10
117.7792796003152
 20
232.3988877919159
 30
0.0
  0
VERTEX
  5
1C2
330
1C0
100
AcDbEntity
  8
Capa 1
 62
     7
370
    25
100
AcDbVertex
100
AcDb2dVertex
 10
197.9959693260226
 20
232.3988877919159
 30
0.0
  0
SEQEND
  5
1C3
330
1C0
100
AcDbEntity
  8
Capa 1
370
    25
  0
ENDBLK
  5
1BF
330
1BC
100
AcDbEntity
  8
0
100
AcDbBlockEnd
  0
BLOCK
  5
1C6
330
1C4
100
AcDbEntity
  8
0
100
AcDbBlockBegin
  2
block 52
 70
     0
 71
     0
 10
0.0
 20
0.0
 30
0.0
  3
block 52
  1

  0
POLYLINE
  5
1C8
330
1C4
100
AcDbEntity
  8
Capa 1
 62
     7
370
    25
100
AcDb2dPolyline
 66
     1
 10
0.0
 20
0.0
 30
0.0
  0
VERTEX
  5
1C9
330
1C8
100
AcDbEntity
  8
Capa 1
 62
     7
370
    25
100
AcDbVertex
100
AcDb2dVertex
 10
198.5702671222748
 20
220.839551284627
 30
0.0
  0
VERTEX
  5
1CA
330
1C8
100
AcDbEntity
  8
Capa 1
 62
     7
370
    25
100
AcDbVertex
100
AcDb2dVertex
 10
193.7095786955666
 20
220.839551284627
 30
0.0
  0
SEQEND
  5
1CB
330
1C8
100
AcDbEntity
  8
Capa 1
370
    25
  0
ENDBLK
  5
1C7
330
1C4
100
AcDbEntity
  8
0
100
AcDbBlockEnd
  0
BLOCK
  5
1CE
330
1CC
100
AcDbEntity
  8
0
100
AcDbBlockBegin
  2
block 53
 70
     0
 71
     0
 10
0.0
 20
0.0
 30
0.0
  3
block 53
  1

  0
POLYLINE
  5
1D0
330
1CC
100
AcDbEntity
  8
Capa 1
 62
     7
370
    25
100
AcDb2dPolyline
 66
     1
 10
0.0
 20
0.0
 30
0.0
  0
VERTEX
  5
1D1
330
1D0
100
AcDbEntity
  8
Capa 1
 62
     7
370
    25
100
AcDbVertex
100
AcDb2dVertex
 10
193.7095786955666
 20
220.839551284627
 30
0.0
  0
VERTEX
  5
1D2
330
1D0
100
AcDbEntity
  8
Capa 1
 62
     7
370
    25
100
AcDbVertex
100
AcDb2dVertex
 10
123.8392065565698
 20
220.839551284627
 30
0.0
  0
SEQEND
  5
1D3
330
1D0
100
AcDbEntity
  8
Capa 1
370
    25
  0
ENDBLK
  5
1CF
330
1CC
100
AcDbEntity
  8
0
100
AcDbBlockEnd
  0
BLOCK
  5
1D6
330
1D4
100
AcDbEntity
  8
0
100
AcDbBlockBegin
  2
block 54
 70
     0
 71
     0
 10
0.0
 20
0.0
 30
0.0
  3
block 54
  1

  0
POLYLINE
  5
1D8
330
1D4
100
AcDbEntity
  8
Capa 1
 62
     7
370
    25
100
AcDb2dPolyline
 66
     1
 10
0.0
 20
0.0
 30
0.0
  0
VERTEX
  5
1D9
330
1D8
100
AcDbEntity
  8
Capa 1
 62
     7
370
    25
100
AcDbVertex
100
AcDb2dVertex
 10
117.7792796003152
 20
220.839551284627
 30
0.0
  0
VERTEX
  5
1DA
330
1D8
100
AcDbEntity
  8
Capa 1
 62
     7
370
    25
100
AcDbVertex
100
AcDb2dVertex
 10
117.7792796003152
 20
220.839551284627
 30
0.0
  0
SEQEND
  5
1DB
330
1D8
100
AcDbEntity
  8
Capa 1
370
    25
  0
ENDBLK
  5
1D7
330
1D4
100
AcDbEntity
  8
0
100
AcDbBlockEnd
  0
BLOCK
  5
1DE
330
1DC
100
AcDbEntity
  8
0
100
AcDbBlockBegin
  2
block 55
 70
     0
 71
     0
 10
0.0
 20
0.0
 30
0.0
  3
block 55
  1

  0
POLYLINE
  5
1E0
330
1DC
100
AcDbEntity
  8
Capa 1
 62
     7
370
    25
100
AcDb2dPolyline
 66
     1
 10
0.0
 20
0.0
 30
0.0
  0
VERTEX
  5
1E1
330
1E0
100
AcDbEntity
  8
Capa 1
 62
     7
370
    25
100
AcDbVertex
100
AcDb2dVertex
 10
112.38976866776
 20
223.8157712377301
 30
0.0
  0
VERTEX
  5
1E2
330
1E0
100
AcDbEntity
  8
Capa 1
 62
     7
370
    25
100
AcDbVertex
100
AcDb2dVertex
 10
113.3878134882415
 20
222.2599650902346
 30
0.0
  0
SEQEND
  5
1E3
330
1E0
100
AcDbEntity
  8
Capa 1
370
    25
  0
ENDBLK
  5
1DF
330
1DC
100
AcDbEntity
  8
0
100
AcDbBlockEnd
  0
BLOCK
  5
1E6
330
1E4
100
AcDbEntity
  8
0
100
AcDbBlockBegin
  2
block 56
 70
     0
 71
     0
 10
0.0
 20
0.0
 30
0.0
  3
block 56
  1

  0
POLYLINE
  5
1E8
330
1E4
100
AcDbEntity
  8
Capa 1
 62
     7
370
    25
100
AcDb2dPolyline
 66
     1
 10
0.0
 20
0.0
 30
0.0
  0
VERTEX
  5
1E9
330
1E8
100
AcDbEntity
  8
Capa 1
 62
     7
370
    25
100
AcDbVertex
100
AcDb2dVertex
 10
110.895629770132
 20
222.8571727865773
 30
0.0
  0
VERTEX
  5
1EA
330
1E8
100
AcDbEntity
  8
Capa 1
 62
     7
370
    25
100
AcDbVertex
100
AcDb2dVertex
 10
111.6928253913243
 20
221.6140092606168
 30
0.0
  0
SEQEND
  5
1EB
330
1E8
100
AcDbEntity
  8
Capa 1
370
    25
  0
ENDBLK
  5
1E7
330
1E4
100
AcDbEntity
  8
0
100
AcDbBlockEnd
  0
BLOCK
  5
1EE
330
1EC
100
AcDbEntity
  8
0
100
AcDbBlockBegin
  2
block 57
 70
     0
 71
     0
 10
0.0
 20
0.0
 30
0.0
  3
block 57
  1

  0
SPLINE
  5
1F0
330
1EC
100
AcDbEntity
  8
Capa 1
 62
     7
370
    25
100
AcDbSpline
210
0.0
220
0.0
230
1.0
 70
     8
 71
     3
 72
     8
 73
     4
 74
     0
 42
0.0000000001
 43
0.0000000001
 40
0.0
 40
0.0
 40
0.0
 40
0.0
 40
1.0
 40
1.0
 40
1.0
 40
1.0
 10
111.7200416636122
 20
221.5220251504792
 30
0.0
 10
111.7210751929396
 20
221.549413677655
 30
0.0
 10
111.7090173507867
 20
221.5919606349659
 30
0.0
 10
111.6928253913243
 20
221.6140092606168
 30
0.0
  0
ENDBLK
  5
1EF
330
1EC
100
AcDbEntity
  8
0
100
AcDbBlockEnd
  0
BLOCK
  5
1F3
330
1F1
100
AcDbEntity
  8
0
100
AcDbBlockBegin
  2
block 58
 70
     0
 71
     0
 10
0.0
 20
0.0
 30
0.0
  3
block 58
  1

  0
POLYLINE
  5
1F5
330
1F1
100
AcDbEntity
  8
Capa 1
 62
     7
370
    25
100
AcDb2dPolyline
 66
     1
 10
0.0
 20
0.0
 30
0.0
  0
VERTEX
  5
1F6
330
1F5
100
AcDbEntity
  8
Capa 1
 62
     7
370
    25
100
AcDbVertex
100
AcDb2dVertex
 10
113.4956450480657
 20
221.892545414348
 30
0.0
  0
VERTEX
  5
1F7
330
1F5
100
AcDbEntity
  8
Capa 1
 62
     7
370
    25
100
AcDbVertex
100
AcDb2dVertex
 10
113.4946115187383
 20
220.839551284627
 30
0.0
  0
SEQEND
  5
1F8
330
1F5
100
AcDbEntity
  8
Capa 1
370
    25
  0
ENDBLK
  5
1F4
330
1F1
100
AcDbEntity
  8
0
100
AcDbBlockEnd
  0
BLOCK
  5
1FB
330
1F9
100
AcDbEntity
  8
0
100
AcDbBlockBegin
  2
block 59
 70
     0
 71
     0
 10
0.0
 20
0.0
 30
0.0
  3
block 59
  1

  0
POLYLINE
  5
1FD
330
1F9
100
AcDbEntity
  8
Capa 1
 62
     7
370
    25
100
AcDb2dPolyline
 66
     1
 10
0.0
 20
0.0
 30
0.0
  0
VERTEX
  5
1FE
330
1FD
100
AcDbEntity
  8
Capa 1
 62
     7
370
    25
100
AcDbVertex
100
AcDb2dVertex
 10
111.7200416636122
 20
221.5220251504792
 30
0.0
  0
VERTEX
  5
1FF
330
1FD
100
AcDbEntity
  8
Capa 1
 62
     7
370
    25
100
AcDbVertex
100
AcDb2dVertex
 10
111.7193526440606
 20
220.839551284627
 30
0.0
  0
SEQEND
  5
200
330
1FD
100
AcDbEntity
  8
Capa 1
370
    25
  0
ENDBLK
  5
1FC
330
1F9
100
AcDbEntity
  8
0
100
AcDbBlockEnd
  0
BLOCK
  5
203
330
201
100
AcDbEntity
  8
0
100
AcDbBlockBegin
  2
block 60
 70
     0
 71
     0
 10
0.0
 20
0.0
 30
0.0
  3
block 60
  1

  0
SPLINE
  5
205
330
201
100
AcDbEntity
  8
Capa 1
 62
     7
370
    25
100
AcDbSpline
210
0.0
220
0.0
230
1.0
 70
     8
 71
     3
 72
     8
 73
     4
 74
     0
 42
0.0000000001
 43
0.0000000001
 40
0.0
 40
0.0
 40
0.0
 40
0.0
 40
1.0
 40
1.0
 40
1.0
 40
1.0
 10
113.4956450480657
 20
221.892545414348
 30
0.0
 10
113.5011572044784
 20
222.0015827583875
 30
0.0
 10
113.4515477967637
 20
222.1715983327429
 30
0.0
 10
113.3878134882415
 20
222.2599650902346
 30
0.0
  0
ENDBLK
  5
204
330
201
100
AcDbEntity
  8
0
100
AcDbBlockEnd
  0
BLOCK
  5
208
330
206
100
AcDbEntity
  8
0
100
AcDbBlockBegin
  2
block 61
 70
     0
 71
     0
 10
0.0
 20
0.0
 30
0.0
  3
block 61
  1

  0
POLYLINE
  5
20A
330
206
100
AcDbEntity
  8
Capa 1
 62
     7
370
    25
100
AcDb2dPolyline
 66
     1
 10
0.0
 20
0.0
 30
0.0
  0
VERTEX
  5
20B
330
20A
100
AcDbEntity
  8
Capa 1
 62
     7
370
    25
100
AcDbVertex
100
AcDb2dVertex
 10
110.6968476294976
 20
222.9779234629939
 30
0.0
  0
VERTEX
  5
20C
330
20A
100
AcDbEntity
  8
Capa 1
 62
     7
370
    25
100
AcDbVertex
100
AcDb2dVertex
 10
45.89369752779874
 20
223.7110402658881
 30
0.0
  0
SEQEND
  5
20D
330
20A
100
AcDbEntity
  8
Capa 1
370
    25
  0
ENDBLK
  5
209
330
206
100
AcDbEntity
  8
0
100
AcDbBlockEnd
  0
BLOCK
  5
210
330
20E
100
AcDbEntity
  8
0
100
AcDbBlockBegin
  2
block 62
 70
     0
 71
     0
 10
0.0
 20
0.0
 30
0.0
  3
block 62
  1

  0
POLYLINE
  5
212
330
20E
100
AcDbEntity
  8
Capa 1
 62
     7
370
    25
100
AcDb2dPolyline
 66
     1
 10
0.0
 20
0.0
 30
0.0
  0
VERTEX
  5
213
330
212
100
AcDbEntity
  8
Capa 1
 62
     7
370
    25
100
AcDbVertex
100
AcDb2dVertex
 10
110.7016707663587
 20
224.7542158669989
 30
0.0
  0
VERTEX
  5
214
330
212
100
AcDbEntity
  8
Capa 1
 62
     7
370
    25
100
AcDbVertex
100
AcDb2dVertex
 10
49.96339150927888
 20
225.4213590478282
 30
0.0
  0
SEQEND
  5
215
330
212
100
AcDbEntity
  8
Capa 1
370
    25
  0
ENDBLK
  5
211
330
20E
100
AcDbEntity
  8
0
100
AcDbBlockEnd
  0
BLOCK
  5
218
330
216
100
AcDbEntity
  8
0
100
AcDbBlockBegin
  2
block 63
 70
     0
 71
     0
 10
0.0
 20
0.0
 30
0.0
  3
block 63
  1

  0
SPLINE
  5
21A
330
216
100
AcDbEntity
  8
Capa 1
 62
     7
370
    25
100
AcDbSpline
210
0.0
220
0.0
230
1.0
 70
     8
 71
     3
 72
     8
 73
     4
 74
     0
 42
0.0000000001
 43
0.0000000001
 40
0.0
 40
0.0
 40
0.0
 40
0.0
 40
1.0
 40
1.0
 40
1.0
 40
1.0
 10
112.38976866776
 20
223.8157712377301
 30
0.0
 10
112.0814324184224
 20
224.3582018797212
 30
0.0
 10
111.3252334605498
 20
224.7783315513046
 30
0.0
 10
110.7016707663587
 20
224.7542158669989
 30
0.0
  0
ENDBLK
  5
219
330
216
100
AcDbEntity
  8
0
100
AcDbBlockEnd
  0
BLOCK
  5
21D
330
21B
100
AcDbEntity
  8
0
100
AcDbBlockBegin
  2
block 64
 70
     0
 71
     0
 10
0.0
 20
0.0
 30
0.0
  3
block 64
  1

  0
SPLINE
  5
21F
330
21B
100
AcDbEntity
  8
Capa 1
 62
     7
370
    25
100
AcDbSpline
210
0.0
220
0.0
230
1.0
 70
     8
 71
     3
 72
     8
 73
     4
 74
     0
 42
0.0000000001
 43
0.0000000001
 40
0.0
 40
0.0
 40
0.0
 40
0.0
 40
1.0
 40
1.0
 40
1.0
 40
1.0
 10
110.895629770132
 20
222.8571727865773
 30
0.0
 10
110.8553221263638
 20
222.9277972906155
 30
0.0
 10
110.7567923304861
 20
222.9822298351913
 30
0.0
 10
110.6761770429498
 20
222.9791292472091
 30
0.0
  0
ENDBLK
  5
21E
330
21B
100
AcDbEntity
  8
0
100
AcDbBlockEnd
  0
BLOCK
  5
222
330
220
100
AcDbEntity
  8
0
100
AcDbBlockBegin
  2
block 65
 70
     0
 71
     0
 10
0.0
 20
0.0
 30
0.0
  3
block 65
  1

  0
SPLINE
  5
224
330
220
100
AcDbEntity
  8
Capa 1
 62
     7
370
    25
100
AcDbSpline
210
0.0
220
0.0
230
1.0
 70
     8
 71
     3
 72
     8
 73
     4
 74
     0
 42
0.0000000001
 43
0.0000000001
 40
0.0
 40
0.0
 40
0.0
 40
0.0
 40
1.0
 40
1.0
 40
1.0
 40
1.0
 10
43.10557991228034
 20
230.2715399263745
 30
0.0
 10
41.8777470713428
 20
230.662903031679
 30
0.0
 10
39.53869794857471
 20
231.0268776098077
 30
0.0
 10
38.25005913220914
 20
231.0270498646956
 30
0.0
  0
ENDBLK
  5
223
330
220
100
AcDbEntity
  8
0
100
AcDbBlockEnd
  0
BLOCK
  5
227
330
225
100
AcDbEntity
  8
0
100
AcDbBlockBegin
  2
block 66
 70
     0
 71
     0
 10
0.0
 20
0.0
 30
0.0
  3
block 66
  1

  0
SPLINE
  5
229
330
225
100
AcDbEntity
  8
Capa 1
 62
     7
370
    25
100
AcDbSpline
210
0.0
220
0.0
230
1.0
 70
     8
 71
     3
 72
     8
 73
     4
 74
     0
 42
0.0000000001
 43
0.0000000001
 40
0.0
 40
0.0
 40
0.0
 40
0.0
 40
1.0
 40
1.0
 40
1.0
 40
1.0
 10
43.47506664682173
 20
231.5805048195121
 30
0.0
 10
41.97386529878992
 20
232.0648855642815
 30
0.0
 10
39.13975562820274
 20
232.4572821989133
 30
0.0
 10
37.56345114904737
 20
232.3988877919159
 30
0.0
  0
ENDBLK
  5
228
330
225
100
AcDbEntity
  8
0
100
AcDbBlockEnd
  0
BLOCK
  5
22C
330
22A
100
AcDbEntity
  8
0
100
AcDbBlockBegin
  2
block 67
 70
     0
 71
     0
 10
0.0
 20
0.0
 30
0.0
  3
block 67
  1

  0
SPLINE
  5
22E
330
22A
100
AcDbEntity
  8
Capa 1
 62
     7
370
    25
100
AcDbSpline
210
0.0
220
0.0
230
1.0
 70
     8
 71
     3
 72
     8
 73
     4
 74
     0
 42
0.0000000001
 43
0.0000000001
 40
0.0
 40
0.0
 40
0.0
 40
0.0
 40
1.0
 40
1.0
 40
1.0
 40
1.0
 10
48.01846157002161
 20
226.946159315502
 30
0.0
 10
47.58386248785474
 20
229.0342330666026
 30
0.0
 10
45.55418314375161
 20
231.1043923093618
 30
0.0
 10
43.47506664682173
 20
231.5805048195121
 30
0.0
  0
ENDBLK
  5
22D
330
22A
100
AcDbEntity
  8
0
100
AcDbBlockEnd
  0
BLOCK
  5
231
330
22F
100
AcDbEntity
  8
0
100
AcDbBlockBegin
  2
block 68
 70
     0
 71
     0
 10
0.0
 20
0.0
 30
0.0
  3
block 68
  1

  0
SPLINE
  5
233
330
22F
100
AcDbEntity
  8
Capa 1
 62
     7
370
    25
100
AcDbSpline
210
0.0
220
0.0
230
1.0
 70
     8
 71
     3
 72
     8
 73
     4
 74
     0
 42
0.0000000001
 43
0.0000000001
 40
0.0
 40
0.0
 40
0.0
 40
0.0
 40
1.0
 40
1.0
 40
1.0
 40
1.0
 10
48.01846157002161
 20
226.946159315502
 30
0.0
 10
48.21586567155281
 20
226.0850571308995
 30
0.0
 10
49.0804129539133
 20
225.4074064019084
 30
0.0
 10
49.96339150927888
 20
225.4213590478282
 30
0.0
  0
ENDBLK
  5
232
330
22F
100
AcDbEntity
  8
0
100
AcDbBlockEnd
  0
BLOCK
  5
236
330
234
100
AcDbEntity
  8
0
100
AcDbBlockBegin
  2
block 69
 70
     0
 71
     0
 10
0.0
 20
0.0
 30
0.0
  3
block 69
  1

  0
SPLINE
  5
238
330
234
100
AcDbEntity
  8
Capa 1
 62
     7
370
    25
100
AcDbSpline
210
0.0
220
0.0
230
1.0
 70
     8
 71
     3
 72
     8
 73
     4
 74
     0
 42
0.0000000001
 43
0.0000000001
 40
0.0
 40
0.0
 40
0.0
 40
0.0
 40
1.0
 40
1.0
 40
1.0
 40
1.0
 10
46.86710989931081
 20
225.4690736517759
 30
0.0
 10
46.86779891886241
 20
227.6219152407262
 30
0.0
 10
45.1958929769236
 20
229.7564978115593
 30
0.0
 10
43.10557991228034
 20
230.2715399263745
 30
0.0
  0
ENDBLK
  5
237
330
234
100
AcDbEntity
  8
0
100
AcDbBlockEnd
  0
BLOCK
  5
23B
330
239
100
AcDbEntity
  8
0
100
AcDbBlockBegin
  2
block 70
 70
     0
 71
     0
 10
0.0
 20
0.0
 30
0.0
  3
block 70
  1

  0
SPLINE
  5
23D
330
239
100
AcDbEntity
  8
Capa 1
 62
     7
370
    25
100
AcDbSpline
210
0.0
220
0.0
230
1.0
 70
     8
 71
     3
 72
    11
 73
     7
 74
     0
 42
0.0000000001
 43
0.0000000001
 40
0.0
 40
0.0
 40
0.0
 40
0.0
 40
1.0
 40
1.0
 40
1.0
 40
2.0
 40
2.0
 40
2.0
 40
2.0
 10
46.45938257965604
 20
225.0475659410893
 30
0.0
 10
46.68469197302674
 20
225.0475659410893
 30
0.0
 10
46.8672821541987
 20
225.2301561222613
 30
0.0
 10
46.8672821541987
 20
225.455465515632
 30
0.0
 10
46.8672821541987
 20
225.4590828682779
 30
0.0
 10
46.8672821541987
 20
225.465628554018
 30
0.0
 10
46.86710989931081
 20
225.4690736517759
 30
0.0
  0
ENDBLK
  5
23C
330
239
100
AcDbEntity
  8
0
100
AcDbBlockEnd
  0
BLOCK
  5
240
330
23E
100
AcDbEntity
  8
0
100
AcDbBlockBegin
  2
block 71
 70
     0
 71
     0
 10
0.0
 20
0.0
 30
0.0
  3
block 71
  1

  0
SPLINE
  5
242
330
23E
100
AcDbEntity
  8
Capa 1
 62
     7
370
    25
100
AcDbSpline
210
0.0
220
0.0
230
1.0
 70
     8
 71
     3
 72
     8
 73
     4
 74
     0
 42
0.0000000001
 43
0.0000000001
 40
0.0
 40
0.0
 40
0.0
 40
0.0
 40
1.0
 40
1.0
 40
1.0
 40
1.0
 10
41.84915275995171
 20
220.839551284627
 30
0.0
 10
42.18332724247399
 20
220.8276656973621
 30
0.0
 10
42.52697574383068
 20
221.0746792066079
 30
0.0
 10
42.62274946150201
 20
221.3952455529863
 30
0.0
  0
ENDBLK
  5
241
330
23E
100
AcDbEntity
  8
0
100
AcDbBlockEnd
  0
BLOCK
  5
245
330
243
100
AcDbEntity
  8
0
100
AcDbBlockBegin
  2
block 72
 70
     0
 71
     0
 10
0.0
 20
0.0
 30
0.0
  3
block 72
  1

  0
SPLINE
  5
247
330
243
100
AcDbEntity
  8
Capa 1
 62
     7
370
    25
100
AcDbSpline
210
0.0
220
0.0
230
1.0
 70
     8
 71
     3
 72
     8
 73
     4
 74
     0
 42
0.0000000001
 43
0.0000000001
 40
0.0
 40
0.0
 40
0.0
 40
0.0
 40
1.0
 40
1.0
 40
1.0
 40
1.0
 10
45.89369752779874
 20
223.7110402658881
 30
0.0
 10
44.48189646658604
 20
223.778736436832
 30
0.0
 10
43.0278929578383
 20
222.7493412267531
 30
0.0
 10
42.62274946150201
 20
221.3952455529863
 30
0.0
  0
ENDBLK
  5
246
330
243
100
AcDbEntity
  8
0
100
AcDbBlockEnd
  0
BLOCK
  5
24A
330
248
100
AcDbEntity
  8
0
100
AcDbBlockBegin
  2
block 73
 70
     0
 71
     0
 10
0.0
 20
0.0
 30
0.0
  3
block 73
  1

  0
SPLINE
  5
24C
330
248
100
AcDbEntity
  8
Capa 1
 62
     7
370
    25
100
AcDbSpline
210
0.0
220
0.0
230
1.0
 70
     8
 71
     3
 72
     8
 73
     4
 74
     0
 42
0.0000000001
 43
0.0000000001
 40
0.0
 40
0.0
 40
0.0
 40
0.0
 40
1.0
 40
1.0
 40
1.0
 40
1.0
 10
45.84546615918727
 20
225.0475659410893
 30
0.0
 10
44.38939559178476
 20
225.124219366204
 30
0.0
 10
42.61499799154659
 20
224.1649318954996
 30
0.0
 10
41.88205344354024
 20
222.9043706258614
 30
0.0
  0
ENDBLK
  5
24B
330
248
100
AcDbEntity
  8
0
100
AcDbBlockEnd
  0
BLOCK
  5
24F
330
24D
100
AcDbEntity
  8
0
100
AcDbBlockBegin
  2
block 74
 70
     0
 71
     0
 10
0.0
 20
0.0
 30
0.0
  3
block 74
  1

  0
SPLINE
  5
251
330
24D
100
AcDbEntity
  8
Capa 1
 62
     7
370
    25
100
AcDbSpline
210
0.0
220
0.0
230
1.0
 70
     8
 71
     3
 72
     8
 73
     4
 74
     0
 42
0.0000000001
 43
0.0000000001
 40
0.0
 40
0.0
 40
0.0
 40
0.0
 40
1.0
 40
1.0
 40
1.0
 40
1.0
 10
41.54064425572624
 20
222.7195411311467
 30
0.0
 10
41.66604581411605
 20
222.7129954454066
 30
0.0
 10
41.81866364479375
 20
222.7955055367098
 30
0.0
 10
41.88205344354024
 20
222.9043706258614
 30
0.0
  0
ENDBLK
  5
250
330
24D
100
AcDbEntity
  8
0
100
AcDbBlockEnd
  0
BLOCK
  5
254
330
252
100
AcDbEntity
  8
0
100
AcDbBlockBegin
  2
block 75
 70
     0
 71
     0
 10
0.0
 20
0.0
 30
0.0
  3
block 75
  1

  0
POLYLINE
  5
256
330
252
100
AcDbEntity
  8
Capa 1
 62
     7
370
    25
100
AcDb2dPolyline
 66
     1
 10
0.0
 20
0.0
 30
0.0
  0
VERTEX
  5
257
330
256
100
AcDbEntity
  8
Capa 1
 62
     7
370
    25
100
AcDbVertex
100
AcDb2dVertex
 10
37.68781917810979
 20
230.4928874573236
 30
0.0
  0
VERTEX
  5
258
330
256
100
AcDbEntity
  8
Capa 1
 62
     7
370
    25
100
AcDbVertex
100
AcDb2dVertex
 10
37.55931703173782
 20
223.1346754109811
 30
0.0
  0
SEQEND
  5
259
330
256
100
AcDbEntity
  8
Capa 1
370
    25
  0
ENDBLK
  5
255
330
252
100
AcDbEntity
  8
0
100
AcDbBlockEnd
  0
BLOCK
  5
25C
330
25A
100
AcDbEntity
  8
0
100
AcDbBlockBegin
  2
block 76
 70
     0
 71
     0
 10
0.0
 20
0.0
 30
0.0
  3
block 76
  1

  0
SPLINE
  5
25E
330
25A
100
AcDbEntity
  8
Capa 1
 62
     7
370
    25
100
AcDbSpline
210
0.0
220
0.0
230
1.0
 70
     8
 71
     3
 72
    11
 73
     7
 74
     0
 42
0.0000000001
 43
0.0000000001
 40
0.0
 40
0.0
 40
0.0
 40
0.0
 40
1.0
 40
1.0
 40
1.0
 40
2.0
 40
2.0
 40
2.0
 40
2.0
 10
37.55931703173782
 20
223.1346754109811
 30
0.0
 10
37.55535516931617
 20
222.9095382724983
 30
0.0
 10
37.73484476250596
 20
222.7235029935684
 30
0.0
 10
37.96015415587666
 20
222.7195411311467
 30
0.0
 10
37.96187670475564
 20
222.7195411311467
 30
0.0
 10
37.9653218025136
 20
222.7195411311467
 30
0.0
 10
37.96721660628048
 20
222.7195411311467
 30
0.0
  0
ENDBLK
  5
25D
330
25A
100
AcDbEntity
  8
0
100
AcDbBlockEnd
  0
BLOCK
  5
261
330
25F
100
AcDbEntity
  8
0
100
AcDbBlockBegin
  2
block 77
 70
     0
 71
     0
 10
0.0
 20
0.0
 30
0.0
  3
block 77
  1

  0
POLYLINE
  5
263
330
25F
100
AcDbEntity
  8
Capa 1
 62
     7
370
    25
100
AcDb2dPolyline
 66
     1
 10
0.0
 20
0.0
 30
0.0
  0
VERTEX
  5
264
330
263
100
AcDbEntity
  8
Capa 1
 62
     7
370
    25
100
AcDbVertex
100
AcDb2dVertex
 10
36.33923566075568
 20
231.1748445585121
 30
0.0
  0
VERTEX
  5
265
330
263
100
AcDbEntity
  8
Capa 1
 62
     7
370
    25
100
AcDbVertex
100
AcDb2dVertex
 10
36.17318194882193
 20
221.6555226886003
 30
0.0
  0
SEQEND
  5
266
330
263
100
AcDbEntity
  8
Capa 1
370
    25
  0
ENDBLK
  5
262
330
25F
100
AcDbEntity
  8
0
100
AcDbBlockEnd
  0
BLOCK
  5
269
330
267
100
AcDbEntity
  8
0
100
AcDbBlockBegin
  2
block 78
 70
     0
 71
     0
 10
0.0
 20
0.0
 30
0.0
  3
block 78
  1

  0
POLYLINE
  5
26B
330
267
100
AcDbEntity
  8
Capa 1
 62
     7
370
    25
100
AcDb2dPolyline
 66
     1
 10
0.0
 20
0.0
 30
0.0
  0
VERTEX
  5
26C
330
26B
100
AcDbEntity
  8
Capa 1
 62
     7
370
    25
100
AcDbVertex
100
AcDb2dVertex
 10
37.96721660628048
 20
222.7195411311467
 30
0.0
  0
VERTEX
  5
26D
330
26B
100
AcDbEntity
  8
Capa 1
 62
     7
370
    25
100
AcDbVertex
100
AcDb2dVertex
 10
41.54064425572624
 20
222.7195411311467
 30
0.0
  0
SEQEND
  5
26E
330
26B
100
AcDbEntity
  8
Capa 1
370
    25
  0
ENDBLK
  5
26A
330
267
100
AcDbEntity
  8
0
100
AcDbBlockEnd
  0
BLOCK
  5
271
330
26F
100
AcDbEntity
  8
0
100
AcDbBlockBegin
  2
block 79
 70
     0
 71
     0
 10
0.0
 20
0.0
 30
0.0
  3
block 79
  1

  0
SPLINE
  5
273
330
26F
100
AcDbEntity
  8
Capa 1
 62
     7
370
    25
100
AcDbSpline
210
0.0
220
0.0
230
1.0
 70
     8
 71
     3
 72
    11
 73
     7
 74
     0
 42
0.0000000001
 43
0.0000000001
 40
0.0
 40
0.0
 40
0.0
 40
0.0
 40
1.0
 40
1.0
 40
1.0
 40
2.0
 40
2.0
 40
2.0
 40
2.0
 10
36.17318194882193
 20
221.6555226886003
 30
0.0
 10
36.17318194882193
 20
221.204731646971
 30
0.0
 10
36.53853456605377
 20
220.839551284627
 30
0.0
 10
36.98932560768306
 20
220.839551284627
 30
0.0
 10
36.98932560768306
 20
220.839551284627
 30
0.0
 10
36.98932560768306
 20
220.839551284627
 30
0.0
 10
36.98932560768306
 20
220.839551284627
 30
0.0
  0
ENDBLK
  5
272
330
26F
100
AcDbEntity
  8
0
100
AcDbBlockEnd
  0
BLOCK
  5
276
330
274
100
AcDbEntity
  8
0
100
AcDbBlockBegin
  2
block 80
 70
     0
 71
     0
 10
0.0
 20
0.0
 30
0.0
  3
block 80
  1

  0
SPLINE
  5
278
330
274
100
AcDbEntity
  8
Capa 1
 62
     7
370
    25
100
AcDbSpline
210
0.0
220
0.0
230
1.0
 70
     8
 71
     3
 72
    11
 73
     7
 74
     0
 42
0.0000000001
 43
0.0000000001
 40
0.0
 40
0.0
 40
0.0
 40
0.0
 40
1.0
 40
1.0
 40
1.0
 40
2.0
 40
2.0
 40
2.0
 40
2.0
 10
37.56345114904737
 20
232.3988877919159
 30
0.0
 10
36.88717845915949
 20
232.3988877919159
 30
0.0
 10
36.33923566075568
 20
231.8507727386242
 30
0.0
 10
36.33923566075568
 20
231.1748445585121
 30
0.0
 10
36.33923566075568
 20
231.1748445585121
 30
0.0
 10
36.33923566075568
 20
231.1748445585121
 30
0.0
 10
36.33923566075568
 20
231.1748445585121
 30
0.0
  0
ENDBLK
  5
277
330
274
100
AcDbEntity
  8
0
100
AcDbBlockEnd
  0
BLOCK
  5
27B
330
279
100
AcDbEntity
  8
0
100
AcDbBlockBegin
  2
block 81
 70
     0
 71
     0
 10
0.0
 20
0.0
 30
0.0
  3
block 81
  1

  0
SPLINE
  5
27D
330
279
100
AcDbEntity
  8
Capa 1
 62
     7
370
    25
100
AcDbSpline
210
0.0
220
0.0
230
1.0
 70
     8
 71
     3
 72
    11
 73
     7
 74
     0
 42
0.0000000001
 43
0.0000000001
 40
0.0
 40
0.0
 40
0.0
 40
0.0
 40
1.0
 40
1.0
 40
1.0
 40
2.0
 40
2.0
 40
2.0
 40
2.0
 10
38.25005913220914
 20
231.0270498646956
 30
0.0
 10
37.94964660771488
 20
231.0372129030815
 30
0.0
 10
37.69815447138367
 20
230.8019127262127
 30
0.0
 10
37.68799143299768
 20
230.5016724566064
 30
0.0
 10
37.68781917810979
 20
230.4994331430637
 30
0.0
 10
37.68781917810979
 20
230.4951267708662
 30
0.0
 10
37.68781917810979
 20
230.4928874573236
 30
0.0
  0
ENDBLK
  5
27C
330
279
100
AcDbEntity
  8
0
100
AcDbBlockEnd
  0
BLOCK
  5
280
330
27E
100
AcDbEntity
  8
0
100
AcDbBlockBegin
  2
block 82
 70
     0
 71
     0
 10
0.0
 20
0.0
 30
0.0
  3
block 82
  1

  0
POLYLINE
  5
282
330
27E
100
AcDbEntity
  8
Capa 1
 62
     7
370
    25
100
AcDb2dPolyline
 66
     1
 10
0.0
 20
0.0
 30
0.0
  0
VERTEX
  5
283
330
282
100
AcDbEntity
  8
Capa 1
 62
     7
370
    25
100
AcDbVertex
100
AcDb2dVertex
 10
45.84546615918727
 20
225.0475659410893
 30
0.0
  0
VERTEX
  5
284
330
282
100
AcDbEntity
  8
Capa 1
 62
     7
370
    25
100
AcDbVertex
100
AcDb2dVertex
 10
46.45938257965604
 20
225.0475659410893
 30
0.0
  0
SEQEND
  5
285
330
282
100
AcDbEntity
  8
Capa 1
370
    25
  0
ENDBLK
  5
281
330
27E
100
AcDbEntity
  8
0
100
AcDbBlockEnd
  0
BLOCK
  5
288
330
286
100
AcDbEntity
  8
0
100
AcDbBlockBegin
  2
block 83
 70
     0
 71
     0
 10
0.0
 20
0.0
 30
0.0
  3
block 83
  1

  0
POLYLINE
  5
28A
330
286
100
AcDbEntity
  8
Capa 1
 62
     7
370
    25
100
AcDb2dPolyline
 66
     1
 10
0.0
 20
0.0
 30
0.0
  0
VERTEX
  5
28B
330
28A
100
AcDbEntity
  8
Capa 1
 62
     7
370
    25
100
AcDbVertex
100
AcDb2dVertex
 10
117.7792796003152
 20
232.3988877919159
 30
0.0
  0
VERTEX
  5
28C
330
28A
100
AcDbEntity
  8
Capa 1
 62
     7
370
    25
100
AcDbVertex
100
AcDb2dVertex
 10
37.56345114904737
 20
232.3988877919159
 30
0.0
  0
SEQEND
  5
28D
330
28A
100
AcDbEntity
  8
Capa 1
370
    25
  0
ENDBLK
  5
289
330
286
100
AcDbEntity
  8
0
100
AcDbBlockEnd
  0
BLOCK
  5
290
330
28E
100
AcDbEntity
  8
0
100
AcDbBlockBegin
  2
block 84
 70
     0
 71
     0
 10
0.0
 20
0.0
 30
0.0
  3
block 84
  1

  0
POLYLINE
  5
292
330
28E
100
AcDbEntity
  8
Capa 1
 62
     7
370
    25
100
AcDb2dPolyline
 66
     1
 10
0.0
 20
0.0
 30
0.0
  0
VERTEX
  5
293
330
292
100
AcDbEntity
  8
Capa 1
 62
     7
370
    25
100
AcDbVertex
100
AcDb2dVertex
 10
36.98932560768306
 20
220.839551284627
 30
0.0
  0
VERTEX
  5
294
330
292
100
AcDbEntity
  8
Capa 1
 62
     7
370
    25
100
AcDbVertex
100
AcDb2dVertex
 10
41.84915275995171
 20
220.839551284627
 30
0.0
  0
SEQEND
  5
295
330
292
100
AcDbEntity
  8
Capa 1
370
    25
  0
ENDBLK
  5
291
330
28E
100
AcDbEntity
  8
0
100
AcDbBlockEnd
  0
BLOCK
  5
298
330
296
100
AcDbEntity
  8
0
100
AcDbBlockBegin
  2
block 85
 70
     0
 71
     0
 10
0.0
 20
0.0
 30
0.0
  3
block 85
  1

  0
POLYLINE
  5
29A
330
296
100
AcDbEntity
  8
Capa 1
 62
     7
370
    25
100
AcDb2dPolyline
 66
     1
 10
0.0
 20
0.0
 30
0.0
  0
VERTEX
  5
29B
330
29A
100
AcDbEntity
  8
Capa 1
 62
     7
370
    25
100
AcDbVertex
100
AcDb2dVertex
 10
41.84915275995171
 20
220.839551284627
 30
0.0
  0
VERTEX
  5
29C
330
29A
100
AcDbEntity
  8
Capa 1
 62
     7
370
    25
100
AcDbVertex
100
AcDb2dVertex
 10
111.7193526440606
 20
220.839551284627
 30
0.0
  0
SEQEND
  5
29D
330
29A
100
AcDbEntity
  8
Capa 1
370
    25
  0
ENDBLK
  5
299
330
296
100
AcDbEntity
  8
0
100
AcDbBlockEnd
  0
BLOCK
  5
2A0
330
29E
100
AcDbEntity
  8
0
100
AcDbBlockBegin
  2
block 86
 70
     0
 71
     0
 10
0.0
 20
0.0
 30
0.0
  3
block 86
  1

  0
POLYLINE
  5
2A2
330
29E
100
AcDbEntity
  8
Capa 1
 62
     7
370
    25
100
AcDb2dPolyline
 66
     1
 10
0.0
 20
0.0
 30
0.0
  0
VERTEX
  5
2A3
330
2A2
100
AcDbEntity
  8
Capa 1
 62
     7
370
    25
100
AcDbVertex
100
AcDb2dVertex
 10
117.7792796003152
 20
220.839551284627
 30
0.0
  0
VERTEX
  5
2A4
330
2A2
100
AcDbEntity
  8
Capa 1
 62
     7
370
    25
100
AcDbVertex
100
AcDb2dVertex
 10
117.7803131296426
 20
220.839551284627
 30
0.0
  0
SEQEND
  5
2A5
330
2A2
100
AcDbEntity
  8
Capa 1
370
    25
  0
ENDBLK
  5
2A1
330
29E
100
AcDbEntity
  8
0
100
AcDbBlockEnd
  0
BLOCK
  5
2A8
330
2A6
100
AcDbEntity
  8
0
100
AcDbBlockBegin
  2
block 87
 70
     0
 71
     0
 10
0.0
 20
0.0
 30
0.0
  3
block 87
  1

  0
POLYLINE
  5
2AA
330
2A6
100
AcDbEntity
  8
Capa 1
 62
     7
370
    25
100
AcDb2dPolyline
 66
     1
 10
0.0
 20
0.0
 30
0.0
  0
VERTEX
  5
2AB
330
2AA
100
AcDbEntity
  8
Capa 1
 62
     7
370
    25
100
AcDbVertex
100
AcDb2dVertex
 10
113.4946115187383
 20
220.839551284627
 30
0.0
  0
VERTEX
  5
2AC
330
2AA
100
AcDbEntity
  8
Capa 1
 62
     7
370
    25
100
AcDbVertex
100
AcDb2dVertex
 10
122.0646367014438
 20
220.839551284627
 30
0.0
  0
SEQEND
  5
2AD
330
2AA
100
AcDbEntity
  8
Capa 1
370
    25
  0
ENDBLK
  5
2A9
330
2A6
100
AcDbEntity
  8
0
100
AcDbBlockEnd
  0
BLOCK
  5
2B0
330
2AE
100
AcDbEntity
  8
0
100
AcDbBlockBegin
  2
block 88
 70
     0
 71
     0
 10
0.0
 20
0.0
 30
0.0
  3
block 88
  1

  0
POLYLINE
  5
2B2
330
2AE
100
AcDbEntity
  8
Capa 1
 62
     7
370
    25
100
AcDb2dPolyline
 66
     1
 10
0.0
 20
0.0
 30
0.0
  0
VERTEX
  5
2B3
330
2B2
100
AcDbEntity
  8
Capa 1
 62
     7
370
    25
100
AcDbVertex
100
AcDb2dVertex
 10
122.0646367014438
 20
220.839551284627
 30
0.0
  0
VERTEX
  5
2B4
330
2B2
100
AcDbEntity
  8
Capa 1
 62
     7
370
    25
100
AcDbVertex
100
AcDb2dVertex
 10
123.8392065565698
 20
220.839551284627
 30
0.0
  0
SEQEND
  5
2B5
330
2B2
100
AcDbEntity
  8
Capa 1
370
    25
  0
ENDBLK
  5
2B1
330
2AE
100
AcDbEntity
  8
0
100
AcDbBlockEnd
  0
BLOCK
  5
2B8
330
2B6
100
AcDbEntity
  8
0
100
AcDbBlockBegin
  2
block 89
 70
     0
 71
     0
 10
0.0
 20
0.0
 30
0.0
  3
block 89
  1

  0
POLYLINE
  5
2BA
330
2B6
100
AcDbEntity
  8
Capa 1
 62
     7
370
    25
100
AcDb2dPolyline
 66
     1
 10
0.0
 20
0.0
 30
0.0
  0
VERTEX
  5
2BB
330
2BA
100
AcDbEntity
  8
Capa 1
 62
     7
370
    25
100
AcDbVertex
100
AcDb2dVertex
 10
111.7193526440606
 20
220.839551284627
 30
0.0
  0
VERTEX
  5
2BC
330
2BA
100
AcDbEntity
  8
Capa 1
 62
     7
370
    25
100
AcDbVertex
100
AcDb2dVertex
 10
113.4946115187383
 20
220.839551284627
 30
0.0
  0
SEQEND
  5
2BD
330
2BA
100
AcDbEntity
  8
Capa 1
370
    25
  0
ENDBLK
  5
2B9
330
2B6
100
AcDbEntity
  8
0
100
AcDbBlockEnd
  0
BLOCK
  5
2C0
330
2BE
100
AcDbEntity
  8
0
100
AcDbBlockBegin
  2
block 90
 70
     0
 71
     0
 10
0.0
 20
0.0
 30
0.0
  3
block 90
  1

  0
POLYLINE
  5
2C2
330
2BE
100
AcDbEntity
  8
Capa 1
 62
     7
370
    25
100
AcDb2dPolyline
 66
     1
 10
0.0
 20
0.0
 30
0.0
  0
VERTEX
  5
2C3
330
2C2
100
AcDbEntity
  8
Capa 1
 62
     7
370
    25
100
AcDbVertex
100
AcDb2dVertex
 10
43.65369496557204
 20
93.39522217923819
 30
0.0
  0
VERTEX
  5
2C4
330
2C2
100
AcDbEntity
  8
Capa 1
 62
     7
370
    25
100
AcDbVertex
100
AcDb2dVertex
 10
191.9050364899463
 20
93.39522217923819
 30
0.0
  0
SEQEND
  5
2C5
330
2C2
100
AcDbEntity
  8
Capa 1
370
    25
  0
ENDBLK
  5
2C1
330
2BE
100
AcDbEntity
  8
0
100
AcDbBlockEnd
  0
BLOCK
  5
2C8
330
2C6
100
AcDbEntity
  8
0
100
AcDbBlockBegin
  2
block 91
 70
     0
 71
     0
 10
0.0
 20
0.0
 30
0.0
  3
block 91
  1

  0
SPLINE
  5
2CA
330
2C6
100
AcDbEntity
  8
Capa 1
 62
     7
370
    25
100
AcDbSpline
210
0.0
220
0.0
230
1.0
 70
     8
 71
     3
 72
    14
 73
    10
 74
     0
 42
0.0000000001
 43
0.0000000001
 40
0.0
 40
0.0
 40
0.0
 40
0.0
 40
1.0
 40
1.0
 40
1.0
 40
2.0
 40
2.0
 40
2.0
 40
3.0
 40
3.0
 40
3.0
 40
3.0
 10
117.7792796003152
 20
104.8201998739665
 30
0.0
 10
121.2347126515508
 20
104.8201998739665
 30
0.0
 10
124.0362661483252
 20
107.6214088609652
 30
0.0
 10
124.0362661483252
 20
111.0768419122008
 30
0.0
 10
124.0362661483252
 20
114.5319304536605
 30
0.0
 10
121.2347126515508
 20
117.3331394406592
 30
0.0
 10
117.7792796003152
 20
117.3331394406592
 30
0.0
 10
117.7792796003152
 20
117.3331394406592
 30
0.0
 10
117.7792796003152
 20
117.3331394406592
 30
0.0
 10
117.7792796003152
 20
117.3331394406592
 30
0.0
  0
ENDBLK
  5
2C9
330
2C6
100
AcDbEntity
  8
0
100
AcDbBlockEnd
  0
BLOCK
  5
2CD
330
2CB
100
AcDbEntity
  8
0
100
AcDbBlockBegin
  2
block 92
 70
     0
 71
     0
 10
0.0
 20
0.0
 30
0.0
  3
block 92
  1

  0
SPLINE
  5
2CF
330
2CB
100
AcDbEntity
  8
Capa 1
 62
     7
370
    25
100
AcDbSpline
210
0.0
220
0.0
230
1.0
 70
     8
 71
     3
 72
    14
 73
    10
 74
     0
 42
0.0000000001
 43
0.0000000001
 40
0.0
 40
0.0
 40
0.0
 40
0.0
 40
1.0
 40
1.0
 40
1.0
 40
2.0
 40
2.0
 40
2.0
 40
3.0
 40
3.0
 40
3.0
 40
3.0
 10
117.7792796003152
 20
117.3331394406592
 30
0.0
 10
114.3238465490796
 20
117.3331394406592
 30
0.0
 10
111.5233265816326
 20
114.5319304536605
 30
0.0
 10
111.5233265816326
 20
111.0768419122008
 30
0.0
 10
111.5233265816326
 20
107.6214088609652
 30
0.0
 10
114.3238465490796
 20
104.8201998739665
 30
0.0
 10
117.7792796003152
 20
104.8201998739665
 30
0.0
 10
117.7792796003152
 20
104.8201998739665
 30
0.0
 10
117.7792796003152
 20
104.8201998739665
 30
0.0
 10
117.7792796003152
 20
104.8201998739665
 30
0.0
  0
ENDBLK
  5
2CE
330
2CB
100
AcDbEntity
  8
0
100
AcDbBlockEnd
  0
BLOCK
  5
2D2
330
2D0
100
AcDbEntity
  8
0
100
AcDbBlockBegin
  2
block 93
 70
     0
 71
     0
 10
0.0
 20
0.0
 30
0.0
  3
block 93
  1

  0
POLYLINE
  5
2D4
330
2D0
100
AcDbEntity
  8
Capa 1
 62
     7
370
    25
100
AcDb2dPolyline
 66
     1
 10
0.0
 20
0.0
 30
0.0
  0
VERTEX
  5
2D5
330
2D4
100
AcDbEntity
  8
Capa 1
 62
     7
370
    25
100
AcDbVertex
100
AcDb2dVertex
 10
38.48518705419002
 20
178.8098754021581
 30
0.0
  0
VERTEX
  5
2D6
330
2D4
100
AcDbEntity
  8
Capa 1
 62
     7
370
    25
100
AcDbVertex
100
AcDb2dVertex
 10
48.4143033024114
 20
168.8811036637125
 30
0.0
  0
SEQEND
  5
2D7
330
2D4
100
AcDbEntity
  8
Capa 1
370
    25
  0
ENDBLK
  5
2D3
330
2D0
100
AcDbEntity
  8
0
100
AcDbBlockEnd
  0
BLOCK
  5
2DA
330
2D8
100
AcDbEntity
  8
0
100
AcDbBlockBegin
  2
block 94
 70
     0
 71
     0
 10
0.0
 20
0.0
 30
0.0
  3
block 94
  1

  0
POLYLINE
  5
2DC
330
2D8
100
AcDbEntity
  8
Capa 1
 62
     7
370
    25
100
AcDb2dPolyline
 66
     1
 10
0.0
 20
0.0
 30
0.0
  0
VERTEX
  5
2DD
330
2DC
100
AcDbEntity
  8
Capa 1
 62
     7
370
    25
100
AcDbVertex
100
AcDb2dVertex
 10
187.1452894275464
 20
168.8811036637125
 30
0.0
  0
VERTEX
  5
2DE
330
2DC
100
AcDbEntity
  8
Capa 1
 62
     7
370
    25
100
AcDbVertex
100
AcDb2dVertex
 10
197.074061165992
 20
178.8098754021581
 30
0.0
  0
SEQEND
  5
2DF
330
2DC
100
AcDbEntity
  8
Capa 1
370
    25
  0
ENDBLK
  5
2DB
330
2D8
100
AcDbEntity
  8
0
100
AcDbBlockEnd
  0
BLOCK
  5
2E2
330
2E0
100
AcDbEntity
  8
0
100
AcDbBlockBegin
  2
block 95
 70
     0
 71
     0
 10
0.0
 20
0.0
 30
0.0
  3
block 95
  1

  0
SPLINE
  5
2E4
330
2E0
100
AcDbEntity
  8
Capa 1
 62
     7
370
    25
100
AcDbSpline
210
0.0
220
0.0
230
1.0
 70
    11
 71
     3
 72
    23
 73
    19
 74
     0
 42
0.0000000001
 43
0.0000000001
 40
0.0
 40
0.0
 40
0.0
 40
0.0
 40
1.0
 40
1.0
 40
1.0
 40
2.0
 40
2.0
 40
2.0
 40
3.0
 40
3.0
 40
3.0
 40
4.0
 40
4.0
 40
4.0
 40
5.0
 40
5.0
 40
5.0
 40
6.0
 40
6.0
 40
6.0
 40
6.0
 10
177.7949496026626
 20
158.3401380536772
 30
0.0
 10
177.7949496026626
 20
159.4670295303064
 30
0.0
 10
176.8813096772512
 20
160.3801526910542
 30
0.0
 10
175.7547627103977
 20
160.3801526910542
 30
0.0
 10
174.62856025332
 20
160.3801526910542
 30
0.0
 10
173.7149203279086
 20
159.4670295303064
 30
0.0
 10
173.7149203279086
 20
158.3401380536772
 30
0.0
 10
173.7149203279086
 20
157.2137633417116
 30
0.0
 10
174.62856025332
 20
156.3001234163002
 30
0.0
 10
175.7547627103977
 20
156.3001234163002
 30
0.0
 10
176.8813096772512
 20
156.3001234163002
 30
0.0
 10
177.7949496026626
 20
157.2137633417116
 30
0.0
 10
177.7949496026626
 20
158.3401380536772
 30
0.0
 10
177.7949496026626
 20
158.3401380536772
 30
0.0
 10
177.7949496026626
 20
158.3401380536772
 30
0.0
 10
177.7949496026626
 20
158.3401380536772
 30
0.0
 10
177.7949496026626
 20
158.3401380536772
 30
0.0
 10
177.7949496026626
 20
158.3401380536772
 30
0.0
 10
177.7949496026626
 20
158.3401380536772
 30
0.0
  0
ENDBLK
  5
2E3
330
2E0
100
AcDbEntity
  8
0
100
AcDbBlockEnd
  0
BLOCK
  5
2E7
330
2E5
100
AcDbEntity
  8
0
100
AcDbBlockBegin
  2
block 96
 70
     0
 71
     0
 10
0.0
 20
0.0
 30
0.0
  3
block 96
  1

  0
SPLINE
  5
2E9
330
2E5
100
AcDbEntity
  8
Capa 1
 62
     7
370
    25
100
AcDbSpline
210
0.0
220
0.0
230
1.0
 70
    11
 71
     3
 72
    23
 73
    19
 74
     0
 42
0.0000000001
 43
0.0000000001
 40
0.0
 40
0.0
 40
0.0
 40
0.0
 40
1.0
 40
1.0
 40
1.0
 40
2.0
 40
2.0
 40
2.0
 40
3.0
 40
3.0
 40
3.0
 40
4.0
 40
4.0
 40
4.0
 40
5.0
 40
5.0
 40
5.0
 40
6.0
 40
6.0
 40
6.0
 40
6.0
 10
166.3351764205788
 20
158.3401380536772
 30
0.0
 10
166.3351764205788
 20
159.4670295303064
 30
0.0
 10
165.4215364951674
 20
160.3801526910542
 30
0.0
 10
164.2953340380897
 20
160.3801526910542
 30
0.0
 10
163.1687870712363
 20
160.3801526910542
 30
0.0
 10
162.2551471458248
 20
159.4670295303064
 30
0.0
 10
162.2551471458248
 20
158.3401380536772
 30
0.0
 10
162.2551471458248
 20
157.2137633417116
 30
0.0
 10
163.1687870712363
 20
156.3001234163002
 30
0.0
 10
164.2953340380897
 20
156.3001234163002
 30
0.0
 10
165.4215364951674
 20
156.3001234163002
 30
0.0
 10
166.3351764205788
 20
157.2137633417116
 30
0.0
 10
166.3351764205788
 20
158.3401380536772
 30
0.0
 10
166.3351764205788
 20
158.3401380536772
 30
0.0
 10
166.3351764205788
 20
158.3401380536772
 30
0.0
 10
166.3351764205788
 20
158.3401380536772
 30
0.0
 10
166.3351764205788
 20
158.3401380536772
 30
0.0
 10
166.3351764205788
 20
158.3401380536772
 30
0.0
 10
166.3351764205788
 20
158.3401380536772
 30
0.0
  0
ENDBLK
  5
2E8
330
2E5
100
AcDbEntity
  8
0
100
AcDbBlockEnd
  0
BLOCK
  5
2EC
330
2EA
100
AcDbEntity
  8
0
100
AcDbBlockBegin
  2
block 97
 70
     0
 71
     0
 10
0.0
 20
0.0
 30
0.0
  3
block 97
  1

  0
SPLINE
  5
2EE
330
2EA
100
AcDbEntity
  8
Capa 1
 62
     7
370
    25
100
AcDbSpline
210
0.0
220
0.0
230
1.0
 70
    11
 71
     3
 72
    23
 73
    19
 74
     0
 42
0.0000000001
 43
0.0000000001
 40
0.0
 40
0.0
 40
0.0
 40
0.0
 40
1.0
 40
1.0
 40
1.0
 40
2.0
 40
2.0
 40
2.0
 40
3.0
 40
3.0
 40
3.0
 40
4.0
 40
4.0
 40
4.0
 40
5.0
 40
5.0
 40
5.0
 40
6.0
 40
6.0
 40
6.0
 40
6.0
 10
155.04628008729
 20
158.3401380536772
 30
0.0
 10
155.04628008729
 20
159.4670295303064
 30
0.0
 10
154.1336736912059
 20
160.3801526910542
 30
0.0
 10
153.0060931950251
 20
160.3801526910542
 30
0.0
 10
151.8798907379474
 20
160.3801526910542
 30
0.0
 10
150.966250812536
 20
159.4670295303064
 30
0.0
 10
150.966250812536
 20
158.3401380536772
 30
0.0
 10
150.966250812536
 20
157.2137633417116
 30
0.0
 10
151.8798907379474
 20
156.3001234163002
 30
0.0
 10
153.0060931950251
 20
156.3001234163002
 30
0.0
 10
154.1336736912059
 20
156.3001234163002
 30
0.0
 10
155.04628008729
 20
157.2137633417116
 30
0.0
 10
155.04628008729
 20
158.3401380536772
 30
0.0
 10
155.04628008729
 20
158.3401380536772
 30
0.0
 10
155.04628008729
 20
158.3401380536772
 30
0.0
 10
155.04628008729
 20
158.3401380536772
 30
0.0
 10
155.04628008729
 20
158.3401380536772
 30
0.0
 10
155.04628008729
 20
158.3401380536772
 30
0.0
 10
155.04628008729
 20
158.3401380536772
 30
0.0
  0
ENDBLK
  5
2ED
330
2EA
100
AcDbEntity
  8
0
100
AcDbBlockEnd
  0
BLOCK
  5
2F1
330
2EF
100
AcDbEntity
  8
0
100
AcDbBlockBegin
  2
block 98
 70
     0
 71
     0
 10
0.0
 20
0.0
 30
0.0
  3
block 98
  1

  0
SPLINE
  5
2F3
330
2EF
100
AcDbEntity
  8
Capa 1
 62
     7
370
    25
100
AcDbSpline
210
0.0
220
0.0
230
1.0
 70
    11
 71
     3
 72
    23
 73
    19
 74
     0
 42
0.0000000001
 43
0.0000000001
 40
0.0
 40
0.0
 40
0.0
 40
0.0
 40
1.0
 40
1.0
 40
1.0
 40
2.0
 40
2.0
 40
2.0
 40
3.0
 40
3.0
 40
3.0
 40
4.0
 40
4.0
 40
4.0
 40
5.0
 40
5.0
 40
5.0
 40
6.0
 40
6.0
 40
6.0
 40
6.0
 10
177.7949496026626
 20
113.1845527205217
 30
0.0
 10
177.7949496026626
 20
114.3117887069268
 30
0.0
 10
176.8813096772512
 20
115.2247396127866
 30
0.0
 10
175.7547627103977
 20
115.2247396127866
 30
0.0
 10
174.62856025332
 20
115.2247396127866
 30
0.0
 10
173.7149203279086
 20
114.3117887069268
 30
0.0
 10
173.7149203279086
 20
113.1845527205217
 30
0.0
 10
173.7149203279086
 20
112.0576612438925
 30
0.0
 10
174.62856025332
 20
111.1447103380326
 30
0.0
 10
175.7547627103977
 20
111.1447103380326
 30
0.0
 10
176.8813096772512
 20
111.1447103380326
 30
0.0
 10
177.7949496026626
 20
112.0576612438925
 30
0.0
 10
177.7949496026626
 20
113.1845527205217
 30
0.0
 10
177.7949496026626
 20
113.1845527205217
 30
0.0
 10
177.7949496026626
 20
113.1845527205217
 30
0.0
 10
177.7949496026626
 20
113.1845527205217
 30
0.0
 10
177.7949496026626
 20
113.1845527205217
 30
0.0
 10
177.7949496026626
 20
113.1845527205217
 30
0.0
 10
177.7949496026626
 20
113.1845527205217
 30
0.0
  0
ENDBLK
  5
2F2
330
2EF
100
AcDbEntity
  8
0
100
AcDbBlockEnd
  0
BLOCK
  5
2F6
330
2F4
100
AcDbEntity
  8
0
100
AcDbBlockBegin
  2
block 99
 70
     0
 71
     0
 10
0.0
 20
0.0
 30
0.0
  3
block 99
  1

  0
SPLINE
  5
2F8
330
2F4
100
AcDbEntity
  8
Capa 1
 62
     7
370
    25
100
AcDbSpline
210
0.0
220
0.0
230
1.0
 70
    11
 71
     3
 72
    23
 73
    19
 74
     0
 42
0.0000000001
 43
0.0000000001
 40
0.0
 40
0.0
 40
0.0
 40
0.0
 40
1.0
 40
1.0
 40
1.0
 40
2.0
 40
2.0
 40
2.0
 40
3.0
 40
3.0
 40
3.0
 40
4.0
 40
4.0
 40
4.0
 40
5.0
 40
5.0
 40
5.0
 40
6.0
 40
6.0
 40
6.0
 40
6.0
 10
166.3351764205788
 20
113.1845527205217
 30
0.0
 10
166.3351764205788
 20
114.3117887069268
 30
0.0
 10
165.4215364951674
 20
115.2247396127866
 30
0.0
 10
164.2953340380897
 20
115.2247396127866
 30
0.0
 10
163.1687870712363
 20
115.2247396127866
 30
0.0
 10
162.2551471458248
 20
114.3117887069268
 30
0.0
 10
162.2551471458248
 20
113.1845527205217
 30
0.0
 10
162.2551471458248
 20
112.0576612438925
 30
0.0
 10
163.1687870712363
 20
111.1447103380326
 30
0.0
 10
164.2953340380897
 20
111.1447103380326
 30
0.0
 10
165.4215364951674
 20
111.1447103380326
 30
0.0
 10
166.3351764205788
 20
112.0576612438925
 30
0.0
 10
166.3351764205788
 20
113.1845527205217
 30
0.0
 10
166.3351764205788
 20
113.1845527205217
 30
0.0
 10
166.3351764205788
 20
113.1845527205217
 30
0.0
 10
166.3351764205788
 20
113.1845527205217
 30
0.0
 10
166.3351764205788
 20
113.1845527205217
 30
0.0
 10
166.3351764205788
 20
113.1845527205217
 30
0.0
 10
166.3351764205788
 20
113.1845527205217
 30
0.0
  0
ENDBLK
  5
2F7
330
2F4
100
AcDbEntity
  8
0
100
AcDbBlockEnd
  0
BLOCK
  5
2FB
330
2F9
100
AcDbEntity
  8
0
100
AcDbBlockBegin
  2
block 100
 70
     0
 71
     0
 10
0.0
 20
0.0
 30
0.0
  3
block 100
  1

  0
SPLINE
  5
2FD
330
2F9
100
AcDbEntity
  8
Capa 1
 62
     7
370
    25
100
AcDbSpline
210
0.0
220
0.0
230
1.0
 70
    11
 71
     3
 72
    23
 73
    19
 74
     0
 42
0.0000000001
 43
0.0000000001
 40
0.0
 40
0.0
 40
0.0
 40
0.0
 40
1.0
 40
1.0
 40
1.0
 40
2.0
 40
2.0
 40
2.0
 40
3.0
 40
3.0
 40
3.0
 40
4.0
 40
4.0
 40
4.0
 40
5.0
 40
5.0
 40
5.0
 40
6.0
 40
6.0
 40
6.0
 40
6.0
 10
155.04628008729
 20
113.1845527205217
 30
0.0
 10
155.04628008729
 20
114.3117887069268
 30
0.0
 10
154.1336736912059
 20
115.2247396127866
 30
0.0
 10
153.0060931950251
 20
115.2247396127866
 30
0.0
 10
151.8798907379474
 20
115.2247396127866
 30
0.0
 10
150.966250812536
 20
114.3117887069268
 30
0.0
 10
150.966250812536
 20
113.1845527205217
 30
0.0
 10
150.966250812536
 20
112.0576612438925
 30
0.0
 10
151.8798907379474
 20
111.1447103380326
 30
0.0
 10
153.0060931950251
 20
111.1447103380326
 30
0.0
 10
154.1336736912059
 20
111.1447103380326
 30
0.0
 10
155.04628008729
 20
112.0576612438925
 30
0.0
 10
155.04628008729
 20
113.1845527205217
 30
0.0
 10
155.04628008729
 20
113.1845527205217
 30
0.0
 10
155.04628008729
 20
113.1845527205217
 30
0.0
 10
155.04628008729
 20
113.1845527205217
 30
0.0
 10
155.04628008729
 20
113.1845527205217
 30
0.0
 10
155.04628008729
 20
113.1845527205217
 30
0.0
 10
155.04628008729
 20
113.1845527205217
 30
0.0
  0
ENDBLK
  5
2FC
330
2F9
100
AcDbEntity
  8
0
100
AcDbBlockEnd
  0
BLOCK
  5
300
330
2FE
100
AcDbEntity
  8
0
100
AcDbBlockBegin
  2
block 101
 70
     0
 71
     0
 10
0.0
 20
0.0
 30
0.0
  3
block 101
  1

  0
SPLINE
  5
302
330
2FE
100
AcDbEntity
  8
Capa 1
 62
     7
370
    25
100
AcDbSpline
210
0.0
220
0.0
230
1.0
 70
    11
 71
     3
 72
    23
 73
    19
 74
     0
 42
0.0000000001
 43
0.0000000001
 40
0.0
 40
0.0
 40
0.0
 40
0.0
 40
1.0
 40
1.0
 40
1.0
 40
2.0
 40
2.0
 40
2.0
 40
3.0
 40
3.0
 40
3.0
 40
4.0
 40
4.0
 40
4.0
 40
5.0
 40
5.0
 40
5.0
 40
6.0
 40
6.0
 40
6.0
 40
6.0
 10
177.7949496026626
 20
135.7626898968752
 30
0.0
 10
177.7949496026626
 20
136.8892368637287
 30
0.0
 10
176.8813096772512
 20
137.8025322793644
 30
0.0
 10
175.7547627103977
 20
137.8025322793644
 30
0.0
 10
174.62856025332
 20
137.8025322793644
 30
0.0
 10
173.7149203279086
 20
136.8892368637287
 30
0.0
 10
173.7149203279086
 20
135.7626898968752
 30
0.0
 10
173.7149203279086
 20
134.635798420246
 30
0.0
 10
174.62856025332
 20
133.7221584948345
 30
0.0
 10
175.7547627103977
 20
133.7221584948345
 30
0.0
 10
176.8813096772512
 20
133.7221584948345
 30
0.0
 10
177.7949496026626
 20
134.635798420246
 30
0.0
 10
177.7949496026626
 20
135.7626898968752
 30
0.0
 10
177.7949496026626
 20
135.7626898968752
 30
0.0
 10
177.7949496026626
 20
135.7626898968752
 30
0.0
 10
177.7949496026626
 20
135.7626898968752
 30
0.0
 10
177.7949496026626
 20
135.7626898968752
 30
0.0
 10
177.7949496026626
 20
135.7626898968752
 30
0.0
 10
177.7949496026626
 20
135.7626898968752
 30
0.0
  0
ENDBLK
  5
301
330
2FE
100
AcDbEntity
  8
0
100
AcDbBlockEnd
  0
BLOCK
  5
305
330
303
100
AcDbEntity
  8
0
100
AcDbBlockBegin
  2
block 102
 70
     0
 71
     0
 10
0.0
 20
0.0
 30
0.0
  3
block 102
  1

  0
SPLINE
  5
307
330
303
100
AcDbEntity
  8
Capa 1
 62
     7
370
    25
100
AcDbSpline
210
0.0
220
0.0
230
1.0
 70
    11
 71
     3
 72
    23
 73
    19
 74
     0
 42
0.0000000001
 43
0.0000000001
 40
0.0
 40
0.0
 40
0.0
 40
0.0
 40
1.0
 40
1.0
 40
1.0
 40
2.0
 40
2.0
 40
2.0
 40
3.0
 40
3.0
 40
3.0
 40
4.0
 40
4.0
 40
4.0
 40
5.0
 40
5.0
 40
5.0
 40
6.0
 40
6.0
 40
6.0
 40
6.0
 10
166.3351764205788
 20
135.7626898968752
 30
0.0
 10
166.3351764205788
 20
136.8892368637287
 30
0.0
 10
165.4215364951674
 20
137.8025322793644
 30
0.0
 10
164.2953340380897
 20
137.8025322793644
 30
0.0
 10
163.1687870712363
 20
137.8025322793644
 30
0.0
 10
162.2551471458248
 20
136.8892368637287
 30
0.0
 10
162.2551471458248
 20
135.7626898968752
 30
0.0
 10
162.2551471458248
 20
134.635798420246
 30
0.0
 10
163.1687870712363
 20
133.7221584948345
 30
0.0
 10
164.2953340380897
 20
133.7221584948345
 30
0.0
 10
165.4215364951674
 20
133.7221584948345
 30
0.0
 10
166.3351764205788
 20
134.635798420246
 30
0.0
 10
166.3351764205788
 20
135.7626898968752
 30
0.0
 10
166.3351764205788
 20
135.7626898968752
 30
0.0
 10
166.3351764205788
 20
135.7626898968752
 30
0.0
 10
166.3351764205788
 20
135.7626898968752
 30
0.0
 10
166.3351764205788
 20
135.7626898968752
 30
0.0
 10
166.3351764205788
 20
135.7626898968752
 30
0.0
 10
166.3351764205788
 20
135.7626898968752
 30
0.0
  0
ENDBLK
  5
306
330
303
100
AcDbEntity
  8
0
100
AcDbBlockEnd
  0
BLOCK
  5
30A
330
308
100
AcDbEntity
  8
0
100
AcDbBlockBegin
  2
block 103
 70
     0
 71
     0
 10
0.0
 20
0.0
 30
0.0
  3
block 103
  1

  0
SPLINE
  5
30C
330
308
100
AcDbEntity
  8
Capa 1
 62
     7
370
    25
100
AcDbSpline
210
0.0
220
0.0
230
1.0
 70
    11
 71
     3
 72
    23
 73
    19
 74
     0
 42
0.0000000001
 43
0.0000000001
 40
0.0
 40
0.0
 40
0.0
 40
0.0
 40
1.0
 40
1.0
 40
1.0
 40
2.0
 40
2.0
 40
2.0
 40
3.0
 40
3.0
 40
3.0
 40
4.0
 40
4.0
 40
4.0
 40
5.0
 40
5.0
 40
5.0
 40
6.0
 40
6.0
 40
6.0
 40
6.0
 10
155.04628008729
 20
135.7626898968752
 30
0.0
 10
155.04628008729
 20
136.8892368637287
 30
0.0
 10
154.1336736912059
 20
137.8025322793644
 30
0.0
 10
153.0060931950251
 20
137.8025322793644
 30
0.0
 10
151.8798907379474
 20
137.8025322793644
 30
0.0
 10
150.966250812536
 20
136.8892368637287
 30
0.0
 10
150.966250812536
 20
135.7626898968752
 30
0.0
 10
150.966250812536
 20
134.635798420246
 30
0.0
 10
151.8798907379474
 20
133.7221584948345
 30
0.0
 10
153.0060931950251
 20
133.7221584948345
 30
0.0
 10
154.1336736912059
 20
133.7221584948345
 30
0.0
 10
155.04628008729
 20
134.635798420246
 30
0.0
 10
155.04628008729
 20
135.7626898968752
 30
0.0
 10
155.04628008729
 20
135.7626898968752
 30
0.0
 10
155.04628008729
 20
135.7626898968752
 30
0.0
 10
155.04628008729
 20
135.7626898968752
 30
0.0
 10
155.04628008729
 20
135.7626898968752
 30
0.0
 10
155.04628008729
 20
135.7626898968752
 30
0.0
 10
155.04628008729
 20
135.7626898968752
 30
0.0
  0
ENDBLK
  5
30B
330
308
100
AcDbEntity
  8
0
100
AcDbBlockEnd
  0
BLOCK
  5
30F
330
30D
100
AcDbEntity
  8
0
100
AcDbBlockBegin
  2
block 104
 70
     0
 71
     0
 10
0.0
 20
0.0
 30
0.0
  3
block 104
  1

  0
SPLINE
  5
311
330
30D
100
AcDbEntity
  8
Capa 1
 62
     7
370
    25
100
AcDbSpline
210
0.0
220
0.0
230
1.0
 70
    11
 71
     3
 72
    23
 73
    19
 74
     0
 42
0.0000000001
 43
0.0000000001
 40
0.0
 40
0.0
 40
0.0
 40
0.0
 40
1.0
 40
1.0
 40
1.0
 40
2.0
 40
2.0
 40
2.0
 40
3.0
 40
3.0
 40
3.0
 40
4.0
 40
4.0
 40
4.0
 40
5.0
 40
5.0
 40
5.0
 40
6.0
 40
6.0
 40
6.0
 40
6.0
 10
166.3351764205788
 20
147.0512417203883
 30
0.0
 10
166.3351764205788
 20
148.1781331970176
 30
0.0
 10
165.4215364951674
 20
149.0916008675411
 30
0.0
 10
164.2953340380897
 20
149.0916008675411
 30
0.0
 10
163.1687870712363
 20
149.0916008675411
 30
0.0
 10
162.2551471458248
 20
148.1781331970176
 30
0.0
 10
162.2551471458248
 20
147.0512417203883
 30
0.0
 10
162.2551471458248
 20
145.9246947535348
 30
0.0
 10
163.1687870712363
 20
145.0110548281234
 30
0.0
 10
164.2953340380897
 20
145.0110548281234
 30
0.0
 10
165.4215364951674
 20
145.0110548281234
 30
0.0
 10
166.3351764205788
 20
145.9246947535348
 30
0.0
 10
166.3351764205788
 20
147.0512417203883
 30
0.0
 10
166.3351764205788
 20
147.0512417203883
 30
0.0
 10
166.3351764205788
 20
147.0512417203883
 30
0.0
 10
166.3351764205788
 20
147.0512417203883
 30
0.0
 10
166.3351764205788
 20
147.0512417203883
 30
0.0
 10
166.3351764205788
 20
147.0512417203883
 30
0.0
 10
166.3351764205788
 20
147.0512417203883
 30
0.0
  0
ENDBLK
  5
310
330
30D
100
AcDbEntity
  8
0
100
AcDbBlockEnd
  0
BLOCK
  5
314
330
312
100
AcDbEntity
  8
0
100
AcDbBlockBegin
  2
block 105
 70
     0
 71
     0
 10
0.0
 20
0.0
 30
0.0
  3
block 105
  1

  0
SPLINE
  5
316
330
312
100
AcDbEntity
  8
Capa 1
 62
     7
370
    25
100
AcDbSpline
210
0.0
220
0.0
230
1.0
 70
    11
 71
     3
 72
    23
 73
    19
 74
     0
 42
0.0000000001
 43
0.0000000001
 40
0.0
 40
0.0
 40
0.0
 40
0.0
 40
1.0
 40
1.0
 40
1.0
 40
2.0
 40
2.0
 40
2.0
 40
3.0
 40
3.0
 40
3.0
 40
4.0
 40
4.0
 40
4.0
 40
5.0
 40
5.0
 40
5.0
 40
6.0
 40
6.0
 40
6.0
 40
6.0
 10
177.7949496026626
 20
147.0512417203883
 30
0.0
 10
177.7949496026626
 20
148.1781331970176
 30
0.0
 10
176.8813096772512
 20
149.0916008675411
 30
0.0
 10
175.7547627103977
 20
149.0916008675411
 30
0.0
 10
174.62856025332
 20
149.0916008675411
 30
0.0
 10
173.7149203279086
 20
148.1781331970176
 30
0.0
 10
173.7149203279086
 20
147.0512417203883
 30
0.0
 10
173.7149203279086
 20
145.9246947535348
 30
0.0
 10
174.62856025332
 20
145.0110548281234
 30
0.0
 10
175.7547627103977
 20
145.0110548281234
 30
0.0
 10
176.8813096772512
 20
145.0110548281234
 30
0.0
 10
177.7949496026626
 20
145.9246947535348
 30
0.0
 10
177.7949496026626
 20
147.0512417203883
 30
0.0
 10
177.7949496026626
 20
147.0512417203883
 30
0.0
 10
177.7949496026626
 20
147.0512417203883
 30
0.0
 10
177.7949496026626
 20
147.0512417203883
 30
0.0
 10
177.7949496026626
 20
147.0512417203883
 30
0.0
 10
177.7949496026626
 20
147.0512417203883
 30
0.0
 10
177.7949496026626
 20
147.0512417203883
 30
0.0
  0
ENDBLK
  5
315
330
312
100
AcDbEntity
  8
0
100
AcDbBlockEnd
  0
BLOCK
  5
319
330
317
100
AcDbEntity
  8
0
100
AcDbBlockBegin
  2
block 106
 70
     0
 71
     0
 10
0.0
 20
0.0
 30
0.0
  3
block 106
  1

  0
SPLINE
  5
31B
330
317
100
AcDbEntity
  8
Capa 1
 62
     7
370
    25
100
AcDbSpline
210
0.0
220
0.0
230
1.0
 70
    11
 71
     3
 72
    23
 73
    19
 74
     0
 42
0.0000000001
 43
0.0000000001
 40
0.0
 40
0.0
 40
0.0
 40
0.0
 40
1.0
 40
1.0
 40
1.0
 40
2.0
 40
2.0
 40
2.0
 40
3.0
 40
3.0
 40
3.0
 40
4.0
 40
4.0
 40
4.0
 40
5.0
 40
5.0
 40
5.0
 40
6.0
 40
6.0
 40
6.0
 40
6.0
 10
155.04628008729
 20
147.0512417203883
 30
0.0
 10
155.04628008729
 20
148.1781331970176
 30
0.0
 10
154.1336736912059
 20
149.0916008675411
 30
0.0
 10
153.0060931950251
 20
149.0916008675411
 30
0.0
 10
151.8798907379474
 20
149.0916008675411
 30
0.0
 10
150.966250812536
 20
148.1781331970176
 30
0.0
 10
150.966250812536
 20
147.0512417203883
 30
0.0
 10
150.966250812536
 20
145.9246947535348
 30
0.0
 10
151.8798907379474
 20
145.0110548281234
 30
0.0
 10
153.0060931950251
 20
145.0110548281234
 30
0.0
 10
154.1336736912059
 20
145.0110548281234
 30
0.0
 10
155.04628008729
 20
145.9246947535348
 30
0.0
 10
155.04628008729
 20
147.0512417203883
 30
0.0
 10
155.04628008729
 20
147.0512417203883
 30
0.0
 10
155.04628008729
 20
147.0512417203883
 30
0.0
 10
155.04628008729
 20
147.0512417203883
 30
0.0
 10
155.04628008729
 20
147.0512417203883
 30
0.0
 10
155.04628008729
 20
147.0512417203883
 30
0.0
 10
155.04628008729
 20
147.0512417203883
 30
0.0
  0
ENDBLK
  5
31A
330
317
100
AcDbEntity
  8
0
100
AcDbBlockEnd
  0
BLOCK
  5
31E
330
31C
100
AcDbEntity
  8
0
100
AcDbBlockBegin
  2
block 107
 70
     0
 71
     0
 10
0.0
 20
0.0
 30
0.0
  3
block 107
  1

  0
SPLINE
  5
320
330
31C
100
AcDbEntity
  8
Capa 1
 62
     7
370
    25
100
AcDbSpline
210
0.0
220
0.0
230
1.0
 70
    11
 71
     3
 72
    23
 73
    19
 74
     0
 42
0.0000000001
 43
0.0000000001
 40
0.0
 40
0.0
 40
0.0
 40
0.0
 40
1.0
 40
1.0
 40
1.0
 40
2.0
 40
2.0
 40
2.0
 40
3.0
 40
3.0
 40
3.0
 40
4.0
 40
4.0
 40
4.0
 40
5.0
 40
5.0
 40
5.0
 40
6.0
 40
6.0
 40
6.0
 40
6.0
 10
166.3351764205788
 20
124.4737935635864
 30
0.0
 10
166.3351764205788
 20
125.5999960206641
 30
0.0
 10
165.4215364951674
 20
126.5136359460755
 30
0.0
 10
164.2953340380897
 20
126.5136359460755
 30
0.0
 10
163.1687870712363
 20
126.5136359460755
 30
0.0
 10
162.2551471458248
 20
125.5999960206641
 30
0.0
 10
162.2551471458248
 20
124.4737935635864
 30
0.0
 10
162.2551471458248
 20
123.3469020869571
 30
0.0
 10
163.1687870712363
 20
122.4332621615457
 30
0.0
 10
164.2953340380897
 20
122.4332621615457
 30
0.0
 10
165.4215364951674
 20
122.4332621615457
 30
0.0
 10
166.3351764205788
 20
123.3469020869571
 30
0.0
 10
166.3351764205788
 20
124.4737935635864
 30
0.0
 10
166.3351764205788
 20
124.4737935635864
 30
0.0
 10
166.3351764205788
 20
124.4737935635864
 30
0.0
 10
166.3351764205788
 20
124.4737935635864
 30
0.0
 10
166.3351764205788
 20
124.4737935635864
 30
0.0
 10
166.3351764205788
 20
124.4737935635864
 30
0.0
 10
166.3351764205788
 20
124.4737935635864
 30
0.0
  0
ENDBLK
  5
31F
330
31C
100
AcDbEntity
  8
0
100
AcDbBlockEnd
  0
BLOCK
  5
323
330
321
100
AcDbEntity
  8
0
100
AcDbBlockBegin
  2
block 108
 70
     0
 71
     0
 10
0.0
 20
0.0
 30
0.0
  3
block 108
  1

  0
SPLINE
  5
325
330
321
100
AcDbEntity
  8
Capa 1
 62
     7
370
    25
100
AcDbSpline
210
0.0
220
0.0
230
1.0
 70
    11
 71
     3
 72
    23
 73
    19
 74
     0
 42
0.0000000001
 43
0.0000000001
 40
0.0
 40
0.0
 40
0.0
 40
0.0
 40
1.0
 40
1.0
 40
1.0
 40
2.0
 40
2.0
 40
2.0
 40
3.0
 40
3.0
 40
3.0
 40
4.0
 40
4.0
 40
4.0
 40
5.0
 40
5.0
 40
5.0
 40
6.0
 40
6.0
 40
6.0
 40
6.0
 10
177.7949496026626
 20
124.4737935635864
 30
0.0
 10
177.7949496026626
 20
125.5999960206641
 30
0.0
 10
176.8813096772512
 20
126.5136359460755
 30
0.0
 10
175.7547627103977
 20
126.5136359460755
 30
0.0
 10
174.62856025332
 20
126.5136359460755
 30
0.0
 10
173.7149203279086
 20
125.5999960206641
 30
0.0
 10
173.7149203279086
 20
124.4737935635864
 30
0.0
 10
173.7149203279086
 20
123.3469020869571
 30
0.0
 10
174.62856025332
 20
122.4332621615457
 30
0.0
 10
175.7547627103977
 20
122.4332621615457
 30
0.0
 10
176.8813096772512
 20
122.4332621615457
 30
0.0
 10
177.7949496026626
 20
123.3469020869571
 30
0.0
 10
177.7949496026626
 20
124.4737935635864
 30
0.0
 10
177.7949496026626
 20
124.4737935635864
 30
0.0
 10
177.7949496026626
 20
124.4737935635864
 30
0.0
 10
177.7949496026626
 20
124.4737935635864
 30
0.0
 10
177.7949496026626
 20
124.4737935635864
 30
0.0
 10
177.7949496026626
 20
124.4737935635864
 30
0.0
 10
177.7949496026626
 20
124.4737935635864
 30
0.0
  0
ENDBLK
  5
324
330
321
100
AcDbEntity
  8
0
100
AcDbBlockEnd
  0
BLOCK
  5
328
330
326
100
AcDbEntity
  8
0
100
AcDbBlockBegin
  2
block 109
 70
     0
 71
     0
 10
0.0
 20
0.0
 30
0.0
  3
block 109
  1

  0
SPLINE
  5
32A
330
326
100
AcDbEntity
  8
Capa 1
 62
     7
370
    25
100
AcDbSpline
210
0.0
220
0.0
230
1.0
 70
    11
 71
     3
 72
    23
 73
    19
 74
     0
 42
0.0000000001
 43
0.0000000001
 40
0.0
 40
0.0
 40
0.0
 40
0.0
 40
1.0
 40
1.0
 40
1.0
 40
2.0
 40
2.0
 40
2.0
 40
3.0
 40
3.0
 40
3.0
 40
4.0
 40
4.0
 40
4.0
 40
5.0
 40
5.0
 40
5.0
 40
6.0
 40
6.0
 40
6.0
 40
6.0
 10
155.04628008729
 20
124.4737935635864
 30
0.0
 10
155.04628008729
 20
125.5999960206641
 30
0.0
 10
154.1336736912059
 20
126.5136359460755
 30
0.0
 10
153.0060931950251
 20
126.5136359460755
 30
0.0
 10
151.8798907379474
 20
126.5136359460755
 30
0.0
 10
150.966250812536
 20
125.5999960206641
 30
0.0
 10
150.966250812536
 20
124.4737935635864
 30
0.0
 10
150.966250812536
 20
123.3469020869571
 30
0.0
 10
151.8798907379474
 20
122.4332621615457
 30
0.0
 10
153.0060931950251
 20
122.4332621615457
 30
0.0
 10
154.1336736912059
 20
122.4332621615457
 30
0.0
 10
155.04628008729
 20
123.3469020869571
 30
0.0
 10
155.04628008729
 20
124.4737935635864
 30
0.0
 10
155.04628008729
 20
124.4737935635864
 30
0.0
 10
155.04628008729
 20
124.4737935635864
 30
0.0
 10
155.04628008729
 20
124.4737935635864
 30
0.0
 10
155.04628008729
 20
124.4737935635864
 30
0.0
 10
155.04628008729
 20
124.4737935635864
 30
0.0
 10
155.04628008729
 20
124.4737935635864
 30
0.0
  0
ENDBLK
  5
329
330
326
100
AcDbEntity
  8
0
100
AcDbBlockEnd
  0
BLOCK
  5
32D
330
32B
100
AcDbEntity
  8
0
100
AcDbBlockBegin
  2
block 110
 70
     0
 71
     0
 10
0.0
 20
0.0
 30
0.0
  3
block 110
  1

  0
SPLINE
  5
32F
330
32B
100
AcDbEntity
  8
Capa 1
 62
     7
370
    25
100
AcDbSpline
210
0.0
220
0.0
230
1.0
 70
    11
 71
     3
 72
    23
 73
    19
 74
     0
 42
0.0000000001
 43
0.0000000001
 40
0.0
 40
0.0
 40
0.0
 40
0.0
 40
1.0
 40
1.0
 40
1.0
 40
2.0
 40
2.0
 40
2.0
 40
3.0
 40
3.0
 40
3.0
 40
4.0
 40
4.0
 40
4.0
 40
5.0
 40
5.0
 40
5.0
 40
6.0
 40
6.0
 40
6.0
 40
6.0
 10
143.7580727735527
 20
158.3401380536772
 30
0.0
 10
143.7580727735527
 20
159.4670295303064
 30
0.0
 10
142.8444328481413
 20
160.3801526910542
 30
0.0
 10
141.7171968617362
 20
160.3801526910542
 30
0.0
 10
140.5906498948827
 20
160.3801526910542
 30
0.0
 10
139.6773544792471
 20
159.4670295303064
 30
0.0
 10
139.6773544792471
 20
158.3401380536772
 30
0.0
 10
139.6773544792471
 20
157.2137633417116
 30
0.0
 10
140.5906498948827
 20
156.3001234163002
 30
0.0
 10
141.7171968617362
 20
156.3001234163002
 30
0.0
 10
142.8444328481413
 20
156.3001234163002
 30
0.0
 10
143.7580727735527
 20
157.2137633417116
 30
0.0
 10
143.7580727735527
 20
158.3401380536772
 30
0.0
 10
143.7580727735527
 20
158.3401380536772
 30
0.0
 10
143.7580727735527
 20
158.3401380536772
 30
0.0
 10
143.7580727735527
 20
158.3401380536772
 30
0.0
 10
143.7580727735527
 20
158.3401380536772
 30
0.0
 10
143.7580727735527
 20
158.3401380536772
 30
0.0
 10
143.7580727735527
 20
158.3401380536772
 30
0.0
  0
ENDBLK
  5
32E
330
32B
100
AcDbEntity
  8
0
100
AcDbBlockEnd
  0
BLOCK
  5
332
330
330
100
AcDbEntity
  8
0
100
AcDbBlockBegin
  2
block 111
 70
     0
 71
     0
 10
0.0
 20
0.0
 30
0.0
  3
block 111
  1

  0
SPLINE
  5
334
330
330
100
AcDbEntity
  8
Capa 1
 62
     7
370
    25
100
AcDbSpline
210
0.0
220
0.0
230
1.0
 70
    11
 71
     3
 72
    23
 73
    19
 74
     0
 42
0.0000000001
 43
0.0000000001
 40
0.0
 40
0.0
 40
0.0
 40
0.0
 40
1.0
 40
1.0
 40
1.0
 40
2.0
 40
2.0
 40
2.0
 40
3.0
 40
3.0
 40
3.0
 40
4.0
 40
4.0
 40
4.0
 40
5.0
 40
5.0
 40
5.0
 40
6.0
 40
6.0
 40
6.0
 40
6.0
 10
143.7580727735527
 20
135.7626898968752
 30
0.0
 10
143.7580727735527
 20
136.8892368637287
 30
0.0
 10
142.8444328481413
 20
137.8025322793644
 30
0.0
 10
141.7171968617362
 20
137.8025322793644
 30
0.0
 10
140.5906498948827
 20
137.8025322793644
 30
0.0
 10
139.6773544792471
 20
136.8892368637287
 30
0.0
 10
139.6773544792471
 20
135.7626898968752
 30
0.0
 10
139.6773544792471
 20
134.635798420246
 30
0.0
 10
140.5906498948827
 20
133.7221584948345
 30
0.0
 10
141.7171968617362
 20
133.7221584948345
 30
0.0
 10
142.8444328481413
 20
133.7221584948345
 30
0.0
 10
143.7580727735527
 20
134.635798420246
 30
0.0
 10
143.7580727735527
 20
135.7626898968752
 30
0.0
 10
143.7580727735527
 20
135.7626898968752
 30
0.0
 10
143.7580727735527
 20
135.7626898968752
 30
0.0
 10
143.7580727735527
 20
135.7626898968752
 30
0.0
 10
143.7580727735527
 20
135.7626898968752
 30
0.0
 10
143.7580727735527
 20
135.7626898968752
 30
0.0
 10
143.7580727735527
 20
135.7626898968752
 30
0.0
  0
ENDBLK
  5
333
330
330
100
AcDbEntity
  8
0
100
AcDbBlockEnd
  0
BLOCK
  5
337
330
335
100
AcDbEntity
  8
0
100
AcDbBlockBegin
  2
block 112
 70
     0
 71
     0
 10
0.0
 20
0.0
 30
0.0
  3
block 112
  1

  0
SPLINE
  5
339
330
335
100
AcDbEntity
  8
Capa 1
 62
     7
370
    25
100
AcDbSpline
210
0.0
220
0.0
230
1.0
 70
    11
 71
     3
 72
    23
 73
    19
 74
     0
 42
0.0000000001
 43
0.0000000001
 40
0.0
 40
0.0
 40
0.0
 40
0.0
 40
1.0
 40
1.0
 40
1.0
 40
2.0
 40
2.0
 40
2.0
 40
3.0
 40
3.0
 40
3.0
 40
4.0
 40
4.0
 40
4.0
 40
5.0
 40
5.0
 40
5.0
 40
6.0
 40
6.0
 40
6.0
 40
6.0
 10
143.7580727735527
 20
147.0512417203883
 30
0.0
 10
143.7580727735527
 20
148.1781331970176
 30
0.0
 10
142.8444328481413
 20
149.0916008675411
 30
0.0
 10
141.7171968617362
 20
149.0916008675411
 30
0.0
 10
140.5906498948827
 20
149.0916008675411
 30
0.0
 10
139.6773544792471
 20
148.1781331970176
 30
0.0
 10
139.6773544792471
 20
147.0512417203883
 30
0.0
 10
139.6773544792471
 20
145.9246947535348
 30
0.0
 10
140.5906498948827
 20
145.0110548281234
 30
0.0
 10
141.7171968617362
 20
145.0110548281234
 30
0.0
 10
142.8444328481413
 20
145.0110548281234
 30
0.0
 10
143.7580727735527
 20
145.9246947535348
 30
0.0
 10
143.7580727735527
 20
147.0512417203883
 30
0.0
 10
143.7580727735527
 20
147.0512417203883
 30
0.0
 10
143.7580727735527
 20
147.0512417203883
 30
0.0
 10
143.7580727735527
 20
147.0512417203883
 30
0.0
 10
143.7580727735527
 20
147.0512417203883
 30
0.0
 10
143.7580727735527
 20
147.0512417203883
 30
0.0
 10
143.7580727735527
 20
147.0512417203883
 30
0.0
  0
ENDBLK
  5
338
330
335
100
AcDbEntity
  8
0
100
AcDbBlockEnd
  0
BLOCK
  5
33C
330
33A
100
AcDbEntity
  8
0
100
AcDbBlockBegin
  2
block 113
 70
     0
 71
     0
 10
0.0
 20
0.0
 30
0.0
  3
block 113
  1

  0
SPLINE
  5
33E
330
33A
100
AcDbEntity
  8
Capa 1
 62
     7
370
    25
100
AcDbSpline
210
0.0
220
0.0
230
1.0
 70
    11
 71
     3
 72
    23
 73
    19
 74
     0
 42
0.0000000001
 43
0.0000000001
 40
0.0
 40
0.0
 40
0.0
 40
0.0
 40
1.0
 40
1.0
 40
1.0
 40
2.0
 40
2.0
 40
2.0
 40
3.0
 40
3.0
 40
3.0
 40
4.0
 40
4.0
 40
4.0
 40
5.0
 40
5.0
 40
5.0
 40
6.0
 40
6.0
 40
6.0
 40
6.0
 10
143.7580727735527
 20
124.4737935635864
 30
0.0
 10
143.7580727735527
 20
125.5999960206641
 30
0.0
 10
142.8444328481413
 20
126.5136359460755
 30
0.0
 10
141.7171968617362
 20
126.5136359460755
 30
0.0
 10
140.5906498948827
 20
126.5136359460755
 30
0.0
 10
139.6773544792471
 20
125.5999960206641
 30
0.0
 10
139.6773544792471
 20
124.4737935635864
 30
0.0
 10
139.6773544792471
 20
123.3469020869571
 30
0.0
 10
140.5906498948827
 20
122.4332621615457
 30
0.0
 10
141.7171968617362
 20
122.4332621615457
 30
0.0
 10
142.8444328481413
 20
122.4332621615457
 30
0.0
 10
143.7580727735527
 20
123.3469020869571
 30
0.0
 10
143.7580727735527
 20
124.4737935635864
 30
0.0
 10
143.7580727735527
 20
124.4737935635864
 30
0.0
 10
143.7580727735527
 20
124.4737935635864
 30
0.0
 10
143.7580727735527
 20
124.4737935635864
 30
0.0
 10
143.7580727735527
 20
124.4737935635864
 30
0.0
 10
143.7580727735527
 20
124.4737935635864
 30
0.0
 10
143.7580727735527
 20
124.4737935635864
 30
0.0
  0
ENDBLK
  5
33D
330
33A
100
AcDbEntity
  8
0
100
AcDbBlockEnd
  0
BLOCK
  5
341
330
33F
100
AcDbEntity
  8
0
100
AcDbBlockBegin
  2
block 114
 70
     0
 71
     0
 10
0.0
 20
0.0
 30
0.0
  3
block 114
  1

  0
SPLINE
  5
343
330
33F
100
AcDbEntity
  8
Capa 1
 62
     7
370
    25
100
AcDbSpline
210
0.0
220
0.0
230
1.0
 70
    11
 71
     3
 72
    23
 73
    19
 74
     0
 42
0.0000000001
 43
0.0000000001
 40
0.0
 40
0.0
 40
0.0
 40
0.0
 40
1.0
 40
1.0
 40
1.0
 40
2.0
 40
2.0
 40
2.0
 40
3.0
 40
3.0
 40
3.0
 40
4.0
 40
4.0
 40
4.0
 40
5.0
 40
5.0
 40
5.0
 40
6.0
 40
6.0
 40
6.0
 40
6.0
 10
132.4691764402639
 20
158.3401380536772
 30
0.0
 10
132.4691764402639
 20
159.4670295303064
 30
0.0
 10
131.5555365148524
 20
160.3801526910542
 30
0.0
 10
130.4283005284474
 20
160.3801526910542
 30
0.0
 10
129.3017535615939
 20
160.3801526910542
 30
0.0
 10
128.3881136361825
 20
159.4670295303064
 30
0.0
 10
128.3881136361825
 20
158.3401380536772
 30
0.0
 10
128.3881136361825
 20
157.2137633417116
 30
0.0
 10
129.3017535615939
 20
156.3001234163002
 30
0.0
 10
130.4283005284474
 20
156.3001234163002
 30
0.0
 10
131.5555365148524
 20
156.3001234163002
 30
0.0
 10
132.4691764402639
 20
157.2137633417116
 30
0.0
 10
132.4691764402639
 20
158.3401380536772
 30
0.0
 10
132.4691764402639
 20
158.3401380536772
 30
0.0
 10
132.4691764402639
 20
158.3401380536772
 30
0.0
 10
132.4691764402639
 20
158.3401380536772
 30
0.0
 10
132.4691764402639
 20
158.3401380536772
 30
0.0
 10
132.4691764402639
 20
158.3401380536772
 30
0.0
 10
132.4691764402639
 20
158.3401380536772
 30
0.0
  0
ENDBLK
  5
342
330
33F
100
AcDbEntity
  8
0
100
AcDbBlockEnd
  0
BLOCK
  5
346
330
344
100
AcDbEntity
  8
0
100
AcDbBlockBegin
  2
block 115
 70
     0
 71
     0
 10
0.0
 20
0.0
 30
0.0
  3
block 115
  1

  0
SPLINE
  5
348
330
344
100
AcDbEntity
  8
Capa 1
 62
     7
370
    25
100
AcDbSpline
210
0.0
220
0.0
230
1.0
 70
    11
 71
     3
 72
    23
 73
    19
 74
     0
 42
0.0000000001
 43
0.0000000001
 40
0.0
 40
0.0
 40
0.0
 40
0.0
 40
1.0
 40
1.0
 40
1.0
 40
2.0
 40
2.0
 40
2.0
 40
3.0
 40
3.0
 40
3.0
 40
4.0
 40
4.0
 40
4.0
 40
5.0
 40
5.0
 40
5.0
 40
6.0
 40
6.0
 40
6.0
 40
6.0
 10
132.4691764402639
 20
124.4737935635864
 30
0.0
 10
132.4691764402639
 20
125.5999960206641
 30
0.0
 10
131.5555365148524
 20
126.5136359460755
 30
0.0
 10
130.4283005284474
 20
126.5136359460755
 30
0.0
 10
129.3017535615939
 20
126.5136359460755
 30
0.0
 10
128.3881136361825
 20
125.5999960206641
 30
0.0
 10
128.3881136361825
 20
124.4737935635864
 30
0.0
 10
128.3881136361825
 20
123.3469020869571
 30
0.0
 10
129.3017535615939
 20
122.4332621615457
 30
0.0
 10
130.4283005284474
 20
122.4332621615457
 30
0.0
 10
131.5555365148524
 20
122.4332621615457
 30
0.0
 10
132.4691764402639
 20
123.3469020869571
 30
0.0
 10
132.4691764402639
 20
124.4737935635864
 30
0.0
 10
132.4691764402639
 20
124.4737935635864
 30
0.0
 10
132.4691764402639
 20
124.4737935635864
 30
0.0
 10
132.4691764402639
 20
124.4737935635864
 30
0.0
 10
132.4691764402639
 20
124.4737935635864
 30
0.0
 10
132.4691764402639
 20
124.4737935635864
 30
0.0
 10
132.4691764402639
 20
124.4737935635864
 30
0.0
  0
ENDBLK
  5
347
330
344
100
AcDbEntity
  8
0
100
AcDbBlockEnd
  0
BLOCK
  5
34B
330
349
100
AcDbEntity
  8
0
100
AcDbBlockBegin
  2
block 116
 70
     0
 71
     0
 10
0.0
 20
0.0
 30
0.0
  3
block 116
  1

  0
SPLINE
  5
34D
330
349
100
AcDbEntity
  8
Capa 1
 62
     7
370
    25
100
AcDbSpline
210
0.0
220
0.0
230
1.0
 70
    11
 71
     3
 72
    23
 73
    19
 74
     0
 42
0.0000000001
 43
0.0000000001
 40
0.0
 40
0.0
 40
0.0
 40
0.0
 40
1.0
 40
1.0
 40
1.0
 40
2.0
 40
2.0
 40
2.0
 40
3.0
 40
3.0
 40
3.0
 40
4.0
 40
4.0
 40
4.0
 40
5.0
 40
5.0
 40
5.0
 40
6.0
 40
6.0
 40
6.0
 40
6.0
 10
132.4691764402639
 20
147.0512417203883
 30
0.0
 10
132.4691764402639
 20
148.1781331970176
 30
0.0
 10
131.5555365148524
 20
149.0916008675411
 30
0.0
 10
130.4283005284474
 20
149.0916008675411
 30
0.0
 10
129.3017535615939
 20
149.0916008675411
 30
0.0
 10
128.3881136361825
 20
148.1781331970176
 30
0.0
 10
128.3881136361825
 20
147.0512417203883
 30
0.0
 10
128.3881136361825
 20
145.9246947535348
 30
0.0
 10
129.3017535615939
 20
145.0110548281234
 30
0.0
 10
130.4283005284474
 20
145.0110548281234
 30
0.0
 10
131.5555365148524
 20
145.0110548281234
 30
0.0
 10
132.4691764402639
 20
145.9246947535348
 30
0.0
 10
132.4691764402639
 20
147.0512417203883
 30
0.0
 10
132.4691764402639
 20
147.0512417203883
 30
0.0
 10
132.4691764402639
 20
147.0512417203883
 30
0.0
 10
132.4691764402639
 20
147.0512417203883
 30
0.0
 10
132.4691764402639
 20
147.0512417203883
 30
0.0
 10
132.4691764402639
 20
147.0512417203883
 30
0.0
 10
132.4691764402639
 20
147.0512417203883
 30
0.0
  0
ENDBLK
  5
34C
330
349
100
AcDbEntity
  8
0
100
AcDbBlockEnd
  0
BLOCK
  5
350
330
34E
100
AcDbEntity
  8
0
100
AcDbBlockBegin
  2
block 117
 70
     0
 71
     0
 10
0.0
 20
0.0
 30
0.0
  3
block 117
  1

  0
SPLINE
  5
352
330
34E
100
AcDbEntity
  8
Capa 1
 62
     7
370
    25
100
AcDbSpline
210
0.0
220
0.0
230
1.0
 70
    11
 71
     3
 72
    23
 73
    19
 74
     0
 42
0.0000000001
 43
0.0000000001
 40
0.0
 40
0.0
 40
0.0
 40
0.0
 40
1.0
 40
1.0
 40
1.0
 40
2.0
 40
2.0
 40
2.0
 40
3.0
 40
3.0
 40
3.0
 40
4.0
 40
4.0
 40
4.0
 40
5.0
 40
5.0
 40
5.0
 40
6.0
 40
6.0
 40
6.0
 40
6.0
 10
132.4691764402639
 20
135.7626898968752
 30
0.0
 10
132.4691764402639
 20
136.8892368637287
 30
0.0
 10
131.5555365148524
 20
137.8025322793644
 30
0.0
 10
130.4283005284474
 20
137.8025322793644
 30
0.0
 10
129.3017535615939
 20
137.8025322793644
 30
0.0
 10
128.3881136361825
 20
136.8892368637287
 30
0.0
 10
128.3881136361825
 20
135.7626898968752
 30
0.0
 10
128.3881136361825
 20
134.635798420246
 30
0.0
 10
129.3017535615939
 20
133.7221584948345
 30
0.0
 10
130.4283005284474
 20
133.7221584948345
 30
0.0
 10
131.5555365148524
 20
133.7221584948345
 30
0.0
 10
132.4691764402639
 20
134.635798420246
 30
0.0
 10
132.4691764402639
 20
135.7626898968752
 30
0.0
 10
132.4691764402639
 20
135.7626898968752
 30
0.0
 10
132.4691764402639
 20
135.7626898968752
 30
0.0
 10
132.4691764402639
 20
135.7626898968752
 30
0.0
 10
132.4691764402639
 20
135.7626898968752
 30
0.0
 10
132.4691764402639
 20
135.7626898968752
 30
0.0
 10
132.4691764402639
 20
135.7626898968752
 30
0.0
  0
ENDBLK
  5
351
330
34E
100
AcDbEntity
  8
0
100
AcDbBlockEnd
  0
BLOCK
  5
355
330
353
100
AcDbEntity
  8
0
100
AcDbBlockBegin
  2
block 118
 70
     0
 71
     0
 10
0.0
 20
0.0
 30
0.0
  3
block 118
  1

  0
SPLINE
  5
357
330
353
100
AcDbEntity
  8
Capa 1
 62
     7
370
    25
100
AcDbSpline
210
0.0
220
0.0
230
1.0
 70
    11
 71
     3
 72
    23
 73
    19
 74
     0
 42
0.0000000001
 43
0.0000000001
 40
0.0
 40
0.0
 40
0.0
 40
0.0
 40
1.0
 40
1.0
 40
1.0
 40
2.0
 40
2.0
 40
2.0
 40
3.0
 40
3.0
 40
3.0
 40
4.0
 40
4.0
 40
4.0
 40
5.0
 40
5.0
 40
5.0
 40
6.0
 40
6.0
 40
6.0
 40
6.0
 10
143.7580727735527
 20
113.1845527205217
 30
0.0
 10
143.7580727735527
 20
114.3117887069268
 30
0.0
 10
142.8444328481413
 20
115.2247396127866
 30
0.0
 10
141.7171968617362
 20
115.2247396127866
 30
0.0
 10
140.5906498948827
 20
115.2247396127866
 30
0.0
 10
139.6773544792471
 20
114.3117887069268
 30
0.0
 10
139.6773544792471
 20
113.1845527205217
 30
0.0
 10
139.6773544792471
 20
112.0576612438925
 30
0.0
 10
140.5906498948827
 20
111.1447103380326
 30
0.0
 10
141.7171968617362
 20
111.1447103380326
 30
0.0
 10
142.8444328481413
 20
111.1447103380326
 30
0.0
 10
143.7580727735527
 20
112.0576612438925
 30
0.0
 10
143.7580727735527
 20
113.1845527205217
 30
0.0
 10
143.7580727735527
 20
113.1845527205217
 30
0.0
 10
143.7580727735527
 20
113.1845527205217
 30
0.0
 10
143.7580727735527
 20
113.1845527205217
 30
0.0
 10
143.7580727735527
 20
113.1845527205217
 30
0.0
 10
143.7580727735527
 20
113.1845527205217
 30
0.0
 10
143.7580727735527
 20
113.1845527205217
 30
0.0
  0
ENDBLK
  5
356
330
353
100
AcDbEntity
  8
0
100
AcDbBlockEnd
  0
BLOCK
  5
35A
330
358
100
AcDbEntity
  8
0
100
AcDbBlockBegin
  2
block 119
 70
     0
 71
     0
 10
0.0
 20
0.0
 30
0.0
  3
block 119
  1

  0
SPLINE
  5
35C
330
358
100
AcDbEntity
  8
Capa 1
 62
     7
370
    25
100
AcDbSpline
210
0.0
220
0.0
230
1.0
 70
    11
 71
     3
 72
    23
 73
    19
 74
     0
 42
0.0000000001
 43
0.0000000001
 40
0.0
 40
0.0
 40
0.0
 40
0.0
 40
1.0
 40
1.0
 40
1.0
 40
2.0
 40
2.0
 40
2.0
 40
3.0
 40
3.0
 40
3.0
 40
4.0
 40
4.0
 40
4.0
 40
5.0
 40
5.0
 40
5.0
 40
6.0
 40
6.0
 40
6.0
 40
6.0
 10
73.3042733292451
 20
158.3401380536772
 30
0.0
 10
73.3042733292451
 20
159.4670295303064
 30
0.0
 10
72.39063340383368
 20
160.3801526910542
 30
0.0
 10
71.26391418209231
 20
160.3801526910542
 30
0.0
 10
70.13719496035094
 20
160.3801526910542
 30
0.0
 10
69.2237272898274
 20
159.4670295303064
 30
0.0
 10
69.2237272898274
 20
158.3401380536772
 30
0.0
 10
69.2237272898274
 20
157.2137633417116
 30
0.0
 10
70.13719496035094
 20
156.3001234163002
 30
0.0
 10
71.26391418209231
 20
156.3001234163002
 30
0.0
 10
72.39063340383368
 20
156.3001234163002
 30
0.0
 10
73.3042733292451
 20
157.2137633417116
 30
0.0
 10
73.3042733292451
 20
158.3401380536772
 30
0.0
 10
73.3042733292451
 20
158.3401380536772
 30
0.0
 10
73.3042733292451
 20
158.3401380536772
 30
0.0
 10
73.3042733292451
 20
158.3401380536772
 30
0.0
 10
73.3042733292451
 20
158.3401380536772
 30
0.0
 10
73.3042733292451
 20
158.3401380536772
 30
0.0
 10
73.3042733292451
 20
158.3401380536772
 30
0.0
  0
ENDBLK
  5
35B
330
358
100
AcDbEntity
  8
0
100
AcDbBlockEnd
  0
BLOCK
  5
35F
330
35D
100
AcDbEntity
  8
0
100
AcDbBlockBegin
  2
block 120
 70
     0
 71
     0
 10
0.0
 20
0.0
 30
0.0
  3
block 120
  1

  0
SPLINE
  5
361
330
35D
100
AcDbEntity
  8
Capa 1
 62
     7
370
    25
100
AcDbSpline
210
0.0
220
0.0
230
1.0
 70
    11
 71
     3
 72
    23
 73
    19
 74
     0
 42
0.0000000001
 43
0.0000000001
 40
0.0
 40
0.0
 40
0.0
 40
0.0
 40
1.0
 40
1.0
 40
1.0
 40
2.0
 40
2.0
 40
2.0
 40
3.0
 40
3.0
 40
3.0
 40
4.0
 40
4.0
 40
4.0
 40
5.0
 40
5.0
 40
5.0
 40
6.0
 40
6.0
 40
6.0
 40
6.0
 10
61.84450014716136
 20
158.3401380536772
 30
0.0
 10
61.84450014716136
 20
159.4670295303064
 30
0.0
 10
60.93120473152571
 20
160.3801526910542
 30
0.0
 10
59.80448550978434
 20
160.3801526910542
 30
0.0
 10
58.67759403315507
 20
160.3801526910542
 30
0.0
 10
57.76429861751943
 20
159.4670295303064
 30
0.0
 10
57.76429861751943
 20
158.3401380536772
 30
0.0
 10
57.76429861751943
 20
157.2137633417116
 30
0.0
 10
58.67759403315507
 20
156.3001234163002
 30
0.0
 10
59.80448550978434
 20
156.3001234163002
 30
0.0
 10
60.93120473152571
 20
156.3001234163002
 30
0.0
 10
61.84450014716136
 20
157.2137633417116
 30
0.0
 10
61.84450014716136
 20
158.3401380536772
 30
0.0
 10
61.84450014716136
 20
158.3401380536772
 30
0.0
 10
61.84450014716136
 20
158.3401380536772
 30
0.0
 10
61.84450014716136
 20
158.3401380536772
 30
0.0
 10
61.84450014716136
 20
158.3401380536772
 30
0.0
 10
61.84450014716136
 20
158.3401380536772
 30
0.0
 10
61.84450014716136
 20
158.3401380536772
 30
0.0
  0
ENDBLK
  5
360
330
35D
100
AcDbEntity
  8
0
100
AcDbBlockEnd
  0
BLOCK
  5
364
330
362
100
AcDbEntity
  8
0
100
AcDbBlockBegin
  2
block 121
 70
     0
 71
     0
 10
0.0
 20
0.0
 30
0.0
  3
block 121
  1

  0
SPLINE
  5
366
330
362
100
AcDbEntity
  8
Capa 1
 62
     7
370
    25
100
AcDbSpline
210
0.0
220
0.0
230
1.0
 70
    11
 71
     3
 72
    23
 73
    19
 74
     0
 42
0.0000000001
 43
0.0000000001
 40
0.0
 40
0.0
 40
0.0
 40
0.0
 40
1.0
 40
1.0
 40
1.0
 40
2.0
 40
2.0
 40
2.0
 40
3.0
 40
3.0
 40
3.0
 40
4.0
 40
4.0
 40
4.0
 40
5.0
 40
5.0
 40
5.0
 40
6.0
 40
6.0
 40
6.0
 40
6.0
 10
61.84450014716136
 20
124.4737935635864
 30
0.0
 10
61.84450014716136
 20
125.5999960206641
 30
0.0
 10
60.93120473152571
 20
126.5136359460755
 30
0.0
 10
59.80448550978434
 20
126.5136359460755
 30
0.0
 10
58.67759403315507
 20
126.5136359460755
 30
0.0
 10
57.76429861751943
 20
125.5999960206641
 30
0.0
 10
57.76429861751943
 20
124.4737935635864
 30
0.0
 10
57.76429861751943
 20
123.3469020869571
 30
0.0
 10
58.67759403315507
 20
122.4332621615457
 30
0.0
 10
59.80448550978434
 20
122.4332621615457
 30
0.0
 10
60.93120473152571
 20
122.4332621615457
 30
0.0
 10
61.84450014716136
 20
123.3469020869571
 30
0.0
 10
61.84450014716136
 20
124.4737935635864
 30
0.0
 10
61.84450014716136
 20
124.4737935635864
 30
0.0
 10
61.84450014716136
 20
124.4737935635864
 30
0.0
 10
61.84450014716136
 20
124.4737935635864
 30
0.0
 10
61.84450014716136
 20
124.4737935635864
 30
0.0
 10
61.84450014716136
 20
124.4737935635864
 30
0.0
 10
61.84450014716136
 20
124.4737935635864
 30
0.0
  0
ENDBLK
  5
365
330
362
100
AcDbEntity
  8
0
100
AcDbBlockEnd
  0
BLOCK
  5
369
330
367
100
AcDbEntity
  8
0
100
AcDbBlockBegin
  2
block 122
 70
     0
 71
     0
 10
0.0
 20
0.0
 30
0.0
  3
block 122
  1

  0
SPLINE
  5
36B
330
367
100
AcDbEntity
  8
Capa 1
 62
     7
370
    25
100
AcDbSpline
210
0.0
220
0.0
230
1.0
 70
    11
 71
     3
 72
    23
 73
    19
 74
     0
 42
0.0000000001
 43
0.0000000001
 40
0.0
 40
0.0
 40
0.0
 40
0.0
 40
1.0
 40
1.0
 40
1.0
 40
2.0
 40
2.0
 40
2.0
 40
3.0
 40
3.0
 40
3.0
 40
4.0
 40
4.0
 40
4.0
 40
5.0
 40
5.0
 40
5.0
 40
6.0
 40
6.0
 40
6.0
 40
6.0
 10
73.3042733292451
 20
124.4737935635864
 30
0.0
 10
73.3042733292451
 20
125.5999960206641
 30
0.0
 10
72.39063340383368
 20
126.5136359460755
 30
0.0
 10
71.26391418209231
 20
126.5136359460755
 30
0.0
 10
70.13719496035094
 20
126.5136359460755
 30
0.0
 10
69.2237272898274
 20
125.5999960206641
 30
0.0
 10
69.2237272898274
 20
124.4737935635864
 30
0.0
 10
69.2237272898274
 20
123.3469020869571
 30
0.0
 10
70.13719496035094
 20
122.4332621615457
 30
0.0
 10
71.26391418209231
 20
122.4332621615457
 30
0.0
 10
72.39063340383368
 20
122.4332621615457
 30
0.0
 10
73.3042733292451
 20
123.3469020869571
 30
0.0
 10
73.3042733292451
 20
124.4737935635864
 30
0.0
 10
73.3042733292451
 20
124.4737935635864
 30
0.0
 10
73.3042733292451
 20
124.4737935635864
 30
0.0
 10
73.3042733292451
 20
124.4737935635864
 30
0.0
 10
73.3042733292451
 20
124.4737935635864
 30
0.0
 10
73.3042733292451
 20
124.4737935635864
 30
0.0
 10
73.3042733292451
 20
124.4737935635864
 30
0.0
  0
ENDBLK
  5
36A
330
367
100
AcDbEntity
  8
0
100
AcDbBlockEnd
  0
BLOCK
  5
36E
330
36C
100
AcDbEntity
  8
0
100
AcDbBlockBegin
  2
block 123
 70
     0
 71
     0
 10
0.0
 20
0.0
 30
0.0
  3
block 123
  1

  0
SPLINE
  5
370
330
36C
100
AcDbEntity
  8
Capa 1
 62
     7
370
    25
100
AcDbSpline
210
0.0
220
0.0
230
1.0
 70
    11
 71
     3
 72
    23
 73
    19
 74
     0
 42
0.0000000001
 43
0.0000000001
 40
0.0
 40
0.0
 40
0.0
 40
0.0
 40
1.0
 40
1.0
 40
1.0
 40
2.0
 40
2.0
 40
2.0
 40
3.0
 40
3.0
 40
3.0
 40
4.0
 40
4.0
 40
4.0
 40
5.0
 40
5.0
 40
5.0
 40
6.0
 40
6.0
 40
6.0
 40
6.0
 10
61.84450014716136
 20
147.0512417203883
 30
0.0
 10
61.84450014716136
 20
148.1781331970176
 30
0.0
 10
60.93120473152571
 20
149.0916008675411
 30
0.0
 10
59.80448550978434
 20
149.0916008675411
 30
0.0
 10
58.67759403315507
 20
149.0916008675411
 30
0.0
 10
57.76429861751943
 20
148.1781331970176
 30
0.0
 10
57.76429861751943
 20
147.0512417203883
 30
0.0
 10
57.76429861751943
 20
145.9246947535348
 30
0.0
 10
58.67759403315507
 20
145.0110548281234
 30
0.0
 10
59.80448550978434
 20
145.0110548281234
 30
0.0
 10
60.93120473152571
 20
145.0110548281234
 30
0.0
 10
61.84450014716136
 20
145.9246947535348
 30
0.0
 10
61.84450014716136
 20
147.0512417203883
 30
0.0
 10
61.84450014716136
 20
147.0512417203883
 30
0.0
 10
61.84450014716136
 20
147.0512417203883
 30
0.0
 10
61.84450014716136
 20
147.0512417203883
 30
0.0
 10
61.84450014716136
 20
147.0512417203883
 30
0.0
 10
61.84450014716136
 20
147.0512417203883
 30
0.0
 10
61.84450014716136
 20
147.0512417203883
 30
0.0
  0
ENDBLK
  5
36F
330
36C
100
AcDbEntity
  8
0
100
AcDbBlockEnd
  0
BLOCK
  5
373
330
371
100
AcDbEntity
  8
0
100
AcDbBlockBegin
  2
block 124
 70
     0
 71
     0
 10
0.0
 20
0.0
 30
0.0
  3
block 124
  1

  0
SPLINE
  5
375
330
371
100
AcDbEntity
  8
Capa 1
 62
     7
370
    25
100
AcDbSpline
210
0.0
220
0.0
230
1.0
 70
    11
 71
     3
 72
    23
 73
    19
 74
     0
 42
0.0000000001
 43
0.0000000001
 40
0.0
 40
0.0
 40
0.0
 40
0.0
 40
1.0
 40
1.0
 40
1.0
 40
2.0
 40
2.0
 40
2.0
 40
3.0
 40
3.0
 40
3.0
 40
4.0
 40
4.0
 40
4.0
 40
5.0
 40
5.0
 40
5.0
 40
6.0
 40
6.0
 40
6.0
 40
6.0
 10
73.3042733292451
 20
147.0512417203883
 30
0.0
 10
73.3042733292451
 20
148.1781331970176
 30
0.0
 10
72.39063340383368
 20
149.0916008675411
 30
0.0
 10
71.26391418209231
 20
149.0916008675411
 30
0.0
 10
70.13719496035094
 20
149.0916008675411
 30
0.0
 10
69.2237272898274
 20
148.1781331970176
 30
0.0
 10
69.2237272898274
 20
147.0512417203883
 30
0.0
 10
69.2237272898274
 20
145.9246947535348
 30
0.0
 10
70.13719496035094
 20
145.0110548281234
 30
0.0
 10
71.26391418209231
 20
145.0110548281234
 30
0.0
 10
72.39063340383368
 20
145.0110548281234
 30
0.0
 10
73.3042733292451
 20
145.9246947535348
 30
0.0
 10
73.3042733292451
 20
147.0512417203883
 30
0.0
 10
73.3042733292451
 20
147.0512417203883
 30
0.0
 10
73.3042733292451
 20
147.0512417203883
 30
0.0
 10
73.3042733292451
 20
147.0512417203883
 30
0.0
 10
73.3042733292451
 20
147.0512417203883
 30
0.0
 10
73.3042733292451
 20
147.0512417203883
 30
0.0
 10
73.3042733292451
 20
147.0512417203883
 30
0.0
  0
ENDBLK
  5
374
330
371
100
AcDbEntity
  8
0
100
AcDbBlockEnd
  0
BLOCK
  5
378
330
376
100
AcDbEntity
  8
0
100
AcDbBlockBegin
  2
block 125
 70
     0
 71
     0
 10
0.0
 20
0.0
 30
0.0
  3
block 125
  1

  0
SPLINE
  5
37A
330
376
100
AcDbEntity
  8
Capa 1
 62
     7
370
    25
100
AcDbSpline
210
0.0
220
0.0
230
1.0
 70
    11
 71
     3
 72
    23
 73
    19
 74
     0
 42
0.0000000001
 43
0.0000000001
 40
0.0
 40
0.0
 40
0.0
 40
0.0
 40
1.0
 40
1.0
 40
1.0
 40
2.0
 40
2.0
 40
2.0
 40
3.0
 40
3.0
 40
3.0
 40
4.0
 40
4.0
 40
4.0
 40
5.0
 40
5.0
 40
5.0
 40
6.0
 40
6.0
 40
6.0
 40
6.0
 10
73.3042733292451
 20
135.7626898968752
 30
0.0
 10
73.3042733292451
 20
136.8892368637287
 30
0.0
 10
72.39063340383368
 20
137.8025322793644
 30
0.0
 10
71.26391418209231
 20
137.8025322793644
 30
0.0
 10
70.13719496035094
 20
137.8025322793644
 30
0.0
 10
69.2237272898274
 20
136.8892368637287
 30
0.0
 10
69.2237272898274
 20
135.7626898968752
 30
0.0
 10
69.2237272898274
 20
134.635798420246
 30
0.0
 10
70.13719496035094
 20
133.7221584948345
 30
0.0
 10
71.26391418209231
 20
133.7221584948345
 30
0.0
 10
72.39063340383368
 20
133.7221584948345
 30
0.0
 10
73.3042733292451
 20
134.635798420246
 30
0.0
 10
73.3042733292451
 20
135.7626898968752
 30
0.0
 10
73.3042733292451
 20
135.7626898968752
 30
0.0
 10
73.3042733292451
 20
135.7626898968752
 30
0.0
 10
73.3042733292451
 20
135.7626898968752
 30
0.0
 10
73.3042733292451
 20
135.7626898968752
 30
0.0
 10
73.3042733292451
 20
135.7626898968752
 30
0.0
 10
73.3042733292451
 20
135.7626898968752
 30
0.0
  0
ENDBLK
  5
379
330
376
100
AcDbEntity
  8
0
100
AcDbBlockEnd
  0
BLOCK
  5
37D
330
37B
100
AcDbEntity
  8
0
100
AcDbBlockBegin
  2
block 126
 70
     0
 71
     0
 10
0.0
 20
0.0
 30
0.0
  3
block 126
  1

  0
SPLINE
  5
37F
330
37B
100
AcDbEntity
  8
Capa 1
 62
     7
370
    25
100
AcDbSpline
210
0.0
220
0.0
230
1.0
 70
    11
 71
     3
 72
    23
 73
    19
 74
     0
 42
0.0000000001
 43
0.0000000001
 40
0.0
 40
0.0
 40
0.0
 40
0.0
 40
1.0
 40
1.0
 40
1.0
 40
2.0
 40
2.0
 40
2.0
 40
3.0
 40
3.0
 40
3.0
 40
4.0
 40
4.0
 40
4.0
 40
5.0
 40
5.0
 40
5.0
 40
6.0
 40
6.0
 40
6.0
 40
6.0
 10
61.84450014716136
 20
135.7626898968752
 30
0.0
 10
61.84450014716136
 20
136.8892368637287
 30
0.0
 10
60.93120473152571
 20
137.8025322793644
 30
0.0
 10
59.80448550978434
 20
137.8025322793644
 30
0.0
 10
58.67759403315507
 20
137.8025322793644
 30
0.0
 10
57.76429861751943
 20
136.8892368637287
 30
0.0
 10
57.76429861751943
 20
135.7626898968752
 30
0.0
 10
57.76429861751943
 20
134.635798420246
 30
0.0
 10
58.67759403315507
 20
133.7221584948345
 30
0.0
 10
59.80448550978434
 20
133.7221584948345
 30
0.0
 10
60.93120473152571
 20
133.7221584948345
 30
0.0
 10
61.84450014716136
 20
134.635798420246
 30
0.0
 10
61.84450014716136
 20
135.7626898968752
 30
0.0
 10
61.84450014716136
 20
135.7626898968752
 30
0.0
 10
61.84450014716136
 20
135.7626898968752
 30
0.0
 10
61.84450014716136
 20
135.7626898968752
 30
0.0
 10
61.84450014716136
 20
135.7626898968752
 30
0.0
 10
61.84450014716136
 20
135.7626898968752
 30
0.0
 10
61.84450014716136
 20
135.7626898968752
 30
0.0
  0
ENDBLK
  5
37E
330
37B
100
AcDbEntity
  8
0
100
AcDbBlockEnd
  0
BLOCK
  5
382
330
380
100
AcDbEntity
  8
0
100
AcDbBlockBegin
  2
block 127
 70
     0
 71
     0
 10
0.0
 20
0.0
 30
0.0
  3
block 127
  1

  0
SPLINE
  5
384
330
380
100
AcDbEntity
  8
Capa 1
 62
     7
370
    25
100
AcDbSpline
210
0.0
220
0.0
230
1.0
 70
    11
 71
     3
 72
    23
 73
    19
 74
     0
 42
0.0000000001
 43
0.0000000001
 40
0.0
 40
0.0
 40
0.0
 40
0.0
 40
1.0
 40
1.0
 40
1.0
 40
2.0
 40
2.0
 40
2.0
 40
3.0
 40
3.0
 40
3.0
 40
4.0
 40
4.0
 40
4.0
 40
5.0
 40
5.0
 40
5.0
 40
6.0
 40
6.0
 40
6.0
 40
6.0
 10
73.3042733292451
 20
113.1845527205217
 30
0.0
 10
73.3042733292451
 20
114.3117887069268
 30
0.0
 10
72.39063340383368
 20
115.2247396127866
 30
0.0
 10
71.26391418209231
 20
115.2247396127866
 30
0.0
 10
70.13719496035094
 20
115.2247396127866
 30
0.0
 10
69.2237272898274
 20
114.3117887069268
 30
0.0
 10
69.2237272898274
 20
113.1845527205217
 30
0.0
 10
69.2237272898274
 20
112.0576612438925
 30
0.0
 10
70.13719496035094
 20
111.1447103380326
 30
0.0
 10
71.26391418209231
 20
111.1447103380326
 30
0.0
 10
72.39063340383368
 20
111.1447103380326
 30
0.0
 10
73.3042733292451
 20
112.0576612438925
 30
0.0
 10
73.3042733292451
 20
113.1845527205217
 30
0.0
 10
73.3042733292451
 20
113.1845527205217
 30
0.0
 10
73.3042733292451
 20
113.1845527205217
 30
0.0
 10
73.3042733292451
 20
113.1845527205217
 30
0.0
 10
73.3042733292451
 20
113.1845527205217
 30
0.0
 10
73.3042733292451
 20
113.1845527205217
 30
0.0
 10
73.3042733292451
 20
113.1845527205217
 30
0.0
  0
ENDBLK
  5
383
330
380
100
AcDbEntity
  8
0
100
AcDbBlockEnd
  0
BLOCK
  5
387
330
385
100
AcDbEntity
  8
0
100
AcDbBlockBegin
  2
block 128
 70
     0
 71
     0
 10
0.0
 20
0.0
 30
0.0
  3
block 128
  1

  0
SPLINE
  5
389
330
385
100
AcDbEntity
  8
Capa 1
 62
     7
370
    25
100
AcDbSpline
210
0.0
220
0.0
230
1.0
 70
    11
 71
     3
 72
    23
 73
    19
 74
     0
 42
0.0000000001
 43
0.0000000001
 40
0.0
 40
0.0
 40
0.0
 40
0.0
 40
1.0
 40
1.0
 40
1.0
 40
2.0
 40
2.0
 40
2.0
 40
3.0
 40
3.0
 40
3.0
 40
4.0
 40
4.0
 40
4.0
 40
5.0
 40
5.0
 40
5.0
 40
6.0
 40
6.0
 40
6.0
 40
6.0
 10
61.84450014716136
 20
113.1845527205217
 30
0.0
 10
61.84450014716136
 20
114.3117887069268
 30
0.0
 10
60.93120473152571
 20
115.2247396127866
 30
0.0
 10
59.80448550978434
 20
115.2247396127866
 30
0.0
 10
58.67759403315507
 20
115.2247396127866
 30
0.0
 10
57.76429861751943
 20
114.3117887069268
 30
0.0
 10
57.76429861751943
 20
113.1845527205217
 30
0.0
 10
57.76429861751943
 20
112.0576612438925
 30
0.0
 10
58.67759403315507
 20
111.1447103380326
 30
0.0
 10
59.80448550978434
 20
111.1447103380326
 30
0.0
 10
60.93120473152571
 20
111.1447103380326
 30
0.0
 10
61.84450014716136
 20
112.0576612438925
 30
0.0
 10
61.84450014716136
 20
113.1845527205217
 30
0.0
 10
61.84450014716136
 20
113.1845527205217
 30
0.0
 10
61.84450014716136
 20
113.1845527205217
 30
0.0
 10
61.84450014716136
 20
113.1845527205217
 30
0.0
 10
61.84450014716136
 20
113.1845527205217
 30
0.0
 10
61.84450014716136
 20
113.1845527205217
 30
0.0
 10
61.84450014716136
 20
113.1845527205217
 30
0.0
  0
ENDBLK
  5
388
330
385
100
AcDbEntity
  8
0
100
AcDbBlockEnd
  0
BLOCK
  5
38C
330
38A
100
AcDbEntity
  8
0
100
AcDbBlockBegin
  2
block 129
 70
     0
 71
     0
 10
0.0
 20
0.0
 30
0.0
  3
block 129
  1

  0
SPLINE
  5
38E
330
38A
100
AcDbEntity
  8
Capa 1
 62
     7
370
    25
100
AcDbSpline
210
0.0
220
0.0
230
1.0
 70
    11
 71
     3
 72
    23
 73
    19
 74
     0
 42
0.0000000001
 43
0.0000000001
 40
0.0
 40
0.0
 40
0.0
 40
0.0
 40
1.0
 40
1.0
 40
1.0
 40
2.0
 40
2.0
 40
2.0
 40
3.0
 40
3.0
 40
3.0
 40
4.0
 40
4.0
 40
4.0
 40
5.0
 40
5.0
 40
5.0
 40
6.0
 40
6.0
 40
6.0
 40
6.0
 10
95.88189374093494
 20
158.3401380536772
 30
0.0
 10
95.88189374093494
 20
159.4670295303064
 30
0.0
 10
94.9684260704114
 20
160.3801526910542
 30
0.0
 10
93.84170684867003
 20
160.3801526910542
 30
0.0
 10
92.71498762692866
 20
160.3801526910542
 30
0.0
 10
91.80151995640512
 20
159.4670295303064
 30
0.0
 10
91.80151995640512
 20
158.3401380536772
 30
0.0
 10
91.80151995640512
 20
157.2137633417116
 30
0.0
 10
92.71498762692866
 20
156.3001234163002
 30
0.0
 10
93.84170684867003
 20
156.3001234163002
 30
0.0
 10
94.9684260704114
 20
156.3001234163002
 30
0.0
 10
95.88189374093494
 20
157.2137633417116
 30
0.0
 10
95.88189374093494
 20
158.3401380536772
 30
0.0
 10
95.88189374093494
 20
158.3401380536772
 30
0.0
 10
95.88189374093494
 20
158.3401380536772
 30
0.0
 10
95.88189374093494
 20
158.3401380536772
 30
0.0
 10
95.88189374093494
 20
158.3401380536772
 30
0.0
 10
95.88189374093494
 20
158.3401380536772
 30
0.0
 10
95.88189374093494
 20
158.3401380536772
 30
0.0
  0
ENDBLK
  5
38D
330
38A
100
AcDbEntity
  8
0
100
AcDbBlockEnd
  0
BLOCK
  5
391
330
38F
100
AcDbEntity
  8
0
100
AcDbBlockBegin
  2
block 130
 70
     0
 71
     0
 10
0.0
 20
0.0
 30
0.0
  3
block 130
  1

  0
SPLINE
  5
393
330
38F
100
AcDbEntity
  8
Capa 1
 62
     7
370
    25
100
AcDbSpline
210
0.0
220
0.0
230
1.0
 70
    11
 71
     3
 72
    23
 73
    19
 74
     0
 42
0.0000000001
 43
0.0000000001
 40
0.0
 40
0.0
 40
0.0
 40
0.0
 40
1.0
 40
1.0
 40
1.0
 40
2.0
 40
2.0
 40
2.0
 40
3.0
 40
3.0
 40
3.0
 40
4.0
 40
4.0
 40
4.0
 40
5.0
 40
5.0
 40
5.0
 40
6.0
 40
6.0
 40
6.0
 40
6.0
 10
84.59299740764608
 20
158.3401380536772
 30
0.0
 10
84.59299740764608
 20
159.4670295303064
 30
0.0
 10
83.67970199201044
 20
160.3801526910542
 30
0.0
 10
82.55298277026907
 20
160.3801526910542
 30
0.0
 10
81.4260912936398
 20
160.3801526910542
 30
0.0
 10
80.51262362311626
 20
159.4670295303064
 30
0.0
 10
80.51262362311626
 20
158.3401380536772
 30
0.0
 10
80.51262362311626
 20
157.2137633417116
 30
0.0
 10
81.4260912936398
 20
156.3001234163002
 30
0.0
 10
82.55298277026907
 20
156.3001234163002
 30
0.0
 10
83.67970199201044
 20
156.3001234163002
 30
0.0
 10
84.59299740764608
 20
157.2137633417116
 30
0.0
 10
84.59299740764608
 20
158.3401380536772
 30
0.0
 10
84.59299740764608
 20
158.3401380536772
 30
0.0
 10
84.59299740764608
 20
158.3401380536772
 30
0.0
 10
84.59299740764608
 20
158.3401380536772
 30
0.0
 10
84.59299740764608
 20
158.3401380536772
 30
0.0
 10
84.59299740764608
 20
158.3401380536772
 30
0.0
 10
84.59299740764608
 20
158.3401380536772
 30
0.0
  0
ENDBLK
  5
392
330
38F
100
AcDbEntity
  8
0
100
AcDbBlockEnd
  0
BLOCK
  5
396
330
394
100
AcDbEntity
  8
0
100
AcDbBlockBegin
  2
block 131
 70
     0
 71
     0
 10
0.0
 20
0.0
 30
0.0
  3
block 131
  1

  0
SPLINE
  5
398
330
394
100
AcDbEntity
  8
Capa 1
 62
     7
370
    25
100
AcDbSpline
210
0.0
220
0.0
230
1.0
 70
    11
 71
     3
 72
    23
 73
    19
 74
     0
 42
0.0000000001
 43
0.0000000001
 40
0.0
 40
0.0
 40
0.0
 40
0.0
 40
1.0
 40
1.0
 40
1.0
 40
2.0
 40
2.0
 40
2.0
 40
3.0
 40
3.0
 40
3.0
 40
4.0
 40
4.0
 40
4.0
 40
5.0
 40
5.0
 40
5.0
 40
6.0
 40
6.0
 40
6.0
 40
6.0
 10
107.1711345839996
 20
158.3401380536772
 30
0.0
 10
107.1711345839996
 20
159.4670295303064
 30
0.0
 10
106.2574946585882
 20
160.3801526910542
 30
0.0
 10
105.130430927071
 20
160.3801526910542
 30
0.0
 10
104.0040562151054
 20
160.3801526910542
 30
0.0
 10
103.090416289694
 20
159.4670295303064
 30
0.0
 10
103.090416289694
 20
158.3401380536772
 30
0.0
 10
103.090416289694
 20
157.2137633417116
 30
0.0
 10
104.0040562151054
 20
156.3001234163002
 30
0.0
 10
105.130430927071
 20
156.3001234163002
 30
0.0
 10
106.2574946585882
 20
156.3001234163002
 30
0.0
 10
107.1711345839996
 20
157.2137633417116
 30
0.0
 10
107.1711345839996
 20
158.3401380536772
 30
0.0
 10
107.1711345839996
 20
158.3401380536772
 30
0.0
 10
107.1711345839996
 20
158.3401380536772
 30
0.0
 10
107.1711345839996
 20
158.3401380536772
 30
0.0
 10
107.1711345839996
 20
158.3401380536772
 30
0.0
 10
107.1711345839996
 20
158.3401380536772
 30
0.0
 10
107.1711345839996
 20
158.3401380536772
 30
0.0
  0
ENDBLK
  5
397
330
394
100
AcDbEntity
  8
0
100
AcDbBlockEnd
  0
BLOCK
  5
39B
330
399
100
AcDbEntity
  8
0
100
AcDbBlockBegin
  2
block 132
 70
     0
 71
     0
 10
0.0
 20
0.0
 30
0.0
  3
block 132
  1

  0
SPLINE
  5
39D
330
399
100
AcDbEntity
  8
Capa 1
 62
     7
370
    25
100
AcDbSpline
210
0.0
220
0.0
230
1.0
 70
    11
 71
     3
 72
    23
 73
    19
 74
     0
 42
0.0000000001
 43
0.0000000001
 40
0.0
 40
0.0
 40
0.0
 40
0.0
 40
1.0
 40
1.0
 40
1.0
 40
2.0
 40
2.0
 40
2.0
 40
3.0
 40
3.0
 40
3.0
 40
4.0
 40
4.0
 40
4.0
 40
5.0
 40
5.0
 40
5.0
 40
6.0
 40
6.0
 40
6.0
 40
6.0
 10
107.1711345839996
 20
124.4737935635864
 30
0.0
 10
107.1711345839996
 20
125.5999960206641
 30
0.0
 10
106.2574946585882
 20
126.5136359460755
 30
0.0
 10
105.130430927071
 20
126.5136359460755
 30
0.0
 10
104.0040562151054
 20
126.5136359460755
 30
0.0
 10
103.090416289694
 20
125.5999960206641
 30
0.0
 10
103.090416289694
 20
124.4737935635864
 30
0.0
 10
103.090416289694
 20
123.3469020869571
 30
0.0
 10
104.0040562151054
 20
122.4332621615457
 30
0.0
 10
105.130430927071
 20
122.4332621615457
 30
0.0
 10
106.2574946585882
 20
122.4332621615457
 30
0.0
 10
107.1711345839996
 20
123.3469020869571
 30
0.0
 10
107.1711345839996
 20
124.4737935635864
 30
0.0
 10
107.1711345839996
 20
124.4737935635864
 30
0.0
 10
107.1711345839996
 20
124.4737935635864
 30
0.0
 10
107.1711345839996
 20
124.4737935635864
 30
0.0
 10
107.1711345839996
 20
124.4737935635864
 30
0.0
 10
107.1711345839996
 20
124.4737935635864
 30
0.0
 10
107.1711345839996
 20
124.4737935635864
 30
0.0
  0
ENDBLK
  5
39C
330
399
100
AcDbEntity
  8
0
100
AcDbBlockEnd
  0
BLOCK
  5
3A0
330
39E
100
AcDbEntity
  8
0
100
AcDbBlockBegin
  2
block 133
 70
     0
 71
     0
 10
0.0
 20
0.0
 30
0.0
  3
block 133
  1

  0
SPLINE
  5
3A2
330
39E
100
AcDbEntity
  8
Capa 1
 62
     7
370
    25
100
AcDbSpline
210
0.0
220
0.0
230
1.0
 70
    11
 71
     3
 72
    23
 73
    19
 74
     0
 42
0.0000000001
 43
0.0000000001
 40
0.0
 40
0.0
 40
0.0
 40
0.0
 40
1.0
 40
1.0
 40
1.0
 40
2.0
 40
2.0
 40
2.0
 40
3.0
 40
3.0
 40
3.0
 40
4.0
 40
4.0
 40
4.0
 40
5.0
 40
5.0
 40
5.0
 40
6.0
 40
6.0
 40
6.0
 40
6.0
 10
95.88189374093494
 20
124.4737935635864
 30
0.0
 10
95.88189374093494
 20
125.5999960206641
 30
0.0
 10
94.9684260704114
 20
126.5136359460755
 30
0.0
 10
93.84170684867003
 20
126.5136359460755
 30
0.0
 10
92.71498762692866
 20
126.5136359460755
 30
0.0
 10
91.80151995640512
 20
125.5999960206641
 30
0.0
 10
91.80151995640512
 20
124.4737935635864
 30
0.0
 10
91.80151995640512
 20
123.3469020869571
 30
0.0
 10
92.71498762692866
 20
122.4332621615457
 30
0.0
 10
93.84170684867003
 20
122.4332621615457
 30
0.0
 10
94.9684260704114
 20
122.4332621615457
 30
0.0
 10
95.88189374093494
 20
123.3469020869571
 30
0.0
 10
95.88189374093494
 20
124.4737935635864
 30
0.0
 10
95.88189374093494
 20
124.4737935635864
 30
0.0
 10
95.88189374093494
 20
124.4737935635864
 30
0.0
 10
95.88189374093494
 20
124.4737935635864
 30
0.0
 10
95.88189374093494
 20
124.4737935635864
 30
0.0
 10
95.88189374093494
 20
124.4737935635864
 30
0.0
 10
95.88189374093494
 20
124.4737935635864
 30
0.0
  0
ENDBLK
  5
3A1
330
39E
100
AcDbEntity
  8
0
100
AcDbBlockEnd
  0
BLOCK
  5
3A5
330
3A3
100
AcDbEntity
  8
0
100
AcDbBlockBegin
  2
block 134
 70
     0
 71
     0
 10
0.0
 20
0.0
 30
0.0
  3
block 134
  1

  0
SPLINE
  5
3A7
330
3A3
100
AcDbEntity
  8
Capa 1
 62
     7
370
    25
100
AcDbSpline
210
0.0
220
0.0
230
1.0
 70
    11
 71
     3
 72
    23
 73
    19
 74
     0
 42
0.0000000001
 43
0.0000000001
 40
0.0
 40
0.0
 40
0.0
 40
0.0
 40
1.0
 40
1.0
 40
1.0
 40
2.0
 40
2.0
 40
2.0
 40
3.0
 40
3.0
 40
3.0
 40
4.0
 40
4.0
 40
4.0
 40
5.0
 40
5.0
 40
5.0
 40
6.0
 40
6.0
 40
6.0
 40
6.0
 10
84.59299740764608
 20
124.4737935635864
 30
0.0
 10
84.59299740764608
 20
125.5999960206641
 30
0.0
 10
83.67970199201044
 20
126.5136359460755
 30
0.0
 10
82.55298277026907
 20
126.5136359460755
 30
0.0
 10
81.4260912936398
 20
126.5136359460755
 30
0.0
 10
80.51262362311626
 20
125.5999960206641
 30
0.0
 10
80.51262362311626
 20
124.4737935635864
 30
0.0
 10
80.51262362311626
 20
123.3469020869571
 30
0.0
 10
81.4260912936398
 20
122.4332621615457
 30
0.0
 10
82.55298277026907
 20
122.4332621615457
 30
0.0
 10
83.67970199201044
 20
122.4332621615457
 30
0.0
 10
84.59299740764608
 20
123.3469020869571
 30
0.0
 10
84.59299740764608
 20
124.4737935635864
 30
0.0
 10
84.59299740764608
 20
124.4737935635864
 30
0.0
 10
84.59299740764608
 20
124.4737935635864
 30
0.0
 10
84.59299740764608
 20
124.4737935635864
 30
0.0
 10
84.59299740764608
 20
124.4737935635864
 30
0.0
 10
84.59299740764608
 20
124.4737935635864
 30
0.0
 10
84.59299740764608
 20
124.4737935635864
 30
0.0
  0
ENDBLK
  5
3A6
330
3A3
100
AcDbEntity
  8
0
100
AcDbBlockEnd
  0
BLOCK
  5
3AA
330
3A8
100
AcDbEntity
  8
0
100
AcDbBlockBegin
  2
block 135
 70
     0
 71
     0
 10
0.0
 20
0.0
 30
0.0
  3
block 135
  1

  0
SPLINE
  5
3AC
330
3A8
100
AcDbEntity
  8
Capa 1
 62
     7
370
    25
100
AcDbSpline
210
0.0
220
0.0
230
1.0
 70
    11
 71
     3
 72
    23
 73
    19
 74
     0
 42
0.0000000001
 43
0.0000000001
 40
0.0
 40
0.0
 40
0.0
 40
0.0
 40
1.0
 40
1.0
 40
1.0
 40
2.0
 40
2.0
 40
2.0
 40
3.0
 40
3.0
 40
3.0
 40
4.0
 40
4.0
 40
4.0
 40
5.0
 40
5.0
 40
5.0
 40
6.0
 40
6.0
 40
6.0
 40
6.0
 10
95.88189374093494
 20
147.0512417203883
 30
0.0
 10
95.88189374093494
 20
148.1781331970176
 30
0.0
 10
94.9684260704114
 20
149.0916008675411
 30
0.0
 10
93.84170684867003
 20
149.0916008675411
 30
0.0
 10
92.71498762692866
 20
149.0916008675411
 30
0.0
 10
91.80151995640512
 20
148.1781331970176
 30
0.0
 10
91.80151995640512
 20
147.0512417203883
 30
0.0
 10
91.80151995640512
 20
145.9246947535348
 30
0.0
 10
92.71498762692866
 20
145.0110548281234
 30
0.0
 10
93.84170684867003
 20
145.0110548281234
 30
0.0
 10
94.9684260704114
 20
145.0110548281234
 30
0.0
 10
95.88189374093494
 20
145.9246947535348
 30
0.0
 10
95.88189374093494
 20
147.0512417203883
 30
0.0
 10
95.88189374093494
 20
147.0512417203883
 30
0.0
 10
95.88189374093494
 20
147.0512417203883
 30
0.0
 10
95.88189374093494
 20
147.0512417203883
 30
0.0
 10
95.88189374093494
 20
147.0512417203883
 30
0.0
 10
95.88189374093494
 20
147.0512417203883
 30
0.0
 10
95.88189374093494
 20
147.0512417203883
 30
0.0
  0
ENDBLK
  5
3AB
330
3A8
100
AcDbEntity
  8
0
100
AcDbBlockEnd
  0
BLOCK
  5
3AF
330
3AD
100
AcDbEntity
  8
0
100
AcDbBlockBegin
  2
block 136
 70
     0
 71
     0
 10
0.0
 20
0.0
 30
0.0
  3
block 136
  1

  0
SPLINE
  5
3B1
330
3AD
100
AcDbEntity
  8
Capa 1
 62
     7
370
    25
100
AcDbSpline
210
0.0
220
0.0
230
1.0
 70
    11
 71
     3
 72
    23
 73
    19
 74
     0
 42
0.0000000001
 43
0.0000000001
 40
0.0
 40
0.0
 40
0.0
 40
0.0
 40
1.0
 40
1.0
 40
1.0
 40
2.0
 40
2.0
 40
2.0
 40
3.0
 40
3.0
 40
3.0
 40
4.0
 40
4.0
 40
4.0
 40
5.0
 40
5.0
 40
5.0
 40
6.0
 40
6.0
 40
6.0
 40
6.0
 10
95.88189374093494
 20
135.7626898968752
 30
0.0
 10
95.88189374093494
 20
136.8892368637287
 30
0.0
 10
94.9684260704114
 20
137.8025322793644
 30
0.0
 10
93.84170684867003
 20
137.8025322793644
 30
0.0
 10
92.71498762692866
 20
137.8025322793644
 30
0.0
 10
91.80151995640512
 20
136.8892368637287
 30
0.0
 10
91.80151995640512
 20
135.7626898968752
 30
0.0
 10
91.80151995640512
 20
134.635798420246
 30
0.0
 10
92.71498762692866
 20
133.7221584948345
 30
0.0
 10
93.84170684867003
 20
133.7221584948345
 30
0.0
 10
94.9684260704114
 20
133.7221584948345
 30
0.0
 10
95.88189374093494
 20
134.635798420246
 30
0.0
 10
95.88189374093494
 20
135.7626898968752
 30
0.0
 10
95.88189374093494
 20
135.7626898968752
 30
0.0
 10
95.88189374093494
 20
135.7626898968752
 30
0.0
 10
95.88189374093494
 20
135.7626898968752
 30
0.0
 10
95.88189374093494
 20
135.7626898968752
 30
0.0
 10
95.88189374093494
 20
135.7626898968752
 30
0.0
 10
95.88189374093494
 20
135.7626898968752
 30
0.0
  0
ENDBLK
  5
3B0
330
3AD
100
AcDbEntity
  8
0
100
AcDbBlockEnd
  0
BLOCK
  5
3B4
330
3B2
100
AcDbEntity
  8
0
100
AcDbBlockBegin
  2
block 137
 70
     0
 71
     0
 10
0.0
 20
0.0
 30
0.0
  3
block 137
  1

  0
SPLINE
  5
3B6
330
3B2
100
AcDbEntity
  8
Capa 1
 62
     7
370
    25
100
AcDbSpline
210
0.0
220
0.0
230
1.0
 70
    11
 71
     3
 72
    23
 73
    19
 74
     0
 42
0.0000000001
 43
0.0000000001
 40
0.0
 40
0.0
 40
0.0
 40
0.0
 40
1.0
 40
1.0
 40
1.0
 40
2.0
 40
2.0
 40
2.0
 40
3.0
 40
3.0
 40
3.0
 40
4.0
 40
4.0
 40
4.0
 40
5.0
 40
5.0
 40
5.0
 40
6.0
 40
6.0
 40
6.0
 40
6.0
 10
84.59299740764608
 20
147.0512417203883
 30
0.0
 10
84.59299740764608
 20
148.1781331970176
 30
0.0
 10
83.67970199201044
 20
149.0916008675411
 30
0.0
 10
82.55298277026907
 20
149.0916008675411
 30
0.0
 10
81.4260912936398
 20
149.0916008675411
 30
0.0
 10
80.51262362311626
 20
148.1781331970176
 30
0.0
 10
80.51262362311626
 20
147.0512417203883
 30
0.0
 10
80.51262362311626
 20
145.9246947535348
 30
0.0
 10
81.4260912936398
 20
145.0110548281234
 30
0.0
 10
82.55298277026907
 20
145.0110548281234
 30
0.0
 10
83.67970199201044
 20
145.0110548281234
 30
0.0
 10
84.59299740764608
 20
145.9246947535348
 30
0.0
 10
84.59299740764608
 20
147.0512417203883
 30
0.0
 10
84.59299740764608
 20
147.0512417203883
 30
0.0
 10
84.59299740764608
 20
147.0512417203883
 30
0.0
 10
84.59299740764608
 20
147.0512417203883
 30
0.0
 10
84.59299740764608
 20
147.0512417203883
 30
0.0
 10
84.59299740764608
 20
147.0512417203883
 30
0.0
 10
84.59299740764608
 20
147.0512417203883
 30
0.0
  0
ENDBLK
  5
3B5
330
3B2
100
AcDbEntity
  8
0
100
AcDbBlockEnd
  0
BLOCK
  5
3B9
330
3B7
100
AcDbEntity
  8
0
100
AcDbBlockBegin
  2
block 138
 70
     0
 71
     0
 10
0.0
 20
0.0
 30
0.0
  3
block 138
  1

  0
SPLINE
  5
3BB
330
3B7
100
AcDbEntity
  8
Capa 1
 62
     7
370
    25
100
AcDbSpline
210
0.0
220
0.0
230
1.0
 70
    11
 71
     3
 72
    23
 73
    19
 74
     0
 42
0.0000000001
 43
0.0000000001
 40
0.0
 40
0.0
 40
0.0
 40
0.0
 40
1.0
 40
1.0
 40
1.0
 40
2.0
 40
2.0
 40
2.0
 40
3.0
 40
3.0
 40
3.0
 40
4.0
 40
4.0
 40
4.0
 40
5.0
 40
5.0
 40
5.0
 40
6.0
 40
6.0
 40
6.0
 40
6.0
 10
84.59299740764608
 20
135.7626898968752
 30
0.0
 10
84.59299740764608
 20
136.8892368637287
 30
0.0
 10
83.67970199201044
 20
137.8025322793644
 30
0.0
 10
82.55298277026907
 20
137.8025322793644
 30
0.0
 10
81.4260912936398
 20
137.8025322793644
 30
0.0
 10
80.51262362311626
 20
136.8892368637287
 30
0.0
 10
80.51262362311626
 20
135.7626898968752
 30
0.0
 10
80.51262362311626
 20
134.635798420246
 30
0.0
 10
81.4260912936398
 20
133.7221584948345
 30
0.0
 10
82.55298277026907
 20
133.7221584948345
 30
0.0
 10
83.67970199201044
 20
133.7221584948345
 30
0.0
 10
84.59299740764608
 20
134.635798420246
 30
0.0
 10
84.59299740764608
 20
135.7626898968752
 30
0.0
 10
84.59299740764608
 20
135.7626898968752
 30
0.0
 10
84.59299740764608
 20
135.7626898968752
 30
0.0
 10
84.59299740764608
 20
135.7626898968752
 30
0.0
 10
84.59299740764608
 20
135.7626898968752
 30
0.0
 10
84.59299740764608
 20
135.7626898968752
 30
0.0
 10
84.59299740764608
 20
135.7626898968752
 30
0.0
  0
ENDBLK
  5
3BA
330
3B7
100
AcDbEntity
  8
0
100
AcDbBlockEnd
  0
BLOCK
  5
3BE
330
3BC
100
AcDbEntity
  8
0
100
AcDbBlockBegin
  2
block 139
 70
     0
 71
     0
 10
0.0
 20
0.0
 30
0.0
  3
block 139
  1

  0
SPLINE
  5
3C0
330
3BC
100
AcDbEntity
  8
Capa 1
 62
     7
370
    25
100
AcDbSpline
210
0.0
220
0.0
230
1.0
 70
    11
 71
     3
 72
    23
 73
    19
 74
     0
 42
0.0000000001
 43
0.0000000001
 40
0.0
 40
0.0
 40
0.0
 40
0.0
 40
1.0
 40
1.0
 40
1.0
 40
2.0
 40
2.0
 40
2.0
 40
3.0
 40
3.0
 40
3.0
 40
4.0
 40
4.0
 40
4.0
 40
5.0
 40
5.0
 40
5.0
 40
6.0
 40
6.0
 40
6.0
 40
6.0
 10
107.1711345839996
 20
135.7626898968752
 30
0.0
 10
107.1711345839996
 20
136.8892368637287
 30
0.0
 10
106.2574946585882
 20
137.8025322793644
 30
0.0
 10
105.130430927071
 20
137.8025322793644
 30
0.0
 10
104.0040562151054
 20
137.8025322793644
 30
0.0
 10
103.090416289694
 20
136.8892368637287
 30
0.0
 10
103.090416289694
 20
135.7626898968752
 30
0.0
 10
103.090416289694
 20
134.635798420246
 30
0.0
 10
104.0040562151054
 20
133.7221584948345
 30
0.0
 10
105.130430927071
 20
133.7221584948345
 30
0.0
 10
106.2574946585882
 20
133.7221584948345
 30
0.0
 10
107.1711345839996
 20
134.635798420246
 30
0.0
 10
107.1711345839996
 20
135.7626898968752
 30
0.0
 10
107.1711345839996
 20
135.7626898968752
 30
0.0
 10
107.1711345839996
 20
135.7626898968752
 30
0.0
 10
107.1711345839996
 20
135.7626898968752
 30
0.0
 10
107.1711345839996
 20
135.7626898968752
 30
0.0
 10
107.1711345839996
 20
135.7626898968752
 30
0.0
 10
107.1711345839996
 20
135.7626898968752
 30
0.0
  0
ENDBLK
  5
3BF
330
3BC
100
AcDbEntity
  8
0
100
AcDbBlockEnd
  0
BLOCK
  5
3C3
330
3C1
100
AcDbEntity
  8
0
100
AcDbBlockBegin
  2
block 140
 70
     0
 71
     0
 10
0.0
 20
0.0
 30
0.0
  3
block 140
  1

  0
SPLINE
  5
3C5
330
3C1
100
AcDbEntity
  8
Capa 1
 62
     7
370
    25
100
AcDbSpline
210
0.0
220
0.0
230
1.0
 70
    11
 71
     3
 72
    23
 73
    19
 74
     0
 42
0.0000000001
 43
0.0000000001
 40
0.0
 40
0.0
 40
0.0
 40
0.0
 40
1.0
 40
1.0
 40
1.0
 40
2.0
 40
2.0
 40
2.0
 40
3.0
 40
3.0
 40
3.0
 40
4.0
 40
4.0
 40
4.0
 40
5.0
 40
5.0
 40
5.0
 40
6.0
 40
6.0
 40
6.0
 40
6.0
 10
107.1711345839996
 20
147.0512417203883
 30
0.0
 10
107.1711345839996
 20
148.1781331970176
 30
0.0
 10
106.2574946585882
 20
149.0916008675411
 30
0.0
 10
105.130430927071
 20
149.0916008675411
 30
0.0
 10
104.0040562151054
 20
149.0916008675411
 30
0.0
 10
103.090416289694
 20
148.1781331970176
 30
0.0
 10
103.090416289694
 20
147.0512417203883
 30
0.0
 10
103.090416289694
 20
145.9246947535348
 30
0.0
 10
104.0040562151054
 20
145.0110548281234
 30
0.0
 10
105.130430927071
 20
145.0110548281234
 30
0.0
 10
106.2574946585882
 20
145.0110548281234
 30
0.0
 10
107.1711345839996
 20
145.9246947535348
 30
0.0
 10
107.1711345839996
 20
147.0512417203883
 30
0.0
 10
107.1711345839996
 20
147.0512417203883
 30
0.0
 10
107.1711345839996
 20
147.0512417203883
 30
0.0
 10
107.1711345839996
 20
147.0512417203883
 30
0.0
 10
107.1711345839996
 20
147.0512417203883
 30
0.0
 10
107.1711345839996
 20
147.0512417203883
 30
0.0
 10
107.1711345839996
 20
147.0512417203883
 30
0.0
  0
ENDBLK
  5
3C4
330
3C1
100
AcDbEntity
  8
0
100
AcDbBlockEnd
  0
BLOCK
  5
3C8
330
3C6
100
AcDbEntity
  8
0
100
AcDbBlockBegin
  2
block 141
 70
     0
 71
     0
 10
0.0
 20
0.0
 30
0.0
  3
block 141
  1

  0
SPLINE
  5
3CA
330
3C6
100
AcDbEntity
  8
Capa 1
 62
     7
370
    25
100
AcDbSpline
210
0.0
220
0.0
230
1.0
 70
    11
 71
     3
 72
    23
 73
    19
 74
     0
 42
0.0000000001
 43
0.0000000001
 40
0.0
 40
0.0
 40
0.0
 40
0.0
 40
1.0
 40
1.0
 40
1.0
 40
2.0
 40
2.0
 40
2.0
 40
3.0
 40
3.0
 40
3.0
 40
4.0
 40
4.0
 40
4.0
 40
5.0
 40
5.0
 40
5.0
 40
6.0
 40
6.0
 40
6.0
 40
6.0
 10
95.88189374093494
 20
113.1845527205217
 30
0.0
 10
95.88189374093494
 20
114.3117887069268
 30
0.0
 10
94.9684260704114
 20
115.2247396127866
 30
0.0
 10
93.84170684867003
 20
115.2247396127866
 30
0.0
 10
92.71498762692866
 20
115.2247396127866
 30
0.0
 10
91.80151995640512
 20
114.3117887069268
 30
0.0
 10
91.80151995640512
 20
113.1845527205217
 30
0.0
 10
91.80151995640512
 20
112.0576612438925
 30
0.0
 10
92.71498762692866
 20
111.1447103380326
 30
0.0
 10
93.84170684867003
 20
111.1447103380326
 30
0.0
 10
94.9684260704114
 20
111.1447103380326
 30
0.0
 10
95.88189374093494
 20
112.0576612438925
 30
0.0
 10
95.88189374093494
 20
113.1845527205217
 30
0.0
 10
95.88189374093494
 20
113.1845527205217
 30
0.0
 10
95.88189374093494
 20
113.1845527205217
 30
0.0
 10
95.88189374093494
 20
113.1845527205217
 30
0.0
 10
95.88189374093494
 20
113.1845527205217
 30
0.0
 10
95.88189374093494
 20
113.1845527205217
 30
0.0
 10
95.88189374093494
 20
113.1845527205217
 30
0.0
  0
ENDBLK
  5
3C9
330
3C6
100
AcDbEntity
  8
0
100
AcDbBlockEnd
  0
BLOCK
  5
3CD
330
3CB
100
AcDbEntity
  8
0
100
AcDbBlockBegin
  2
block 142
 70
     0
 71
     0
 10
0.0
 20
0.0
 30
0.0
  3
block 142
  1

  0
SPLINE
  5
3CF
330
3CB
100
AcDbEntity
  8
Capa 1
 62
     7
370
    25
100
AcDbSpline
210
0.0
220
0.0
230
1.0
 70
    11
 71
     3
 72
    23
 73
    19
 74
     0
 42
0.0000000001
 43
0.0000000001
 40
0.0
 40
0.0
 40
0.0
 40
0.0
 40
1.0
 40
1.0
 40
1.0
 40
2.0
 40
2.0
 40
2.0
 40
3.0
 40
3.0
 40
3.0
 40
4.0
 40
4.0
 40
4.0
 40
5.0
 40
5.0
 40
5.0
 40
6.0
 40
6.0
 40
6.0
 40
6.0
 10
84.59299740764608
 20
113.1845527205217
 30
0.0
 10
84.59299740764608
 20
114.3117887069268
 30
0.0
 10
83.67970199201044
 20
115.2247396127866
 30
0.0
 10
82.55298277026907
 20
115.2247396127866
 30
0.0
 10
81.4260912936398
 20
115.2247396127866
 30
0.0
 10
80.51262362311626
 20
114.3117887069268
 30
0.0
 10
80.51262362311626
 20
113.1845527205217
 30
0.0
 10
80.51262362311626
 20
112.0576612438925
 30
0.0
 10
81.4260912936398
 20
111.1447103380326
 30
0.0
 10
82.55298277026907
 20
111.1447103380326
 30
0.0
 10
83.67970199201044
 20
111.1447103380326
 30
0.0
 10
84.59299740764608
 20
112.0576612438925
 30
0.0
 10
84.59299740764608
 20
113.1845527205217
 30
0.0
 10
84.59299740764608
 20
113.1845527205217
 30
0.0
 10
84.59299740764608
 20
113.1845527205217
 30
0.0
 10
84.59299740764608
 20
113.1845527205217
 30
0.0
 10
84.59299740764608
 20
113.1845527205217
 30
0.0
 10
84.59299740764608
 20
113.1845527205217
 30
0.0
 10
84.59299740764608
 20
113.1845527205217
 30
0.0
  0
ENDBLK
  5
3CE
330
3CB
100
AcDbEntity
  8
0
100
AcDbBlockEnd
  0
BLOCK
  5
3D2
330
3D0
100
AcDbEntity
  8
0
100
AcDbBlockBegin
  2
block 143
 70
     0
 71
     0
 10
0.0
 20
0.0
 30
0.0
  3
block 143
  1

  0
POLYLINE
  5
3D4
330
3D0
100
AcDbEntity
  8
Capa 1
  6
AI-Linetype-1
 62
     7
370
    25
100
AcDb2dPolyline
 66
     1
 10
0.0
 20
0.0
 30
0.0
  0
VERTEX
  5
3D5
330
3D4
100
AcDbEntity
  8
Capa 1
  6
AI-Linetype-1
 62
     7
370
    25
100
AcDbVertex
100
AcDb2dVertex
 10
117.7792796003152
 20
218.1783855214895
 30
0.0
  0
VERTEX
  5
3D6
330
3D4
100
AcDbEntity
  8
Capa 1
  6
AI-Linetype-1
 62
     7
370
    25
100
AcDbVertex
100
AcDb2dVertex
 10
117.7792796003152
 20
227.2510504670816
 30
0.0
  0
SEQEND
  5
3D7
330
3D4
100
AcDbEntity
  8
Capa 1
  6
AI-Linetype-1
370
    25
  0
ENDBLK
  5
3D3
330
3D0
100
AcDbEntity
  8
0
100
AcDbBlockEnd
  0
BLOCK
  5
3DB
330
3D9
100
AcDbEntity
  8
0
100
AcDbBlockBegin
  2
block 144
 70
     0
 71
     0
 10
0.0
 20
0.0
 30
0.0
  3
block 144
  1

  0
POLYLINE
  5
3DD
330
3D9
100
AcDbEntity
  8
Capa 1
  6
AI-Linetype-2
 62
     7
370
    25
100
AcDb2dPolyline
 66
     1
 10
0.0
 20
0.0
 30
0.0
  0
VERTEX
  5
3DE
330
3DD
100
AcDbEntity
  8
Capa 1
  6
AI-Linetype-2
 62
     7
370
    25
100
AcDbVertex
100
AcDb2dVertex
 10
117.7792796003152
 20
103.1148764837755
 30
0.0
  0
VERTEX
  5
3DF
330
3DD
100
AcDbEntity
  8
Capa 1
  6
AI-Linetype-2
 62
     7
370
    25
100
AcDbVertex
100
AcDb2dVertex
 10
117.7792796003152
 20
119.0377738112986
 30
0.0
  0
SEQEND
  5
3E0
330
3DD
100
AcDbEntity
  8
Capa 1
  6
AI-Linetype-2
370
    25
  0
ENDBLK
  5
3DC
330
3D9
100
AcDbEntity
  8
0
100
AcDbBlockEnd
  0
BLOCK
  5
3E4
330
3E2
100
AcDbEntity
  8
0
100
AcDbBlockBegin
  2
block 145
 70
     0
 71
     0
 10
0.0
 20
0.0
 30
0.0
  3
block 145
  1

  0
POLYLINE
  5
3E6
330
3E2
100
AcDbEntity
  8
Capa 1
  6
AI-Linetype-3
 62
     7
370
    25
100
AcDb2dPolyline
 66
     1
 10
0.0
 20
0.0
 30
0.0
  0
VERTEX
  5
3E7
330
3E6
100
AcDbEntity
  8
Capa 1
  6
AI-Linetype-3
 62
     7
370
    25
100
AcDbVertex
100
AcDb2dVertex
 10
55.02527364505199
 20
111.0768419122008
 30
0.0
  0
VERTEX
  5
3E8
330
3E6
100
AcDbEntity
  8
Capa 1
  6
AI-Linetype-3
 62
     7
370
    25
100
AcDbVertex
100
AcDb2dVertex
 10
125.7412450287405
 20
111.0768419122008
 30
0.0
  0
SEQEND
  5
3E9
330
3E6
100
AcDbEntity
  8
Capa 1
  6
AI-Linetype-3
370
    25
  0
ENDBLK
  5
3E5
330
3E2
100
AcDbEntity
  8
0
100
AcDbBlockEnd
  0
BLOCK
  5
3ED
330
3EB
100
AcDbEntity
  8
0
100
AcDbBlockBegin
  2
block 146
 70
     0
 71
     0
 10
0.0
 20
0.0
 30
0.0
  3
block 146
  1

  0
POLYLINE
  5
3EF
330
3EB
100
AcDbEntity
  8
Capa 1
 62
     7
370
    25
100
AcDb2dPolyline
 66
     1
 10
0.0
 20
0.0
 30
0.0
  0
VERTEX
  5
3F0
330
3EF
100
AcDbEntity
  8
Capa 1
 62
     7
370
    25
100
AcDbVertex
100
AcDb2dVertex
 10
110.7016707663587
 20
224.7542158669989
 30
0.0
  0
VERTEX
  5
3F1
330
3EF
100
AcDbEntity
  8
Capa 1
 62
     7
370
    25
100
AcDbVertex
100
AcDb2dVertex
 10
124.8579219635991
 20
224.7542158669989
 30
0.0
  0
SEQEND
  5
3F2
330
3EF
100
AcDbEntity
  8
Capa 1
370
    25
  0
ENDBLK
  5
3EE
330
3EB
100
AcDbEntity
  8
0
100
AcDbBlockEnd
  0
BLOCK
  5
3F5
330
3F3
100
AcDbEntity
  8
0
100
AcDbBlockBegin
  2
block 147
 70
     0
 71
     0
 10
0.0
 20
0.0
 30
0.0
  3
block 147
  1

  0
POLYLINE
  5
3F7
330
3F3
100
AcDbEntity
  8
Capa 1
 62
     7
370
    25
100
AcDb2dPolyline
 66
     1
 10
0.0
 20
0.0
 30
0.0
  0
VERTEX
  5
3F8
330
3F7
100
AcDbEntity
  8
Capa 1
 62
     7
370
    25
100
AcDbVertex
100
AcDb2dVertex
 10
113.4673952464504
 20
222.0840928496907
 30
0.0
  0
VERTEX
  5
3F9
330
3F7
100
AcDbEntity
  8
Capa 1
 62
     7
370
    25
100
AcDbVertex
100
AcDb2dVertex
 10
122.0918529737317
 20
222.0840928496907
 30
0.0
  0
SEQEND
  5
3FA
330
3F7
100
AcDbEntity
  8
Capa 1
370
    25
  0
ENDBLK
  5
3F6
330
3F3
100
AcDbEntity
  8
0
100
AcDbBlockEnd
  0
BLOCK
  5
3FD
330
3FB
100
AcDbEntity
  8
0
100
AcDbBlockBegin
  2
block 148
 70
     0
 71
     0
 10
0.0
 20
0.0
 30
0.0
  3
block 148
  1

  0
INSERT
  5
400
330
3FB
100
AcDbEntity
  8
Capa 1
100
AcDbBlockReference
  2
block 149
 10
0.0
 20
0.0
 30
0.0
  0
INSERT
  5
408
330
3FB
100
AcDbEntity
  8
Capa 1
100
AcDbBlockReference
  2
block 150
 10
0.0
 20
0.0
 30
0.0
  0
INSERT
  5
410
330
3FB
100
AcDbEntity
  8
Capa 1
100
AcDbBlockReference
  2
block 151
 10
0.0
 20
0.0
 30
0.0
  0
INSERT
  5
418
330
3FB
100
AcDbEntity
  8
Capa 1
100
AcDbBlockReference
  2
block 152
 10
0.0
 20
0.0
 30
0.0
  0
INSERT
  5
420
330
3FB
100
AcDbEntity
  8
Capa 1
100
AcDbBlockReference
  2
block 153
 10
0.0
 20
0.0
 30
0.0
  0
INSERT
  5
42B
330
3FB
100
AcDbEntity
  8
Capa 1
100
AcDbBlockReference
  2
block 154
 10
0.0
 20
0.0
 30
0.0
  0
INSERT
  5
436
330
3FB
100
AcDbEntity
  8
Capa 1
100
AcDbBlockReference
  2
block 155
 10
0.0
 20
0.0
 30
0.0
  0
INSERT
  5
43B
330
3FB
100
AcDbEntity
  8
Capa 1
100
AcDbBlockReference
  2
block 156
 10
0.0
 20
0.0
 30
0.0
  0
INSERT
  5
443
330
3FB
100
AcDbEntity
  8
Capa 1
100
AcDbBlockReference
  2
block 157
 10
0.0
 20
0.0
 30
0.0
  0
INSERT
  5
44B
330
3FB
100
AcDbEntity
  8
Capa 1
100
AcDbBlockReference
  2
block 158
 10
0.0
 20
0.0
 30
0.0
  0
ENDBLK
  5
3FE
330
3FB
100
AcDbEntity
  8
0
100
AcDbBlockEnd
  0
BLOCK
  5
401
330
3FF
100
AcDbEntity
  8
0
100
AcDbBlockBegin
  2
block 149
 70
     0
 71
     0
 10
0.0
 20
0.0
 30
0.0
  3
block 149
  1

  0
POLYLINE
  5
403
330
3FF
100
AcDbEntity
  8
Capa 1
 62
     7
370
    25
100
AcDb2dPolyline
 66
     1
 10
0.0
 20
0.0
 30
0.0
  0
VERTEX
  5
404
330
403
100
AcDbEntity
  8
Capa 1
 62
     7
370
    25
100
AcDbVertex
100
AcDb2dVertex
 10
113.5621354347943
 20
220.1593167323175
 30
0.0
  0
VERTEX
  5
405
330
403
100
AcDbEntity
  8
Capa 1
 62
     7
370
    25
100
AcDbVertex
100
AcDb2dVertex
 10
113.5621354347943
 20
212.5673548030973
 30
0.0
  0
SEQEND
  5
406
330
403
100
AcDbEntity
  8
Capa 1
370
    25
  0
ENDBLK
  5
402
330
3FF
100
AcDbEntity
  8
0
100
AcDbBlockEnd
  0
BLOCK
  5
409
330
407
100
AcDbEntity
  8
0
100
AcDbBlockBegin
  2
block 150
 70
     0
 71
     0
 10
0.0
 20
0.0
 30
0.0
  3
block 150
  1

  0
POLYLINE
  5
40B
330
407
100
AcDbEntity
  8
Capa 1
 62
     7
370
    25
100
AcDb2dPolyline
 66
     1
 10
0.0
 20
0.0
 30
0.0
  0
VERTEX
  5
40C
330
40B
100
AcDbEntity
  8
Capa 1
 62
     7
370
    25
100
AcDbVertex
100
AcDb2dVertex
 10
121.9953902365087
 20
220.1593167323175
 30
0.0
  0
VERTEX
  5
40D
330
40B
100
AcDbEntity
  8
Capa 1
 62
     7
370
    25
100
AcDbVertex
100
AcDb2dVertex
 10
121.9953902365087
 20
212.5673548030973
 30
0.0
  0
SEQEND
  5
40E
330
40B
100
AcDbEntity
  8
Capa 1
370
    25
  0
ENDBLK
  5
40A
330
407
100
AcDbEntity
  8
0
100
AcDbBlockEnd
  0
BLOCK
  5
411
330
40F
100
AcDbEntity
  8
0
100
AcDbBlockBegin
  2
block 151
 70
     0
 71
     0
 10
0.0
 20
0.0
 30
0.0
  3
block 151
  1

  0
POLYLINE
  5
413
330
40F
100
AcDbEntity
  8
Capa 1
 62
     7
370
    25
100
AcDb2dPolyline
 66
     1
 10
0.0
 20
0.0
 30
0.0
  0
VERTEX
  5
414
330
413
100
AcDbEntity
  8
Capa 1
 62
     7
370
    25
100
AcDbVertex
100
AcDb2dVertex
 10
116.0102219016019
 20
213.9273071430527
 30
0.0
  0
VERTEX
  5
415
330
413
100
AcDbEntity
  8
Capa 1
 62
     7
370
    25
100
AcDbVertex
100
AcDb2dVertex
 10
119.5473037697012
 20
213.9273071430527
 30
0.0
  0
SEQEND
  5
416
330
413
100
AcDbEntity
  8
Capa 1
370
    25
  0
ENDBLK
  5
412
330
40F
100
AcDbEntity
  8
0
100
AcDbBlockEnd
  0
BLOCK
  5
419
330
417
100
AcDbEntity
  8
0
100
AcDbBlockBegin
  2
block 152
 70
     0
 71
     0
 10
0.0
 20
0.0
 30
0.0
  3
block 152
  1

  0
POLYLINE
  5
41B
330
417
100
AcDbEntity
  8
Capa 1
 62
     7
370
    25
100
AcDb2dPolyline
 66
     1
 10
0.0
 20
0.0
 30
0.0
  0
VERTEX
  5
41C
330
41B
100
AcDbEntity
  8
Capa 1
 62
     7
370
    25
100
AcDbVertex
100
AcDb2dVertex
 10
121.9953902365087
 20
213.9273071430527
 30
0.0
  0
VERTEX
  5
41D
330
41B
100
AcDbEntity
  8
Capa 1
 62
     7
370
    25
100
AcDbVertex
100
AcDb2dVertex
 10
124.4431321935405
 20
213.9273071430527
 30
0.0
  0
SEQEND
  5
41E
330
41B
100
AcDbEntity
  8
Capa 1
370
    25
  0
ENDBLK
  5
41A
330
417
100
AcDbEntity
  8
0
100
AcDbBlockEnd
  0
BLOCK
  5
421
330
41F
100
AcDbEntity
  8
0
100
AcDbBlockBegin
  2
block 153
 70
     0
 71
     0
 10
0.0
 20
0.0
 30
0.0
  3
block 153
  1

  0
POLYLINE
  5
423
330
41F
100
AcDbEntity
  8
Capa 1
370
     0
100
AcDb2dPolyline
 66
     1
 10
0.0
 20
0.0
 30
0.0
  0
VERTEX
  5
424
330
423
100
AcDbEntity
  8
Capa 1
370
     0
100
AcDbVertex
100
AcDb2dVertex
 10
116.0102219016019
 20
214.3353789724833
 30
0.0
  0
VERTEX
  5
425
330
423
100
AcDbEntity
  8
Capa 1
370
     0
100
AcDbVertex
100
AcDb2dVertex
 10
116.0102219016019
 20
213.51940756851
 30
0.0
  0
VERTEX
  5
426
330
423
100
AcDbEntity
  8
Capa 1
370
     0
100
AcDbVertex
100
AcDb2dVertex
 10
113.5621354347943
 20
213.9273071430527
 30
0.0
  0
VERTEX
  5
427
330
423
100
AcDbEntity
  8
Capa 1
370
     0
100
AcDbVertex
100
AcDb2dVertex
 10
116.0102219016019
 20
214.3353789724833
 30
0.0
  0
SEQEND
  5
428
330
423
100
AcDbEntity
  8
Capa 1
370
     0
  0
HATCH
  5
429
330
41F
100
AcDbEntity
  8
Capa 1
 62
     7
100
AcDbHatch
 10
0.0
 20
0.0
 30
0.0
210
0.0
220
0.0
230
1.0
  2
SOLID
 70
     1
 71
     0
 91
        1
 92
        1
 93
        3
 72
     1
 10
116.0102219016019
 20
214.3353789724833
 11
116.0102219016019
 21
213.51940756851
 72
     1
 10
116.0102219016019
 20
213.51940756851
 11
113.5621354347943
 21
213.9273071430527
 72
     1
 10
113.5621354347943
 20
213.9273071430527
 11
116.0102219016019
 21
214.3353789724833
 97
        0
 75
     2
 76
     1
 98
        0
  0
ENDBLK
  5
422
330
41F
100
AcDbEntity
  8
0
100
AcDbBlockEnd
  0
BLOCK
  5
42C
330
42A
100
AcDbEntity
  8
0
100
AcDbBlockBegin
  2
block 154
 70
     0
 71
     0
 10
0.0
 20
0.0
 30
0.0
  3
block 154
  1

  0
POLYLINE
  5
42E
330
42A
100
AcDbEntity
  8
Capa 1
370
     0
100
AcDb2dPolyline
 66
     1
 10
0.0
 20
0.0
 30
0.0
  0
VERTEX
  5
42F
330
42E
100
AcDbEntity
  8
Capa 1
370
     0
100
AcDbVertex
100
AcDb2dVertex
 10
119.5473037697012
 20
214.3353789724833
 30
0.0
  0
VERTEX
  5
430
330
42E
100
AcDbEntity
  8
Capa 1
370
     0
100
AcDbVertex
100
AcDb2dVertex
 10
119.5473037697012
 20
213.51940756851
 30
0.0
  0
VERTEX
  5
431
330
42E
100
AcDbEntity
  8
Capa 1
370
     0
100
AcDbVertex
100
AcDb2dVertex
 10
121.9953902365087
 20
213.9273071430527
 30
0.0
  0
VERTEX
  5
432
330
42E
100
AcDbEntity
  8
Capa 1
370
     0
100
AcDbVertex
100
AcDb2dVertex
 10
119.5473037697012
 20
214.3353789724833
 30
0.0
  0
SEQEND
  5
433
330
42E
100
AcDbEntity
  8
Capa 1
370
     0
  0
HATCH
  5
434
330
42A
100
AcDbEntity
  8
Capa 1
 62
     7
100
AcDbHatch
 10
0.0
 20
0.0
 30
0.0
210
0.0
220
0.0
230
1.0
  2
SOLID
 70
     1
 71
     0
 91
        1
 92
        1
 93
        3
 72
     1
 10
119.5473037697012
 20
214.3353789724833
 11
119.5473037697012
 21
213.51940756851
 72
     1
 10
119.5473037697012
 20
213.51940756851
 11
121.9953902365087
 21
213.9273071430527
 72
     1
 10
121.9953902365087
 20
213.9273071430527
 11
119.5473037697012
 21
214.3353789724833
 97
        0
 75
     2
 76
     1
 98
        0
  0
ENDBLK
  5
42D
330
42A
100
AcDbEntity
  8
0
100
AcDbBlockEnd
  0
BLOCK
  5
437
330
435
100
AcDbEntity
  8
0
100
AcDbBlockBegin
  2
block 155
 70
     0
 71
     0
 10
0.0
 20
0.0
 30
0.0
  3
block 155
  1

  0
MTEXT
  5
439
330
435
100
AcDbEntity
  8
Capa 1
 62
     7
100
AcDbMText
 10
125.4146497612857
 20
212.5670102933215
 30
0.0
 40
2.720217147585918
 41
0.0
 71
     7
 72
     1
  1
\fMyriad Pro|b0|i0|c0|p34;\W1;\U+00D862
 73
     1
 44
1.0
  0
ENDBLK
  5
438
330
435
100
AcDbEntity
  8
0
100
AcDbBlockEnd
  0
BLOCK
  5
43C
330
43A
100
AcDbEntity
  8
0
100
AcDbBlockBegin
  2
block 156
 70
     0
 71
     0
 10
0.0
 20
0.0
 30
0.0
  3
block 156
  1

  0
POLYLINE
  5
43E
330
43A
100
AcDbEntity
  8
Capa 1
370
     0
100
AcDb2dPolyline
 66
     1
 10
0.0
 20
0.0
 30
0.0
  0
VERTEX
  5
43F
330
43E
100
AcDbEntity
  8
Capa 1
370
     0
100
AcDbVertex
100
AcDb2dVertex
 10
113.5621354347943
 20
221.5194413271608
 30
0.0
  0
VERTEX
  5
440
330
43E
100
AcDbEntity
  8
Capa 1
370
     0
100
AcDbVertex
100
AcDb2dVertex
 10
113.5621354347943
 20
221.5194413271608
 30
0.0
  0
SEQEND
  5
441
330
43E
100
AcDbEntity
  8
Capa 1
370
     0
  0
ENDBLK
  5
43D
330
43A
100
AcDbEntity
  8
0
100
AcDbBlockEnd
  0
BLOCK
  5
444
330
442
100
AcDbEntity
  8
0
100
AcDbBlockBegin
  2
block 157
 70
     0
 71
     0
 10
0.0
 20
0.0
 30
0.0
  3
block 157
  1

  0
POLYLINE
  5
446
330
442
100
AcDbEntity
  8
Capa 1
370
     0
100
AcDb2dPolyline
 66
     1
 10
0.0
 20
0.0
 30
0.0
  0
VERTEX
  5
447
330
446
100
AcDbEntity
  8
Capa 1
370
     0
100
AcDbVertex
100
AcDb2dVertex
 10
121.9953902365087
 20
221.5194413271608
 30
0.0
  0
VERTEX
  5
448
330
446
100
AcDbEntity
  8
Capa 1
370
     0
100
AcDbVertex
100
AcDb2dVertex
 10
121.9953902365087
 20
221.5194413271608
 30
0.0
  0
SEQEND
  5
449
330
446
100
AcDbEntity
  8
Capa 1
370
     0
  0
ENDBLK
  5
445
330
442
100
AcDbEntity
  8
0
100
AcDbBlockEnd
  0
BLOCK
  5
44C
330
44A
100
AcDbEntity
  8
0
100
AcDbBlockBegin
  2
block 158
 70
     0
 71
     0
 10
0.0
 20
0.0
 30
0.0
  3
block 158
  1

  0
POLYLINE
  5
44E
330
44A
100
AcDbEntity
  8
Capa 1
370
     0
100
AcDb2dPolyline
 66
     1
 10
0.0
 20
0.0
 30
0.0
  0
VERTEX
  5
44F
330
44E
100
AcDbEntity
  8
Capa 1
370
     0
100
AcDbVertex
100
AcDb2dVertex
 10
121.9953902365087
 20
213.9273071430527
 30
0.0
  0
VERTEX
  5
450
330
44E
100
AcDbEntity
  8
Capa 1
370
     0
100
AcDbVertex
100
AcDb2dVertex
 10
121.9953902365087
 20
213.9273071430527
 30
0.0
  0
SEQEND
  5
451
330
44E
100
AcDbEntity
  8
Capa 1
370
     0
  0
ENDBLK
  5
44D
330
44A
100
AcDbEntity
  8
0
100
AcDbBlockEnd
  0
BLOCK
  5
454
330
452
100
AcDbEntity
  8
0
100
AcDbBlockBegin
  2
block 159
 70
     0
 71
     0
 10
0.0
 20
0.0
 30
0.0
  3
block 159
  1

  0
INSERT
  5
457
330
452
100
AcDbEntity
  8
Capa 1
100
AcDbBlockReference
  2
block 160
 10
0.0
 20
0.0
 30
0.0
  0
INSERT
  5
45F
330
452
100
AcDbEntity
  8
Capa 1
100
AcDbBlockReference
  2
block 161
 10
0.0
 20
0.0
 30
0.0
  0
INSERT
  5
467
330
452
100
AcDbEntity
  8
Capa 1
100
AcDbBlockReference
  2
block 162
 10
0.0
 20
0.0
 30
0.0
  0
INSERT
  5
46F
330
452
100
AcDbEntity
  8
Capa 1
100
AcDbBlockReference
  2
block 163
 10
0.0
 20
0.0
 30
0.0
  0
INSERT
  5
477
330
452
100
AcDbEntity
  8
Capa 1
100
AcDbBlockReference
  2
block 164
 10
0.0
 20
0.0
 30
0.0
  0
INSERT
  5
482
330
452
100
AcDbEntity
  8
Capa 1
100
AcDbBlockReference
  2
block 165
 10
0.0
 20
0.0
 30
0.0
  0
INSERT
  5
48D
330
452
100
AcDbEntity
  8
Capa 1
100
AcDbBlockReference
  2
block 166
 10
0.0
 20
0.0
 30
0.0
  0
INSERT
  5
492
330
452
100
AcDbEntity
  8
Capa 1
100
AcDbBlockReference
  2
block 167
 10
0.0
 20
0.0
 30
0.0
  0
INSERT
  5
49A
330
452
100
AcDbEntity
  8
Capa 1
100
AcDbBlockReference
  2
block 168
 10
0.0
 20
0.0
 30
0.0
  0
INSERT
  5
4A2
330
452
100
AcDbEntity
  8
Capa 1
100
AcDbBlockReference
  2
block 169
 10
0.0
 20
0.0
 30
0.0
  0
ENDBLK
  5
455
330
452
100
AcDbEntity
  8
0
100
AcDbBlockEnd
  0
BLOCK
  5
458
330
456
100
AcDbEntity
  8
0
100
AcDbBlockBegin
  2
block 160
 70
     0
 71
     0
 10
0.0
 20
0.0
 30
0.0
  3
block 160
  1

  0
POLYLINE
  5
45A
330
456
100
AcDbEntity
  8
Capa 1
 62
     7
370
    25
100
AcDb2dPolyline
 66
     1
 10
0.0
 20
0.0
 30
0.0
  0
VERTEX
  5
45B
330
45A
100
AcDbEntity
  8
Capa 1
 62
     7
370
    25
100
AcDbVertex
100
AcDb2dVertex
 10
36.2033265542041
 20
232.3988877919159
 30
0.0
  0
VERTEX
  5
45C
330
45A
100
AcDbEntity
  8
Capa 1
 62
     7
370
    25
100
AcDbVertex
100
AcDb2dVertex
 10
20.64319802059434
 20
232.3988877919159
 30
0.0
  0
SEQEND
  5
45D
330
45A
100
AcDbEntity
  8
Capa 1
370
    25
  0
ENDBLK
  5
459
330
456
100
AcDbEntity
  8
0
100
AcDbBlockEnd
  0
BLOCK
  5
460
330
45E
100
AcDbEntity
  8
0
100
AcDbBlockBegin
  2
block 161
 70
     0
 71
     0
 10
0.0
 20
0.0
 30
0.0
  3
block 161
  1

  0
POLYLINE
  5
462
330
45E
100
AcDbEntity
  8
Capa 1
 62
     7
370
    25
100
AcDb2dPolyline
 66
     1
 10
0.0
 20
0.0
 30
0.0
  0
VERTEX
  5
463
330
462
100
AcDbEntity
  8
Capa 1
 62
     7
370
    25
100
AcDbVertex
100
AcDb2dVertex
 10
35.62902875795189
 20
220.839551284627
 30
0.0
  0
VERTEX
  5
464
330
462
100
AcDbEntity
  8
Capa 1
 62
     7
370
    25
100
AcDbVertex
100
AcDb2dVertex
 10
20.64319802059434
 20
220.839551284627
 30
0.0
  0
SEQEND
  5
465
330
462
100
AcDbEntity
  8
Capa 1
370
    25
  0
ENDBLK
  5
461
330
45E
100
AcDbEntity
  8
0
100
AcDbBlockEnd
  0
BLOCK
  5
468
330
466
100
AcDbEntity
  8
0
100
AcDbBlockBegin
  2
block 162
 70
     0
 71
     0
 10
0.0
 20
0.0
 30
0.0
  3
block 162
  1

  0
POLYLINE
  5
46A
330
466
100
AcDbEntity
  8
Capa 1
 62
     7
370
    25
100
AcDb2dPolyline
 66
     1
 10
0.0
 20
0.0
 30
0.0
  0
VERTEX
  5
46B
330
46A
100
AcDbEntity
  8
Capa 1
 62
     7
370
    25
100
AcDbVertex
100
AcDb2dVertex
 10
22.00315036054971
 20
229.9506290702204
 30
0.0
  0
VERTEX
  5
46C
330
46A
100
AcDbEntity
  8
Capa 1
 62
     7
370
    25
100
AcDbVertex
100
AcDb2dVertex
 10
22.00315036054971
 20
229.5933724327198
 30
0.0
  0
SEQEND
  5
46D
330
46A
100
AcDbEntity
  8
Capa 1
370
    25
  0
ENDBLK
  5
469
330
466
100
AcDbEntity
  8
0
100
AcDbBlockEnd
  0
BLOCK
  5
470
330
46E
100
AcDbEntity
  8
0
100
AcDbBlockBegin
  2
block 163
 70
     0
 71
     0
 10
0.0
 20
0.0
 30
0.0
  3
block 163
  1

  0
POLYLINE
  5
472
330
46E
100
AcDbEntity
  8
Capa 1
 62
     7
370
    25
100
AcDb2dPolyline
 66
     1
 10
0.0
 20
0.0
 30
0.0
  0
VERTEX
  5
473
330
472
100
AcDbEntity
  8
Capa 1
 62
     7
370
    25
100
AcDbVertex
100
AcDb2dVertex
 10
22.00315036054971
 20
223.2874654965467
 30
0.0
  0
VERTEX
  5
474
330
472
100
AcDbEntity
  8
Capa 1
 62
     7
370
    25
100
AcDbVertex
100
AcDb2dVertex
 10
22.00315036054971
 20
224.1528740533467
 30
0.0
  0
SEQEND
  5
475
330
472
100
AcDbEntity
  8
Capa 1
370
    25
  0
ENDBLK
  5
471
330
46E
100
AcDbEntity
  8
0
100
AcDbBlockEnd
  0
BLOCK
  5
478
330
476
100
AcDbEntity
  8
0
100
AcDbBlockBegin
  2
block 164
 70
     0
 71
     0
 10
0.0
 20
0.0
 30
0.0
  3
block 164
  1

  0
POLYLINE
  5
47A
330
476
100
AcDbEntity
  8
Capa 1
370
     0
100
AcDb2dPolyline
 66
     1
 10
0.0
 20
0.0
 30
0.0
  0
VERTEX
  5
47B
330
47A
100
AcDbEntity
  8
Capa 1
370
     0
100
AcDbVertex
100
AcDb2dVertex
 10
21.59507853111915
 20
229.9506290702204
 30
0.0
  0
VERTEX
  5
47C
330
47A
100
AcDbEntity
  8
Capa 1
370
     0
100
AcDbVertex
100
AcDb2dVertex
 10
22.41122218998028
 20
229.9506290702204
 30
0.0
  0
VERTEX
  5
47D
330
47A
100
AcDbEntity
  8
Capa 1
370
     0
100
AcDbVertex
100
AcDb2dVertex
 10
22.00315036054971
 20
232.3988877919159
 30
0.0
  0
VERTEX
  5
47E
330
47A
100
AcDbEntity
  8
Capa 1
370
     0
100
AcDbVertex
100
AcDb2dVertex
 10
21.59507853111915
 20
229.9506290702204
 30
0.0
  0
SEQEND
  5
47F
330
47A
100
AcDbEntity
  8
Capa 1
370
     0
  0
HATCH
  5
480
330
476
100
AcDbEntity
  8
Capa 1
 62
     7
100
AcDbHatch
 10
0.0
 20
0.0
 30
0.0
210
0.0
220
0.0
230
1.0
  2
SOLID
 70
     1
 71
     0
 91
        1
 92
        1
 93
        3
 72
     1
 10
21.59507853111915
 20
229.9506290702204
 11
22.41122218998028
 21
229.9506290702204
 72
     1
 10
22.41122218998028
 20
229.9506290702204
 11
22.00315036054971
 21
232.3988877919159
 72
     1
 10
22.00315036054971
 20
232.3988877919159
 11
21.59507853111915
 21
229.9506290702204
 97
        0
 75
     2
 76
     1
 98
        0
  0
ENDBLK
  5
479
330
476
100
AcDbEntity
  8
0
100
AcDbBlockEnd
  0
BLOCK
  5
483
330
481
100
AcDbEntity
  8
0
100
AcDbBlockBegin
  2
block 165
 70
     0
 71
     0
 10
0.0
 20
0.0
 30
0.0
  3
block 165
  1

  0
POLYLINE
  5
485
330
481
100
AcDbEntity
  8
Capa 1
370
     0
100
AcDb2dPolyline
 66
     1
 10
0.0
 20
0.0
 30
0.0
  0
VERTEX
  5
486
330
485
100
AcDbEntity
  8
Capa 1
370
     0
100
AcDbVertex
100
AcDb2dVertex
 10
21.59507853111915
 20
223.2874654965467
 30
0.0
  0
VERTEX
  5
487
330
485
100
AcDbEntity
  8
Capa 1
370
     0
100
AcDbVertex
100
AcDb2dVertex
 10
22.41122218998028
 20
223.2874654965467
 30
0.0
  0
VERTEX
  5
488
330
485
100
AcDbEntity
  8
Capa 1
370
     0
100
AcDbVertex
100
AcDb2dVertex
 10
22.00315036054971
 20
220.839551284627
 30
0.0
  0
VERTEX
  5
489
330
485
100
AcDbEntity
  8
Capa 1
370
     0
100
AcDbVertex
100
AcDb2dVertex
 10
21.59507853111915
 20
223.2874654965467
 30
0.0
  0
SEQEND
  5
48A
330
485
100
AcDbEntity
  8
Capa 1
370
     0
  0
HATCH
  5
48B
330
481
100
AcDbEntity
  8
Capa 1
 62
     7
100
AcDbHatch
 10
0.0
 20
0.0
 30
0.0
210
0.0
220
0.0
230
1.0
  2
SOLID
 70
     1
 71
     0
 91
        1
 92
        1
 93
        3
 72
     1
 10
21.59507853111915
 20
223.2874654965467
 11
22.41122218998028
 21
223.2874654965467
 72
     1
 10
22.41122218998028
 20
223.2874654965467
 11
22.00315036054971
 21
220.839551284627
 72
     1
 10
22.00315036054971
 20
220.839551284627
 11
21.59507853111915
 21
223.2874654965467
 97
        0
 75
     2
 76
     1
 98
        0
  0
ENDBLK
  5
484
330
481
100
AcDbEntity
  8
0
100
AcDbBlockEnd
  0
BLOCK
  5
48E
330
48C
100
AcDbEntity
  8
0
100
AcDbBlockBegin
  2
block 166
 70
     0
 71
     0
 10
0.0
 20
0.0
 30
0.0
  3
block 166
  1

  0
MTEXT
  5
490
330
48C
100
AcDbEntity
  8
Capa 1
 62
     7
100
AcDbMText
 10
19.41243684656252
 20
225.5129986481899
 30
0.0
 40
2.720217147585918
 41
0.0
 71
     7
 72
     1
  1
\fMyriad Pro|b0|i0|c0|p34;\W1;85
 73
     1
 44
1.0
  0
ENDBLK
  5
48F
330
48C
100
AcDbEntity
  8
0
100
AcDbBlockEnd
  0
BLOCK
  5
493
330
491
100
AcDbEntity
  8
0
100
AcDbBlockBegin
  2
block 167
 70
     0
 71
     0
 10
0.0
 20
0.0
 30
0.0
  3
block 167
  1

  0
POLYLINE
  5
495
330
491
100
AcDbEntity
  8
Capa 1
370
     0
100
AcDb2dPolyline
 66
     1
 10
0.0
 20
0.0
 30
0.0
  0
VERTEX
  5
496
330
495
100
AcDbEntity
  8
Capa 1
370
     0
100
AcDbVertex
100
AcDb2dVertex
 10
37.56345114904737
 20
232.3988877919159
 30
0.0
  0
VERTEX
  5
497
330
495
100
AcDbEntity
  8
Capa 1
370
     0
100
AcDbVertex
100
AcDb2dVertex
 10
37.56345114904737
 20
232.3988877919159
 30
0.0
  0
SEQEND
  5
498
330
495
100
AcDbEntity
  8
Capa 1
370
     0
  0
ENDBLK
  5
494
330
491
100
AcDbEntity
  8
0
100
AcDbBlockEnd
  0
BLOCK
  5
49B
330
499
100
AcDbEntity
  8
0
100
AcDbBlockBegin
  2
block 168
 70
     0
 71
     0
 10
0.0
 20
0.0
 30
0.0
  3
block 168
  1

  0
POLYLINE
  5
49D
330
499
100
AcDbEntity
  8
Capa 1
370
     0
100
AcDb2dPolyline
 66
     1
 10
0.0
 20
0.0
 30
0.0
  0
VERTEX
  5
49E
330
49D
100
AcDbEntity
  8
Capa 1
370
     0
100
AcDbVertex
100
AcDb2dVertex
 10
36.98932560768306
 20
220.839551284627
 30
0.0
  0
VERTEX
  5
49F
330
49D
100
AcDbEntity
  8
Capa 1
370
     0
100
AcDbVertex
100
AcDb2dVertex
 10
36.98932560768306
 20
220.839551284627
 30
0.0
  0
SEQEND
  5
4A0
330
49D
100
AcDbEntity
  8
Capa 1
370
     0
  0
ENDBLK
  5
49C
330
499
100
AcDbEntity
  8
0
100
AcDbBlockEnd
  0
BLOCK
  5
4A3
330
4A1
100
AcDbEntity
  8
0
100
AcDbBlockBegin
  2
block 169
 70
     0
 71
     0
 10
0.0
 20
0.0
 30
0.0
  3
block 169
  1

  0
POLYLINE
  5
4A5
330
4A1
100
AcDbEntity
  8
Capa 1
370
     0
100
AcDb2dPolyline
 66
     1
 10
0.0
 20
0.0
 30
0.0
  0
VERTEX
  5
4A6
330
4A5
100
AcDbEntity
  8
Capa 1
370
     0
100
AcDbVertex
100
AcDb2dVertex
 10
22.00315036054971
 20
220.839551284627
 30
0.0
  0
VERTEX
  5
4A7
330
4A5
100
AcDbEntity
  8
Capa 1
370
     0
100
AcDbVertex
100
AcDb2dVertex
 10
22.00315036054971
 20
220.839551284627
 30
0.0
  0
SEQEND
  5
4A8
330
4A5
100
AcDbEntity
  8
Capa 1
370
     0
  0
ENDBLK
  5
4A4
330
4A1
100
AcDbEntity
  8
0
100
AcDbBlockEnd
  0
BLOCK
  5
4AB
330
4A9
100
AcDbEntity
  8
0
100
AcDbBlockBegin
  2
block 170
 70
     0
 71
     0
 10
0.0
 20
0.0
 30
0.0
  3
block 170
  1

  0
INSERT
  5
4AE
330
4A9
100
AcDbEntity
  8
Capa 1
100
AcDbBlockReference
  2
block 171
 10
0.0
 20
0.0
 30
0.0
  0
INSERT
  5
4B6
330
4A9
100
AcDbEntity
  8
Capa 1
100
AcDbBlockReference
  2
block 172
 10
0.0
 20
0.0
 30
0.0
  0
INSERT
  5
4BE
330
4A9
100
AcDbEntity
  8
Capa 1
100
AcDbBlockReference
  2
block 173
 10
0.0
 20
0.0
 30
0.0
  0
INSERT
  5
4C6
330
4A9
100
AcDbEntity
  8
Capa 1
100
AcDbBlockReference
  2
block 174
 10
0.0
 20
0.0
 30
0.0
  0
INSERT
  5
4CE
330
4A9
100
AcDbEntity
  8
Capa 1
100
AcDbBlockReference
  2
block 175
 10
0.0
 20
0.0
 30
0.0
  0
INSERT
  5
4D9
330
4A9
100
AcDbEntity
  8
Capa 1
100
AcDbBlockReference
  2
block 176
 10
0.0
 20
0.0
 30
0.0
  0
INSERT
  5
4E4
330
4A9
100
AcDbEntity
  8
Capa 1
100
AcDbBlockReference
  2
block 177
 10
0.0
 20
0.0
 30
0.0
  0
INSERT
  5
4E9
330
4A9
100
AcDbEntity
  8
Capa 1
100
AcDbBlockReference
  2
block 178
 10
0.0
 20
0.0
 30
0.0
  0
INSERT
  5
4F1
330
4A9
100
AcDbEntity
  8
Capa 1
100
AcDbBlockReference
  2
block 179
 10
0.0
 20
0.0
 30
0.0
  0
INSERT
  5
4F9
330
4A9
100
AcDbEntity
  8
Capa 1
100
AcDbBlockReference
  2
block 180
 10
0.0
 20
0.0
 30
0.0
  0
ENDBLK
  5
4AC
330
4A9
100
AcDbEntity
  8
0
100
AcDbBlockEnd
  0
BLOCK
  5
4AF
330
4AD
100
AcDbEntity
  8
0
100
AcDbBlockBegin
  2
block 171
 70
     0
 71
     0
 10
0.0
 20
0.0
 30
0.0
  3
block 171
  1

  0
POLYLINE
  5
4B1
330
4AD
100
AcDbEntity
  8
Capa 1
 62
     7
370
    25
100
AcDb2dPolyline
 66
     1
 10
0.0
 20
0.0
 30
0.0
  0
VERTEX
  5
4B2
330
4B1
100
AcDbEntity
  8
Capa 1
 62
     7
370
    25
100
AcDbVertex
100
AcDb2dVertex
 10
117.7792796003152
 20
92.03475307461912
 30
0.0
  0
VERTEX
  5
4B3
330
4B1
100
AcDbEntity
  8
Capa 1
 62
     7
370
    25
100
AcDbVertex
100
AcDb2dVertex
 10
117.7792796003152
 20
74.90021486562087
 30
0.0
  0
SEQEND
  5
4B4
330
4B1
100
AcDbEntity
  8
Capa 1
370
    25
  0
ENDBLK
  5
4B0
330
4AD
100
AcDbEntity
  8
0
100
AcDbBlockEnd
  0
BLOCK
  5
4B7
330
4B5
100
AcDbEntity
  8
0
100
AcDbBlockBegin
  2
block 172
 70
     0
 71
     0
 10
0.0
 20
0.0
 30
0.0
  3
block 172
  1

  0
POLYLINE
  5
4B9
330
4B5
100
AcDbEntity
  8
Capa 1
 62
     7
370
    25
100
AcDb2dPolyline
 66
     1
 10
0.0
 20
0.0
 30
0.0
  0
VERTEX
  5
4BA
330
4B9
100
AcDbEntity
  8
Capa 1
 62
     7
370
    25
100
AcDbVertex
100
AcDb2dVertex
 10
36.17318194882193
 20
84.55406780298111
 30
0.0
  0
VERTEX
  5
4BB
330
4B9
100
AcDbEntity
  8
Capa 1
 62
     7
370
    25
100
AcDbVertex
100
AcDb2dVertex
 10
36.17318194882193
 20
74.90021486562087
 30
0.0
  0
SEQEND
  5
4BC
330
4B9
100
AcDbEntity
  8
Capa 1
370
    25
  0
ENDBLK
  5
4B8
330
4B5
100
AcDbEntity
  8
0
100
AcDbBlockEnd
  0
BLOCK
  5
4BF
330
4BD
100
AcDbEntity
  8
0
100
AcDbBlockBegin
  2
block 173
 70
     0
 71
     0
 10
0.0
 20
0.0
 30
0.0
  3
block 173
  1

  0
POLYLINE
  5
4C1
330
4BD
100
AcDbEntity
  8
Capa 1
 62
     7
370
    25
100
AcDb2dPolyline
 66
     1
 10
0.0
 20
0.0
 30
0.0
  0
VERTEX
  5
4C2
330
4C1
100
AcDbEntity
  8
Capa 1
 62
     7
370
    25
100
AcDbVertex
100
AcDb2dVertex
 10
115.3311931335077
 20
76.25999495068834
 30
0.0
  0
VERTEX
  5
4C3
330
4C1
100
AcDbEntity
  8
Capa 1
 62
     7
370
    25
100
AcDbVertex
100
AcDb2dVertex
 10
81.76905077544488
 20
76.25999495068834
 30
0.0
  0
SEQEND
  5
4C4
330
4C1
100
AcDbEntity
  8
Capa 1
370
    25
  0
ENDBLK
  5
4C0
330
4BD
100
AcDbEntity
  8
0
100
AcDbBlockEnd
  0
BLOCK
  5
4C7
330
4C5
100
AcDbEntity
  8
0
100
AcDbBlockBegin
  2
block 174
 70
     0
 71
     0
 10
0.0
 20
0.0
 30
0.0
  3
block 174
  1

  0
POLYLINE
  5
4C9
330
4C5
100
AcDbEntity
  8
Capa 1
 62
     7
370
    25
100
AcDb2dPolyline
 66
     1
 10
0.0
 20
0.0
 30
0.0
  0
VERTEX
  5
4CA
330
4C9
100
AcDbEntity
  8
Capa 1
 62
     7
370
    25
100
AcDbVertex
100
AcDb2dVertex
 10
38.62126841562951
 20
76.25999495068834
 30
0.0
  0
VERTEX
  5
4CB
330
4C9
100
AcDbEntity
  8
Capa 1
 62
     7
370
    25
100
AcDbVertex
100
AcDb2dVertex
 10
72.18358302858017
 20
76.25999495068834
 30
0.0
  0
SEQEND
  5
4CC
330
4C9
100
AcDbEntity
  8
Capa 1
370
    25
  0
ENDBLK
  5
4C8
330
4C5
100
AcDbEntity
  8
0
100
AcDbBlockEnd
  0
BLOCK
  5
4CF
330
4CD
100
AcDbEntity
  8
0
100
AcDbBlockBegin
  2
block 175
 70
     0
 71
     0
 10
0.0
 20
0.0
 30
0.0
  3
block 175
  1

  0
POLYLINE
  5
4D1
330
4CD
100
AcDbEntity
  8
Capa 1
370
     0
100
AcDb2dPolyline
 66
     1
 10
0.0
 20
0.0
 30
0.0
  0
VERTEX
  5
4D2
330
4D1
100
AcDbEntity
  8
Capa 1
370
     0
100
AcDbVertex
100
AcDb2dVertex
 10
115.3311931335077
 20
76.6682390350068
 30
0.0
  0
VERTEX
  5
4D3
330
4D1
100
AcDbEntity
  8
Capa 1
370
     0
100
AcDbVertex
100
AcDb2dVertex
 10
115.3311931335077
 20
75.85209537614568
 30
0.0
  0
VERTEX
  5
4D4
330
4D1
100
AcDbEntity
  8
Capa 1
370
     0
100
AcDbVertex
100
AcDb2dVertex
 10
117.7792796003152
 20
76.25999495068834
 30
0.0
  0
VERTEX
  5
4D5
330
4D1
100
AcDbEntity
  8
Capa 1
370
     0
100
AcDbVertex
100
AcDb2dVertex
 10
115.3311931335077
 20
76.6682390350068
 30
0.0
  0
SEQEND
  5
4D6
330
4D1
100
AcDbEntity
  8
Capa 1
370
     0
  0
HATCH
  5
4D7
330
4CD
100
AcDbEntity
  8
Capa 1
 62
     7
100
AcDbHatch
 10
0.0
 20
0.0
 30
0.0
210
0.0
220
0.0
230
1.0
  2
SOLID
 70
     1
 71
     0
 91
        1
 92
        1
 93
        3
 72
     1
 10
115.3311931335077
 20
76.6682390350068
 11
115.3311931335077
 21
75.85209537614568
 72
     1
 10
115.3311931335077
 20
75.85209537614568
 11
117.7792796003152
 21
76.25999495068834
 72
     1
 10
117.7792796003152
 20
76.25999495068834
 11
115.3311931335077
 21
76.6682390350068
 97
        0
 75
     2
 76
     1
 98
        0
  0
ENDBLK
  5
4D0
330
4CD
100
AcDbEntity
  8
0
100
AcDbBlockEnd
  0
BLOCK
  5
4DA
330
4D8
100
AcDbEntity
  8
0
100
AcDbBlockBegin
  2
block 176
 70
     0
 71
     0
 10
0.0
 20
0.0
 30
0.0
  3
block 176
  1

  0
POLYLINE
  5
4DC
330
4D8
100
AcDbEntity
  8
Capa 1
370
     0
100
AcDb2dPolyline
 66
     1
 10
0.0
 20
0.0
 30
0.0
  0
VERTEX
  5
4DD
330
4DC
100
AcDbEntity
  8
Capa 1
370
     0
100
AcDbVertex
100
AcDb2dVertex
 10
38.62126841562951
 20
76.6682390350068
 30
0.0
  0
VERTEX
  5
4DE
330
4DC
100
AcDbEntity
  8
Capa 1
370
     0
100
AcDbVertex
100
AcDb2dVertex
 10
38.62126841562951
 20
75.85209537614568
 30
0.0
  0
VERTEX
  5
4DF
330
4DC
100
AcDbEntity
  8
Capa 1
370
     0
100
AcDbVertex
100
AcDb2dVertex
 10
36.17318194882193
 20
76.25999495068834
 30
0.0
  0
VERTEX
  5
4E0
330
4DC
100
AcDbEntity
  8
Capa 1
370
     0
100
AcDbVertex
100
AcDb2dVertex
 10
38.62126841562951
 20
76.6682390350068
 30
0.0
  0
SEQEND
  5
4E1
330
4DC
100
AcDbEntity
  8
Capa 1
370
     0
  0
HATCH
  5
4E2
330
4D8
100
AcDbEntity
  8
Capa 1
 62
     7
100
AcDbHatch
 10
0.0
 20
0.0
 30
0.0
210
0.0
220
0.0
230
1.0
  2
SOLID
 70
     1
 71
     0
 91
        1
 92
        1
 93
        3
 72
     1
 10
38.62126841562951
 20
76.6682390350068
 11
38.62126841562951
 21
75.85209537614568
 72
     1
 10
38.62126841562951
 20
75.85209537614568
 11
36.17318194882193
 21
76.25999495068834
 72
     1
 10
36.17318194882193
 20
76.25999495068834
 11
38.62126841562951
 21
76.6682390350068
 97
        0
 75
     2
 76
     1
 98
        0
  0
ENDBLK
  5
4DB
330
4D8
100
AcDbEntity
  8
0
100
AcDbBlockEnd
  0
BLOCK
  5
4E5
330
4E3
100
AcDbEntity
  8
0
100
AcDbBlockBegin
  2
block 177
 70
     0
 71
     0
 10
0.0
 20
0.0
 30
0.0
  3
block 177
  1

  0
MTEXT
  5
4E7
330
4E3
100
AcDbEntity
  8
Capa 1
 62
     7
100
AcDbMText
 10
73.02539266573811
 20
74.89987035584507
 30
0.0
 40
2.720217147585918
 41
0.0
 71
     7
 72
     1
  1
\fMyriad Pro|b0|i0|c0|p34;\W1;600
 73
     1
 44
1.0
  0
ENDBLK
  5
4E6
330
4E3
100
AcDbEntity
  8
0
100
AcDbBlockEnd
  0
BLOCK
  5
4EA
330
4E8
100
AcDbEntity
  8
0
100
AcDbBlockBegin
  2
block 178
 70
     0
 71
     0
 10
0.0
 20
0.0
 30
0.0
  3
block 178
  1

  0
POLYLINE
  5
4EC
330
4E8
100
AcDbEntity
  8
Capa 1
370
     0
100
AcDb2dPolyline
 66
     1
 10
0.0
 20
0.0
 30
0.0
  0
VERTEX
  5
4ED
330
4EC
100
AcDbEntity
  8
Capa 1
370
     0
100
AcDbVertex
100
AcDb2dVertex
 10
117.7792796003152
 20
93.39522217923819
 30
0.0
  0
VERTEX
  5
4EE
330
4EC
100
AcDbEntity
  8
Capa 1
370
     0
100
AcDbVertex
100
AcDb2dVertex
 10
117.7792796003152
 20
93.39522217923819
 30
0.0
  0
SEQEND
  5
4EF
330
4EC
100
AcDbEntity
  8
Capa 1
370
     0
  0
ENDBLK
  5
4EB
330
4E8
100
AcDbEntity
  8
0
100
AcDbBlockEnd
  0
BLOCK
  5
4F2
330
4F0
100
AcDbEntity
  8
0
100
AcDbBlockBegin
  2
block 179
 70
     0
 71
     0
 10
0.0
 20
0.0
 30
0.0
  3
block 179
  1

  0
POLYLINE
  5
4F4
330
4F0
100
AcDbEntity
  8
Capa 1
370
     0
100
AcDb2dPolyline
 66
     1
 10
0.0
 20
0.0
 30
0.0
  0
VERTEX
  5
4F5
330
4F4
100
AcDbEntity
  8
Capa 1
370
     0
100
AcDbVertex
100
AcDb2dVertex
 10
36.17318194882193
 20
85.91488141737598
 30
0.0
  0
VERTEX
  5
4F6
330
4F4
100
AcDbEntity
  8
Capa 1
370
     0
100
AcDbVertex
100
AcDb2dVertex
 10
36.17318194882193
 20
85.91488141737598
 30
0.0
  0
SEQEND
  5
4F7
330
4F4
100
AcDbEntity
  8
Capa 1
370
     0
  0
ENDBLK
  5
4F3
330
4F0
100
AcDbEntity
  8
0
100
AcDbBlockEnd
  0
BLOCK
  5
4FA
330
4F8
100
AcDbEntity
  8
0
100
AcDbBlockBegin
  2
block 180
 70
     0
 71
     0
 10
0.0
 20
0.0
 30
0.0
  3
block 180
  1

  0
POLYLINE
  5
4FC
330
4F8
100
AcDbEntity
  8
Capa 1
370
     0
100
AcDb2dPolyline
 66
     1
 10
0.0
 20
0.0
 30
0.0
  0
VERTEX
  5
4FD
330
4FC
100
AcDbEntity
  8
Capa 1
370
     0
100
AcDbVertex
100
AcDb2dVertex
 10
36.17318194882193
 20
76.25999495068834
 30
0.0
  0
VERTEX
  5
4FE
330
4FC
100
AcDbEntity
  8
Capa 1
370
     0
100
AcDbVertex
100
AcDb2dVertex
 10
36.17318194882193
 20
76.25999495068834
 30
0.0
  0
SEQEND
  5
4FF
330
4FC
100
AcDbEntity
  8
Capa 1
370
     0
  0
ENDBLK
  5
4FB
330
4F8
100
AcDbEntity
  8
0
100
AcDbBlockEnd
  0
BLOCK
  5
502
330
500
100
AcDbEntity
  8
0
100
AcDbBlockBegin
  2
block 181
 70
     0
 71
     0
 10
0.0
 20
0.0
 30
0.0
  3
block 181
  1

  0
INSERT
  5
505
330
500
100
AcDbEntity
  8
Capa 1
100
AcDbBlockReference
  2
block 182
 10
0.0
 20
0.0
 30
0.0
  0
INSERT
  5
50D
330
500
100
AcDbEntity
  8
Capa 1
100
AcDbBlockReference
  2
block 183
 10
0.0
 20
0.0
 30
0.0
  0
INSERT
  5
515
330
500
100
AcDbEntity
  8
Capa 1
100
AcDbBlockReference
  2
block 184
 10
0.0
 20
0.0
 30
0.0
  0
INSERT
  5
51D
330
500
100
AcDbEntity
  8
Capa 1
100
AcDbBlockReference
  2
block 185
 10
0.0
 20
0.0
 30
0.0
  0
INSERT
  5
525
330
500
100
AcDbEntity
  8
Capa 1
100
AcDbBlockReference
  2
block 186
 10
0.0
 20
0.0
 30
0.0
  0
INSERT
  5
530
330
500
100
AcDbEntity
  8
Capa 1
100
AcDbBlockReference
  2
block 187
 10
0.0
 20
0.0
 30
0.0
  0
INSERT
  5
53B
330
500
100
AcDbEntity
  8
Capa 1
100
AcDbBlockReference
  2
block 188
 10
0.0
 20
0.0
 30
0.0
  0
INSERT
  5
540
330
500
100
AcDbEntity
  8
Capa 1
100
AcDbBlockReference
  2
block 189
 10
0.0
 20
0.0
 30
0.0
  0
INSERT
  5
548
330
500
100
AcDbEntity
  8
Capa 1
100
AcDbBlockReference
  2
block 190
 10
0.0
 20
0.0
 30
0.0
  0
INSERT
  5
550
330
500
100
AcDbEntity
  8
Capa 1
100
AcDbBlockReference
  2
block 191
 10
0.0
 20
0.0
 30
0.0
  0
ENDBLK
  5
503
330
500
100
AcDbEntity
  8
0
100
AcDbBlockEnd
  0
BLOCK
  5
506
330
504
100
AcDbEntity
  8
0
100
AcDbBlockBegin
  2
block 182
 70
     0
 71
     0
 10
0.0
 20
0.0
 30
0.0
  3
block 182
  1

  0
POLYLINE
  5
508
330
504
100
AcDbEntity
  8
Capa 1
 62
     7
370
    25
100
AcDb2dPolyline
 66
     1
 10
0.0
 20
0.0
 30
0.0
  0
VERTEX
  5
509
330
508
100
AcDbEntity
  8
Capa 1
 62
     7
370
    25
100
AcDbVertex
100
AcDb2dVertex
 10
36.17318194882193
 20
84.55406780298111
 30
0.0
  0
VERTEX
  5
50A
330
508
100
AcDbEntity
  8
Capa 1
 62
     7
370
    25
100
AcDbVertex
100
AcDb2dVertex
 10
36.17318194882193
 20
65.43480877562112
 30
0.0
  0
SEQEND
  5
50B
330
508
100
AcDbEntity
  8
Capa 1
370
    25
  0
ENDBLK
  5
507
330
504
100
AcDbEntity
  8
0
100
AcDbBlockEnd
  0
BLOCK
  5
50E
330
50C
100
AcDbEntity
  8
0
100
AcDbBlockBegin
  2
block 183
 70
     0
 71
     0
 10
0.0
 20
0.0
 30
0.0
  3
block 183
  1

  0
POLYLINE
  5
510
330
50C
100
AcDbEntity
  8
Capa 1
 62
     7
370
    25
100
AcDb2dPolyline
 66
     1
 10
0.0
 20
0.0
 30
0.0
  0
VERTEX
  5
511
330
510
100
AcDbEntity
  8
Capa 1
 62
     7
370
    25
100
AcDbVertex
100
AcDb2dVertex
 10
199.3860662713601
 20
84.55406780298111
 30
0.0
  0
VERTEX
  5
512
330
510
100
AcDbEntity
  8
Capa 1
 62
     7
370
    25
100
AcDbVertex
100
AcDb2dVertex
 10
199.3860662713601
 20
65.43480877562112
 30
0.0
  0
SEQEND
  5
513
330
510
100
AcDbEntity
  8
Capa 1
370
    25
  0
ENDBLK
  5
50F
330
50C
100
AcDbEntity
  8
0
100
AcDbBlockEnd
  0
BLOCK
  5
516
330
514
100
AcDbEntity
  8
0
100
AcDbBlockBegin
  2
block 184
 70
     0
 71
     0
 10
0.0
 20
0.0
 30
0.0
  3
block 184
  1

  0
POLYLINE
  5
518
330
514
100
AcDbEntity
  8
Capa 1
 62
     7
370
    25
100
AcDb2dPolyline
 66
     1
 10
0.0
 20
0.0
 30
0.0
  0
VERTEX
  5
519
330
518
100
AcDbEntity
  8
Capa 1
 62
     7
370
    25
100
AcDbVertex
100
AcDb2dVertex
 10
38.62126841562951
 20
66.7949333704644
 30
0.0
  0
VERTEX
  5
51A
330
518
100
AcDbEntity
  8
Capa 1
 62
     7
370
    25
100
AcDbVertex
100
AcDb2dVertex
 10
111.8213275376963
 20
66.7949333704644
 30
0.0
  0
SEQEND
  5
51B
330
518
100
AcDbEntity
  8
Capa 1
370
    25
  0
ENDBLK
  5
517
330
514
100
AcDbEntity
  8
0
100
AcDbBlockEnd
  0
BLOCK
  5
51E
330
51C
100
AcDbEntity
  8
0
100
AcDbBlockBegin
  2
block 185
 70
     0
 71
     0
 10
0.0
 20
0.0
 30
0.0
  3
block 185
  1

  0
POLYLINE
  5
520
330
51C
100
AcDbEntity
  8
Capa 1
 62
     7
370
    25
100
AcDb2dPolyline
 66
     1
 10
0.0
 20
0.0
 30
0.0
  0
VERTEX
  5
521
330
520
100
AcDbEntity
  8
Capa 1
 62
     7
370
    25
100
AcDbVertex
100
AcDb2dVertex
 10
196.9379798045525
 20
66.7949333704644
 30
0.0
  0
VERTEX
  5
522
330
520
100
AcDbEntity
  8
Capa 1
 62
     7
370
    25
100
AcDbVertex
100
AcDb2dVertex
 10
123.7379206824858
 20
66.7949333704644
 30
0.0
  0
SEQEND
  5
523
330
520
100
AcDbEntity
  8
Capa 1
370
    25
  0
ENDBLK
  5
51F
330
51C
100
AcDbEntity
  8
0
100
AcDbBlockEnd
  0
BLOCK
  5
526
330
524
100
AcDbEntity
  8
0
100
AcDbBlockBegin
  2
block 186
 70
     0
 71
     0
 10
0.0
 20
0.0
 30
0.0
  3
block 186
  1

  0
POLYLINE
  5
528
330
524
100
AcDbEntity
  8
Capa 1
370
     0
100
AcDb2dPolyline
 66
     1
 10
0.0
 20
0.0
 30
0.0
  0
VERTEX
  5
529
330
528
100
AcDbEntity
  8
Capa 1
370
     0
100
AcDbVertex
100
AcDb2dVertex
 10
38.62126841562951
 20
67.20283294500706
 30
0.0
  0
VERTEX
  5
52A
330
528
100
AcDbEntity
  8
Capa 1
370
     0
100
AcDbVertex
100
AcDb2dVertex
 10
38.62126841562951
 20
66.38703379592174
 30
0.0
  0
VERTEX
  5
52B
330
528
100
AcDbEntity
  8
Capa 1
370
     0
100
AcDbVertex
100
AcDb2dVertex
 10
36.17318194882193
 20
66.7949333704644
 30
0.0
  0
VERTEX
  5
52C
330
528
100
AcDbEntity
  8
Capa 1
370
     0
100
AcDbVertex
100
AcDb2dVertex
 10
38.62126841562951
 20
67.20283294500706
 30
0.0
  0
SEQEND
  5
52D
330
528
100
AcDbEntity
  8
Capa 1
370
     0
  0
HATCH
  5
52E
330
524
100
AcDbEntity
  8
Capa 1
 62
     7
100
AcDbHatch
 10
0.0
 20
0.0
 30
0.0
210
0.0
220
0.0
230
1.0
  2
SOLID
 70
     1
 71
     0
 91
        1
 92
        1
 93
        3
 72
     1
 10
38.62126841562951
 20
67.20283294500706
 11
38.62126841562951
 21
66.38703379592174
 72
     1
 10
38.62126841562951
 20
66.38703379592174
 11
36.17318194882193
 21
66.7949333704644
 72
     1
 10
36.17318194882193
 20
66.7949333704644
 11
38.62126841562951
 21
67.20283294500706
 97
        0
 75
     2
 76
     1
 98
        0
  0
ENDBLK
  5
527
330
524
100
AcDbEntity
  8
0
100
AcDbBlockEnd
  0
BLOCK
  5
531
330
52F
100
AcDbEntity
  8
0
100
AcDbBlockBegin
  2
block 187
 70
     0
 71
     0
 10
0.0
 20
0.0
 30
0.0
  3
block 187
  1

  0
POLYLINE
  5
533
330
52F
100
AcDbEntity
  8
Capa 1
370
     0
100
AcDb2dPolyline
 66
     1
 10
0.0
 20
0.0
 30
0.0
  0
VERTEX
  5
534
330
533
100
AcDbEntity
  8
Capa 1
370
     0
100
AcDbVertex
100
AcDb2dVertex
 10
196.9379798045525
 20
67.20283294500706
 30
0.0
  0
VERTEX
  5
535
330
533
100
AcDbEntity
  8
Capa 1
370
     0
100
AcDbVertex
100
AcDb2dVertex
 10
196.9379798045525
 20
66.38703379592174
 30
0.0
  0
VERTEX
  5
536
330
533
100
AcDbEntity
  8
Capa 1
370
     0
100
AcDbVertex
100
AcDb2dVertex
 10
199.3860662713601
 20
66.7949333704644
 30
0.0
  0
VERTEX
  5
537
330
533
100
AcDbEntity
  8
Capa 1
370
     0
100
AcDbVertex
100
AcDb2dVertex
 10
196.9379798045525
 20
67.20283294500706
 30
0.0
  0
SEQEND
  5
538
330
533
100
AcDbEntity
  8
Capa 1
370
     0
  0
HATCH
  5
539
330
52F
100
AcDbEntity
  8
Capa 1
 62
     7
100
AcDbHatch
 10
0.0
 20
0.0
 30
0.0
210
0.0
220
0.0
230
1.0
  2
SOLID
 70
     1
 71
     0
 91
        1
 92
        1
 93
        3
 72
     1
 10
196.9379798045525
 20
67.20283294500706
 11
196.9379798045525
 21
66.38703379592174
 72
     1
 10
196.9379798045525
 20
66.38703379592174
 11
199.3860662713601
 21
66.7949333704644
 72
     1
 10
199.3860662713601
 20
66.7949333704644
 11
196.9379798045525
 21
67.20283294500706
 97
        0
 75
     2
 76
     1
 98
        0
  0
ENDBLK
  5
532
330
52F
100
AcDbEntity
  8
0
100
AcDbBlockEnd
  0
BLOCK
  5
53C
330
53A
100
AcDbEntity
  8
0
100
AcDbBlockBegin
  2
block 188
 70
     0
 71
     0
 10
0.0
 20
0.0
 30
0.0
  3
block 188
  1

  0
MTEXT
  5
53E
330
53A
100
AcDbEntity
  8
Capa 1
 62
     7
100
AcDbMText
 10
112.4035490587918
 20
65.43446426584534
 30
0.0
 40
2.720217147585918
 41
0.0
 71
     7
 72
     1
  1
\fMyriad Pro|b0|i0|c0|p34;\W1;1200
 73
     1
 44
1.0
  0
ENDBLK
  5
53D
330
53A
100
AcDbEntity
  8
0
100
AcDbBlockEnd
  0
BLOCK
  5
541
330
53F
100
AcDbEntity
  8
0
100
AcDbBlockBegin
  2
block 189
 70
     0
 71
     0
 10
0.0
 20
0.0
 30
0.0
  3
block 189
  1

  0
POLYLINE
  5
543
330
53F
100
AcDbEntity
  8
Capa 1
370
     0
100
AcDb2dPolyline
 66
     1
 10
0.0
 20
0.0
 30
0.0
  0
VERTEX
  5
544
330
543
100
AcDbEntity
  8
Capa 1
370
     0
100
AcDbVertex
100
AcDb2dVertex
 10
36.17318194882193
 20
85.91488141737598
 30
0.0
  0
VERTEX
  5
545
330
543
100
AcDbEntity
  8
Capa 1
370
     0
100
AcDbVertex
100
AcDb2dVertex
 10
36.17318194882193
 20
85.91488141737598
 30
0.0
  0
SEQEND
  5
546
330
543
100
AcDbEntity
  8
Capa 1
370
     0
  0
ENDBLK
  5
542
330
53F
100
AcDbEntity
  8
0
100
AcDbBlockEnd
  0
BLOCK
  5
549
330
547
100
AcDbEntity
  8
0
100
AcDbBlockBegin
  2
block 190
 70
     0
 71
     0
 10
0.0
 20
0.0
 30
0.0
  3
block 190
  1

  0
POLYLINE
  5
54B
330
547
100
AcDbEntity
  8
Capa 1
370
     0
100
AcDb2dPolyline
 66
     1
 10
0.0
 20
0.0
 30
0.0
  0
VERTEX
  5
54C
330
54B
100
AcDbEntity
  8
Capa 1
370
     0
100
AcDbVertex
100
AcDb2dVertex
 10
199.3860662713601
 20
85.91488141737598
 30
0.0
  0
VERTEX
  5
54D
330
54B
100
AcDbEntity
  8
Capa 1
370
     0
100
AcDbVertex
100
AcDb2dVertex
 10
199.3860662713601
 20
85.91488141737598
 30
0.0
  0
SEQEND
  5
54E
330
54B
100
AcDbEntity
  8
Capa 1
370
     0
  0
ENDBLK
  5
54A
330
547
100
AcDbEntity
  8
0
100
AcDbBlockEnd
  0
BLOCK
  5
551
330
54F
100
AcDbEntity
  8
0
100
AcDbBlockBegin
  2
block 191
 70
     0
 71
     0
 10
0.0
 20
0.0
 30
0.0
  3
block 191
  1

  0
POLYLINE
  5
553
330
54F
100
AcDbEntity
  8
Capa 1
370
     0
100
AcDb2dPolyline
 66
     1
 10
0.0
 20
0.0
 30
0.0
  0
VERTEX
  5
554
330
553
100
AcDbEntity
  8
Capa 1
370
     0
100
AcDbVertex
100
AcDb2dVertex
 10
199.3860662713601
 20
66.7949333704644
 30
0.0
  0
VERTEX
  5
555
330
553
100
AcDbEntity
  8
Capa 1
370
     0
100
AcDbVertex
100
AcDb2dVertex
 10
199.3860662713601
 20
66.7949333704644
 30
0.0
  0
SEQEND
  5
556
330
553
100
AcDbEntity
  8
Capa 1
370
     0
  0
ENDBLK
  5
552
330
54F
100
AcDbEntity
  8
0
100
AcDbBlockEnd
  0
BLOCK
  5
559
330
557
100
AcDbEntity
  8
0
100
AcDbBlockBegin
  2
block 192
 70
     0
 71
     0
 10
0.0
 20
0.0
 30
0.0
  3
block 192
  1

  0
INSERT
  5
55C
330
557
100
AcDbEntity
  8
Capa 1
100
AcDbBlockReference
  2
block 193
 10
0.0
 20
0.0
 30
0.0
  0
INSERT
  5
564
330
557
100
AcDbEntity
  8
Capa 1
100
AcDbBlockReference
  2
block 194
 10
0.0
 20
0.0
 30
0.0
  0
INSERT
  5
56C
330
557
100
AcDbEntity
  8
Capa 1
100
AcDbBlockReference
  2
block 195
 10
0.0
 20
0.0
 30
0.0
  0
INSERT
  5
574
330
557
100
AcDbEntity
  8
Capa 1
100
AcDbBlockReference
  2
block 196
 10
0.0
 20
0.0
 30
0.0
  0
INSERT
  5
57C
330
557
100
AcDbEntity
  8
Capa 1
100
AcDbBlockReference
  2
block 197
 10
0.0
 20
0.0
 30
0.0
  0
INSERT
  5
587
330
557
100
AcDbEntity
  8
Capa 1
100
AcDbBlockReference
  2
block 198
 10
0.0
 20
0.0
 30
0.0
  0
INSERT
  5
592
330
557
100
AcDbEntity
  8
Capa 1
100
AcDbBlockReference
  2
block 199
 10
0.0
 20
0.0
 30
0.0
  0
INSERT
  5
597
330
557
100
AcDbEntity
  8
Capa 1
100
AcDbBlockReference
  2
block 200
 10
0.0
 20
0.0
 30
0.0
  0
INSERT
  5
59F
330
557
100
AcDbEntity
  8
Capa 1
100
AcDbBlockReference
  2
block 201
 10
0.0
 20
0.0
 30
0.0
  0
INSERT
  5
5A7
330
557
100
AcDbEntity
  8
Capa 1
100
AcDbBlockReference
  2
block 202
 10
0.0
 20
0.0
 30
0.0
  0
ENDBLK
  5
55A
330
557
100
AcDbEntity
  8
0
100
AcDbBlockEnd
  0
BLOCK
  5
55D
330
55B
100
AcDbEntity
  8
0
100
AcDbBlockBegin
  2
block 193
 70
     0
 71
     0
 10
0.0
 20
0.0
 30
0.0
  3
block 193
  1

  0
POLYLINE
  5
55F
330
55B
100
AcDbEntity
  8
Capa 1
 62
     7
370
    25
100
AcDb2dPolyline
 66
     1
 10
0.0
 20
0.0
 30
0.0
  0
VERTEX
  5
560
330
55F
100
AcDbEntity
  8
Capa 1
 62
     7
370
    25
100
AcDbVertex
100
AcDb2dVertex
 10
34.81305735397866
 20
181.122225017302
 30
0.0
  0
VERTEX
  5
561
330
55F
100
AcDbEntity
  8
Capa 1
 62
     7
370
    25
100
AcDbVertex
100
AcDb2dVertex
 10
13.5068502698646
 20
181.122225017302
 30
0.0
  0
SEQEND
  5
562
330
55F
100
AcDbEntity
  8
Capa 1
370
    25
  0
ENDBLK
  5
55E
330
55B
100
AcDbEntity
  8
0
100
AcDbBlockEnd
  0
BLOCK
  5
565
330
563
100
AcDbEntity
  8
0
100
AcDbBlockBegin
  2
block 194
 70
     0
 71
     0
 10
0.0
 20
0.0
 30
0.0
  3
block 194
  1

  0
POLYLINE
  5
567
330
563
100
AcDbEntity
  8
Capa 1
 62
     7
370
    25
100
AcDb2dPolyline
 66
     1
 10
0.0
 20
0.0
 30
0.0
  0
VERTEX
  5
568
330
567
100
AcDbEntity
  8
Capa 1
 62
     7
370
    25
100
AcDbVertex
100
AcDb2dVertex
 10
34.81305735397866
 20
85.91488141737598
 30
0.0
  0
VERTEX
  5
569
330
567
100
AcDbEntity
  8
Capa 1
 62
     7
370
    25
100
AcDbVertex
100
AcDb2dVertex
 10
13.5068502698646
 20
85.91488141737598
 30
0.0
  0
SEQEND
  5
56A
330
567
100
AcDbEntity
  8
Capa 1
370
    25
  0
ENDBLK
  5
566
330
563
100
AcDbEntity
  8
0
100
AcDbBlockEnd
  0
BLOCK
  5
56D
330
56B
100
AcDbEntity
  8
0
100
AcDbBlockBegin
  2
block 195
 70
     0
 71
     0
 10
0.0
 20
0.0
 30
0.0
  3
block 195
  1

  0
POLYLINE
  5
56F
330
56B
100
AcDbEntity
  8
Capa 1
 62
     7
370
    25
100
AcDb2dPolyline
 66
     1
 10
0.0
 20
0.0
 30
0.0
  0
VERTEX
  5
570
330
56F
100
AcDbEntity
  8
Capa 1
 62
     7
370
    25
100
AcDbVertex
100
AcDb2dVertex
 10
14.86714711959577
 20
178.6739662956065
 30
0.0
  0
VERTEX
  5
571
330
56F
100
AcDbEntity
  8
Capa 1
 62
     7
370
    25
100
AcDbVertex
100
AcDb2dVertex
 10
14.86714711959577
 20
136.2388024070255
 30
0.0
  0
SEQEND
  5
572
330
56F
100
AcDbEntity
  8
Capa 1
370
    25
  0
ENDBLK
  5
56E
330
56B
100
AcDbEntity
  8
0
100
AcDbBlockEnd
  0
BLOCK
  5
575
330
573
100
AcDbEntity
  8
0
100
AcDbBlockBegin
  2
block 196
 70
     0
 71
     0
 10
0.0
 20
0.0
 30
0.0
  3
block 196
  1

  0
POLYLINE
  5
577
330
573
100
AcDbEntity
  8
Capa 1
 62
     7
370
    25
100
AcDb2dPolyline
 66
     1
 10
0.0
 20
0.0
 30
0.0
  0
VERTEX
  5
578
330
577
100
AcDbEntity
  8
Capa 1
 62
     7
370
    25
100
AcDbVertex
100
AcDb2dVertex
 10
14.86714711959577
 20
88.36262337440776
 30
0.0
  0
VERTEX
  5
579
330
577
100
AcDbEntity
  8
Capa 1
 62
     7
370
    25
100
AcDbVertex
100
AcDb2dVertex
 10
14.86714711959577
 20
130.7983040276524
 30
0.0
  0
SEQEND
  5
57A
330
577
100
AcDbEntity
  8
Capa 1
370
    25
  0
ENDBLK
  5
576
330
573
100
AcDbEntity
  8
0
100
AcDbBlockEnd
  0
BLOCK
  5
57D
330
57B
100
AcDbEntity
  8
0
100
AcDbBlockBegin
  2
block 197
 70
     0
 71
     0
 10
0.0
 20
0.0
 30
0.0
  3
block 197
  1

  0
POLYLINE
  5
57F
330
57B
100
AcDbEntity
  8
Capa 1
370
     0
100
AcDb2dPolyline
 66
     1
 10
0.0
 20
0.0
 30
0.0
  0
VERTEX
  5
580
330
57F
100
AcDbEntity
  8
Capa 1
370
     0
100
AcDbVertex
100
AcDb2dVertex
 10
14.45907529016521
 20
178.6739662956065
 30
0.0
  0
VERTEX
  5
581
330
57F
100
AcDbEntity
  8
Capa 1
370
     0
100
AcDbVertex
100
AcDb2dVertex
 10
15.27504669413843
 20
178.6739662956065
 30
0.0
  0
VERTEX
  5
582
330
57F
100
AcDbEntity
  8
Capa 1
370
     0
100
AcDbVertex
100
AcDb2dVertex
 10
14.86714711959577
 20
181.122225017302
 30
0.0
  0
VERTEX
  5
583
330
57F
100
AcDbEntity
  8
Capa 1
370
     0
100
AcDbVertex
100
AcDb2dVertex
 10
14.45907529016521
 20
178.6739662956065
 30
0.0
  0
SEQEND
  5
584
330
57F
100
AcDbEntity
  8
Capa 1
370
     0
  0
HATCH
  5
585
330
57B
100
AcDbEntity
  8
Capa 1
 62
     7
100
AcDbHatch
 10
0.0
 20
0.0
 30
0.0
210
0.0
220
0.0
230
1.0
  2
SOLID
 70
     1
 71
     0
 91
        1
 92
        1
 93
        3
 72
     1
 10
14.45907529016521
 20
178.6739662956065
 11
15.27504669413843
 21
178.6739662956065
 72
     1
 10
15.27504669413843
 20
178.6739662956065
 11
14.86714711959577
 21
181.122225017302
 72
     1
 10
14.86714711959577
 20
181.122225017302
 11
14.45907529016521
 21
178.6739662956065
 97
        0
 75
     2
 76
     1
 98
        0
  0
ENDBLK
  5
57E
330
57B
100
AcDbEntity
  8
0
100
AcDbBlockEnd
  0
BLOCK
  5
588
330
586
100
AcDbEntity
  8
0
100
AcDbBlockBegin
  2
block 198
 70
     0
 71
     0
 10
0.0
 20
0.0
 30
0.0
  3
block 198
  1

  0
POLYLINE
  5
58A
330
586
100
AcDbEntity
  8
Capa 1
370
     0
100
AcDb2dPolyline
 66
     1
 10
0.0
 20
0.0
 30
0.0
  0
VERTEX
  5
58B
330
58A
100
AcDbEntity
  8
Capa 1
370
     0
100
AcDbVertex
100
AcDb2dVertex
 10
14.45907529016521
 20
88.36262337440776
 30
0.0
  0
VERTEX
  5
58C
330
58A
100
AcDbEntity
  8
Capa 1
370
     0
100
AcDbVertex
100
AcDb2dVertex
 10
15.27504669413843
 20
88.36262337440776
 30
0.0
  0
VERTEX
  5
58D
330
58A
100
AcDbEntity
  8
Capa 1
370
     0
100
AcDbVertex
100
AcDb2dVertex
 10
14.86714711959577
 20
85.91488141737598
 30
0.0
  0
VERTEX
  5
58E
330
58A
100
AcDbEntity
  8
Capa 1
370
     0
100
AcDbVertex
100
AcDb2dVertex
 10
14.45907529016521
 20
88.36262337440776
 30
0.0
  0
SEQEND
  5
58F
330
58A
100
AcDbEntity
  8
Capa 1
370
     0
  0
HATCH
  5
590
330
586
100
AcDbEntity
  8
Capa 1
 62
     7
100
AcDbHatch
 10
0.0
 20
0.0
 30
0.0
210
0.0
220
0.0
230
1.0
  2
SOLID
 70
     1
 71
     0
 91
        1
 92
        1
 93
        3
 72
     1
 10
14.45907529016521
 20
88.36262337440776
 11
15.27504669413843
 21
88.36262337440776
 72
     1
 10
15.27504669413843
 20
88.36262337440776
 11
14.86714711959577
 21
85.91488141737598
 72
     1
 10
14.86714711959577
 20
85.91488141737598
 11
14.45907529016521
 21
88.36262337440776
 97
        0
 75
     2
 76
     1
 98
        0
  0
ENDBLK
  5
589
330
586
100
AcDbEntity
  8
0
100
AcDbBlockEnd
  0
BLOCK
  5
593
330
591
100
AcDbEntity
  8
0
100
AcDbBlockBegin
  2
block 199
 70
     0
 71
     0
 10
0.0
 20
0.0
 30
0.0
  3
block 199
  1

  0
MTEXT
  5
595
330
591
100
AcDbEntity
  8
Capa 1
 62
     7
100
AcDbMText
 10
10.98073233883919
 20
132.1580841127199
 30
0.0
 40
2.720217147585918
 41
0.0
 71
     7
 72
     1
  1
\fMyriad Pro|b0|i0|c0|p34;\W1;700
 73
     1
 44
1.0
  0
ENDBLK
  5
594
330
591
100
AcDbEntity
  8
0
100
AcDbBlockEnd
  0
BLOCK
  5
598
330
596
100
AcDbEntity
  8
0
100
AcDbBlockBegin
  2
block 200
 70
     0
 71
     0
 10
0.0
 20
0.0
 30
0.0
  3
block 200
  1

  0
POLYLINE
  5
59A
330
596
100
AcDbEntity
  8
Capa 1
370
     0
100
AcDb2dPolyline
 66
     1
 10
0.0
 20
0.0
 30
0.0
  0
VERTEX
  5
59B
330
59A
100
AcDbEntity
  8
Capa 1
370
     0
100
AcDbVertex
100
AcDb2dVertex
 10
36.17318194882193
 20
181.122225017302
 30
0.0
  0
VERTEX
  5
59C
330
59A
100
AcDbEntity
  8
Capa 1
370
     0
100
AcDbVertex
100
AcDb2dVertex
 10
36.17318194882193
 20
181.122225017302
 30
0.0
  0
SEQEND
  5
59D
330
59A
100
AcDbEntity
  8
Capa 1
370
     0
  0
ENDBLK
  5
599
330
596
100
AcDbEntity
  8
0
100
AcDbBlockEnd
  0
BLOCK
  5
5A0
330
59E
100
AcDbEntity
  8
0
100
AcDbBlockBegin
  2
block 201
 70
     0
 71
     0
 10
0.0
 20
0.0
 30
0.0
  3
block 201
  1

  0
POLYLINE
  5
5A2
330
59E
100
AcDbEntity
  8
Capa 1
370
     0
100
AcDb2dPolyline
 66
     1
 10
0.0
 20
0.0
 30
0.0
  0
VERTEX
  5
5A3
330
5A2
100
AcDbEntity
  8
Capa 1
370
     0
100
AcDbVertex
100
AcDb2dVertex
 10
36.17318194882193
 20
85.91488141737598
 30
0.0
  0
VERTEX
  5
5A4
330
5A2
100
AcDbEntity
  8
Capa 1
370
     0
100
AcDbVertex
100
AcDb2dVertex
 10
36.17318194882193
 20
85.91488141737598
 30
0.0
  0
SEQEND
  5
5A5
330
5A2
100
AcDbEntity
  8
Capa 1
370
     0
  0
ENDBLK
  5
5A1
330
59E
100
AcDbEntity
  8
0
100
AcDbBlockEnd
  0
BLOCK
  5
5A8
330
5A6
100
AcDbEntity
  8
0
100
AcDbBlockBegin
  2
block 202
 70
     0
 71
     0
 10
0.0
 20
0.0
 30
0.0
  3
block 202
  1

  0
POLYLINE
  5
5AA
330
5A6
100
AcDbEntity
  8
Capa 1
370
     0
100
AcDb2dPolyline
 66
     1
 10
0.0
 20
0.0
 30
0.0
  0
VERTEX
  5
5AB
330
5AA
100
AcDbEntity
  8
Capa 1
370
     0
100
AcDbVertex
100
AcDb2dVertex
 10
14.86714711959577
 20
85.91488141737598
 30
0.0
  0
VERTEX
  5
5AC
330
5AA
100
AcDbEntity
  8
Capa 1
370
     0
100
AcDbVertex
100
AcDb2dVertex
 10
14.86714711959577
 20
85.91488141737598
 30
0.0
  0
SEQEND
  5
5AD
330
5AA
100
AcDbEntity
  8
Capa 1
370
     0
  0
ENDBLK
  5
5A9
330
5A6
100
AcDbEntity
  8
0
100
AcDbBlockEnd
  0
BLOCK
  5
5B0
330
5AE
100
AcDbEntity
  8
0
100
AcDbBlockBegin
  2
block 203
 70
     0
 71
     0
 10
0.0
 20
0.0
 30
0.0
  3
block 203
  1

  0
INSERT
  5
5B3
330
5AE
100
AcDbEntity
  8
Capa 1
100
AcDbBlockReference
  2
block 204
 10
0.0
 20
0.0
 30
0.0
  0
INSERT
  5
5BB
330
5AE
100
AcDbEntity
  8
Capa 1
100
AcDbBlockReference
  2
block 205
 10
0.0
 20
0.0
 30
0.0
  0
INSERT
  5
5C3
330
5AE
100
AcDbEntity
  8
Capa 1
100
AcDbBlockReference
  2
block 206
 10
0.0
 20
0.0
 30
0.0
  0
INSERT
  5
5CB
330
5AE
100
AcDbEntity
  8
Capa 1
100
AcDbBlockReference
  2
block 207
 10
0.0
 20
0.0
 30
0.0
  0
INSERT
  5
5D3
330
5AE
100
AcDbEntity
  8
Capa 1
100
AcDbBlockReference
  2
block 208
 10
0.0
 20
0.0
 30
0.0
  0
INSERT
  5
5DE
330
5AE
100
AcDbEntity
  8
Capa 1
100
AcDbBlockReference
  2
block 209
 10
0.0
 20
0.0
 30
0.0
  0
INSERT
  5
5E9
330
5AE
100
AcDbEntity
  8
Capa 1
100
AcDbBlockReference
  2
block 210
 10
0.0
 20
0.0
 30
0.0
  0
INSERT
  5
5EE
330
5AE
100
AcDbEntity
  8
Capa 1
100
AcDbBlockReference
  2
block 211
 10
0.0
 20
0.0
 30
0.0
  0
INSERT
  5
5F6
330
5AE
100
AcDbEntity
  8
Capa 1
100
AcDbBlockReference
  2
block 212
 10
0.0
 20
0.0
 30
0.0
  0
INSERT
  5
5FE
330
5AE
100
AcDbEntity
  8
Capa 1
100
AcDbBlockReference
  2
block 213
 10
0.0
 20
0.0
 30
0.0
  0
ENDBLK
  5
5B1
330
5AE
100
AcDbEntity
  8
0
100
AcDbBlockEnd
  0
BLOCK
  5
5B4
330
5B2
100
AcDbEntity
  8
0
100
AcDbBlockBegin
  2
block 204
 70
     0
 71
     0
 10
0.0
 20
0.0
 30
0.0
  3
block 204
  1

  0
POLYLINE
  5
5B6
330
5B2
100
AcDbEntity
  8
Capa 1
 62
     7
370
    25
100
AcDb2dPolyline
 66
     1
 10
0.0
 20
0.0
 30
0.0
  0
VERTEX
  5
5B7
330
5B6
100
AcDbEntity
  8
Capa 1
 62
     7
370
    25
100
AcDbVertex
100
AcDb2dVertex
 10
47.05400645268023
 20
111.0768419122008
 30
0.0
  0
VERTEX
  5
5B8
330
5B6
100
AcDbEntity
  8
Capa 1
 62
     7
370
    25
100
AcDbVertex
100
AcDb2dVertex
 10
24.25090439273182
 20
111.0768419122008
 30
0.0
  0
SEQEND
  5
5B9
330
5B6
100
AcDbEntity
  8
Capa 1
370
    25
  0
ENDBLK
  5
5B5
330
5B2
100
AcDbEntity
  8
0
100
AcDbBlockEnd
  0
BLOCK
  5
5BC
330
5BA
100
AcDbEntity
  8
0
100
AcDbBlockBegin
  2
block 205
 70
     0
 71
     0
 10
0.0
 20
0.0
 30
0.0
  3
block 205
  1

  0
POLYLINE
  5
5BE
330
5BA
100
AcDbEntity
  8
Capa 1
 62
     7
370
    25
100
AcDb2dPolyline
 66
     1
 10
0.0
 20
0.0
 30
0.0
  0
VERTEX
  5
5BF
330
5BE
100
AcDbEntity
  8
Capa 1
 62
     7
370
    25
100
AcDbVertex
100
AcDb2dVertex
 10
34.81305735397866
 20
85.91488141737598
 30
0.0
  0
VERTEX
  5
5C0
330
5BE
100
AcDbEntity
  8
Capa 1
 62
     7
370
    25
100
AcDbVertex
100
AcDb2dVertex
 10
24.25090439273182
 20
85.91488141737598
 30
0.0
  0
SEQEND
  5
5C1
330
5BE
100
AcDbEntity
  8
Capa 1
370
    25
  0
ENDBLK
  5
5BD
330
5BA
100
AcDbEntity
  8
0
100
AcDbBlockEnd
  0
BLOCK
  5
5C4
330
5C2
100
AcDbEntity
  8
0
100
AcDbBlockBegin
  2
block 206
 70
     0
 71
     0
 10
0.0
 20
0.0
 30
0.0
  3
block 206
  1

  0
POLYLINE
  5
5C6
330
5C2
100
AcDbEntity
  8
Capa 1
 62
     7
370
    25
100
AcDb2dPolyline
 66
     1
 10
0.0
 20
0.0
 30
0.0
  0
VERTEX
  5
5C7
330
5C6
100
AcDbEntity
  8
Capa 1
 62
     7
370
    25
100
AcDbVertex
100
AcDb2dVertex
 10
25.61120124246299
 20
108.6280664258416
 30
0.0
  0
VERTEX
  5
5C8
330
5C6
100
AcDbEntity
  8
Capa 1
 62
     7
370
    25
100
AcDbVertex
100
AcDb2dVertex
 10
25.61120124246299
 20
101.2155940898112
 30
0.0
  0
SEQEND
  5
5C9
330
5C6
100
AcDbEntity
  8
Capa 1
370
    25
  0
ENDBLK
  5
5C5
330
5C2
100
AcDbEntity
  8
0
100
AcDbBlockEnd
  0
BLOCK
  5
5CC
330
5CA
100
AcDbEntity
  8
0
100
AcDbBlockBegin
  2
block 207
 70
     0
 71
     0
 10
0.0
 20
0.0
 30
0.0
  3
block 207
  1

  0
POLYLINE
  5
5CE
330
5CA
100
AcDbEntity
  8
Capa 1
 62
     7
370
    25
100
AcDb2dPolyline
 66
     1
 10
0.0
 20
0.0
 30
0.0
  0
VERTEX
  5
5CF
330
5CE
100
AcDbEntity
  8
Capa 1
 62
     7
370
    25
100
AcDbVertex
100
AcDb2dVertex
 10
25.61120124246299
 20
88.36262337440776
 30
0.0
  0
VERTEX
  5
5D0
330
5CE
100
AcDbEntity
  8
Capa 1
 62
     7
370
    25
100
AcDbVertex
100
AcDb2dVertex
 10
25.61120124246299
 20
95.77509571043812
 30
0.0
  0
SEQEND
  5
5D1
330
5CE
100
AcDbEntity
  8
Capa 1
370
    25
  0
ENDBLK
  5
5CD
330
5CA
100
AcDbEntity
  8
0
100
AcDbBlockEnd
  0
BLOCK
  5
5D4
330
5D2
100
AcDbEntity
  8
0
100
AcDbBlockBegin
  2
block 208
 70
     0
 71
     0
 10
0.0
 20
0.0
 30
0.0
  3
block 208
  1

  0
POLYLINE
  5
5D6
330
5D2
100
AcDbEntity
  8
Capa 1
370
     0
100
AcDb2dPolyline
 66
     1
 10
0.0
 20
0.0
 30
0.0
  0
VERTEX
  5
5D7
330
5D6
100
AcDbEntity
  8
Capa 1
370
     0
100
AcDbVertex
100
AcDb2dVertex
 10
25.20295715814453
 20
108.6280664258416
 30
0.0
  0
VERTEX
  5
5D8
330
5D6
100
AcDbEntity
  8
Capa 1
370
     0
100
AcDbVertex
100
AcDb2dVertex
 10
26.01910081700565
 20
108.6280664258416
 30
0.0
  0
VERTEX
  5
5D9
330
5D6
100
AcDbEntity
  8
Capa 1
370
     0
100
AcDbVertex
100
AcDb2dVertex
 10
25.61120124246299
 20
111.0768419122008
 30
0.0
  0
VERTEX
  5
5DA
330
5D6
100
AcDbEntity
  8
Capa 1
370
     0
100
AcDbVertex
100
AcDb2dVertex
 10
25.20295715814453
 20
108.6280664258416
 30
0.0
  0
SEQEND
  5
5DB
330
5D6
100
AcDbEntity
  8
Capa 1
370
     0
  0
HATCH
  5
5DC
330
5D2
100
AcDbEntity
  8
Capa 1
 62
     7
100
AcDbHatch
 10
0.0
 20
0.0
 30
0.0
210
0.0
220
0.0
230
1.0
  2
SOLID
 70
     1
 71
     0
 91
        1
 92
        1
 93
        3
 72
     1
 10
25.20295715814453
 20
108.6280664258416
 11
26.01910081700565
 21
108.6280664258416
 72
     1
 10
26.01910081700565
 20
108.6280664258416
 11
25.61120124246299
 21
111.0768419122008
 72
     1
 10
25.61120124246299
 20
111.0768419122008
 11
25.20295715814453
 21
108.6280664258416
 97
        0
 75
     2
 76
     1
 98
        0
  0
ENDBLK
  5
5D5
330
5D2
100
AcDbEntity
  8
0
100
AcDbBlockEnd
  0
BLOCK
  5
5DF
330
5DD
100
AcDbEntity
  8
0
100
AcDbBlockBegin
  2
block 209
 70
     0
 71
     0
 10
0.0
 20
0.0
 30
0.0
  3
block 209
  1

  0
POLYLINE
  5
5E1
330
5DD
100
AcDbEntity
  8
Capa 1
370
     0
100
AcDb2dPolyline
 66
     1
 10
0.0
 20
0.0
 30
0.0
  0
VERTEX
  5
5E2
330
5E1
100
AcDbEntity
  8
Capa 1
370
     0
100
AcDbVertex
100
AcDb2dVertex
 10
25.20295715814453
 20
88.36262337440776
 30
0.0
  0
VERTEX
  5
5E3
330
5E1
100
AcDbEntity
  8
Capa 1
370
     0
100
AcDbVertex
100
AcDb2dVertex
 10
26.01910081700565
 20
88.36262337440776
 30
0.0
  0
VERTEX
  5
5E4
330
5E1
100
AcDbEntity
  8
Capa 1
370
     0
100
AcDbVertex
100
AcDb2dVertex
 10
25.61120124246299
 20
85.91488141737598
 30
0.0
  0
VERTEX
  5
5E5
330
5E1
100
AcDbEntity
  8
Capa 1
370
     0
100
AcDbVertex
100
AcDb2dVertex
 10
25.20295715814453
 20
88.36262337440776
 30
0.0
  0
SEQEND
  5
5E6
330
5E1
100
AcDbEntity
  8
Capa 1
370
     0
  0
HATCH
  5
5E7
330
5DD
100
AcDbEntity
  8
Capa 1
 62
     7
100
AcDbHatch
 10
0.0
 20
0.0
 30
0.0
210
0.0
220
0.0
230
1.0
  2
SOLID
 70
     1
 71
     0
 91
        1
 92
        1
 93
        3
 72
     1
 10
25.20295715814453
 20
88.36262337440776
 11
26.01910081700565
 21
88.36262337440776
 72
     1
 10
26.01910081700565
 20
88.36262337440776
 11
25.61120124246299
 21
85.91488141737598
 72
     1
 10
25.61120124246299
 20
85.91488141737598
 11
25.20295715814453
 21
88.36262337440776
 97
        0
 75
     2
 76
     1
 98
        0
  0
ENDBLK
  5
5E0
330
5DD
100
AcDbEntity
  8
0
100
AcDbBlockEnd
  0
BLOCK
  5
5EA
330
5E8
100
AcDbEntity
  8
0
100
AcDbBlockBegin
  2
block 210
 70
     0
 71
     0
 10
0.0
 20
0.0
 30
0.0
  3
block 210
  1

  0
MTEXT
  5
5EC
330
5E8
100
AcDbEntity
  8
Capa 1
 62
     7
100
AcDbMText
 10
21.53048294815737
 20
97.13487579550561
 30
0.0
 40
2.720217147585918
 41
0.0
 71
     7
 72
     1
  1
\fMyriad Pro|b0|i0|c0|p34;\W1;185
 73
     1
 44
1.0
  0
ENDBLK
  5
5EB
330
5E8
100
AcDbEntity
  8
0
100
AcDbBlockEnd
  0
BLOCK
  5
5EF
330
5ED
100
AcDbEntity
  8
0
100
AcDbBlockBegin
  2
block 211
 70
     0
 71
     0
 10
0.0
 20
0.0
 30
0.0
  3
block 211
  1

  0
POLYLINE
  5
5F1
330
5ED
100
AcDbEntity
  8
Capa 1
370
     0
100
AcDb2dPolyline
 66
     1
 10
0.0
 20
0.0
 30
0.0
  0
VERTEX
  5
5F2
330
5F1
100
AcDbEntity
  8
Capa 1
370
     0
100
AcDbVertex
100
AcDb2dVertex
 10
48.4143033024114
 20
111.0768419122008
 30
0.0
  0
VERTEX
  5
5F3
330
5F1
100
AcDbEntity
  8
Capa 1
370
     0
100
AcDbVertex
100
AcDb2dVertex
 10
48.4143033024114
 20
111.0768419122008
 30
0.0
  0
SEQEND
  5
5F4
330
5F1
100
AcDbEntity
  8
Capa 1
370
     0
  0
ENDBLK
  5
5F0
330
5ED
100
AcDbEntity
  8
0
100
AcDbBlockEnd
  0
BLOCK
  5
5F7
330
5F5
100
AcDbEntity
  8
0
100
AcDbBlockBegin
  2
block 212
 70
     0
 71
     0
 10
0.0
 20
0.0
 30
0.0
  3
block 212
  1

  0
POLYLINE
  5
5F9
330
5F5
100
AcDbEntity
  8
Capa 1
370
     0
100
AcDb2dPolyline
 66
     1
 10
0.0
 20
0.0
 30
0.0
  0
VERTEX
  5
5FA
330
5F9
100
AcDbEntity
  8
Capa 1
370
     0
100
AcDbVertex
100
AcDb2dVertex
 10
36.17318194882193
 20
85.91488141737598
 30
0.0
  0
VERTEX
  5
5FB
330
5F9
100
AcDbEntity
  8
Capa 1
370
     0
100
AcDbVertex
100
AcDb2dVertex
 10
36.17318194882193
 20
85.91488141737598
 30
0.0
  0
SEQEND
  5
5FC
330
5F9
100
AcDbEntity
  8
Capa 1
370
     0
  0
ENDBLK
  5
5F8
330
5F5
100
AcDbEntity
  8
0
100
AcDbBlockEnd
  0
BLOCK
  5
5FF
330
5FD
100
AcDbEntity
  8
0
100
AcDbBlockBegin
  2
block 213
 70
     0
 71
     0
 10
0.0
 20
0.0
 30
0.0
  3
block 213
  1

  0
POLYLINE
  5
601
330
5FD
100
AcDbEntity
  8
Capa 1
370
     0
100
AcDb2dPolyline
 66
     1
 10
0.0
 20
0.0
 30
0.0
  0
VERTEX
  5
602
330
601
100
AcDbEntity
  8
Capa 1
370
     0
100
AcDbVertex
100
AcDb2dVertex
 10
25.61120124246299
 20
85.91488141737598
 30
0.0
  0
VERTEX
  5
603
330
601
100
AcDbEntity
  8
Capa 1
370
     0
100
AcDbVertex
100
AcDb2dVertex
 10
25.61120124246299
 20
85.91488141737598
 30
0.0
  0
SEQEND
  5
604
330
601
100
AcDbEntity
  8
Capa 1
370
     0
  0
ENDBLK
  5
600
330
5FD
100
AcDbEntity
  8
0
100
AcDbBlockEnd
  0
ENDSEC
  0
SECTION
  2
ENTITIES
  0
INSERT
  5
3D
330
1F
100
AcDbEntity
  8
Capa 1
100
AcDbBlockReference
  2
block 2
 10
0.0
 20
0.0
 30
0.0
  0
INSERT
  5
51
330
1F
100
AcDbEntity
  8
Capa 1
100
AcDbBlockReference
  2
block 3
 10
0.0
 20
0.0
 30
0.0
  0
INSERT
  5
63
330
1F
100
AcDbEntity
  8
Capa 1
100
AcDbBlockReference
  2
block 4
 10
0.0
 20
0.0
 30
0.0
  0
INSERT
  5
77
330
1F
100
AcDbEntity
  8
Capa 1
100
AcDbBlockReference
  2
block 5
 10
0.0
 20
0.0
 30
0.0
  0
INSERT
  5
7E
330
1F
100
AcDbEntity
  8
Capa 1
100
AcDbBlockReference
  2
block 6
 10
0.0
 20
0.0
 30
0.0
  0
INSERT
  5
92
330
1F
100
AcDbEntity
  8
Capa 1
100
AcDbBlockReference
  2
block 7
 10
0.0
 20
0.0
 30
0.0
  0
INSERT
  5
A4
330
1F
100
AcDbEntity
  8
Capa 1
100
AcDbBlockReference
  2
block 8
 10
0.0
 20
0.0
 30
0.0
  0
INSERT
  5
B8
330
1F
100
AcDbEntity
  8
Capa 1
100
AcDbBlockReference
  2
block 9
 10
0.0
 20
0.0
 30
0.0
  0
INSERT
  5
C0
330
1F
100
AcDbEntity
  8
Capa 1
100
AcDbBlockReference
  2
block 10
 10
0.0
 20
0.0
 30
0.0
  0
INSERT
  5
C8
330
1F
100
AcDbEntity
  8
Capa 1
100
AcDbBlockReference
  2
block 11
 10
0.0
 20
0.0
 30
0.0
  0
INSERT
  5
D0
330
1F
100
AcDbEntity
  8
Capa 1
100
AcDbBlockReference
  2
block 12
 10
0.0
 20
0.0
 30
0.0
  0
INSERT
  5
D5
330
1F
100
AcDbEntity
  8
Capa 1
100
AcDbBlockReference
  2
block 13
 10
0.0
 20
0.0
 30
0.0
  0
INSERT
  5
DA
330
1F
100
AcDbEntity
  8
Capa 1
100
AcDbBlockReference
  2
block 14
 10
0.0
 20
0.0
 30
0.0
  0
INSERT
  5
DF
330
1F
100
AcDbEntity
  8
Capa 1
100
AcDbBlockReference
  2
block 15
 10
0.0
 20
0.0
 30
0.0
  0
INSERT
  5
E7
330
1F
100
AcDbEntity
  8
Capa 1
100
AcDbBlockReference
  2
block 16
 10
0.0
 20
0.0
 30
0.0
  0
INSERT
  5
EC
330
1F
100
AcDbEntity
  8
Capa 1
100
AcDbBlockReference
  2
block 17
 10
0.0
 20
0.0
 30
0.0
  0
INSERT
  5
F1
330
1F
100
AcDbEntity
  8
Capa 1
100
AcDbBlockReference
  2
block 18
 10
0.0
 20
0.0
 30
0.0
  0
INSERT
  5
F9
330
1F
100
AcDbEntity
  8
Capa 1
100
AcDbBlockReference
  2
block 19
 10
0.0
 20
0.0
 30
0.0
  0
INSERT
  5
101
330
1F
100
AcDbEntity
  8
Capa 1
100
AcDbBlockReference
  2
block 20
 10
0.0
 20
0.0
 30
0.0
  0
INSERT
  5
109
330
1F
100
AcDbEntity
  8
Capa 1
100
AcDbBlockReference
  2
block 21
 10
0.0
 20
0.0
 30
0.0
  0
INSERT
  5
10E
330
1F
100
AcDbEntity
  8
Capa 1
100
AcDbBlockReference
  2
block 22
 10
0.0
 20
0.0
 30
0.0
  0
INSERT
  5
113
330
1F
100
AcDbEntity
  8
Capa 1
100
AcDbBlockReference
  2
block 23
 10
0.0
 20
0.0
 30
0.0
  0
INSERT
  5
11B
330
1F
100
AcDbEntity
  8
Capa 1
100
AcDbBlockReference
  2
block 24
 10
0.0
 20
0.0
 30
0.0
  0
INSERT
  5
123
330
1F
100
AcDbEntity
  8
Capa 1
100
AcDbBlockReference
  2
block 25
 10
0.0
 20
0.0
 30
0.0
  0
INSERT
  5
128
330
1F
100
AcDbEntity
  8
Capa 1
100
AcDbBlockReference
  2
block 26
 10
0.0
 20
0.0
 30
0.0
  0
INSERT
  5
130
330
1F
100
AcDbEntity
  8
Capa 1
100
AcDbBlockReference
  2
block 27
 10
0.0
 20
0.0
 30
0.0
  0
INSERT
  5
138
330
1F
100
AcDbEntity
  8
Capa 1
100
AcDbBlockReference
  2
block 28
 10
0.0
 20
0.0
 30
0.0
  0
INSERT
  5
13D
330
1F
100
AcDbEntity
  8
Capa 1
100
AcDbBlockReference
  2
block 29
 10
0.0
 20
0.0
 30
0.0
  0
INSERT
  5
145
330
1F
100
AcDbEntity
  8
Capa 1
100
AcDbBlockReference
  2
block 30
 10
0.0
 20
0.0
 30
0.0
  0
INSERT
  5
14D
330
1F
100
AcDbEntity
  8
Capa 1
100
AcDbBlockReference
  2
block 31
 10
0.0
 20
0.0
 30
0.0
  0
INSERT
  5
152
330
1F
100
AcDbEntity
  8
Capa 1
100
AcDbBlockReference
  2
block 32
 10
0.0
 20
0.0
 30
0.0
  0
INSERT
  5
157
330
1F
100
AcDbEntity
  8
Capa 1
100
AcDbBlockReference
  2
block 33
 10
0.0
 20
0.0
 30
0.0
  0
INSERT
  5
15C
330
1F
100
AcDbEntity
  8
Capa 1
100
AcDbBlockReference
  2
block 34
 10
0.0
 20
0.0
 30
0.0
  0
INSERT
  5
161
330
1F
100
AcDbEntity
  8
Capa 1
100
AcDbBlockReference
  2
block 35
 10
0.0
 20
0.0
 30
0.0
  0
INSERT
  5
166
330
1F
100
AcDbEntity
  8
Capa 1
100
AcDbBlockReference
  2
block 36
 10
0.0
 20
0.0
 30
0.0
  0
INSERT
  5
16B
330
1F
100
AcDbEntity
  8
Capa 1
100
AcDbBlockReference
  2
block 37
 10
0.0
 20
0.0
 30
0.0
  0
INSERT
  5
170
330
1F
100
AcDbEntity
  8
Capa 1
100
AcDbBlockReference
  2
block 38
 10
0.0
 20
0.0
 30
0.0
  0
INSERT
  5
175
330
1F
100
AcDbEntity
  8
Capa 1
100
AcDbBlockReference
  2
block 39
 10
0.0
 20
0.0
 30
0.0
  0
INSERT
  5
17A
330
1F
100
AcDbEntity
  8
Capa 1
100
AcDbBlockReference
  2
block 40
 10
0.0
 20
0.0
 30
0.0
  0
INSERT
  5
17F
330
1F
100
AcDbEntity
  8
Capa 1
100
AcDbBlockReference
  2
block 41
 10
0.0
 20
0.0
 30
0.0
  0
INSERT
  5
184
330
1F
100
AcDbEntity
  8
Capa 1
100
AcDbBlockReference
  2
block 42
 10
0.0
 20
0.0
 30
0.0
  0
INSERT
  5
189
330
1F
100
AcDbEntity
  8
Capa 1
100
AcDbBlockReference
  2
block 43
 10
0.0
 20
0.0
 30
0.0
  0
INSERT
  5
191
330
1F
100
AcDbEntity
  8
Capa 1
100
AcDbBlockReference
  2
block 44
 10
0.0
 20
0.0
 30
0.0
  0
INSERT
  5
196
330
1F
100
AcDbEntity
  8
Capa 1
100
AcDbBlockReference
  2
block 45
 10
0.0
 20
0.0
 30
0.0
  0
INSERT
  5
19E
330
1F
100
AcDbEntity
  8
Capa 1
100
AcDbBlockReference
  2
block 46
 10
0.0
 20
0.0
 30
0.0
  0
INSERT
  5
1A6
330
1F
100
AcDbEntity
  8
Capa 1
100
AcDbBlockReference
  2
block 47
 10
0.0
 20
0.0
 30
0.0
  0
INSERT
  5
1AB
330
1F
100
AcDbEntity
  8
Capa 1
100
AcDbBlockReference
  2
block 48
 10
0.0
 20
0.0
 30
0.0
  0
INSERT
  5
1B0
330
1F
100
AcDbEntity
  8
Capa 1
100
AcDbBlockReference
  2
block 49
 10
0.0
 20
0.0
 30
0.0
  0
INSERT
  5
1B5
330
1F
100
AcDbEntity
  8
Capa 1
100
AcDbBlockReference
  2
block 50
 10
0.0
 20
0.0
 30
0.0
  0
INSERT
  5
1BD
330
1F
100
AcDbEntity
  8
Capa 1
100
AcDbBlockReference
  2
block 51
 10
0.0
 20
0.0
 30
0.0
  0
INSERT
  5
1C5
330
1F
100
AcDbEntity
  8
Capa 1
100
AcDbBlockReference
  2
block 52
 10
0.0
 20
0.0
 30
0.0
  0
INSERT
  5
1CD
330
1F
100
AcDbEntity
  8
Capa 1
100
AcDbBlockReference
  2
block 53
 10
0.0
 20
0.0
 30
0.0
  0
INSERT
  5
1D5
330
1F
100
AcDbEntity
  8
Capa 1
100
AcDbBlockReference
  2
block 54
 10
0.0
 20
0.0
 30
0.0
  0
INSERT
  5
1DD
330
1F
100
AcDbEntity
  8
Capa 1
100
AcDbBlockReference
  2
block 55
 10
0.0
 20
0.0
 30
0.0
  0
INSERT
  5
1E5
330
1F
100
AcDbEntity
  8
Capa 1
100
AcDbBlockReference
  2
block 56
 10
0.0
 20
0.0
 30
0.0
  0
INSERT
  5
1ED
330
1F
100
AcDbEntity
  8
Capa 1
100
AcDbBlockReference
  2
block 57
 10
0.0
 20
0.0
 30
0.0
  0
INSERT
  5
1F2
330
1F
100
AcDbEntity
  8
Capa 1
100
AcDbBlockReference
  2
block 58
 10
0.0
 20
0.0
 30
0.0
  0
INSERT
  5
1FA
330
1F
100
AcDbEntity
  8
Capa 1
100
AcDbBlockReference
  2
block 59
 10
0.0
 20
0.0
 30
0.0
  0
INSERT
  5
202
330
1F
100
AcDbEntity
  8
Capa 1
100
AcDbBlockReference
  2
block 60
 10
0.0
 20
0.0
 30
0.0
  0
INSERT
  5
207
330
1F
100
AcDbEntity
  8
Capa 1
100
AcDbBlockReference
  2
block 61
 10
0.0
 20
0.0
 30
0.0
  0
INSERT
  5
20F
330
1F
100
AcDbEntity
  8
Capa 1
100
AcDbBlockReference
  2
block 62
 10
0.0
 20
0.0
 30
0.0
  0
INSERT
  5
217
330
1F
100
AcDbEntity
  8
Capa 1
100
AcDbBlockReference
  2
block 63
 10
0.0
 20
0.0
 30
0.0
  0
INSERT
  5
21C
330
1F
100
AcDbEntity
  8
Capa 1
100
AcDbBlockReference
  2
block 64
 10
0.0
 20
0.0
 30
0.0
  0
INSERT
  5
221
330
1F
100
AcDbEntity
  8
Capa 1
100
AcDbBlockReference
  2
block 65
 10
0.0
 20
0.0
 30
0.0
  0
INSERT
  5
226
330
1F
100
AcDbEntity
  8
Capa 1
100
AcDbBlockReference
  2
block 66
 10
0.0
 20
0.0
 30
0.0
  0
INSERT
  5
22B
330
1F
100
AcDbEntity
  8
Capa 1
100
AcDbBlockReference
  2
block 67
 10
0.0
 20
0.0
 30
0.0
  0
INSERT
  5
230
330
1F
100
AcDbEntity
  8
Capa 1
100
AcDbBlockReference
  2
block 68
 10
0.0
 20
0.0
 30
0.0
  0
INSERT
  5
235
330
1F
100
AcDbEntity
  8
Capa 1
100
AcDbBlockReference
  2
block 69
 10
0.0
 20
0.0
 30
0.0
  0
INSERT
  5
23A
330
1F
100
AcDbEntity
  8
Capa 1
100
AcDbBlockReference
  2
block 70
 10
0.0
 20
0.0
 30
0.0
  0
INSERT
  5
23F
330
1F
100
AcDbEntity
  8
Capa 1
100
AcDbBlockReference
  2
block 71
 10
0.0
 20
0.0
 30
0.0
  0
INSERT
  5
244
330
1F
100
AcDbEntity
  8
Capa 1
100
AcDbBlockReference
  2
block 72
 10
0.0
 20
0.0
 30
0.0
  0
INSERT
  5
249
330
1F
100
AcDbEntity
  8
Capa 1
100
AcDbBlockReference
  2
block 73
 10
0.0
 20
0.0
 30
0.0
  0
INSERT
  5
24E
330
1F
100
AcDbEntity
  8
Capa 1
100
AcDbBlockReference
  2
block 74
 10
0.0
 20
0.0
 30
0.0
  0
INSERT
  5
253
330
1F
100
AcDbEntity
  8
Capa 1
100
AcDbBlockReference
  2
block 75
 10
0.0
 20
0.0
 30
0.0
  0
INSERT
  5
25B
330
1F
100
AcDbEntity
  8
Capa 1
100
AcDbBlockReference
  2
block 76
 10
0.0
 20
0.0
 30
0.0
  0
INSERT
  5
260
330
1F
100
AcDbEntity
  8
Capa 1
100
AcDbBlockReference
  2
block 77
 10
0.0
 20
0.0
 30
0.0
  0
INSERT
  5
268
330
1F
100
AcDbEntity
  8
Capa 1
100
AcDbBlockReference
  2
block 78
 10
0.0
 20
0.0
 30
0.0
  0
INSERT
  5
270
330
1F
100
AcDbEntity
  8
Capa 1
100
AcDbBlockReference
  2
block 79
 10
0.0
 20
0.0
 30
0.0
  0
INSERT
  5
275
330
1F
100
AcDbEntity
  8
Capa 1
100
AcDbBlockReference
  2
block 80
 10
0.0
 20
0.0
 30
0.0
  0
INSERT
  5
27A
330
1F
100
AcDbEntity
  8
Capa 1
100
AcDbBlockReference
  2
block 81
 10
0.0
 20
0.0
 30
0.0
  0
INSERT
  5
27F
330
1F
100
AcDbEntity
  8
Capa 1
100
AcDbBlockReference
  2
block 82
 10
0.0
 20
0.0
 30
0.0
  0
INSERT
  5
287
330
1F
100
AcDbEntity
  8
Capa 1
100
AcDbBlockReference
  2
block 83
 10
0.0
 20
0.0
 30
0.0
  0
INSERT
  5
28F
330
1F
100
AcDbEntity
  8
Capa 1
100
AcDbBlockReference
  2
block 84
 10
0.0
 20
0.0
 30
0.0
  0
INSERT
  5
297
330
1F
100
AcDbEntity
  8
Capa 1
100
AcDbBlockReference
  2
block 85
 10
0.0
 20
0.0
 30
0.0
  0
INSERT
  5
29F
330
1F
100
AcDbEntity
  8
Capa 1
100
AcDbBlockReference
  2
block 86
 10
0.0
 20
0.0
 30
0.0
  0
INSERT
  5
2A7
330
1F
100
AcDbEntity
  8
Capa 1
100
AcDbBlockReference
  2
block 87
 10
0.0
 20
0.0
 30
0.0
  0
INSERT
  5
2AF
330
1F
100
AcDbEntity
  8
Capa 1
100
AcDbBlockReference
  2
block 88
 10
0.0
 20
0.0
 30
0.0
  0
INSERT
  5
2B7
330
1F
100
AcDbEntity
  8
Capa 1
100
AcDbBlockReference
  2
block 89
 10
0.0
 20
0.0
 30
0.0
  0
INSERT
  5
2BF
330
1F
100
AcDbEntity
  8
Capa 1
100
AcDbBlockReference
  2
block 90
 10
0.0
 20
0.0
 30
0.0
  0
INSERT
  5
2C7
330
1F
100
AcDbEntity
  8
Capa 1
100
AcDbBlockReference
  2
block 91
 10
0.0
 20
0.0
 30
0.0
  0
INSERT
  5
2CC
330
1F
100
AcDbEntity
  8
Capa 1
100
AcDbBlockReference
  2
block 92
 10
0.0
 20
0.0
 30
0.0
  0
INSERT
  5
2D1
330
1F
100
AcDbEntity
  8
Capa 1
100
AcDbBlockReference
  2
block 93
 10
0.0
 20
0.0
 30
0.0
  0
INSERT
  5
2D9
330
1F
100
AcDbEntity
  8
Capa 1
100
AcDbBlockReference
  2
block 94
 10
0.0
 20
0.0
 30
0.0
  0
INSERT
  5
2E1
330
1F
100
AcDbEntity
  8
Capa 1
100
AcDbBlockReference
  2
block 95
 10
0.0
 20
0.0
 30
0.0
  0
INSERT
  5
2E6
330
1F
100
AcDbEntity
  8
Capa 1
100
AcDbBlockReference
  2
block 96
 10
0.0
 20
0.0
 30
0.0
  0
INSERT
  5
2EB
330
1F
100
AcDbEntity
  8
Capa 1
100
AcDbBlockReference
  2
block 97
 10
0.0
 20
0.0
 30
0.0
  0
INSERT
  5
2F0
330
1F
100
AcDbEntity
  8
Capa 1
100
AcDbBlockReference
  2
block 98
 10
0.0
 20
0.0
 30
0.0
  0
INSERT
  5
2F5
330
1F
100
AcDbEntity
  8
Capa 1
100
AcDbBlockReference
  2
block 99
 10
0.0
 20
0.0
 30
0.0
  0
INSERT
  5
2FA
330
1F
100
AcDbEntity
  8
Capa 1
100
AcDbBlockReference
  2
block 100
 10
0.0
 20
0.0
 30
0.0
  0
INSERT
  5
2FF
330
1F
100
AcDbEntity
  8
Capa 1
100
AcDbBlockReference
  2
block 101
 10
0.0
 20
0.0
 30
0.0
  0
INSERT
  5
304
330
1F
100
AcDbEntity
  8
Capa 1
100
AcDbBlockReference
  2
block 102
 10
0.0
 20
0.0
 30
0.0
  0
INSERT
  5
309
330
1F
100
AcDbEntity
  8
Capa 1
100
AcDbBlockReference
  2
block 103
 10
0.0
 20
0.0
 30
0.0
  0
INSERT
  5
30E
330
1F
100
AcDbEntity
  8
Capa 1
100
AcDbBlockReference
  2
block 104
 10
0.0
 20
0.0
 30
0.0
  0
INSERT
  5
313
330
1F
100
AcDbEntity
  8
Capa 1
100
AcDbBlockReference
  2
block 105
 10
0.0
 20
0.0
 30
0.0
  0
INSERT
  5
318
330
1F
100
AcDbEntity
  8
Capa 1
100
AcDbBlockReference
  2
block 106
 10
0.0
 20
0.0
 30
0.0
  0
INSERT
  5
31D
330
1F
100
AcDbEntity
  8
Capa 1
100
AcDbBlockReference
  2
block 107
 10
0.0
 20
0.0
 30
0.0
  0
INSERT
  5
322
330
1F
100
AcDbEntity
  8
Capa 1
100
AcDbBlockReference
  2
block 108
 10
0.0
 20
0.0
 30
0.0
  0
INSERT
  5
327
330
1F
100
AcDbEntity
  8
Capa 1
100
AcDbBlockReference
  2
block 109
 10
0.0
 20
0.0
 30
0.0
  0
INSERT
  5
32C
330
1F
100
AcDbEntity
  8
Capa 1
100
AcDbBlockReference
  2
block 110
 10
0.0
 20
0.0
 30
0.0
  0
INSERT
  5
331
330
1F
100
AcDbEntity
  8
Capa 1
100
AcDbBlockReference
  2
block 111
 10
0.0
 20
0.0
 30
0.0
  0
INSERT
  5
336
330
1F
100
AcDbEntity
  8
Capa 1
100
AcDbBlockReference
  2
block 112
 10
0.0
 20
0.0
 30
0.0
  0
INSERT
  5
33B
330
1F
100
AcDbEntity
  8
Capa 1
100
AcDbBlockReference
  2
block 113
 10
0.0
 20
0.0
 30
0.0
  0
INSERT
  5
340
330
1F
100
AcDbEntity
  8
Capa 1
100
AcDbBlockReference
  2
block 114
 10
0.0
 20
0.0
 30
0.0
  0
INSERT
  5
345
330
1F
100
AcDbEntity
  8
Capa 1
100
AcDbBlockReference
  2
block 115
 10
0.0
 20
0.0
 30
0.0
  0
INSERT
  5
34A
330
1F
100
AcDbEntity
  8
Capa 1
100
AcDbBlockReference
  2
block 116
 10
0.0
 20
0.0
 30
0.0
  0
INSERT
  5
34F
330
1F
100
AcDbEntity
  8
Capa 1
100
AcDbBlockReference
  2
block 117
 10
0.0
 20
0.0
 30
0.0
  0
INSERT
  5
354
330
1F
100
AcDbEntity
  8
Capa 1
100
AcDbBlockReference
  2
block 118
 10
0.0
 20
0.0
 30
0.0
  0
INSERT
  5
359
330
1F
100
AcDbEntity
  8
Capa 1
100
AcDbBlockReference
  2
block 119
 10
0.0
 20
0.0
 30
0.0
  0
INSERT
  5
35E
330
1F
100
AcDbEntity
  8
Capa 1
100
AcDbBlockReference
  2
block 120
 10
0.0
 20
0.0
 30
0.0
  0
INSERT
  5
363
330
1F
100
AcDbEntity
  8
Capa 1
100
AcDbBlockReference
  2
block 121
 10
0.0
 20
0.0
 30
0.0
  0
INSERT
  5
368
330
1F
100
AcDbEntity
  8
Capa 1
100
AcDbBlockReference
  2
block 122
 10
0.0
 20
0.0
 30
0.0
  0
INSERT
  5
36D
330
1F
100
AcDbEntity
  8
Capa 1
100
AcDbBlockReference
  2
block 123
 10
0.0
 20
0.0
 30
0.0
  0
INSERT
  5
372
330
1F
100
AcDbEntity
  8
Capa 1
100
AcDbBlockReference
  2
block 124
 10
0.0
 20
0.0
 30
0.0
  0
INSERT
  5
377
330
1F
100
AcDbEntity
  8
Capa 1
100
AcDbBlockReference
  2
block 125
 10
0.0
 20
0.0
 30
0.0
  0
INSERT
  5
37C
330
1F
100
AcDbEntity
  8
Capa 1
100
AcDbBlockReference
  2
block 126
 10
0.0
 20
0.0
 30
0.0
  0
INSERT
  5
381
330
1F
100
AcDbEntity
  8
Capa 1
100
AcDbBlockReference
  2
block 127
 10
0.0
 20
0.0
 30
0.0
  0
INSERT
  5
386
330
1F
100
AcDbEntity
  8
Capa 1
100
AcDbBlockReference
  2
block 128
 10
0.0
 20
0.0
 30
0.0
  0
INSERT
  5
38B
330
1F
100
AcDbEntity
  8
Capa 1
100
AcDbBlockReference
  2
block 129
 10
0.0
 20
0.0
 30
0.0
  0
INSERT
  5
390
330
1F
100
AcDbEntity
  8
Capa 1
100
AcDbBlockReference
  2
block 130
 10
0.0
 20
0.0
 30
0.0
  0
INSERT
  5
395
330
1F
100
AcDbEntity
  8
Capa 1
100
AcDbBlockReference
  2
block 131
 10
0.0
 20
0.0
 30
0.0
  0
INSERT
  5
39A
330
1F
100
AcDbEntity
  8
Capa 1
100
AcDbBlockReference
  2
block 132
 10
0.0
 20
0.0
 30
0.0
  0
INSERT
  5
39F
330
1F
100
AcDbEntity
  8
Capa 1
100
AcDbBlockReference
  2
block 133
 10
0.0
 20
0.0
 30
0.0
  0
INSERT
  5
3A4
330
1F
100
AcDbEntity
  8
Capa 1
100
AcDbBlockReference
  2
block 134
 10
0.0
 20
0.0
 30
0.0
  0
INSERT
  5
3A9
330
1F
100
AcDbEntity
  8
Capa 1
100
AcDbBlockReference
  2
block 135
 10
0.0
 20
0.0
 30
0.0
  0
INSERT
  5
3AE
330
1F
100
AcDbEntity
  8
Capa 1
100
AcDbBlockReference
  2
block 136
 10
0.0
 20
0.0
 30
0.0
  0
INSERT
  5
3B3
330
1F
100
AcDbEntity
  8
Capa 1
100
AcDbBlockReference
  2
block 137
 10
0.0
 20
0.0
 30
0.0
  0
INSERT
  5
3B8
330
1F
100
AcDbEntity
  8
Capa 1
100
AcDbBlockReference
  2
block 138
 10
0.0
 20
0.0
 30
0.0
  0
INSERT
  5
3BD
330
1F
100
AcDbEntity
  8
Capa 1
100
AcDbBlockReference
  2
block 139
 10
0.0
 20
0.0
 30
0.0
  0
INSERT
  5
3C2
330
1F
100
AcDbEntity
  8
Capa 1
100
AcDbBlockReference
  2
block 140
 10
0.0
 20
0.0
 30
0.0
  0
INSERT
  5
3C7
330
1F
100
AcDbEntity
  8
Capa 1
100
AcDbBlockReference
  2
block 141
 10
0.0
 20
0.0
 30
0.0
  0
INSERT
  5
3CC
330
1F
100
AcDbEntity
  8
Capa 1
100
AcDbBlockReference
  2
block 142
 10
0.0
 20
0.0
 30
0.0
  0
INSERT
  5
3D1
330
1F
100
AcDbEntity
  8
Capa 1
100
AcDbBlockReference
  2
block 143
 10
0.0
 20
0.0
 30
0.0
  0
INSERT
  5
3DA
330
1F
100
AcDbEntity
  8
Capa 1
100
AcDbBlockReference
  2
block 144
 10
0.0
 20
0.0
 30
0.0
  0
INSERT
  5
3E3
330
1F
100
AcDbEntity
  8
Capa 1
100
AcDbBlockReference
  2
block 145
 10
0.0
 20
0.0
 30
0.0
  0
INSERT
  5
3EC
330
1F
100
AcDbEntity
  8
Capa 1
100
AcDbBlockReference
  2
block 146
 10
0.0
 20
0.0
 30
0.0
  0
INSERT
  5
3F4
330
1F
100
AcDbEntity
  8
Capa 1
100
AcDbBlockReference
  2
block 147
 10
0.0
 20
0.0
 30
0.0
  0
INSERT
  5
3FC
330
1F
100
AcDbEntity
  8
Capa 1
100
AcDbBlockReference
  2
block 148
 10
0.0
 20
0.0
 30
0.0
  0
INSERT
  5
453
330
1F
100
AcDbEntity
  8
Capa 1
100
AcDbBlockReference
  2
block 159
 10
0.0
 20
0.0
 30
0.0
  0
INSERT
  5
4AA
330
1F
100
AcDbEntity
  8
Capa 1
100
AcDbBlockReference
  2
block 170
 10
0.0
 20
0.0
 30
0.0
  0
INSERT
  5
501
330
1F
100
AcDbEntity
  8
Capa 1
100
AcDbBlockReference
  2
block 181
 10
0.0
 20
0.0
 30
0.0
  0
INSERT
  5
558
330
1F
100
AcDbEntity
  8
Capa 1
100
AcDbBlockReference
  2
block 192
 10
0.0
 20
0.0
 30
0.0
  0
INSERT
  5
5AF
330
1F
100
AcDbEntity
  8
Capa 1
100
AcDbBlockReference
  2
block 203
 10
0.0
 20
0.0
 30
0.0
  0
ENDSEC
  0
SECTION
  2
OBJECTS
  0
DICTIONARY
  5
C
330
0
100
AcDbDictionary
281
     1
  3
ACAD_GROUP
350
D
  3
ACAD_LAYOUT
350
1A
  3
ACAD_MLINESTYLE
350
17
  3
ACAD_PLOTSETTINGS
350
19
  3
ACAD_PLOTSTYLENAME
350
E
  3
ACAD_TABLESTYLE
350
605
  3
ACAD_VISUALSTYLE
350
2A
  0
DICTIONARY
  5
D
102
{ACAD_REACTORS
330
C
102
}
330
C
100
AcDbDictionary
281
     1
  0
DICTIONARY
  5
1A
102
{ACAD_REACTORS
330
C
102
}
330
C
100
AcDbDictionary
281
     1
  3
Layout1
350
1E
  3
Layout2
350
26
  3
Model
350
22
  0
DICTIONARY
  5
17
102
{ACAD_REACTORS
330
C
102
}
330
C
100
AcDbDictionary
281
     1
  3
Standard
350
18
  0
DICTIONARY
  5
19
102
{ACAD_REACTORS
330
C
102
}
330
C
100
AcDbDictionary
281
     1
  0
ACDBDICTIONARYWDFLT
  5
E
102
{ACAD_REACTORS
330
C
102
}
330
C
100
AcDbDictionary
281
     1
  3
Normal
350
F
100
AcDbDictionaryWithDefault
340
F
  0
DICTIONARY
  5
605
102
{ACAD_REACTORS
330
C
102
}
330
C
100
AcDbDictionary
281
     1
  0
DICTIONARY
  5
2A
102
{ACAD_REACTORS
330
C
102
}
330
C
100
AcDbDictionary
281
     1
  3
2dWireframe
350
2F
  3
3D Hidden
350
31
  3
3dWireframe
350
30
  3
Basic
350
32
  3
Brighten
350
36
  3
ColorChange
350
3A
  3
Conceptual
350
34
  3
Dim
350
35
  3
Facepattern
350
39
  3
Flat
350
2B
  3
FlatWithEdges
350
2C
  3
Gouraud
350
2D
  3
GouraudWithEdges
350
2E
  3
Linepattern
350
38
  3
Realistic
350
33
  3
Thicken
350
37
  0
LAYOUT
  5
1E
102
{ACAD_REACTORS
330
1A
102
}
330
1A
100
AcDbPlotSettings
  1

  2
none_device
  4

  6

 40
0.0
 41
0.0
 42
0.0
 43
0.0
 44
0.0
 45
0.0
 46
0.0
 47
0.0
 48
0.0
 49
0.0
140
0.0
141
0.0
142
1.0
143
1.0
 70
   688
 72
     0
 73
     0
 74
     5
  7

 75
    16
 76
     0
 77
     2
 78
   300
147
1.0
148
0.0
149
0.0
100
AcDbLayout
  1
Layout1
 70
     1
 71
     1
 10
0.0
 20
0.0
 11
12.0
 21
9.0
 12
0.0
 22
0.0
 32
0.0
 14
1.000000000000000E+20
 24
1.000000000000000E+20
 34
1.000000000000000E+20
 15
-1.000000000000000E+20
 25
-1.000000000000000E+20
 35
-1.000000000000000E+20
146
0.0
 13
0.0
 23
0.0
 33
0.0
 16
1.0
 26
0.0
 36
0.0
 17
0.0
 27
1.0
 37
0.0
 76
     0
330
1B
  0
LAYOUT
  5
26
102
{ACAD_REACTORS
330
1A
102
}
330
1A
100
AcDbPlotSettings
  1

  2
none_device
  4

  6

 40
0.0
 41
0.0
 42
0.0
 43
0.0
 44
0.0
 45
0.0
 46
0.0
 47
0.0
 48
0.0
 49
0.0
140
0.0
141
0.0
142
1.0
143
1.0
 70
   688
 72
     0
 73
     0
 74
     5
  7

 75
    16
 76
     0
 77
     2
 78
   300
147
1.0
148
0.0
149
0.0
100
AcDbLayout
  1
Layout2
 70
     1
 71
     2
 10
0.0
 20
0.0
 11
0.0
 21
0.0
 12
0.0
 22
0.0
 32
0.0
 14
0.0
 24
0.0
 34
0.0
 15
0.0
 25
0.0
 35
0.0
146
0.0
 13
0.0
 23
0.0
 33
0.0
 16
1.0
 26
0.0
 36
0.0
 17
0.0
 27
1.0
 37
0.0
 76
     0
330
23
  0
LAYOUT
  5
22
102
{ACAD_REACTORS
330
1A
102
}
330
1A
100
AcDbPlotSettings
  1

  2
none_device
  4

  6

 40
0.0
 41
0.0
 42
0.0
 43
0.0
 44
0.0
 45
0.0
 46
0.0
 47
0.0
 48
0.0
 49
0.0
140
0.0
141
0.0
142
1.0
143
1.0
 70
  1712
 72
     0
 73
     0
 74
     0
  7

 75
     0
 76
     0
 77
     2
 78
   300
147
1.0
148
0.0
149
0.0
100
AcDbLayout
  1
Model
 70
     1
 71
     0
 10
0.0
 20
0.0
 11
12.0
 21
9.0
 12
0.0
 22
0.0
 32
0.0
 14
1.000000000000000E+20
 24
1.000000000000000E+20
 34
1.000000000000000E+20
 15
-1.000000000000000E+20
 25
-1.000000000000000E+20
 35
-1.000000000000000E+20
146
0.0
 13
0.0
 23
0.0
 33
0.0
 16
1.0
 26
0.0
 36
0.0
 17
0.0
 27
1.0
 37
0.0
 76
     0
330
1F
331
29
  0
MLINESTYLE
  5
18
102
{ACAD_REACTORS
330
17
102
}
330
17
100
AcDbMlineStyle
  2
Standard
 70
     0
  3

 62
   256
 51
90.0
 52
90.0
 71
     2
 49
0.5
 62
   256
  6
BYLAYER
 49
-0.5
 62
   256
  6
BYLAYER
  0
ACDBPLACEHOLDER
  5
F
102
{ACAD_REACTORS
330
E
102
}
330
E
  0
VISUALSTYLE
  5
2F
102
{ACAD_REACTORS
330
2A
102
}
330
2A
100
AcDbVisualStyle
  2
2dWireframe
 70
     4
 71
     0
 72
     2
 73
     0
 90
        0
 40
-0.6
 41
-30.0
 62
     5
 63
     7
421
 16777215
 74
     1
 91
        4
 64
     7
 65
   257
 75
     1
175
     1
 42
1.0
 92
        0
 66
   257
 43
1.0
 76
     1
 77
     6
 78
     2
 67
     7
 79
     5
170
     0
171
     0
290
     0
174
     0
 93
        1
 44
0.0
173
     0
291
     0
 45
0.0
1001
ACAD
1000
AcDbSavedByObjectVersion
1070
     0
  0
VISUALSTYLE
  5
31
102
{ACAD_REACTORS
330
2A
102
}
330
2A
100
AcDbVisualStyle
  2
3D Hidden
 70
     6
 71
     1
 72
     2
 73
     2
 90
        0
 40
-0.6
 41
-30.0
 62
     5
 63
     7
421
 16777215
 74
     2
 91
        2
 64
     7
 65
   257
 75
     2
175
     1
 42
40.0
 92
        0
 66
   257
 43
1.0
 76
     1
 77
     6
 78
     2
 67
     7
 79
     3
170
     0
171
     0
290
     0
174
     0
 93
        1
 44
0.0
173
     0
291
     0
 45
0.0
1001
ACAD
1000
AcDbSavedByObjectVersion
1070
     0
  0
VISUALSTYLE
  5
30
102
{ACAD_REACTORS
330
2A
102
}
330
2A
100
AcDbVisualStyle
  2
3dWireframe
 70
     5
 71
     0
 72
     2
 73
     0
 90
        0
 40
-0.6
 41
-30.0
 62
     5
 63
     7
421
 16777215
 74
     1
 91
        4
 64
     7
 65
   257
 75
     1
175
     1
 42
1.0
 92
        0
 66
   257
 43
1.0
 76
     1
 77
     6
 78
     2
 67
     7
 79
     5
170
     0
171
     0
290
     0
174
     0
 93
        1
 44
0.0
173
     0
291
     0
 45
0.0
1001
ACAD
1000
AcDbSavedByObjectVersion
1070
     0
  0
VISUALSTYLE
  5
32
102
{ACAD_REACTORS
330
2A
102
}
330
2A
100
AcDbVisualStyle
  2
Basic
 70
     7
 71
     1
 72
     0
 73
     1
 90
        0
 40
-0.6
 41
-30.0
 62
     5
 63
     7
421
 16777215
 74
     0
 91
        4
 64
     7
 65
   257
 75
     1
175
     1
 42
1.0
 92
        8
 66
     7
 43
1.0
 76
     1
 77
     6
 78
     2
 67
     7
 79
     5
170
     0
171
     0
290
     0
174
     0
 93
        1
 44
0.0
173
     0
291
     1
 45
0.0
1001
ACAD
1000
AcDbSavedByObjectVersion
1070
     0
  0
VISUALSTYLE
  5
36
102
{ACAD_REACTORS
330
2A
102
}
330
2A
100
AcDbVisualStyle
  2
Brighten
 70
    12
 71
     2
 72
     2
 73
     0
 90
        0
 40
-0.6
 41
-30.0
 62
     5
 63
     7
421
 16777215
 74
     1
 91
        4
 64
     7
 65
   257
 75
     1
175
     1
 42
1.0
 92
        8
 66
     7
 43
1.0
 76
     1
 77
     6
 78
     2
 67
     7
 79
     5
170
     0
171
     0
290
     0
174
     0
 93
        1
 44
50.0
173
     0
291
     1
 45
0.0
1001
ACAD
1000
AcDbSavedByObjectVersion
1070
     0
  0
VISUALSTYLE
  5
3A
102
{ACAD_REACTORS
330
2A
102
}
330
2A
100
AcDbVisualStyle
  2
ColorChange
 70
    16
 71
     2
 72
     2
 73
     3
 90
        0
 40
-0.6
 41
-30.0
 62
     5
 63
     8
421
  8421504
 74
     1
 91
        4
 64
     7
 65
   257
 75
     1
175
     1
 42
1.0
 92
        8
 66
     8
424
  8421504
 43
1.0
 76
     1
 77
     6
 78
     2
 67
     7
 79
     5
170
     0
171
     0
290
     0
174
     0
 93
        1
 44
0.0
173
     0
291
     1
 45
0.0
1001
ACAD
1000
AcDbSavedByObjectVersion
1070
     0
  0
VISUALSTYLE
  5
34
102
{ACAD_REACTORS
330
2A
102
}
330
2A
100
AcDbVisualStyle
  2
Conceptual
 70
     9
 71
     3
 72
     2
 73
     0
 90
        0
 40
-0.6
 41
-30.0
 62
     5
 63
     7
421
 16777215
 74
     2
 91
        2
 64
     7
 65
   257
 75
     1
175
     1
 42
40.0
 92
        8
 66
     7
 43
1.0
 76
     1
 77
     6
 78
     2
 67
     7
 79
     3
170
     0
171
     0
290
     0
174
     0
 93
        1
 44
0.0
173
     0
291
     0
 45
0.0
1001
ACAD
1000
AcDbSavedByObjectVersion
1070
     0
  0
VISUALSTYLE
  5
35
102
{ACAD_REACTORS
330
2A
102
}
330
2A
100
AcDbVisualStyle
  2
Dim
 70
    11
 71
     2
 72
     2
 73
     0
 90
        0
 40
-0.6
 41
-30.0
 62
     5
 63
     7
421
 16777215
 74
     1
 91
        4
 64
     7
 65
   257
 75
     1
175
     1
 42
1.0
 92
        8
 66
     7
 43
1.0
 76
     1
 77
     6
 78
     2
 67
     7
 79
     5
170
     0
171
     0
290
     0
174
     0
 93
        1
 44
-50.0
173
     0
291
     1
 45
0.0
1001
ACAD
1000
AcDbSavedByObjectVersion
1070
     0
  0
VISUALSTYLE
  5
39
102
{ACAD_REACTORS
330
2A
102
}
330
2A
100
AcDbVisualStyle
  2
Facepattern
 70
    15
 71
     2
 72
     2
 73
     0
 90
        0
 40
-0.6
 41
-30.0
 62
     5
 63
     7
421
 16777215
 74
     1
 91
        4
 64
     7
 65
   257
 75
     1
175
     1
 42
1.0
 92
        8
 66
     7
 43
1.0
 76
     1
 77
     6
 78
     2
 67
     7
 79
     5
170
     0
171
     0
290
     0
174
     0
 93
        1
 44
0.0
173
     0
291
     1
 45
0.0
1001
ACAD
1000
AcDbSavedByObjectVersion
1070
     0
  0
VISUALSTYLE
  5
2B
102
{ACAD_REACTORS
330
2A
102
}
330
2A
100
AcDbVisualStyle
  2
Flat
 70
     0
 71
     2
 72
     1
 73
     1
 90
        2
 40
-0.6
 41
30.0
 62
     5
 63
     7
421
 16777215
 74
     0
 91
        4
 64
     7
 65
   257
 75
     1
175
     1
 42
1.0
 92
        8
 66
     7
 43
1.0
 76
     1
 77
     6
 78
     2
 67
     7
 79
     5
170
     0
171
     0
290
     0
174
     0
 93
       13
 44
0.0
173
     0
291
     1
 45
0.0
1001
ACAD
1000
AcDbSavedByObjectVersion
1070
     0
  0
VISUALSTYLE
  5
2C
102
{ACAD_REACTORS
330
2A
102
}
330
2A
100
AcDbVisualStyle
  2
FlatWithEdges
 70
     1
 71
     2
 72
     1
 73
     1
 90
        2
 40
-0.6
 41
30.0
 62
     5
 63
     7
421
 16777215
 74
     1
 91
        4
 64
     7
 65
   257
 75
     1
175
     1
 42
1.0
 92
        0
 66
   257
 43
1.0
 76
     1
 77
     6
 78
     2
 67
     7
 79
     5
170
     0
171
     0
290
     0
174
     0
 93
       13
 44
0.0
173
     0
291
     1
 45
0.0
1001
ACAD
1000
AcDbSavedByObjectVersion
1070
     0
  0
VISUALSTYLE
  5
2D
102
{ACAD_REACTORS
330
2A
102
}
330
2A
100
AcDbVisualStyle
  2
Gouraud
 70
     2
 71
     2
 72
     2
 73
     1
 90
        2
 40
-0.6
 41
30.0
 62
     5
 63
     7
421
 16777215
 74
     0
 91
        4
 64
     7
 65
   257
 75
     1
175
     1
 42
1.0
 92
        0
 66
     7
 43
1.0
 76
     1
 77
     6
 78
     2
 67
     7
 79
     5
170
     0
171
     0
290
     0
174
     0
 93
       13
 44
0.0
173
     0
291
     1
 45
0.0
1001
ACAD
1000
AcDbSavedByObjectVersion
1070
     0
  0
VISUALSTYLE
  5
2E
102
{ACAD_REACTORS
330
2A
102
}
330
2A
100
AcDbVisualStyle
  2
GouraudWithEdges
 70
     3
 71
     2
 72
     2
 73
     1
 90
        2
 40
-0.6
 41
30.0
 62
     5
 63
     7
421
 16777215
 74
     1
 91
        4
 64
     7
 65
   257
 75
     1
175
     1
 42
1.0
 92
        0
 66
   257
 43
1.0
 76
     1
 77
     6
 78
     2
 67
     7
 79
     5
170
     0
171
     0
290
     0
174
     0
 93
       13
 44
0.0
173
     0
291
     1
 45
0.0
1001
ACAD
1000
AcDbSavedByObjectVersion
1070
     0
  0
VISUALSTYLE
  5
38
102
{ACAD_REACTORS
330
2A
102
}
330
2A
100
AcDbVisualStyle
  2
Linepattern
 70
    14
 71
     2
 72
     2
 73
     0
 90
        0
 40
-0.6
 41
-30.0
 62
     5
 63
     7
421
 16777215
 74
     1
 91
        4
 64
     7
 65
   257
 75
     7
175
     7
 42
1.0
 92
        8
 66
     7
 43
1.0
 76
     1
 77
     6
 78
     2
 67
     7
 79
     5
170
     0
171
     0
290
     0
174
     0
 93
        1
 44
0.0
173
     0
291
     1
 45
0.0
1001
ACAD
1000
AcDbSavedByObjectVersion
1070
     0
  0
VISUALSTYLE
  5
33
102
{ACAD_REACTORS
330
2A
102
}
330
2A
100
AcDbVisualStyle
  2
Realistic
 70
     8
 71
     2
 72
     2
 73
     0
 90
        0
 40
-0.6
 41
-30.0
 62
     5
 63
     7
421
 16777215
 74
     1
 91
        0
 64
     7
 65
   257
 75
     1
175
     1
 42
1.0
 92
        8
 66
     8
424
  7895160
 43
1.0
 76
     1
 77
     6
 78
     2
 67
     7
 79
     5
170
     0
171
     0
290
     0
174
     0
 93
       13
 44
0.0
173
     0
291
     0
 45
0.0
1001
ACAD
1000
AcDbSavedByObjectVersion
1070
     0
  0
VISUALSTYLE
  5
37
102
{ACAD_REACTORS
330
2A
102
}
330
2A
100
AcDbVisualStyle
  2
Thicken
 70
    13
 71
     2
 72
     2
 73
     0
 90
        0
 40
-0.6
 41
-30.0
 62
     5
 63
     7
421
 16777215
 74
     1
 91
        4
 64
     7
 65
   257
 75
     1
175
     1
 42
1.0
 92
       12
 66
     7
 43
1.0
 76
     1
 77
     6
 78
     2
 67
     7
 79
     5
170
     0
171
     0
290
     0
174
     0
 93
        1
 44
0.0
173
     0
291
     1
 45
0.0
1001
ACAD
1000
AcDbSavedByObjectVersion
1070
     0
  0
ENDSEC
  0
EOF
