  0
SECTION
  2
HEADER
  9
$ACADVER
  1
AC1018
  9
$ACADMAINTVER
 70
     0
  9
$DWGCODEPAGE
  3
ASCII
  9
$INSBASE
 10
0.0
 20
0.0
 30
0.0
  9
$EXTMIN
 10
1.000000000000000E+20
 20
1.000000000000000E+20
 30
1.000000000000000E+20
  9
$EXTMAX
 10
-1.000000000000000E+20
 20
-1.000000000000000E+20
 30
-1.000000000000000E+20
  9
$LIMMIN
 10
0.0
 20
0.0
  9
$LIMMAX
 10
12.0
 20
9.0
  9
$ORTHOMODE
 70
     0
  9
$REGENMODE
 70
     1
  9
$FILLMODE
 70
     1
  9
$QTEXTMODE
 70
     0
  9
$MIRRTEXT
 70
     1
  9
$LTSCALE
 40
1.0
  9
$ATTMODE
 70
     1
  9
$TEXTSIZE
 40
0.2
  9
$TRACEWID
 40
0.05
  9
$TEXTSTYLE
  7
Standard
  9
$CLAYER
  8
0
  9
$CELTYPE
  6
ByLayer
  9
$CECOLOR
 62
   256
  9
$CELTSCALE
 40
1.0
  9
$DISPSILH
 70
     0
  9
$DIMSCALE
 40
1.0
  9
$DIMASZ
 40
0.18
  9
$DIMEXO
 40
0.0625
  9
$DIMDLI
 40
0.38
  9
$DIMRND
 40
0.0
  9
$DIMDLE
 40
0.0
  9
$DIMEXE
 40
0.18
  9
$DIMTP
 40
0.0
  9
$DIMTM
 40
0.0
  9
$DIMTXT
 40
0.18
  9
$DIMCEN
 40
0.09
  9
$DIMTSZ
 40
0.0
  9
$DIMTOL
 70
     0
  9
$DIMLIM
 70
     0
  9
$DIMTIH
 70
     1
  9
$DIMTOH
 70
     1
  9
$DIMSE1
 70
     0
  9
$DIMSE2
 70
     0
  9
$DIMTAD
 70
     0
  9
$DIMZIN
 70
     0
  9
$DIMBLK
  1

  9
$DIMASO
 70
     1
  9
$DIMSHO
 70
     1
  9
$DIMPOST
  1

  9
$DIMAPOST
  1

  9
$DIMALT
 70
     0
  9
$DIMALTD
 70
     2
  9
$DIMALTF
 40
25.4
  9
$DIMLFAC
 40
1.0
  9
$DIMTOFL
 70
     0
  9
$DIMTVP
 40
0.0
  9
$DIMTIX
 70
     0
  9
$DIMSOXD
 70
     0
  9
$DIMSAH
 70
     0
  9
$DIMBLK1
  1

  9
$DIMBLK2
  1

  9
$DIMSTYLE
  2
Standard
  9
$DIMCLRD
 70
     0
  9
$DIMCLRE
 70
     0
  9
$DIMCLRT
 70
     0
  9
$DIMTFAC
 40
1.0
  9
$DIMGAP
 40
0.09
  9
$DIMJUST
 70
     0
  9
$DIMSD1
 70
     0
  9
$DIMSD2
 70
     0
  9
$DIMTOLJ
 70
     1
  9
$DIMTZIN
 70
     0
  9
$DIMALTZ
 70
     0
  9
$DIMALTTZ
 70
     0
  9
$DIMUPT
 70
     0
  9
$DIMDEC
 70
     4
  9
$DIMTDEC
 70
     4
  9
$DIMALTU
 70
     2
  9
$DIMALTTD
 70
     2
  9
$DIMTXSTY
  7
Standard
  9
$DIMAUNIT
 70
     0
  9
$DIMADEC
 70
     0
  9
$DIMALTRND
 40
0.0
  9
$DIMAZIN
 70
     0
  9
$DIMDSEP
 70
    46
  9
$DIMATFIT
 70
     3
  9
$DIMFRAC
 70
     0
  9
$DIMLDRBLK
  1

  9
$DIMLUNIT
 70
     2
  9
$DIMLWD
 70
    -2
  9
$DIMLWE
 70
    -2
  9
$DIMTMOVE
 70
     0
  9
$LUNITS
 70
     2
  9
$LUPREC
 70
     4
  9
$SKETCHINC
 40
0.1
  9
$FILLETRAD
 40
0.5
  9
$AUNITS
 70
     0
  9
$AUPREC
 70
     0
  9
$MENU
  1
.
  9
$ELEVATION
 40
0.0
  9
$PELEVATION
 40
0.0
  9
$THICKNESS
 40
0.0
  9
$LIMCHECK
 70
     0
  9
$CHAMFERA
 40
0.5
  9
$CHAMFERB
 40
0.5
  9
$CHAMFERC
 40
1.0
  9
$CHAMFERD
 40
0.0
  9
$SKPOLY
 70
     0
  9
$TDCREATE
 40
2456966.937427662
  9
$TDUCREATE
 40
2456966.895760995
  9
$TDUPDATE
 40
2456966.937427673
  9
$TDUUPDATE
 40
2456966.895761007
  9
$TDINDWG
 40
0.0000000116
  9
$TDUSRTIMER
 40
0.0000000116
  9
$USRTIMER
 70
     1
  9
$ANGBASE
 50
0.0
  9
$ANGDIR
 70
     0
  9
$PDMODE
 70
     0
  9
$PDSIZE
 40
0.0
  9
$PLINEWID
 40
0.0
  9
$SPLFRAME
 70
     0
  9
$SPLINETYPE
 70
     6
  9
$SPLINESEGS
 70
     8
  9
$HANDSEED
  5
55B
  9
$SURFTAB1
 70
     6
  9
$SURFTAB2
 70
     6
  9
$SURFTYPE
 70
     6
  9
$SURFU
 70
     6
  9
$SURFV
 70
     6
  9
$UCSBASE
  2

  9
$UCSNAME
  2

  9
$UCSORG
 10
0.0
 20
0.0
 30
0.0
  9
$UCSXDIR
 10
1.0
 20
0.0
 30
0.0
  9
$UCSYDIR
 10
0.0
 20
1.0
 30
0.0
  9
$UCSORTHOREF
  2

  9
$UCSORTHOVIEW
 70
     0
  9
$UCSORGTOP
 10
0.0
 20
0.0
 30
0.0
  9
$UCSORGBOTTOM
 10
0.0
 20
0.0
 30
0.0
  9
$UCSORGLEFT
 10
0.0
 20
0.0
 30
0.0
  9
$UCSORGRIGHT
 10
0.0
 20
0.0
 30
0.0
  9
$UCSORGFRONT
 10
0.0
 20
0.0
 30
0.0
  9
$UCSORGBACK
 10
0.0
 20
0.0
 30
0.0
  9
$PUCSBASE
  2

  9
$PUCSNAME
  2

  9
$PUCSORG
 10
0.0
 20
0.0
 30
0.0
  9
$PUCSXDIR
 10
1.0
 20
0.0
 30
0.0
  9
$PUCSYDIR
 10
0.0
 20
1.0
 30
0.0
  9
$PUCSORTHOREF
  2

  9
$PUCSORTHOVIEW
 70
     0
  9
$PUCSORGTOP
 10
0.0
 20
0.0
 30
0.0
  9
$PUCSORGBOTTOM
 10
0.0
 20
0.0
 30
0.0
  9
$PUCSORGLEFT
 10
0.0
 20
0.0
 30
0.0
  9
$PUCSORGRIGHT
 10
0.0
 20
0.0
 30
0.0
  9
$PUCSORGFRONT
 10
0.0
 20
0.0
 30
0.0
  9
$PUCSORGBACK
 10
0.0
 20
0.0
 30
0.0
  9
$USERI1
 70
     0
  9
$USERI2
 70
     0
  9
$USERI3
 70
     0
  9
$USERI4
 70
     0
  9
$USERI5
 70
     0
  9
$USERR1
 40
0.0
  9
$USERR2
 40
0.0
  9
$USERR3
 40
0.0
  9
$USERR4
 40
0.0
  9
$USERR5
 40
0.0
  9
$WORLDVIEW
 70
     1
  9
$SHADEDGE
 70
     3
  9
$SHADEDIF
 70
    70
  9
$TILEMODE
 70
     1
  9
$MAXACTVP
 70
    64
  9
$PINSBASE
 10
0.0
 20
0.0
 30
0.0
  9
$PLIMCHECK
 70
     0
  9
$PEXTMIN
 10
1.000000000000000E+20
 20
1.000000000000000E+20
 30
1.000000000000000E+20
  9
$PEXTMAX
 10
-1.000000000000000E+20
 20
-1.000000000000000E+20
 30
-1.000000000000000E+20
  9
$PLIMMIN
 10
0.0
 20
0.0
  9
$PLIMMAX
 10
12.0
 20
9.0
  9
$UNITMODE
 70
     0
  9
$VISRETAIN
 70
     1
  9
$PLINEGEN
 70
     0
  9
$PSLTSCALE
 70
     1
  9
$TREEDEPTH
 70
  3020
  9
$CMLSTYLE
  2
Standard
  9
$CMLJUST
 70
     0
  9
$CMLSCALE
 40
1.0
  9
$PROXYGRAPHICS
 70
     1
  9
$MEASUREMENT
 70
     0
  9
$CELWEIGHT
370
    -1
  9
$ENDCAPS
280
     0
  9
$JOINSTYLE
280
     0
  9
$LWDISPLAY
290
     1
  9
$INSUNITS
 70
     1
  9
$HYPERLINKBASE
  1

  9
$STYLESHEET
  1

  9
$XEDIT
290
     1
  9
$CEPSNTYPE
380
     0
  9
$PSTYLEMODE
290
     1
  9
$FINGERPRINTGUID
  2
{A519140C-8B65-447A-8296-346ACA11A8B5}
  9
$VERSIONGUID
  2
{FAEB1C32-E019-11D5-929B-00C0DF256EC4}
  9
$EXTNAMES
290
     1
  9
$PSVPSCALE
 40
0.0
  9
$OLESTARTUP
290
     0
  9
$SORTENTS
280
   127
  9
$INDEXCTL
280
     0
  9
$HIDETEXT
280
     1
  9
$XCLIPFRAME
290
     0
  9
$HALOGAP
280
     0
  9
$OBSCOLOR
 70
   257
  9
$OBSLTYPE
280
     0
  9
$INTERSECTIONDISPLAY
280
     0
  9
$INTERSECTIONCOLOR
 70
   257
  9
$DIMASSOC
280
     2
  9
$PROJECTNAME
  1

  0
ENDSEC
  0
SECTION
  2
CLASSES
  0
CLASS
  1
ACDBDICTIONARYWDFLT
  2
AcDbDictionaryWithDefault
  3
ObjectDBX Classes
 90
        0
 91
        3
280
     0
281
     0
  0
CLASS
  1
VISUALSTYLE
  2
AcDbVisualStyle
  3
ObjectDBX Classes
 90
     4095
 91
        3
280
     0
281
     0
  0
ENDSEC
  0
SECTION
  2
TABLES
  0
TABLE
  2
VPORT
  5
8
330
0
100
AcDbSymbolTable
 70
     1
  0
VPORT
  5
29
330
8
100
AcDbSymbolTableRecord
100
AcDbViewportTableRecord
  2
*Active
 70
     0
 10
0.0
 20
0.0
 11
1.0
 21
1.0
 12
0.0
 22
0.0
 13
0.0
 23
0.0
 14
0.5
 24
0.5
 15
0.5
 25
0.5
 16
0.0
 26
0.0
 36
1.0
 17
105.0008091239277
 27
148.5001637099431
 37
0.0
 40
297.0003274198861
 41
0.7070753762199199
 42
50.0
 43
0.0
 44
0.0
 50
0.0
 51
0.0
 71
     0
 72
   100
 73
     1
 74
     3
 75
     0
 76
     0
 77
     0
 78
     0
281
     0
 65
     1
110
0.0
120
0.0
130
0.0
111
1.0
121
0.0
131
0.0
112
0.0
122
1.0
132
0.0
 79
     0
146
0.0
  0
ENDTAB
  0
TABLE
  2
LTYPE
  5
5
330
0
100
AcDbSymbolTable
 70
     4
  0
LTYPE
  5
14
330
5
100
AcDbSymbolTableRecord
100
AcDbLinetypeTableRecord
  2
ByBlock
 70
     0
  3

 72
    65
 73
     0
 40
0.0
  0
LTYPE
  5
15
330
5
100
AcDbSymbolTableRecord
100
AcDbLinetypeTableRecord
  2
ByLayer
 70
     0
  3

 72
    65
 73
     0
 40
0.0
  0
LTYPE
  5
16
330
5
100
AcDbSymbolTableRecord
100
AcDbLinetypeTableRecord
  2
Continuous
 70
     0
  3
Solid line
 72
    65
 73
     0
 40
0.0
  0
LTYPE
  5
4BC
330
5
100
AcDbSymbolTableRecord
100
AcDbLinetypeTableRecord
  2
AI-Linetype-1
 70
     0
  3
Adobe Illustrator Linetype No. 1
 72
    65
 73
     4
 40
24.98236248863606
 49
12.48941735430538
 74
     0
 49
-6.244708677152689
 74
     0
 49
0.0035277800253007
 74
     0
 49
-6.244708677152689
 74
     0
  0
LTYPE
  5
4C5
330
5
100
AcDbSymbolTableRecord
100
AcDbLinetypeTableRecord
  2
AI-Linetype-2
 70
     0
  3
Adobe Illustrator Linetype No. 2
 72
    65
 73
     4
 40
24.98236248863606
 49
12.48941735430538
 74
     0
 49
-6.244708677152689
 74
     0
 49
0.0035277800253007
 74
     0
 49
-6.244708677152689
 74
     0
  0
LTYPE
  5
4CE
330
5
100
AcDbSymbolTableRecord
100
AcDbLinetypeTableRecord
  2
AI-Linetype-3
 70
     0
  3
Adobe Illustrator Linetype No. 3
 72
    65
 73
     4
 40
19.98659527776564
 49
9.991533748870172
 74
     0
 49
-4.995766874435086
 74
     0
 49
0.0035277800253007
 74
     0
 49
-4.995766874435086
 74
     0
  0
ENDTAB
  0
TABLE
  2
LAYER
  5
2
330
0
100
AcDbSymbolTable
 70
    10
  0
LAYER
  5
10
330
2
100
AcDbSymbolTableRecord
100
AcDbLayerTableRecord
  2
0
 70
     0
 62
     7
  6
Continuous
370
    -3
390
F
  0
LAYER
  5
3B
330
2
100
AcDbSymbolTableRecord
100
AcDbLayerTableRecord
  2
CAJETIN
 70
     0
 62
     7
  6
Continuous
370
    -3
390
F
  0
LAYER
  5
3C
330
2
100
AcDbSymbolTableRecord
100
AcDbLayerTableRecord
  2
TEXTO-NOMBRE
 70
     0
 62
     7
  6
Continuous
370
    -3
390
F
  0
LAYER
  5
3D
330
2
100
AcDbSymbolTableRecord
100
AcDbLayerTableRecord
  2
Fina
 70
     0
 62
     7
  6
Continuous
370
    -3
390
F
  0
LAYER
  5
CA
330
2
100
AcDbSymbolTableRecord
100
AcDbLayerTableRecord
  2
PIEZA
 70
     0
 62
     7
  6
Continuous
370
    -3
390
F
  0
LAYER
  5
2A8
330
2
100
AcDbSymbolTableRecord
100
AcDbLayerTableRecord
  2
COTAS
 70
     0
 62
     7
  6
Continuous
370
    -3
390
F
  0
LAYER
  5
4B3
330
2
100
AcDbSymbolTableRecord
100
AcDbLayerTableRecord
  2
EJES
 70
     0
 62
     7
  6
Continuous
370
    -3
390
F
  0
LAYER
  5
4CF
330
2
100
AcDbSymbolTableRecord
100
AcDbLayerTableRecord
  2
050
 70
     0
 62
     7
  6
Continuous
370
    -3
390
F
  0
LAYER
  5
519
330
2
100
AcDbSymbolTableRecord
100
AcDbLayerTableRecord
  2
LINEAS-FINAS
 70
     0
 62
     7
  6
Continuous
370
    -3
390
F
  0
LAYER
  5
522
330
2
100
AcDbSymbolTableRecord
100
AcDbLayerTableRecord
  2
SOMBREA
 70
     0
 62
     7
  6
Continuous
370
    -3
390
F
  0
ENDTAB
  0
TABLE
  2
STYLE
  5
3
330
0
100
AcDbSymbolTable
 70
     1
  0
STYLE
  5
11
330
3
100
AcDbSymbolTableRecord
100
AcDbTextStyleTableRecord
  2
Standard
 70
     0
 40
0.0
 41
1.0
 50
0.0
 71
     0
 42
0.2
  3
txt
  4

  0
ENDTAB
  0
TABLE
  2
VIEW
  5
6
330
0
100
AcDbSymbolTable
 70
     0
  0
ENDTAB
  0
TABLE
  2
UCS
  5
7
330
0
100
AcDbSymbolTable
 70
     0
  0
ENDTAB
  0
TABLE
  2
APPID
  5
9
330
0
100
AcDbSymbolTable
 70
     1
  0
APPID
  5
12
330
9
100
AcDbSymbolTableRecord
100
AcDbRegAppTableRecord
  2
ACAD
 70
     0
  0
ENDTAB
  0
TABLE
  2
DIMSTYLE
  5
A
330
0
100
AcDbSymbolTable
 70
     1
100
AcDbDimStyleTable
  0
DIMSTYLE
105
27
330
A
100
AcDbSymbolTableRecord
100
AcDbDimStyleTableRecord
  2
Standard
 70
     0
340
11
  0
ENDTAB
  0
TABLE
  2
BLOCK_RECORD
  5
1
330
0
100
AcDbSymbolTable
 70
   168
  0
BLOCK_RECORD
  5
1F
330
1
100
AcDbSymbolTableRecord
100
AcDbBlockTableRecord
  2
*Model_Space
340
22
  0
BLOCK_RECORD
  5
1B
330
1
100
AcDbSymbolTableRecord
100
AcDbBlockTableRecord
  2
*Paper_Space
340
1E
  0
BLOCK_RECORD
  5
23
330
1
100
AcDbSymbolTableRecord
100
AcDbBlockTableRecord
  2
*Paper_Space0
340
26
  0
BLOCK_RECORD
  5
3E
330
1
100
AcDbSymbolTableRecord
100
AcDbBlockTableRecord
  2
block 2
340
0
102
{BLKREFS
331
3F
102
}
  0
BLOCK_RECORD
  5
43
330
1
100
AcDbSymbolTableRecord
100
AcDbBlockTableRecord
  2
block 3
340
0
102
{BLKREFS
331
44
102
}
  0
BLOCK_RECORD
  5
48
330
1
100
AcDbSymbolTableRecord
100
AcDbBlockTableRecord
  2
block 4
340
0
102
{BLKREFS
331
49
102
}
  0
BLOCK_RECORD
  5
4D
330
1
100
AcDbSymbolTableRecord
100
AcDbBlockTableRecord
  2
block 5
340
0
102
{BLKREFS
331
4E
102
}
  0
BLOCK_RECORD
  5
52
330
1
100
AcDbSymbolTableRecord
100
AcDbBlockTableRecord
  2
block 6
340
0
102
{BLKREFS
331
53
102
}
  0
BLOCK_RECORD
  5
57
330
1
100
AcDbSymbolTableRecord
100
AcDbBlockTableRecord
  2
block 7
340
0
102
{BLKREFS
331
58
102
}
  0
BLOCK_RECORD
  5
5C
330
1
100
AcDbSymbolTableRecord
100
AcDbBlockTableRecord
  2
block 8
340
0
102
{BLKREFS
331
5D
102
}
  0
BLOCK_RECORD
  5
61
330
1
100
AcDbSymbolTableRecord
100
AcDbBlockTableRecord
  2
block 9
340
0
102
{BLKREFS
331
62
102
}
  0
BLOCK_RECORD
  5
66
330
1
100
AcDbSymbolTableRecord
100
AcDbBlockTableRecord
  2
block 10
340
0
102
{BLKREFS
331
67
102
}
  0
BLOCK_RECORD
  5
6B
330
1
100
AcDbSymbolTableRecord
100
AcDbBlockTableRecord
  2
block 11
340
0
102
{BLKREFS
331
6C
102
}
  0
BLOCK_RECORD
  5
70
330
1
100
AcDbSymbolTableRecord
100
AcDbBlockTableRecord
  2
block 12
340
0
102
{BLKREFS
331
71
102
}
  0
BLOCK_RECORD
  5
75
330
1
100
AcDbSymbolTableRecord
100
AcDbBlockTableRecord
  2
block 13
340
0
102
{BLKREFS
331
76
102
}
  0
BLOCK_RECORD
  5
7A
330
1
100
AcDbSymbolTableRecord
100
AcDbBlockTableRecord
  2
block 14
340
0
102
{BLKREFS
331
7B
102
}
  0
BLOCK_RECORD
  5
7F
330
1
100
AcDbSymbolTableRecord
100
AcDbBlockTableRecord
  2
block 15
340
0
102
{BLKREFS
331
80
102
}
  0
BLOCK_RECORD
  5
84
330
1
100
AcDbSymbolTableRecord
100
AcDbBlockTableRecord
  2
block 16
340
0
102
{BLKREFS
331
85
102
}
  0
BLOCK_RECORD
  5
89
330
1
100
AcDbSymbolTableRecord
100
AcDbBlockTableRecord
  2
block 17
340
0
102
{BLKREFS
331
8A
102
}
  0
BLOCK_RECORD
  5
8E
330
1
100
AcDbSymbolTableRecord
100
AcDbBlockTableRecord
  2
block 18
340
0
102
{BLKREFS
331
8F
102
}
  0
BLOCK_RECORD
  5
93
330
1
100
AcDbSymbolTableRecord
100
AcDbBlockTableRecord
  2
block 19
340
0
102
{BLKREFS
331
94
102
}
  0
BLOCK_RECORD
  5
98
330
1
100
AcDbSymbolTableRecord
100
AcDbBlockTableRecord
  2
block 20
340
0
102
{BLKREFS
331
99
102
}
  0
BLOCK_RECORD
  5
9D
330
1
100
AcDbSymbolTableRecord
100
AcDbBlockTableRecord
  2
block 21
340
0
102
{BLKREFS
331
9E
102
}
  0
BLOCK_RECORD
  5
A5
330
1
100
AcDbSymbolTableRecord
100
AcDbBlockTableRecord
  2
block 22
340
0
102
{BLKREFS
331
A6
102
}
  0
BLOCK_RECORD
  5
AD
330
1
100
AcDbSymbolTableRecord
100
AcDbBlockTableRecord
  2
block 23
340
0
102
{BLKREFS
331
AE
102
}
  0
BLOCK_RECORD
  5
B5
330
1
100
AcDbSymbolTableRecord
100
AcDbBlockTableRecord
  2
block 24
340
0
102
{BLKREFS
331
B6
102
}
  0
BLOCK_RECORD
  5
BA
330
1
100
AcDbSymbolTableRecord
100
AcDbBlockTableRecord
  2
block 25
340
0
102
{BLKREFS
331
BB
102
}
  0
BLOCK_RECORD
  5
C2
330
1
100
AcDbSymbolTableRecord
100
AcDbBlockTableRecord
  2
block 26
340
0
102
{BLKREFS
331
C3
102
}
  0
BLOCK_RECORD
  5
CB
330
1
100
AcDbSymbolTableRecord
100
AcDbBlockTableRecord
  2
block 27
340
0
102
{BLKREFS
331
CC
102
}
  0
BLOCK_RECORD
  5
D3
330
1
100
AcDbSymbolTableRecord
100
AcDbBlockTableRecord
  2
block 28
340
0
102
{BLKREFS
331
D4
102
}
  0
BLOCK_RECORD
  5
DB
330
1
100
AcDbSymbolTableRecord
100
AcDbBlockTableRecord
  2
block 29
340
0
102
{BLKREFS
331
DC
102
}
  0
BLOCK_RECORD
  5
E3
330
1
100
AcDbSymbolTableRecord
100
AcDbBlockTableRecord
  2
block 30
340
0
102
{BLKREFS
331
E4
102
}
  0
BLOCK_RECORD
  5
EB
330
1
100
AcDbSymbolTableRecord
100
AcDbBlockTableRecord
  2
block 31
340
0
102
{BLKREFS
331
EC
102
}
  0
BLOCK_RECORD
  5
F3
330
1
100
AcDbSymbolTableRecord
100
AcDbBlockTableRecord
  2
block 32
340
0
102
{BLKREFS
331
F4
102
}
  0
BLOCK_RECORD
  5
FB
330
1
100
AcDbSymbolTableRecord
100
AcDbBlockTableRecord
  2
block 33
340
0
102
{BLKREFS
331
FC
102
}
  0
BLOCK_RECORD
  5
103
330
1
100
AcDbSymbolTableRecord
100
AcDbBlockTableRecord
  2
block 34
340
0
102
{BLKREFS
331
104
102
}
  0
BLOCK_RECORD
  5
10B
330
1
100
AcDbSymbolTableRecord
100
AcDbBlockTableRecord
  2
block 35
340
0
102
{BLKREFS
331
10C
102
}
  0
BLOCK_RECORD
  5
168
330
1
100
AcDbSymbolTableRecord
100
AcDbBlockTableRecord
  2
block 36
340
0
102
{BLKREFS
331
169
102
}
  0
BLOCK_RECORD
  5
170
330
1
100
AcDbSymbolTableRecord
100
AcDbBlockTableRecord
  2
block 37
340
0
102
{BLKREFS
331
171
102
}
  0
BLOCK_RECORD
  5
175
330
1
100
AcDbSymbolTableRecord
100
AcDbBlockTableRecord
  2
block 38
340
0
102
{BLKREFS
331
176
102
}
  0
BLOCK_RECORD
  5
17D
330
1
100
AcDbSymbolTableRecord
100
AcDbBlockTableRecord
  2
block 39
340
0
102
{BLKREFS
331
17E
102
}
  0
BLOCK_RECORD
  5
185
330
1
100
AcDbSymbolTableRecord
100
AcDbBlockTableRecord
  2
block 40
340
0
102
{BLKREFS
331
186
102
}
  0
BLOCK_RECORD
  5
18D
330
1
100
AcDbSymbolTableRecord
100
AcDbBlockTableRecord
  2
block 41
340
0
102
{BLKREFS
331
18E
102
}
  0
BLOCK_RECORD
  5
192
330
1
100
AcDbSymbolTableRecord
100
AcDbBlockTableRecord
  2
block 42
340
0
102
{BLKREFS
331
193
102
}
  0
BLOCK_RECORD
  5
19A
330
1
100
AcDbSymbolTableRecord
100
AcDbBlockTableRecord
  2
block 43
340
0
102
{BLKREFS
331
19B
102
}
  0
BLOCK_RECORD
  5
1A2
330
1
100
AcDbSymbolTableRecord
100
AcDbBlockTableRecord
  2
block 44
340
0
102
{BLKREFS
331
1A3
102
}
  0
BLOCK_RECORD
  5
1A7
330
1
100
AcDbSymbolTableRecord
100
AcDbBlockTableRecord
  2
block 45
340
0
102
{BLKREFS
331
1A8
102
}
  0
BLOCK_RECORD
  5
1AF
330
1
100
AcDbSymbolTableRecord
100
AcDbBlockTableRecord
  2
block 46
340
0
102
{BLKREFS
331
1B0
102
}
  0
BLOCK_RECORD
  5
1B4
330
1
100
AcDbSymbolTableRecord
100
AcDbBlockTableRecord
  2
block 47
340
0
102
{BLKREFS
331
1B5
102
}
  0
BLOCK_RECORD
  5
1BC
330
1
100
AcDbSymbolTableRecord
100
AcDbBlockTableRecord
  2
block 48
340
0
102
{BLKREFS
331
1BD
102
}
  0
BLOCK_RECORD
  5
1C4
330
1
100
AcDbSymbolTableRecord
100
AcDbBlockTableRecord
  2
block 49
340
0
102
{BLKREFS
331
1C5
102
}
  0
BLOCK_RECORD
  5
1C9
330
1
100
AcDbSymbolTableRecord
100
AcDbBlockTableRecord
  2
block 50
340
0
102
{BLKREFS
331
1CA
102
}
  0
BLOCK_RECORD
  5
1CE
330
1
100
AcDbSymbolTableRecord
100
AcDbBlockTableRecord
  2
block 51
340
0
102
{BLKREFS
331
1CF
102
}
  0
BLOCK_RECORD
  5
1D6
330
1
100
AcDbSymbolTableRecord
100
AcDbBlockTableRecord
  2
block 52
340
0
102
{BLKREFS
331
1D7
102
}
  0
BLOCK_RECORD
  5
1DB
330
1
100
AcDbSymbolTableRecord
100
AcDbBlockTableRecord
  2
block 53
340
0
102
{BLKREFS
331
1DC
102
}
  0
BLOCK_RECORD
  5
1E0
330
1
100
AcDbSymbolTableRecord
100
AcDbBlockTableRecord
  2
block 54
340
0
102
{BLKREFS
331
1E1
102
}
  0
BLOCK_RECORD
  5
1E8
330
1
100
AcDbSymbolTableRecord
100
AcDbBlockTableRecord
  2
block 55
340
0
102
{BLKREFS
331
1E9
102
}
  0
BLOCK_RECORD
  5
1F0
330
1
100
AcDbSymbolTableRecord
100
AcDbBlockTableRecord
  2
block 56
340
0
102
{BLKREFS
331
1F1
102
}
  0
BLOCK_RECORD
  5
1F8
330
1
100
AcDbSymbolTableRecord
100
AcDbBlockTableRecord
  2
block 57
340
0
102
{BLKREFS
331
1F9
102
}
  0
BLOCK_RECORD
  5
200
330
1
100
AcDbSymbolTableRecord
100
AcDbBlockTableRecord
  2
block 58
340
0
102
{BLKREFS
331
201
102
}
  0
BLOCK_RECORD
  5
208
330
1
100
AcDbSymbolTableRecord
100
AcDbBlockTableRecord
  2
block 59
340
0
102
{BLKREFS
331
209
102
}
  0
BLOCK_RECORD
  5
210
330
1
100
AcDbSymbolTableRecord
100
AcDbBlockTableRecord
  2
block 60
340
0
102
{BLKREFS
331
211
102
}
  0
BLOCK_RECORD
  5
218
330
1
100
AcDbSymbolTableRecord
100
AcDbBlockTableRecord
  2
block 61
340
0
102
{BLKREFS
331
219
102
}
  0
BLOCK_RECORD
  5
220
330
1
100
AcDbSymbolTableRecord
100
AcDbBlockTableRecord
  2
block 62
340
0
102
{BLKREFS
331
221
102
}
  0
BLOCK_RECORD
  5
228
330
1
100
AcDbSymbolTableRecord
100
AcDbBlockTableRecord
  2
block 63
340
0
102
{BLKREFS
331
229
102
}
  0
BLOCK_RECORD
  5
22D
330
1
100
AcDbSymbolTableRecord
100
AcDbBlockTableRecord
  2
block 64
340
0
102
{BLKREFS
331
22E
102
}
  0
BLOCK_RECORD
  5
232
330
1
100
AcDbSymbolTableRecord
100
AcDbBlockTableRecord
  2
block 65
340
0
102
{BLKREFS
331
233
102
}
  0
BLOCK_RECORD
  5
237
330
1
100
AcDbSymbolTableRecord
100
AcDbBlockTableRecord
  2
block 66
340
0
102
{BLKREFS
331
238
102
}
  0
BLOCK_RECORD
  5
23C
330
1
100
AcDbSymbolTableRecord
100
AcDbBlockTableRecord
  2
block 67
340
0
102
{BLKREFS
331
23D
102
}
  0
BLOCK_RECORD
  5
241
330
1
100
AcDbSymbolTableRecord
100
AcDbBlockTableRecord
  2
block 68
340
0
102
{BLKREFS
331
242
102
}
  0
BLOCK_RECORD
  5
246
330
1
100
AcDbSymbolTableRecord
100
AcDbBlockTableRecord
  2
block 69
340
0
102
{BLKREFS
331
247
102
}
  0
BLOCK_RECORD
  5
24B
330
1
100
AcDbSymbolTableRecord
100
AcDbBlockTableRecord
  2
block 70
340
0
102
{BLKREFS
331
24C
102
}
  0
BLOCK_RECORD
  5
250
330
1
100
AcDbSymbolTableRecord
100
AcDbBlockTableRecord
  2
block 71
340
0
102
{BLKREFS
331
251
102
}
  0
BLOCK_RECORD
  5
255
330
1
100
AcDbSymbolTableRecord
100
AcDbBlockTableRecord
  2
block 72
340
0
102
{BLKREFS
331
256
102
}
  0
BLOCK_RECORD
  5
25A
330
1
100
AcDbSymbolTableRecord
100
AcDbBlockTableRecord
  2
block 73
340
0
102
{BLKREFS
331
25B
102
}
  0
BLOCK_RECORD
  5
25F
330
1
100
AcDbSymbolTableRecord
100
AcDbBlockTableRecord
  2
block 74
340
0
102
{BLKREFS
331
260
102
}
  0
BLOCK_RECORD
  5
264
330
1
100
AcDbSymbolTableRecord
100
AcDbBlockTableRecord
  2
block 75
340
0
102
{BLKREFS
331
265
102
}
  0
BLOCK_RECORD
  5
26C
330
1
100
AcDbSymbolTableRecord
100
AcDbBlockTableRecord
  2
block 76
340
0
102
{BLKREFS
331
26D
102
}
  0
BLOCK_RECORD
  5
271
330
1
100
AcDbSymbolTableRecord
100
AcDbBlockTableRecord
  2
block 77
340
0
102
{BLKREFS
331
272
102
}
  0
BLOCK_RECORD
  5
279
330
1
100
AcDbSymbolTableRecord
100
AcDbBlockTableRecord
  2
block 78
340
0
102
{BLKREFS
331
27A
102
}
  0
BLOCK_RECORD
  5
27E
330
1
100
AcDbSymbolTableRecord
100
AcDbBlockTableRecord
  2
block 79
340
0
102
{BLKREFS
331
27F
102
}
  0
BLOCK_RECORD
  5
283
330
1
100
AcDbSymbolTableRecord
100
AcDbBlockTableRecord
  2
block 80
340
0
102
{BLKREFS
331
284
102
}
  0
BLOCK_RECORD
  5
288
330
1
100
AcDbSymbolTableRecord
100
AcDbBlockTableRecord
  2
block 81
340
0
102
{BLKREFS
331
289
102
}
  0
BLOCK_RECORD
  5
290
330
1
100
AcDbSymbolTableRecord
100
AcDbBlockTableRecord
  2
block 82
340
0
102
{BLKREFS
331
291
102
}
  0
BLOCK_RECORD
  5
298
330
1
100
AcDbSymbolTableRecord
100
AcDbBlockTableRecord
  2
block 83
340
0
102
{BLKREFS
331
299
102
}
  0
BLOCK_RECORD
  5
2A0
330
1
100
AcDbSymbolTableRecord
100
AcDbBlockTableRecord
  2
block 84
340
0
102
{BLKREFS
331
2A1
102
}
  0
BLOCK_RECORD
  5
2A9
330
1
100
AcDbSymbolTableRecord
100
AcDbBlockTableRecord
  2
block 85
340
0
102
{BLKREFS
331
2AA
102
}
  0
BLOCK_RECORD
  5
2AD
330
1
100
AcDbSymbolTableRecord
100
AcDbBlockTableRecord
  2
block 86
340
0
102
{BLKREFS
331
2AE
102
}
  0
BLOCK_RECORD
  5
2B5
330
1
100
AcDbSymbolTableRecord
100
AcDbBlockTableRecord
  2
block 87
340
0
102
{BLKREFS
331
2B6
102
}
  0
BLOCK_RECORD
  5
2BD
330
1
100
AcDbSymbolTableRecord
100
AcDbBlockTableRecord
  2
block 88
340
0
102
{BLKREFS
331
2BE
102
}
  0
BLOCK_RECORD
  5
2C5
330
1
100
AcDbSymbolTableRecord
100
AcDbBlockTableRecord
  2
block 89
340
0
102
{BLKREFS
331
2C6
102
}
  0
BLOCK_RECORD
  5
2CD
330
1
100
AcDbSymbolTableRecord
100
AcDbBlockTableRecord
  2
block 90
340
0
102
{BLKREFS
331
2CE
102
}
  0
BLOCK_RECORD
  5
2D8
330
1
100
AcDbSymbolTableRecord
100
AcDbBlockTableRecord
  2
block 91
340
0
102
{BLKREFS
331
2D9
102
}
  0
BLOCK_RECORD
  5
2E3
330
1
100
AcDbSymbolTableRecord
100
AcDbBlockTableRecord
  2
block 92
340
0
102
{BLKREFS
331
2E4
102
}
  0
BLOCK_RECORD
  5
2E8
330
1
100
AcDbSymbolTableRecord
100
AcDbBlockTableRecord
  2
block 93
340
0
102
{BLKREFS
331
2E9
102
}
  0
BLOCK_RECORD
  5
2F0
330
1
100
AcDbSymbolTableRecord
100
AcDbBlockTableRecord
  2
block 94
340
0
102
{BLKREFS
331
2F1
102
}
  0
BLOCK_RECORD
  5
2F8
330
1
100
AcDbSymbolTableRecord
100
AcDbBlockTableRecord
  2
block 95
340
0
102
{BLKREFS
331
2F9
102
}
  0
BLOCK_RECORD
  5
300
330
1
100
AcDbSymbolTableRecord
100
AcDbBlockTableRecord
  2
block 96
340
0
102
{BLKREFS
331
301
102
}
  0
BLOCK_RECORD
  5
304
330
1
100
AcDbSymbolTableRecord
100
AcDbBlockTableRecord
  2
block 97
340
0
102
{BLKREFS
331
305
102
}
  0
BLOCK_RECORD
  5
30C
330
1
100
AcDbSymbolTableRecord
100
AcDbBlockTableRecord
  2
block 98
340
0
102
{BLKREFS
331
30D
102
}
  0
BLOCK_RECORD
  5
314
330
1
100
AcDbSymbolTableRecord
100
AcDbBlockTableRecord
  2
block 99
340
0
102
{BLKREFS
331
315
102
}
  0
BLOCK_RECORD
  5
31C
330
1
100
AcDbSymbolTableRecord
100
AcDbBlockTableRecord
  2
block 100
340
0
102
{BLKREFS
331
31D
102
}
  0
BLOCK_RECORD
  5
324
330
1
100
AcDbSymbolTableRecord
100
AcDbBlockTableRecord
  2
block 101
340
0
102
{BLKREFS
331
325
102
}
  0
BLOCK_RECORD
  5
32F
330
1
100
AcDbSymbolTableRecord
100
AcDbBlockTableRecord
  2
block 102
340
0
102
{BLKREFS
331
330
102
}
  0
BLOCK_RECORD
  5
33A
330
1
100
AcDbSymbolTableRecord
100
AcDbBlockTableRecord
  2
block 103
340
0
102
{BLKREFS
331
33B
102
}
  0
BLOCK_RECORD
  5
33F
330
1
100
AcDbSymbolTableRecord
100
AcDbBlockTableRecord
  2
block 104
340
0
102
{BLKREFS
331
340
102
}
  0
BLOCK_RECORD
  5
347
330
1
100
AcDbSymbolTableRecord
100
AcDbBlockTableRecord
  2
block 105
340
0
102
{BLKREFS
331
348
102
}
  0
BLOCK_RECORD
  5
34F
330
1
100
AcDbSymbolTableRecord
100
AcDbBlockTableRecord
  2
block 106
340
0
102
{BLKREFS
331
350
102
}
  0
BLOCK_RECORD
  5
357
330
1
100
AcDbSymbolTableRecord
100
AcDbBlockTableRecord
  2
block 107
340
0
102
{BLKREFS
331
358
102
}
  0
BLOCK_RECORD
  5
35B
330
1
100
AcDbSymbolTableRecord
100
AcDbBlockTableRecord
  2
block 108
340
0
102
{BLKREFS
331
35C
102
}
  0
BLOCK_RECORD
  5
363
330
1
100
AcDbSymbolTableRecord
100
AcDbBlockTableRecord
  2
block 109
340
0
102
{BLKREFS
331
364
102
}
  0
BLOCK_RECORD
  5
36B
330
1
100
AcDbSymbolTableRecord
100
AcDbBlockTableRecord
  2
block 110
340
0
102
{BLKREFS
331
36C
102
}
  0
BLOCK_RECORD
  5
373
330
1
100
AcDbSymbolTableRecord
100
AcDbBlockTableRecord
  2
block 111
340
0
102
{BLKREFS
331
374
102
}
  0
BLOCK_RECORD
  5
37B
330
1
100
AcDbSymbolTableRecord
100
AcDbBlockTableRecord
  2
block 112
340
0
102
{BLKREFS
331
37C
102
}
  0
BLOCK_RECORD
  5
386
330
1
100
AcDbSymbolTableRecord
100
AcDbBlockTableRecord
  2
block 113
340
0
102
{BLKREFS
331
387
102
}
  0
BLOCK_RECORD
  5
391
330
1
100
AcDbSymbolTableRecord
100
AcDbBlockTableRecord
  2
block 114
340
0
102
{BLKREFS
331
392
102
}
  0
BLOCK_RECORD
  5
396
330
1
100
AcDbSymbolTableRecord
100
AcDbBlockTableRecord
  2
block 115
340
0
102
{BLKREFS
331
397
102
}
  0
BLOCK_RECORD
  5
39E
330
1
100
AcDbSymbolTableRecord
100
AcDbBlockTableRecord
  2
block 116
340
0
102
{BLKREFS
331
39F
102
}
  0
BLOCK_RECORD
  5
3A6
330
1
100
AcDbSymbolTableRecord
100
AcDbBlockTableRecord
  2
block 117
340
0
102
{BLKREFS
331
3A7
102
}
  0
BLOCK_RECORD
  5
3AE
330
1
100
AcDbSymbolTableRecord
100
AcDbBlockTableRecord
  2
block 118
340
0
102
{BLKREFS
331
3AF
102
}
  0
BLOCK_RECORD
  5
3B2
330
1
100
AcDbSymbolTableRecord
100
AcDbBlockTableRecord
  2
block 119
340
0
102
{BLKREFS
331
3B3
102
}
  0
BLOCK_RECORD
  5
3BA
330
1
100
AcDbSymbolTableRecord
100
AcDbBlockTableRecord
  2
block 120
340
0
102
{BLKREFS
331
3BB
102
}
  0
BLOCK_RECORD
  5
3C2
330
1
100
AcDbSymbolTableRecord
100
AcDbBlockTableRecord
  2
block 121
340
0
102
{BLKREFS
331
3C3
102
}
  0
BLOCK_RECORD
  5
3CA
330
1
100
AcDbSymbolTableRecord
100
AcDbBlockTableRecord
  2
block 122
340
0
102
{BLKREFS
331
3CB
102
}
  0
BLOCK_RECORD
  5
3D2
330
1
100
AcDbSymbolTableRecord
100
AcDbBlockTableRecord
  2
block 123
340
0
102
{BLKREFS
331
3D3
102
}
  0
BLOCK_RECORD
  5
3DD
330
1
100
AcDbSymbolTableRecord
100
AcDbBlockTableRecord
  2
block 124
340
0
102
{BLKREFS
331
3DE
102
}
  0
BLOCK_RECORD
  5
3E8
330
1
100
AcDbSymbolTableRecord
100
AcDbBlockTableRecord
  2
block 125
340
0
102
{BLKREFS
331
3E9
102
}
  0
BLOCK_RECORD
  5
3ED
330
1
100
AcDbSymbolTableRecord
100
AcDbBlockTableRecord
  2
block 126
340
0
102
{BLKREFS
331
3EE
102
}
  0
BLOCK_RECORD
  5
3F5
330
1
100
AcDbSymbolTableRecord
100
AcDbBlockTableRecord
  2
block 127
340
0
102
{BLKREFS
331
3F6
102
}
  0
BLOCK_RECORD
  5
3FD
330
1
100
AcDbSymbolTableRecord
100
AcDbBlockTableRecord
  2
block 128
340
0
102
{BLKREFS
331
3FE
102
}
  0
BLOCK_RECORD
  5
405
330
1
100
AcDbSymbolTableRecord
100
AcDbBlockTableRecord
  2
block 129
340
0
102
{BLKREFS
331
406
102
}
  0
BLOCK_RECORD
  5
409
330
1
100
AcDbSymbolTableRecord
100
AcDbBlockTableRecord
  2
block 130
340
0
102
{BLKREFS
331
40A
102
}
  0
BLOCK_RECORD
  5
411
330
1
100
AcDbSymbolTableRecord
100
AcDbBlockTableRecord
  2
block 131
340
0
102
{BLKREFS
331
412
102
}
  0
BLOCK_RECORD
  5
419
330
1
100
AcDbSymbolTableRecord
100
AcDbBlockTableRecord
  2
block 132
340
0
102
{BLKREFS
331
41A
102
}
  0
BLOCK_RECORD
  5
421
330
1
100
AcDbSymbolTableRecord
100
AcDbBlockTableRecord
  2
block 133
340
0
102
{BLKREFS
331
422
102
}
  0
BLOCK_RECORD
  5
429
330
1
100
AcDbSymbolTableRecord
100
AcDbBlockTableRecord
  2
block 134
340
0
102
{BLKREFS
331
42A
102
}
  0
BLOCK_RECORD
  5
434
330
1
100
AcDbSymbolTableRecord
100
AcDbBlockTableRecord
  2
block 135
340
0
102
{BLKREFS
331
435
102
}
  0
BLOCK_RECORD
  5
43F
330
1
100
AcDbSymbolTableRecord
100
AcDbBlockTableRecord
  2
block 136
340
0
102
{BLKREFS
331
440
102
}
  0
BLOCK_RECORD
  5
444
330
1
100
AcDbSymbolTableRecord
100
AcDbBlockTableRecord
  2
block 137
340
0
102
{BLKREFS
331
445
102
}
  0
BLOCK_RECORD
  5
44C
330
1
100
AcDbSymbolTableRecord
100
AcDbBlockTableRecord
  2
block 138
340
0
102
{BLKREFS
331
44D
102
}
  0
BLOCK_RECORD
  5
454
330
1
100
AcDbSymbolTableRecord
100
AcDbBlockTableRecord
  2
block 139
340
0
102
{BLKREFS
331
455
102
}
  0
BLOCK_RECORD
  5
45C
330
1
100
AcDbSymbolTableRecord
100
AcDbBlockTableRecord
  2
block 140
340
0
102
{BLKREFS
331
45D
102
}
  0
BLOCK_RECORD
  5
460
330
1
100
AcDbSymbolTableRecord
100
AcDbBlockTableRecord
  2
block 141
340
0
102
{BLKREFS
331
461
102
}
  0
BLOCK_RECORD
  5
468
330
1
100
AcDbSymbolTableRecord
100
AcDbBlockTableRecord
  2
block 142
340
0
102
{BLKREFS
331
469
102
}
  0
BLOCK_RECORD
  5
470
330
1
100
AcDbSymbolTableRecord
100
AcDbBlockTableRecord
  2
block 143
340
0
102
{BLKREFS
331
471
102
}
  0
BLOCK_RECORD
  5
478
330
1
100
AcDbSymbolTableRecord
100
AcDbBlockTableRecord
  2
block 144
340
0
102
{BLKREFS
331
479
102
}
  0
BLOCK_RECORD
  5
480
330
1
100
AcDbSymbolTableRecord
100
AcDbBlockTableRecord
  2
block 145
340
0
102
{BLKREFS
331
481
102
}
  0
BLOCK_RECORD
  5
48B
330
1
100
AcDbSymbolTableRecord
100
AcDbBlockTableRecord
  2
block 146
340
0
102
{BLKREFS
331
48C
102
}
  0
BLOCK_RECORD
  5
496
330
1
100
AcDbSymbolTableRecord
100
AcDbBlockTableRecord
  2
block 147
340
0
102
{BLKREFS
331
497
102
}
  0
BLOCK_RECORD
  5
49B
330
1
100
AcDbSymbolTableRecord
100
AcDbBlockTableRecord
  2
block 148
340
0
102
{BLKREFS
331
49C
102
}
  0
BLOCK_RECORD
  5
4A3
330
1
100
AcDbSymbolTableRecord
100
AcDbBlockTableRecord
  2
block 149
340
0
102
{BLKREFS
331
4A4
102
}
  0
BLOCK_RECORD
  5
4AB
330
1
100
AcDbSymbolTableRecord
100
AcDbBlockTableRecord
  2
block 150
340
0
102
{BLKREFS
331
4AC
102
}
  0
BLOCK_RECORD
  5
4B4
330
1
100
AcDbSymbolTableRecord
100
AcDbBlockTableRecord
  2
block 151
340
0
102
{BLKREFS
331
4B5
102
}
  0
BLOCK_RECORD
  5
4BD
330
1
100
AcDbSymbolTableRecord
100
AcDbBlockTableRecord
  2
block 152
340
0
102
{BLKREFS
331
4BE
102
}
  0
BLOCK_RECORD
  5
4C6
330
1
100
AcDbSymbolTableRecord
100
AcDbBlockTableRecord
  2
block 153
340
0
102
{BLKREFS
331
4C7
102
}
  0
BLOCK_RECORD
  5
4D0
330
1
100
AcDbSymbolTableRecord
100
AcDbBlockTableRecord
  2
block 154
340
0
102
{BLKREFS
331
4D1
102
}
  0
BLOCK_RECORD
  5
4D8
330
1
100
AcDbSymbolTableRecord
100
AcDbBlockTableRecord
  2
block 155
340
0
102
{BLKREFS
331
4D9
102
}
  0
BLOCK_RECORD
  5
4DD
330
1
100
AcDbSymbolTableRecord
100
AcDbBlockTableRecord
  2
block 156
340
0
102
{BLKREFS
331
4DE
102
}
  0
BLOCK_RECORD
  5
4E5
330
1
100
AcDbSymbolTableRecord
100
AcDbBlockTableRecord
  2
block 157
340
0
102
{BLKREFS
331
4E6
102
}
  0
BLOCK_RECORD
  5
4EA
330
1
100
AcDbSymbolTableRecord
100
AcDbBlockTableRecord
  2
block 158
340
0
102
{BLKREFS
331
4EB
102
}
  0
BLOCK_RECORD
  5
4F2
330
1
100
AcDbSymbolTableRecord
100
AcDbBlockTableRecord
  2
block 159
340
0
102
{BLKREFS
331
4F3
102
}
  0
BLOCK_RECORD
  5
4FA
330
1
100
AcDbSymbolTableRecord
100
AcDbBlockTableRecord
  2
block 160
340
0
102
{BLKREFS
331
4FB
102
}
  0
BLOCK_RECORD
  5
4FF
330
1
100
AcDbSymbolTableRecord
100
AcDbBlockTableRecord
  2
block 161
340
0
102
{BLKREFS
331
500
102
}
  0
BLOCK_RECORD
  5
504
330
1
100
AcDbSymbolTableRecord
100
AcDbBlockTableRecord
  2
block 162
340
0
102
{BLKREFS
331
505
102
}
  0
BLOCK_RECORD
  5
50C
330
1
100
AcDbSymbolTableRecord
100
AcDbBlockTableRecord
  2
block 163
340
0
102
{BLKREFS
331
50D
102
}
  0
BLOCK_RECORD
  5
514
330
1
100
AcDbSymbolTableRecord
100
AcDbBlockTableRecord
  2
block 164
340
0
102
{BLKREFS
331
515
102
}
  0
BLOCK_RECORD
  5
51A
330
1
100
AcDbSymbolTableRecord
100
AcDbBlockTableRecord
  2
block 165
340
0
102
{BLKREFS
331
51B
102
}
  0
BLOCK_RECORD
  5
523
330
1
100
AcDbSymbolTableRecord
100
AcDbBlockTableRecord
  2
block 166
340
0
102
{BLKREFS
331
524
102
}
  0
BLOCK_RECORD
  5
54D
330
1
100
AcDbSymbolTableRecord
100
AcDbBlockTableRecord
  2
block 167
340
0
102
{BLKREFS
331
54E
102
}
  0
BLOCK_RECORD
  5
554
330
1
100
AcDbSymbolTableRecord
100
AcDbBlockTableRecord
  2
block 168
340
0
102
{BLKREFS
331
555
102
}
  0
ENDTAB
  0
ENDSEC
  0
SECTION
  2
BLOCKS
  0
BLOCK
  5
20
330
1F
100
AcDbEntity
  8
0
100
AcDbBlockBegin
  2
*Model_Space
 70
     0
 71
     0
 10
0.0
 20
0.0
 30
0.0
  3
*Model_Space
  1

  0
ENDBLK
  5
21
330
1F
100
AcDbEntity
  8
0
100
AcDbBlockEnd
  0
BLOCK
  5
1C
330
1B
100
AcDbEntity
 67
     1
  8
0
100
AcDbBlockBegin
  2
*Paper_Space
 70
     0
 71
     0
 10
0.0
 20
0.0
 30
0.0
  3
*Paper_Space
  1

  0
ENDBLK
  5
1D
330
1B
100
AcDbEntity
 67
     1
  8
0
100
AcDbBlockEnd
  0
BLOCK
  5
24
330
23
100
AcDbEntity
  8
0
100
AcDbBlockBegin
  2
*Paper_Space0
 70
     0
 71
     0
 10
0.0
 20
0.0
 30
0.0
  3
*Paper_Space0
  1

  0
ENDBLK
  5
25
330
23
100
AcDbEntity
  8
0
100
AcDbBlockEnd
  0
BLOCK
  5
40
330
3E
100
AcDbEntity
  8
0
100
AcDbBlockBegin
  2
block 2
 70
     0
 71
     0
 10
0.0
 20
0.0
 30
0.0
  3
block 2
  1

  0
SPLINE
  5
42
330
3E
100
AcDbEntity
  8
Fina
 62
     7
420
 16777215
370
     9
100
AcDbSpline
210
0.0
220
0.0
230
1.0
 70
    11
 71
     3
 72
    23
 73
    19
 74
     0
 42
0.0000000001
 43
0.0000000001
 40
0.0
 40
0.0
 40
0.0
 40
0.0
 40
1.0
 40
1.0
 40
1.0
 40
2.0
 40
2.0
 40
2.0
 40
3.0
 40
3.0
 40
3.0
 40
4.0
 40
4.0
 40
4.0
 40
5.0
 40
5.0
 40
5.0
 40
6.0
 40
6.0
 40
6.0
 40
6.0
 10
111.4239355113154
 20
96.10961470273621
 30
0.0
 10
111.4239355113154
 20
97.07527560429287
 30
0.0
 10
110.6412093007065
 20
97.85834632467756
 30
0.0
 10
109.675203889374
 20
97.85834632467756
 30
0.0
 10
108.7095429878174
 20
97.85834632467756
 30
0.0
 10
107.9268167772085
 20
97.07527560429287
 30
0.0
 10
107.9268167772085
 20
96.10961470273621
 30
0.0
 10
107.9268167772085
 20
95.14395380117955
 30
0.0
 10
108.7095429878174
 20
94.36122759057065
 30
0.0
 10
109.675203889374
 20
94.36122759057065
 30
0.0
 10
110.6412093007065
 20
94.36122759057065
 30
0.0
 10
111.4239355113154
 20
95.14395380117955
 30
0.0
 10
111.4239355113154
 20
96.10961470273621
 30
0.0
 10
111.4239355113154
 20
96.10961470273621
 30
0.0
 10
111.4239355113154
 20
96.10961470273621
 30
0.0
 10
111.4239355113154
 20
96.10961470273621
 30
0.0
 10
111.4239355113154
 20
96.10961470273621
 30
0.0
 10
111.4239355113154
 20
96.10961470273621
 30
0.0
 10
111.4239355113154
 20
96.10961470273621
 30
0.0
  0
ENDBLK
  5
41
330
3E
100
AcDbEntity
  8
0
100
AcDbBlockEnd
  0
BLOCK
  5
45
330
43
100
AcDbEntity
  8
0
100
AcDbBlockBegin
  2
block 3
 70
     0
 71
     0
 10
0.0
 20
0.0
 30
0.0
  3
block 3
  1

  0
SPLINE
  5
47
330
43
100
AcDbEntity
  8
Fina
 62
     7
420
 16777215
370
     9
100
AcDbSpline
210
0.0
220
0.0
230
1.0
 70
    11
 71
     3
 72
    23
 73
    19
 74
     0
 42
0.0000000001
 43
0.0000000001
 40
0.0
 40
0.0
 40
0.0
 40
0.0
 40
1.0
 40
1.0
 40
1.0
 40
2.0
 40
2.0
 40
2.0
 40
3.0
 40
3.0
 40
3.0
 40
4.0
 40
4.0
 40
4.0
 40
5.0
 40
5.0
 40
5.0
 40
6.0
 40
6.0
 40
6.0
 40
6.0
 10
106.156381039392
 20
108.826848566476
 30
0.0
 10
106.156381039392
 20
109.7925094680326
 30
0.0
 10
105.3733103190073
 20
110.5752356786415
 30
0.0
 10
104.4078216723385
 20
110.5752356786415
 30
0.0
 10
103.441988515894
 20
110.5752356786415
 30
0.0
 10
102.6592623052851
 20
109.7925094680326
 30
0.0
 10
102.6592623052851
 20
108.826848566476
 30
0.0
 10
102.6592623052851
 20
107.8611876649193
 30
0.0
 10
103.441988515894
 20
107.0784614543104
 30
0.0
 10
104.4078216723385
 20
107.0784614543104
 30
0.0
 10
105.3733103190073
 20
107.0784614543104
 30
0.0
 10
106.156381039392
 20
107.8611876649193
 30
0.0
 10
106.156381039392
 20
108.826848566476
 30
0.0
 10
106.156381039392
 20
108.826848566476
 30
0.0
 10
106.156381039392
 20
108.826848566476
 30
0.0
 10
106.156381039392
 20
108.826848566476
 30
0.0
 10
106.156381039392
 20
108.826848566476
 30
0.0
 10
106.156381039392
 20
108.826848566476
 30
0.0
 10
106.156381039392
 20
108.826848566476
 30
0.0
  0
ENDBLK
  5
46
330
43
100
AcDbEntity
  8
0
100
AcDbBlockEnd
  0
BLOCK
  5
4A
330
48
100
AcDbEntity
  8
0
100
AcDbBlockBegin
  2
block 4
 70
     0
 71
     0
 10
0.0
 20
0.0
 30
0.0
  3
block 4
  1

  0
SPLINE
  5
4C
330
48
100
AcDbEntity
  8
Fina
 62
     7
420
 16777215
370
     9
100
AcDbSpline
210
0.0
220
0.0
230
1.0
 70
    11
 71
     3
 72
    23
 73
    19
 74
     0
 42
0.0000000001
 43
0.0000000001
 40
0.0
 40
0.0
 40
0.0
 40
0.0
 40
1.0
 40
1.0
 40
1.0
 40
2.0
 40
2.0
 40
2.0
 40
3.0
 40
3.0
 40
3.0
 40
4.0
 40
4.0
 40
4.0
 40
5.0
 40
5.0
 40
5.0
 40
6.0
 40
6.0
 40
6.0
 40
6.0
 10
93.4391471756522
 20
114.0944030383994
 30
0.0
 10
93.4391471756522
 20
115.0600639399561
 30
0.0
 10
92.65624871015541
 20
115.8431346603408
 30
0.0
 10
91.69058780859875
 20
115.8431346603408
 30
0.0
 10
90.72492690704209
 20
115.8431346603408
 30
0.0
 10
89.94202844154529
 20
115.0600639399561
 30
0.0
 10
89.94202844154529
 20
114.0944030383994
 30
0.0
 10
89.94202844154529
 20
113.1287421368427
 30
0.0
 10
90.72492690704209
 20
112.3460159262338
 30
0.0
 10
91.69058780859875
 20
112.3460159262338
 30
0.0
 10
92.65624871015541
 20
112.3460159262338
 30
0.0
 10
93.4391471756522
 20
113.1287421368427
 30
0.0
 10
93.4391471756522
 20
114.0944030383994
 30
0.0
 10
93.4391471756522
 20
114.0944030383994
 30
0.0
 10
93.4391471756522
 20
114.0944030383994
 30
0.0
 10
93.4391471756522
 20
114.0944030383994
 30
0.0
 10
93.4391471756522
 20
114.0944030383994
 30
0.0
 10
93.4391471756522
 20
114.0944030383994
 30
0.0
 10
93.4391471756522
 20
114.0944030383994
 30
0.0
  0
ENDBLK
  5
4B
330
48
100
AcDbEntity
  8
0
100
AcDbBlockEnd
  0
BLOCK
  5
4F
330
4D
100
AcDbEntity
  8
0
100
AcDbBlockBegin
  2
block 5
 70
     0
 71
     0
 10
0.0
 20
0.0
 30
0.0
  3
block 5
  1

  0
SPLINE
  5
51
330
4D
100
AcDbEntity
  8
Fina
 62
     7
420
 16777215
370
     9
100
AcDbSpline
210
0.0
220
0.0
230
1.0
 70
    11
 71
     3
 72
    23
 73
    19
 74
     0
 42
0.0000000001
 43
0.0000000001
 40
0.0
 40
0.0
 40
0.0
 40
0.0
 40
1.0
 40
1.0
 40
1.0
 40
2.0
 40
2.0
 40
2.0
 40
3.0
 40
3.0
 40
3.0
 40
4.0
 40
4.0
 40
4.0
 40
5.0
 40
5.0
 40
5.0
 40
6.0
 40
6.0
 40
6.0
 40
6.0
 10
120.9158688540514
 20
96.10961470273621
 30
0.0
 10
120.9158688540514
 20
97.07527560429287
 30
0.0
 10
120.1331426434426
 20
97.85834632467756
 30
0.0
 10
119.1674817418859
 20
97.85834632467756
 30
0.0
 10
118.2018208403292
 20
97.85834632467756
 30
0.0
 10
117.4187501199445
 20
97.07527560429287
 30
0.0
 10
117.4187501199445
 20
96.10961470273621
 30
0.0
 10
117.4187501199445
 20
95.14395380117955
 30
0.0
 10
118.2018208403292
 20
94.36122759057065
 30
0.0
 10
119.1674817418859
 20
94.36122759057065
 30
0.0
 10
120.1331426434426
 20
94.36122759057065
 30
0.0
 10
120.9158688540514
 20
95.14395380117955
 30
0.0
 10
120.9158688540514
 20
96.10961470273621
 30
0.0
 10
120.9158688540514
 20
96.10961470273621
 30
0.0
 10
120.9158688540514
 20
96.10961470273621
 30
0.0
 10
120.9158688540514
 20
96.10961470273621
 30
0.0
 10
120.9158688540514
 20
96.10961470273621
 30
0.0
 10
120.9158688540514
 20
96.10961470273621
 30
0.0
 10
120.9158688540514
 20
96.10961470273621
 30
0.0
  0
ENDBLK
  5
50
330
4D
100
AcDbEntity
  8
0
100
AcDbBlockEnd
  0
BLOCK
  5
54
330
52
100
AcDbEntity
  8
0
100
AcDbBlockBegin
  2
block 6
 70
     0
 71
     0
 10
0.0
 20
0.0
 30
0.0
  3
block 6
  1

  0
SPLINE
  5
56
330
52
100
AcDbEntity
  8
Fina
 62
     7
420
 16777215
370
     9
100
AcDbSpline
210
0.0
220
0.0
230
1.0
 70
    11
 71
     3
 72
    23
 73
    19
 74
     0
 42
0.0000000001
 43
0.0000000001
 40
0.0
 40
0.0
 40
0.0
 40
0.0
 40
1.0
 40
1.0
 40
1.0
 40
2.0
 40
2.0
 40
2.0
 40
3.0
 40
3.0
 40
3.0
 40
4.0
 40
4.0
 40
4.0
 40
5.0
 40
5.0
 40
5.0
 40
6.0
 40
6.0
 40
6.0
 40
6.0
 10
130.4078021967875
 20
96.10961470273621
 30
0.0
 10
130.4078021967875
 20
97.07527560429287
 30
0.0
 10
129.6250759861786
 20
97.85834632467756
 30
0.0
 10
128.6594150846219
 20
97.85834632467756
 30
0.0
 10
127.6937541830653
 20
97.85834632467756
 30
0.0
 10
126.9106834626806
 20
97.07527560429287
 30
0.0
 10
126.9106834626806
 20
96.10961470273621
 30
0.0
 10
126.9106834626806
 20
95.14395380117955
 30
0.0
 10
127.6937541830653
 20
94.36122759057065
 30
0.0
 10
128.6594150846219
 20
94.36122759057065
 30
0.0
 10
129.6250759861786
 20
94.36122759057065
 30
0.0
 10
130.4078021967875
 20
95.14395380117955
 30
0.0
 10
130.4078021967875
 20
96.10961470273621
 30
0.0
 10
130.4078021967875
 20
96.10961470273621
 30
0.0
 10
130.4078021967875
 20
96.10961470273621
 30
0.0
 10
130.4078021967875
 20
96.10961470273621
 30
0.0
 10
130.4078021967875
 20
96.10961470273621
 30
0.0
 10
130.4078021967875
 20
96.10961470273621
 30
0.0
 10
130.4078021967875
 20
96.10961470273621
 30
0.0
  0
ENDBLK
  5
55
330
52
100
AcDbEntity
  8
0
100
AcDbBlockEnd
  0
BLOCK
  5
59
330
57
100
AcDbEntity
  8
0
100
AcDbBlockBegin
  2
block 7
 70
     0
 71
     0
 10
0.0
 20
0.0
 30
0.0
  3
block 7
  1

  0
SPLINE
  5
5B
330
57
100
AcDbEntity
  8
Fina
 62
     7
420
 16777215
370
     9
100
AcDbSpline
210
0.0
220
0.0
230
1.0
 70
    11
 71
     3
 72
    23
 73
    19
 74
     0
 42
0.0000000001
 43
0.0000000001
 40
0.0
 40
0.0
 40
0.0
 40
0.0
 40
1.0
 40
1.0
 40
1.0
 40
2.0
 40
2.0
 40
2.0
 40
3.0
 40
3.0
 40
3.0
 40
4.0
 40
4.0
 40
4.0
 40
5.0
 40
5.0
 40
5.0
 40
6.0
 40
6.0
 40
6.0
 40
6.0
 10
139.8997355395235
 20
96.10961470273621
 30
0.0
 10
139.8997355395235
 20
97.07527560429287
 30
0.0
 10
139.1170093289146
 20
97.85834632467756
 30
0.0
 10
138.151348427358
 20
97.85834632467756
 30
0.0
 10
137.1856875258013
 20
97.85834632467756
 30
0.0
 10
136.4026168054166
 20
97.07527560429287
 30
0.0
 10
136.4026168054166
 20
96.10961470273621
 30
0.0
 10
136.4026168054166
 20
95.14395380117955
 30
0.0
 10
137.1856875258013
 20
94.36122759057065
 30
0.0
 10
138.151348427358
 20
94.36122759057065
 30
0.0
 10
139.1170093289146
 20
94.36122759057065
 30
0.0
 10
139.8997355395235
 20
95.14395380117955
 30
0.0
 10
139.8997355395235
 20
96.10961470273621
 30
0.0
 10
139.8997355395235
 20
96.10961470273621
 30
0.0
 10
139.8997355395235
 20
96.10961470273621
 30
0.0
 10
139.8997355395235
 20
96.10961470273621
 30
0.0
 10
139.8997355395235
 20
96.10961470273621
 30
0.0
 10
139.8997355395235
 20
96.10961470273621
 30
0.0
 10
139.8997355395235
 20
96.10961470273621
 30
0.0
  0
ENDBLK
  5
5A
330
57
100
AcDbEntity
  8
0
100
AcDbBlockEnd
  0
BLOCK
  5
5E
330
5C
100
AcDbEntity
  8
0
100
AcDbBlockBegin
  2
block 8
 70
     0
 71
     0
 10
0.0
 20
0.0
 30
0.0
  3
block 8
  1

  0
SPLINE
  5
60
330
5C
100
AcDbEntity
  8
Fina
 62
     7
420
 16777215
370
     9
100
AcDbSpline
210
0.0
220
0.0
230
1.0
 70
    11
 71
     3
 72
    23
 73
    19
 74
     0
 42
0.0000000001
 43
0.0000000001
 40
0.0
 40
0.0
 40
0.0
 40
0.0
 40
1.0
 40
1.0
 40
1.0
 40
2.0
 40
2.0
 40
2.0
 40
3.0
 40
3.0
 40
3.0
 40
4.0
 40
4.0
 40
4.0
 40
5.0
 40
5.0
 40
5.0
 40
6.0
 40
6.0
 40
6.0
 40
6.0
 10
93.4391471756522
 20
123.5863363811355
 30
0.0
 10
93.4391471756522
 20
124.5519972826921
 30
0.0
 10
92.65624871015541
 20
125.3350680030768
 30
0.0
 10
91.69058780859875
 20
125.3350680030768
 30
0.0
 10
90.72492690704209
 20
125.3350680030768
 30
0.0
 10
89.94202844154529
 20
124.5519972826921
 30
0.0
 10
89.94202844154529
 20
123.5863363811355
 30
0.0
 10
89.94202844154529
 20
122.6206754795788
 30
0.0
 10
90.72492690704209
 20
121.8379492689699
 30
0.0
 10
91.69058780859875
 20
121.8379492689699
 30
0.0
 10
92.65624871015541
 20
121.8379492689699
 30
0.0
 10
93.4391471756522
 20
122.6206754795788
 30
0.0
 10
93.4391471756522
 20
123.5863363811355
 30
0.0
 10
93.4391471756522
 20
123.5863363811355
 30
0.0
 10
93.4391471756522
 20
123.5863363811355
 30
0.0
 10
93.4391471756522
 20
123.5863363811355
 30
0.0
 10
93.4391471756522
 20
123.5863363811355
 30
0.0
 10
93.4391471756522
 20
123.5863363811355
 30
0.0
 10
93.4391471756522
 20
123.5863363811355
 30
0.0
  0
ENDBLK
  5
5F
330
5C
100
AcDbEntity
  8
0
100
AcDbBlockEnd
  0
BLOCK
  5
63
330
61
100
AcDbEntity
  8
0
100
AcDbBlockBegin
  2
block 9
 70
     0
 71
     0
 10
0.0
 20
0.0
 30
0.0
  3
block 9
  1

  0
SPLINE
  5
65
330
61
100
AcDbEntity
  8
Fina
 62
     7
420
 16777215
370
     9
100
AcDbSpline
210
0.0
220
0.0
230
1.0
 70
    11
 71
     3
 72
    23
 73
    19
 74
     0
 42
0.0000000001
 43
0.0000000001
 40
0.0
 40
0.0
 40
0.0
 40
0.0
 40
1.0
 40
1.0
 40
1.0
 40
2.0
 40
2.0
 40
2.0
 40
3.0
 40
3.0
 40
3.0
 40
4.0
 40
4.0
 40
4.0
 40
5.0
 40
5.0
 40
5.0
 40
6.0
 40
6.0
 40
6.0
 40
6.0
 10
93.4391471756522
 20
133.0782697238715
 30
0.0
 10
93.4391471756522
 20
134.0439306254281
 30
0.0
 10
92.65624871015541
 20
134.8270013458128
 30
0.0
 10
91.69058780859875
 20
134.8270013458128
 30
0.0
 10
90.72492690704209
 20
134.8270013458128
 30
0.0
 10
89.94202844154529
 20
134.0439306254281
 30
0.0
 10
89.94202844154529
 20
133.0782697238715
 30
0.0
 10
89.94202844154529
 20
132.1126088223148
 30
0.0
 10
90.72492690704209
 20
131.3298826117059
 30
0.0
 10
91.69058780859875
 20
131.3298826117059
 30
0.0
 10
92.65624871015541
 20
131.3298826117059
 30
0.0
 10
93.4391471756522
 20
132.1126088223148
 30
0.0
 10
93.4391471756522
 20
133.0782697238715
 30
0.0
 10
93.4391471756522
 20
133.0782697238715
 30
0.0
 10
93.4391471756522
 20
133.0782697238715
 30
0.0
 10
93.4391471756522
 20
133.0782697238715
 30
0.0
 10
93.4391471756522
 20
133.0782697238715
 30
0.0
 10
93.4391471756522
 20
133.0782697238715
 30
0.0
 10
93.4391471756522
 20
133.0782697238715
 30
0.0
  0
ENDBLK
  5
64
330
61
100
AcDbEntity
  8
0
100
AcDbBlockEnd
  0
BLOCK
  5
68
330
66
100
AcDbEntity
  8
0
100
AcDbBlockBegin
  2
block 10
 70
     0
 71
     0
 10
0.0
 20
0.0
 30
0.0
  3
block 10
  1

  0
SPLINE
  5
6A
330
66
100
AcDbEntity
  8
Fina
 62
     7
420
 16777215
370
     9
100
AcDbSpline
210
0.0
220
0.0
230
1.0
 70
    11
 71
     3
 72
    23
 73
    19
 74
     0
 42
0.0000000001
 43
0.0000000001
 40
0.0
 40
0.0
 40
0.0
 40
0.0
 40
1.0
 40
1.0
 40
1.0
 40
2.0
 40
2.0
 40
2.0
 40
3.0
 40
3.0
 40
3.0
 40
4.0
 40
4.0
 40
4.0
 40
5.0
 40
5.0
 40
5.0
 40
6.0
 40
6.0
 40
6.0
 40
6.0
 10
93.4391471756522
 20
142.5702030666075
 30
0.0
 10
93.4391471756522
 20
143.5358639681642
 30
0.0
 10
92.65624871015541
 20
144.3189346885489
 30
0.0
 10
91.69058780859875
 20
144.3189346885489
 30
0.0
 10
90.72492690704209
 20
144.3189346885489
 30
0.0
 10
89.94202844154529
 20
143.5358639681642
 30
0.0
 10
89.94202844154529
 20
142.5702030666075
 30
0.0
 10
89.94202844154529
 20
141.6045421650509
 30
0.0
 10
90.72492690704209
 20
140.821815954442
 30
0.0
 10
91.69058780859875
 20
140.821815954442
 30
0.0
 10
92.65624871015541
 20
140.821815954442
 30
0.0
 10
93.4391471756522
 20
141.6045421650509
 30
0.0
 10
93.4391471756522
 20
142.5702030666075
 30
0.0
 10
93.4391471756522
 20
142.5702030666075
 30
0.0
 10
93.4391471756522
 20
142.5702030666075
 30
0.0
 10
93.4391471756522
 20
142.5702030666075
 30
0.0
 10
93.4391471756522
 20
142.5702030666075
 30
0.0
 10
93.4391471756522
 20
142.5702030666075
 30
0.0
 10
93.4391471756522
 20
142.5702030666075
 30
0.0
  0
ENDBLK
  5
69
330
66
100
AcDbEntity
  8
0
100
AcDbBlockEnd
  0
BLOCK
  5
6D
330
6B
100
AcDbEntity
  8
0
100
AcDbBlockBegin
  2
block 11
 70
     0
 71
     0
 10
0.0
 20
0.0
 30
0.0
  3
block 11
  1

  0
SPLINE
  5
6F
330
6B
100
AcDbEntity
  8
Fina
 62
     7
420
 16777215
370
     9
100
AcDbSpline
210
0.0
220
0.0
230
1.0
 70
    11
 71
     3
 72
    23
 73
    19
 74
     0
 42
0.0000000001
 43
0.0000000001
 40
0.0
 40
0.0
 40
0.0
 40
0.0
 40
1.0
 40
1.0
 40
1.0
 40
2.0
 40
2.0
 40
2.0
 40
3.0
 40
3.0
 40
3.0
 40
4.0
 40
4.0
 40
4.0
 40
5.0
 40
5.0
 40
5.0
 40
6.0
 40
6.0
 40
6.0
 40
6.0
 10
112.8681204914529
 20
115.5385880185369
 30
0.0
 10
112.8681204914529
 20
116.5042489200936
 30
0.0
 10
112.085394280844
 20
117.2873196404783
 30
0.0
 10
111.1197333792874
 20
117.2873196404783
 30
0.0
 10
110.1540724777307
 20
117.2873196404783
 30
0.0
 10
109.371001757346
 20
116.5042489200936
 30
0.0
 10
109.371001757346
 20
115.5385880185369
 30
0.0
 10
109.371001757346
 20
114.5729271169803
 30
0.0
 10
110.1540724777307
 20
113.7902009063714
 30
0.0
 10
111.1197333792874
 20
113.7902009063714
 30
0.0
 10
112.085394280844
 20
113.7902009063714
 30
0.0
 10
112.8681204914529
 20
114.5729271169803
 30
0.0
 10
112.8681204914529
 20
115.5385880185369
 30
0.0
 10
112.8681204914529
 20
115.5385880185369
 30
0.0
 10
112.8681204914529
 20
115.5385880185369
 30
0.0
 10
112.8681204914529
 20
115.5385880185369
 30
0.0
 10
112.8681204914529
 20
115.5385880185369
 30
0.0
 10
112.8681204914529
 20
115.5385880185369
 30
0.0
 10
112.8681204914529
 20
115.5385880185369
 30
0.0
  0
ENDBLK
  5
6E
330
6B
100
AcDbEntity
  8
0
100
AcDbBlockEnd
  0
BLOCK
  5
72
330
70
100
AcDbEntity
  8
0
100
AcDbBlockBegin
  2
block 12
 70
     0
 71
     0
 10
0.0
 20
0.0
 30
0.0
  3
block 12
  1

  0
SPLINE
  5
74
330
70
100
AcDbEntity
  8
Fina
 62
     7
420
 16777215
370
     9
100
AcDbSpline
210
0.0
220
0.0
230
1.0
 70
    11
 71
     3
 72
    23
 73
    19
 74
     0
 42
0.0000000001
 43
0.0000000001
 40
0.0
 40
0.0
 40
0.0
 40
0.0
 40
1.0
 40
1.0
 40
1.0
 40
2.0
 40
2.0
 40
2.0
 40
3.0
 40
3.0
 40
3.0
 40
4.0
 40
4.0
 40
4.0
 40
5.0
 40
5.0
 40
5.0
 40
6.0
 40
6.0
 40
6.0
 40
6.0
 10
119.4172513293381
 20
122.0877188564221
 30
0.0
 10
119.4172513293381
 20
123.0533797579788
 30
0.0
 10
118.6341806089534
 20
123.8361059685877
 30
0.0
 10
117.6685197073968
 20
123.8361059685877
 30
0.0
 10
116.7028588058401
 20
123.8361059685877
 30
0.0
 10
115.9201325952312
 20
123.0533797579788
 30
0.0
 10
115.9201325952312
 20
122.0877188564221
 30
0.0
 10
115.9201325952312
 20
121.1220579548655
 30
0.0
 10
116.7028588058401
 20
120.3393317442566
 30
0.0
 10
117.6685197073968
 20
120.3393317442566
 30
0.0
 10
118.6341806089534
 20
120.3393317442566
 30
0.0
 10
119.4172513293381
 20
121.1220579548655
 30
0.0
 10
119.4172513293381
 20
122.0877188564221
 30
0.0
 10
119.4172513293381
 20
122.0877188564221
 30
0.0
 10
119.4172513293381
 20
122.0877188564221
 30
0.0
 10
119.4172513293381
 20
122.0877188564221
 30
0.0
 10
119.4172513293381
 20
122.0877188564221
 30
0.0
 10
119.4172513293381
 20
122.0877188564221
 30
0.0
 10
119.4172513293381
 20
122.0877188564221
 30
0.0
  0
ENDBLK
  5
73
330
70
100
AcDbEntity
  8
0
100
AcDbBlockEnd
  0
BLOCK
  5
77
330
75
100
AcDbEntity
  8
0
100
AcDbBlockBegin
  2
block 13
 70
     0
 71
     0
 10
0.0
 20
0.0
 30
0.0
  3
block 13
  1

  0
SPLINE
  5
79
330
75
100
AcDbEntity
  8
Fina
 62
     7
420
 16777215
370
     9
100
AcDbSpline
210
0.0
220
0.0
230
1.0
 70
    11
 71
     3
 72
    23
 73
    19
 74
     0
 42
0.0000000001
 43
0.0000000001
 40
0.0
 40
0.0
 40
0.0
 40
0.0
 40
1.0
 40
1.0
 40
1.0
 40
2.0
 40
2.0
 40
2.0
 40
3.0
 40
3.0
 40
3.0
 40
4.0
 40
4.0
 40
4.0
 40
5.0
 40
5.0
 40
5.0
 40
6.0
 40
6.0
 40
6.0
 40
6.0
 10
126.2915993955749
 20
128.9624114324347
 30
0.0
 10
126.2915993955749
 20
129.9280723339913
 30
0.0
 10
125.508873184966
 20
130.7107985446002
 30
0.0
 10
124.5432122834093
 20
130.7107985446002
 30
0.0
 10
123.5775513818526
 20
130.7107985446002
 30
0.0
 10
122.7948251712437
 20
129.9280723339913
 30
0.0
 10
122.7948251712437
 20
128.9624114324347
 30
0.0
 10
122.7948251712437
 20
127.996750530878
 30
0.0
 10
123.5775513818526
 20
127.2136798104933
 30
0.0
 10
124.5432122834093
 20
127.2136798104933
 30
0.0
 10
125.508873184966
 20
127.2136798104933
 30
0.0
 10
126.2915993955749
 20
127.996750530878
 30
0.0
 10
126.2915993955749
 20
128.9624114324347
 30
0.0
 10
126.2915993955749
 20
128.9624114324347
 30
0.0
 10
126.2915993955749
 20
128.9624114324347
 30
0.0
 10
126.2915993955749
 20
128.9624114324347
 30
0.0
 10
126.2915993955749
 20
128.9624114324347
 30
0.0
 10
126.2915993955749
 20
128.9624114324347
 30
0.0
 10
126.2915993955749
 20
128.9624114324347
 30
0.0
  0
ENDBLK
  5
78
330
75
100
AcDbEntity
  8
0
100
AcDbBlockEnd
  0
BLOCK
  5
7C
330
7A
100
AcDbEntity
  8
0
100
AcDbBlockBegin
  2
block 14
 70
     0
 71
     0
 10
0.0
 20
0.0
 30
0.0
  3
block 14
  1

  0
SPLINE
  5
7E
330
7A
100
AcDbEntity
  8
Fina
 62
     7
420
 16777215
370
     9
100
AcDbSpline
210
0.0
220
0.0
230
1.0
 70
    11
 71
     3
 72
    23
 73
    19
 74
     0
 42
0.0000000001
 43
0.0000000001
 40
0.0
 40
0.0
 40
0.0
 40
0.0
 40
1.0
 40
1.0
 40
1.0
 40
2.0
 40
2.0
 40
2.0
 40
3.0
 40
3.0
 40
3.0
 40
4.0
 40
4.0
 40
4.0
 40
5.0
 40
5.0
 40
5.0
 40
6.0
 40
6.0
 40
6.0
 40
6.0
 10
133.0036833574116
 20
135.6741508844956
 30
0.0
 10
133.0036833574116
 20
136.6398117860523
 30
0.0
 10
132.2206126370269
 20
137.4225379966612
 30
0.0
 10
131.2549517354703
 20
137.4225379966612
 30
0.0
 10
130.2892908339136
 20
137.4225379966612
 30
0.0
 10
129.5065646233047
 20
136.6398117860523
 30
0.0
 10
129.5065646233047
 20
135.6741508844956
 30
0.0
 10
129.5065646233047
 20
134.708489982939
 30
0.0
 10
130.2892908339136
 20
133.9257637723301
 30
0.0
 10
131.2549517354703
 20
133.9257637723301
 30
0.0
 10
132.2206126370269
 20
133.9257637723301
 30
0.0
 10
133.0036833574116
 20
134.708489982939
 30
0.0
 10
133.0036833574116
 20
135.6741508844956
 30
0.0
 10
133.0036833574116
 20
135.6741508844956
 30
0.0
 10
133.0036833574116
 20
135.6741508844956
 30
0.0
 10
133.0036833574116
 20
135.6741508844956
 30
0.0
 10
133.0036833574116
 20
135.6741508844956
 30
0.0
 10
133.0036833574116
 20
135.6741508844956
 30
0.0
 10
133.0036833574116
 20
135.6741508844956
 30
0.0
  0
ENDBLK
  5
7D
330
7A
100
AcDbEntity
  8
0
100
AcDbBlockEnd
  0
BLOCK
  5
81
330
7F
100
AcDbEntity
  8
0
100
AcDbBlockBegin
  2
block 15
 70
     0
 71
     0
 10
0.0
 20
0.0
 30
0.0
  3
block 15
  1

  0
SPLINE
  5
83
330
7F
100
AcDbEntity
  8
Fina
 62
     7
420
 16777215
370
     9
100
AcDbSpline
210
0.0
220
0.0
230
1.0
 70
    11
 71
     3
 72
    23
 73
    19
 74
     0
 42
0.0000000001
 43
0.0000000001
 40
0.0
 40
0.0
 40
0.0
 40
0.0
 40
1.0
 40
1.0
 40
1.0
 40
2.0
 40
2.0
 40
2.0
 40
3.0
 40
3.0
 40
3.0
 40
4.0
 40
4.0
 40
4.0
 40
5.0
 40
5.0
 40
5.0
 40
6.0
 40
6.0
 40
6.0
 40
6.0
 10
119.2859931047598
 20
106.815600495378
 30
0.0
 10
119.2859931047598
 20
107.7812613969346
 30
0.0
 10
118.5029223843751
 20
108.5643321173193
 30
0.0
 10
117.5372614828184
 20
108.5643321173193
 30
0.0
 10
116.5716005812617
 20
108.5643321173193
 30
0.0
 10
115.7888743706529
 20
107.7812613969346
 30
0.0
 10
115.7888743706529
 20
106.815600495378
 30
0.0
 10
115.7888743706529
 20
105.8499395938213
 30
0.0
 10
116.5716005812617
 20
105.0672133832124
 30
0.0
 10
117.5372614828184
 20
105.0672133832124
 30
0.0
 10
118.5029223843751
 20
105.0672133832124
 30
0.0
 10
119.2859931047598
 20
105.8499395938213
 30
0.0
 10
119.2859931047598
 20
106.815600495378
 30
0.0
 10
119.2859931047598
 20
106.815600495378
 30
0.0
 10
119.2859931047598
 20
106.815600495378
 30
0.0
 10
119.2859931047598
 20
106.815600495378
 30
0.0
 10
119.2859931047598
 20
106.815600495378
 30
0.0
 10
119.2859931047598
 20
106.815600495378
 30
0.0
 10
119.2859931047598
 20
106.815600495378
 30
0.0
  0
ENDBLK
  5
82
330
7F
100
AcDbEntity
  8
0
100
AcDbBlockEnd
  0
BLOCK
  5
86
330
84
100
AcDbEntity
  8
0
100
AcDbBlockBegin
  2
block 16
 70
     0
 71
     0
 10
0.0
 20
0.0
 30
0.0
  3
block 16
  1

  0
SPLINE
  5
88
330
84
100
AcDbEntity
  8
Fina
 62
     7
420
 16777215
370
     9
100
AcDbSpline
210
0.0
220
0.0
230
1.0
 70
    11
 71
     3
 72
    23
 73
    19
 74
     0
 42
0.0000000001
 43
0.0000000001
 40
0.0
 40
0.0
 40
0.0
 40
0.0
 40
1.0
 40
1.0
 40
1.0
 40
2.0
 40
2.0
 40
2.0
 40
3.0
 40
3.0
 40
3.0
 40
4.0
 40
4.0
 40
4.0
 40
5.0
 40
5.0
 40
5.0
 40
6.0
 40
6.0
 40
6.0
 40
6.0
 10
104.145132968294
 20
121.9564606318438
 30
0.0
 10
104.145132968294
 20
122.9221215334004
 30
0.0
 10
103.3624067576851
 20
123.7048477440093
 30
0.0
 10
102.3967458561284
 20
123.7048477440093
 30
0.0
 10
101.4310849545717
 20
123.7048477440093
 30
0.0
 10
100.6481864890749
 20
122.9221215334004
 30
0.0
 10
100.6481864890749
 20
121.9564606318438
 30
0.0
 10
100.6481864890749
 20
120.9907997302871
 30
0.0
 10
101.4310849545717
 20
120.2077290099024
 30
0.0
 10
102.3967458561284
 20
120.2077290099024
 30
0.0
 10
103.3624067576851
 20
120.2077290099024
 30
0.0
 10
104.145132968294
 20
120.9907997302871
 30
0.0
 10
104.145132968294
 20
121.9564606318438
 30
0.0
 10
104.145132968294
 20
121.9564606318438
 30
0.0
 10
104.145132968294
 20
121.9564606318438
 30
0.0
 10
104.145132968294
 20
121.9564606318438
 30
0.0
 10
104.145132968294
 20
121.9564606318438
 30
0.0
 10
104.145132968294
 20
121.9564606318438
 30
0.0
 10
104.145132968294
 20
121.9564606318438
 30
0.0
  0
ENDBLK
  5
87
330
84
100
AcDbEntity
  8
0
100
AcDbBlockEnd
  0
BLOCK
  5
8B
330
89
100
AcDbEntity
  8
0
100
AcDbBlockBegin
  2
block 17
 70
     0
 71
     0
 10
0.0
 20
0.0
 30
0.0
  3
block 17
  1

  0
SPLINE
  5
8D
330
89
100
AcDbEntity
  8
Fina
 62
     7
420
 16777215
370
     9
100
AcDbSpline
210
0.0
220
0.0
230
1.0
 70
    11
 71
     3
 72
    23
 73
    19
 74
     0
 42
0.0000000001
 43
0.0000000001
 40
0.0
 40
0.0
 40
0.0
 40
0.0
 40
1.0
 40
1.0
 40
1.0
 40
2.0
 40
2.0
 40
2.0
 40
3.0
 40
3.0
 40
3.0
 40
4.0
 40
4.0
 40
4.0
 40
5.0
 40
5.0
 40
5.0
 40
6.0
 40
6.0
 40
6.0
 40
6.0
 10
107.7776440442887
 20
130.7259569747353
 30
0.0
 10
107.7776440442887
 20
131.6916178762919
 30
0.0
 10
106.9949178336798
 20
132.4743440869008
 30
0.0
 10
106.0292569321232
 20
132.4743440869008
 30
0.0
 10
105.0634237756786
 20
132.4743440869008
 30
0.0
 10
104.2805253101818
 20
131.6916178762919
 30
0.0
 10
104.2805253101818
 20
130.7259569747353
 30
0.0
 10
104.2805253101818
 20
129.7602960731786
 30
0.0
 10
105.0634237756786
 20
128.9772253527939
 30
0.0
 10
106.0292569321232
 20
128.9772253527939
 30
0.0
 10
106.9949178336798
 20
128.9772253527939
 30
0.0
 10
107.7776440442887
 20
129.7602960731786
 30
0.0
 10
107.7776440442887
 20
130.7259569747353
 30
0.0
 10
107.7776440442887
 20
130.7259569747353
 30
0.0
 10
107.7776440442887
 20
130.7259569747353
 30
0.0
 10
107.7776440442887
 20
130.7259569747353
 30
0.0
 10
107.7776440442887
 20
130.7259569747353
 30
0.0
 10
107.7776440442887
 20
130.7259569747353
 30
0.0
 10
107.7776440442887
 20
130.7259569747353
 30
0.0
  0
ENDBLK
  5
8C
330
89
100
AcDbEntity
  8
0
100
AcDbBlockEnd
  0
BLOCK
  5
90
330
8E
100
AcDbEntity
  8
0
100
AcDbBlockBegin
  2
block 18
 70
     0
 71
     0
 10
0.0
 20
0.0
 30
0.0
  3
block 18
  1

  0
SPLINE
  5
92
330
8E
100
AcDbEntity
  8
Fina
 62
     7
420
 16777215
370
     9
100
AcDbSpline
210
0.0
220
0.0
230
1.0
 70
    11
 71
     3
 72
    23
 73
    19
 74
     0
 42
0.0000000001
 43
0.0000000001
 40
0.0
 40
0.0
 40
0.0
 40
0.0
 40
1.0
 40
1.0
 40
1.0
 40
2.0
 40
2.0
 40
2.0
 40
3.0
 40
3.0
 40
3.0
 40
4.0
 40
4.0
 40
4.0
 40
5.0
 40
5.0
 40
5.0
 40
6.0
 40
6.0
 40
6.0
 40
6.0
 10
111.4101551202835
 20
139.4951088078509
 30
0.0
 10
111.4101551202835
 20
140.4607697094076
 30
0.0
 10
110.6270843998989
 20
141.2438404297923
 30
0.0
 10
109.6614234983422
 20
141.2438404297923
 30
0.0
 10
108.6957625967855
 20
141.2438404297923
 30
0.0
 10
107.9130363861766
 20
140.4607697094076
 30
0.0
 10
107.9130363861766
 20
139.4951088078509
 30
0.0
 10
107.9130363861766
 20
138.5294479062943
 30
0.0
 10
108.6957625967855
 20
137.7467216956854
 30
0.0
 10
109.6614234983422
 20
137.7467216956854
 30
0.0
 10
110.6270843998989
 20
137.7467216956854
 30
0.0
 10
111.4101551202835
 20
138.5294479062943
 30
0.0
 10
111.4101551202835
 20
139.4951088078509
 30
0.0
 10
111.4101551202835
 20
139.4951088078509
 30
0.0
 10
111.4101551202835
 20
139.4951088078509
 30
0.0
 10
111.4101551202835
 20
139.4951088078509
 30
0.0
 10
111.4101551202835
 20
139.4951088078509
 30
0.0
 10
111.4101551202835
 20
139.4951088078509
 30
0.0
 10
111.4101551202835
 20
139.4951088078509
 30
0.0
  0
ENDBLK
  5
91
330
8E
100
AcDbEntity
  8
0
100
AcDbBlockEnd
  0
BLOCK
  5
95
330
93
100
AcDbEntity
  8
0
100
AcDbBlockBegin
  2
block 19
 70
     0
 71
     0
 10
0.0
 20
0.0
 30
0.0
  3
block 19
  1

  0
SPLINE
  5
97
330
93
100
AcDbEntity
  8
Fina
 62
     7
420
 16777215
370
     9
100
AcDbSpline
210
0.0
220
0.0
230
1.0
 70
    11
 71
     3
 72
    23
 73
    19
 74
     0
 42
0.0000000001
 43
0.0000000001
 40
0.0
 40
0.0
 40
0.0
 40
0.0
 40
1.0
 40
1.0
 40
1.0
 40
2.0
 40
2.0
 40
2.0
 40
3.0
 40
3.0
 40
3.0
 40
4.0
 40
4.0
 40
4.0
 40
5.0
 40
5.0
 40
5.0
 40
6.0
 40
6.0
 40
6.0
 40
6.0
 10
128.0551449378754
 20
110.4481115713727
 30
0.0
 10
128.0551449378754
 20
111.4137724729294
 30
0.0
 10
127.2724187272666
 20
112.1968431933141
 30
0.0
 10
126.3067578257099
 20
112.1968431933141
 30
0.0
 10
125.3410969241532
 20
112.1968431933141
 30
0.0
 10
124.5583707135443
 20
111.4137724729294
 30
0.0
 10
124.5583707135443
 20
110.4481115713727
 30
0.0
 10
124.5583707135443
 20
109.4824506698161
 30
0.0
 10
125.3410969241532
 20
108.6997244592072
 30
0.0
 10
126.3067578257099
 20
108.6997244592072
 30
0.0
 10
127.2724187272666
 20
108.6997244592072
 30
0.0
 10
128.0551449378754
 20
109.4824506698161
 30
0.0
 10
128.0551449378754
 20
110.4481115713727
 30
0.0
 10
128.0551449378754
 20
110.4481115713727
 30
0.0
 10
128.0551449378754
 20
110.4481115713727
 30
0.0
 10
128.0551449378754
 20
110.4481115713727
 30
0.0
 10
128.0551449378754
 20
110.4481115713727
 30
0.0
 10
128.0551449378754
 20
110.4481115713727
 30
0.0
 10
128.0551449378754
 20
110.4481115713727
 30
0.0
  0
ENDBLK
  5
96
330
93
100
AcDbEntity
  8
0
100
AcDbBlockEnd
  0
BLOCK
  5
9A
330
98
100
AcDbEntity
  8
0
100
AcDbBlockBegin
  2
block 20
 70
     0
 71
     0
 10
0.0
 20
0.0
 30
0.0
  3
block 20
  1

  0
SPLINE
  5
9C
330
98
100
AcDbEntity
  8
Fina
 62
     7
420
 16777215
370
     9
100
AcDbSpline
210
0.0
220
0.0
230
1.0
 70
    11
 71
     3
 72
    23
 73
    19
 74
     0
 42
0.0000000001
 43
0.0000000001
 40
0.0
 40
0.0
 40
0.0
 40
0.0
 40
1.0
 40
1.0
 40
1.0
 40
2.0
 40
2.0
 40
2.0
 40
3.0
 40
3.0
 40
3.0
 40
4.0
 40
4.0
 40
4.0
 40
5.0
 40
5.0
 40
5.0
 40
6.0
 40
6.0
 40
6.0
 40
6.0
 10
136.8246412807669
 20
114.0806226473676
 30
0.0
 10
136.8246412807669
 20
115.0462835489242
 30
0.0
 10
136.041915070158
 20
115.8290097595331
 30
0.0
 10
135.0762541686014
 20
115.8290097595331
 30
0.0
 10
134.1105932670447
 20
115.8290097595331
 30
0.0
 10
133.32752254666
 20
115.0462835489242
 30
0.0
 10
133.32752254666
 20
114.0806226473676
 30
0.0
 10
133.32752254666
 20
113.1149617458109
 30
0.0
 10
134.1105932670447
 20
112.332235535202
 30
0.0
 10
135.0762541686014
 20
112.332235535202
 30
0.0
 10
136.041915070158
 20
112.332235535202
 30
0.0
 10
136.8246412807669
 20
113.1149617458109
 30
0.0
 10
136.8246412807669
 20
114.0806226473676
 30
0.0
 10
136.8246412807669
 20
114.0806226473676
 30
0.0
 10
136.8246412807669
 20
114.0806226473676
 30
0.0
 10
136.8246412807669
 20
114.0806226473676
 30
0.0
 10
136.8246412807669
 20
114.0806226473676
 30
0.0
 10
136.8246412807669
 20
114.0806226473676
 30
0.0
 10
136.8246412807669
 20
114.0806226473676
 30
0.0
  0
ENDBLK
  5
9B
330
98
100
AcDbEntity
  8
0
100
AcDbBlockEnd
  0
BLOCK
  5
9F
330
9D
100
AcDbEntity
  8
0
100
AcDbBlockBegin
  2
block 21
 70
     0
 71
     0
 10
0.0
 20
0.0
 30
0.0
  3
block 21
  1

  0
POLYLINE
  5
A1
330
9D
100
AcDbEntity
  8
Fina
 62
     7
420
 16777215
370
     9
100
AcDb2dPolyline
 66
     1
 10
0.0
 20
0.0
 30
0.0
  0
VERTEX
  5
A2
330
A1
100
AcDbEntity
  8
Fina
 62
     7
420
 16777215
370
     9
100
AcDbVertex
100
AcDb2dVertex
 10
78.20199655685134
 20
82.6210234509888
 30
0.0
  0
VERTEX
  5
A3
330
A1
100
AcDbEntity
  8
Fina
 62
     7
420
 16777215
370
     9
100
AcDbVertex
100
AcDb2dVertex
 10
78.20199655685134
 20
151.562769489327
 30
0.0
  0
SEQEND
  5
A4
330
A1
100
AcDbEntity
  8
Fina
370
     9
  0
ENDBLK
  5
A0
330
9D
100
AcDbEntity
  8
0
100
AcDbBlockEnd
  0
BLOCK
  5
A7
330
A5
100
AcDbEntity
  8
0
100
AcDbBlockBegin
  2
block 22
 70
     0
 71
     0
 10
0.0
 20
0.0
 30
0.0
  3
block 22
  1

  0
POLYLINE
  5
A9
330
A5
100
AcDbEntity
  8
Fina
 62
     7
420
 16777215
370
     9
100
AcDb2dPolyline
 66
     1
 10
0.0
 20
0.0
 30
0.0
  0
VERTEX
  5
AA
330
A9
100
AcDbEntity
  8
Fina
 62
     7
420
 16777215
370
     9
100
AcDbVertex
100
AcDb2dVertex
 10
143.6466238610827
 20
86.11814218509572
 30
0.0
  0
VERTEX
  5
AB
330
A9
100
AcDbEntity
  8
Fina
 62
     7
420
 16777215
370
     9
100
AcDbVertex
100
AcDb2dVertex
 10
151.6399396791054
 20
78.12482636707301
 30
0.0
  0
SEQEND
  5
AC
330
A9
100
AcDbEntity
  8
Fina
370
     9
  0
ENDBLK
  5
A8
330
A5
100
AcDbEntity
  8
0
100
AcDbBlockEnd
  0
BLOCK
  5
AF
330
AD
100
AcDbEntity
  8
0
100
AcDbBlockBegin
  2
block 23
 70
     0
 71
     0
 10
0.0
 20
0.0
 30
0.0
  3
block 23
  1

  0
POLYLINE
  5
B1
330
AD
100
AcDbEntity
  8
Fina
 62
     7
420
 16777215
370
     9
100
AcDb2dPolyline
 66
     1
 10
0.0
 20
0.0
 30
0.0
  0
VERTEX
  5
B2
330
B1
100
AcDbEntity
  8
Fina
 62
     7
420
 16777215
370
     9
100
AcDbVertex
100
AcDb2dVertex
 10
143.6466238610827
 20
148.065823010108
 30
0.0
  0
VERTEX
  5
B3
330
B1
100
AcDbEntity
  8
Fina
 62
     7
420
 16777215
370
     9
100
AcDbVertex
100
AcDb2dVertex
 10
151.6399396791054
 20
156.0589665732428
 30
0.0
  0
SEQEND
  5
B4
330
B1
100
AcDbEntity
  8
Fina
370
     9
  0
ENDBLK
  5
B0
330
AD
100
AcDbEntity
  8
0
100
AcDbBlockEnd
  0
BLOCK
  5
B7
330
B5
100
AcDbEntity
  8
0
100
AcDbBlockBegin
  2
block 24
 70
     0
 71
     0
 10
0.0
 20
0.0
 30
0.0
  3
block 24
  1

  0
SPLINE
  5
B9
330
B5
100
AcDbEntity
  8
Fina
 62
     7
420
 16777215
370
     9
100
AcDbSpline
210
0.0
220
0.0
230
1.0
 70
    11
 71
     3
 72
    23
 73
    19
 74
     0
 42
0.0000000001
 43
0.0000000001
 40
0.0
 40
0.0
 40
0.0
 40
0.0
 40
1.0
 40
1.0
 40
1.0
 40
2.0
 40
2.0
 40
2.0
 40
3.0
 40
3.0
 40
3.0
 40
4.0
 40
4.0
 40
4.0
 40
5.0
 40
5.0
 40
5.0
 40
6.0
 40
6.0
 40
6.0
 40
6.0
 10
96.18678489251455
 20
96.10961470273621
 30
0.0
 10
96.18678489251455
 20
98.59284116667499
 30
0.0
 10
94.17381427253753
 20
100.605811786652
 30
0.0
 10
91.69058780859875
 20
100.605811786652
 30
0.0
 10
89.20736134465996
 20
100.605811786652
 30
0.0
 10
87.19439072468295
 20
98.59284116667499
 30
0.0
 10
87.19439072468295
 20
96.10961470273621
 30
0.0
 10
87.19439072468295
 20
93.62638823879742
 30
0.0
 10
89.20736134465996
 20
91.6134176188204
 30
0.0
 10
91.69058780859875
 20
91.6134176188204
 30
0.0
 10
94.17381427253753
 20
91.6134176188204
 30
0.0
 10
96.18678489251455
 20
93.62638823879742
 30
0.0
 10
96.18678489251455
 20
96.10961470273621
 30
0.0
 10
96.18678489251455
 20
96.10961470273621
 30
0.0
 10
96.18678489251455
 20
96.10961470273621
 30
0.0
 10
96.18678489251455
 20
96.10961470273621
 30
0.0
 10
96.18678489251455
 20
96.10961470273621
 30
0.0
 10
96.18678489251455
 20
96.10961470273621
 30
0.0
 10
96.18678489251455
 20
96.10961470273621
 30
0.0
  0
ENDBLK
  5
B8
330
B5
100
AcDbEntity
  8
0
100
AcDbBlockEnd
  0
BLOCK
  5
BC
330
BA
100
AcDbEntity
  8
0
100
AcDbBlockBegin
  2
block 25
 70
     0
 71
     0
 10
0.0
 20
0.0
 30
0.0
  3
block 25
  1

  0
POLYLINE
  5
BE
330
BA
100
AcDbEntity
  8
Fina
 62
     7
420
 16777215
370
     9
100
AcDb2dPolyline
 66
     1
 10
0.0
 20
0.0
 30
0.0
  0
VERTEX
  5
BF
330
BE
100
AcDbEntity
  8
Fina
 62
     7
420
 16777215
370
     9
100
AcDbVertex
100
AcDb2dVertex
 10
92.98146593850699
 20
187.0128254187528
 30
0.0
  0
VERTEX
  5
C0
330
BE
100
AcDbEntity
  8
Fina
 62
     7
420
 16777215
370
     9
100
AcDbVertex
100
AcDb2dVertex
 10
83.40564446536457
 20
187.0128254187528
 30
0.0
  0
SEQEND
  5
C1
330
BE
100
AcDbEntity
  8
Fina
370
     9
  0
ENDBLK
  5
BD
330
BA
100
AcDbEntity
  8
0
100
AcDbBlockEnd
  0
BLOCK
  5
C4
330
C2
100
AcDbEntity
  8
0
100
AcDbBlockBegin
  2
block 26
 70
     0
 71
     0
 10
0.0
 20
0.0
 30
0.0
  3
block 26
  1

  0
POLYLINE
  5
C6
330
C2
100
AcDbEntity
  8
Fina
 62
     7
420
 16777215
370
     9
100
AcDb2dPolyline
 66
     1
 10
0.0
 20
0.0
 30
0.0
  0
VERTEX
  5
C7
330
C6
100
AcDbEntity
  8
Fina
 62
     7
420
 16777215
370
     9
100
AcDbVertex
100
AcDb2dVertex
 10
91.29095646867519
 20
185.9136669790751
 30
0.0
  0
VERTEX
  5
C8
330
C6
100
AcDbEntity
  8
Fina
 62
     7
420
 16777215
370
     9
100
AcDbVertex
100
AcDb2dVertex
 10
88.19364132937973
 20
185.9136669790751
 30
0.0
  0
SEQEND
  5
C9
330
C6
100
AcDbEntity
  8
Fina
370
     9
  0
ENDBLK
  5
C5
330
C2
100
AcDbEntity
  8
0
100
AcDbBlockEnd
  0
BLOCK
  5
CD
330
CB
100
AcDbEntity
  8
0
100
AcDbBlockBegin
  2
block 27
 70
     0
 71
     0
 10
0.0
 20
0.0
 30
0.0
  3
block 27
  1

  0
POLYLINE
  5
CF
330
CB
100
AcDbEntity
  8
PIEZA
 62
     7
420
 16777215
370
     9
100
AcDb2dPolyline
 66
     1
 10
0.0
 20
0.0
 30
0.0
  0
VERTEX
  5
D0
330
CF
100
AcDbEntity
  8
PIEZA
 62
     7
420
 16777215
370
     9
100
AcDbVertex
100
AcDb2dVertex
 10
143.6466238610827
 20
148.065823010108
 30
0.0
  0
VERTEX
  5
D1
330
CF
100
AcDbEntity
  8
PIEZA
 62
     7
420
 16777215
370
     9
100
AcDbVertex
100
AcDb2dVertex
 10
143.6466238610827
 20
86.11814218509572
 30
0.0
  0
SEQEND
  5
D2
330
CF
100
AcDbEntity
  8
PIEZA
370
     9
  0
ENDBLK
  5
CE
330
CB
100
AcDbEntity
  8
0
100
AcDbBlockEnd
  0
BLOCK
  5
D5
330
D3
100
AcDbEntity
  8
0
100
AcDbBlockBegin
  2
block 28
 70
     0
 71
     0
 10
0.0
 20
0.0
 30
0.0
  3
block 28
  1

  0
POLYLINE
  5
D7
330
D3
100
AcDbEntity
  8
PIEZA
 62
     7
420
 16777215
370
     9
100
AcDb2dPolyline
 66
     1
 10
0.0
 20
0.0
 30
0.0
  0
VERTEX
  5
D8
330
D7
100
AcDbEntity
  8
PIEZA
 62
     7
420
 16777215
370
     9
100
AcDbVertex
100
AcDb2dVertex
 10
143.6466238610827
 20
86.11814218509572
 30
0.0
  0
VERTEX
  5
D9
330
D7
100
AcDbEntity
  8
PIEZA
 62
     7
420
 16777215
370
     9
100
AcDbVertex
100
AcDb2dVertex
 10
78.20199655685134
 20
86.11814218509572
 30
0.0
  0
SEQEND
  5
DA
330
D7
100
AcDbEntity
  8
PIEZA
370
     9
  0
ENDBLK
  5
D6
330
D3
100
AcDbEntity
  8
0
100
AcDbBlockEnd
  0
BLOCK
  5
DD
330
DB
100
AcDbEntity
  8
0
100
AcDbBlockBegin
  2
block 29
 70
     0
 71
     0
 10
0.0
 20
0.0
 30
0.0
  3
block 29
  1

  0
POLYLINE
  5
DF
330
DB
100
AcDbEntity
  8
PIEZA
 62
     7
420
 16777215
370
     9
100
AcDb2dPolyline
 66
     1
 10
0.0
 20
0.0
 30
0.0
  0
VERTEX
  5
E0
330
DF
100
AcDbEntity
  8
PIEZA
 62
     7
420
 16777215
370
     9
100
AcDbVertex
100
AcDb2dVertex
 10
78.20199655685134
 20
148.065823010108
 30
0.0
  0
VERTEX
  5
E1
330
DF
100
AcDbEntity
  8
PIEZA
 62
     7
420
 16777215
370
     9
100
AcDbVertex
100
AcDb2dVertex
 10
143.6466238610827
 20
148.065823010108
 30
0.0
  0
SEQEND
  5
E2
330
DF
100
AcDbEntity
  8
PIEZA
370
     9
  0
ENDBLK
  5
DE
330
DB
100
AcDbEntity
  8
0
100
AcDbBlockEnd
  0
BLOCK
  5
E5
330
E3
100
AcDbEntity
  8
0
100
AcDbBlockBegin
  2
block 30
 70
     0
 71
     0
 10
0.0
 20
0.0
 30
0.0
  3
block 30
  1

  0
POLYLINE
  5
E7
330
E3
100
AcDbEntity
  8
PIEZA
 62
     7
420
 16777215
370
     9
100
AcDb2dPolyline
 66
     1
 10
0.0
 20
0.0
 30
0.0
  0
VERTEX
  5
E8
330
E7
100
AcDbEntity
  8
PIEZA
 62
     7
420
 16777215
370
     9
100
AcDbVertex
100
AcDb2dVertex
 10
88.19364132937973
 20
185.0144964642471
 30
0.0
  0
VERTEX
  5
E9
330
E7
100
AcDbEntity
  8
PIEZA
 62
     7
420
 16777215
370
     9
100
AcDbVertex
100
AcDb2dVertex
 10
85.09615393519638
 20
185.0144964642471
 30
0.0
  0
SEQEND
  5
EA
330
E7
100
AcDbEntity
  8
PIEZA
370
     9
  0
ENDBLK
  5
E6
330
E3
100
AcDbEntity
  8
0
100
AcDbBlockEnd
  0
BLOCK
  5
ED
330
EB
100
AcDbEntity
  8
0
100
AcDbBlockBegin
  2
block 31
 70
     0
 71
     0
 10
0.0
 20
0.0
 30
0.0
  3
block 31
  1

  0
POLYLINE
  5
EF
330
EB
100
AcDbEntity
  8
PIEZA
 62
     7
420
 16777215
370
     9
100
AcDb2dPolyline
 66
     1
 10
0.0
 20
0.0
 30
0.0
  0
VERTEX
  5
F0
330
EF
100
AcDbEntity
  8
PIEZA
 62
     7
420
 16777215
370
     9
100
AcDbVertex
100
AcDb2dVertex
 10
148.4694162124532
 20
185.0144964642471
 30
0.0
  0
VERTEX
  5
F1
330
EF
100
AcDbEntity
  8
PIEZA
 62
     7
420
 16777215
370
     9
100
AcDbVertex
100
AcDb2dVertex
 10
92.58993057831465
 20
185.0144964642471
 30
0.0
  0
SEQEND
  5
F2
330
EF
100
AcDbEntity
  8
PIEZA
370
     9
  0
ENDBLK
  5
EE
330
EB
100
AcDbEntity
  8
0
100
AcDbBlockEnd
  0
BLOCK
  5
F5
330
F3
100
AcDbEntity
  8
0
100
AcDbBlockBegin
  2
block 32
 70
     0
 71
     0
 10
0.0
 20
0.0
 30
0.0
  3
block 32
  1

  0
POLYLINE
  5
F7
330
F3
100
AcDbEntity
  8
PIEZA
 62
     7
420
 16777215
370
     9
100
AcDb2dPolyline
 66
     1
 10
0.0
 20
0.0
 30
0.0
  0
VERTEX
  5
F8
330
F7
100
AcDbEntity
  8
PIEZA
 62
     7
420
 16777215
370
     9
100
AcDbVertex
100
AcDb2dVertex
 10
83.79735208044482
 20
185.0144964642471
 30
0.0
  0
VERTEX
  5
F9
330
F7
100
AcDbEntity
  8
PIEZA
 62
     7
420
 16777215
370
     9
100
AcDbVertex
100
AcDb2dVertex
 10
76.9390237187826
 20
185.0144964642471
 30
0.0
  0
SEQEND
  5
FA
330
F7
100
AcDbEntity
  8
PIEZA
370
     9
  0
ENDBLK
  5
F6
330
F3
100
AcDbEntity
  8
0
100
AcDbBlockEnd
  0
BLOCK
  5
FD
330
FB
100
AcDbEntity
  8
0
100
AcDbBlockBegin
  2
block 33
 70
     0
 71
     0
 10
0.0
 20
0.0
 30
0.0
  3
block 33
  1

  0
POLYLINE
  5
FF
330
FB
100
AcDbEntity
  8
PIEZA
 62
     7
420
 16777215
370
     9
100
AcDb2dPolyline
 66
     1
 10
0.0
 20
0.0
 30
0.0
  0
VERTEX
  5
100
330
FF
100
AcDbEntity
  8
PIEZA
 62
     7
420
 16777215
370
     9
100
AcDbVertex
100
AcDb2dVertex
 10
77.68626542248448
 20
192.4302416431476
 30
0.0
  0
VERTEX
  5
101
330
FF
100
AcDbEntity
  8
PIEZA
 62
     7
420
 16777215
370
     9
100
AcDbVertex
100
AcDb2dVertex
 10
78.10243323164626
 20
189.7391035295158
 30
0.0
  0
SEQEND
  5
102
330
FF
100
AcDbEntity
  8
PIEZA
370
     9
  0
ENDBLK
  5
FE
330
FB
100
AcDbEntity
  8
0
100
AcDbBlockEnd
  0
BLOCK
  5
105
330
103
100
AcDbEntity
  8
0
100
AcDbBlockBegin
  2
block 34
 70
     0
 71
     0
 10
0.0
 20
0.0
 30
0.0
  3
block 34
  1

  0
POLYLINE
  5
107
330
103
100
AcDbEntity
  8
PIEZA
 62
     7
420
 16777215
370
     9
100
AcDb2dPolyline
 66
     1
 10
0.0
 20
0.0
 30
0.0
  0
VERTEX
  5
108
330
107
100
AcDbEntity
  8
PIEZA
 62
     7
420
 16777215
370
     9
100
AcDbVertex
100
AcDb2dVertex
 10
72.70672112312666
 20
193.0066064980546
 30
0.0
  0
VERTEX
  5
109
330
107
100
AcDbEntity
  8
PIEZA
 62
     7
420
 16777215
370
     9
100
AcDbVertex
100
AcDb2dVertex
 10
72.70672112312666
 20
185.5140356391516
 30
0.0
  0
SEQEND
  5
10A
330
107
100
AcDbEntity
  8
PIEZA
370
     9
  0
ENDBLK
  5
106
330
103
100
AcDbEntity
  8
0
100
AcDbBlockEnd
  0
BLOCK
  5
10D
330
10B
100
AcDbEntity
  8
0
100
AcDbBlockBegin
  2
block 35
 70
     0
 71
     0
 10
0.0
 20
0.0
 30
0.0
  3
block 35
  1

  0
POLYLINE
  5
10F
330
10B
100
AcDbEntity
  8
PIEZA
 62
     7
420
 16777215
370
     9
100
AcDb2dPolyline
 66
     1
 10
0.0
 20
0.0
 30
0.0
  0
VERTEX
  5
110
330
10F
100
AcDbEntity
  8
PIEZA
 62
     7
420
 16777215
370
     9
100
AcDbVertex
100
AcDb2dVertex
 10
77.75327257387684
 20
188.2757982568216
 30
0.0
  0
VERTEX
  5
111
330
10F
100
AcDbEntity
  8
PIEZA
 62
     7
420
 16777215
370
     9
100
AcDbVertex
100
AcDb2dVertex
 10
77.43735710947175
 20
188.7372691015005
 30
0.0
  0
VERTEX
  5
112
330
10F
100
AcDbEntity
  8
PIEZA
 62
     7
420
 16777215
370
     9
100
AcDbVertex
100
AcDb2dVertex
 10
77.21273673565265
 20
189.2492106283336
 30
0.0
  0
VERTEX
  5
113
330
10F
100
AcDbEntity
  8
PIEZA
 62
     7
420
 16777215
370
     9
100
AcDbVertex
100
AcDb2dVertex
 10
77.08699066748704
 20
189.7940528387553
 30
0.0
  0
SEQEND
  5
114
330
10F
100
AcDbEntity
  8
PIEZA
370
     9
  0
POLYLINE
  5
115
330
10B
100
AcDbEntity
  8
PIEZA
 62
     7
420
 16777215
370
     9
100
AcDb2dPolyline
 66
     1
 10
0.0
 20
0.0
 30
0.0
  0
VERTEX
  5
116
330
115
100
AcDbEntity
  8
PIEZA
 62
     7
420
 16777215
370
     9
100
AcDbVertex
100
AcDb2dVertex
 10
77.08699066748704
 20
189.7940528387553
 30
0.0
  0
VERTEX
  5
117
330
115
100
AcDbEntity
  8
PIEZA
 62
     7
420
 16777215
370
     9
100
AcDbVertex
100
AcDb2dVertex
 10
76.72577216756477
 20
192.0561040266329
 30
0.0
  0
SEQEND
  5
118
330
115
100
AcDbEntity
  8
PIEZA
370
     9
  0
POLYLINE
  5
119
330
10B
100
AcDbEntity
  8
PIEZA
 62
     7
420
 16777215
370
     9
100
AcDb2dPolyline
 66
     1
 10
0.0
 20
0.0
 30
0.0
  0
VERTEX
  5
11A
330
119
100
AcDbEntity
  8
PIEZA
 62
     7
420
 16777215
370
     9
100
AcDbVertex
100
AcDb2dVertex
 10
76.72577216756477
 20
192.0561040266329
 30
0.0
  0
VERTEX
  5
11B
330
119
100
AcDbEntity
  8
PIEZA
 62
     7
420
 16777215
370
     9
100
AcDbVertex
100
AcDb2dVertex
 10
76.71543687429087
 20
192.1120868651998
 30
0.0
  0
VERTEX
  5
11C
330
119
100
AcDbEntity
  8
PIEZA
 62
     7
420
 16777215
370
     9
100
AcDbVertex
100
AcDb2dVertex
 10
76.69528305240681
 20
192.1653136255603
 30
0.0
  0
VERTEX
  5
11D
330
119
100
AcDbEntity
  8
PIEZA
 62
     7
420
 16777215
370
     9
100
AcDbVertex
100
AcDb2dVertex
 10
76.66582746657623
 20
192.2140617588355
 30
0.0
  0
VERTEX
  5
11E
330
119
100
AcDbEntity
  8
PIEZA
 62
     7
420
 16777215
370
     9
100
AcDbVertex
100
AcDb2dVertex
 10
76.62844815590235
 20
192.2567809710342
 30
0.0
  0
VERTEX
  5
11F
330
119
100
AcDbEntity
  8
PIEZA
 62
     7
420
 16777215
370
     9
100
AcDbVertex
100
AcDb2dVertex
 10
76.58400639482464
 20
192.2922654779412
 30
0.0
  0
VERTEX
  5
120
330
119
100
AcDbEntity
  8
PIEZA
 62
     7
420
 16777215
370
     9
100
AcDbVertex
100
AcDb2dVertex
 10
76.5338802224463
 20
192.3193094953412
 30
0.0
  0
VERTEX
  5
121
330
119
100
AcDbEntity
  8
PIEZA
 62
     7
420
 16777215
370
     9
100
AcDbVertex
100
AcDb2dVertex
 10
76.4797921876463
 20
192.3370517487947
 30
0.0
  0
VERTEX
  5
122
330
119
100
AcDbEntity
  8
PIEZA
 62
     7
420
 16777215
370
     9
100
AcDbVertex
100
AcDb2dVertex
 10
76.42346483930362
 20
192.344975473638
 30
0.0
  0
SEQEND
  5
123
330
119
100
AcDbEntity
  8
PIEZA
370
     9
  0
POLYLINE
  5
124
330
10B
100
AcDbEntity
  8
PIEZA
 62
     7
420
 16777215
370
     9
100
AcDb2dPolyline
 66
     1
 10
0.0
 20
0.0
 30
0.0
  0
VERTEX
  5
125
330
124
100
AcDbEntity
  8
PIEZA
 62
     7
420
 16777215
370
     9
100
AcDbVertex
100
AcDb2dVertex
 10
76.42346483930362
 20
192.344975473638
 30
0.0
  0
VERTEX
  5
126
330
124
100
AcDbEntity
  8
PIEZA
 62
     7
420
 16777215
370
     9
100
AcDbVertex
100
AcDb2dVertex
 10
74.02050915312535
 20
192.465037130503
 30
0.0
  0
SEQEND
  5
127
330
124
100
AcDbEntity
  8
PIEZA
370
     9
  0
POLYLINE
  5
128
330
10B
100
AcDbEntity
  8
PIEZA
 62
     7
420
 16777215
370
     9
100
AcDb2dPolyline
 66
     1
 10
0.0
 20
0.0
 30
0.0
  0
VERTEX
  5
129
330
128
100
AcDbEntity
  8
PIEZA
 62
     7
420
 16777215
370
     9
100
AcDbVertex
100
AcDb2dVertex
 10
74.02050915312535
 20
192.465037130503
 30
0.0
  0
VERTEX
  5
12A
330
128
100
AcDbEntity
  8
PIEZA
 62
     7
420
 16777215
370
     9
100
AcDbVertex
100
AcDb2dVertex
 10
73.96676562810114
 20
192.4629700718482
 30
0.0
  0
VERTEX
  5
12B
330
128
100
AcDbEntity
  8
PIEZA
 62
     7
420
 16777215
370
     9
100
AcDbVertex
100
AcDb2dVertex
 10
73.91405563240433
 20
192.4510844845832
 30
0.0
  0
VERTEX
  5
12C
330
128
100
AcDbEntity
  8
PIEZA
 62
     7
420
 16777215
370
     9
100
AcDbVertex
100
AcDb2dVertex
 10
73.86444622468969
 20
192.4300693882597
 30
0.0
  0
VERTEX
  5
12D
330
128
100
AcDbEntity
  8
PIEZA
 62
     7
420
 16777215
370
     9
100
AcDbVertex
100
AcDb2dVertex
 10
73.81931544406038
 20
192.4006138024291
 30
0.0
  0
VERTEX
  5
12E
330
128
100
AcDbEntity
  8
PIEZA
 62
     7
420
 16777215
370
     9
100
AcDbVertex
100
AcDb2dVertex
 10
73.78038583939542
 20
192.3634067466431
 30
0.0
  0
VERTEX
  5
12F
330
128
100
AcDbEntity
  8
PIEZA
 62
     7
420
 16777215
370
     9
100
AcDbVertex
100
AcDb2dVertex
 10
73.74851868513427
 20
192.3198262600049
 30
0.0
  0
VERTEX
  5
130
330
128
100
AcDbEntity
  8
PIEZA
 62
     7
420
 16777215
370
     9
100
AcDbVertex
100
AcDb2dVertex
 10
73.72509202038013
 20
192.2714226365055
 30
0.0
  0
VERTEX
  5
131
330
128
100
AcDbEntity
  8
PIEZA
 62
     7
420
 16777215
370
     9
100
AcDbVertex
100
AcDb2dVertex
 10
73.7106226097967
 20
192.2194016603603
 30
0.0
  0
VERTEX
  5
132
330
128
100
AcDbEntity
  8
PIEZA
 62
     7
420
 16777215
370
     9
100
AcDbVertex
100
AcDb2dVertex
 10
73.70579947293555
 20
192.1656581353361
 30
0.0
  0
SEQEND
  5
133
330
128
100
AcDbEntity
  8
PIEZA
370
     9
  0
POLYLINE
  5
134
330
10B
100
AcDbEntity
  8
PIEZA
 62
     7
420
 16777215
370
     9
100
AcDb2dPolyline
 66
     1
 10
0.0
 20
0.0
 30
0.0
  0
VERTEX
  5
135
330
134
100
AcDbEntity
  8
PIEZA
 62
     7
420
 16777215
370
     9
100
AcDbVertex
100
AcDb2dVertex
 10
73.70579947293555
 20
192.1656581353361
 30
0.0
  0
VERTEX
  5
136
330
134
100
AcDbEntity
  8
PIEZA
 62
     7
420
 16777215
370
     9
100
AcDbVertex
100
AcDb2dVertex
 10
73.70579947293555
 20
186.3132983189987
 30
0.0
  0
SEQEND
  5
137
330
134
100
AcDbEntity
  8
PIEZA
370
     9
  0
POLYLINE
  5
138
330
10B
100
AcDbEntity
  8
PIEZA
 62
     7
420
 16777215
370
     9
100
AcDb2dPolyline
 66
     1
 10
0.0
 20
0.0
 30
0.0
  0
VERTEX
  5
139
330
138
100
AcDbEntity
  8
PIEZA
 62
     7
420
 16777215
370
     9
100
AcDbVertex
100
AcDb2dVertex
 10
73.70579947293555
 20
186.3132983189987
 30
0.0
  0
VERTEX
  5
13A
330
138
100
AcDbEntity
  8
PIEZA
 62
     7
420
 16777215
370
     9
100
AcDbVertex
100
AcDb2dVertex
 10
73.71165613912409
 20
186.2549039120012
 30
0.0
  0
VERTEX
  5
13B
330
138
100
AcDbEntity
  8
PIEZA
 62
     7
420
 16777215
370
     9
100
AcDbVertex
100
AcDb2dVertex
 10
73.72870937302599
 20
186.1985765636585
 30
0.0
  0
VERTEX
  5
13C
330
138
100
AcDbEntity
  8
PIEZA
 62
     7
420
 16777215
370
     9
100
AcDbVertex
100
AcDb2dVertex
 10
73.75644240997758
 20
186.1469000972891
 30
0.0
  0
VERTEX
  5
13D
330
138
100
AcDbEntity
  8
PIEZA
 62
     7
420
 16777215
370
     9
100
AcDbVertex
100
AcDb2dVertex
 10
73.79364946576356
 20
186.101424806884
 30
0.0
  0
VERTEX
  5
13E
330
138
100
AcDbEntity
  8
PIEZA
 62
     7
420
 16777215
370
     9
100
AcDbVertex
100
AcDb2dVertex
 10
73.83912475616866
 20
186.0642177510981
 30
0.0
  0
VERTEX
  5
13F
330
138
100
AcDbEntity
  8
PIEZA
 62
     7
420
 16777215
370
     9
100
AcDbVertex
100
AcDb2dVertex
 10
73.89097347742599
 20
186.0364847141465
 30
0.0
  0
VERTEX
  5
140
330
138
100
AcDbEntity
  8
PIEZA
 62
     7
420
 16777215
370
     9
100
AcDbVertex
100
AcDb2dVertex
 10
73.94712857088076
 20
186.0194314802445
 30
0.0
  0
VERTEX
  5
141
330
138
100
AcDbEntity
  8
PIEZA
 62
     7
420
 16777215
370
     9
100
AcDbVertex
100
AcDb2dVertex
 10
74.00552297787821
 20
186.013574814056
 30
0.0
  0
SEQEND
  5
142
330
138
100
AcDbEntity
  8
PIEZA
370
     9
  0
POLYLINE
  5
143
330
10B
100
AcDbEntity
  8
PIEZA
 62
     7
420
 16777215
370
     9
100
AcDb2dPolyline
 66
     1
 10
0.0
 20
0.0
 30
0.0
  0
VERTEX
  5
144
330
143
100
AcDbEntity
  8
PIEZA
 62
     7
420
 16777215
370
     9
100
AcDbVertex
100
AcDb2dVertex
 10
74.00552297787821
 20
186.013574814056
 30
0.0
  0
VERTEX
  5
145
330
143
100
AcDbEntity
  8
PIEZA
 62
     7
420
 16777215
370
     9
100
AcDbVertex
100
AcDb2dVertex
 10
76.10634359068325
 20
186.013574814056
 30
0.0
  0
SEQEND
  5
146
330
143
100
AcDbEntity
  8
PIEZA
370
     9
  0
POLYLINE
  5
147
330
10B
100
AcDbEntity
  8
PIEZA
 62
     7
420
 16777215
370
     9
100
AcDb2dPolyline
 66
     1
 10
0.0
 20
0.0
 30
0.0
  0
VERTEX
  5
148
330
147
100
AcDbEntity
  8
PIEZA
 62
     7
420
 16777215
370
     9
100
AcDbVertex
100
AcDb2dVertex
 10
76.10634359068325
 20
186.013574814056
 30
0.0
  0
VERTEX
  5
149
330
147
100
AcDbEntity
  8
PIEZA
 62
     7
420
 16777215
370
     9
100
AcDbVertex
100
AcDb2dVertex
 10
76.15888133149217
 20
186.0182256960293
 30
0.0
  0
VERTEX
  5
14A
330
147
100
AcDbEntity
  8
PIEZA
 62
     7
420
 16777215
370
     9
100
AcDbVertex
100
AcDb2dVertex
 10
76.20986877831
 20
186.032178341949
 30
0.0
  0
VERTEX
  5
14B
330
147
100
AcDbEntity
  8
PIEZA
 62
     7
420
 16777215
370
     9
100
AcDbVertex
100
AcDb2dVertex
 10
76.25775563714566
 20
186.0545714773758
 30
0.0
  0
VERTEX
  5
14C
330
147
100
AcDbEntity
  8
PIEZA
 62
     7
420
 16777215
370
     9
100
AcDbVertex
100
AcDb2dVertex
 10
76.30081935912018
 20
186.0852328474216
 30
0.0
  0
VERTEX
  5
14D
330
147
100
AcDbEntity
  8
PIEZA
 62
     7
420
 16777215
370
     9
100
AcDbVertex
100
AcDb2dVertex
 10
76.33785416001828
 20
186.1229566678713
 30
0.0
  0
VERTEX
  5
14E
330
147
100
AcDbEntity
  8
PIEZA
 62
     7
420
 16777215
370
     9
100
AcDbVertex
100
AcDb2dVertex
 10
76.36765425562464
 20
186.1665371545095
 30
0.0
  0
VERTEX
  5
14F
330
147
100
AcDbEntity
  8
PIEZA
 62
     7
420
 16777215
370
     9
100
AcDbVertex
100
AcDb2dVertex
 10
76.38935837149981
 20
186.214768523121
 30
0.0
  0
VERTEX
  5
150
330
147
100
AcDbEntity
  8
PIEZA
 62
     7
420
 16777215
370
     9
100
AcDbVertex
100
AcDb2dVertex
 10
76.40227748809217
 20
186.2659282248267
 30
0.0
  0
SEQEND
  5
151
330
147
100
AcDbEntity
  8
PIEZA
370
     9
  0
POLYLINE
  5
152
330
10B
100
AcDbEntity
  8
PIEZA
 62
     7
420
 16777215
370
     9
100
AcDb2dPolyline
 66
     1
 10
0.0
 20
0.0
 30
0.0
  0
VERTEX
  5
153
330
152
100
AcDbEntity
  8
PIEZA
 62
     7
420
 16777215
370
     9
100
AcDbVertex
100
AcDb2dVertex
 10
76.40227748809217
 20
186.2659282248267
 30
0.0
  0
VERTEX
  5
154
330
152
100
AcDbEntity
  8
PIEZA
 62
     7
420
 16777215
370
     9
100
AcDbVertex
100
AcDb2dVertex
 10
76.48547659894693
 20
186.5990691780216
 30
0.0
  0
VERTEX
  5
155
330
152
100
AcDbEntity
  8
PIEZA
 62
     7
420
 16777215
370
     9
100
AcDbVertex
100
AcDb2dVertex
 10
76.62448629348069
 20
186.9129175837719
 30
0.0
  0
VERTEX
  5
156
330
152
100
AcDbEntity
  8
PIEZA
 62
     7
420
 16777215
370
     9
100
AcDbVertex
100
AcDb2dVertex
 10
76.81500019949597
 20
187.198343933019
 30
0.0
  0
VERTEX
  5
157
330
152
100
AcDbEntity
  8
PIEZA
 62
     7
420
 16777215
370
     9
100
AcDbVertex
100
AcDb2dVertex
 10
77.05167841546793
 20
187.4470799911439
 30
0.0
  0
VERTEX
  5
158
330
152
100
AcDbEntity
  8
PIEZA
 62
     7
420
 16777215
370
     9
100
AcDbVertex
100
AcDb2dVertex
 10
77.32745849099277
 20
187.6515465430789
 30
0.0
  0
VERTEX
  5
159
330
152
100
AcDbEntity
  8
PIEZA
 62
     7
420
 16777215
370
     9
100
AcDbVertex
100
AcDb2dVertex
 10
77.63407219145137
 20
187.8058869226356
 30
0.0
  0
SEQEND
  5
15A
330
152
100
AcDbEntity
  8
PIEZA
370
     9
  0
POLYLINE
  5
15B
330
10B
100
AcDbEntity
  8
PIEZA
 62
     7
420
 16777215
370
     9
100
AcDb2dPolyline
 66
     1
 10
0.0
 20
0.0
 30
0.0
  0
VERTEX
  5
15C
330
15B
100
AcDbEntity
  8
PIEZA
 62
     7
420
 16777215
370
     9
100
AcDbVertex
100
AcDb2dVertex
 10
77.63407219145137
 20
187.8058869226356
 30
0.0
  0
VERTEX
  5
15D
330
15B
100
AcDbEntity
  8
PIEZA
 62
     7
420
 16777215
370
     9
100
AcDbVertex
100
AcDb2dVertex
 10
77.68419836382971
 20
187.8315529009324
 30
0.0
  0
VERTEX
  5
15E
330
15B
100
AcDbEntity
  8
PIEZA
 62
     7
420
 16777215
370
     9
100
AcDbVertex
100
AcDb2dVertex
 10
77.72864012490741
 20
187.8663483882878
 30
0.0
  0
VERTEX
  5
15F
330
15B
100
AcDbEntity
  8
PIEZA
 62
     7
420
 16777215
370
     9
100
AcDbVertex
100
AcDb2dVertex
 10
77.7658471806934
 20
187.9087230907107
 30
0.0
  0
VERTEX
  5
160
330
15B
100
AcDbEntity
  8
PIEZA
 62
     7
420
 16777215
370
     9
100
AcDbVertex
100
AcDb2dVertex
 10
77.79444149208447
 20
187.957298969098
 30
0.0
  0
VERTEX
  5
161
330
15B
100
AcDbEntity
  8
PIEZA
 62
     7
420
 16777215
370
     9
100
AcDbVertex
100
AcDb2dVertex
 10
77.81338952975327
 20
188.0105257294585
 30
0.0
  0
VERTEX
  5
162
330
15B
100
AcDbEntity
  8
PIEZA
 62
     7
420
 16777215
370
     9
100
AcDbVertex
100
AcDb2dVertex
 10
77.82200227414818
 20
188.0661640582496
 30
0.0
  0
VERTEX
  5
163
330
15B
100
AcDbEntity
  8
PIEZA
 62
     7
420
 16777215
370
     9
100
AcDbVertex
100
AcDb2dVertex
 10
77.82010747038129
 20
188.1226636614802
 30
0.0
  0
VERTEX
  5
164
330
15B
100
AcDbEntity
  8
PIEZA
 62
     7
420
 16777215
370
     9
100
AcDbVertex
100
AcDb2dVertex
 10
77.80770511845263
 20
188.1776129707197
 30
0.0
  0
VERTEX
  5
165
330
15B
100
AcDbEntity
  8
PIEZA
 62
     7
420
 16777215
370
     9
100
AcDbVertex
100
AcDb2dVertex
 10
77.78513972813798
 20
188.2292894370891
 30
0.0
  0
VERTEX
  5
166
330
15B
100
AcDbEntity
  8
PIEZA
 62
     7
420
 16777215
370
     9
100
AcDbVertex
100
AcDb2dVertex
 10
77.75327257387684
 20
188.2757982568216
 30
0.0
  0
SEQEND
  5
167
330
15B
100
AcDbEntity
  8
PIEZA
370
     9
  0
ENDBLK
  5
10E
330
10B
100
AcDbEntity
  8
0
100
AcDbBlockEnd
  0
BLOCK
  5
16A
330
168
100
AcDbEntity
  8
0
100
AcDbBlockBegin
  2
block 36
 70
     0
 71
     0
 10
0.0
 20
0.0
 30
0.0
  3
block 36
  1

  0
POLYLINE
  5
16C
330
168
100
AcDbEntity
  8
PIEZA
 62
     7
420
 16777215
370
     9
100
AcDb2dPolyline
 66
     1
 10
0.0
 20
0.0
 30
0.0
  0
VERTEX
  5
16D
330
16C
100
AcDbEntity
  8
PIEZA
 62
     7
420
 16777215
370
     9
100
AcDbVertex
100
AcDb2dVertex
 10
76.9390237187826
 20
185.0144964642471
 30
0.0
  0
VERTEX
  5
16E
330
16C
100
AcDbEntity
  8
PIEZA
 62
     7
420
 16777215
370
     9
100
AcDbVertex
100
AcDb2dVertex
 10
73.2062602980311
 20
185.0144964642471
 30
0.0
  0
SEQEND
  5
16F
330
16C
100
AcDbEntity
  8
PIEZA
370
     9
  0
ENDBLK
  5
16B
330
168
100
AcDbEntity
  8
0
100
AcDbBlockEnd
  0
BLOCK
  5
172
330
170
100
AcDbEntity
  8
0
100
AcDbBlockBegin
  2
block 37
 70
     0
 71
     0
 10
0.0
 20
0.0
 30
0.0
  3
block 37
  1

  0
SPLINE
  5
174
330
170
100
AcDbEntity
  8
PIEZA
 62
     7
420
 16777215
370
     9
100
AcDbSpline
210
0.0
220
0.0
230
1.0
 70
     8
 71
     3
 72
    11
 73
     7
 74
     0
 42
0.0000000001
 43
0.0000000001
 40
0.0
 40
0.0
 40
0.0
 40
0.0
 40
1.0
 40
1.0
 40
1.0
 40
2.0
 40
2.0
 40
2.0
 40
2.0
 10
72.70672112312666
 20
185.5140356391516
 30
0.0
 10
72.70672112312666
 20
185.2380833087389
 30
0.0
 10
72.93030796761838
 20
185.0144964642471
 30
0.0
 10
73.2062602980311
 20
185.0144964642471
 30
0.0
 10
73.2062602980311
 20
185.0144964642471
 30
0.0
 10
73.2062602980311
 20
185.0144964642471
 30
0.0
 10
73.2062602980311
 20
185.0144964642471
 30
0.0
  0
ENDBLK
  5
173
330
170
100
AcDbEntity
  8
0
100
AcDbBlockEnd
  0
BLOCK
  5
177
330
175
100
AcDbEntity
  8
0
100
AcDbBlockBegin
  2
block 38
 70
     0
 71
     0
 10
0.0
 20
0.0
 30
0.0
  3
block 38
  1

  0
POLYLINE
  5
179
330
175
100
AcDbEntity
  8
PIEZA
 62
     7
420
 16777215
370
     9
100
AcDb2dPolyline
 66
     1
 10
0.0
 20
0.0
 30
0.0
  0
VERTEX
  5
17A
330
179
100
AcDbEntity
  8
PIEZA
 62
     7
420
 16777215
370
     9
100
AcDbVertex
100
AcDb2dVertex
 10
85.09615393519638
 20
185.6256568065095
 30
0.0
  0
VERTEX
  5
17B
330
179
100
AcDbEntity
  8
PIEZA
 62
     7
420
 16777215
370
     9
100
AcDbVertex
100
AcDb2dVertex
 10
85.09615393519638
 20
185.0144964642471
 30
0.0
  0
SEQEND
  5
17C
330
179
100
AcDbEntity
  8
PIEZA
370
     9
  0
ENDBLK
  5
178
330
175
100
AcDbEntity
  8
0
100
AcDbBlockEnd
  0
BLOCK
  5
17F
330
17D
100
AcDbEntity
  8
0
100
AcDbBlockBegin
  2
block 39
 70
     0
 71
     0
 10
0.0
 20
0.0
 30
0.0
  3
block 39
  1

  0
POLYLINE
  5
181
330
17D
100
AcDbEntity
  8
PIEZA
 62
     7
420
 16777215
370
     9
100
AcDb2dPolyline
 66
     1
 10
0.0
 20
0.0
 30
0.0
  0
VERTEX
  5
182
330
181
100
AcDbEntity
  8
PIEZA
 62
     7
420
 16777215
370
     9
100
AcDbVertex
100
AcDb2dVertex
 10
83.79735208044482
 20
185.0144964642471
 30
0.0
  0
VERTEX
  5
183
330
181
100
AcDbEntity
  8
PIEZA
 62
     7
420
 16777215
370
     9
100
AcDbVertex
100
AcDb2dVertex
 10
83.79735208044482
 20
185.1648749813822
 30
0.0
  0
SEQEND
  5
184
330
181
100
AcDbEntity
  8
PIEZA
370
     9
  0
ENDBLK
  5
180
330
17D
100
AcDbEntity
  8
0
100
AcDbBlockEnd
  0
BLOCK
  5
187
330
185
100
AcDbEntity
  8
0
100
AcDbBlockBegin
  2
block 40
 70
     0
 71
     0
 10
0.0
 20
0.0
 30
0.0
  3
block 40
  1

  0
POLYLINE
  5
189
330
185
100
AcDbEntity
  8
PIEZA
 62
     7
420
 16777215
370
     9
100
AcDb2dPolyline
 66
     1
 10
0.0
 20
0.0
 30
0.0
  0
VERTEX
  5
18A
330
189
100
AcDbEntity
  8
PIEZA
 62
     7
420
 16777215
370
     9
100
AcDbVertex
100
AcDb2dVertex
 10
77.23633565529468
 20
185.2763238938522
 30
0.0
  0
VERTEX
  5
18B
330
189
100
AcDbEntity
  8
PIEZA
 62
     7
420
 16777215
370
     9
100
AcDbVertex
100
AcDb2dVertex
 10
77.39050377996347
 20
186.1096930415032
 30
0.0
  0
SEQEND
  5
18C
330
189
100
AcDbEntity
  8
PIEZA
370
     9
  0
ENDBLK
  5
188
330
185
100
AcDbEntity
  8
0
100
AcDbBlockEnd
  0
BLOCK
  5
18F
330
18D
100
AcDbEntity
  8
0
100
AcDbBlockBegin
  2
block 41
 70
     0
 71
     0
 10
0.0
 20
0.0
 30
0.0
  3
block 41
  1

  0
SPLINE
  5
191
330
18D
100
AcDbEntity
  8
PIEZA
 62
     7
420
 16777215
370
     9
100
AcDbSpline
210
0.0
220
0.0
230
1.0
 70
     8
 71
     3
 72
     8
 73
     4
 74
     0
 42
0.0000000001
 43
0.0000000001
 40
0.0
 40
0.0
 40
0.0
 40
0.0
 40
1.0
 40
1.0
 40
1.0
 40
1.0
 10
76.9390237187826
 20
185.0144964642471
 30
0.0
 10
77.08733517726284
 20
185.0122571507044
 30
0.0
 10
77.21979918605648
 20
185.1288737098114
 30
0.0
 10
77.23633565529468
 20
185.2763238938522
 30
0.0
  0
ENDBLK
  5
190
330
18D
100
AcDbEntity
  8
0
100
AcDbBlockEnd
  0
BLOCK
  5
194
330
192
100
AcDbEntity
  8
0
100
AcDbBlockBegin
  2
block 42
 70
     0
 71
     0
 10
0.0
 20
0.0
 30
0.0
  3
block 42
  1

  0
POLYLINE
  5
196
330
192
100
AcDbEntity
  8
PIEZA
 62
     7
420
 16777215
370
     9
100
AcDb2dPolyline
 66
     1
 10
0.0
 20
0.0
 30
0.0
  0
VERTEX
  5
197
330
196
100
AcDbEntity
  8
PIEZA
 62
     7
420
 16777215
370
     9
100
AcDbVertex
100
AcDb2dVertex
 10
85.09615393519638
 20
185.0144964642471
 30
0.0
  0
VERTEX
  5
198
330
196
100
AcDbEntity
  8
PIEZA
 62
     7
420
 16777215
370
     9
100
AcDbVertex
100
AcDb2dVertex
 10
83.79735208044482
 20
185.0144964642471
 30
0.0
  0
SEQEND
  5
199
330
196
100
AcDbEntity
  8
PIEZA
370
     9
  0
ENDBLK
  5
195
330
192
100
AcDbEntity
  8
0
100
AcDbBlockEnd
  0
BLOCK
  5
19C
330
19A
100
AcDbEntity
  8
0
100
AcDbBlockBegin
  2
block 43
 70
     0
 71
     0
 10
0.0
 20
0.0
 30
0.0
  3
block 43
  1

  0
POLYLINE
  5
19E
330
19A
100
AcDbEntity
  8
PIEZA
 62
     7
420
 16777215
370
     9
100
AcDb2dPolyline
 66
     1
 10
0.0
 20
0.0
 30
0.0
  0
VERTEX
  5
19F
330
19E
100
AcDbEntity
  8
PIEZA
 62
     7
420
 16777215
370
     9
100
AcDbVertex
100
AcDb2dVertex
 10
78.63917946233668
 20
186.890868958121
 30
0.0
  0
VERTEX
  5
1A0
330
19E
100
AcDbEntity
  8
PIEZA
 62
     7
420
 16777215
370
     9
100
AcDbVertex
100
AcDb2dVertex
 10
82.80550843592765
 20
185.7390005227465
 30
0.0
  0
SEQEND
  5
1A1
330
19E
100
AcDbEntity
  8
PIEZA
370
     9
  0
ENDBLK
  5
19D
330
19A
100
AcDbEntity
  8
0
100
AcDbBlockEnd
  0
BLOCK
  5
1A4
330
1A2
100
AcDbEntity
  8
0
100
AcDbBlockBegin
  2
block 44
 70
     0
 71
     0
 10
0.0
 20
0.0
 30
0.0
  3
block 44
  1

  0
SPLINE
  5
1A6
330
1A2
100
AcDbEntity
  8
PIEZA
 62
     7
420
 16777215
370
     9
100
AcDbSpline
210
0.0
220
0.0
230
1.0
 70
     8
 71
     3
 72
    11
 73
     7
 74
     0
 42
0.0000000001
 43
0.0000000001
 40
0.0
 40
0.0
 40
0.0
 40
0.0
 40
1.0
 40
1.0
 40
1.0
 40
2.0
 40
2.0
 40
2.0
 40
2.0
 10
78.63917946233668
 20
186.890868958121
 30
0.0
 10
78.1074286233953
 20
187.0379746323859
 30
0.0
 10
77.55707425656092
 20
186.7260210304025
 30
0.0
 10
77.40996858229596
 20
186.1940979365732
 30
0.0
 10
77.40376740633162
 20
186.1730828402496
 30
0.0
 10
77.39412113260933
 20
186.1313971573783
 30
0.0
 10
77.39050377996347
 20
186.1096930415032
 30
0.0
  0
ENDBLK
  5
1A5
330
1A2
100
AcDbEntity
  8
0
100
AcDbBlockEnd
  0
BLOCK
  5
1A9
330
1A7
100
AcDbEntity
  8
0
100
AcDbBlockBegin
  2
block 45
 70
     0
 71
     0
 10
0.0
 20
0.0
 30
0.0
  3
block 45
  1

  0
POLYLINE
  5
1AB
330
1A7
100
AcDbEntity
  8
PIEZA
 62
     7
420
 16777215
370
     9
100
AcDb2dPolyline
 66
     1
 10
0.0
 20
0.0
 30
0.0
  0
VERTEX
  5
1AC
330
1AB
100
AcDbEntity
  8
PIEZA
 62
     7
420
 16777215
370
     9
100
AcDbVertex
100
AcDb2dVertex
 10
79.77192760515449
 20
188.0599628822852
 30
0.0
  0
VERTEX
  5
1AD
330
1AB
100
AcDbEntity
  8
PIEZA
 62
     7
420
 16777215
370
     9
100
AcDbVertex
100
AcDb2dVertex
 10
82.9369389153939
 20
187.0526162978573
 30
0.0
  0
SEQEND
  5
1AE
330
1AB
100
AcDbEntity
  8
PIEZA
370
     9
  0
ENDBLK
  5
1AA
330
1A7
100
AcDbEntity
  8
0
100
AcDbBlockEnd
  0
BLOCK
  5
1B1
330
1AF
100
AcDbEntity
  8
0
100
AcDbBlockBegin
  2
block 46
 70
     0
 71
     0
 10
0.0
 20
0.0
 30
0.0
  3
block 46
  1

  0
SPLINE
  5
1B3
330
1AF
100
AcDbEntity
  8
PIEZA
 62
     7
420
 16777215
370
     9
100
AcDbSpline
210
0.0
220
0.0
230
1.0
 70
     8
 71
     3
 72
     8
 73
     4
 74
     0
 42
0.0000000001
 43
0.0000000001
 40
0.0
 40
0.0
 40
0.0
 40
0.0
 40
1.0
 40
1.0
 40
1.0
 40
1.0
 10
78.10243323164626
 20
189.7391035295158
 30
0.0
 10
78.18959420492268
 20
188.8981551667974
 30
0.0
 10
78.93149600709974
 20
188.1519469924228
 30
0.0
 10
79.77192760515449
 20
188.0599628822852
 30
0.0
  0
ENDBLK
  5
1B2
330
1AF
100
AcDbEntity
  8
0
100
AcDbBlockEnd
  0
BLOCK
  5
1B6
330
1B4
100
AcDbEntity
  8
0
100
AcDbBlockBegin
  2
block 47
 70
     0
 71
     0
 10
0.0
 20
0.0
 30
0.0
  3
block 47
  1

  0
POLYLINE
  5
1B8
330
1B4
100
AcDbEntity
  8
PIEZA
 62
     7
420
 16777215
370
     9
100
AcDb2dPolyline
 66
     1
 10
0.0
 20
0.0
 30
0.0
  0
VERTEX
  5
1B9
330
1B8
100
AcDbEntity
  8
PIEZA
 62
     7
420
 16777215
370
     9
100
AcDbVertex
100
AcDb2dVertex
 10
83.42614279702445
 20
186.8805336648471
 30
0.0
  0
VERTEX
  5
1BA
330
1B8
100
AcDbEntity
  8
PIEZA
 62
     7
420
 16777215
370
     9
100
AcDbVertex
100
AcDb2dVertex
 10
84.84690111240785
 20
186.0580165751337
 30
0.0
  0
SEQEND
  5
1BB
330
1B8
100
AcDbEntity
  8
PIEZA
370
     9
  0
ENDBLK
  5
1B7
330
1B4
100
AcDbEntity
  8
0
100
AcDbBlockEnd
  0
BLOCK
  5
1BE
330
1BC
100
AcDbEntity
  8
0
100
AcDbBlockBegin
  2
block 48
 70
     0
 71
     0
 10
0.0
 20
0.0
 30
0.0
  3
block 48
  1

  0
POLYLINE
  5
1C0
330
1BC
100
AcDbEntity
  8
PIEZA
 62
     7
420
 16777215
370
     9
100
AcDb2dPolyline
 66
     1
 10
0.0
 20
0.0
 30
0.0
  0
VERTEX
  5
1C1
330
1C0
100
AcDbEntity
  8
PIEZA
 62
     7
420
 16777215
370
     9
100
AcDbVertex
100
AcDb2dVertex
 10
82.80550843592765
 20
185.7390005227465
 30
0.0
  0
VERTEX
  5
1C2
330
1C0
100
AcDbEntity
  8
PIEZA
 62
     7
420
 16777215
370
     9
100
AcDbVertex
100
AcDb2dVertex
 10
83.79735208044482
 20
185.1648749813822
 30
0.0
  0
SEQEND
  5
1C3
330
1C0
100
AcDbEntity
  8
PIEZA
370
     9
  0
ENDBLK
  5
1BF
330
1BC
100
AcDbEntity
  8
0
100
AcDbBlockEnd
  0
BLOCK
  5
1C6
330
1C4
100
AcDbEntity
  8
0
100
AcDbBlockBegin
  2
block 49
 70
     0
 71
     0
 10
0.0
 20
0.0
 30
0.0
  3
block 49
  1

  0
SPLINE
  5
1C8
330
1C4
100
AcDbEntity
  8
PIEZA
 62
     7
420
 16777215
370
     9
100
AcDbSpline
210
0.0
220
0.0
230
1.0
 70
     8
 71
     3
 72
     8
 73
     4
 74
     0
 42
0.0000000001
 43
0.0000000001
 40
0.0
 40
0.0
 40
0.0
 40
0.0
 40
1.0
 40
1.0
 40
1.0
 40
1.0
 10
85.09615393519638
 20
185.6256568065095
 30
0.0
 10
85.10442216981549
 20
185.7898157146764
 30
0.0
 10
84.99297325734543
 20
185.9829134440102
 30
0.0
 10
84.84690111240785
 20
186.0580165751337
 30
0.0
  0
ENDBLK
  5
1C7
330
1C4
100
AcDbEntity
  8
0
100
AcDbBlockEnd
  0
BLOCK
  5
1CB
330
1C9
100
AcDbEntity
  8
0
100
AcDbBlockBegin
  2
block 50
 70
     0
 71
     0
 10
0.0
 20
0.0
 30
0.0
  3
block 50
  1

  0
SPLINE
  5
1CD
330
1C9
100
AcDbEntity
  8
PIEZA
 62
     7
420
 16777215
370
     9
100
AcDbSpline
210
0.0
220
0.0
230
1.0
 70
     8
 71
     3
 72
     8
 73
     4
 74
     0
 42
0.0000000001
 43
0.0000000001
 40
0.0
 40
0.0
 40
0.0
 40
0.0
 40
1.0
 40
1.0
 40
1.0
 40
1.0
 10
83.42614279702445
 20
186.8805336648471
 30
0.0
 10
83.30797594392637
 20
186.9563258155222
 30
0.0
 10
83.07663762947924
 20
187.037802377498
 30
0.0
 10
82.9369389153939
 20
187.0526162978573
 30
0.0
  0
ENDBLK
  5
1CC
330
1C9
100
AcDbEntity
  8
0
100
AcDbBlockEnd
  0
BLOCK
  5
1D0
330
1CE
100
AcDbEntity
  8
0
100
AcDbBlockBegin
  2
block 51
 70
     0
 71
     0
 10
0.0
 20
0.0
 30
0.0
  3
block 51
  1

  0
POLYLINE
  5
1D2
330
1CE
100
AcDbEntity
  8
PIEZA
 62
     7
420
 16777215
370
     9
100
AcDb2dPolyline
 66
     1
 10
0.0
 20
0.0
 30
0.0
  0
VERTEX
  5
1D3
330
1D2
100
AcDbEntity
  8
PIEZA
 62
     7
420
 16777215
370
     9
100
AcDbVertex
100
AcDb2dVertex
 10
73.2062602980311
 20
193.506145672959
 30
0.0
  0
VERTEX
  5
1D4
330
1D2
100
AcDbEntity
  8
PIEZA
 62
     7
420
 16777215
370
     9
100
AcDbVertex
100
AcDb2dVertex
 10
76.74196412702719
 20
193.3294121579756
 30
0.0
  0
SEQEND
  5
1D5
330
1D2
100
AcDbEntity
  8
PIEZA
370
     9
  0
ENDBLK
  5
1D1
330
1CE
100
AcDbEntity
  8
0
100
AcDbBlockEnd
  0
BLOCK
  5
1D8
330
1D6
100
AcDbEntity
  8
0
100
AcDbBlockBegin
  2
block 52
 70
     0
 71
     0
 10
0.0
 20
0.0
 30
0.0
  3
block 52
  1

  0
SPLINE
  5
1DA
330
1D6
100
AcDbEntity
  8
PIEZA
 62
     7
420
 16777215
370
     9
100
AcDbSpline
210
0.0
220
0.0
230
1.0
 70
     8
 71
     3
 72
    11
 73
     7
 74
     0
 42
0.0000000001
 43
0.0000000001
 40
0.0
 40
0.0
 40
0.0
 40
0.0
 40
1.0
 40
1.0
 40
1.0
 40
2.0
 40
2.0
 40
2.0
 40
2.0
 10
73.2062602980311
 20
193.506145672959
 30
0.0
 10
72.93030796761838
 20
193.506145672959
 30
0.0
 10
72.70672112312666
 20
193.2825588284673
 30
0.0
 10
72.70672112312666
 20
193.0066064980546
 30
0.0
 10
72.70672112312666
 20
193.0066064980546
 30
0.0
 10
72.70672112312666
 20
193.0066064980546
 30
0.0
 10
72.70672112312666
 20
193.0066064980546
 30
0.0
  0
ENDBLK
  5
1D9
330
1D6
100
AcDbEntity
  8
0
100
AcDbBlockEnd
  0
BLOCK
  5
1DD
330
1DB
100
AcDbEntity
  8
0
100
AcDbBlockBegin
  2
block 53
 70
     0
 71
     0
 10
0.0
 20
0.0
 30
0.0
  3
block 53
  1

  0
SPLINE
  5
1DF
330
1DB
100
AcDbEntity
  8
PIEZA
 62
     7
420
 16777215
370
     9
100
AcDbSpline
210
0.0
220
0.0
230
1.0
 70
     8
 71
     3
 72
     8
 73
     4
 74
     0
 42
0.0000000001
 43
0.0000000001
 40
0.0
 40
0.0
 40
0.0
 40
0.0
 40
1.0
 40
1.0
 40
1.0
 40
1.0
 10
77.68626542248448
 20
192.4302416431476
 30
0.0
 10
77.64681905315582
 20
192.9134166037017
 30
0.0
 10
77.2265171266845
 20
193.3137369631768
 30
0.0
 10
76.74196412702719
 20
193.3294121579756
 30
0.0
  0
ENDBLK
  5
1DE
330
1DB
100
AcDbEntity
  8
0
100
AcDbBlockEnd
  0
BLOCK
  5
1E2
330
1E0
100
AcDbEntity
  8
0
100
AcDbBlockBegin
  2
block 54
 70
     0
 71
     0
 10
0.0
 20
0.0
 30
0.0
  3
block 54
  1

  0
POLYLINE
  5
1E4
330
1E0
100
AcDbEntity
  8
PIEZA
 62
     7
420
 16777215
370
     9
100
AcDb2dPolyline
 66
     1
 10
0.0
 20
0.0
 30
0.0
  0
VERTEX
  5
1E5
330
1E4
100
AcDbEntity
  8
PIEZA
 62
     7
420
 16777215
370
     9
100
AcDbVertex
100
AcDb2dVertex
 10
145.4739037119055
 20
187.1228962921197
 30
0.0
  0
VERTEX
  5
1E6
330
1E4
100
AcDbEntity
  8
PIEZA
 62
     7
420
 16777215
370
     9
100
AcDbVertex
100
AcDb2dVertex
 10
101.2274796770762
 20
186.3014127317337
 30
0.0
  0
SEQEND
  5
1E7
330
1E4
100
AcDbEntity
  8
PIEZA
370
     9
  0
ENDBLK
  5
1E3
330
1E0
100
AcDbEntity
  8
0
100
AcDbBlockEnd
  0
BLOCK
  5
1EA
330
1E8
100
AcDbEntity
  8
0
100
AcDbBlockBegin
  2
block 55
 70
     0
 71
     0
 10
0.0
 20
0.0
 30
0.0
  3
block 55
  1

  0
POLYLINE
  5
1EC
330
1E8
100
AcDbEntity
  8
PIEZA
 62
     7
420
 16777215
370
     9
100
AcDb2dPolyline
 66
     1
 10
0.0
 20
0.0
 30
0.0
  0
VERTEX
  5
1ED
330
1EC
100
AcDbEntity
  8
PIEZA
 62
     7
420
 16777215
370
     9
100
AcDbVertex
100
AcDb2dVertex
 10
142.5245555213145
 20
188.3808737384394
 30
0.0
  0
VERTEX
  5
1EE
330
1EC
100
AcDbEntity
  8
PIEZA
 62
     7
420
 16777215
370
     9
100
AcDbVertex
100
AcDb2dVertex
 10
100.3649994533705
 20
187.5755821375159
 30
0.0
  0
SEQEND
  5
1EF
330
1EC
100
AcDbEntity
  8
PIEZA
370
     9
  0
ENDBLK
  5
1EB
330
1E8
100
AcDbEntity
  8
0
100
AcDbBlockEnd
  0
BLOCK
  5
1F2
330
1F0
100
AcDbEntity
  8
0
100
AcDbBlockBegin
  2
block 56
 70
     0
 71
     0
 10
0.0
 20
0.0
 30
0.0
  3
block 56
  1

  0
POLYLINE
  5
1F4
330
1F0
100
AcDbEntity
  8
PIEZA
 62
     7
420
 16777215
370
     9
100
AcDb2dPolyline
 66
     1
 10
0.0
 20
0.0
 30
0.0
  0
VERTEX
  5
1F5
330
1F4
100
AcDbEntity
  8
PIEZA
 62
     7
420
 16777215
370
     9
100
AcDbVertex
100
AcDb2dVertex
 10
100.3649994533705
 20
187.5755821375159
 30
0.0
  0
VERTEX
  5
1F6
330
1F4
100
AcDbEntity
  8
PIEZA
 62
     7
420
 16777215
370
     9
100
AcDbVertex
100
AcDb2dVertex
 10
93.55145736256175
 20
187.0131699285286
 30
0.0
  0
SEQEND
  5
1F7
330
1F4
100
AcDbEntity
  8
PIEZA
370
     9
  0
ENDBLK
  5
1F3
330
1F0
100
AcDbEntity
  8
0
100
AcDbBlockEnd
  0
BLOCK
  5
1FA
330
1F8
100
AcDbEntity
  8
0
100
AcDbBlockBegin
  2
block 57
 70
     0
 71
     0
 10
0.0
 20
0.0
 30
0.0
  3
block 57
  1

  0
POLYLINE
  5
1FC
330
1F8
100
AcDbEntity
  8
PIEZA
 62
     7
420
 16777215
370
     9
100
AcDb2dPolyline
 66
     1
 10
0.0
 20
0.0
 30
0.0
  0
VERTEX
  5
1FD
330
1FC
100
AcDbEntity
  8
PIEZA
 62
     7
420
 16777215
370
     9
100
AcDbVertex
100
AcDb2dVertex
 10
101.2274796770762
 20
186.3014127317337
 30
0.0
  0
VERTEX
  5
1FE
330
1FC
100
AcDbEntity
  8
PIEZA
 62
     7
420
 16777215
370
     9
100
AcDbVertex
100
AcDb2dVertex
 10
93.58160196794391
 20
185.7390005227465
 30
0.0
  0
SEQEND
  5
1FF
330
1FC
100
AcDbEntity
  8
PIEZA
370
     9
  0
ENDBLK
  5
1FB
330
1F8
100
AcDbEntity
  8
0
100
AcDbBlockEnd
  0
BLOCK
  5
202
330
200
100
AcDbEntity
  8
0
100
AcDbBlockBegin
  2
block 58
 70
     0
 71
     0
 10
0.0
 20
0.0
 30
0.0
  3
block 58
  1

  0
POLYLINE
  5
204
330
200
100
AcDbEntity
  8
PIEZA
 62
     7
420
 16777215
370
     9
100
AcDb2dPolyline
 66
     1
 10
0.0
 20
0.0
 30
0.0
  0
VERTEX
  5
205
330
204
100
AcDbEntity
  8
PIEZA
 62
     7
420
 16777215
370
     9
100
AcDbVertex
100
AcDb2dVertex
 10
92.58993057831465
 20
185.0144964642471
 30
0.0
  0
VERTEX
  5
206
330
204
100
AcDbEntity
  8
PIEZA
 62
     7
420
 16777215
370
     9
100
AcDbVertex
100
AcDb2dVertex
 10
92.58993057831465
 20
185.1648749813822
 30
0.0
  0
SEQEND
  5
207
330
204
100
AcDbEntity
  8
PIEZA
370
     9
  0
ENDBLK
  5
203
330
200
100
AcDbEntity
  8
0
100
AcDbBlockEnd
  0
BLOCK
  5
20A
330
208
100
AcDbEntity
  8
0
100
AcDbBlockBegin
  2
block 59
 70
     0
 71
     0
 10
0.0
 20
0.0
 30
0.0
  3
block 59
  1

  0
POLYLINE
  5
20C
330
208
100
AcDbEntity
  8
PIEZA
 62
     7
420
 16777215
370
     9
100
AcDb2dPolyline
 66
     1
 10
0.0
 20
0.0
 30
0.0
  0
VERTEX
  5
20D
330
20C
100
AcDbEntity
  8
PIEZA
 62
     7
420
 16777215
370
     9
100
AcDbVertex
100
AcDb2dVertex
 10
91.29095646867519
 20
185.6256568065095
 30
0.0
  0
VERTEX
  5
20E
330
20C
100
AcDbEntity
  8
PIEZA
 62
     7
420
 16777215
370
     9
100
AcDbVertex
100
AcDb2dVertex
 10
91.29095646867519
 20
185.0144964642471
 30
0.0
  0
SEQEND
  5
20F
330
20C
100
AcDbEntity
  8
PIEZA
370
     9
  0
ENDBLK
  5
20B
330
208
100
AcDbEntity
  8
0
100
AcDbBlockEnd
  0
BLOCK
  5
212
330
210
100
AcDbEntity
  8
0
100
AcDbBlockBegin
  2
block 60
 70
     0
 71
     0
 10
0.0
 20
0.0
 30
0.0
  3
block 60
  1

  0
POLYLINE
  5
214
330
210
100
AcDbEntity
  8
PIEZA
 62
     7
420
 16777215
370
     9
100
AcDb2dPolyline
 66
     1
 10
0.0
 20
0.0
 30
0.0
  0
VERTEX
  5
215
330
214
100
AcDbEntity
  8
PIEZA
 62
     7
420
 16777215
370
     9
100
AcDbVertex
100
AcDb2dVertex
 10
88.19364132937973
 20
185.0144964642471
 30
0.0
  0
VERTEX
  5
216
330
214
100
AcDbEntity
  8
PIEZA
 62
     7
420
 16777215
370
     9
100
AcDbVertex
100
AcDb2dVertex
 10
92.58993057831465
 20
185.0144964642471
 30
0.0
  0
SEQEND
  5
217
330
214
100
AcDbEntity
  8
PIEZA
370
     9
  0
ENDBLK
  5
213
330
210
100
AcDbEntity
  8
0
100
AcDbBlockEnd
  0
BLOCK
  5
21A
330
218
100
AcDbEntity
  8
0
100
AcDbBlockBegin
  2
block 61
 70
     0
 71
     0
 10
0.0
 20
0.0
 30
0.0
  3
block 61
  1

  0
POLYLINE
  5
21C
330
218
100
AcDbEntity
  8
PIEZA
 62
     7
420
 16777215
370
     9
100
AcDb2dPolyline
 66
     1
 10
0.0
 20
0.0
 30
0.0
  0
VERTEX
  5
21D
330
21C
100
AcDbEntity
  8
PIEZA
 62
     7
420
 16777215
370
     9
100
AcDbVertex
100
AcDb2dVertex
 10
92.86519388917579
 20
186.8250675909439
 30
0.0
  0
VERTEX
  5
21E
330
21C
100
AcDbEntity
  8
PIEZA
 62
     7
420
 16777215
370
     9
100
AcDbVertex
100
AcDb2dVertex
 10
91.54020929146373
 20
186.0580165751337
 30
0.0
  0
SEQEND
  5
21F
330
21C
100
AcDbEntity
  8
PIEZA
370
     9
  0
ENDBLK
  5
21B
330
218
100
AcDbEntity
  8
0
100
AcDbBlockEnd
  0
BLOCK
  5
222
330
220
100
AcDbEntity
  8
0
100
AcDbBlockBegin
  2
block 62
 70
     0
 71
     0
 10
0.0
 20
0.0
 30
0.0
  3
block 62
  1

  0
POLYLINE
  5
224
330
220
100
AcDbEntity
  8
PIEZA
 62
     7
420
 16777215
370
     9
100
AcDb2dPolyline
 66
     1
 10
0.0
 20
0.0
 30
0.0
  0
VERTEX
  5
225
330
224
100
AcDbEntity
  8
PIEZA
 62
     7
420
 16777215
370
     9
100
AcDbVertex
100
AcDb2dVertex
 10
93.58160196794391
 20
185.7390005227465
 30
0.0
  0
VERTEX
  5
226
330
224
100
AcDbEntity
  8
PIEZA
 62
     7
420
 16777215
370
     9
100
AcDbVertex
100
AcDb2dVertex
 10
92.58993057831465
 20
185.1648749813822
 30
0.0
  0
SEQEND
  5
227
330
224
100
AcDbEntity
  8
PIEZA
370
     9
  0
ENDBLK
  5
223
330
220
100
AcDbEntity
  8
0
100
AcDbBlockEnd
  0
BLOCK
  5
22A
330
228
100
AcDbEntity
  8
0
100
AcDbBlockBegin
  2
block 63
 70
     0
 71
     0
 10
0.0
 20
0.0
 30
0.0
  3
block 63
  1

  0
SPLINE
  5
22C
330
228
100
AcDbEntity
  8
PIEZA
 62
     7
420
 16777215
370
     9
100
AcDbSpline
210
0.0
220
0.0
230
1.0
 70
     8
 71
     3
 72
     8
 73
     4
 74
     0
 42
0.0000000001
 43
0.0000000001
 40
0.0
 40
0.0
 40
0.0
 40
0.0
 40
1.0
 40
1.0
 40
1.0
 40
1.0
 10
91.54020929146373
 20
186.0580165751337
 30
0.0
 10
91.39413714652615
 20
185.9829134440102
 30
0.0
 10
91.28286048894398
 20
185.7898157146764
 30
0.0
 10
91.29095646867519
 20
185.6256568065095
 30
0.0
  0
ENDBLK
  5
22B
330
228
100
AcDbEntity
  8
0
100
AcDbBlockEnd
  0
BLOCK
  5
22F
330
22D
100
AcDbEntity
  8
0
100
AcDbBlockBegin
  2
block 64
 70
     0
 71
     0
 10
0.0
 20
0.0
 30
0.0
  3
block 64
  1

  0
SPLINE
  5
231
330
22D
100
AcDbEntity
  8
PIEZA
 62
     7
420
 16777215
370
     9
100
AcDbSpline
210
0.0
220
0.0
230
1.0
 70
     8
 71
     3
 72
     8
 73
     4
 74
     0
 42
0.0000000001
 43
0.0000000001
 40
0.0
 40
0.0
 40
0.0
 40
0.0
 40
1.0
 40
1.0
 40
1.0
 40
1.0
 10
93.55145736256175
 20
187.0131699285286
 30
0.0
 10
93.35164169259997
 20
187.0221271826993
 30
0.0
 10
93.03245338532483
 20
186.9344494447592
 30
0.0
 10
92.86519388917579
 20
186.8250675909439
 30
0.0
  0
ENDBLK
  5
230
330
22D
100
AcDbEntity
  8
0
100
AcDbBlockEnd
  0
BLOCK
  5
234
330
232
100
AcDbEntity
  8
0
100
AcDbBlockBegin
  2
block 65
 70
     0
 71
     0
 10
0.0
 20
0.0
 30
0.0
  3
block 65
  1

  0
SPLINE
  5
236
330
232
100
AcDbEntity
  8
PIEZA
 62
     7
420
 16777215
370
     9
100
AcDbSpline
210
0.0
220
0.0
230
1.0
 70
     8
 71
     3
 72
     8
 73
     4
 74
     0
 42
0.0000000001
 43
0.0000000001
 40
0.0
 40
0.0
 40
0.0
 40
0.0
 40
1.0
 40
1.0
 40
1.0
 40
1.0
 10
151.113184231913
 20
192.4986268336431
 30
0.0
 10
150.1664713680252
 20
192.4984545787552
 30
0.0
 10
148.4484011161297
 20
192.2309427378495
 30
0.0
 10
147.5461300133195
 20
191.9434493299476
 30
0.0
  0
ENDBLK
  5
235
330
232
100
AcDbEntity
  8
0
100
AcDbBlockEnd
  0
BLOCK
  5
239
330
237
100
AcDbEntity
  8
0
100
AcDbBlockBegin
  2
block 66
 70
     0
 71
     0
 10
0.0
 20
0.0
 30
0.0
  3
block 66
  1

  0
SPLINE
  5
23B
330
237
100
AcDbEntity
  8
PIEZA
 62
     7
420
 16777215
370
     9
100
AcDbSpline
210
0.0
220
0.0
230
1.0
 70
     8
 71
     3
 72
     8
 73
     4
 74
     0
 42
0.0000000001
 43
0.0000000001
 40
0.0
 40
0.0
 40
0.0
 40
0.0
 40
1.0
 40
1.0
 40
1.0
 40
1.0
 10
151.6175465436786
 20
193.506145672959
 30
0.0
 10
150.4596491872277
 20
193.5492093949335
 30
0.0
 10
148.3777766120915
 20
193.26102696748
 30
0.0
 10
147.2750008197679
 20
192.9049761141947
 30
0.0
  0
ENDBLK
  5
23A
330
237
100
AcDbEntity
  8
0
100
AcDbBlockEnd
  0
BLOCK
  5
23E
330
23C
100
AcDbEntity
  8
0
100
AcDbBlockBegin
  2
block 67
 70
     0
 71
     0
 10
0.0
 20
0.0
 30
0.0
  3
block 67
  1

  0
SPLINE
  5
240
330
23C
100
AcDbEntity
  8
PIEZA
 62
     7
420
 16777215
370
     9
100
AcDbSpline
210
0.0
220
0.0
230
1.0
 70
     8
 71
     3
 72
     8
 73
     4
 74
     0
 42
0.0000000001
 43
0.0000000001
 40
0.0
 40
0.0
 40
0.0
 40
0.0
 40
1.0
 40
1.0
 40
1.0
 40
1.0
 10
147.2750008197679
 20
192.9049761141947
 30
0.0
 10
145.7474444738877
 20
192.5552986917616
 30
0.0
 10
144.2564061642419
 20
191.0346325413973
 30
0.0
 10
143.9373901118546
 20
189.500530509777
 30
0.0
  0
ENDBLK
  5
23F
330
23C
100
AcDbEntity
  8
0
100
AcDbBlockEnd
  0
BLOCK
  5
243
330
241
100
AcDbEntity
  8
0
100
AcDbBlockBegin
  2
block 68
 70
     0
 71
     0
 10
0.0
 20
0.0
 30
0.0
  3
block 68
  1

  0
SPLINE
  5
245
330
241
100
AcDbEntity
  8
PIEZA
 62
     7
420
 16777215
370
     9
100
AcDbSpline
210
0.0
220
0.0
230
1.0
 70
     8
 71
     3
 72
     8
 73
     4
 74
     0
 42
0.0000000001
 43
0.0000000001
 40
0.0
 40
0.0
 40
0.0
 40
0.0
 40
1.0
 40
1.0
 40
1.0
 40
1.0
 10
142.5245555213145
 20
188.3808737384394
 30
0.0
 10
143.1663772336228
 20
188.3770841309056
 30
0.0
 10
143.7944185548992
 20
188.8747285020432
 30
0.0
 10
143.9373901118546
 20
189.500530509777
 30
0.0
  0
ENDBLK
  5
244
330
241
100
AcDbEntity
  8
0
100
AcDbBlockEnd
  0
BLOCK
  5
248
330
246
100
AcDbEntity
  8
0
100
AcDbBlockBegin
  2
block 69
 70
     0
 71
     0
 10
0.0
 20
0.0
 30
0.0
  3
block 69
  1

  0
SPLINE
  5
24A
330
246
100
AcDbEntity
  8
PIEZA
 62
     7
420
 16777215
370
     9
100
AcDbSpline
210
0.0
220
0.0
230
1.0
 70
     8
 71
     3
 72
     8
 73
     4
 74
     0
 42
0.0000000001
 43
0.0000000001
 40
0.0
 40
0.0
 40
0.0
 40
0.0
 40
1.0
 40
1.0
 40
1.0
 40
1.0
 10
147.5461300133195
 20
191.9434493299476
 30
0.0
 10
146.010649942596
 20
191.5650053412355
 30
0.0
 10
144.7824725918826
 20
189.9969690966992
 30
0.0
 10
144.7831616114342
 20
188.4154969709069
 30
0.0
  0
ENDBLK
  5
249
330
246
100
AcDbEntity
  8
0
100
AcDbBlockEnd
  0
BLOCK
  5
24D
330
24B
100
AcDbEntity
  8
0
100
AcDbBlockBegin
  2
block 70
 70
     0
 71
     0
 10
0.0
 20
0.0
 30
0.0
  3
block 70
  1

  0
SPLINE
  5
24F
330
24B
100
AcDbEntity
  8
PIEZA
 62
     7
420
 16777215
370
     9
100
AcDbSpline
210
0.0
220
0.0
230
1.0
 70
     8
 71
     3
 72
    11
 73
     7
 74
     0
 42
0.0000000001
 43
0.0000000001
 40
0.0
 40
0.0
 40
0.0
 40
0.0
 40
1.0
 40
1.0
 40
1.0
 40
2.0
 40
2.0
 40
2.0
 40
2.0
 10
144.7831616114342
 20
188.4154969709069
 30
0.0
 10
144.7776494550215
 20
188.2501322785247
 30
0.0
 10
144.9071851307208
 20
188.1114670937668
 30
0.0
 10
145.072549823103
 20
188.1059549373541
 30
0.0
 10
145.0753059013094
 20
188.1059549373541
 30
0.0
 10
145.0801290381705
 20
188.1057826824662
 30
0.0
 10
145.0825406066011
 20
188.1057826824662
 30
0.0
  0
ENDBLK
  5
24E
330
24B
100
AcDbEntity
  8
0
100
AcDbBlockEnd
  0
BLOCK
  5
252
330
250
100
AcDbEntity
  8
0
100
AcDbBlockBegin
  2
block 71
 70
     0
 71
     0
 10
0.0
 20
0.0
 30
0.0
  3
block 71
  1

  0
SPLINE
  5
254
330
250
100
AcDbEntity
  8
PIEZA
 62
     7
420
 16777215
370
     9
100
AcDbSpline
210
0.0
220
0.0
230
1.0
 70
     8
 71
     3
 72
     8
 73
     4
 74
     0
 42
0.0000000001
 43
0.0000000001
 40
0.0
 40
0.0
 40
0.0
 40
0.0
 40
1.0
 40
1.0
 40
1.0
 40
1.0
 10
147.9009750823896
 20
185.4227405485656
 30
0.0
 10
147.971255076652
 20
185.1872681168089
 30
0.0
 10
148.2237807423106
 20
185.0058837198522
 30
0.0
 10
148.4694162124532
 20
185.0144964642471
 30
0.0
  0
ENDBLK
  5
253
330
250
100
AcDbEntity
  8
0
100
AcDbBlockEnd
  0
BLOCK
  5
257
330
255
100
AcDbEntity
  8
0
100
AcDbBlockBegin
  2
block 72
 70
     0
 71
     0
 10
0.0
 20
0.0
 30
0.0
  3
block 72
  1

  0
SPLINE
  5
259
330
255
100
AcDbEntity
  8
PIEZA
 62
     7
420
 16777215
370
     9
100
AcDbSpline
210
0.0
220
0.0
230
1.0
 70
     8
 71
     3
 72
     8
 73
     4
 74
     0
 42
0.0000000001
 43
0.0000000001
 40
0.0
 40
0.0
 40
0.0
 40
0.0
 40
1.0
 40
1.0
 40
1.0
 40
1.0
 10
147.9009750823896
 20
185.4227405485656
 30
0.0
 10
147.5995290285679
 20
186.4266420352356
 30
0.0
 10
146.5205244107743
 20
187.1823242284445
 30
0.0
 10
145.4739037119055
 20
187.1228962921197
 30
0.0
  0
ENDBLK
  5
258
330
255
100
AcDbEntity
  8
0
100
AcDbBlockEnd
  0
BLOCK
  5
25C
330
25A
100
AcDbEntity
  8
0
100
AcDbBlockBegin
  2
block 73
 70
     0
 71
     0
 10
0.0
 20
0.0
 30
0.0
  3
block 73
  1

  0
SPLINE
  5
25E
330
25A
100
AcDbEntity
  8
PIEZA
 62
     7
420
 16777215
370
     9
100
AcDbSpline
210
0.0
220
0.0
230
1.0
 70
     8
 71
     3
 72
     8
 73
     4
 74
     0
 42
0.0000000001
 43
0.0000000001
 40
0.0
 40
0.0
 40
0.0
 40
0.0
 40
1.0
 40
1.0
 40
1.0
 40
1.0
 10
148.6471832567641
 20
186.1796285259898
 30
0.0
 10
148.1493666307386
 20
187.3035916695248
 30
0.0
 10
146.7616812538316
 20
188.1621100308088
 30
0.0
 10
145.5335039031183
 20
188.1057826824662
 30
0.0
  0
ENDBLK
  5
25D
330
25A
100
AcDbEntity
  8
0
100
AcDbBlockEnd
  0
BLOCK
  5
261
330
25F
100
AcDbEntity
  8
0
100
AcDbBlockBegin
  2
block 74
 70
     0
 71
     0
 10
0.0
 20
0.0
 30
0.0
  3
block 74
  1

  0
SPLINE
  5
263
330
25F
100
AcDbEntity
  8
PIEZA
 62
     7
420
 16777215
370
     9
100
AcDbSpline
210
0.0
220
0.0
230
1.0
 70
     8
 71
     3
 72
     8
 73
     4
 74
     0
 42
0.0000000001
 43
0.0000000001
 40
0.0
 40
0.0
 40
0.0
 40
0.0
 40
1.0
 40
1.0
 40
1.0
 40
1.0
 10
148.6471832567641
 20
186.1796285259898
 30
0.0
 10
148.6899024689628
 20
186.0826490241031
 30
0.0
 10
148.809447361164
 20
186.0087516771949
 30
0.0
 10
148.9152118623335
 20
186.013574814056
 30
0.0
  0
ENDBLK
  5
262
330
25F
100
AcDbEntity
  8
0
100
AcDbBlockEnd
  0
BLOCK
  5
266
330
264
100
AcDbEntity
  8
0
100
AcDbBlockBegin
  2
block 75
 70
     0
 71
     0
 10
0.0
 20
0.0
 30
0.0
  3
block 75
  1

  0
POLYLINE
  5
268
330
264
100
AcDbEntity
  8
PIEZA
 62
     7
420
 16777215
370
     9
100
AcDb2dPolyline
 66
     1
 10
0.0
 20
0.0
 30
0.0
  0
VERTEX
  5
269
330
268
100
AcDbEntity
  8
PIEZA
 62
     7
420
 16777215
370
     9
100
AcDbVertex
100
AcDb2dVertex
 10
151.5262514530926
 20
192.1060579441234
 30
0.0
  0
VERTEX
  5
26A
330
268
100
AcDbEntity
  8
PIEZA
 62
     7
420
 16777215
370
     9
100
AcDbVertex
100
AcDb2dVertex
 10
151.6275373271767
 20
186.3186382205235
 30
0.0
  0
SEQEND
  5
26B
330
268
100
AcDbEntity
  8
PIEZA
370
     9
  0
ENDBLK
  5
267
330
264
100
AcDbEntity
  8
0
100
AcDbBlockEnd
  0
BLOCK
  5
26E
330
26C
100
AcDbEntity
  8
0
100
AcDbBlockBegin
  2
block 76
 70
     0
 71
     0
 10
0.0
 20
0.0
 30
0.0
  3
block 76
  1

  0
SPLINE
  5
270
330
26C
100
AcDbEntity
  8
PIEZA
 62
     7
420
 16777215
370
     9
100
AcDbSpline
210
0.0
220
0.0
230
1.0
 70
     8
 71
     3
 72
    11
 73
     7
 74
     0
 42
0.0000000001
 43
0.0000000001
 40
0.0
 40
0.0
 40
0.0
 40
0.0
 40
1.0
 40
1.0
 40
1.0
 40
2.0
 40
2.0
 40
2.0
 40
2.0
 10
151.327813822234
 20
186.013574814056
 30
0.0
 10
151.4931785146162
 20
186.013574814056
 30
0.0
 10
151.6275373271767
 20
186.1477613717286
 30
0.0
 10
151.6275373271767
 20
186.3132983189987
 30
0.0
 10
151.6275373271767
 20
186.3146763581019
 30
0.0
 10
151.6275373271767
 20
186.3172601814204
 30
0.0
 10
151.6275373271767
 20
186.3186382205235
 30
0.0
  0
ENDBLK
  5
26F
330
26C
100
AcDbEntity
  8
0
100
AcDbBlockEnd
  0
BLOCK
  5
273
330
271
100
AcDbEntity
  8
0
100
AcDbBlockBegin
  2
block 77
 70
     0
 71
     0
 10
0.0
 20
0.0
 30
0.0
  3
block 77
  1

  0
POLYLINE
  5
275
330
271
100
AcDbEntity
  8
PIEZA
 62
     7
420
 16777215
370
     9
100
AcDb2dPolyline
 66
     1
 10
0.0
 20
0.0
 30
0.0
  0
VERTEX
  5
276
330
275
100
AcDbEntity
  8
PIEZA
 62
     7
420
 16777215
370
     9
100
AcDbVertex
100
AcDb2dVertex
 10
152.5170615682824
 20
192.606975158131
 30
0.0
  0
VERTEX
  5
277
330
275
100
AcDbEntity
  8
PIEZA
 62
     7
420
 16777215
370
     9
100
AcDbVertex
100
AcDb2dVertex
 10
152.6390180289143
 20
185.6139434741325
 30
0.0
  0
SEQEND
  5
278
330
275
100
AcDbEntity
  8
PIEZA
370
     9
  0
ENDBLK
  5
274
330
271
100
AcDbEntity
  8
0
100
AcDbBlockEnd
  0
BLOCK
  5
27B
330
279
100
AcDbEntity
  8
0
100
AcDbBlockBegin
  2
block 78
 70
     0
 71
     0
 10
0.0
 20
0.0
 30
0.0
  3
block 78
  1

  0
SPLINE
  5
27D
330
279
100
AcDbEntity
  8
PIEZA
 62
     7
420
 16777215
370
     9
100
AcDbSpline
210
0.0
220
0.0
230
1.0
 70
     8
 71
     3
 72
    11
 73
     7
 74
     0
 42
0.0000000001
 43
0.0000000001
 40
0.0
 40
0.0
 40
0.0
 40
0.0
 40
1.0
 40
1.0
 40
1.0
 40
2.0
 40
2.0
 40
2.0
 40
2.0
 10
152.0395710190289
 20
185.0144964642471
 30
0.0
 10
152.370644913569
 20
185.0144964642471
 30
0.0
 10
152.6390180289143
 20
185.2828695795924
 30
0.0
 10
152.6390180289143
 20
185.6139434741325
 30
0.0
 10
152.6390180289143
 20
185.6139434741325
 30
0.0
 10
152.6390180289143
 20
185.6139434741325
 30
0.0
 10
152.6390180289143
 20
185.6139434741325
 30
0.0
  0
ENDBLK
  5
27C
330
279
100
AcDbEntity
  8
0
100
AcDbBlockEnd
  0
BLOCK
  5
280
330
27E
100
AcDbEntity
  8
0
100
AcDbBlockBegin
  2
block 79
 70
     0
 71
     0
 10
0.0
 20
0.0
 30
0.0
  3
block 79
  1

  0
SPLINE
  5
282
330
27E
100
AcDbEntity
  8
PIEZA
 62
     7
420
 16777215
370
     9
100
AcDbSpline
210
0.0
220
0.0
230
1.0
 70
     8
 71
     3
 72
    11
 73
     7
 74
     0
 42
0.0000000001
 43
0.0000000001
 40
0.0
 40
0.0
 40
0.0
 40
0.0
 40
1.0
 40
1.0
 40
1.0
 40
2.0
 40
2.0
 40
2.0
 40
2.0
 10
152.5170615682824
 20
192.606975158131
 30
0.0
 10
152.5170615682824
 20
193.1035859999412
 30
0.0
 10
152.1143296403767
 20
193.506145672959
 30
0.0
 10
151.6175465436786
 20
193.506145672959
 30
0.0
 10
151.6175465436786
 20
193.506145672959
 30
0.0
 10
151.6175465436786
 20
193.506145672959
 30
0.0
 10
151.6175465436786
 20
193.506145672959
 30
0.0
  0
ENDBLK
  5
281
330
27E
100
AcDbEntity
  8
0
100
AcDbBlockEnd
  0
BLOCK
  5
285
330
283
100
AcDbEntity
  8
0
100
AcDbBlockBegin
  2
block 80
 70
     0
 71
     0
 10
0.0
 20
0.0
 30
0.0
  3
block 80
  1

  0
SPLINE
  5
287
330
283
100
AcDbEntity
  8
PIEZA
 62
     7
420
 16777215
370
     9
100
AcDbSpline
210
0.0
220
0.0
230
1.0
 70
     8
 71
     3
 72
    11
 73
     7
 74
     0
 42
0.0000000001
 43
0.0000000001
 40
0.0
 40
0.0
 40
0.0
 40
0.0
 40
1.0
 40
1.0
 40
1.0
 40
2.0
 40
2.0
 40
2.0
 40
2.0
 10
151.5262514530926
 20
192.1060579441234
 30
0.0
 10
151.5224618455589
 20
192.3267164555208
 30
0.0
 10
151.3405606839385
 20
192.5025886960647
 30
0.0
 10
151.1197299176532
 20
192.4986268336431
 30
0.0
 10
151.1180073687742
 20
192.4986268336431
 30
0.0
 10
151.114906780792
 20
192.4986268336431
 30
0.0
 10
151.113184231913
 20
192.4986268336431
 30
0.0
  0
ENDBLK
  5
286
330
283
100
AcDbEntity
  8
0
100
AcDbBlockEnd
  0
BLOCK
  5
28A
330
288
100
AcDbEntity
  8
0
100
AcDbBlockBegin
  2
block 81
 70
     0
 71
     0
 10
0.0
 20
0.0
 30
0.0
  3
block 81
  1

  0
POLYLINE
  5
28C
330
288
100
AcDbEntity
  8
PIEZA
 62
     7
420
 16777215
370
     9
100
AcDb2dPolyline
 66
     1
 10
0.0
 20
0.0
 30
0.0
  0
VERTEX
  5
28D
330
28C
100
AcDbEntity
  8
PIEZA
 62
     7
420
 16777215
370
     9
100
AcDbVertex
100
AcDb2dVertex
 10
145.5335039031183
 20
188.1057826824662
 30
0.0
  0
VERTEX
  5
28E
330
28C
100
AcDbEntity
  8
PIEZA
 62
     7
420
 16777215
370
     9
100
AcDbVertex
100
AcDb2dVertex
 10
145.0825406066011
 20
188.1057826824662
 30
0.0
  0
SEQEND
  5
28F
330
28C
100
AcDbEntity
  8
PIEZA
370
     9
  0
ENDBLK
  5
28B
330
288
100
AcDbEntity
  8
0
100
AcDbBlockEnd
  0
BLOCK
  5
292
330
290
100
AcDbEntity
  8
0
100
AcDbBlockBegin
  2
block 82
 70
     0
 71
     0
 10
0.0
 20
0.0
 30
0.0
  3
block 82
  1

  0
POLYLINE
  5
294
330
290
100
AcDbEntity
  8
PIEZA
 62
     7
420
 16777215
370
     9
100
AcDb2dPolyline
 66
     1
 10
0.0
 20
0.0
 30
0.0
  0
VERTEX
  5
295
330
294
100
AcDbEntity
  8
PIEZA
 62
     7
420
 16777215
370
     9
100
AcDbVertex
100
AcDb2dVertex
 10
152.0395710190289
 20
185.0144964642471
 30
0.0
  0
VERTEX
  5
296
330
294
100
AcDbEntity
  8
PIEZA
 62
     7
420
 16777215
370
     9
100
AcDbVertex
100
AcDb2dVertex
 10
148.4694162124532
 20
185.0144964642471
 30
0.0
  0
SEQEND
  5
297
330
294
100
AcDbEntity
  8
PIEZA
370
     9
  0
ENDBLK
  5
293
330
290
100
AcDbEntity
  8
0
100
AcDbBlockEnd
  0
BLOCK
  5
29A
330
298
100
AcDbEntity
  8
0
100
AcDbBlockBegin
  2
block 83
 70
     0
 71
     0
 10
0.0
 20
0.0
 30
0.0
  3
block 83
  1

  0
POLYLINE
  5
29C
330
298
100
AcDbEntity
  8
PIEZA
 62
     7
420
 16777215
370
     9
100
AcDb2dPolyline
 66
     1
 10
0.0
 20
0.0
 30
0.0
  0
VERTEX
  5
29D
330
29C
100
AcDbEntity
  8
PIEZA
 62
     7
420
 16777215
370
     9
100
AcDbVertex
100
AcDb2dVertex
 10
151.327813822234
 20
186.013574814056
 30
0.0
  0
VERTEX
  5
29E
330
29C
100
AcDbEntity
  8
PIEZA
 62
     7
420
 16777215
370
     9
100
AcDbVertex
100
AcDb2dVertex
 10
148.9152118623335
 20
186.013574814056
 30
0.0
  0
SEQEND
  5
29F
330
29C
100
AcDbEntity
  8
PIEZA
370
     9
  0
ENDBLK
  5
29B
330
298
100
AcDbEntity
  8
0
100
AcDbBlockEnd
  0
BLOCK
  5
2A2
330
2A0
100
AcDbEntity
  8
0
100
AcDbBlockBegin
  2
block 84
 70
     0
 71
     0
 10
0.0
 20
0.0
 30
0.0
  3
block 84
  1

  0
POLYLINE
  5
2A4
330
2A0
100
AcDbEntity
  8
PIEZA
 62
     7
420
 16777215
370
     9
100
AcDb2dPolyline
 66
     1
 10
0.0
 20
0.0
 30
0.0
  0
VERTEX
  5
2A5
330
2A4
100
AcDbEntity
  8
PIEZA
 62
     7
420
 16777215
370
     9
100
AcDbVertex
100
AcDb2dVertex
 10
151.6175465436786
 20
193.506145672959
 30
0.0
  0
VERTEX
  5
2A6
330
2A4
100
AcDbEntity
  8
PIEZA
 62
     7
420
 16777215
370
     9
100
AcDbVertex
100
AcDb2dVertex
 10
73.2062602980311
 20
193.506145672959
 30
0.0
  0
SEQEND
  5
2A7
330
2A4
100
AcDbEntity
  8
PIEZA
370
     9
  0
ENDBLK
  5
2A3
330
2A0
100
AcDbEntity
  8
0
100
AcDbBlockEnd
  0
BLOCK
  5
2AB
330
2A9
100
AcDbEntity
  8
0
100
AcDbBlockBegin
  2
block 85
 70
     0
 71
     0
 10
0.0
 20
0.0
 30
0.0
  3
block 85
  1

  0
INSERT
  5
2AE
330
2A9
100
AcDbEntity
  8
COTAS
100
AcDbBlockReference
  2
block 86
 10
0.0
 20
0.0
 30
0.0
  0
INSERT
  5
2B6
330
2A9
100
AcDbEntity
  8
COTAS
100
AcDbBlockReference
  2
block 87
 10
0.0
 20
0.0
 30
0.0
  0
INSERT
  5
2BE
330
2A9
100
AcDbEntity
  8
COTAS
100
AcDbBlockReference
  2
block 88
 10
0.0
 20
0.0
 30
0.0
  0
INSERT
  5
2C6
330
2A9
100
AcDbEntity
  8
COTAS
100
AcDbBlockReference
  2
block 89
 10
0.0
 20
0.0
 30
0.0
  0
INSERT
  5
2CE
330
2A9
100
AcDbEntity
  8
COTAS
100
AcDbBlockReference
  2
block 90
 10
0.0
 20
0.0
 30
0.0
  0
INSERT
  5
2D9
330
2A9
100
AcDbEntity
  8
COTAS
100
AcDbBlockReference
  2
block 91
 10
0.0
 20
0.0
 30
0.0
  0
INSERT
  5
2E4
330
2A9
100
AcDbEntity
  8
COTAS
100
AcDbBlockReference
  2
block 92
 10
0.0
 20
0.0
 30
0.0
  0
INSERT
  5
2E9
330
2A9
100
AcDbEntity
  8
COTAS
100
AcDbBlockReference
  2
block 93
 10
0.0
 20
0.0
 30
0.0
  0
INSERT
  5
2F1
330
2A9
100
AcDbEntity
  8
COTAS
100
AcDbBlockReference
  2
block 94
 10
0.0
 20
0.0
 30
0.0
  0
INSERT
  5
2F9
330
2A9
100
AcDbEntity
  8
COTAS
100
AcDbBlockReference
  2
block 95
 10
0.0
 20
0.0
 30
0.0
  0
ENDBLK
  5
2AC
330
2A9
100
AcDbEntity
  8
0
100
AcDbBlockEnd
  0
BLOCK
  5
2AF
330
2AD
100
AcDbEntity
  8
0
100
AcDbBlockBegin
  2
block 86
 70
     0
 71
     0
 10
0.0
 20
0.0
 30
0.0
  3
block 86
  1

  0
POLYLINE
  5
2B1
330
2AD
100
AcDbEntity
  8
COTAS
 62
     7
420
 16777215
370
     9
100
AcDb2dPolyline
 66
     1
 10
0.0
 20
0.0
 30
0.0
  0
VERTEX
  5
2B2
330
2B1
100
AcDbEntity
  8
COTAS
 62
     7
420
 16777215
370
     9
100
AcDbVertex
100
AcDb2dVertex
 10
71.70747051842987
 20
157.0580449230517
 30
0.0
  0
VERTEX
  5
2B3
330
2B1
100
AcDbEntity
  8
COTAS
 62
     7
420
 16777215
370
     9
100
AcDbVertex
100
AcDb2dVertex
 10
56.02814160239463
 20
157.0580449230517
 30
0.0
  0
SEQEND
  5
2B4
330
2B1
100
AcDbEntity
  8
COTAS
370
     9
  0
ENDBLK
  5
2B0
330
2AD
100
AcDbEntity
  8
0
100
AcDbBlockEnd
  0
BLOCK
  5
2B7
330
2B5
100
AcDbEntity
  8
0
100
AcDbBlockBegin
  2
block 87
 70
     0
 71
     0
 10
0.0
 20
0.0
 30
0.0
  3
block 87
  1

  0
POLYLINE
  5
2B9
330
2B5
100
AcDbEntity
  8
COTAS
 62
     7
420
 16777215
370
     9
100
AcDb2dPolyline
 66
     1
 10
0.0
 20
0.0
 30
0.0
  0
VERTEX
  5
2BA
330
2B9
100
AcDbEntity
  8
COTAS
 62
     7
420
 16777215
370
     9
100
AcDbVertex
100
AcDb2dVertex
 10
71.70747051842987
 20
77.12574801726412
 30
0.0
  0
VERTEX
  5
2BB
330
2B9
100
AcDbEntity
  8
COTAS
 62
     7
420
 16777215
370
     9
100
AcDbVertex
100
AcDb2dVertex
 10
56.02814160239463
 20
77.12574801726412
 30
0.0
  0
SEQEND
  5
2BC
330
2B9
100
AcDbEntity
  8
COTAS
370
     9
  0
ENDBLK
  5
2B8
330
2B5
100
AcDbEntity
  8
0
100
AcDbBlockEnd
  0
BLOCK
  5
2BF
330
2BD
100
AcDbEntity
  8
0
100
AcDbBlockBegin
  2
block 88
 70
     0
 71
     0
 10
0.0
 20
0.0
 30
0.0
  3
block 88
  1

  0
POLYLINE
  5
2C1
330
2BD
100
AcDbEntity
  8
COTAS
 62
     7
420
 16777215
370
     9
100
AcDb2dPolyline
 66
     1
 10
0.0
 20
0.0
 30
0.0
  0
VERTEX
  5
2C2
330
2C1
100
AcDbEntity
  8
COTAS
 62
     7
420
 16777215
370
     9
100
AcDbVertex
100
AcDb2dVertex
 10
57.02739220709142
 20
155.2595316385078
 30
0.0
  0
VERTEX
  5
2C3
330
2C1
100
AcDbEntity
  8
COTAS
 62
     7
420
 16777215
370
     9
100
AcDbVertex
100
AcDb2dVertex
 10
57.02739220709142
 20
119.0901392972197
 30
0.0
  0
SEQEND
  5
2C4
330
2C1
100
AcDbEntity
  8
COTAS
370
     9
  0
ENDBLK
  5
2C0
330
2BD
100
AcDbEntity
  8
0
100
AcDbBlockEnd
  0
BLOCK
  5
2C7
330
2C5
100
AcDbEntity
  8
0
100
AcDbBlockBegin
  2
block 89
 70
     0
 71
     0
 10
0.0
 20
0.0
 30
0.0
  3
block 89
  1

  0
POLYLINE
  5
2C9
330
2C5
100
AcDbEntity
  8
COTAS
 62
     7
420
 16777215
370
     9
100
AcDb2dPolyline
 66
     1
 10
0.0
 20
0.0
 30
0.0
  0
VERTEX
  5
2CA
330
2C9
100
AcDbEntity
  8
COTAS
 62
     7
420
 16777215
370
     9
100
AcDbVertex
100
AcDb2dVertex
 10
57.02739220709142
 20
78.92408904692012
 30
0.0
  0
VERTEX
  5
2CB
330
2C9
100
AcDbEntity
  8
COTAS
 62
     7
420
 16777215
370
     9
100
AcDbVertex
100
AcDb2dVertex
 10
57.02739220709142
 20
115.0934813882083
 30
0.0
  0
SEQEND
  5
2CC
330
2C9
100
AcDbEntity
  8
COTAS
370
     9
  0
ENDBLK
  5
2C8
330
2C5
100
AcDbEntity
  8
0
100
AcDbBlockEnd
  0
BLOCK
  5
2CF
330
2CD
100
AcDbEntity
  8
0
100
AcDbBlockBegin
  2
block 90
 70
     0
 71
     0
 10
0.0
 20
0.0
 30
0.0
  3
block 90
  1

  0
POLYLINE
  5
2D1
330
2CD
100
AcDbEntity
  8
COTAS
370
     0
100
AcDb2dPolyline
 66
     1
 10
0.0
 20
0.0
 30
0.0
  0
VERTEX
  5
2D2
330
2D1
100
AcDbEntity
  8
COTAS
370
     0
100
AcDbVertex
100
AcDb2dVertex
 10
56.72766870214875
 20
155.2595316385078
 30
0.0
  0
VERTEX
  5
2D3
330
2D1
100
AcDbEntity
  8
COTAS
370
     0
100
AcDbVertex
100
AcDb2dVertex
 10
57.32711571203409
 20
155.2595316385078
 30
0.0
  0
VERTEX
  5
2D4
330
2D1
100
AcDbEntity
  8
COTAS
370
     0
100
AcDbVertex
100
AcDb2dVertex
 10
57.02739220709142
 20
157.0580449230517
 30
0.0
  0
VERTEX
  5
2D5
330
2D1
100
AcDbEntity
  8
COTAS
370
     0
100
AcDbVertex
100
AcDb2dVertex
 10
56.72766870214875
 20
155.2595316385078
 30
0.0
  0
SEQEND
  5
2D6
330
2D1
100
AcDbEntity
  8
COTAS
370
     0
  0
HATCH
  5
2D7
330
2CD
100
AcDbEntity
  8
COTAS
 62
     7
420
 16777215
100
AcDbHatch
 10
0.0
 20
0.0
 30
0.0
210
0.0
220
0.0
230
1.0
  2
SOLID
 70
     1
 71
     0
 91
        1
 92
        1
 93
        3
 72
     1
 10
56.72766870214875
 20
155.2595316385078
 11
57.32711571203409
 21
155.2595316385078
 72
     1
 10
57.32711571203409
 20
155.2595316385078
 11
57.02739220709142
 21
157.0580449230517
 72
     1
 10
57.02739220709142
 20
157.0580449230517
 11
56.72766870214875
 21
155.2595316385078
 97
        0
 75
     2
 76
     1
 98
        0
  0
ENDBLK
  5
2D0
330
2CD
100
AcDbEntity
  8
0
100
AcDbBlockEnd
  0
BLOCK
  5
2DA
330
2D8
100
AcDbEntity
  8
0
100
AcDbBlockBegin
  2
block 91
 70
     0
 71
     0
 10
0.0
 20
0.0
 30
0.0
  3
block 91
  1

  0
POLYLINE
  5
2DC
330
2D8
100
AcDbEntity
  8
COTAS
370
     0
100
AcDb2dPolyline
 66
     1
 10
0.0
 20
0.0
 30
0.0
  0
VERTEX
  5
2DD
330
2DC
100
AcDbEntity
  8
COTAS
370
     0
100
AcDbVertex
100
AcDb2dVertex
 10
56.72766870214875
 20
78.92408904692012
 30
0.0
  0
VERTEX
  5
2DE
330
2DC
100
AcDbEntity
  8
COTAS
370
     0
100
AcDbVertex
100
AcDb2dVertex
 10
57.32711571203409
 20
78.92408904692012
 30
0.0
  0
VERTEX
  5
2DF
330
2DC
100
AcDbEntity
  8
COTAS
370
     0
100
AcDbVertex
100
AcDb2dVertex
 10
57.02739220709142
 20
77.12574801726412
 30
0.0
  0
VERTEX
  5
2E0
330
2DC
100
AcDbEntity
  8
COTAS
370
     0
100
AcDbVertex
100
AcDb2dVertex
 10
56.72766870214875
 20
78.92408904692012
 30
0.0
  0
SEQEND
  5
2E1
330
2DC
100
AcDbEntity
  8
COTAS
370
     0
  0
HATCH
  5
2E2
330
2D8
100
AcDbEntity
  8
COTAS
 62
     7
420
 16777215
100
AcDbHatch
 10
0.0
 20
0.0
 30
0.0
210
0.0
220
0.0
230
1.0
  2
SOLID
 70
     1
 71
     0
 91
        1
 92
        1
 93
        3
 72
     1
 10
56.72766870214875
 20
78.92408904692012
 11
57.32711571203409
 21
78.92408904692012
 72
     1
 10
57.32711571203409
 20
78.92408904692012
 11
57.02739220709142
 21
77.12574801726412
 72
     1
 10
57.02739220709142
 20
77.12574801726412
 11
56.72766870214875
 21
78.92408904692012
 97
        0
 75
     2
 76
     1
 98
        0
  0
ENDBLK
  5
2DB
330
2D8
100
AcDbEntity
  8
0
100
AcDbBlockEnd
  0
BLOCK
  5
2E5
330
2E3
100
AcDbEntity
  8
0
100
AcDbBlockBegin
  2
block 92
 70
     0
 71
     0
 10
0.0
 20
0.0
 30
0.0
  3
block 92
  1

  0
MTEXT
  5
2E7
330
2E3
100
AcDbEntity
  8
COTAS
 62
     7
420
 16777215
100
AcDbMText
 10
54.17261194995647
 20
116.092904247793
 30
0.0
 40
2.398890470823883
 41
0.0
 71
     7
 72
     1
  1
\fArial|b1|i0|c0|p34;\W1;800
 73
     1
 44
1.0
  0
ENDBLK
  5
2E6
330
2E3
100
AcDbEntity
  8
0
100
AcDbBlockEnd
  0
BLOCK
  5
2EA
330
2E8
100
AcDbEntity
  8
0
100
AcDbBlockBegin
  2
block 93
 70
     0
 71
     0
 10
0.0
 20
0.0
 30
0.0
  3
block 93
  1

  0
POLYLINE
  5
2EC
330
2E8
100
AcDbEntity
  8
COTAS
 62
     7
420
 16777215
370
     9
100
AcDb2dPolyline
 66
     1
 10
0.0
 20
0.0
 30
0.0
  0
VERTEX
  5
2ED
330
2EC
100
AcDbEntity
  8
COTAS
 62
     7
420
 16777215
370
     9
100
AcDbVertex
100
AcDb2dVertex
 10
72.70672112312666
 20
157.0580449230517
 30
0.0
  0
VERTEX
  5
2EE
330
2EC
100
AcDbEntity
  8
COTAS
 62
     7
420
 16777215
370
     9
100
AcDbVertex
100
AcDb2dVertex
 10
72.70672112312666
 20
157.0580449230517
 30
0.0
  0
SEQEND
  5
2EF
330
2EC
100
AcDbEntity
  8
COTAS
370
     9
  0
ENDBLK
  5
2EB
330
2E8
100
AcDbEntity
  8
0
100
AcDbBlockEnd
  0
BLOCK
  5
2F2
330
2F0
100
AcDbEntity
  8
0
100
AcDbBlockBegin
  2
block 94
 70
     0
 71
     0
 10
0.0
 20
0.0
 30
0.0
  3
block 94
  1

  0
POLYLINE
  5
2F4
330
2F0
100
AcDbEntity
  8
COTAS
 62
     7
420
 16777215
370
     9
100
AcDb2dPolyline
 66
     1
 10
0.0
 20
0.0
 30
0.0
  0
VERTEX
  5
2F5
330
2F4
100
AcDbEntity
  8
COTAS
 62
     7
420
 16777215
370
     9
100
AcDbVertex
100
AcDb2dVertex
 10
72.70672112312666
 20
77.12574801726412
 30
0.0
  0
VERTEX
  5
2F6
330
2F4
100
AcDbEntity
  8
COTAS
 62
     7
420
 16777215
370
     9
100
AcDbVertex
100
AcDb2dVertex
 10
72.70672112312666
 20
77.12574801726412
 30
0.0
  0
SEQEND
  5
2F7
330
2F4
100
AcDbEntity
  8
COTAS
370
     9
  0
ENDBLK
  5
2F3
330
2F0
100
AcDbEntity
  8
0
100
AcDbBlockEnd
  0
BLOCK
  5
2FA
330
2F8
100
AcDbEntity
  8
0
100
AcDbBlockBegin
  2
block 95
 70
     0
 71
     0
 10
0.0
 20
0.0
 30
0.0
  3
block 95
  1

  0
POLYLINE
  5
2FC
330
2F8
100
AcDbEntity
  8
COTAS
 62
     7
420
 16777215
370
     9
100
AcDb2dPolyline
 66
     1
 10
0.0
 20
0.0
 30
0.0
  0
VERTEX
  5
2FD
330
2FC
100
AcDbEntity
  8
COTAS
 62
     7
420
 16777215
370
     9
100
AcDbVertex
100
AcDb2dVertex
 10
57.02739220709142
 20
77.12574801726412
 30
0.0
  0
VERTEX
  5
2FE
330
2FC
100
AcDbEntity
  8
COTAS
 62
     7
420
 16777215
370
     9
100
AcDbVertex
100
AcDb2dVertex
 10
57.02739220709142
 20
77.12574801726412
 30
0.0
  0
SEQEND
  5
2FF
330
2FC
100
AcDbEntity
  8
COTAS
370
     9
  0
ENDBLK
  5
2FB
330
2F8
100
AcDbEntity
  8
0
100
AcDbBlockEnd
  0
BLOCK
  5
302
330
300
100
AcDbEntity
  8
0
100
AcDbBlockBegin
  2
block 96
 70
     0
 71
     0
 10
0.0
 20
0.0
 30
0.0
  3
block 96
  1

  0
INSERT
  5
305
330
300
100
AcDbEntity
  8
COTAS
100
AcDbBlockReference
  2
block 97
 10
0.0
 20
0.0
 30
0.0
  0
INSERT
  5
30D
330
300
100
AcDbEntity
  8
COTAS
100
AcDbBlockReference
  2
block 98
 10
0.0
 20
0.0
 30
0.0
  0
INSERT
  5
315
330
300
100
AcDbEntity
  8
COTAS
100
AcDbBlockReference
  2
block 99
 10
0.0
 20
0.0
 30
0.0
  0
INSERT
  5
31D
330
300
100
AcDbEntity
  8
COTAS
100
AcDbBlockReference
  2
block 100
 10
0.0
 20
0.0
 30
0.0
  0
INSERT
  5
325
330
300
100
AcDbEntity
  8
COTAS
100
AcDbBlockReference
  2
block 101
 10
0.0
 20
0.0
 30
0.0
  0
INSERT
  5
330
330
300
100
AcDbEntity
  8
COTAS
100
AcDbBlockReference
  2
block 102
 10
0.0
 20
0.0
 30
0.0
  0
INSERT
  5
33B
330
300
100
AcDbEntity
  8
COTAS
100
AcDbBlockReference
  2
block 103
 10
0.0
 20
0.0
 30
0.0
  0
INSERT
  5
340
330
300
100
AcDbEntity
  8
COTAS
100
AcDbBlockReference
  2
block 104
 10
0.0
 20
0.0
 30
0.0
  0
INSERT
  5
348
330
300
100
AcDbEntity
  8
COTAS
100
AcDbBlockReference
  2
block 105
 10
0.0
 20
0.0
 30
0.0
  0
INSERT
  5
350
330
300
100
AcDbEntity
  8
COTAS
100
AcDbBlockReference
  2
block 106
 10
0.0
 20
0.0
 30
0.0
  0
ENDBLK
  5
303
330
300
100
AcDbEntity
  8
0
100
AcDbBlockEnd
  0
BLOCK
  5
306
330
304
100
AcDbEntity
  8
0
100
AcDbBlockBegin
  2
block 97
 70
     0
 71
     0
 10
0.0
 20
0.0
 30
0.0
  3
block 97
  1

  0
POLYLINE
  5
308
330
304
100
AcDbEntity
  8
COTAS
 62
     7
420
 16777215
370
     9
100
AcDb2dPolyline
 66
     1
 10
0.0
 20
0.0
 30
0.0
  0
VERTEX
  5
309
330
308
100
AcDbEntity
  8
COTAS
 62
     7
420
 16777215
370
     9
100
AcDbVertex
100
AcDb2dVertex
 10
72.70672112312666
 20
76.12666966745523
 30
0.0
  0
VERTEX
  5
30A
330
308
100
AcDbEntity
  8
COTAS
 62
     7
420
 16777215
370
     9
100
AcDbVertex
100
AcDb2dVertex
 10
72.70672112312666
 20
63.1985958209282
 30
0.0
  0
SEQEND
  5
30B
330
308
100
AcDbEntity
  8
COTAS
370
     9
  0
ENDBLK
  5
307
330
304
100
AcDbEntity
  8
0
100
AcDbBlockEnd
  0
BLOCK
  5
30E
330
30C
100
AcDbEntity
  8
0
100
AcDbBlockBegin
  2
block 98
 70
     0
 71
     0
 10
0.0
 20
0.0
 30
0.0
  3
block 98
  1

  0
POLYLINE
  5
310
330
30C
100
AcDbEntity
  8
COTAS
 62
     7
420
 16777215
370
     9
100
AcDb2dPolyline
 66
     1
 10
0.0
 20
0.0
 30
0.0
  0
VERTEX
  5
311
330
310
100
AcDbEntity
  8
COTAS
 62
     7
420
 16777215
370
     9
100
AcDbVertex
100
AcDb2dVertex
 10
152.6390180289143
 20
76.12666966745523
 30
0.0
  0
VERTEX
  5
312
330
310
100
AcDbEntity
  8
COTAS
 62
     7
420
 16777215
370
     9
100
AcDbVertex
100
AcDb2dVertex
 10
152.6390180289143
 20
63.1985958209282
 30
0.0
  0
SEQEND
  5
313
330
310
100
AcDbEntity
  8
COTAS
370
     9
  0
ENDBLK
  5
30F
330
30C
100
AcDbEntity
  8
0
100
AcDbBlockEnd
  0
BLOCK
  5
316
330
314
100
AcDbEntity
  8
0
100
AcDbBlockBegin
  2
block 99
 70
     0
 71
     0
 10
0.0
 20
0.0
 30
0.0
  3
block 99
  1

  0
POLYLINE
  5
318
330
314
100
AcDbEntity
  8
COTAS
 62
     7
420
 16777215
370
     9
100
AcDb2dPolyline
 66
     1
 10
0.0
 20
0.0
 30
0.0
  0
VERTEX
  5
319
330
318
100
AcDbEntity
  8
COTAS
 62
     7
420
 16777215
370
     9
100
AcDbVertex
100
AcDb2dVertex
 10
74.50523440767056
 20
64.19801868051287
 30
0.0
  0
VERTEX
  5
31A
330
318
100
AcDbEntity
  8
COTAS
 62
     7
420
 16777215
370
     9
100
AcDbVertex
100
AcDb2dVertex
 10
109.1043511908798
 20
64.19801868051287
 30
0.0
  0
SEQEND
  5
31B
330
318
100
AcDbEntity
  8
COTAS
370
     9
  0
ENDBLK
  5
317
330
314
100
AcDbEntity
  8
0
100
AcDbBlockEnd
  0
BLOCK
  5
31E
330
31C
100
AcDbEntity
  8
0
100
AcDbBlockBegin
  2
block 100
 70
     0
 71
     0
 10
0.0
 20
0.0
 30
0.0
  3
block 100
  1

  0
POLYLINE
  5
320
330
31C
100
AcDbEntity
  8
COTAS
 62
     7
420
 16777215
370
     9
100
AcDb2dPolyline
 66
     1
 10
0.0
 20
0.0
 30
0.0
  0
VERTEX
  5
321
330
320
100
AcDbEntity
  8
COTAS
 62
     7
420
 16777215
370
     9
100
AcDbVertex
100
AcDb2dVertex
 10
150.8403324894825
 20
64.19801868051287
 30
0.0
  0
VERTEX
  5
322
330
320
100
AcDbEntity
  8
COTAS
 62
     7
420
 16777215
370
     9
100
AcDbVertex
100
AcDb2dVertex
 10
116.2412157062732
 20
64.19801868051287
 30
0.0
  0
SEQEND
  5
323
330
320
100
AcDbEntity
  8
COTAS
370
     9
  0
ENDBLK
  5
31F
330
31C
100
AcDbEntity
  8
0
100
AcDbBlockEnd
  0
BLOCK
  5
326
330
324
100
AcDbEntity
  8
0
100
AcDbBlockBegin
  2
block 101
 70
     0
 71
     0
 10
0.0
 20
0.0
 30
0.0
  3
block 101
  1

  0
POLYLINE
  5
328
330
324
100
AcDbEntity
  8
COTAS
370
     0
100
AcDb2dPolyline
 66
     1
 10
0.0
 20
0.0
 30
0.0
  0
VERTEX
  5
329
330
328
100
AcDbEntity
  8
COTAS
370
     0
100
AcDbVertex
100
AcDb2dVertex
 10
74.50523440767056
 20
64.49774218545555
 30
0.0
  0
VERTEX
  5
32A
330
328
100
AcDbEntity
  8
COTAS
370
     0
100
AcDbVertex
100
AcDb2dVertex
 10
74.50523440767056
 20
63.89795066579442
 30
0.0
  0
VERTEX
  5
32B
330
328
100
AcDbEntity
  8
COTAS
370
     0
100
AcDbVertex
100
AcDb2dVertex
 10
72.70672112312666
 20
64.19801868051287
 30
0.0
  0
VERTEX
  5
32C
330
328
100
AcDbEntity
  8
COTAS
370
     0
100
AcDbVertex
100
AcDb2dVertex
 10
74.50523440767056
 20
64.49774218545555
 30
0.0
  0
SEQEND
  5
32D
330
328
100
AcDbEntity
  8
COTAS
370
     0
  0
HATCH
  5
32E
330
324
100
AcDbEntity
  8
COTAS
 62
     7
420
 16777215
100
AcDbHatch
 10
0.0
 20
0.0
 30
0.0
210
0.0
220
0.0
230
1.0
  2
SOLID
 70
     1
 71
     0
 91
        1
 92
        1
 93
        3
 72
     1
 10
74.50523440767056
 20
64.49774218545555
 11
74.50523440767056
 21
63.89795066579442
 72
     1
 10
74.50523440767056
 20
63.89795066579442
 11
72.70672112312666
 21
64.19801868051287
 72
     1
 10
72.70672112312666
 20
64.19801868051287
 11
74.50523440767056
 21
64.49774218545555
 97
        0
 75
     2
 76
     1
 98
        0
  0
ENDBLK
  5
327
330
324
100
AcDbEntity
  8
0
100
AcDbBlockEnd
  0
BLOCK
  5
331
330
32F
100
AcDbEntity
  8
0
100
AcDbBlockBegin
  2
block 102
 70
     0
 71
     0
 10
0.0
 20
0.0
 30
0.0
  3
block 102
  1

  0
POLYLINE
  5
333
330
32F
100
AcDbEntity
  8
COTAS
370
     0
100
AcDb2dPolyline
 66
     1
 10
0.0
 20
0.0
 30
0.0
  0
VERTEX
  5
334
330
333
100
AcDbEntity
  8
COTAS
370
     0
100
AcDbVertex
100
AcDb2dVertex
 10
150.8403324894825
 20
64.49774218545555
 30
0.0
  0
VERTEX
  5
335
330
333
100
AcDbEntity
  8
COTAS
370
     0
100
AcDbVertex
100
AcDb2dVertex
 10
150.8403324894825
 20
63.89795066579442
 30
0.0
  0
VERTEX
  5
336
330
333
100
AcDbEntity
  8
COTAS
370
     0
100
AcDbVertex
100
AcDb2dVertex
 10
152.6390180289143
 20
64.19801868051287
 30
0.0
  0
VERTEX
  5
337
330
333
100
AcDbEntity
  8
COTAS
370
     0
100
AcDbVertex
100
AcDb2dVertex
 10
150.8403324894825
 20
64.49774218545555
 30
0.0
  0
SEQEND
  5
338
330
333
100
AcDbEntity
  8
COTAS
370
     0
  0
HATCH
  5
339
330
32F
100
AcDbEntity
  8
COTAS
 62
     7
420
 16777215
100
AcDbHatch
 10
0.0
 20
0.0
 30
0.0
210
0.0
220
0.0
230
1.0
  2
SOLID
 70
     1
 71
     0
 91
        1
 92
        1
 93
        3
 72
     1
 10
150.8403324894825
 20
64.49774218545555
 11
150.8403324894825
 21
63.89795066579442
 72
     1
 10
150.8403324894825
 20
63.89795066579442
 11
152.6390180289143
 21
64.19801868051287
 72
     1
 10
152.6390180289143
 20
64.19801868051287
 11
150.8403324894825
 21
64.49774218545555
 97
        0
 75
     2
 76
     1
 98
        0
  0
ENDBLK
  5
332
330
32F
100
AcDbEntity
  8
0
100
AcDbBlockEnd
  0
BLOCK
  5
33C
330
33A
100
AcDbEntity
  8
0
100
AcDbBlockBegin
  2
block 103
 70
     0
 71
     0
 10
0.0
 20
0.0
 30
0.0
  3
block 103
  1

  0
MTEXT
  5
33E
330
33A
100
AcDbEntity
  8
COTAS
 62
     7
420
 16777215
100
AcDbMText
 10
109.8181754463295
 20
63.1985958209282
 30
0.0
 40
2.398890470823883
 41
0.0
 71
     7
 72
     1
  1
\fArial|b1|i0|c0|p34;\W1;800
 73
     1
 44
1.0
  0
ENDBLK
  5
33D
330
33A
100
AcDbEntity
  8
0
100
AcDbBlockEnd
  0
BLOCK
  5
341
330
33F
100
AcDbEntity
  8
0
100
AcDbBlockBegin
  2
block 104
 70
     0
 71
     0
 10
0.0
 20
0.0
 30
0.0
  3
block 104
  1

  0
POLYLINE
  5
343
330
33F
100
AcDbEntity
  8
COTAS
 62
     7
420
 16777215
370
     9
100
AcDb2dPolyline
 66
     1
 10
0.0
 20
0.0
 30
0.0
  0
VERTEX
  5
344
330
343
100
AcDbEntity
  8
COTAS
 62
     7
420
 16777215
370
     9
100
AcDbVertex
100
AcDb2dVertex
 10
72.70672112312666
 20
77.12574801726412
 30
0.0
  0
VERTEX
  5
345
330
343
100
AcDbEntity
  8
COTAS
 62
     7
420
 16777215
370
     9
100
AcDbVertex
100
AcDb2dVertex
 10
72.70672112312666
 20
77.12574801726412
 30
0.0
  0
SEQEND
  5
346
330
343
100
AcDbEntity
  8
COTAS
370
     9
  0
ENDBLK
  5
342
330
33F
100
AcDbEntity
  8
0
100
AcDbBlockEnd
  0
BLOCK
  5
349
330
347
100
AcDbEntity
  8
0
100
AcDbBlockBegin
  2
block 105
 70
     0
 71
     0
 10
0.0
 20
0.0
 30
0.0
  3
block 105
  1

  0
POLYLINE
  5
34B
330
347
100
AcDbEntity
  8
COTAS
 62
     7
420
 16777215
370
     9
100
AcDb2dPolyline
 66
     1
 10
0.0
 20
0.0
 30
0.0
  0
VERTEX
  5
34C
330
34B
100
AcDbEntity
  8
COTAS
 62
     7
420
 16777215
370
     9
100
AcDbVertex
100
AcDb2dVertex
 10
152.6390180289143
 20
77.12574801726412
 30
0.0
  0
VERTEX
  5
34D
330
34B
100
AcDbEntity
  8
COTAS
 62
     7
420
 16777215
370
     9
100
AcDbVertex
100
AcDb2dVertex
 10
152.6390180289143
 20
77.12574801726412
 30
0.0
  0
SEQEND
  5
34E
330
34B
100
AcDbEntity
  8
COTAS
370
     9
  0
ENDBLK
  5
34A
330
347
100
AcDbEntity
  8
0
100
AcDbBlockEnd
  0
BLOCK
  5
351
330
34F
100
AcDbEntity
  8
0
100
AcDbBlockBegin
  2
block 106
 70
     0
 71
     0
 10
0.0
 20
0.0
 30
0.0
  3
block 106
  1

  0
POLYLINE
  5
353
330
34F
100
AcDbEntity
  8
COTAS
 62
     7
420
 16777215
370
     9
100
AcDb2dPolyline
 66
     1
 10
0.0
 20
0.0
 30
0.0
  0
VERTEX
  5
354
330
353
100
AcDbEntity
  8
COTAS
 62
     7
420
 16777215
370
     9
100
AcDbVertex
100
AcDb2dVertex
 10
152.6390180289143
 20
64.19801868051287
 30
0.0
  0
VERTEX
  5
355
330
353
100
AcDbEntity
  8
COTAS
 62
     7
420
 16777215
370
     9
100
AcDbVertex
100
AcDb2dVertex
 10
152.6390180289143
 20
64.19801868051287
 30
0.0
  0
SEQEND
  5
356
330
353
100
AcDbEntity
  8
COTAS
370
     9
  0
ENDBLK
  5
352
330
34F
100
AcDbEntity
  8
0
100
AcDbBlockEnd
  0
BLOCK
  5
359
330
357
100
AcDbEntity
  8
0
100
AcDbBlockBegin
  2
block 107
 70
     0
 71
     0
 10
0.0
 20
0.0
 30
0.0
  3
block 107
  1

  0
INSERT
  5
35C
330
357
100
AcDbEntity
  8
COTAS
100
AcDbBlockReference
  2
block 108
 10
0.0
 20
0.0
 30
0.0
  0
INSERT
  5
364
330
357
100
AcDbEntity
  8
COTAS
100
AcDbBlockReference
  2
block 109
 10
0.0
 20
0.0
 30
0.0
  0
INSERT
  5
36C
330
357
100
AcDbEntity
  8
COTAS
100
AcDbBlockReference
  2
block 110
 10
0.0
 20
0.0
 30
0.0
  0
INSERT
  5
374
330
357
100
AcDbEntity
  8
COTAS
100
AcDbBlockReference
  2
block 111
 10
0.0
 20
0.0
 30
0.0
  0
INSERT
  5
37C
330
357
100
AcDbEntity
  8
COTAS
100
AcDbBlockReference
  2
block 112
 10
0.0
 20
0.0
 30
0.0
  0
INSERT
  5
387
330
357
100
AcDbEntity
  8
COTAS
100
AcDbBlockReference
  2
block 113
 10
0.0
 20
0.0
 30
0.0
  0
INSERT
  5
392
330
357
100
AcDbEntity
  8
COTAS
100
AcDbBlockReference
  2
block 114
 10
0.0
 20
0.0
 30
0.0
  0
INSERT
  5
397
330
357
100
AcDbEntity
  8
COTAS
100
AcDbBlockReference
  2
block 115
 10
0.0
 20
0.0
 30
0.0
  0
INSERT
  5
39F
330
357
100
AcDbEntity
  8
COTAS
100
AcDbBlockReference
  2
block 116
 10
0.0
 20
0.0
 30
0.0
  0
INSERT
  5
3A7
330
357
100
AcDbEntity
  8
COTAS
100
AcDbBlockReference
  2
block 117
 10
0.0
 20
0.0
 30
0.0
  0
ENDBLK
  5
35A
330
357
100
AcDbEntity
  8
0
100
AcDbBlockEnd
  0
BLOCK
  5
35D
330
35B
100
AcDbEntity
  8
0
100
AcDbBlockBegin
  2
block 108
 70
     0
 71
     0
 10
0.0
 20
0.0
 30
0.0
  3
block 108
  1

  0
POLYLINE
  5
35F
330
35B
100
AcDbEntity
  8
COTAS
 62
     7
420
 16777215
370
     9
100
AcDb2dPolyline
 66
     1
 10
0.0
 20
0.0
 30
0.0
  0
VERTEX
  5
360
330
35F
100
AcDbEntity
  8
COTAS
 62
     7
420
 16777215
370
     9
100
AcDbVertex
100
AcDb2dVertex
 10
91.69058780859875
 20
88.61204845208418
 30
0.0
  0
VERTEX
  5
361
330
35F
100
AcDbEntity
  8
COTAS
 62
     7
420
 16777215
370
     9
100
AcDbVertex
100
AcDb2dVertex
 10
91.69058780859875
 20
68.03516856333061
 30
0.0
  0
SEQEND
  5
362
330
35F
100
AcDbEntity
  8
COTAS
370
     9
  0
ENDBLK
  5
35E
330
35B
100
AcDbEntity
  8
0
100
AcDbBlockEnd
  0
BLOCK
  5
365
330
363
100
AcDbEntity
  8
0
100
AcDbBlockBegin
  2
block 109
 70
     0
 71
     0
 10
0.0
 20
0.0
 30
0.0
  3
block 109
  1

  0
POLYLINE
  5
367
330
363
100
AcDbEntity
  8
COTAS
 62
     7
420
 16777215
370
     9
100
AcDb2dPolyline
 66
     1
 10
0.0
 20
0.0
 30
0.0
  0
VERTEX
  5
368
330
367
100
AcDbEntity
  8
COTAS
 62
     7
420
 16777215
370
     9
100
AcDbVertex
100
AcDb2dVertex
 10
72.70672112312666
 20
76.12666966745523
 30
0.0
  0
VERTEX
  5
369
330
367
100
AcDbEntity
  8
COTAS
 62
     7
420
 16777215
370
     9
100
AcDbVertex
100
AcDb2dVertex
 10
72.70672112312666
 20
68.03516856333061
 30
0.0
  0
SEQEND
  5
36A
330
367
100
AcDbEntity
  8
COTAS
370
     9
  0
ENDBLK
  5
366
330
363
100
AcDbEntity
  8
0
100
AcDbBlockEnd
  0
BLOCK
  5
36D
330
36B
100
AcDbEntity
  8
0
100
AcDbBlockBegin
  2
block 110
 70
     0
 71
     0
 10
0.0
 20
0.0
 30
0.0
  3
block 110
  1

  0
POLYLINE
  5
36F
330
36B
100
AcDbEntity
  8
COTAS
 62
     7
420
 16777215
370
     9
100
AcDb2dPolyline
 66
     1
 10
0.0
 20
0.0
 30
0.0
  0
VERTEX
  5
370
330
36F
100
AcDbEntity
  8
COTAS
 62
     7
420
 16777215
370
     9
100
AcDbVertex
100
AcDb2dVertex
 10
89.89207452405485
 20
69.0345914229153
 30
0.0
  0
VERTEX
  5
371
330
36F
100
AcDbEntity
  8
COTAS
 62
     7
420
 16777215
370
     9
100
AcDbVertex
100
AcDb2dVertex
 10
85.62428742149191
 20
69.0345914229153
 30
0.0
  0
SEQEND
  5
372
330
36F
100
AcDbEntity
  8
COTAS
370
     9
  0
ENDBLK
  5
36E
330
36B
100
AcDbEntity
  8
0
100
AcDbBlockEnd
  0
BLOCK
  5
375
330
373
100
AcDbEntity
  8
0
100
AcDbBlockBegin
  2
block 111
 70
     0
 71
     0
 10
0.0
 20
0.0
 30
0.0
  3
block 111
  1

  0
POLYLINE
  5
377
330
373
100
AcDbEntity
  8
COTAS
 62
     7
420
 16777215
370
     9
100
AcDb2dPolyline
 66
     1
 10
0.0
 20
0.0
 30
0.0
  0
VERTEX
  5
378
330
377
100
AcDbEntity
  8
COTAS
 62
     7
420
 16777215
370
     9
100
AcDbVertex
100
AcDb2dVertex
 10
74.50523440767056
 20
69.0345914229153
 30
0.0
  0
VERTEX
  5
379
330
377
100
AcDbEntity
  8
COTAS
 62
     7
420
 16777215
370
     9
100
AcDbVertex
100
AcDb2dVertex
 10
78.77302151023349
 20
69.0345914229153
 30
0.0
  0
SEQEND
  5
37A
330
377
100
AcDbEntity
  8
COTAS
370
     9
  0
ENDBLK
  5
376
330
373
100
AcDbEntity
  8
0
100
AcDbBlockEnd
  0
BLOCK
  5
37D
330
37B
100
AcDbEntity
  8
0
100
AcDbBlockBegin
  2
block 112
 70
     0
 71
     0
 10
0.0
 20
0.0
 30
0.0
  3
block 112
  1

  0
POLYLINE
  5
37F
330
37B
100
AcDbEntity
  8
COTAS
370
     0
100
AcDb2dPolyline
 66
     1
 10
0.0
 20
0.0
 30
0.0
  0
VERTEX
  5
380
330
37F
100
AcDbEntity
  8
COTAS
370
     0
100
AcDbVertex
100
AcDb2dVertex
 10
89.89207452405485
 20
69.33431492785796
 30
0.0
  0
VERTEX
  5
381
330
37F
100
AcDbEntity
  8
COTAS
370
     0
100
AcDbVertex
100
AcDb2dVertex
 10
89.89207452405485
 20
68.73486791797262
 30
0.0
  0
VERTEX
  5
382
330
37F
100
AcDbEntity
  8
COTAS
370
     0
100
AcDbVertex
100
AcDb2dVertex
 10
91.69058780859875
 20
69.0345914229153
 30
0.0
  0
VERTEX
  5
383
330
37F
100
AcDbEntity
  8
COTAS
370
     0
100
AcDbVertex
100
AcDb2dVertex
 10
89.89207452405485
 20
69.33431492785796
 30
0.0
  0
SEQEND
  5
384
330
37F
100
AcDbEntity
  8
COTAS
370
     0
  0
HATCH
  5
385
330
37B
100
AcDbEntity
  8
COTAS
 62
     7
420
 16777215
100
AcDbHatch
 10
0.0
 20
0.0
 30
0.0
210
0.0
220
0.0
230
1.0
  2
SOLID
 70
     1
 71
     0
 91
        1
 92
        1
 93
        3
 72
     1
 10
89.89207452405485
 20
69.33431492785796
 11
89.89207452405485
 21
68.73486791797262
 72
     1
 10
89.89207452405485
 20
68.73486791797262
 11
91.69058780859875
 21
69.0345914229153
 72
     1
 10
91.69058780859875
 20
69.0345914229153
 11
89.89207452405485
 21
69.33431492785796
 97
        0
 75
     2
 76
     1
 98
        0
  0
ENDBLK
  5
37E
330
37B
100
AcDbEntity
  8
0
100
AcDbBlockEnd
  0
BLOCK
  5
388
330
386
100
AcDbEntity
  8
0
100
AcDbBlockBegin
  2
block 113
 70
     0
 71
     0
 10
0.0
 20
0.0
 30
0.0
  3
block 113
  1

  0
POLYLINE
  5
38A
330
386
100
AcDbEntity
  8
COTAS
370
     0
100
AcDb2dPolyline
 66
     1
 10
0.0
 20
0.0
 30
0.0
  0
VERTEX
  5
38B
330
38A
100
AcDbEntity
  8
COTAS
370
     0
100
AcDbVertex
100
AcDb2dVertex
 10
74.50523440767056
 20
69.33431492785796
 30
0.0
  0
VERTEX
  5
38C
330
38A
100
AcDbEntity
  8
COTAS
370
     0
100
AcDbVertex
100
AcDb2dVertex
 10
74.50523440767056
 20
68.73486791797262
 30
0.0
  0
VERTEX
  5
38D
330
38A
100
AcDbEntity
  8
COTAS
370
     0
100
AcDbVertex
100
AcDb2dVertex
 10
72.70672112312666
 20
69.0345914229153
 30
0.0
  0
VERTEX
  5
38E
330
38A
100
AcDbEntity
  8
COTAS
370
     0
100
AcDbVertex
100
AcDb2dVertex
 10
74.50523440767056
 20
69.33431492785796
 30
0.0
  0
SEQEND
  5
38F
330
38A
100
AcDbEntity
  8
COTAS
370
     0
  0
HATCH
  5
390
330
386
100
AcDbEntity
  8
COTAS
 62
     7
420
 16777215
100
AcDbHatch
 10
0.0
 20
0.0
 30
0.0
210
0.0
220
0.0
230
1.0
  2
SOLID
 70
     1
 71
     0
 91
        1
 92
        1
 93
        3
 72
     1
 10
74.50523440767056
 20
69.33431492785796
 11
74.50523440767056
 21
68.73486791797262
 72
     1
 10
74.50523440767056
 20
68.73486791797262
 11
72.70672112312666
 21
69.0345914229153
 72
     1
 10
72.70672112312666
 20
69.0345914229153
 11
74.50523440767056
 21
69.33431492785796
 97
        0
 75
     2
 76
     1
 98
        0
  0
ENDBLK
  5
389
330
386
100
AcDbEntity
  8
0
100
AcDbBlockEnd
  0
BLOCK
  5
393
330
391
100
AcDbEntity
  8
0
100
AcDbBlockBegin
  2
block 114
 70
     0
 71
     0
 10
0.0
 20
0.0
 30
0.0
  3
block 114
  1

  0
MTEXT
  5
395
330
391
100
AcDbEntity
  8
COTAS
 62
     7
420
 16777215
100
AcDbMText
 10
79.20124716154814
 20
68.03516856333061
 30
0.0
 40
2.398890470823883
 41
0.0
 71
     7
 72
     1
  1
\fArial|b1|i0|c0|p34;\W1;190
 73
     1
 44
1.0
  0
ENDBLK
  5
394
330
391
100
AcDbEntity
  8
0
100
AcDbBlockEnd
  0
BLOCK
  5
398
330
396
100
AcDbEntity
  8
0
100
AcDbBlockBegin
  2
block 115
 70
     0
 71
     0
 10
0.0
 20
0.0
 30
0.0
  3
block 115
  1

  0
POLYLINE
  5
39A
330
396
100
AcDbEntity
  8
COTAS
 62
     7
420
 16777215
370
     9
100
AcDb2dPolyline
 66
     1
 10
0.0
 20
0.0
 30
0.0
  0
VERTEX
  5
39B
330
39A
100
AcDbEntity
  8
COTAS
 62
     7
420
 16777215
370
     9
100
AcDbVertex
100
AcDb2dVertex
 10
91.69058780859875
 20
89.61147131166886
 30
0.0
  0
VERTEX
  5
39C
330
39A
100
AcDbEntity
  8
COTAS
 62
     7
420
 16777215
370
     9
100
AcDbVertex
100
AcDb2dVertex
 10
91.69058780859875
 20
89.61147131166886
 30
0.0
  0
SEQEND
  5
39D
330
39A
100
AcDbEntity
  8
COTAS
370
     9
  0
ENDBLK
  5
399
330
396
100
AcDbEntity
  8
0
100
AcDbBlockEnd
  0
BLOCK
  5
3A0
330
39E
100
AcDbEntity
  8
0
100
AcDbBlockBegin
  2
block 116
 70
     0
 71
     0
 10
0.0
 20
0.0
 30
0.0
  3
block 116
  1

  0
POLYLINE
  5
3A2
330
39E
100
AcDbEntity
  8
COTAS
 62
     7
420
 16777215
370
     9
100
AcDb2dPolyline
 66
     1
 10
0.0
 20
0.0
 30
0.0
  0
VERTEX
  5
3A3
330
3A2
100
AcDbEntity
  8
COTAS
 62
     7
420
 16777215
370
     9
100
AcDbVertex
100
AcDb2dVertex
 10
72.70672112312666
 20
77.12574801726412
 30
0.0
  0
VERTEX
  5
3A4
330
3A2
100
AcDbEntity
  8
COTAS
 62
     7
420
 16777215
370
     9
100
AcDbVertex
100
AcDb2dVertex
 10
72.70672112312666
 20
77.12574801726412
 30
0.0
  0
SEQEND
  5
3A5
330
3A2
100
AcDbEntity
  8
COTAS
370
     9
  0
ENDBLK
  5
3A1
330
39E
100
AcDbEntity
  8
0
100
AcDbBlockEnd
  0
BLOCK
  5
3A8
330
3A6
100
AcDbEntity
  8
0
100
AcDbBlockBegin
  2
block 117
 70
     0
 71
     0
 10
0.0
 20
0.0
 30
0.0
  3
block 117
  1

  0
POLYLINE
  5
3AA
330
3A6
100
AcDbEntity
  8
COTAS
 62
     7
420
 16777215
370
     9
100
AcDb2dPolyline
 66
     1
 10
0.0
 20
0.0
 30
0.0
  0
VERTEX
  5
3AB
330
3AA
100
AcDbEntity
  8
COTAS
 62
     7
420
 16777215
370
     9
100
AcDbVertex
100
AcDb2dVertex
 10
72.70672112312666
 20
69.0345914229153
 30
0.0
  0
VERTEX
  5
3AC
330
3AA
100
AcDbEntity
  8
COTAS
 62
     7
420
 16777215
370
     9
100
AcDbVertex
100
AcDb2dVertex
 10
72.70672112312666
 20
69.0345914229153
 30
0.0
  0
SEQEND
  5
3AD
330
3AA
100
AcDbEntity
  8
COTAS
370
     9
  0
ENDBLK
  5
3A9
330
3A6
100
AcDbEntity
  8
0
100
AcDbBlockEnd
  0
BLOCK
  5
3B0
330
3AE
100
AcDbEntity
  8
0
100
AcDbBlockBegin
  2
block 118
 70
     0
 71
     0
 10
0.0
 20
0.0
 30
0.0
  3
block 118
  1

  0
INSERT
  5
3B3
330
3AE
100
AcDbEntity
  8
COTAS
100
AcDbBlockReference
  2
block 119
 10
0.0
 20
0.0
 30
0.0
  0
INSERT
  5
3BB
330
3AE
100
AcDbEntity
  8
COTAS
100
AcDbBlockReference
  2
block 120
 10
0.0
 20
0.0
 30
0.0
  0
INSERT
  5
3C3
330
3AE
100
AcDbEntity
  8
COTAS
100
AcDbBlockReference
  2
block 121
 10
0.0
 20
0.0
 30
0.0
  0
INSERT
  5
3CB
330
3AE
100
AcDbEntity
  8
COTAS
100
AcDbBlockReference
  2
block 122
 10
0.0
 20
0.0
 30
0.0
  0
INSERT
  5
3D3
330
3AE
100
AcDbEntity
  8
COTAS
100
AcDbBlockReference
  2
block 123
 10
0.0
 20
0.0
 30
0.0
  0
INSERT
  5
3DE
330
3AE
100
AcDbEntity
  8
COTAS
100
AcDbBlockReference
  2
block 124
 10
0.0
 20
0.0
 30
0.0
  0
INSERT
  5
3E9
330
3AE
100
AcDbEntity
  8
COTAS
100
AcDbBlockReference
  2
block 125
 10
0.0
 20
0.0
 30
0.0
  0
INSERT
  5
3EE
330
3AE
100
AcDbEntity
  8
COTAS
100
AcDbBlockReference
  2
block 126
 10
0.0
 20
0.0
 30
0.0
  0
INSERT
  5
3F6
330
3AE
100
AcDbEntity
  8
COTAS
100
AcDbBlockReference
  2
block 127
 10
0.0
 20
0.0
 30
0.0
  0
INSERT
  5
3FE
330
3AE
100
AcDbEntity
  8
COTAS
100
AcDbBlockReference
  2
block 128
 10
0.0
 20
0.0
 30
0.0
  0
ENDBLK
  5
3B1
330
3AE
100
AcDbEntity
  8
0
100
AcDbBlockEnd
  0
BLOCK
  5
3B4
330
3B2
100
AcDbEntity
  8
0
100
AcDbBlockBegin
  2
block 119
 70
     0
 71
     0
 10
0.0
 20
0.0
 30
0.0
  3
block 119
  1

  0
POLYLINE
  5
3B6
330
3B2
100
AcDbEntity
  8
COTAS
 62
     7
420
 16777215
370
     9
100
AcDb2dPolyline
 66
     1
 10
0.0
 20
0.0
 30
0.0
  0
VERTEX
  5
3B7
330
3B6
100
AcDbEntity
  8
COTAS
 62
     7
420
 16777215
370
     9
100
AcDbVertex
100
AcDb2dVertex
 10
84.19302155794672
 20
96.10961470273621
 30
0.0
  0
VERTEX
  5
3B8
330
3B6
100
AcDbEntity
  8
COTAS
 62
     7
420
 16777215
370
     9
100
AcDbVertex
100
AcDb2dVertex
 10
61.5973143830276
 20
96.10961470273621
 30
0.0
  0
SEQEND
  5
3B9
330
3B6
100
AcDbEntity
  8
COTAS
370
     9
  0
ENDBLK
  5
3B5
330
3B2
100
AcDbEntity
  8
0
100
AcDbBlockEnd
  0
BLOCK
  5
3BC
330
3BA
100
AcDbEntity
  8
0
100
AcDbBlockBegin
  2
block 120
 70
     0
 71
     0
 10
0.0
 20
0.0
 30
0.0
  3
block 120
  1

  0
POLYLINE
  5
3BE
330
3BA
100
AcDbEntity
  8
COTAS
 62
     7
420
 16777215
370
     9
100
AcDb2dPolyline
 66
     1
 10
0.0
 20
0.0
 30
0.0
  0
VERTEX
  5
3BF
330
3BE
100
AcDbEntity
  8
COTAS
 62
     7
420
 16777215
370
     9
100
AcDbVertex
100
AcDb2dVertex
 10
71.70747051842987
 20
77.12574801726412
 30
0.0
  0
VERTEX
  5
3C0
330
3BE
100
AcDbEntity
  8
COTAS
 62
     7
420
 16777215
370
     9
100
AcDbVertex
100
AcDb2dVertex
 10
61.5973143830276
 20
77.12574801726412
 30
0.0
  0
SEQEND
  5
3C1
330
3BE
100
AcDbEntity
  8
COTAS
370
     9
  0
ENDBLK
  5
3BD
330
3BA
100
AcDbEntity
  8
0
100
AcDbBlockEnd
  0
BLOCK
  5
3C4
330
3C2
100
AcDbEntity
  8
0
100
AcDbBlockBegin
  2
block 121
 70
     0
 71
     0
 10
0.0
 20
0.0
 30
0.0
  3
block 121
  1

  0
POLYLINE
  5
3C6
330
3C2
100
AcDbEntity
  8
COTAS
 62
     7
420
 16777215
370
     9
100
AcDb2dPolyline
 66
     1
 10
0.0
 20
0.0
 30
0.0
  0
VERTEX
  5
3C7
330
3C6
100
AcDbEntity
  8
COTAS
 62
     7
420
 16777215
370
     9
100
AcDbVertex
100
AcDb2dVertex
 10
62.59639273283649
 20
94.31127367308021
 30
0.0
  0
VERTEX
  5
3C8
330
3C6
100
AcDbEntity
  8
COTAS
 62
     7
420
 16777215
370
     9
100
AcDbVertex
100
AcDb2dVertex
 10
62.59639273283649
 20
88.61618256939373
 30
0.0
  0
SEQEND
  5
3C9
330
3C6
100
AcDbEntity
  8
COTAS
370
     9
  0
ENDBLK
  5
3C5
330
3C2
100
AcDbEntity
  8
0
100
AcDbBlockEnd
  0
BLOCK
  5
3CC
330
3CA
100
AcDbEntity
  8
0
100
AcDbBlockBegin
  2
block 122
 70
     0
 71
     0
 10
0.0
 20
0.0
 30
0.0
  3
block 122
  1

  0
POLYLINE
  5
3CE
330
3CA
100
AcDbEntity
  8
COTAS
 62
     7
420
 16777215
370
     9
100
AcDb2dPolyline
 66
     1
 10
0.0
 20
0.0
 30
0.0
  0
VERTEX
  5
3CF
330
3CE
100
AcDbEntity
  8
COTAS
 62
     7
420
 16777215
370
     9
100
AcDbVertex
100
AcDb2dVertex
 10
62.59639273283649
 20
78.92408904692012
 30
0.0
  0
VERTEX
  5
3D0
330
3CE
100
AcDbEntity
  8
COTAS
 62
     7
420
 16777215
370
     9
100
AcDbVertex
100
AcDb2dVertex
 10
62.59639273283649
 20
84.61952466038238
 30
0.0
  0
SEQEND
  5
3D1
330
3CE
100
AcDbEntity
  8
COTAS
370
     9
  0
ENDBLK
  5
3CD
330
3CA
100
AcDbEntity
  8
0
100
AcDbBlockEnd
  0
BLOCK
  5
3D4
330
3D2
100
AcDbEntity
  8
0
100
AcDbBlockBegin
  2
block 123
 70
     0
 71
     0
 10
0.0
 20
0.0
 30
0.0
  3
block 123
  1

  0
POLYLINE
  5
3D6
330
3D2
100
AcDbEntity
  8
COTAS
370
     0
100
AcDb2dPolyline
 66
     1
 10
0.0
 20
0.0
 30
0.0
  0
VERTEX
  5
3D7
330
3D6
100
AcDbEntity
  8
COTAS
370
     0
100
AcDbVertex
100
AcDb2dVertex
 10
62.29666922789382
 20
94.31127367308021
 30
0.0
  0
VERTEX
  5
3D8
330
3D6
100
AcDbEntity
  8
COTAS
370
     0
100
AcDbVertex
100
AcDb2dVertex
 10
62.89611623777916
 20
94.31127367308021
 30
0.0
  0
VERTEX
  5
3D9
330
3D6
100
AcDbEntity
  8
COTAS
370
     0
100
AcDbVertex
100
AcDb2dVertex
 10
62.59639273283649
 20
96.10961470273621
 30
0.0
  0
VERTEX
  5
3DA
330
3D6
100
AcDbEntity
  8
COTAS
370
     0
100
AcDbVertex
100
AcDb2dVertex
 10
62.29666922789382
 20
94.31127367308021
 30
0.0
  0
SEQEND
  5
3DB
330
3D6
100
AcDbEntity
  8
COTAS
370
     0
  0
HATCH
  5
3DC
330
3D2
100
AcDbEntity
  8
COTAS
 62
     7
420
 16777215
100
AcDbHatch
 10
0.0
 20
0.0
 30
0.0
210
0.0
220
0.0
230
1.0
  2
SOLID
 70
     1
 71
     0
 91
        1
 92
        1
 93
        3
 72
     1
 10
62.29666922789382
 20
94.31127367308021
 11
62.89611623777916
 21
94.31127367308021
 72
     1
 10
62.89611623777916
 20
94.31127367308021
 11
62.59639273283649
 21
96.10961470273621
 72
     1
 10
62.59639273283649
 20
96.10961470273621
 11
62.29666922789382
 21
94.31127367308021
 97
        0
 75
     2
 76
     1
 98
        0
  0
ENDBLK
  5
3D5
330
3D2
100
AcDbEntity
  8
0
100
AcDbBlockEnd
  0
BLOCK
  5
3DF
330
3DD
100
AcDbEntity
  8
0
100
AcDbBlockBegin
  2
block 124
 70
     0
 71
     0
 10
0.0
 20
0.0
 30
0.0
  3
block 124
  1

  0
POLYLINE
  5
3E1
330
3DD
100
AcDbEntity
  8
COTAS
370
     0
100
AcDb2dPolyline
 66
     1
 10
0.0
 20
0.0
 30
0.0
  0
VERTEX
  5
3E2
330
3E1
100
AcDbEntity
  8
COTAS
370
     0
100
AcDbVertex
100
AcDb2dVertex
 10
62.29666922789382
 20
78.92408904692012
 30
0.0
  0
VERTEX
  5
3E3
330
3E1
100
AcDbEntity
  8
COTAS
370
     0
100
AcDbVertex
100
AcDb2dVertex
 10
62.89611623777916
 20
78.92408904692012
 30
0.0
  0
VERTEX
  5
3E4
330
3E1
100
AcDbEntity
  8
COTAS
370
     0
100
AcDbVertex
100
AcDb2dVertex
 10
62.59639273283649
 20
77.12574801726412
 30
0.0
  0
VERTEX
  5
3E5
330
3E1
100
AcDbEntity
  8
COTAS
370
     0
100
AcDbVertex
100
AcDb2dVertex
 10
62.29666922789382
 20
78.92408904692012
 30
0.0
  0
SEQEND
  5
3E6
330
3E1
100
AcDbEntity
  8
COTAS
370
     0
  0
HATCH
  5
3E7
330
3DD
100
AcDbEntity
  8
COTAS
 62
     7
420
 16777215
100
AcDbHatch
 10
0.0
 20
0.0
 30
0.0
210
0.0
220
0.0
230
1.0
  2
SOLID
 70
     1
 71
     0
 91
        1
 92
        1
 93
        3
 72
     1
 10
62.29666922789382
 20
78.92408904692012
 11
62.89611623777916
 21
78.92408904692012
 72
     1
 10
62.89611623777916
 20
78.92408904692012
 11
62.59639273283649
 21
77.12574801726412
 72
     1
 10
62.59639273283649
 20
77.12574801726412
 11
62.29666922789382
 21
78.92408904692012
 97
        0
 75
     2
 76
     1
 98
        0
  0
ENDBLK
  5
3E0
330
3DD
100
AcDbEntity
  8
0
100
AcDbBlockEnd
  0
BLOCK
  5
3EA
330
3E8
100
AcDbEntity
  8
0
100
AcDbBlockBegin
  2
block 125
 70
     0
 71
     0
 10
0.0
 20
0.0
 30
0.0
  3
block 125
  1

  0
MTEXT
  5
3EC
330
3E8
100
AcDbEntity
  8
COTAS
 62
     7
420
 16777215
100
AcDbMText
 10
59.59898542852192
 20
85.61860301019126
 30
0.0
 40
2.398890470823883
 41
0.0
 71
     7
 72
     1
  1
\fArial|b1|i0|c0|p34;\W1;190
 73
     1
 44
1.0
  0
ENDBLK
  5
3EB
330
3E8
100
AcDbEntity
  8
0
100
AcDbBlockEnd
  0
BLOCK
  5
3EF
330
3ED
100
AcDbEntity
  8
0
100
AcDbBlockBegin
  2
block 126
 70
     0
 71
     0
 10
0.0
 20
0.0
 30
0.0
  3
block 126
  1

  0
POLYLINE
  5
3F1
330
3ED
100
AcDbEntity
  8
COTAS
 62
     7
420
 16777215
370
     9
100
AcDb2dPolyline
 66
     1
 10
0.0
 20
0.0
 30
0.0
  0
VERTEX
  5
3F2
330
3F1
100
AcDbEntity
  8
COTAS
 62
     7
420
 16777215
370
     9
100
AcDbVertex
100
AcDb2dVertex
 10
85.1922721626435
 20
96.10961470273621
 30
0.0
  0
VERTEX
  5
3F3
330
3F1
100
AcDbEntity
  8
COTAS
 62
     7
420
 16777215
370
     9
100
AcDbVertex
100
AcDb2dVertex
 10
85.1922721626435
 20
96.10961470273621
 30
0.0
  0
SEQEND
  5
3F4
330
3F1
100
AcDbEntity
  8
COTAS
370
     9
  0
ENDBLK
  5
3F0
330
3ED
100
AcDbEntity
  8
0
100
AcDbBlockEnd
  0
BLOCK
  5
3F7
330
3F5
100
AcDbEntity
  8
0
100
AcDbBlockBegin
  2
block 127
 70
     0
 71
     0
 10
0.0
 20
0.0
 30
0.0
  3
block 127
  1

  0
POLYLINE
  5
3F9
330
3F5
100
AcDbEntity
  8
COTAS
 62
     7
420
 16777215
370
     9
100
AcDb2dPolyline
 66
     1
 10
0.0
 20
0.0
 30
0.0
  0
VERTEX
  5
3FA
330
3F9
100
AcDbEntity
  8
COTAS
 62
     7
420
 16777215
370
     9
100
AcDbVertex
100
AcDb2dVertex
 10
72.70672112312666
 20
77.12574801726412
 30
0.0
  0
VERTEX
  5
3FB
330
3F9
100
AcDbEntity
  8
COTAS
 62
     7
420
 16777215
370
     9
100
AcDbVertex
100
AcDb2dVertex
 10
72.70672112312666
 20
77.12574801726412
 30
0.0
  0
SEQEND
  5
3FC
330
3F9
100
AcDbEntity
  8
COTAS
370
     9
  0
ENDBLK
  5
3F8
330
3F5
100
AcDbEntity
  8
0
100
AcDbBlockEnd
  0
BLOCK
  5
3FF
330
3FD
100
AcDbEntity
  8
0
100
AcDbBlockBegin
  2
block 128
 70
     0
 71
     0
 10
0.0
 20
0.0
 30
0.0
  3
block 128
  1

  0
POLYLINE
  5
401
330
3FD
100
AcDbEntity
  8
COTAS
 62
     7
420
 16777215
370
     9
100
AcDb2dPolyline
 66
     1
 10
0.0
 20
0.0
 30
0.0
  0
VERTEX
  5
402
330
401
100
AcDbEntity
  8
COTAS
 62
     7
420
 16777215
370
     9
100
AcDbVertex
100
AcDb2dVertex
 10
62.59639273283649
 20
77.12574801726412
 30
0.0
  0
VERTEX
  5
403
330
401
100
AcDbEntity
  8
COTAS
 62
     7
420
 16777215
370
     9
100
AcDbVertex
100
AcDb2dVertex
 10
62.59639273283649
 20
77.12574801726412
 30
0.0
  0
SEQEND
  5
404
330
401
100
AcDbEntity
  8
COTAS
370
     9
  0
ENDBLK
  5
400
330
3FD
100
AcDbEntity
  8
0
100
AcDbBlockEnd
  0
BLOCK
  5
407
330
405
100
AcDbEntity
  8
0
100
AcDbBlockBegin
  2
block 129
 70
     0
 71
     0
 10
0.0
 20
0.0
 30
0.0
  3
block 129
  1

  0
INSERT
  5
40A
330
405
100
AcDbEntity
  8
COTAS
100
AcDbBlockReference
  2
block 130
 10
0.0
 20
0.0
 30
0.0
  0
INSERT
  5
412
330
405
100
AcDbEntity
  8
COTAS
100
AcDbBlockReference
  2
block 131
 10
0.0
 20
0.0
 30
0.0
  0
INSERT
  5
41A
330
405
100
AcDbEntity
  8
COTAS
100
AcDbBlockReference
  2
block 132
 10
0.0
 20
0.0
 30
0.0
  0
INSERT
  5
422
330
405
100
AcDbEntity
  8
COTAS
100
AcDbBlockReference
  2
block 133
 10
0.0
 20
0.0
 30
0.0
  0
INSERT
  5
42A
330
405
100
AcDbEntity
  8
COTAS
100
AcDbBlockReference
  2
block 134
 10
0.0
 20
0.0
 30
0.0
  0
INSERT
  5
435
330
405
100
AcDbEntity
  8
COTAS
100
AcDbBlockReference
  2
block 135
 10
0.0
 20
0.0
 30
0.0
  0
INSERT
  5
440
330
405
100
AcDbEntity
  8
COTAS
100
AcDbBlockReference
  2
block 136
 10
0.0
 20
0.0
 30
0.0
  0
INSERT
  5
445
330
405
100
AcDbEntity
  8
COTAS
100
AcDbBlockReference
  2
block 137
 10
0.0
 20
0.0
 30
0.0
  0
INSERT
  5
44D
330
405
100
AcDbEntity
  8
COTAS
100
AcDbBlockReference
  2
block 138
 10
0.0
 20
0.0
 30
0.0
  0
INSERT
  5
455
330
405
100
AcDbEntity
  8
COTAS
100
AcDbBlockReference
  2
block 139
 10
0.0
 20
0.0
 30
0.0
  0
ENDBLK
  5
408
330
405
100
AcDbEntity
  8
0
100
AcDbBlockEnd
  0
BLOCK
  5
40B
330
409
100
AcDbEntity
  8
0
100
AcDbBlockBegin
  2
block 130
 70
     0
 71
     0
 10
0.0
 20
0.0
 30
0.0
  3
block 130
  1

  0
POLYLINE
  5
40D
330
409
100
AcDbEntity
  8
COTAS
 62
     7
420
 16777215
370
     9
100
AcDb2dPolyline
 66
     1
 10
0.0
 20
0.0
 30
0.0
  0
VERTEX
  5
40E
330
40D
100
AcDbEntity
  8
COTAS
 62
     7
420
 16777215
370
     9
100
AcDbVertex
100
AcDb2dVertex
 10
85.09615393519638
 20
184.0152458595503
 30
0.0
  0
VERTEX
  5
40F
330
40D
100
AcDbEntity
  8
COTAS
 62
     7
420
 16777215
370
     9
100
AcDbVertex
100
AcDb2dVertex
 10
85.09615393519638
 20
178.9376885289785
 30
0.0
  0
SEQEND
  5
410
330
40D
100
AcDbEntity
  8
COTAS
370
     9
  0
ENDBLK
  5
40C
330
409
100
AcDbEntity
  8
0
100
AcDbBlockEnd
  0
BLOCK
  5
413
330
411
100
AcDbEntity
  8
0
100
AcDbBlockBegin
  2
block 131
 70
     0
 71
     0
 10
0.0
 20
0.0
 30
0.0
  3
block 131
  1

  0
POLYLINE
  5
415
330
411
100
AcDbEntity
  8
COTAS
 62
     7
420
 16777215
370
     9
100
AcDb2dPolyline
 66
     1
 10
0.0
 20
0.0
 30
0.0
  0
VERTEX
  5
416
330
415
100
AcDbEntity
  8
COTAS
 62
     7
420
 16777215
370
     9
100
AcDbVertex
100
AcDb2dVertex
 10
91.29095646867519
 20
184.0152458595503
 30
0.0
  0
VERTEX
  5
417
330
415
100
AcDbEntity
  8
COTAS
 62
     7
420
 16777215
370
     9
100
AcDbVertex
100
AcDb2dVertex
 10
91.29095646867519
 20
178.9376885289785
 30
0.0
  0
SEQEND
  5
418
330
415
100
AcDbEntity
  8
COTAS
370
     9
  0
ENDBLK
  5
414
330
411
100
AcDbEntity
  8
0
100
AcDbBlockEnd
  0
BLOCK
  5
41B
330
419
100
AcDbEntity
  8
0
100
AcDbBlockBegin
  2
block 132
 70
     0
 71
     0
 10
0.0
 20
0.0
 30
0.0
  3
block 132
  1

  0
POLYLINE
  5
41D
330
419
100
AcDbEntity
  8
COTAS
 62
     7
420
 16777215
370
     9
100
AcDb2dPolyline
 66
     1
 10
0.0
 20
0.0
 30
0.0
  0
VERTEX
  5
41E
330
41D
100
AcDbEntity
  8
COTAS
 62
     7
420
 16777215
370
     9
100
AcDbVertex
100
AcDb2dVertex
 10
86.89466721974028
 20
179.9369391336753
 30
0.0
  0
VERTEX
  5
41F
330
41D
100
AcDbEntity
  8
COTAS
 62
     7
420
 16777215
370
     9
100
AcDbVertex
100
AcDb2dVertex
 10
89.49244318413129
 20
179.9369391336753
 30
0.0
  0
SEQEND
  5
420
330
41D
100
AcDbEntity
  8
COTAS
370
     9
  0
ENDBLK
  5
41C
330
419
100
AcDbEntity
  8
0
100
AcDbBlockEnd
  0
BLOCK
  5
423
330
421
100
AcDbEntity
  8
0
100
AcDbBlockBegin
  2
block 133
 70
     0
 71
     0
 10
0.0
 20
0.0
 30
0.0
  3
block 133
  1

  0
POLYLINE
  5
425
330
421
100
AcDbEntity
  8
COTAS
 62
     7
420
 16777215
370
     9
100
AcDb2dPolyline
 66
     1
 10
0.0
 20
0.0
 30
0.0
  0
VERTEX
  5
426
330
425
100
AcDbEntity
  8
COTAS
 62
     7
420
 16777215
370
     9
100
AcDbVertex
100
AcDb2dVertex
 10
91.29095646867519
 20
179.9369391336753
 30
0.0
  0
VERTEX
  5
427
330
425
100
AcDbEntity
  8
COTAS
 62
     7
420
 16777215
370
     9
100
AcDbVertex
100
AcDb2dVertex
 10
93.08946975321909
 20
179.9369391336753
 30
0.0
  0
SEQEND
  5
428
330
425
100
AcDbEntity
  8
COTAS
370
     9
  0
ENDBLK
  5
424
330
421
100
AcDbEntity
  8
0
100
AcDbBlockEnd
  0
BLOCK
  5
42B
330
429
100
AcDbEntity
  8
0
100
AcDbBlockBegin
  2
block 134
 70
     0
 71
     0
 10
0.0
 20
0.0
 30
0.0
  3
block 134
  1

  0
POLYLINE
  5
42D
330
429
100
AcDbEntity
  8
COTAS
370
     0
100
AcDb2dPolyline
 66
     1
 10
0.0
 20
0.0
 30
0.0
  0
VERTEX
  5
42E
330
42D
100
AcDbEntity
  8
COTAS
370
     0
100
AcDbVertex
100
AcDb2dVertex
 10
86.89466721974028
 20
180.236662638618
 30
0.0
  0
VERTEX
  5
42F
330
42D
100
AcDbEntity
  8
COTAS
370
     0
100
AcDbVertex
100
AcDb2dVertex
 10
86.89466721974028
 20
179.6370433738447
 30
0.0
  0
VERTEX
  5
430
330
42D
100
AcDbEntity
  8
COTAS
370
     0
100
AcDbVertex
100
AcDb2dVertex
 10
85.09615393519638
 20
179.9369391336753
 30
0.0
  0
VERTEX
  5
431
330
42D
100
AcDbEntity
  8
COTAS
370
     0
100
AcDbVertex
100
AcDb2dVertex
 10
86.89466721974028
 20
180.236662638618
 30
0.0
  0
SEQEND
  5
432
330
42D
100
AcDbEntity
  8
COTAS
370
     0
  0
HATCH
  5
433
330
429
100
AcDbEntity
  8
COTAS
 62
     7
420
 16777215
100
AcDbHatch
 10
0.0
 20
0.0
 30
0.0
210
0.0
220
0.0
230
1.0
  2
SOLID
 70
     1
 71
     0
 91
        1
 92
        1
 93
        3
 72
     1
 10
86.89466721974028
 20
180.236662638618
 11
86.89466721974028
 21
179.6370433738447
 72
     1
 10
86.89466721974028
 20
179.6370433738447
 11
85.09615393519638
 21
179.9369391336753
 72
     1
 10
85.09615393519638
 20
179.9369391336753
 11
86.89466721974028
 21
180.236662638618
 97
        0
 75
     2
 76
     1
 98
        0
  0
ENDBLK
  5
42C
330
429
100
AcDbEntity
  8
0
100
AcDbBlockEnd
  0
BLOCK
  5
436
330
434
100
AcDbEntity
  8
0
100
AcDbBlockBegin
  2
block 135
 70
     0
 71
     0
 10
0.0
 20
0.0
 30
0.0
  3
block 135
  1

  0
POLYLINE
  5
438
330
434
100
AcDbEntity
  8
COTAS
370
     0
100
AcDb2dPolyline
 66
     1
 10
0.0
 20
0.0
 30
0.0
  0
VERTEX
  5
439
330
438
100
AcDbEntity
  8
COTAS
370
     0
100
AcDbVertex
100
AcDb2dVertex
 10
89.49244318413129
 20
180.236662638618
 30
0.0
  0
VERTEX
  5
43A
330
438
100
AcDbEntity
  8
COTAS
370
     0
100
AcDbVertex
100
AcDb2dVertex
 10
89.49244318413129
 20
179.6370433738447
 30
0.0
  0
VERTEX
  5
43B
330
438
100
AcDbEntity
  8
COTAS
370
     0
100
AcDbVertex
100
AcDb2dVertex
 10
91.29095646867519
 20
179.9369391336753
 30
0.0
  0
VERTEX
  5
43C
330
438
100
AcDbEntity
  8
COTAS
370
     0
100
AcDbVertex
100
AcDb2dVertex
 10
89.49244318413129
 20
180.236662638618
 30
0.0
  0
SEQEND
  5
43D
330
438
100
AcDbEntity
  8
COTAS
370
     0
  0
HATCH
  5
43E
330
434
100
AcDbEntity
  8
COTAS
 62
     7
420
 16777215
100
AcDbHatch
 10
0.0
 20
0.0
 30
0.0
210
0.0
220
0.0
230
1.0
  2
SOLID
 70
     1
 71
     0
 91
        1
 92
        1
 93
        3
 72
     1
 10
89.49244318413129
 20
180.236662638618
 11
89.49244318413129
 21
179.6370433738447
 72
     1
 10
89.49244318413129
 20
179.6370433738447
 11
91.29095646867519
 21
179.9369391336753
 72
     1
 10
91.29095646867519
 20
179.9369391336753
 11
89.49244318413129
 21
180.236662638618
 97
        0
 75
     2
 76
     1
 98
        0
  0
ENDBLK
  5
437
330
434
100
AcDbEntity
  8
0
100
AcDbBlockEnd
  0
BLOCK
  5
441
330
43F
100
AcDbEntity
  8
0
100
AcDbBlockBegin
  2
block 136
 70
     0
 71
     0
 10
0.0
 20
0.0
 30
0.0
  3
block 136
  1

  0
MTEXT
  5
443
330
43F
100
AcDbEntity
  8
COTAS
 62
     7
420
 16777215
100
AcDbMText
 10
93.80312175378086
 20
178.9376885289785
 30
0.0
 40
2.398890470823883
 41
0.0
 71
     7
 72
     1
  1
\fArial|b1|i0|c0|p34;\W1;\U+00D862
 73
     1
 44
1.0
  0
ENDBLK
  5
442
330
43F
100
AcDbEntity
  8
0
100
AcDbBlockEnd
  0
BLOCK
  5
446
330
444
100
AcDbEntity
  8
0
100
AcDbBlockBegin
  2
block 137
 70
     0
 71
     0
 10
0.0
 20
0.0
 30
0.0
  3
block 137
  1

  0
POLYLINE
  5
448
330
444
100
AcDbEntity
  8
COTAS
 62
     7
420
 16777215
370
     9
100
AcDb2dPolyline
 66
     1
 10
0.0
 20
0.0
 30
0.0
  0
VERTEX
  5
449
330
448
100
AcDbEntity
  8
COTAS
 62
     7
420
 16777215
370
     9
100
AcDbVertex
100
AcDb2dVertex
 10
85.09615393519638
 20
185.0144964642471
 30
0.0
  0
VERTEX
  5
44A
330
448
100
AcDbEntity
  8
COTAS
 62
     7
420
 16777215
370
     9
100
AcDbVertex
100
AcDb2dVertex
 10
85.09615393519638
 20
185.0144964642471
 30
0.0
  0
SEQEND
  5
44B
330
448
100
AcDbEntity
  8
COTAS
370
     9
  0
ENDBLK
  5
447
330
444
100
AcDbEntity
  8
0
100
AcDbBlockEnd
  0
BLOCK
  5
44E
330
44C
100
AcDbEntity
  8
0
100
AcDbBlockBegin
  2
block 138
 70
     0
 71
     0
 10
0.0
 20
0.0
 30
0.0
  3
block 138
  1

  0
POLYLINE
  5
450
330
44C
100
AcDbEntity
  8
COTAS
 62
     7
420
 16777215
370
     9
100
AcDb2dPolyline
 66
     1
 10
0.0
 20
0.0
 30
0.0
  0
VERTEX
  5
451
330
450
100
AcDbEntity
  8
COTAS
 62
     7
420
 16777215
370
     9
100
AcDbVertex
100
AcDb2dVertex
 10
91.29095646867519
 20
185.0144964642471
 30
0.0
  0
VERTEX
  5
452
330
450
100
AcDbEntity
  8
COTAS
 62
     7
420
 16777215
370
     9
100
AcDbVertex
100
AcDb2dVertex
 10
91.29095646867519
 20
185.0144964642471
 30
0.0
  0
SEQEND
  5
453
330
450
100
AcDbEntity
  8
COTAS
370
     9
  0
ENDBLK
  5
44F
330
44C
100
AcDbEntity
  8
0
100
AcDbBlockEnd
  0
BLOCK
  5
456
330
454
100
AcDbEntity
  8
0
100
AcDbBlockBegin
  2
block 139
 70
     0
 71
     0
 10
0.0
 20
0.0
 30
0.0
  3
block 139
  1

  0
POLYLINE
  5
458
330
454
100
AcDbEntity
  8
COTAS
 62
     7
420
 16777215
370
     9
100
AcDb2dPolyline
 66
     1
 10
0.0
 20
0.0
 30
0.0
  0
VERTEX
  5
459
330
458
100
AcDbEntity
  8
COTAS
 62
     7
420
 16777215
370
     9
100
AcDbVertex
100
AcDb2dVertex
 10
91.29095646867519
 20
179.9369391336753
 30
0.0
  0
VERTEX
  5
45A
330
458
100
AcDbEntity
  8
COTAS
 62
     7
420
 16777215
370
     9
100
AcDbVertex
100
AcDb2dVertex
 10
91.29095646867519
 20
179.9369391336753
 30
0.0
  0
SEQEND
  5
45B
330
458
100
AcDbEntity
  8
COTAS
370
     9
  0
ENDBLK
  5
457
330
454
100
AcDbEntity
  8
0
100
AcDbBlockEnd
  0
BLOCK
  5
45E
330
45C
100
AcDbEntity
  8
0
100
AcDbBlockBegin
  2
block 140
 70
     0
 71
     0
 10
0.0
 20
0.0
 30
0.0
  3
block 140
  1

  0
INSERT
  5
461
330
45C
100
AcDbEntity
  8
COTAS
100
AcDbBlockReference
  2
block 141
 10
0.0
 20
0.0
 30
0.0
  0
INSERT
  5
469
330
45C
100
AcDbEntity
  8
COTAS
100
AcDbBlockReference
  2
block 142
 10
0.0
 20
0.0
 30
0.0
  0
INSERT
  5
471
330
45C
100
AcDbEntity
  8
COTAS
100
AcDbBlockReference
  2
block 143
 10
0.0
 20
0.0
 30
0.0
  0
INSERT
  5
479
330
45C
100
AcDbEntity
  8
COTAS
100
AcDbBlockReference
  2
block 144
 10
0.0
 20
0.0
 30
0.0
  0
INSERT
  5
481
330
45C
100
AcDbEntity
  8
COTAS
100
AcDbBlockReference
  2
block 145
 10
0.0
 20
0.0
 30
0.0
  0
INSERT
  5
48C
330
45C
100
AcDbEntity
  8
COTAS
100
AcDbBlockReference
  2
block 146
 10
0.0
 20
0.0
 30
0.0
  0
INSERT
  5
497
330
45C
100
AcDbEntity
  8
COTAS
100
AcDbBlockReference
  2
block 147
 10
0.0
 20
0.0
 30
0.0
  0
INSERT
  5
49C
330
45C
100
AcDbEntity
  8
COTAS
100
AcDbBlockReference
  2
block 148
 10
0.0
 20
0.0
 30
0.0
  0
INSERT
  5
4A4
330
45C
100
AcDbEntity
  8
COTAS
100
AcDbBlockReference
  2
block 149
 10
0.0
 20
0.0
 30
0.0
  0
INSERT
  5
4AC
330
45C
100
AcDbEntity
  8
COTAS
100
AcDbBlockReference
  2
block 150
 10
0.0
 20
0.0
 30
0.0
  0
ENDBLK
  5
45F
330
45C
100
AcDbEntity
  8
0
100
AcDbBlockEnd
  0
BLOCK
  5
462
330
460
100
AcDbEntity
  8
0
100
AcDbBlockBegin
  2
block 141
 70
     0
 71
     0
 10
0.0
 20
0.0
 30
0.0
  3
block 141
  1

  0
POLYLINE
  5
464
330
460
100
AcDbEntity
  8
COTAS
 62
     7
420
 16777215
370
     9
100
AcDb2dPolyline
 66
     1
 10
0.0
 20
0.0
 30
0.0
  0
VERTEX
  5
465
330
464
100
AcDbEntity
  8
COTAS
 62
     7
420
 16777215
370
     9
100
AcDbVertex
100
AcDb2dVertex
 10
71.70747051842987
 20
193.506145672959
 30
0.0
  0
VERTEX
  5
466
330
464
100
AcDbEntity
  8
COTAS
 62
     7
420
 16777215
370
     9
100
AcDbVertex
100
AcDb2dVertex
 10
61.5973143830276
 20
193.506145672959
 30
0.0
  0
SEQEND
  5
467
330
464
100
AcDbEntity
  8
COTAS
370
     9
  0
ENDBLK
  5
463
330
460
100
AcDbEntity
  8
0
100
AcDbBlockEnd
  0
BLOCK
  5
46A
330
468
100
AcDbEntity
  8
0
100
AcDbBlockBegin
  2
block 142
 70
     0
 71
     0
 10
0.0
 20
0.0
 30
0.0
  3
block 142
  1

  0
POLYLINE
  5
46C
330
468
100
AcDbEntity
  8
COTAS
 62
     7
420
 16777215
370
     9
100
AcDb2dPolyline
 66
     1
 10
0.0
 20
0.0
 30
0.0
  0
VERTEX
  5
46D
330
46C
100
AcDbEntity
  8
COTAS
 62
     7
420
 16777215
370
     9
100
AcDbVertex
100
AcDb2dVertex
 10
72.20718194822221
 20
185.0144964642471
 30
0.0
  0
VERTEX
  5
46E
330
46C
100
AcDbEntity
  8
COTAS
 62
     7
420
 16777215
370
     9
100
AcDbVertex
100
AcDb2dVertex
 10
61.5973143830276
 20
185.0144964642471
 30
0.0
  0
SEQEND
  5
46F
330
46C
100
AcDbEntity
  8
COTAS
370
     9
  0
ENDBLK
  5
46B
330
468
100
AcDbEntity
  8
0
100
AcDbBlockEnd
  0
BLOCK
  5
472
330
470
100
AcDbEntity
  8
0
100
AcDbBlockBegin
  2
block 143
 70
     0
 71
     0
 10
0.0
 20
0.0
 30
0.0
  3
block 143
  1

  0
POLYLINE
  5
474
330
470
100
AcDbEntity
  8
COTAS
 62
     7
420
 16777215
370
     9
100
AcDb2dPolyline
 66
     1
 10
0.0
 20
0.0
 30
0.0
  0
VERTEX
  5
475
330
474
100
AcDbEntity
  8
COTAS
 62
     7
420
 16777215
370
     9
100
AcDbVertex
100
AcDb2dVertex
 10
62.59639273283649
 20
191.7076323884151
 30
0.0
  0
VERTEX
  5
476
330
474
100
AcDbEntity
  8
COTAS
 62
     7
420
 16777215
370
     9
100
AcDbVertex
100
AcDb2dVertex
 10
62.59639273283649
 20
191.2585638956648
 30
0.0
  0
SEQEND
  5
477
330
474
100
AcDbEntity
  8
COTAS
370
     9
  0
ENDBLK
  5
473
330
470
100
AcDbEntity
  8
0
100
AcDbBlockEnd
  0
BLOCK
  5
47A
330
478
100
AcDbEntity
  8
0
100
AcDbBlockBegin
  2
block 144
 70
     0
 71
     0
 10
0.0
 20
0.0
 30
0.0
  3
block 144
  1

  0
POLYLINE
  5
47C
330
478
100
AcDbEntity
  8
COTAS
 62
     7
420
 16777215
370
     9
100
AcDb2dPolyline
 66
     1
 10
0.0
 20
0.0
 30
0.0
  0
VERTEX
  5
47D
330
47C
100
AcDbEntity
  8
COTAS
 62
     7
420
 16777215
370
     9
100
AcDbVertex
100
AcDb2dVertex
 10
62.59639273283649
 20
186.813009748791
 30
0.0
  0
VERTEX
  5
47E
330
47C
100
AcDbEntity
  8
COTAS
 62
     7
420
 16777215
370
     9
100
AcDbVertex
100
AcDb2dVertex
 10
62.59639273283649
 20
187.2620782415413
 30
0.0
  0
SEQEND
  5
47F
330
47C
100
AcDbEntity
  8
COTAS
370
     9
  0
ENDBLK
  5
47B
330
478
100
AcDbEntity
  8
0
100
AcDbBlockEnd
  0
BLOCK
  5
482
330
480
100
AcDbEntity
  8
0
100
AcDbBlockBegin
  2
block 145
 70
     0
 71
     0
 10
0.0
 20
0.0
 30
0.0
  3
block 145
  1

  0
POLYLINE
  5
484
330
480
100
AcDbEntity
  8
COTAS
370
     0
100
AcDb2dPolyline
 66
     1
 10
0.0
 20
0.0
 30
0.0
  0
VERTEX
  5
485
330
484
100
AcDbEntity
  8
COTAS
370
     0
100
AcDbVertex
100
AcDb2dVertex
 10
62.29666922789382
 20
191.7076323884151
 30
0.0
  0
VERTEX
  5
486
330
484
100
AcDbEntity
  8
COTAS
370
     0
100
AcDbVertex
100
AcDb2dVertex
 10
62.89611623777916
 20
191.7076323884151
 30
0.0
  0
VERTEX
  5
487
330
484
100
AcDbEntity
  8
COTAS
370
     0
100
AcDbVertex
100
AcDb2dVertex
 10
62.59639273283649
 20
193.506145672959
 30
0.0
  0
VERTEX
  5
488
330
484
100
AcDbEntity
  8
COTAS
370
     0
100
AcDbVertex
100
AcDb2dVertex
 10
62.29666922789382
 20
191.7076323884151
 30
0.0
  0
SEQEND
  5
489
330
484
100
AcDbEntity
  8
COTAS
370
     0
  0
HATCH
  5
48A
330
480
100
AcDbEntity
  8
COTAS
 62
     7
420
 16777215
100
AcDbHatch
 10
0.0
 20
0.0
 30
0.0
210
0.0
220
0.0
230
1.0
  2
SOLID
 70
     1
 71
     0
 91
        1
 92
        1
 93
        3
 72
     1
 10
62.29666922789382
 20
191.7076323884151
 11
62.89611623777916
 21
191.7076323884151
 72
     1
 10
62.89611623777916
 20
191.7076323884151
 11
62.59639273283649
 21
193.506145672959
 72
     1
 10
62.59639273283649
 20
193.506145672959
 11
62.29666922789382
 21
191.7076323884151
 97
        0
 75
     2
 76
     1
 98
        0
  0
ENDBLK
  5
483
330
480
100
AcDbEntity
  8
0
100
AcDbBlockEnd
  0
BLOCK
  5
48D
330
48B
100
AcDbEntity
  8
0
100
AcDbBlockBegin
  2
block 146
 70
     0
 71
     0
 10
0.0
 20
0.0
 30
0.0
  3
block 146
  1

  0
POLYLINE
  5
48F
330
48B
100
AcDbEntity
  8
COTAS
370
     0
100
AcDb2dPolyline
 66
     1
 10
0.0
 20
0.0
 30
0.0
  0
VERTEX
  5
490
330
48F
100
AcDbEntity
  8
COTAS
370
     0
100
AcDbVertex
100
AcDb2dVertex
 10
62.29666922789382
 20
186.813009748791
 30
0.0
  0
VERTEX
  5
491
330
48F
100
AcDbEntity
  8
COTAS
370
     0
100
AcDbVertex
100
AcDb2dVertex
 10
62.89611623777916
 20
186.813009748791
 30
0.0
  0
VERTEX
  5
492
330
48F
100
AcDbEntity
  8
COTAS
370
     0
100
AcDbVertex
100
AcDb2dVertex
 10
62.59639273283649
 20
185.0144964642471
 30
0.0
  0
VERTEX
  5
493
330
48F
100
AcDbEntity
  8
COTAS
370
     0
100
AcDbVertex
100
AcDb2dVertex
 10
62.29666922789382
 20
186.813009748791
 30
0.0
  0
SEQEND
  5
494
330
48F
100
AcDbEntity
  8
COTAS
370
     0
  0
HATCH
  5
495
330
48B
100
AcDbEntity
  8
COTAS
 62
     7
420
 16777215
100
AcDbHatch
 10
0.0
 20
0.0
 30
0.0
210
0.0
220
0.0
230
1.0
  2
SOLID
 70
     1
 71
     0
 91
        1
 92
        1
 93
        3
 72
     1
 10
62.29666922789382
 20
186.813009748791
 11
62.89611623777916
 21
186.813009748791
 72
     1
 10
62.89611623777916
 20
186.813009748791
 11
62.59639273283649
 21
185.0144964642471
 72
     1
 10
62.59639273283649
 20
185.0144964642471
 11
62.29666922789382
 21
186.813009748791
 97
        0
 75
     2
 76
     1
 98
        0
  0
ENDBLK
  5
48E
330
48B
100
AcDbEntity
  8
0
100
AcDbBlockEnd
  0
BLOCK
  5
498
330
496
100
AcDbEntity
  8
0
100
AcDbBlockBegin
  2
block 147
 70
     0
 71
     0
 10
0.0
 20
0.0
 30
0.0
  3
block 147
  1

  0
MTEXT
  5
49A
330
496
100
AcDbEntity
  8
COTAS
 62
     7
420
 16777215
100
AcDbMText
 10
60.69332073133845
 20
188.2611565913502
 30
0.0
 40
2.398890470823883
 41
0.0
 71
     7
 72
     1
  1
\fArial|b1|i0|c0|p34;\W1;80
 73
     1
 44
1.0
  0
ENDBLK
  5
499
330
496
100
AcDbEntity
  8
0
100
AcDbBlockEnd
  0
BLOCK
  5
49D
330
49B
100
AcDbEntity
  8
0
100
AcDbBlockBegin
  2
block 148
 70
     0
 71
     0
 10
0.0
 20
0.0
 30
0.0
  3
block 148
  1

  0
POLYLINE
  5
49F
330
49B
100
AcDbEntity
  8
COTAS
 62
     7
420
 16777215
370
     9
100
AcDb2dPolyline
 66
     1
 10
0.0
 20
0.0
 30
0.0
  0
VERTEX
  5
4A0
330
49F
100
AcDbEntity
  8
COTAS
 62
     7
420
 16777215
370
     9
100
AcDbVertex
100
AcDb2dVertex
 10
72.70672112312666
 20
193.506145672959
 30
0.0
  0
VERTEX
  5
4A1
330
49F
100
AcDbEntity
  8
COTAS
 62
     7
420
 16777215
370
     9
100
AcDbVertex
100
AcDb2dVertex
 10
72.70672112312666
 20
193.506145672959
 30
0.0
  0
SEQEND
  5
4A2
330
49F
100
AcDbEntity
  8
COTAS
370
     9
  0
ENDBLK
  5
49E
330
49B
100
AcDbEntity
  8
0
100
AcDbBlockEnd
  0
BLOCK
  5
4A5
330
4A3
100
AcDbEntity
  8
0
100
AcDbBlockBegin
  2
block 149
 70
     0
 71
     0
 10
0.0
 20
0.0
 30
0.0
  3
block 149
  1

  0
POLYLINE
  5
4A7
330
4A3
100
AcDbEntity
  8
COTAS
 62
     7
420
 16777215
370
     9
100
AcDb2dPolyline
 66
     1
 10
0.0
 20
0.0
 30
0.0
  0
VERTEX
  5
4A8
330
4A7
100
AcDbEntity
  8
COTAS
 62
     7
420
 16777215
370
     9
100
AcDbVertex
100
AcDb2dVertex
 10
73.2062602980311
 20
185.0144964642471
 30
0.0
  0
VERTEX
  5
4A9
330
4A7
100
AcDbEntity
  8
COTAS
 62
     7
420
 16777215
370
     9
100
AcDbVertex
100
AcDb2dVertex
 10
73.2062602980311
 20
185.0144964642471
 30
0.0
  0
SEQEND
  5
4AA
330
4A7
100
AcDbEntity
  8
COTAS
370
     9
  0
ENDBLK
  5
4A6
330
4A3
100
AcDbEntity
  8
0
100
AcDbBlockEnd
  0
BLOCK
  5
4AD
330
4AB
100
AcDbEntity
  8
0
100
AcDbBlockBegin
  2
block 150
 70
     0
 71
     0
 10
0.0
 20
0.0
 30
0.0
  3
block 150
  1

  0
POLYLINE
  5
4AF
330
4AB
100
AcDbEntity
  8
COTAS
 62
     7
420
 16777215
370
     9
100
AcDb2dPolyline
 66
     1
 10
0.0
 20
0.0
 30
0.0
  0
VERTEX
  5
4B0
330
4AF
100
AcDbEntity
  8
COTAS
 62
     7
420
 16777215
370
     9
100
AcDbVertex
100
AcDb2dVertex
 10
62.59639273283649
 20
185.0144964642471
 30
0.0
  0
VERTEX
  5
4B1
330
4AF
100
AcDbEntity
  8
COTAS
 62
     7
420
 16777215
370
     9
100
AcDbVertex
100
AcDb2dVertex
 10
62.59639273283649
 20
185.0144964642471
 30
0.0
  0
SEQEND
  5
4B2
330
4AF
100
AcDbEntity
  8
COTAS
370
     9
  0
ENDBLK
  5
4AE
330
4AB
100
AcDbEntity
  8
0
100
AcDbBlockEnd
  0
BLOCK
  5
4B6
330
4B4
100
AcDbEntity
  8
0
100
AcDbBlockBegin
  2
block 151
 70
     0
 71
     0
 10
0.0
 20
0.0
 30
0.0
  3
block 151
  1

  0
POLYLINE
  5
4B8
330
4B4
100
AcDbEntity
  8
EJES
  6
AI-Linetype-1
 62
     7
420
 16777215
370
     9
100
AcDb2dPolyline
 66
     1
 10
0.0
 20
0.0
 30
0.0
  0
VERTEX
  5
4B9
330
4B8
100
AcDbEntity
  8
EJES
  6
AI-Linetype-1
 62
     7
420
 16777215
370
     9
100
AcDbVertex
100
AcDb2dVertex
 10
85.1922721626435
 20
96.10961470273621
 30
0.0
  0
VERTEX
  5
4BA
330
4B8
100
AcDbEntity
  8
EJES
  6
AI-Linetype-1
 62
     7
420
 16777215
370
     9
100
AcDbVertex
100
AcDb2dVertex
 10
98.18890345455398
 20
96.10961470273621
 30
0.0
  0
SEQEND
  5
4BB
330
4B8
100
AcDbEntity
  8
EJES
  6
AI-Linetype-1
370
     9
  0
ENDBLK
  5
4B7
330
4B4
100
AcDbEntity
  8
0
100
AcDbBlockEnd
  0
BLOCK
  5
4BF
330
4BD
100
AcDbEntity
  8
0
100
AcDbBlockBegin
  2
block 152
 70
     0
 71
     0
 10
0.0
 20
0.0
 30
0.0
  3
block 152
  1

  0
POLYLINE
  5
4C1
330
4BD
100
AcDbEntity
  8
EJES
  6
AI-Linetype-2
 62
     7
420
 16777215
370
     9
100
AcDb2dPolyline
 66
     1
 10
0.0
 20
0.0
 30
0.0
  0
VERTEX
  5
4C2
330
4C1
100
AcDbEntity
  8
EJES
  6
AI-Linetype-2
 62
     7
420
 16777215
370
     9
100
AcDbVertex
100
AcDb2dVertex
 10
91.69058780859875
 20
102.6081026035793
 30
0.0
  0
VERTEX
  5
4C3
330
4C1
100
AcDbEntity
  8
EJES
  6
AI-Linetype-2
 62
     7
420
 16777215
370
     9
100
AcDbVertex
100
AcDb2dVertex
 10
91.69058780859875
 20
89.61147131166886
 30
0.0
  0
SEQEND
  5
4C4
330
4C1
100
AcDbEntity
  8
EJES
  6
AI-Linetype-2
370
     9
  0
ENDBLK
  5
4C0
330
4BD
100
AcDbEntity
  8
0
100
AcDbBlockEnd
  0
BLOCK
  5
4C8
330
4C6
100
AcDbEntity
  8
0
100
AcDbBlockBegin
  2
block 153
 70
     0
 71
     0
 10
0.0
 20
0.0
 30
0.0
  3
block 153
  1

  0
POLYLINE
  5
4CA
330
4C6
100
AcDbEntity
  8
EJES
  6
AI-Linetype-3
 62
     7
420
 16777215
370
     9
100
AcDb2dPolyline
 66
     1
 10
0.0
 20
0.0
 30
0.0
  0
VERTEX
  5
4CB
330
4CA
100
AcDbEntity
  8
EJES
  6
AI-Linetype-3
 62
     7
420
 16777215
370
     9
100
AcDbVertex
100
AcDb2dVertex
 10
88.19364132937973
 20
183.0314981947644
 30
0.0
  0
VERTEX
  5
4CC
330
4CA
100
AcDbEntity
  8
EJES
  6
AI-Linetype-3
 62
     7
420
 16777215
370
     9
100
AcDbVertex
100
AcDb2dVertex
 10
88.19364132937973
 20
190.4796272925896
 30
0.0
  0
SEQEND
  5
4CD
330
4CA
100
AcDbEntity
  8
EJES
  6
AI-Linetype-3
370
     9
  0
ENDBLK
  5
4C9
330
4C6
100
AcDbEntity
  8
0
100
AcDbBlockEnd
  0
BLOCK
  5
4D2
330
4D0
100
AcDbEntity
  8
0
100
AcDbBlockBegin
  2
block 154
 70
     0
 71
     0
 10
0.0
 20
0.0
 30
0.0
  3
block 154
  1

  0
POLYLINE
  5
4D4
330
4D0
100
AcDbEntity
  8
050
 62
     7
420
 16777215
370
     9
100
AcDb2dPolyline
 66
     1
 10
0.0
 20
0.0
 30
0.0
  0
VERTEX
  5
4D5
330
4D4
100
AcDbEntity
  8
050
 62
     7
420
 16777215
370
     9
100
AcDbVertex
100
AcDb2dVertex
 10
73.70579947293555
 20
77.12574801726412
 30
0.0
  0
VERTEX
  5
4D6
330
4D4
100
AcDbEntity
  8
050
 62
     7
420
 16777215
370
     9
100
AcDbVertex
100
AcDb2dVertex
 10
151.6399396791054
 20
77.12574801726412
 30
0.0
  0
SEQEND
  5
4D7
330
4D4
100
AcDbEntity
  8
050
370
     9
  0
ENDBLK
  5
4D3
330
4D0
100
AcDbEntity
  8
0
100
AcDbBlockEnd
  0
BLOCK
  5
4DA
330
4D8
100
AcDbEntity
  8
0
100
AcDbBlockBegin
  2
block 155
 70
     0
 71
     0
 10
0.0
 20
0.0
 30
0.0
  3
block 155
  1

  0
SPLINE
  5
4DC
330
4D8
100
AcDbEntity
  8
050
 62
     7
420
 16777215
370
     9
100
AcDbSpline
210
0.0
220
0.0
230
1.0
 70
     8
 71
     3
 72
    11
 73
     7
 74
     0
 42
0.0000000001
 43
0.0000000001
 40
0.0
 40
0.0
 40
0.0
 40
0.0
 40
1.0
 40
1.0
 40
1.0
 40
2.0
 40
2.0
 40
2.0
 40
2.0
 10
72.70672112312666
 20
78.12482636707301
 30
0.0
 10
72.70672112312666
 20
77.57326621602334
 30
0.0
 10
73.15406706699798
 20
77.12574801726412
 30
0.0
 10
73.70579947293555
 20
77.12574801726412
 30
0.0
 10
73.70579947293555
 20
77.12574801726412
 30
0.0
 10
73.70579947293555
 20
77.12574801726412
 30
0.0
 10
73.70579947293555
 20
77.12574801726412
 30
0.0
  0
ENDBLK
  5
4DB
330
4D8
100
AcDbEntity
  8
0
100
AcDbBlockEnd
  0
BLOCK
  5
4DF
330
4DD
100
AcDbEntity
  8
0
100
AcDbBlockBegin
  2
block 156
 70
     0
 71
     0
 10
0.0
 20
0.0
 30
0.0
  3
block 156
  1

  0
POLYLINE
  5
4E1
330
4DD
100
AcDbEntity
  8
050
 62
     7
420
 16777215
370
     9
100
AcDb2dPolyline
 66
     1
 10
0.0
 20
0.0
 30
0.0
  0
VERTEX
  5
4E2
330
4E1
100
AcDbEntity
  8
050
 62
     7
420
 16777215
370
     9
100
AcDbVertex
100
AcDb2dVertex
 10
72.70672112312666
 20
156.0589665732428
 30
0.0
  0
VERTEX
  5
4E3
330
4E1
100
AcDbEntity
  8
050
 62
     7
420
 16777215
370
     9
100
AcDbVertex
100
AcDb2dVertex
 10
72.70672112312666
 20
78.12482636707301
 30
0.0
  0
SEQEND
  5
4E4
330
4E1
100
AcDbEntity
  8
050
370
     9
  0
ENDBLK
  5
4E0
330
4DD
100
AcDbEntity
  8
0
100
AcDbBlockEnd
  0
BLOCK
  5
4E7
330
4E5
100
AcDbEntity
  8
0
100
AcDbBlockBegin
  2
block 157
 70
     0
 71
     0
 10
0.0
 20
0.0
 30
0.0
  3
block 157
  1

  0
SPLINE
  5
4E9
330
4E5
100
AcDbEntity
  8
050
 62
     7
420
 16777215
370
     9
100
AcDbSpline
210
0.0
220
0.0
230
1.0
 70
     8
 71
     3
 72
    11
 73
     7
 74
     0
 42
0.0000000001
 43
0.0000000001
 40
0.0
 40
0.0
 40
0.0
 40
0.0
 40
1.0
 40
1.0
 40
1.0
 40
2.0
 40
2.0
 40
2.0
 40
2.0
 10
73.70579947293555
 20
157.0580449230517
 30
0.0
 10
73.15406706699798
 20
157.0580449230517
 30
0.0
 10
72.70672112312666
 20
156.6106989791804
 30
0.0
 10
72.70672112312666
 20
156.0589665732428
 30
0.0
 10
72.70672112312666
 20
156.0589665732428
 30
0.0
 10
72.70672112312666
 20
156.0589665732428
 30
0.0
 10
72.70672112312666
 20
156.0589665732428
 30
0.0
  0
ENDBLK
  5
4E8
330
4E5
100
AcDbEntity
  8
0
100
AcDbBlockEnd
  0
BLOCK
  5
4EC
330
4EA
100
AcDbEntity
  8
0
100
AcDbBlockBegin
  2
block 158
 70
     0
 71
     0
 10
0.0
 20
0.0
 30
0.0
  3
block 158
  1

  0
POLYLINE
  5
4EE
330
4EA
100
AcDbEntity
  8
050
 62
     7
420
 16777215
370
     9
100
AcDb2dPolyline
 66
     1
 10
0.0
 20
0.0
 30
0.0
  0
VERTEX
  5
4EF
330
4EE
100
AcDbEntity
  8
050
 62
     7
420
 16777215
370
     9
100
AcDbVertex
100
AcDb2dVertex
 10
152.6390180289143
 20
154.0606376187372
 30
0.0
  0
VERTEX
  5
4F0
330
4EE
100
AcDbEntity
  8
050
 62
     7
420
 16777215
370
     9
100
AcDbVertex
100
AcDb2dVertex
 10
152.6390180289143
 20
80.12332757646658
 30
0.0
  0
SEQEND
  5
4F1
330
4EE
100
AcDbEntity
  8
050
370
     9
  0
ENDBLK
  5
4ED
330
4EA
100
AcDbEntity
  8
0
100
AcDbBlockEnd
  0
BLOCK
  5
4F4
330
4F2
100
AcDbEntity
  8
0
100
AcDbBlockBegin
  2
block 159
 70
     0
 71
     0
 10
0.0
 20
0.0
 30
0.0
  3
block 159
  1

  0
POLYLINE
  5
4F6
330
4F2
100
AcDbEntity
  8
050
 62
     7
420
 16777215
370
     9
100
AcDb2dPolyline
 66
     1
 10
0.0
 20
0.0
 30
0.0
  0
VERTEX
  5
4F7
330
4F6
100
AcDbEntity
  8
050
 62
     7
420
 16777215
370
     9
100
AcDbVertex
100
AcDb2dVertex
 10
152.6390180289143
 20
156.0589665732428
 30
0.0
  0
VERTEX
  5
4F8
330
4F6
100
AcDbEntity
  8
050
 62
     7
420
 16777215
370
     9
100
AcDbVertex
100
AcDb2dVertex
 10
152.6390180289143
 20
78.12482636707301
 30
0.0
  0
SEQEND
  5
4F9
330
4F6
100
AcDbEntity
  8
050
370
     9
  0
ENDBLK
  5
4F5
330
4F2
100
AcDbEntity
  8
0
100
AcDbBlockEnd
  0
BLOCK
  5
4FC
330
4FA
100
AcDbEntity
  8
0
100
AcDbBlockBegin
  2
block 160
 70
     0
 71
     0
 10
0.0
 20
0.0
 30
0.0
  3
block 160
  1

  0
SPLINE
  5
4FE
330
4FA
100
AcDbEntity
  8
050
 62
     7
420
 16777215
370
     9
100
AcDbSpline
210
0.0
220
0.0
230
1.0
 70
     8
 71
     3
 72
    11
 73
     7
 74
     0
 42
0.0000000001
 43
0.0000000001
 40
0.0
 40
0.0
 40
0.0
 40
0.0
 40
1.0
 40
1.0
 40
1.0
 40
2.0
 40
2.0
 40
2.0
 40
2.0
 10
151.6399396791054
 20
77.12574801726412
 30
0.0
 10
152.191499830155
 20
77.12574801726412
 30
0.0
 10
152.6390180289143
 20
77.57326621602334
 30
0.0
 10
152.6390180289143
 20
78.12482636707301
 30
0.0
 10
152.6390180289143
 20
78.12482636707301
 30
0.0
 10
152.6390180289143
 20
78.12482636707301
 30
0.0
 10
152.6390180289143
 20
78.12482636707301
 30
0.0
  0
ENDBLK
  5
4FD
330
4FA
100
AcDbEntity
  8
0
100
AcDbBlockEnd
  0
BLOCK
  5
501
330
4FF
100
AcDbEntity
  8
0
100
AcDbBlockBegin
  2
block 161
 70
     0
 71
     0
 10
0.0
 20
0.0
 30
0.0
  3
block 161
  1

  0
SPLINE
  5
503
330
4FF
100
AcDbEntity
  8
050
 62
     7
420
 16777215
370
     9
100
AcDbSpline
210
0.0
220
0.0
230
1.0
 70
    11
 71
     3
 72
    23
 73
    19
 74
     0
 42
0.0000000001
 43
0.0000000001
 40
0.0
 40
0.0
 40
0.0
 40
0.0
 40
1.0
 40
1.0
 40
1.0
 40
2.0
 40
2.0
 40
2.0
 40
3.0
 40
3.0
 40
3.0
 40
4.0
 40
4.0
 40
4.0
 40
5.0
 40
5.0
 40
5.0
 40
6.0
 40
6.0
 40
6.0
 40
6.0
 10
94.68799511291331
 20
96.10961470273621
 30
0.0
 10
94.68799511291331
 20
97.7649841754368
 30
0.0
 10
93.34612953618723
 20
99.10719426193867
 30
0.0
 10
91.69058780859875
 20
99.10719426193867
 30
0.0
 10
90.03521833589815
 20
99.10719426193867
 30
0.0
 10
88.69318050428419
 20
97.7649841754368
 30
0.0
 10
88.69318050428419
 20
96.10961470273621
 30
0.0
 10
88.69318050428419
 20
94.45424523003561
 30
0.0
 10
90.03521833589815
 20
93.11237965330953
 30
0.0
 10
91.69058780859875
 20
93.11237965330953
 30
0.0
 10
93.34612953618723
 20
93.11237965330953
 30
0.0
 10
94.68799511291331
 20
94.45424523003561
 30
0.0
 10
94.68799511291331
 20
96.10961470273621
 30
0.0
 10
94.68799511291331
 20
96.10961470273621
 30
0.0
 10
94.68799511291331
 20
96.10961470273621
 30
0.0
 10
94.68799511291331
 20
96.10961470273621
 30
0.0
 10
94.68799511291331
 20
96.10961470273621
 30
0.0
 10
94.68799511291331
 20
96.10961470273621
 30
0.0
 10
94.68799511291331
 20
96.10961470273621
 30
0.0
  0
ENDBLK
  5
502
330
4FF
100
AcDbEntity
  8
0
100
AcDbBlockEnd
  0
BLOCK
  5
506
330
504
100
AcDbEntity
  8
0
100
AcDbBlockBegin
  2
block 162
 70
     0
 71
     0
 10
0.0
 20
0.0
 30
0.0
  3
block 162
  1

  0
POLYLINE
  5
508
330
504
100
AcDbEntity
  8
050
 62
     7
420
 16777215
370
     9
100
AcDb2dPolyline
 66
     1
 10
0.0
 20
0.0
 30
0.0
  0
VERTEX
  5
509
330
508
100
AcDbEntity
  8
050
 62
     7
420
 16777215
370
     9
100
AcDbVertex
100
AcDb2dVertex
 10
75.70412842744122
 20
157.0580449230517
 30
0.0
  0
VERTEX
  5
50A
330
508
100
AcDbEntity
  8
050
 62
     7
420
 16777215
370
     9
100
AcDbVertex
100
AcDb2dVertex
 10
149.6414384697118
 20
157.0580449230517
 30
0.0
  0
SEQEND
  5
50B
330
508
100
AcDbEntity
  8
050
370
     9
  0
ENDBLK
  5
507
330
504
100
AcDbEntity
  8
0
100
AcDbBlockEnd
  0
BLOCK
  5
50E
330
50C
100
AcDbEntity
  8
0
100
AcDbBlockBegin
  2
block 163
 70
     0
 71
     0
 10
0.0
 20
0.0
 30
0.0
  3
block 163
  1

  0
POLYLINE
  5
510
330
50C
100
AcDbEntity
  8
050
 62
     7
420
 16777215
370
     9
100
AcDb2dPolyline
 66
     1
 10
0.0
 20
0.0
 30
0.0
  0
VERTEX
  5
511
330
510
100
AcDbEntity
  8
050
 62
     7
420
 16777215
370
     9
100
AcDbVertex
100
AcDb2dVertex
 10
73.70579947293555
 20
157.0580449230517
 30
0.0
  0
VERTEX
  5
512
330
510
100
AcDbEntity
  8
050
 62
     7
420
 16777215
370
     9
100
AcDbVertex
100
AcDb2dVertex
 10
151.6399396791054
 20
157.0580449230517
 30
0.0
  0
SEQEND
  5
513
330
510
100
AcDbEntity
  8
050
370
     9
  0
ENDBLK
  5
50F
330
50C
100
AcDbEntity
  8
0
100
AcDbBlockEnd
  0
BLOCK
  5
516
330
514
100
AcDbEntity
  8
0
100
AcDbBlockBegin
  2
block 164
 70
     0
 71
     0
 10
0.0
 20
0.0
 30
0.0
  3
block 164
  1

  0
SPLINE
  5
518
330
514
100
AcDbEntity
  8
050
 62
     7
420
 16777215
370
     9
100
AcDbSpline
210
0.0
220
0.0
230
1.0
 70
     8
 71
     3
 72
    11
 73
     7
 74
     0
 42
0.0000000001
 43
0.0000000001
 40
0.0
 40
0.0
 40
0.0
 40
0.0
 40
1.0
 40
1.0
 40
1.0
 40
2.0
 40
2.0
 40
2.0
 40
2.0
 10
152.6390180289143
 20
156.0589665732428
 30
0.0
 10
152.6390180289143
 20
156.6106989791804
 30
0.0
 10
152.191499830155
 20
157.0580449230517
 30
0.0
 10
151.6399396791054
 20
157.0580449230517
 30
0.0
 10
151.6399396791054
 20
157.0580449230517
 30
0.0
 10
151.6399396791054
 20
157.0580449230517
 30
0.0
 10
151.6399396791054
 20
157.0580449230517
 30
0.0
  0
ENDBLK
  5
517
330
514
100
AcDbEntity
  8
0
100
AcDbBlockEnd
  0
BLOCK
  5
51C
330
51A
100
AcDbEntity
  8
0
100
AcDbBlockBegin
  2
block 165
 70
     0
 71
     0
 10
0.0
 20
0.0
 30
0.0
  3
block 165
  1

  0
POLYLINE
  5
51E
330
51A
100
AcDbEntity
  8
LINEAS-FINAS
 62
     7
420
 16777215
370
     9
100
AcDb2dPolyline
 66
     1
 10
0.0
 20
0.0
 30
0.0
  0
VERTEX
  5
51F
330
51E
100
AcDbEntity
  8
LINEAS-FINAS
 62
     7
420
 16777215
370
     9
100
AcDbVertex
100
AcDb2dVertex
 10
85.09615393519638
 20
185.9136669790751
 30
0.0
  0
VERTEX
  5
520
330
51E
100
AcDbEntity
  8
LINEAS-FINAS
 62
     7
420
 16777215
370
     9
100
AcDbVertex
100
AcDb2dVertex
 10
88.19364132937973
 20
185.9136669790751
 30
0.0
  0
SEQEND
  5
521
330
51E
100
AcDbEntity
  8
LINEAS-FINAS
370
     9
  0
ENDBLK
  5
51D
330
51A
100
AcDbEntity
  8
0
100
AcDbBlockEnd
  0
BLOCK
  5
525
330
523
100
AcDbEntity
  8
0
100
AcDbBlockBegin
  2
block 166
 70
     0
 71
     0
 10
0.0
 20
0.0
 30
0.0
  3
block 166
  1

  0
POLYLINE
  5
527
330
523
100
AcDbEntity
  8
SOMBREA
370
     0
100
AcDb2dPolyline
 66
     1
 10
0.0
 20
0.0
 30
0.0
  0
VERTEX
  5
528
330
527
100
AcDbEntity
  8
SOMBREA
370
     0
100
AcDbVertex
100
AcDb2dVertex
 10
83.42631505191235
 20
186.8805336648471
 30
0.0
  0
VERTEX
  5
529
330
527
100
AcDbEntity
  8
SOMBREA
370
     0
100
AcDbVertex
100
AcDb2dVertex
 10
82.9369389153939
 20
187.0522717880815
 30
0.0
  0
VERTEX
  5
52A
330
527
100
AcDbEntity
  8
SOMBREA
370
     0
100
AcDbVertex
100
AcDb2dVertex
 10
79.77209986004239
 20
188.060307392061
 30
0.0
  0
VERTEX
  5
52B
330
527
100
AcDbEntity
  8
SOMBREA
370
     0
100
AcDbVertex
100
AcDb2dVertex
 10
78.10260548653416
 20
189.7394480392916
 30
0.0
  0
VERTEX
  5
52C
330
527
100
AcDbEntity
  8
SOMBREA
370
     0
100
AcDbVertex
100
AcDb2dVertex
 10
77.68643767737238
 20
192.4305861529234
 30
0.0
  0
VERTEX
  5
52D
330
527
100
AcDbEntity
  8
SOMBREA
370
     0
100
AcDbVertex
100
AcDb2dVertex
 10
76.74196412702719
 20
193.3292399030877
 30
0.0
  0
VERTEX
  5
52E
330
527
100
AcDbEntity
  8
SOMBREA
370
     0
100
AcDbVertex
100
AcDb2dVertex
 10
73.206432552919
 20
193.5058011631832
 30
0.0
  0
VERTEX
  5
52F
330
527
100
AcDbEntity
  8
SOMBREA
370
     0
100
AcDbVertex
100
AcDb2dVertex
 10
72.70672112312666
 20
193.0062619882788
 30
0.0
  0
VERTEX
  5
530
330
527
100
AcDbEntity
  8
SOMBREA
370
     0
100
AcDbVertex
100
AcDb2dVertex
 10
72.70672112312666
 20
185.5135188744879
 30
0.0
  0
VERTEX
  5
531
330
527
100
AcDbEntity
  8
SOMBREA
370
     0
100
AcDbVertex
100
AcDb2dVertex
 10
73.206432552919
 20
185.0139796995834
 30
0.0
  0
VERTEX
  5
532
330
527
100
AcDbEntity
  8
SOMBREA
370
     0
100
AcDbVertex
100
AcDb2dVertex
 10
76.9390237187826
 20
185.0139796995834
 30
0.0
  0
VERTEX
  5
533
330
527
100
AcDbEntity
  8
SOMBREA
370
     0
100
AcDbVertex
100
AcDb2dVertex
 10
77.23616340040678
 20
185.2764961487401
 30
0.0
  0
VERTEX
  5
534
330
527
100
AcDbEntity
  8
SOMBREA
370
     0
100
AcDbVertex
100
AcDb2dVertex
 10
77.39033152507557
 20
186.1096930415032
 30
0.0
  0
VERTEX
  5
535
330
527
100
AcDbEntity
  8
SOMBREA
370
     0
100
AcDbVertex
100
AcDb2dVertex
 10
78.63935171722459
 20
186.8913857227847
 30
0.0
  0
VERTEX
  5
536
330
527
100
AcDbEntity
  8
SOMBREA
370
     0
100
AcDbVertex
100
AcDb2dVertex
 10
82.80568069081555
 20
185.7390005227465
 30
0.0
  0
VERTEX
  5
537
330
527
100
AcDbEntity
  8
SOMBREA
370
     0
100
AcDbVertex
100
AcDb2dVertex
 10
83.79752433533272
 20
185.165219491158
 30
0.0
  0
VERTEX
  5
538
330
527
100
AcDbEntity
  8
SOMBREA
370
     0
100
AcDbVertex
100
AcDb2dVertex
 10
83.79752433533272
 20
185.0139796995834
 30
0.0
  0
VERTEX
  5
539
330
527
100
AcDbEntity
  8
SOMBREA
370
     0
100
AcDbVertex
100
AcDb2dVertex
 10
85.09615393519638
 20
185.0139796995834
 30
0.0
  0
VERTEX
  5
53A
330
527
100
AcDbEntity
  8
SOMBREA
370
     0
100
AcDbVertex
100
AcDb2dVertex
 10
85.09615393519638
 20
185.6258290613974
 30
0.0
  0
VERTEX
  5
53B
330
527
100
AcDbEntity
  8
SOMBREA
370
     0
100
AcDbVertex
100
AcDb2dVertex
 10
84.84690111240785
 20
186.0580165751337
 30
0.0
  0
VERTEX
  5
53C
330
527
100
AcDbEntity
  8
SOMBREA
370
     0
100
AcDbVertex
100
AcDb2dVertex
 10
83.42631505191235
 20
186.8805336648471
 30
0.0
  0
SEQEND
  5
53D
330
527
100
AcDbEntity
  8
SOMBREA
370
     0
  0
POLYLINE
  5
53E
330
523
100
AcDbEntity
  8
SOMBREA
370
     0
100
AcDb2dPolyline
 66
     1
 10
0.0
 20
0.0
 30
0.0
  0
VERTEX
  5
53F
330
53E
100
AcDbEntity
  8
SOMBREA
370
     0
100
AcDbVertex
100
AcDb2dVertex
 10
77.63424444633927
 20
187.8055424128598
 30
0.0
  0
VERTEX
  5
540
330
53E
100
AcDbEntity
  8
SOMBREA
370
     0
100
AcDbVertex
100
AcDb2dVertex
 10
76.40244974298005
 20
186.2659282248267
 30
0.0
  0
VERTEX
  5
541
330
53E
100
AcDbEntity
  8
SOMBREA
370
     0
100
AcDbVertex
100
AcDb2dVertex
 10
76.10634359068325
 20
186.0132303042802
 30
0.0
  0
VERTEX
  5
542
330
53E
100
AcDbEntity
  8
SOMBREA
370
     0
100
AcDbVertex
100
AcDb2dVertex
 10
74.00552297787821
 20
186.0132303042802
 30
0.0
  0
VERTEX
  5
543
330
53E
100
AcDbEntity
  8
SOMBREA
370
     0
100
AcDbVertex
100
AcDb2dVertex
 10
73.70597172782344
 20
186.3136428287745
 30
0.0
  0
VERTEX
  5
544
330
53E
100
AcDbEntity
  8
SOMBREA
370
     0
100
AcDbVertex
100
AcDb2dVertex
 10
73.70597172782344
 20
192.1661748999998
 30
0.0
  0
VERTEX
  5
545
330
53E
100
AcDbEntity
  8
SOMBREA
370
     0
100
AcDbVertex
100
AcDb2dVertex
 10
74.02068140801325
 20
192.4646926207272
 30
0.0
  0
VERTEX
  5
546
330
53E
100
AcDbEntity
  8
SOMBREA
370
     0
100
AcDbVertex
100
AcDb2dVertex
 10
76.42346483930362
 20
192.3446309638622
 30
0.0
  0
VERTEX
  5
547
330
53E
100
AcDbEntity
  8
SOMBREA
370
     0
100
AcDbVertex
100
AcDb2dVertex
 10
76.72594442245266
 20
192.055931771745
 30
0.0
  0
VERTEX
  5
548
330
53E
100
AcDbEntity
  8
SOMBREA
370
     0
100
AcDbVertex
100
AcDb2dVertex
 10
77.08681841259914
 20
189.7942250936432
 30
0.0
  0
VERTEX
  5
549
330
53E
100
AcDbEntity
  8
SOMBREA
370
     0
100
AcDbVertex
100
AcDb2dVertex
 10
77.75327257387684
 20
188.2759705117095
 30
0.0
  0
VERTEX
  5
54A
330
53E
100
AcDbEntity
  8
SOMBREA
370
     0
100
AcDbVertex
100
AcDb2dVertex
 10
77.63424444633927
 20
187.8055424128598
 30
0.0
  0
SEQEND
  5
54B
330
53E
100
AcDbEntity
  8
SOMBREA
370
     0
  0
HATCH
  5
54C
330
523
100
AcDbEntity
  8
SOMBREA
 62
     7
420
 16777215
100
AcDbHatch
 10
0.0
 20
0.0
 30
0.0
210
0.0
220
0.0
230
1.0
  2
SOLID
 70
     1
 71
     0
 91
        2
 92
        1
 93
       20
 72
     1
 10
83.42631505191235
 20
186.8805336648471
 11
82.9369389153939
 21
187.0522717880815
 72
     1
 10
82.9369389153939
 20
187.0522717880815
 11
79.77209986004239
 21
188.060307392061
 72
     1
 10
79.77209986004239
 20
188.060307392061
 11
78.10260548653416
 21
189.7394480392916
 72
     1
 10
78.10260548653416
 20
189.7394480392916
 11
77.68643767737238
 21
192.4305861529234
 72
     1
 10
77.68643767737238
 20
192.4305861529234
 11
76.74196412702719
 21
193.3292399030877
 72
     1
 10
76.74196412702719
 20
193.3292399030877
 11
73.206432552919
 21
193.5058011631832
 72
     1
 10
73.206432552919
 20
193.5058011631832
 11
72.70672112312666
 21
193.0062619882788
 72
     1
 10
72.70672112312666
 20
193.0062619882788
 11
72.70672112312666
 21
185.5135188744879
 72
     1
 10
72.70672112312666
 20
185.5135188744879
 11
73.206432552919
 21
185.0139796995834
 72
     1
 10
73.206432552919
 20
185.0139796995834
 11
76.9390237187826
 21
185.0139796995834
 72
     1
 10
76.9390237187826
 20
185.0139796995834
 11
77.23616340040678
 21
185.2764961487401
 72
     1
 10
77.23616340040678
 20
185.2764961487401
 11
77.39033152507557
 21
186.1096930415032
 72
     1
 10
77.39033152507557
 20
186.1096930415032
 11
78.63935171722459
 21
186.8913857227847
 72
     1
 10
78.63935171722459
 20
186.8913857227847
 11
82.80568069081555
 21
185.7390005227465
 72
     1
 10
82.80568069081555
 20
185.7390005227465
 11
83.79752433533272
 21
185.165219491158
 72
     1
 10
83.79752433533272
 20
185.165219491158
 11
83.79752433533272
 21
185.0139796995834
 72
     1
 10
83.79752433533272
 20
185.0139796995834
 11
85.09615393519638
 21
185.0139796995834
 72
     1
 10
85.09615393519638
 20
185.0139796995834
 11
85.09615393519638
 21
185.6258290613974
 72
     1
 10
85.09615393519638
 20
185.6258290613974
 11
84.84690111240785
 21
186.0580165751337
 72
     1
 10
84.84690111240785
 20
186.0580165751337
 11
83.42631505191235
 21
186.8805336648471
 97
        0
 92
        1
 93
       11
 72
     1
 10
77.63424444633927
 20
187.8055424128598
 11
76.40244974298005
 21
186.2659282248267
 72
     1
 10
76.40244974298005
 20
186.2659282248267
 11
76.10634359068325
 21
186.0132303042802
 72
     1
 10
76.10634359068325
 20
186.0132303042802
 11
74.00552297787821
 21
186.0132303042802
 72
     1
 10
74.00552297787821
 20
186.0132303042802
 11
73.70597172782344
 21
186.3136428287745
 72
     1
 10
73.70597172782344
 20
186.3136428287745
 11
73.70597172782344
 21
192.1661748999998
 72
     1
 10
73.70597172782344
 20
192.1661748999998
 11
74.02068140801325
 21
192.4646926207272
 72
     1
 10
74.02068140801325
 20
192.4646926207272
 11
76.42346483930362
 21
192.3446309638622
 72
     1
 10
76.42346483930362
 20
192.3446309638622
 11
76.72594442245266
 21
192.055931771745
 72
     1
 10
76.72594442245266
 20
192.055931771745
 11
77.08681841259914
 21
189.7942250936432
 72
     1
 10
77.08681841259914
 20
189.7942250936432
 11
77.75327257387684
 21
188.2759705117095
 72
     1
 10
77.75327257387684
 20
188.2759705117095
 11
77.63424444633927
 21
187.8055424128598
 97
        0
 75
     0
 76
     1
 98
        0
  0
ENDBLK
  5
526
330
523
100
AcDbEntity
  8
0
100
AcDbBlockEnd
  0
BLOCK
  5
54F
330
54D
100
AcDbEntity
  8
0
100
AcDbBlockBegin
  2
block 167
 70
     0
 71
     0
 10
0.0
 20
0.0
 30
0.0
  3
block 167
  1

  0
SPLINE
  5
551
330
54D
100
AcDbEntity
  8
SOMBREA
370
     0
100
AcDbSpline
210
0.0
220
0.0
230
1.0
 70
    11
 71
     3
 72
    71
 73
    67
 74
     0
 42
0.0000000001
 43
0.0000000001
 40
0.0
 40
0.0
 40
0.0
 40
0.0
 40
1.0
 40
1.0
 40
1.0
 40
2.0
 40
2.0
 40
2.0
 40
3.0
 40
3.0
 40
3.0
 40
4.0
 40
4.0
 40
4.0
 40
5.0
 40
5.0
 40
5.0
 40
6.0
 40
6.0
 40
6.0
 40
7.0
 40
7.0
 40
7.0
 40
8.0
 40
8.0
 40
8.0
 40
9.0
 40
9.0
 40
9.0
 40
10.0
 40
10.0
 40
10.0
 40
11.0
 40
11.0
 40
11.0
 40
12.0
 40
12.0
 40
12.0
 40
13.0
 40
13.0
 40
13.0
 40
14.0
 40
14.0
 40
14.0
 40
15.0
 40
15.0
 40
15.0
 40
16.0
 40
16.0
 40
16.0
 40
17.0
 40
17.0
 40
17.0
 40
18.0
 40
18.0
 40
18.0
 40
19.0
 40
19.0
 40
19.0
 40
20.0
 40
20.0
 40
20.0
 40
21.0
 40
21.0
 40
21.0
 40
22.0
 40
22.0
 40
22.0
 40
22.0
 10
151.1135287416888
 20
192.498799088531
 30
0.0
 10
151.114906780792
 20
192.498799088531
 30
0.0
 10
151.1180073687742
 20
192.498799088531
 30
0.0
 10
151.1197299176532
 20
192.498799088531
 30
0.0
 10
151.3402161741627
 20
192.5027609509526
 30
0.0
 10
151.5224618455589
 20
192.3270609652966
 30
0.0
 10
151.5262514530926
 20
192.1057134343476
 30
0.0
 10
151.5262514530926
 20
192.1057134343476
 30
0.0
 10
151.5262514530926
 20
192.1057134343476
 30
0.0
 10
151.5262514530926
 20
192.1057134343476
 30
0.0
 10
151.5262514530926
 20
192.1057134343476
 30
0.0
 10
151.5886077225117
 20
188.5433100977273
 30
0.0
 10
151.5886077225117
 20
188.5433100977273
 30
0.0
 10
151.5886077225117
 20
188.5433100977273
 30
0.0
 10
151.5886077225117
 20
188.5433100977273
 30
0.0
 10
151.5886077225117
 20
188.5433100977273
 30
0.0
 10
151.5886077225117
 20
188.5433100977273
 30
0.0
 10
152.5876860723206
 20
188.5433100977273
 30
0.0
 10
152.5876860723206
 20
188.5433100977273
 30
0.0
 10
152.5876860723206
 20
188.5433100977273
 30
0.0
 10
152.5876860723206
 20
188.5433100977273
 30
0.0
 10
152.5876860723206
 20
188.5433100977273
 30
0.0
 10
152.5876860723206
 20
188.5433100977273
 30
0.0
 10
152.5170615682824
 20
192.6071474130189
 30
0.0
 10
152.5170615682824
 20
192.6071474130189
 30
0.0
 10
152.5170615682824
 20
192.6071474130189
 30
0.0
 10
152.5170615682824
 20
192.6071474130189
 30
0.0
 10
152.5170615682824
 20
192.6071474130189
 30
0.0
 10
152.5170615682824
 20
193.1037582548291
 30
0.0
 10
152.1139851306009
 20
193.5058011631832
 30
0.0
 10
151.6175465436786
 20
193.5058011631832
 30
0.0
 10
151.6175465436786
 20
193.5058011631832
 30
0.0
 10
151.6175465436786
 20
193.5058011631832
 30
0.0
 10
151.6175465436786
 20
193.5058011631832
 30
0.0
 10
151.6175465436786
 20
193.5058011631832
 30
0.0
 10
151.6175465436786
 20
193.5058011631832
 30
0.0
 10
151.6175465436786
 20
193.5058011631832
 30
0.0
 10
150.4596491872277
 20
193.5486926302698
 30
0.0
 10
148.3774321023157
 20
193.2608547125921
 30
0.0
 10
147.2750008197679
 20
192.9048038593068
 30
0.0
 10
147.2750008197679
 20
192.9048038593068
 30
0.0
 10
147.2750008197679
 20
192.9048038593068
 30
0.0
 10
147.2750008197679
 20
192.9048038593068
 30
0.0
 10
145.9844671996355
 20
192.6178272160686
 30
0.0
 10
144.5754222166291
 20
191.3631226126189
 30
0.0
 10
144.1423734284533
 20
190.1141024204699
 30
0.0
 10
144.1423734284533
 20
190.1141024204699
 30
0.0
 10
144.1423734284533
 20
190.1141024204699
 30
0.0
 10
144.1423734284533
 20
190.1141024204699
 30
0.0
 10
144.1423734284533
 20
190.1141024204699
 30
0.0
 10
145.2479052989833
 20
190.1141024204699
 30
0.0
 10
145.2479052989833
 20
190.1141024204699
 30
0.0
 10
145.2479052989833
 20
190.1141024204699
 30
0.0
 10
145.2479052989833
 20
190.1141024204699
 30
0.0
 10
145.2479052989833
 20
190.1141024204699
 30
0.0
 10
145.6310001696686
 20
190.9230113740393
 30
0.0
 10
146.6724532219004
 20
191.7513851299412
 30
0.0
 10
147.5461300133195
 20
191.9436215848355
 30
0.0
 10
147.5461300133195
 20
191.9436215848355
 30
0.0
 10
147.5461300133195
 20
191.9436215848355
 30
0.0
 10
147.5461300133195
 20
191.9436215848355
 30
0.0
 10
148.4484011161297
 20
192.2305982280737
 30
0.0
 10
150.1664713680252
 20
192.498799088531
 30
0.0
 10
151.1135287416888
 20
192.498799088531
 30
0.0
 10
151.1135287416888
 20
192.498799088531
 30
0.0
 10
151.1135287416888
 20
192.498799088531
 30
0.0
 10
151.1135287416888
 20
192.498799088531
 30
0.0
  0
SPLINE
  5
552
330
54D
100
AcDbEntity
  8
SOMBREA
370
     0
100
AcDbSpline
210
0.0
220
0.0
230
1.0
 70
    11
 71
     3
 72
   134
 73
   130
 74
     0
 42
0.0000000001
 43
0.0000000001
 40
0.0
 40
0.0
 40
0.0
 40
0.0
 40
1.0
 40
1.0
 40
1.0
 40
2.0
 40
2.0
 40
2.0
 40
3.0
 40
3.0
 40
3.0
 40
4.0
 40
4.0
 40
4.0
 40
5.0
 40
5.0
 40
5.0
 40
6.0
 40
6.0
 40
6.0
 40
7.0
 40
7.0
 40
7.0
 40
8.0
 40
8.0
 40
8.0
 40
9.0
 40
9.0
 40
9.0
 40
10.0
 40
10.0
 40
10.0
 40
11.0
 40
11.0
 40
11.0
 40
12.0
 40
12.0
 40
12.0
 40
13.0
 40
13.0
 40
13.0
 40
14.0
 40
14.0
 40
14.0
 40
15.0
 40
15.0
 40
15.0
 40
16.0
 40
16.0
 40
16.0
 40
17.0
 40
17.0
 40
17.0
 40
18.0
 40
18.0
 40
18.0
 40
19.0
 40
19.0
 40
19.0
 40
20.0
 40
20.0
 40
20.0
 40
21.0
 40
21.0
 40
21.0
 40
22.0
 40
22.0
 40
22.0
 40
23.0
 40
23.0
 40
23.0
 40
24.0
 40
24.0
 40
24.0
 40
25.0
 40
25.0
 40
25.0
 40
26.0
 40
26.0
 40
26.0
 40
27.0
 40
27.0
 40
27.0
 40
28.0
 40
28.0
 40
28.0
 40
29.0
 40
29.0
 40
29.0
 40
30.0
 40
30.0
 40
30.0
 40
31.0
 40
31.0
 40
31.0
 40
32.0
 40
32.0
 40
32.0
 40
33.0
 40
33.0
 40
33.0
 40
34.0
 40
34.0
 40
34.0
 40
35.0
 40
35.0
 40
35.0
 40
36.0
 40
36.0
 40
36.0
 40
37.0
 40
37.0
 40
37.0
 40
38.0
 40
38.0
 40
38.0
 40
39.0
 40
39.0
 40
39.0
 40
40.0
 40
40.0
 40
40.0
 40
41.0
 40
41.0
 40
41.0
 40
42.0
 40
42.0
 40
42.0
 40
43.0
 40
43.0
 40
43.0
 40
43.0
 10
145.5338484128941
 20
188.106127192242
 30
0.0
 10
145.5338484128941
 20
188.106127192242
 30
0.0
 10
145.0825406066011
 20
188.106127192242
 30
0.0
 10
145.0825406066011
 20
188.106127192242
 30
0.0
 10
145.0825406066011
 20
188.106127192242
 30
0.0
 10
145.0825406066011
 20
188.106127192242
 30
0.0
 10
145.0825406066011
 20
188.106127192242
 30
0.0
 10
145.0801290381705
 20
188.106127192242
 30
0.0
 10
145.0753059013094
 20
188.106127192242
 30
0.0
 10
145.0728943328788
 20
188.106127192242
 30
0.0
 10
144.9071851307208
 20
188.1109503291031
 30
0.0
 10
144.7776494550215
 20
188.2504767883005
 30
0.0
 10
144.7828171016584
 20
188.4154969709069
 30
0.0
 10
144.7828171016584
 20
188.4154969709069
 30
0.0
 10
144.7828171016584
 20
188.4154969709069
 30
0.0
 10
144.7828171016584
 20
188.4154969709069
 30
0.0
 10
144.7735153377119
 20
188.9043563427617
 30
0.0
 10
144.9912455160151
 20
189.6984513759718
 30
0.0
 10
145.2479052989833
 20
190.1141024204699
 30
0.0
 10
145.2479052989833
 20
190.1141024204699
 30
0.0
 10
145.2479052989833
 20
190.1141024204699
 30
0.0
 10
145.2479052989833
 20
190.1141024204699
 30
0.0
 10
145.2479052989833
 20
190.1141024204699
 30
0.0
 10
144.1423734284533
 20
190.1141024204699
 30
0.0
 10
144.1423734284533
 20
190.1141024204699
 30
0.0
 10
144.1423734284533
 20
190.1141024204699
 30
0.0
 10
144.1423734284533
 20
190.1141024204699
 30
0.0
 10
144.1423734284533
 20
190.1141024204699
 30
0.0
 10
144.0758830417247
 20
189.9620013544559
 30
0.0
 10
143.9759752067438
 20
189.6614165750738
 30
0.0
 10
143.9370456020788
 20
189.5003582548891
 30
0.0
 10
143.9370456020788
 20
189.5003582548891
 30
0.0
 10
143.9370456020788
 20
189.5003582548891
 30
0.0
 10
143.9370456020788
 20
189.5003582548891
 30
0.0
 10
143.7944185548992
 20
188.875073011819
 30
0.0
 10
143.1667217433986
 20
188.3774286406814
 30
0.0
 10
142.5245555213145
 20
188.3812182482152
 30
0.0
 10
142.5245555213145
 20
188.3812182482152
 30
0.0
 10
142.5245555213145
 20
188.3812182482152
 30
0.0
 10
142.5245555213145
 20
188.3812182482152
 30
0.0
 10
142.5245555213145
 20
188.3812182482152
 30
0.0
 10
129.0042693701939
 20
188.1226636614802
 30
0.0
 10
129.0042693701939
 20
188.1226636614802
 30
0.0
 10
129.0042693701939
 20
188.1226636614802
 30
0.0
 10
129.0042693701939
 20
188.1226636614802
 30
0.0
 10
129.0042693701939
 20
188.1226636614802
 30
0.0
 10
129.0042693701939
 20
188.1226636614802
 30
0.0
 10
129.0039248604181
 20
186.8171438661006
 30
0.0
 10
129.0039248604181
 20
186.8171438661006
 30
0.0
 10
129.0039248604181
 20
186.8171438661006
 30
0.0
 10
129.0039248604181
 20
186.8171438661006
 30
0.0
 10
129.0039248604181
 20
186.8171438661006
 30
0.0
 10
129.0039248604181
 20
186.8171438661006
 30
0.0
 10
145.4739037119055
 20
187.1225517823439
 30
0.0
 10
145.4739037119055
 20
187.1225517823439
 30
0.0
 10
145.4739037119055
 20
187.1225517823439
 30
0.0
 10
145.4739037119055
 20
187.1225517823439
 30
0.0
 10
145.4739037119055
 20
187.1225517823439
 30
0.0
 10
146.5208689205501
 20
187.1821519735566
 30
0.0
 10
147.5995290285679
 20
186.4268142901235
 30
0.0
 10
147.9009750823896
 20
185.4229128034535
 30
0.0
 10
147.9009750823896
 20
185.4229128034535
 30
0.0
 10
147.9009750823896
 20
185.4229128034535
 30
0.0
 10
147.9009750823896
 20
185.4229128034535
 30
0.0
 10
147.971255076652
 20
185.1876126265847
 30
0.0
 10
148.2237807423106
 20
185.006228229628
 30
0.0
 10
148.4694162124532
 20
185.0139796995834
 30
0.0
 10
148.4694162124532
 20
185.0139796995834
 30
0.0
 10
148.4694162124532
 20
185.0139796995834
 30
0.0
 10
148.4694162124532
 20
185.0139796995834
 30
0.0
 10
148.4694162124532
 20
185.0139796995834
 30
0.0
 10
152.0395710190289
 20
185.0139796995834
 30
0.0
 10
152.0395710190289
 20
185.0139796995834
 30
0.0
 10
152.0395710190289
 20
185.0139796995834
 30
0.0
 10
152.0395710190289
 20
185.0139796995834
 30
0.0
 10
152.0395710190289
 20
185.0139796995834
 30
0.0
 10
152.370644913569
 20
185.0139796995834
 30
0.0
 10
152.6390180289143
 20
185.2832140893681
 30
0.0
 10
152.6390180289143
 20
185.6141157290204
 30
0.0
 10
152.6390180289143
 20
185.6141157290204
 30
0.0
 10
152.6390180289143
 20
185.6141157290204
 30
0.0
 10
152.6390180289143
 20
185.6141157290204
 30
0.0
 10
152.6390180289143
 20
185.6141157290204
 30
0.0
 10
152.6390180289143
 20
185.6141157290204
 30
0.0
 10
152.6390180289143
 20
185.6141157290204
 30
0.0
 10
152.6390180289143
 20
185.6141157290204
 30
0.0
 10
152.5876860723206
 20
188.5433100977273
 30
0.0
 10
152.5876860723206
 20
188.5433100977273
 30
0.0
 10
152.5876860723206
 20
188.5433100977273
 30
0.0
 10
152.5876860723206
 20
188.5433100977273
 30
0.0
 10
152.5876860723206
 20
188.5433100977273
 30
0.0
 10
152.5876860723206
 20
188.5433100977273
 30
0.0
 10
151.5886077225117
 20
188.5433100977273
 30
0.0
 10
151.5886077225117
 20
188.5433100977273
 30
0.0
 10
151.5886077225117
 20
188.5433100977273
 30
0.0
 10
151.5886077225117
 20
188.5433100977273
 30
0.0
 10
151.5886077225117
 20
188.5433100977273
 30
0.0
 10
151.5886077225117
 20
188.5433100977273
 30
0.0
 10
151.6271928174009
 20
186.3186382205235
 30
0.0
 10
151.6271928174009
 20
186.3186382205235
 30
0.0
 10
151.6271928174009
 20
186.3186382205235
 30
0.0
 10
151.6271928174009
 20
186.3186382205235
 30
0.0
 10
151.6271928174009
 20
186.3186382205235
 30
0.0
 10
151.6271928174009
 20
186.3176046911961
 30
0.0
 10
151.6271928174009
 20
186.3146763581019
 30
0.0
 10
151.6271928174009
 20
186.3136428287745
 30
0.0
 10
151.6271928174009
 20
186.1477613717286
 30
0.0
 10
151.4931785146162
 20
186.0132303042802
 30
0.0
 10
151.327813822234
 20
186.0132303042802
 30
0.0
 10
151.327813822234
 20
186.0132303042802
 30
0.0
 10
151.327813822234
 20
186.0132303042802
 30
0.0
 10
151.327813822234
 20
186.0132303042802
 30
0.0
 10
151.327813822234
 20
186.0132303042802
 30
0.0
 10
148.9152118623335
 20
186.0132303042802
 30
0.0
 10
148.9152118623335
 20
186.0132303042802
 30
0.0
 10
148.9152118623335
 20
186.0132303042802
 30
0.0
 10
148.9152118623335
 20
186.0132303042802
 30
0.0
 10
148.9152118623335
 20
186.0132303042802
 30
0.0
 10
148.809447361164
 20
186.0092684418586
 30
0.0
 10
148.6902469787386
 20
186.0824767692152
 30
0.0
 10
148.6471832567641
 20
186.1799730357656
 30
0.0
 10
148.6471832567641
 20
186.1799730357656
 30
0.0
 10
148.6471832567641
 20
186.1799730357656
 30
0.0
 10
148.6471832567641
 20
186.1799730357656
 30
0.0
 10
148.1493666307386
 20
187.3041084341885
 30
0.0
 10
146.7616812538316
 20
188.161765521033
 30
0.0
 10
145.5338484128941
 20
188.106127192242
 30
0.0
 10
145.5338484128941
 20
188.106127192242
 30
0.0
 10
145.5338484128941
 20
188.106127192242
 30
0.0
 10
145.5338484128941
 20
188.106127192242
 30
0.0
  0
HATCH
  5
553
330
54D
100
AcDbEntity
  8
SOMBREA
 62
     7
420
 16777215
100
AcDbHatch
 10
0.0
 20
0.0
 30
0.0
210
0.0
220
0.0
230
1.0
  2
SOLID
 70
     1
 71
     0
 91
        2
 92
        1
 93
        1
 72
     4
 94
        3
 73
     0
 74
     1
 95
       71
 96
       67
 40
0.0
 40
0.0
 40
0.0
 40
0.0
 40
1.0
 40
1.0
 40
1.0
 40
2.0
 40
2.0
 40
2.0
 40
3.0
 40
3.0
 40
3.0
 40
4.0
 40
4.0
 40
4.0
 40
5.0
 40
5.0
 40
5.0
 40
6.0
 40
6.0
 40
6.0
 40
7.0
 40
7.0
 40
7.0
 40
8.0
 40
8.0
 40
8.0
 40
9.0
 40
9.0
 40
9.0
 40
10.0
 40
10.0
 40
10.0
 40
11.0
 40
11.0
 40
11.0
 40
12.0
 40
12.0
 40
12.0
 40
13.0
 40
13.0
 40
13.0
 40
14.0
 40
14.0
 40
14.0
 40
15.0
 40
15.0
 40
15.0
 40
16.0
 40
16.0
 40
16.0
 40
17.0
 40
17.0
 40
17.0
 40
18.0
 40
18.0
 40
18.0
 40
19.0
 40
19.0
 40
19.0
 40
20.0
 40
20.0
 40
20.0
 40
21.0
 40
21.0
 40
21.0
 40
22.0
 40
22.0
 40
22.0
 40
22.0
 10
151.1135287416888
 20
192.498799088531
 10
151.114906780792
 20
192.498799088531
 10
151.1180073687742
 20
192.498799088531
 10
151.1197299176532
 20
192.498799088531
 10
151.3402161741627
 20
192.5027609509526
 10
151.5224618455589
 20
192.3270609652966
 10
151.5262514530926
 20
192.1057134343476
 10
151.5262514530926
 20
192.1057134343476
 10
151.5262514530926
 20
192.1057134343476
 10
151.5262514530926
 20
192.1057134343476
 10
151.5262514530926
 20
192.1057134343476
 10
151.5886077225117
 20
188.5433100977273
 10
151.5886077225117
 20
188.5433100977273
 10
151.5886077225117
 20
188.5433100977273
 10
151.5886077225117
 20
188.5433100977273
 10
151.5886077225117
 20
188.5433100977273
 10
151.5886077225117
 20
188.5433100977273
 10
152.5876860723206
 20
188.5433100977273
 10
152.5876860723206
 20
188.5433100977273
 10
152.5876860723206
 20
188.5433100977273
 10
152.5876860723206
 20
188.5433100977273
 10
152.5876860723206
 20
188.5433100977273
 10
152.5876860723206
 20
188.5433100977273
 10
152.5170615682824
 20
192.6071474130189
 10
152.5170615682824
 20
192.6071474130189
 10
152.5170615682824
 20
192.6071474130189
 10
152.5170615682824
 20
192.6071474130189
 10
152.5170615682824
 20
192.6071474130189
 10
152.5170615682824
 20
193.1037582548291
 10
152.1139851306009
 20
193.5058011631832
 10
151.6175465436786
 20
193.5058011631832
 10
151.6175465436786
 20
193.5058011631832
 10
151.6175465436786
 20
193.5058011631832
 10
151.6175465436786
 20
193.5058011631832
 10
151.6175465436786
 20
193.5058011631832
 10
151.6175465436786
 20
193.5058011631832
 10
151.6175465436786
 20
193.5058011631832
 10
150.4596491872277
 20
193.5486926302698
 10
148.3774321023157
 20
193.2608547125921
 10
147.2750008197679
 20
192.9048038593068
 10
147.2750008197679
 20
192.9048038593068
 10
147.2750008197679
 20
192.9048038593068
 10
147.2750008197679
 20
192.9048038593068
 10
145.9844671996355
 20
192.6178272160686
 10
144.5754222166291
 20
191.3631226126189
 10
144.1423734284533
 20
190.1141024204699
 10
144.1423734284533
 20
190.1141024204699
 10
144.1423734284533
 20
190.1141024204699
 10
144.1423734284533
 20
190.1141024204699
 10
144.1423734284533
 20
190.1141024204699
 10
145.2479052989833
 20
190.1141024204699
 10
145.2479052989833
 20
190.1141024204699
 10
145.2479052989833
 20
190.1141024204699
 10
145.2479052989833
 20
190.1141024204699
 10
145.2479052989833
 20
190.1141024204699
 10
145.6310001696686
 20
190.9230113740393
 10
146.6724532219004
 20
191.7513851299412
 10
147.5461300133195
 20
191.9436215848355
 10
147.5461300133195
 20
191.9436215848355
 10
147.5461300133195
 20
191.9436215848355
 10
147.5461300133195
 20
191.9436215848355
 10
148.4484011161297
 20
192.2305982280737
 10
150.1664713680252
 20
192.498799088531
 10
151.1135287416888
 20
192.498799088531
 10
151.1135287416888
 20
192.498799088531
 10
151.1135287416888
 20
192.498799088531
 10
151.1135287416888
 20
192.498799088531
 97
        0
 92
        1
 93
        1
 72
     4
 94
        3
 73
     0
 74
     1
 95
      134
 96
      130
 40
0.0
 40
0.0
 40
0.0
 40
0.0
 40
1.0
 40
1.0
 40
1.0
 40
2.0
 40
2.0
 40
2.0
 40
3.0
 40
3.0
 40
3.0
 40
4.0
 40
4.0
 40
4.0
 40
5.0
 40
5.0
 40
5.0
 40
6.0
 40
6.0
 40
6.0
 40
7.0
 40
7.0
 40
7.0
 40
8.0
 40
8.0
 40
8.0
 40
9.0
 40
9.0
 40
9.0
 40
10.0
 40
10.0
 40
10.0
 40
11.0
 40
11.0
 40
11.0
 40
12.0
 40
12.0
 40
12.0
 40
13.0
 40
13.0
 40
13.0
 40
14.0
 40
14.0
 40
14.0
 40
15.0
 40
15.0
 40
15.0
 40
16.0
 40
16.0
 40
16.0
 40
17.0
 40
17.0
 40
17.0
 40
18.0
 40
18.0
 40
18.0
 40
19.0
 40
19.0
 40
19.0
 40
20.0
 40
20.0
 40
20.0
 40
21.0
 40
21.0
 40
21.0
 40
22.0
 40
22.0
 40
22.0
 40
23.0
 40
23.0
 40
23.0
 40
24.0
 40
24.0
 40
24.0
 40
25.0
 40
25.0
 40
25.0
 40
26.0
 40
26.0
 40
26.0
 40
27.0
 40
27.0
 40
27.0
 40
28.0
 40
28.0
 40
28.0
 40
29.0
 40
29.0
 40
29.0
 40
30.0
 40
30.0
 40
30.0
 40
31.0
 40
31.0
 40
31.0
 40
32.0
 40
32.0
 40
32.0
 40
33.0
 40
33.0
 40
33.0
 40
34.0
 40
34.0
 40
34.0
 40
35.0
 40
35.0
 40
35.0
 40
36.0
 40
36.0
 40
36.0
 40
37.0
 40
37.0
 40
37.0
 40
38.0
 40
38.0
 40
38.0
 40
39.0
 40
39.0
 40
39.0
 40
40.0
 40
40.0
 40
40.0
 40
41.0
 40
41.0
 40
41.0
 40
42.0
 40
42.0
 40
42.0
 40
43.0
 40
43.0
 40
43.0
 40
43.0
 10
145.5338484128941
 20
188.106127192242
 10
145.5338484128941
 20
188.106127192242
 10
145.0825406066011
 20
188.106127192242
 10
145.0825406066011
 20
188.106127192242
 10
145.0825406066011
 20
188.106127192242
 10
145.0825406066011
 20
188.106127192242
 10
145.0825406066011
 20
188.106127192242
 10
145.0801290381705
 20
188.106127192242
 10
145.0753059013094
 20
188.106127192242
 10
145.0728943328788
 20
188.106127192242
 10
144.9071851307208
 20
188.1109503291031
 10
144.7776494550215
 20
188.2504767883005
 10
144.7828171016584
 20
188.4154969709069
 10
144.7828171016584
 20
188.4154969709069
 10
144.7828171016584
 20
188.4154969709069
 10
144.7828171016584
 20
188.4154969709069
 10
144.7735153377119
 20
188.9043563427617
 10
144.9912455160151
 20
189.6984513759718
 10
145.2479052989833
 20
190.1141024204699
 10
145.2479052989833
 20
190.1141024204699
 10
145.2479052989833
 20
190.1141024204699
 10
145.2479052989833
 20
190.1141024204699
 10
145.2479052989833
 20
190.1141024204699
 10
144.1423734284533
 20
190.1141024204699
 10
144.1423734284533
 20
190.1141024204699
 10
144.1423734284533
 20
190.1141024204699
 10
144.1423734284533
 20
190.1141024204699
 10
144.1423734284533
 20
190.1141024204699
 10
144.0758830417247
 20
189.9620013544559
 10
143.9759752067438
 20
189.6614165750738
 10
143.9370456020788
 20
189.5003582548891
 10
143.9370456020788
 20
189.5003582548891
 10
143.9370456020788
 20
189.5003582548891
 10
143.9370456020788
 20
189.5003582548891
 10
143.7944185548992
 20
188.875073011819
 10
143.1667217433986
 20
188.3774286406814
 10
142.5245555213145
 20
188.3812182482152
 10
142.5245555213145
 20
188.3812182482152
 10
142.5245555213145
 20
188.3812182482152
 10
142.5245555213145
 20
188.3812182482152
 10
142.5245555213145
 20
188.3812182482152
 10
129.0042693701939
 20
188.1226636614802
 10
129.0042693701939
 20
188.1226636614802
 10
129.0042693701939
 20
188.1226636614802
 10
129.0042693701939
 20
188.1226636614802
 10
129.0042693701939
 20
188.1226636614802
 10
129.0042693701939
 20
188.1226636614802
 10
129.0039248604181
 20
186.8171438661006
 10
129.0039248604181
 20
186.8171438661006
 10
129.0039248604181
 20
186.8171438661006
 10
129.0039248604181
 20
186.8171438661006
 10
129.0039248604181
 20
186.8171438661006
 10
129.0039248604181
 20
186.8171438661006
 10
145.4739037119055
 20
187.1225517823439
 10
145.4739037119055
 20
187.1225517823439
 10
145.4739037119055
 20
187.1225517823439
 10
145.4739037119055
 20
187.1225517823439
 10
145.4739037119055
 20
187.1225517823439
 10
146.5208689205501
 20
187.1821519735566
 10
147.5995290285679
 20
186.4268142901235
 10
147.9009750823896
 20
185.4229128034535
 10
147.9009750823896
 20
185.4229128034535
 10
147.9009750823896
 20
185.4229128034535
 10
147.9009750823896
 20
185.4229128034535
 10
147.971255076652
 20
185.1876126265847
 10
148.2237807423106
 20
185.006228229628
 10
148.4694162124532
 20
185.0139796995834
 10
148.4694162124532
 20
185.0139796995834
 10
148.4694162124532
 20
185.0139796995834
 10
148.4694162124532
 20
185.0139796995834
 10
148.4694162124532
 20
185.0139796995834
 10
152.0395710190289
 20
185.0139796995834
 10
152.0395710190289
 20
185.0139796995834
 10
152.0395710190289
 20
185.0139796995834
 10
152.0395710190289
 20
185.0139796995834
 10
152.0395710190289
 20
185.0139796995834
 10
152.370644913569
 20
185.0139796995834
 10
152.6390180289143
 20
185.2832140893681
 10
152.6390180289143
 20
185.6141157290204
 10
152.6390180289143
 20
185.6141157290204
 10
152.6390180289143
 20
185.6141157290204
 10
152.6390180289143
 20
185.6141157290204
 10
152.6390180289143
 20
185.6141157290204
 10
152.6390180289143
 20
185.6141157290204
 10
152.6390180289143
 20
185.6141157290204
 10
152.6390180289143
 20
185.6141157290204
 10
152.5876860723206
 20
188.5433100977273
 10
152.5876860723206
 20
188.5433100977273
 10
152.5876860723206
 20
188.5433100977273
 10
152.5876860723206
 20
188.5433100977273
 10
152.5876860723206
 20
188.5433100977273
 10
152.5876860723206
 20
188.5433100977273
 10
151.5886077225117
 20
188.5433100977273
 10
151.5886077225117
 20
188.5433100977273
 10
151.5886077225117
 20
188.5433100977273
 10
151.5886077225117
 20
188.5433100977273
 10
151.5886077225117
 20
188.5433100977273
 10
151.5886077225117
 20
188.5433100977273
 10
151.6271928174009
 20
186.3186382205235
 10
151.6271928174009
 20
186.3186382205235
 10
151.6271928174009
 20
186.3186382205235
 10
151.6271928174009
 20
186.3186382205235
 10
151.6271928174009
 20
186.3186382205235
 10
151.6271928174009
 20
186.3176046911961
 10
151.6271928174009
 20
186.3146763581019
 10
151.6271928174009
 20
186.3136428287745
 10
151.6271928174009
 20
186.1477613717286
 10
151.4931785146162
 20
186.0132303042802
 10
151.327813822234
 20
186.0132303042802
 10
151.327813822234
 20
186.0132303042802
 10
151.327813822234
 20
186.0132303042802
 10
151.327813822234
 20
186.0132303042802
 10
151.327813822234
 20
186.0132303042802
 10
148.9152118623335
 20
186.0132303042802
 10
148.9152118623335
 20
186.0132303042802
 10
148.9152118623335
 20
186.0132303042802
 10
148.9152118623335
 20
186.0132303042802
 10
148.9152118623335
 20
186.0132303042802
 10
148.809447361164
 20
186.0092684418586
 10
148.6902469787386
 20
186.0824767692152
 10
148.6471832567641
 20
186.1799730357656
 10
148.6471832567641
 20
186.1799730357656
 10
148.6471832567641
 20
186.1799730357656
 10
148.6471832567641
 20
186.1799730357656
 10
148.1493666307386
 20
187.3041084341885
 10
146.7616812538316
 20
188.161765521033
 10
145.5338484128941
 20
188.106127192242
 10
145.5338484128941
 20
188.106127192242
 10
145.5338484128941
 20
188.106127192242
 10
145.5338484128941
 20
188.106127192242
 97
        0
 75
     0
 76
     1
 98
        0
  0
ENDBLK
  5
550
330
54D
100
AcDbEntity
  8
0
100
AcDbBlockEnd
  0
BLOCK
  5
556
330
554
100
AcDbEntity
  8
0
100
AcDbBlockBegin
  2
block 168
 70
     0
 71
     0
 10
0.0
 20
0.0
 30
0.0
  3
block 168
  1

  0
SPLINE
  5
558
330
554
100
AcDbEntity
  8
SOMBREA
370
     0
100
AcDbSpline
210
0.0
220
0.0
230
1.0
 70
    11
 71
     3
 72
    77
 73
    73
 74
     0
 42
0.0000000001
 43
0.0000000001
 40
0.0
 40
0.0
 40
0.0
 40
0.0
 40
1.0
 40
1.0
 40
1.0
 40
2.0
 40
2.0
 40
2.0
 40
3.0
 40
3.0
 40
3.0
 40
4.0
 40
4.0
 40
4.0
 40
5.0
 40
5.0
 40
5.0
 40
6.0
 40
6.0
 40
6.0
 40
7.0
 40
7.0
 40
7.0
 40
8.0
 40
8.0
 40
8.0
 40
9.0
 40
9.0
 40
9.0
 40
10.0
 40
10.0
 40
10.0
 40
11.0
 40
11.0
 40
11.0
 40
12.0
 40
12.0
 40
12.0
 40
13.0
 40
13.0
 40
13.0
 40
14.0
 40
14.0
 40
14.0
 40
15.0
 40
15.0
 40
15.0
 40
16.0
 40
16.0
 40
16.0
 40
17.0
 40
17.0
 40
17.0
 40
18.0
 40
18.0
 40
18.0
 40
19.0
 40
19.0
 40
19.0
 40
20.0
 40
20.0
 40
20.0
 40
21.0
 40
21.0
 40
21.0
 40
22.0
 40
22.0
 40
22.0
 40
23.0
 40
23.0
 40
23.0
 40
24.0
 40
24.0
 40
24.0
 40
24.0
 10
129.0022023115391
 20
186.8171438661006
 30
0.0
 10
129.0022023115391
 20
186.8171438661006
 30
0.0
 10
129.0022023115391
 20
188.1226636614802
 30
0.0
 10
129.0022023115391
 20
188.1226636614802
 30
0.0
 10
129.0022023115391
 20
188.1226636614802
 30
0.0
 10
129.0022023115391
 20
188.1226636614802
 30
0.0
 10
129.0022023115391
 20
188.1226636614802
 30
0.0
 10
129.0022023115391
 20
188.1226636614802
 30
0.0
 10
100.3649994533705
 20
187.5752376277401
 30
0.0
 10
100.3649994533705
 20
187.5752376277401
 30
0.0
 10
100.3649994533705
 20
187.5752376277401
 30
0.0
 10
100.3649994533705
 20
187.5752376277401
 30
0.0
 10
100.3649994533705
 20
187.5752376277401
 30
0.0
 10
100.3649994533705
 20
187.5752376277401
 30
0.0
 10
93.55145736256175
 20
187.0133421834165
 30
0.0
 10
93.55145736256175
 20
187.0133421834165
 30
0.0
 10
93.55145736256175
 20
187.0133421834165
 30
0.0
 10
93.55145736256175
 20
187.0133421834165
 30
0.0
 10
93.55145736256175
 20
187.0133421834165
 30
0.0
 10
93.35198620237577
 20
187.0221271826993
 30
0.0
 10
93.03228113043693
 20
186.9342771898713
 30
0.0
 10
92.86502163428788
 20
186.824895336056
 30
0.0
 10
92.86502163428788
 20
186.824895336056
 30
0.0
 10
92.86502163428788
 20
186.824895336056
 30
0.0
 10
92.86502163428788
 20
186.824895336056
 30
0.0
 10
92.86502163428788
 20
186.824895336056
 30
0.0
 10
91.54038154635161
 20
186.0580165751337
 30
0.0
 10
91.54038154635161
 20
186.0580165751337
 30
0.0
 10
91.54038154635161
 20
186.0580165751337
 30
0.0
 10
91.54038154635161
 20
186.0580165751337
 30
0.0
 10
91.54038154635161
 20
186.0580165751337
 30
0.0
 10
91.39413714652615
 20
185.9829134440102
 30
0.0
 10
91.28286048894398
 20
185.7896434597885
 30
0.0
 10
91.29112872356309
 20
185.6258290613974
 30
0.0
 10
91.29112872356309
 20
185.6258290613974
 30
0.0
 10
91.29112872356309
 20
185.6258290613974
 30
0.0
 10
91.29112872356309
 20
185.6258290613974
 30
0.0
 10
91.29112872356309
 20
185.6258290613974
 30
0.0
 10
91.29112872356309
 20
185.0139796995834
 30
0.0
 10
91.29112872356309
 20
185.0139796995834
 30
0.0
 10
91.29112872356309
 20
185.0139796995834
 30
0.0
 10
91.29112872356309
 20
185.0139796995834
 30
0.0
 10
91.29112872356309
 20
185.0139796995834
 30
0.0
 10
91.29112872356309
 20
185.0139796995834
 30
0.0
 10
92.58993057831465
 20
185.0139796995834
 30
0.0
 10
92.58993057831465
 20
185.0139796995834
 30
0.0
 10
92.58993057831465
 20
185.0139796995834
 30
0.0
 10
92.58993057831465
 20
185.0139796995834
 30
0.0
 10
92.58993057831465
 20
185.0139796995834
 30
0.0
 10
92.58993057831465
 20
185.0139796995834
 30
0.0
 10
92.58993057831465
 20
185.165219491158
 30
0.0
 10
92.58993057831465
 20
185.165219491158
 30
0.0
 10
92.58993057831465
 20
185.165219491158
 30
0.0
 10
92.58993057831465
 20
185.165219491158
 30
0.0
 10
92.58993057831465
 20
185.165219491158
 30
0.0
 10
92.58993057831465
 20
185.165219491158
 30
0.0
 10
93.58177422283181
 20
185.7390005227465
 30
0.0
 10
93.58177422283181
 20
185.7390005227465
 30
0.0
 10
93.58177422283181
 20
185.7390005227465
 30
0.0
 10
93.58177422283181
 20
185.7390005227465
 30
0.0
 10
93.58177422283181
 20
185.7390005227465
 30
0.0
 10
93.58177422283181
 20
185.7390005227465
 30
0.0
 10
101.2274796770762
 20
186.3010682219579
 30
0.0
 10
101.2274796770762
 20
186.3010682219579
 30
0.0
 10
101.2274796770762
 20
186.3010682219579
 30
0.0
 10
101.2274796770762
 20
186.3010682219579
 30
0.0
 10
101.2274796770762
 20
186.3010682219579
 30
0.0
 10
101.2274796770762
 20
186.3010682219579
 30
0.0
 10
129.0022023115391
 20
186.8171438661006
 30
0.0
 10
129.0022023115391
 20
186.8171438661006
 30
0.0
 10
129.0022023115391
 20
186.8171438661006
 30
0.0
 10
129.0022023115391
 20
186.8171438661006
 30
0.0
 10
129.0022023115391
 20
186.8171438661006
 30
0.0
  0
HATCH
  5
559
330
554
100
AcDbEntity
  8
SOMBREA
 62
     7
420
 16777215
100
AcDbHatch
 10
0.0
 20
0.0
 30
0.0
210
0.0
220
0.0
230
1.0
  2
SOLID
 70
     1
 71
     0
 91
        1
 92
        1
 93
        1
 72
     4
 94
        3
 73
     0
 74
     1
 95
       77
 96
       73
 40
0.0
 40
0.0
 40
0.0
 40
0.0
 40
1.0
 40
1.0
 40
1.0
 40
2.0
 40
2.0
 40
2.0
 40
3.0
 40
3.0
 40
3.0
 40
4.0
 40
4.0
 40
4.0
 40
5.0
 40
5.0
 40
5.0
 40
6.0
 40
6.0
 40
6.0
 40
7.0
 40
7.0
 40
7.0
 40
8.0
 40
8.0
 40
8.0
 40
9.0
 40
9.0
 40
9.0
 40
10.0
 40
10.0
 40
10.0
 40
11.0
 40
11.0
 40
11.0
 40
12.0
 40
12.0
 40
12.0
 40
13.0
 40
13.0
 40
13.0
 40
14.0
 40
14.0
 40
14.0
 40
15.0
 40
15.0
 40
15.0
 40
16.0
 40
16.0
 40
16.0
 40
17.0
 40
17.0
 40
17.0
 40
18.0
 40
18.0
 40
18.0
 40
19.0
 40
19.0
 40
19.0
 40
20.0
 40
20.0
 40
20.0
 40
21.0
 40
21.0
 40
21.0
 40
22.0
 40
22.0
 40
22.0
 40
23.0
 40
23.0
 40
23.0
 40
24.0
 40
24.0
 40
24.0
 40
24.0
 10
129.0022023115391
 20
186.8171438661006
 10
129.0022023115391
 20
186.8171438661006
 10
129.0022023115391
 20
188.1226636614802
 10
129.0022023115391
 20
188.1226636614802
 10
129.0022023115391
 20
188.1226636614802
 10
129.0022023115391
 20
188.1226636614802
 10
129.0022023115391
 20
188.1226636614802
 10
129.0022023115391
 20
188.1226636614802
 10
100.3649994533705
 20
187.5752376277401
 10
100.3649994533705
 20
187.5752376277401
 10
100.3649994533705
 20
187.5752376277401
 10
100.3649994533705
 20
187.5752376277401
 10
100.3649994533705
 20
187.5752376277401
 10
100.3649994533705
 20
187.5752376277401
 10
93.55145736256175
 20
187.0133421834165
 10
93.55145736256175
 20
187.0133421834165
 10
93.55145736256175
 20
187.0133421834165
 10
93.55145736256175
 20
187.0133421834165
 10
93.55145736256175
 20
187.0133421834165
 10
93.35198620237577
 20
187.0221271826993
 10
93.03228113043693
 20
186.9342771898713
 10
92.86502163428788
 20
186.824895336056
 10
92.86502163428788
 20
186.824895336056
 10
92.86502163428788
 20
186.824895336056
 10
92.86502163428788
 20
186.824895336056
 10
92.86502163428788
 20
186.824895336056
 10
91.54038154635161
 20
186.0580165751337
 10
91.54038154635161
 20
186.0580165751337
 10
91.54038154635161
 20
186.0580165751337
 10
91.54038154635161
 20
186.0580165751337
 10
91.54038154635161
 20
186.0580165751337
 10
91.39413714652615
 20
185.9829134440102
 10
91.28286048894398
 20
185.7896434597885
 10
91.29112872356309
 20
185.6258290613974
 10
91.29112872356309
 20
185.6258290613974
 10
91.29112872356309
 20
185.6258290613974
 10
91.29112872356309
 20
185.6258290613974
 10
91.29112872356309
 20
185.6258290613974
 10
91.29112872356309
 20
185.0139796995834
 10
91.29112872356309
 20
185.0139796995834
 10
91.29112872356309
 20
185.0139796995834
 10
91.29112872356309
 20
185.0139796995834
 10
91.29112872356309
 20
185.0139796995834
 10
91.29112872356309
 20
185.0139796995834
 10
92.58993057831465
 20
185.0139796995834
 10
92.58993057831465
 20
185.0139796995834
 10
92.58993057831465
 20
185.0139796995834
 10
92.58993057831465
 20
185.0139796995834
 10
92.58993057831465
 20
185.0139796995834
 10
92.58993057831465
 20
185.0139796995834
 10
92.58993057831465
 20
185.165219491158
 10
92.58993057831465
 20
185.165219491158
 10
92.58993057831465
 20
185.165219491158
 10
92.58993057831465
 20
185.165219491158
 10
92.58993057831465
 20
185.165219491158
 10
92.58993057831465
 20
185.165219491158
 10
93.58177422283181
 20
185.7390005227465
 10
93.58177422283181
 20
185.7390005227465
 10
93.58177422283181
 20
185.7390005227465
 10
93.58177422283181
 20
185.7390005227465
 10
93.58177422283181
 20
185.7390005227465
 10
93.58177422283181
 20
185.7390005227465
 10
101.2274796770762
 20
186.3010682219579
 10
101.2274796770762
 20
186.3010682219579
 10
101.2274796770762
 20
186.3010682219579
 10
101.2274796770762
 20
186.3010682219579
 10
101.2274796770762
 20
186.3010682219579
 10
101.2274796770762
 20
186.3010682219579
 10
129.0022023115391
 20
186.8171438661006
 10
129.0022023115391
 20
186.8171438661006
 10
129.0022023115391
 20
186.8171438661006
 10
129.0022023115391
 20
186.8171438661006
 10
129.0022023115391
 20
186.8171438661006
 97
        0
 75
     0
 76
     1
 98
        0
  0
ENDBLK
  5
557
330
554
100
AcDbEntity
  8
0
100
AcDbBlockEnd
  0
ENDSEC
  0
SECTION
  2
ENTITIES
  0
INSERT
  5
3F
330
1F
100
AcDbEntity
  8
Fina
100
AcDbBlockReference
  2
block 2
 10
0.0
 20
0.0
 30
0.0
  0
INSERT
  5
44
330
1F
100
AcDbEntity
  8
Fina
100
AcDbBlockReference
  2
block 3
 10
0.0
 20
0.0
 30
0.0
  0
INSERT
  5
49
330
1F
100
AcDbEntity
  8
Fina
100
AcDbBlockReference
  2
block 4
 10
0.0
 20
0.0
 30
0.0
  0
INSERT
  5
4E
330
1F
100
AcDbEntity
  8
Fina
100
AcDbBlockReference
  2
block 5
 10
0.0
 20
0.0
 30
0.0
  0
INSERT
  5
53
330
1F
100
AcDbEntity
  8
Fina
100
AcDbBlockReference
  2
block 6
 10
0.0
 20
0.0
 30
0.0
  0
INSERT
  5
58
330
1F
100
AcDbEntity
  8
Fina
100
AcDbBlockReference
  2
block 7
 10
0.0
 20
0.0
 30
0.0
  0
INSERT
  5
5D
330
1F
100
AcDbEntity
  8
Fina
100
AcDbBlockReference
  2
block 8
 10
0.0
 20
0.0
 30
0.0
  0
INSERT
  5
62
330
1F
100
AcDbEntity
  8
Fina
100
AcDbBlockReference
  2
block 9
 10
0.0
 20
0.0
 30
0.0
  0
INSERT
  5
67
330
1F
100
AcDbEntity
  8
Fina
100
AcDbBlockReference
  2
block 10
 10
0.0
 20
0.0
 30
0.0
  0
INSERT
  5
6C
330
1F
100
AcDbEntity
  8
Fina
100
AcDbBlockReference
  2
block 11
 10
0.0
 20
0.0
 30
0.0
  0
INSERT
  5
71
330
1F
100
AcDbEntity
  8
Fina
100
AcDbBlockReference
  2
block 12
 10
0.0
 20
0.0
 30
0.0
  0
INSERT
  5
76
330
1F
100
AcDbEntity
  8
Fina
100
AcDbBlockReference
  2
block 13
 10
0.0
 20
0.0
 30
0.0
  0
INSERT
  5
7B
330
1F
100
AcDbEntity
  8
Fina
100
AcDbBlockReference
  2
block 14
 10
0.0
 20
0.0
 30
0.0
  0
INSERT
  5
80
330
1F
100
AcDbEntity
  8
Fina
100
AcDbBlockReference
  2
block 15
 10
0.0
 20
0.0
 30
0.0
  0
INSERT
  5
85
330
1F
100
AcDbEntity
  8
Fina
100
AcDbBlockReference
  2
block 16
 10
0.0
 20
0.0
 30
0.0
  0
INSERT
  5
8A
330
1F
100
AcDbEntity
  8
Fina
100
AcDbBlockReference
  2
block 17
 10
0.0
 20
0.0
 30
0.0
  0
INSERT
  5
8F
330
1F
100
AcDbEntity
  8
Fina
100
AcDbBlockReference
  2
block 18
 10
0.0
 20
0.0
 30
0.0
  0
INSERT
  5
94
330
1F
100
AcDbEntity
  8
Fina
100
AcDbBlockReference
  2
block 19
 10
0.0
 20
0.0
 30
0.0
  0
INSERT
  5
99
330
1F
100
AcDbEntity
  8
Fina
100
AcDbBlockReference
  2
block 20
 10
0.0
 20
0.0
 30
0.0
  0
INSERT
  5
9E
330
1F
100
AcDbEntity
  8
Fina
100
AcDbBlockReference
  2
block 21
 10
0.0
 20
0.0
 30
0.0
  0
INSERT
  5
A6
330
1F
100
AcDbEntity
  8
Fina
100
AcDbBlockReference
  2
block 22
 10
0.0
 20
0.0
 30
0.0
  0
INSERT
  5
AE
330
1F
100
AcDbEntity
  8
Fina
100
AcDbBlockReference
  2
block 23
 10
0.0
 20
0.0
 30
0.0
  0
INSERT
  5
B6
330
1F
100
AcDbEntity
  8
Fina
100
AcDbBlockReference
  2
block 24
 10
0.0
 20
0.0
 30
0.0
  0
INSERT
  5
BB
330
1F
100
AcDbEntity
  8
Fina
100
AcDbBlockReference
  2
block 25
 10
0.0
 20
0.0
 30
0.0
  0
INSERT
  5
C3
330
1F
100
AcDbEntity
  8
Fina
100
AcDbBlockReference
  2
block 26
 10
0.0
 20
0.0
 30
0.0
  0
INSERT
  5
CC
330
1F
100
AcDbEntity
  8
PIEZA
100
AcDbBlockReference
  2
block 27
 10
0.0
 20
0.0
 30
0.0
  0
INSERT
  5
D4
330
1F
100
AcDbEntity
  8
PIEZA
100
AcDbBlockReference
  2
block 28
 10
0.0
 20
0.0
 30
0.0
  0
INSERT
  5
DC
330
1F
100
AcDbEntity
  8
PIEZA
100
AcDbBlockReference
  2
block 29
 10
0.0
 20
0.0
 30
0.0
  0
INSERT
  5
E4
330
1F
100
AcDbEntity
  8
PIEZA
100
AcDbBlockReference
  2
block 30
 10
0.0
 20
0.0
 30
0.0
  0
INSERT
  5
EC
330
1F
100
AcDbEntity
  8
PIEZA
100
AcDbBlockReference
  2
block 31
 10
0.0
 20
0.0
 30
0.0
  0
INSERT
  5
F4
330
1F
100
AcDbEntity
  8
PIEZA
100
AcDbBlockReference
  2
block 32
 10
0.0
 20
0.0
 30
0.0
  0
INSERT
  5
FC
330
1F
100
AcDbEntity
  8
PIEZA
100
AcDbBlockReference
  2
block 33
 10
0.0
 20
0.0
 30
0.0
  0
INSERT
  5
104
330
1F
100
AcDbEntity
  8
PIEZA
100
AcDbBlockReference
  2
block 34
 10
0.0
 20
0.0
 30
0.0
  0
INSERT
  5
10C
330
1F
100
AcDbEntity
  8
PIEZA
100
AcDbBlockReference
  2
block 35
 10
0.0
 20
0.0
 30
0.0
  0
INSERT
  5
169
330
1F
100
AcDbEntity
  8
PIEZA
100
AcDbBlockReference
  2
block 36
 10
0.0
 20
0.0
 30
0.0
  0
INSERT
  5
171
330
1F
100
AcDbEntity
  8
PIEZA
100
AcDbBlockReference
  2
block 37
 10
0.0
 20
0.0
 30
0.0
  0
INSERT
  5
176
330
1F
100
AcDbEntity
  8
PIEZA
100
AcDbBlockReference
  2
block 38
 10
0.0
 20
0.0
 30
0.0
  0
INSERT
  5
17E
330
1F
100
AcDbEntity
  8
PIEZA
100
AcDbBlockReference
  2
block 39
 10
0.0
 20
0.0
 30
0.0
  0
INSERT
  5
186
330
1F
100
AcDbEntity
  8
PIEZA
100
AcDbBlockReference
  2
block 40
 10
0.0
 20
0.0
 30
0.0
  0
INSERT
  5
18E
330
1F
100
AcDbEntity
  8
PIEZA
100
AcDbBlockReference
  2
block 41
 10
0.0
 20
0.0
 30
0.0
  0
INSERT
  5
193
330
1F
100
AcDbEntity
  8
PIEZA
100
AcDbBlockReference
  2
block 42
 10
0.0
 20
0.0
 30
0.0
  0
INSERT
  5
19B
330
1F
100
AcDbEntity
  8
PIEZA
100
AcDbBlockReference
  2
block 43
 10
0.0
 20
0.0
 30
0.0
  0
INSERT
  5
1A3
330
1F
100
AcDbEntity
  8
PIEZA
100
AcDbBlockReference
  2
block 44
 10
0.0
 20
0.0
 30
0.0
  0
INSERT
  5
1A8
330
1F
100
AcDbEntity
  8
PIEZA
100
AcDbBlockReference
  2
block 45
 10
0.0
 20
0.0
 30
0.0
  0
INSERT
  5
1B0
330
1F
100
AcDbEntity
  8
PIEZA
100
AcDbBlockReference
  2
block 46
 10
0.0
 20
0.0
 30
0.0
  0
INSERT
  5
1B5
330
1F
100
AcDbEntity
  8
PIEZA
100
AcDbBlockReference
  2
block 47
 10
0.0
 20
0.0
 30
0.0
  0
INSERT
  5
1BD
330
1F
100
AcDbEntity
  8
PIEZA
100
AcDbBlockReference
  2
block 48
 10
0.0
 20
0.0
 30
0.0
  0
INSERT
  5
1C5
330
1F
100
AcDbEntity
  8
PIEZA
100
AcDbBlockReference
  2
block 49
 10
0.0
 20
0.0
 30
0.0
  0
INSERT
  5
1CA
330
1F
100
AcDbEntity
  8
PIEZA
100
AcDbBlockReference
  2
block 50
 10
0.0
 20
0.0
 30
0.0
  0
INSERT
  5
1CF
330
1F
100
AcDbEntity
  8
PIEZA
100
AcDbBlockReference
  2
block 51
 10
0.0
 20
0.0
 30
0.0
  0
INSERT
  5
1D7
330
1F
100
AcDbEntity
  8
PIEZA
100
AcDbBlockReference
  2
block 52
 10
0.0
 20
0.0
 30
0.0
  0
INSERT
  5
1DC
330
1F
100
AcDbEntity
  8
PIEZA
100
AcDbBlockReference
  2
block 53
 10
0.0
 20
0.0
 30
0.0
  0
INSERT
  5
1E1
330
1F
100
AcDbEntity
  8
PIEZA
100
AcDbBlockReference
  2
block 54
 10
0.0
 20
0.0
 30
0.0
  0
INSERT
  5
1E9
330
1F
100
AcDbEntity
  8
PIEZA
100
AcDbBlockReference
  2
block 55
 10
0.0
 20
0.0
 30
0.0
  0
INSERT
  5
1F1
330
1F
100
AcDbEntity
  8
PIEZA
100
AcDbBlockReference
  2
block 56
 10
0.0
 20
0.0
 30
0.0
  0
INSERT
  5
1F9
330
1F
100
AcDbEntity
  8
PIEZA
100
AcDbBlockReference
  2
block 57
 10
0.0
 20
0.0
 30
0.0
  0
INSERT
  5
201
330
1F
100
AcDbEntity
  8
PIEZA
100
AcDbBlockReference
  2
block 58
 10
0.0
 20
0.0
 30
0.0
  0
INSERT
  5
209
330
1F
100
AcDbEntity
  8
PIEZA
100
AcDbBlockReference
  2
block 59
 10
0.0
 20
0.0
 30
0.0
  0
INSERT
  5
211
330
1F
100
AcDbEntity
  8
PIEZA
100
AcDbBlockReference
  2
block 60
 10
0.0
 20
0.0
 30
0.0
  0
INSERT
  5
219
330
1F
100
AcDbEntity
  8
PIEZA
100
AcDbBlockReference
  2
block 61
 10
0.0
 20
0.0
 30
0.0
  0
INSERT
  5
221
330
1F
100
AcDbEntity
  8
PIEZA
100
AcDbBlockReference
  2
block 62
 10
0.0
 20
0.0
 30
0.0
  0
INSERT
  5
229
330
1F
100
AcDbEntity
  8
PIEZA
100
AcDbBlockReference
  2
block 63
 10
0.0
 20
0.0
 30
0.0
  0
INSERT
  5
22E
330
1F
100
AcDbEntity
  8
PIEZA
100
AcDbBlockReference
  2
block 64
 10
0.0
 20
0.0
 30
0.0
  0
INSERT
  5
233
330
1F
100
AcDbEntity
  8
PIEZA
100
AcDbBlockReference
  2
block 65
 10
0.0
 20
0.0
 30
0.0
  0
INSERT
  5
238
330
1F
100
AcDbEntity
  8
PIEZA
100
AcDbBlockReference
  2
block 66
 10
0.0
 20
0.0
 30
0.0
  0
INSERT
  5
23D
330
1F
100
AcDbEntity
  8
PIEZA
100
AcDbBlockReference
  2
block 67
 10
0.0
 20
0.0
 30
0.0
  0
INSERT
  5
242
330
1F
100
AcDbEntity
  8
PIEZA
100
AcDbBlockReference
  2
block 68
 10
0.0
 20
0.0
 30
0.0
  0
INSERT
  5
247
330
1F
100
AcDbEntity
  8
PIEZA
100
AcDbBlockReference
  2
block 69
 10
0.0
 20
0.0
 30
0.0
  0
INSERT
  5
24C
330
1F
100
AcDbEntity
  8
PIEZA
100
AcDbBlockReference
  2
block 70
 10
0.0
 20
0.0
 30
0.0
  0
INSERT
  5
251
330
1F
100
AcDbEntity
  8
PIEZA
100
AcDbBlockReference
  2
block 71
 10
0.0
 20
0.0
 30
0.0
  0
INSERT
  5
256
330
1F
100
AcDbEntity
  8
PIEZA
100
AcDbBlockReference
  2
block 72
 10
0.0
 20
0.0
 30
0.0
  0
INSERT
  5
25B
330
1F
100
AcDbEntity
  8
PIEZA
100
AcDbBlockReference
  2
block 73
 10
0.0
 20
0.0
 30
0.0
  0
INSERT
  5
260
330
1F
100
AcDbEntity
  8
PIEZA
100
AcDbBlockReference
  2
block 74
 10
0.0
 20
0.0
 30
0.0
  0
INSERT
  5
265
330
1F
100
AcDbEntity
  8
PIEZA
100
AcDbBlockReference
  2
block 75
 10
0.0
 20
0.0
 30
0.0
  0
INSERT
  5
26D
330
1F
100
AcDbEntity
  8
PIEZA
100
AcDbBlockReference
  2
block 76
 10
0.0
 20
0.0
 30
0.0
  0
INSERT
  5
272
330
1F
100
AcDbEntity
  8
PIEZA
100
AcDbBlockReference
  2
block 77
 10
0.0
 20
0.0
 30
0.0
  0
INSERT
  5
27A
330
1F
100
AcDbEntity
  8
PIEZA
100
AcDbBlockReference
  2
block 78
 10
0.0
 20
0.0
 30
0.0
  0
INSERT
  5
27F
330
1F
100
AcDbEntity
  8
PIEZA
100
AcDbBlockReference
  2
block 79
 10
0.0
 20
0.0
 30
0.0
  0
INSERT
  5
284
330
1F
100
AcDbEntity
  8
PIEZA
100
AcDbBlockReference
  2
block 80
 10
0.0
 20
0.0
 30
0.0
  0
INSERT
  5
289
330
1F
100
AcDbEntity
  8
PIEZA
100
AcDbBlockReference
  2
block 81
 10
0.0
 20
0.0
 30
0.0
  0
INSERT
  5
291
330
1F
100
AcDbEntity
  8
PIEZA
100
AcDbBlockReference
  2
block 82
 10
0.0
 20
0.0
 30
0.0
  0
INSERT
  5
299
330
1F
100
AcDbEntity
  8
PIEZA
100
AcDbBlockReference
  2
block 83
 10
0.0
 20
0.0
 30
0.0
  0
INSERT
  5
2A1
330
1F
100
AcDbEntity
  8
PIEZA
100
AcDbBlockReference
  2
block 84
 10
0.0
 20
0.0
 30
0.0
  0
INSERT
  5
2AA
330
1F
100
AcDbEntity
  8
COTAS
100
AcDbBlockReference
  2
block 85
 10
0.0
 20
0.0
 30
0.0
  0
INSERT
  5
301
330
1F
100
AcDbEntity
  8
COTAS
100
AcDbBlockReference
  2
block 96
 10
0.0
 20
0.0
 30
0.0
  0
INSERT
  5
358
330
1F
100
AcDbEntity
  8
COTAS
100
AcDbBlockReference
  2
block 107
 10
0.0
 20
0.0
 30
0.0
  0
INSERT
  5
3AF
330
1F
100
AcDbEntity
  8
COTAS
100
AcDbBlockReference
  2
block 118
 10
0.0
 20
0.0
 30
0.0
  0
INSERT
  5
406
330
1F
100
AcDbEntity
  8
COTAS
100
AcDbBlockReference
  2
block 129
 10
0.0
 20
0.0
 30
0.0
  0
INSERT
  5
45D
330
1F
100
AcDbEntity
  8
COTAS
100
AcDbBlockReference
  2
block 140
 10
0.0
 20
0.0
 30
0.0
  0
INSERT
  5
4B5
330
1F
100
AcDbEntity
  8
EJES
100
AcDbBlockReference
  2
block 151
 10
0.0
 20
0.0
 30
0.0
  0
INSERT
  5
4BE
330
1F
100
AcDbEntity
  8
EJES
100
AcDbBlockReference
  2
block 152
 10
0.0
 20
0.0
 30
0.0
  0
INSERT
  5
4C7
330
1F
100
AcDbEntity
  8
EJES
100
AcDbBlockReference
  2
block 153
 10
0.0
 20
0.0
 30
0.0
  0
INSERT
  5
4D1
330
1F
100
AcDbEntity
  8
050
100
AcDbBlockReference
  2
block 154
 10
0.0
 20
0.0
 30
0.0
  0
INSERT
  5
4D9
330
1F
100
AcDbEntity
  8
050
100
AcDbBlockReference
  2
block 155
 10
0.0
 20
0.0
 30
0.0
  0
INSERT
  5
4DE
330
1F
100
AcDbEntity
  8
050
100
AcDbBlockReference
  2
block 156
 10
0.0
 20
0.0
 30
0.0
  0
INSERT
  5
4E6
330
1F
100
AcDbEntity
  8
050
100
AcDbBlockReference
  2
block 157
 10
0.0
 20
0.0
 30
0.0
  0
INSERT
  5
4EB
330
1F
100
AcDbEntity
  8
050
100
AcDbBlockReference
  2
block 158
 10
0.0
 20
0.0
 30
0.0
  0
INSERT
  5
4F3
330
1F
100
AcDbEntity
  8
050
100
AcDbBlockReference
  2
block 159
 10
0.0
 20
0.0
 30
0.0
  0
INSERT
  5
4FB
330
1F
100
AcDbEntity
  8
050
100
AcDbBlockReference
  2
block 160
 10
0.0
 20
0.0
 30
0.0
  0
INSERT
  5
500
330
1F
100
AcDbEntity
  8
050
100
AcDbBlockReference
  2
block 161
 10
0.0
 20
0.0
 30
0.0
  0
INSERT
  5
505
330
1F
100
AcDbEntity
  8
050
100
AcDbBlockReference
  2
block 162
 10
0.0
 20
0.0
 30
0.0
  0
INSERT
  5
50D
330
1F
100
AcDbEntity
  8
050
100
AcDbBlockReference
  2
block 163
 10
0.0
 20
0.0
 30
0.0
  0
INSERT
  5
515
330
1F
100
AcDbEntity
  8
050
100
AcDbBlockReference
  2
block 164
 10
0.0
 20
0.0
 30
0.0
  0
INSERT
  5
51B
330
1F
100
AcDbEntity
  8
LINEAS-FINAS
100
AcDbBlockReference
  2
block 165
 10
0.0
 20
0.0
 30
0.0
  0
INSERT
  5
524
330
1F
100
AcDbEntity
  8
SOMBREA
100
AcDbBlockReference
  2
block 166
 10
0.0
 20
0.0
 30
0.0
  0
INSERT
  5
54E
330
1F
100
AcDbEntity
  8
SOMBREA
100
AcDbBlockReference
  2
block 167
 10
0.0
 20
0.0
 30
0.0
  0
INSERT
  5
555
330
1F
100
AcDbEntity
  8
SOMBREA
100
AcDbBlockReference
  2
block 168
 10
0.0
 20
0.0
 30
0.0
  0
ENDSEC
  0
SECTION
  2
OBJECTS
  0
DICTIONARY
  5
C
330
0
100
AcDbDictionary
281
     1
  3
ACAD_GROUP
350
D
  3
ACAD_LAYOUT
350
1A
  3
ACAD_MLINESTYLE
350
17
  3
ACAD_PLOTSETTINGS
350
19
  3
ACAD_PLOTSTYLENAME
350
E
  3
ACAD_TABLESTYLE
350
55A
  3
ACAD_VISUALSTYLE
350
2A
  0
DICTIONARY
  5
D
102
{ACAD_REACTORS
330
C
102
}
330
C
100
AcDbDictionary
281
     1
  0
DICTIONARY
  5
1A
102
{ACAD_REACTORS
330
C
102
}
330
C
100
AcDbDictionary
281
     1
  3
Layout1
350
1E
  3
Layout2
350
26
  3
Model
350
22
  0
DICTIONARY
  5
17
102
{ACAD_REACTORS
330
C
102
}
330
C
100
AcDbDictionary
281
     1
  3
Standard
350
18
  0
DICTIONARY
  5
19
102
{ACAD_REACTORS
330
C
102
}
330
C
100
AcDbDictionary
281
     1
  0
ACDBDICTIONARYWDFLT
  5
E
102
{ACAD_REACTORS
330
C
102
}
330
C
100
AcDbDictionary
281
     1
  3
Normal
350
F
100
AcDbDictionaryWithDefault
340
F
  0
DICTIONARY
  5
55A
102
{ACAD_REACTORS
330
C
102
}
330
C
100
AcDbDictionary
281
     1
  0
DICTIONARY
  5
2A
102
{ACAD_REACTORS
330
C
102
}
330
C
100
AcDbDictionary
281
     1
  3
2dWireframe
350
2F
  3
3D Hidden
350
31
  3
3dWireframe
350
30
  3
Basic
350
32
  3
Brighten
350
36
  3
ColorChange
350
3A
  3
Conceptual
350
34
  3
Dim
350
35
  3
Facepattern
350
39
  3
Flat
350
2B
  3
FlatWithEdges
350
2C
  3
Gouraud
350
2D
  3
GouraudWithEdges
350
2E
  3
Linepattern
350
38
  3
Realistic
350
33
  3
Thicken
350
37
  0
LAYOUT
  5
1E
102
{ACAD_REACTORS
330
1A
102
}
330
1A
100
AcDbPlotSettings
  1

  2
none_device
  4

  6

 40
0.0
 41
0.0
 42
0.0
 43
0.0
 44
0.0
 45
0.0
 46
0.0
 47
0.0
 48
0.0
 49
0.0
140
0.0
141
0.0
142
1.0
143
1.0
 70
   688
 72
     0
 73
     0
 74
     5
  7

 75
    16
 76
     0
 77
     2
 78
   300
147
1.0
148
0.0
149
0.0
100
AcDbLayout
  1
Layout1
 70
     1
 71
     1
 10
0.0
 20
0.0
 11
12.0
 21
9.0
 12
0.0
 22
0.0
 32
0.0
 14
1.000000000000000E+20
 24
1.000000000000000E+20
 34
1.000000000000000E+20
 15
-1.000000000000000E+20
 25
-1.000000000000000E+20
 35
-1.000000000000000E+20
146
0.0
 13
0.0
 23
0.0
 33
0.0
 16
1.0
 26
0.0
 36
0.0
 17
0.0
 27
1.0
 37
0.0
 76
     0
330
1B
  0
LAYOUT
  5
26
102
{ACAD_REACTORS
330
1A
102
}
330
1A
100
AcDbPlotSettings
  1

  2
none_device
  4

  6

 40
0.0
 41
0.0
 42
0.0
 43
0.0
 44
0.0
 45
0.0
 46
0.0
 47
0.0
 48
0.0
 49
0.0
140
0.0
141
0.0
142
1.0
143
1.0
 70
   688
 72
     0
 73
     0
 74
     5
  7

 75
    16
 76
     0
 77
     2
 78
   300
147
1.0
148
0.0
149
0.0
100
AcDbLayout
  1
Layout2
 70
     1
 71
     2
 10
0.0
 20
0.0
 11
0.0
 21
0.0
 12
0.0
 22
0.0
 32
0.0
 14
0.0
 24
0.0
 34
0.0
 15
0.0
 25
0.0
 35
0.0
146
0.0
 13
0.0
 23
0.0
 33
0.0
 16
1.0
 26
0.0
 36
0.0
 17
0.0
 27
1.0
 37
0.0
 76
     0
330
23
  0
LAYOUT
  5
22
102
{ACAD_REACTORS
330
1A
102
}
330
1A
100
AcDbPlotSettings
  1

  2
none_device
  4

  6

 40
0.0
 41
0.0
 42
0.0
 43
0.0
 44
0.0
 45
0.0
 46
0.0
 47
0.0
 48
0.0
 49
0.0
140
0.0
141
0.0
142
1.0
143
1.0
 70
  1712
 72
     0
 73
     0
 74
     0
  7

 75
     0
 76
     0
 77
     2
 78
   300
147
1.0
148
0.0
149
0.0
100
AcDbLayout
  1
Model
 70
     1
 71
     0
 10
0.0
 20
0.0
 11
12.0
 21
9.0
 12
0.0
 22
0.0
 32
0.0
 14
1.000000000000000E+20
 24
1.000000000000000E+20
 34
1.000000000000000E+20
 15
-1.000000000000000E+20
 25
-1.000000000000000E+20
 35
-1.000000000000000E+20
146
0.0
 13
0.0
 23
0.0
 33
0.0
 16
1.0
 26
0.0
 36
0.0
 17
0.0
 27
1.0
 37
0.0
 76
     0
330
1F
331
29
  0
MLINESTYLE
  5
18
102
{ACAD_REACTORS
330
17
102
}
330
17
100
AcDbMlineStyle
  2
Standard
 70
     0
  3

 62
   256
 51
90.0
 52
90.0
 71
     2
 49
0.5
 62
   256
  6
BYLAYER
 49
-0.5
 62
   256
  6
BYLAYER
  0
ACDBPLACEHOLDER
  5
F
102
{ACAD_REACTORS
330
E
102
}
330
E
  0
VISUALSTYLE
  5
2F
102
{ACAD_REACTORS
330
2A
102
}
330
2A
100
AcDbVisualStyle
  2
2dWireframe
 70
     4
 71
     0
 72
     2
 73
     0
 90
        0
 40
-0.6
 41
-30.0
 62
     5
 63
     7
421
 16777215
 74
     1
 91
        4
 64
     7
 65
   257
 75
     1
175
     1
 42
1.0
 92
        0
 66
   257
 43
1.0
 76
     1
 77
     6
 78
     2
 67
     7
 79
     5
170
     0
171
     0
290
     0
174
     0
 93
        1
 44
0.0
173
     0
291
     0
 45
0.0
1001
ACAD
1000
AcDbSavedByObjectVersion
1070
     0
  0
VISUALSTYLE
  5
31
102
{ACAD_REACTORS
330
2A
102
}
330
2A
100
AcDbVisualStyle
  2
3D Hidden
 70
     6
 71
     1
 72
     2
 73
     2
 90
        0
 40
-0.6
 41
-30.0
 62
     5
 63
     7
421
 16777215
 74
     2
 91
        2
 64
     7
 65
   257
 75
     2
175
     1
 42
40.0
 92
        0
 66
   257
 43
1.0
 76
     1
 77
     6
 78
     2
 67
     7
 79
     3
170
     0
171
     0
290
     0
174
     0
 93
        1
 44
0.0
173
     0
291
     0
 45
0.0
1001
ACAD
1000
AcDbSavedByObjectVersion
1070
     0
  0
VISUALSTYLE
  5
30
102
{ACAD_REACTORS
330
2A
102
}
330
2A
100
AcDbVisualStyle
  2
3dWireframe
 70
     5
 71
     0
 72
     2
 73
     0
 90
        0
 40
-0.6
 41
-30.0
 62
     5
 63
     7
421
 16777215
 74
     1
 91
        4
 64
     7
 65
   257
 75
     1
175
     1
 42
1.0
 92
        0
 66
   257
 43
1.0
 76
     1
 77
     6
 78
     2
 67
     7
 79
     5
170
     0
171
     0
290
     0
174
     0
 93
        1
 44
0.0
173
     0
291
     0
 45
0.0
1001
ACAD
1000
AcDbSavedByObjectVersion
1070
     0
  0
VISUALSTYLE
  5
32
102
{ACAD_REACTORS
330
2A
102
}
330
2A
100
AcDbVisualStyle
  2
Basic
 70
     7
 71
     1
 72
     0
 73
     1
 90
        0
 40
-0.6
 41
-30.0
 62
     5
 63
     7
421
 16777215
 74
     0
 91
        4
 64
     7
 65
   257
 75
     1
175
     1
 42
1.0
 92
        8
 66
     7
 43
1.0
 76
     1
 77
     6
 78
     2
 67
     7
 79
     5
170
     0
171
     0
290
     0
174
     0
 93
        1
 44
0.0
173
     0
291
     1
 45
0.0
1001
ACAD
1000
AcDbSavedByObjectVersion
1070
     0
  0
VISUALSTYLE
  5
36
102
{ACAD_REACTORS
330
2A
102
}
330
2A
100
AcDbVisualStyle
  2
Brighten
 70
    12
 71
     2
 72
     2
 73
     0
 90
        0
 40
-0.6
 41
-30.0
 62
     5
 63
     7
421
 16777215
 74
     1
 91
        4
 64
     7
 65
   257
 75
     1
175
     1
 42
1.0
 92
        8
 66
     7
 43
1.0
 76
     1
 77
     6
 78
     2
 67
     7
 79
     5
170
     0
171
     0
290
     0
174
     0
 93
        1
 44
50.0
173
     0
291
     1
 45
0.0
1001
ACAD
1000
AcDbSavedByObjectVersion
1070
     0
  0
VISUALSTYLE
  5
3A
102
{ACAD_REACTORS
330
2A
102
}
330
2A
100
AcDbVisualStyle
  2
ColorChange
 70
    16
 71
     2
 72
     2
 73
     3
 90
        0
 40
-0.6
 41
-30.0
 62
     5
 63
     8
421
  8421504
 74
     1
 91
        4
 64
     7
 65
   257
 75
     1
175
     1
 42
1.0
 92
        8
 66
     8
424
  8421504
 43
1.0
 76
     1
 77
     6
 78
     2
 67
     7
 79
     5
170
     0
171
     0
290
     0
174
     0
 93
        1
 44
0.0
173
     0
291
     1
 45
0.0
1001
ACAD
1000
AcDbSavedByObjectVersion
1070
     0
  0
VISUALSTYLE
  5
34
102
{ACAD_REACTORS
330
2A
102
}
330
2A
100
AcDbVisualStyle
  2
Conceptual
 70
     9
 71
     3
 72
     2
 73
     0
 90
        0
 40
-0.6
 41
-30.0
 62
     5
 63
     7
421
 16777215
 74
     2
 91
        2
 64
     7
 65
   257
 75
     1
175
     1
 42
40.0
 92
        8
 66
     7
 43
1.0
 76
     1
 77
     6
 78
     2
 67
     7
 79
     3
170
     0
171
     0
290
     0
174
     0
 93
        1
 44
0.0
173
     0
291
     0
 45
0.0
1001
ACAD
1000
AcDbSavedByObjectVersion
1070
     0
  0
VISUALSTYLE
  5
35
102
{ACAD_REACTORS
330
2A
102
}
330
2A
100
AcDbVisualStyle
  2
Dim
 70
    11
 71
     2
 72
     2
 73
     0
 90
        0
 40
-0.6
 41
-30.0
 62
     5
 63
     7
421
 16777215
 74
     1
 91
        4
 64
     7
 65
   257
 75
     1
175
     1
 42
1.0
 92
        8
 66
     7
 43
1.0
 76
     1
 77
     6
 78
     2
 67
     7
 79
     5
170
     0
171
     0
290
     0
174
     0
 93
        1
 44
-50.0
173
     0
291
     1
 45
0.0
1001
ACAD
1000
AcDbSavedByObjectVersion
1070
     0
  0
VISUALSTYLE
  5
39
102
{ACAD_REACTORS
330
2A
102
}
330
2A
100
AcDbVisualStyle
  2
Facepattern
 70
    15
 71
     2
 72
     2
 73
     0
 90
        0
 40
-0.6
 41
-30.0
 62
     5
 63
     7
421
 16777215
 74
     1
 91
        4
 64
     7
 65
   257
 75
     1
175
     1
 42
1.0
 92
        8
 66
     7
 43
1.0
 76
     1
 77
     6
 78
     2
 67
     7
 79
     5
170
     0
171
     0
290
     0
174
     0
 93
        1
 44
0.0
173
     0
291
     1
 45
0.0
1001
ACAD
1000
AcDbSavedByObjectVersion
1070
     0
  0
VISUALSTYLE
  5
2B
102
{ACAD_REACTORS
330
2A
102
}
330
2A
100
AcDbVisualStyle
  2
Flat
 70
     0
 71
     2
 72
     1
 73
     1
 90
        2
 40
-0.6
 41
30.0
 62
     5
 63
     7
421
 16777215
 74
     0
 91
        4
 64
     7
 65
   257
 75
     1
175
     1
 42
1.0
 92
        8
 66
     7
 43
1.0
 76
     1
 77
     6
 78
     2
 67
     7
 79
     5
170
     0
171
     0
290
     0
174
     0
 93
       13
 44
0.0
173
     0
291
     1
 45
0.0
1001
ACAD
1000
AcDbSavedByObjectVersion
1070
     0
  0
VISUALSTYLE
  5
2C
102
{ACAD_REACTORS
330
2A
102
}
330
2A
100
AcDbVisualStyle
  2
FlatWithEdges
 70
     1
 71
     2
 72
     1
 73
     1
 90
        2
 40
-0.6
 41
30.0
 62
     5
 63
     7
421
 16777215
 74
     1
 91
        4
 64
     7
 65
   257
 75
     1
175
     1
 42
1.0
 92
        0
 66
   257
 43
1.0
 76
     1
 77
     6
 78
     2
 67
     7
 79
     5
170
     0
171
     0
290
     0
174
     0
 93
       13
 44
0.0
173
     0
291
     1
 45
0.0
1001
ACAD
1000
AcDbSavedByObjectVersion
1070
     0
  0
VISUALSTYLE
  5
2D
102
{ACAD_REACTORS
330
2A
102
}
330
2A
100
AcDbVisualStyle
  2
Gouraud
 70
     2
 71
     2
 72
     2
 73
     1
 90
        2
 40
-0.6
 41
30.0
 62
     5
 63
     7
421
 16777215
 74
     0
 91
        4
 64
     7
 65
   257
 75
     1
175
     1
 42
1.0
 92
        0
 66
     7
 43
1.0
 76
     1
 77
     6
 78
     2
 67
     7
 79
     5
170
     0
171
     0
290
     0
174
     0
 93
       13
 44
0.0
173
     0
291
     1
 45
0.0
1001
ACAD
1000
AcDbSavedByObjectVersion
1070
     0
  0
VISUALSTYLE
  5
2E
102
{ACAD_REACTORS
330
2A
102
}
330
2A
100
AcDbVisualStyle
  2
GouraudWithEdges
 70
     3
 71
     2
 72
     2
 73
     1
 90
        2
 40
-0.6
 41
30.0
 62
     5
 63
     7
421
 16777215
 74
     1
 91
        4
 64
     7
 65
   257
 75
     1
175
     1
 42
1.0
 92
        0
 66
   257
 43
1.0
 76
     1
 77
     6
 78
     2
 67
     7
 79
     5
170
     0
171
     0
290
     0
174
     0
 93
       13
 44
0.0
173
     0
291
     1
 45
0.0
1001
ACAD
1000
AcDbSavedByObjectVersion
1070
     0
  0
VISUALSTYLE
  5
38
102
{ACAD_REACTORS
330
2A
102
}
330
2A
100
AcDbVisualStyle
  2
Linepattern
 70
    14
 71
     2
 72
     2
 73
     0
 90
        0
 40
-0.6
 41
-30.0
 62
     5
 63
     7
421
 16777215
 74
     1
 91
        4
 64
     7
 65
   257
 75
     7
175
     7
 42
1.0
 92
        8
 66
     7
 43
1.0
 76
     1
 77
     6
 78
     2
 67
     7
 79
     5
170
     0
171
     0
290
     0
174
     0
 93
        1
 44
0.0
173
     0
291
     1
 45
0.0
1001
ACAD
1000
AcDbSavedByObjectVersion
1070
     0
  0
VISUALSTYLE
  5
33
102
{ACAD_REACTORS
330
2A
102
}
330
2A
100
AcDbVisualStyle
  2
Realistic
 70
     8
 71
     2
 72
     2
 73
     0
 90
        0
 40
-0.6
 41
-30.0
 62
     5
 63
     7
421
 16777215
 74
     1
 91
        0
 64
     7
 65
   257
 75
     1
175
     1
 42
1.0
 92
        8
 66
     8
424
  7895160
 43
1.0
 76
     1
 77
     6
 78
     2
 67
     7
 79
     5
170
     0
171
     0
290
     0
174
     0
 93
       13
 44
0.0
173
     0
291
     0
 45
0.0
1001
ACAD
1000
AcDbSavedByObjectVersion
1070
     0
  0
VISUALSTYLE
  5
37
102
{ACAD_REACTORS
330
2A
102
}
330
2A
100
AcDbVisualStyle
  2
Thicken
 70
    13
 71
     2
 72
     2
 73
     0
 90
        0
 40
-0.6
 41
-30.0
 62
     5
 63
     7
421
 16777215
 74
     1
 91
        4
 64
     7
 65
   257
 75
     1
175
     1
 42
1.0
 92
       12
 66
     7
 43
1.0
 76
     1
 77
     6
 78
     2
 67
     7
 79
     5
170
     0
171
     0
290
     0
174
     0
 93
        1
 44
0.0
173
     0
291
     1
 45
0.0
1001
ACAD
1000
AcDbSavedByObjectVersion
1070
     0
  0
ENDSEC
  0
EOF
