  0
SECTION
  2
HEADER
  9
$ACADVER
  1
AC1018
  9
$ACADMAINTVER
 70
     0
  9
$DWGCODEPAGE
  3
ASCII
  9
$INSBASE
 10
0.0
 20
0.0
 30
0.0
  9
$EXTMIN
 10
1.000000000000000E+20
 20
1.000000000000000E+20
 30
1.000000000000000E+20
  9
$EXTMAX
 10
-1.000000000000000E+20
 20
-1.000000000000000E+20
 30
-1.000000000000000E+20
  9
$LIMMIN
 10
0.0
 20
0.0
  9
$LIMMAX
 10
12.0
 20
9.0
  9
$ORTHOMODE
 70
     0
  9
$REGENMODE
 70
     1
  9
$FILLMODE
 70
     1
  9
$QTEXTMODE
 70
     0
  9
$MIRRTEXT
 70
     1
  9
$LTSCALE
 40
1.0
  9
$ATTMODE
 70
     1
  9
$TEXTSIZE
 40
0.2
  9
$TRACEWID
 40
0.05
  9
$TEXTSTYLE
  7
Standard
  9
$CLAYER
  8
0
  9
$CELTYPE
  6
ByLayer
  9
$CECOLOR
 62
   256
  9
$CELTSCALE
 40
1.0
  9
$DISPSILH
 70
     0
  9
$DIMSCALE
 40
1.0
  9
$DIMASZ
 40
0.18
  9
$DIMEXO
 40
0.0625
  9
$DIMDLI
 40
0.38
  9
$DIMRND
 40
0.0
  9
$DIMDLE
 40
0.0
  9
$DIMEXE
 40
0.18
  9
$DIMTP
 40
0.0
  9
$DIMTM
 40
0.0
  9
$DIMTXT
 40
0.18
  9
$DIMCEN
 40
0.09
  9
$DIMTSZ
 40
0.0
  9
$DIMTOL
 70
     0
  9
$DIMLIM
 70
     0
  9
$DIMTIH
 70
     1
  9
$DIMTOH
 70
     1
  9
$DIMSE1
 70
     0
  9
$DIMSE2
 70
     0
  9
$DIMTAD
 70
     0
  9
$DIMZIN
 70
     0
  9
$DIMBLK
  1

  9
$DIMASO
 70
     1
  9
$DIMSHO
 70
     1
  9
$DIMPOST
  1

  9
$DIMAPOST
  1

  9
$DIMALT
 70
     0
  9
$DIMALTD
 70
     2
  9
$DIMALTF
 40
25.4
  9
$DIMLFAC
 40
1.0
  9
$DIMTOFL
 70
     0
  9
$DIMTVP
 40
0.0
  9
$DIMTIX
 70
     0
  9
$DIMSOXD
 70
     0
  9
$DIMSAH
 70
     0
  9
$DIMBLK1
  1

  9
$DIMBLK2
  1

  9
$DIMSTYLE
  2
Standard
  9
$DIMCLRD
 70
     0
  9
$DIMCLRE
 70
     0
  9
$DIMCLRT
 70
     0
  9
$DIMTFAC
 40
1.0
  9
$DIMGAP
 40
0.09
  9
$DIMJUST
 70
     0
  9
$DIMSD1
 70
     0
  9
$DIMSD2
 70
     0
  9
$DIMTOLJ
 70
     1
  9
$DIMTZIN
 70
     0
  9
$DIMALTZ
 70
     0
  9
$DIMALTTZ
 70
     0
  9
$DIMUPT
 70
     0
  9
$DIMDEC
 70
     4
  9
$DIMTDEC
 70
     4
  9
$DIMALTU
 70
     2
  9
$DIMALTTD
 70
     2
  9
$DIMTXSTY
  7
Standard
  9
$DIMAUNIT
 70
     0
  9
$DIMADEC
 70
     0
  9
$DIMALTRND
 40
0.0
  9
$DIMAZIN
 70
     0
  9
$DIMDSEP
 70
    46
  9
$DIMATFIT
 70
     3
  9
$DIMFRAC
 70
     0
  9
$DIMLDRBLK
  1

  9
$DIMLUNIT
 70
     2
  9
$DIMLWD
 70
    -2
  9
$DIMLWE
 70
    -2
  9
$DIMTMOVE
 70
     0
  9
$LUNITS
 70
     2
  9
$LUPREC
 70
     4
  9
$SKETCHINC
 40
0.1
  9
$FILLETRAD
 40
0.5
  9
$AUNITS
 70
     0
  9
$AUPREC
 70
     0
  9
$MENU
  1
.
  9
$ELEVATION
 40
0.0
  9
$PELEVATION
 40
0.0
  9
$THICKNESS
 40
0.0
  9
$LIMCHECK
 70
     0
  9
$CHAMFERA
 40
0.5
  9
$CHAMFERB
 40
0.5
  9
$CHAMFERC
 40
1.0
  9
$CHAMFERD
 40
0.0
  9
$SKPOLY
 70
     0
  9
$TDCREATE
 40
2456966.9356136
  9
$TDUCREATE
 40
2456966.893946933
  9
$TDUPDATE
 40
2456966.935613611
  9
$TDUUPDATE
 40
2456966.893946944
  9
$TDINDWG
 40
0.0000000116
  9
$TDUSRTIMER
 40
0.0000000116
  9
$USRTIMER
 70
     1
  9
$ANGBASE
 50
0.0
  9
$ANGDIR
 70
     0
  9
$PDMODE
 70
     0
  9
$PDSIZE
 40
0.0
  9
$PLINEWID
 40
0.0
  9
$SPLFRAME
 70
     0
  9
$SPLINETYPE
 70
     6
  9
$SPLINESEGS
 70
     8
  9
$HANDSEED
  5
571
  9
$SURFTAB1
 70
     6
  9
$SURFTAB2
 70
     6
  9
$SURFTYPE
 70
     6
  9
$SURFU
 70
     6
  9
$SURFV
 70
     6
  9
$UCSBASE
  2

  9
$UCSNAME
  2

  9
$UCSORG
 10
0.0
 20
0.0
 30
0.0
  9
$UCSXDIR
 10
1.0
 20
0.0
 30
0.0
  9
$UCSYDIR
 10
0.0
 20
1.0
 30
0.0
  9
$UCSORTHOREF
  2

  9
$UCSORTHOVIEW
 70
     0
  9
$UCSORGTOP
 10
0.0
 20
0.0
 30
0.0
  9
$UCSORGBOTTOM
 10
0.0
 20
0.0
 30
0.0
  9
$UCSORGLEFT
 10
0.0
 20
0.0
 30
0.0
  9
$UCSORGRIGHT
 10
0.0
 20
0.0
 30
0.0
  9
$UCSORGFRONT
 10
0.0
 20
0.0
 30
0.0
  9
$UCSORGBACK
 10
0.0
 20
0.0
 30
0.0
  9
$PUCSBASE
  2

  9
$PUCSNAME
  2

  9
$PUCSORG
 10
0.0
 20
0.0
 30
0.0
  9
$PUCSXDIR
 10
1.0
 20
0.0
 30
0.0
  9
$PUCSYDIR
 10
0.0
 20
1.0
 30
0.0
  9
$PUCSORTHOREF
  2

  9
$PUCSORTHOVIEW
 70
     0
  9
$PUCSORGTOP
 10
0.0
 20
0.0
 30
0.0
  9
$PUCSORGBOTTOM
 10
0.0
 20
0.0
 30
0.0
  9
$PUCSORGLEFT
 10
0.0
 20
0.0
 30
0.0
  9
$PUCSORGRIGHT
 10
0.0
 20
0.0
 30
0.0
  9
$PUCSORGFRONT
 10
0.0
 20
0.0
 30
0.0
  9
$PUCSORGBACK
 10
0.0
 20
0.0
 30
0.0
  9
$USERI1
 70
     0
  9
$USERI2
 70
     0
  9
$USERI3
 70
     0
  9
$USERI4
 70
     0
  9
$USERI5
 70
     0
  9
$USERR1
 40
0.0
  9
$USERR2
 40
0.0
  9
$USERR3
 40
0.0
  9
$USERR4
 40
0.0
  9
$USERR5
 40
0.0
  9
$WORLDVIEW
 70
     1
  9
$SHADEDGE
 70
     3
  9
$SHADEDIF
 70
    70
  9
$TILEMODE
 70
     1
  9
$MAXACTVP
 70
    64
  9
$PINSBASE
 10
0.0
 20
0.0
 30
0.0
  9
$PLIMCHECK
 70
     0
  9
$PEXTMIN
 10
1.000000000000000E+20
 20
1.000000000000000E+20
 30
1.000000000000000E+20
  9
$PEXTMAX
 10
-1.000000000000000E+20
 20
-1.000000000000000E+20
 30
-1.000000000000000E+20
  9
$PLIMMIN
 10
0.0
 20
0.0
  9
$PLIMMAX
 10
12.0
 20
9.0
  9
$UNITMODE
 70
     0
  9
$VISRETAIN
 70
     1
  9
$PLINEGEN
 70
     0
  9
$PSLTSCALE
 70
     1
  9
$TREEDEPTH
 70
  3020
  9
$CMLSTYLE
  2
Standard
  9
$CMLJUST
 70
     0
  9
$CMLSCALE
 40
1.0
  9
$PROXYGRAPHICS
 70
     1
  9
$MEASUREMENT
 70
     0
  9
$CELWEIGHT
370
    -1
  9
$ENDCAPS
280
     0
  9
$JOINSTYLE
280
     0
  9
$LWDISPLAY
290
     1
  9
$INSUNITS
 70
     1
  9
$HYPERLINKBASE
  1

  9
$STYLESHEET
  1

  9
$XEDIT
290
     1
  9
$CEPSNTYPE
380
     0
  9
$PSTYLEMODE
290
     1
  9
$FINGERPRINTGUID
  2
{447FEDDE-9AE0-42E2-9EC1-E159BC9F4A56}
  9
$VERSIONGUID
  2
{FAEB1C32-E019-11D5-929B-00C0DF256EC4}
  9
$EXTNAMES
290
     1
  9
$PSVPSCALE
 40
0.0
  9
$OLESTARTUP
290
     0
  9
$SORTENTS
280
   127
  9
$INDEXCTL
280
     0
  9
$HIDETEXT
280
     1
  9
$XCLIPFRAME
290
     0
  9
$HALOGAP
280
     0
  9
$OBSCOLOR
 70
   257
  9
$OBSLTYPE
280
     0
  9
$INTERSECTIONDISPLAY
280
     0
  9
$INTERSECTIONCOLOR
 70
   257
  9
$DIMASSOC
280
     2
  9
$PROJECTNAME
  1

  0
ENDSEC
  0
SECTION
  2
CLASSES
  0
CLASS
  1
ACDBDICTIONARYWDFLT
  2
AcDbDictionaryWithDefault
  3
ObjectDBX Classes
 90
        0
 91
        3
280
     0
281
     0
  0
CLASS
  1
VISUALSTYLE
  2
AcDbVisualStyle
  3
ObjectDBX Classes
 90
     4095
 91
        3
280
     0
281
     0
  0
ENDSEC
  0
SECTION
  2
TABLES
  0
TABLE
  2
VPORT
  5
8
330
0
100
AcDbSymbolTable
 70
     1
  0
VPORT
  5
29
330
8
100
AcDbSymbolTableRecord
100
AcDbViewportTableRecord
  2
*Active
 70
     0
 10
0.0
 20
0.0
 11
1.0
 21
1.0
 12
0.0
 22
0.0
 13
0.0
 23
0.0
 14
0.5
 24
0.5
 15
0.5
 25
0.5
 16
0.0
 26
0.0
 36
1.0
 17
105.0008091239277
 27
148.5001637099431
 37
0.0
 40
297.0003274198861
 41
0.7070753762199199
 42
50.0
 43
0.0
 44
0.0
 50
0.0
 51
0.0
 71
     0
 72
   100
 73
     1
 74
     3
 75
     0
 76
     0
 77
     0
 78
     0
281
     0
 65
     1
110
0.0
120
0.0
130
0.0
111
1.0
121
0.0
131
0.0
112
0.0
122
1.0
132
0.0
 79
     0
146
0.0
  0
ENDTAB
  0
TABLE
  2
LTYPE
  5
5
330
0
100
AcDbSymbolTable
 70
     4
  0
LTYPE
  5
14
330
5
100
AcDbSymbolTableRecord
100
AcDbLinetypeTableRecord
  2
ByBlock
 70
     0
  3

 72
    65
 73
     0
 40
0.0
  0
LTYPE
  5
15
330
5
100
AcDbSymbolTableRecord
100
AcDbLinetypeTableRecord
  2
ByLayer
 70
     0
  3

 72
    65
 73
     0
 40
0.0
  0
LTYPE
  5
16
330
5
100
AcDbSymbolTableRecord
100
AcDbLinetypeTableRecord
  2
Continuous
 70
     0
  3
Solid line
 72
    65
 73
     0
 40
0.0
  0
LTYPE
  5
4EC
330
5
100
AcDbSymbolTableRecord
100
AcDbLinetypeTableRecord
  2
AI-Linetype-1
 70
     0
  3
Adobe Illustrator Linetype No. 1
 72
    65
 73
     4
 40
24.98236248863606
 49
12.48941735430538
 74
     0
 49
-6.244708677152689
 74
     0
 49
0.0035277800253007
 74
     0
 49
-6.244708677152689
 74
     0
  0
LTYPE
  5
4F5
330
5
100
AcDbSymbolTableRecord
100
AcDbLinetypeTableRecord
  2
AI-Linetype-2
 70
     0
  3
Adobe Illustrator Linetype No. 2
 72
    65
 73
     4
 40
24.98236248863606
 49
12.48941735430538
 74
     0
 49
-6.244708677152689
 74
     0
 49
0.0035277800253007
 74
     0
 49
-6.244708677152689
 74
     0
  0
LTYPE
  5
4FE
330
5
100
AcDbSymbolTableRecord
100
AcDbLinetypeTableRecord
  2
AI-Linetype-3
 70
     0
  3
Adobe Illustrator Linetype No. 3
 72
    65
 73
     4
 40
19.98659527776564
 49
9.991533748870172
 74
     0
 49
-4.995766874435086
 74
     0
 49
0.0035277800253007
 74
     0
 49
-4.995766874435086
 74
     0
  0
ENDTAB
  0
TABLE
  2
LAYER
  5
2
330
0
100
AcDbSymbolTable
 70
     9
  0
LAYER
  5
10
330
2
100
AcDbSymbolTableRecord
100
AcDbLayerTableRecord
  2
0
 70
     0
 62
     7
  6
Continuous
370
    -3
390
F
  0
LAYER
  5
3B
330
2
100
AcDbSymbolTableRecord
100
AcDbLayerTableRecord
  2
CAJETIN
 70
     0
 62
     7
  6
Continuous
370
    -3
390
F
  0
LAYER
  5
3C
330
2
100
AcDbSymbolTableRecord
100
AcDbLayerTableRecord
  2
TEXTO-NOMBRE
 70
     0
 62
     7
  6
Continuous
370
    -3
390
F
  0
LAYER
  5
3D
330
2
100
AcDbSymbolTableRecord
100
AcDbLayerTableRecord
  2
PIEZA
 70
     0
 62
     7
  6
Continuous
370
    -3
390
F
  0
LAYER
  5
264
330
2
100
AcDbSymbolTableRecord
100
AcDbLayerTableRecord
  2
Fina
 70
     0
 62
     7
  6
Continuous
370
    -3
390
F
  0
LAYER
  5
2D8
330
2
100
AcDbSymbolTableRecord
100
AcDbLayerTableRecord
  2
COTAS
 70
     0
 62
     7
  6
Continuous
370
    -3
390
F
  0
LAYER
  5
4E3
330
2
100
AcDbSymbolTableRecord
100
AcDbLayerTableRecord
  2
EJES
 70
     0
 62
     7
  6
Continuous
370
    -3
390
F
  0
LAYER
  5
4FF
330
2
100
AcDbSymbolTableRecord
100
AcDbLayerTableRecord
  2
LINEAS-FINAS
 70
     0
 62
     7
  6
Continuous
370
    -3
390
F
  0
LAYER
  5
508
330
2
100
AcDbSymbolTableRecord
100
AcDbLayerTableRecord
  2
SOMBREA
 70
     0
 62
     7
  6
Continuous
370
    -3
390
F
  0
ENDTAB
  0
TABLE
  2
STYLE
  5
3
330
0
100
AcDbSymbolTable
 70
     1
  0
STYLE
  5
11
330
3
100
AcDbSymbolTableRecord
100
AcDbTextStyleTableRecord
  2
Standard
 70
     0
 40
0.0
 41
1.0
 50
0.0
 71
     0
 42
0.2
  3
txt
  4

  0
ENDTAB
  0
TABLE
  2
VIEW
  5
6
330
0
100
AcDbSymbolTable
 70
     0
  0
ENDTAB
  0
TABLE
  2
UCS
  5
7
330
0
100
AcDbSymbolTable
 70
     0
  0
ENDTAB
  0
TABLE
  2
APPID
  5
9
330
0
100
AcDbSymbolTable
 70
     1
  0
APPID
  5
12
330
9
100
AcDbSymbolTableRecord
100
AcDbRegAppTableRecord
  2
ACAD
 70
     0
  0
ENDTAB
  0
TABLE
  2
DIMSTYLE
  5
A
330
0
100
AcDbSymbolTable
 70
     1
100
AcDbDimStyleTable
  0
DIMSTYLE
105
27
330
A
100
AcDbSymbolTableRecord
100
AcDbDimStyleTableRecord
  2
Standard
 70
     0
340
11
  0
ENDTAB
  0
TABLE
  2
BLOCK_RECORD
  5
1
330
0
100
AcDbSymbolTable
 70
   163
  0
BLOCK_RECORD
  5
1F
330
1
100
AcDbSymbolTableRecord
100
AcDbBlockTableRecord
  2
*Model_Space
340
22
  0
BLOCK_RECORD
  5
1B
330
1
100
AcDbSymbolTableRecord
100
AcDbBlockTableRecord
  2
*Paper_Space
340
1E
  0
BLOCK_RECORD
  5
23
330
1
100
AcDbSymbolTableRecord
100
AcDbBlockTableRecord
  2
*Paper_Space0
340
26
  0
BLOCK_RECORD
  5
3E
330
1
100
AcDbSymbolTableRecord
100
AcDbBlockTableRecord
  2
block 2
340
0
102
{BLKREFS
331
3F
102
}
  0
BLOCK_RECORD
  5
46
330
1
100
AcDbSymbolTableRecord
100
AcDbBlockTableRecord
  2
block 3
340
0
102
{BLKREFS
331
47
102
}
  0
BLOCK_RECORD
  5
4E
330
1
100
AcDbSymbolTableRecord
100
AcDbBlockTableRecord
  2
block 4
340
0
102
{BLKREFS
331
4F
102
}
  0
BLOCK_RECORD
  5
56
330
1
100
AcDbSymbolTableRecord
100
AcDbBlockTableRecord
  2
block 5
340
0
102
{BLKREFS
331
57
102
}
  0
BLOCK_RECORD
  5
5E
330
1
100
AcDbSymbolTableRecord
100
AcDbBlockTableRecord
  2
block 6
340
0
102
{BLKREFS
331
5F
102
}
  0
BLOCK_RECORD
  5
63
330
1
100
AcDbSymbolTableRecord
100
AcDbBlockTableRecord
  2
block 7
340
0
102
{BLKREFS
331
64
102
}
  0
BLOCK_RECORD
  5
6B
330
1
100
AcDbSymbolTableRecord
100
AcDbBlockTableRecord
  2
block 8
340
0
102
{BLKREFS
331
6C
102
}
  0
BLOCK_RECORD
  5
70
330
1
100
AcDbSymbolTableRecord
100
AcDbBlockTableRecord
  2
block 9
340
0
102
{BLKREFS
331
71
102
}
  0
BLOCK_RECORD
  5
78
330
1
100
AcDbSymbolTableRecord
100
AcDbBlockTableRecord
  2
block 10
340
0
102
{BLKREFS
331
79
102
}
  0
BLOCK_RECORD
  5
80
330
1
100
AcDbSymbolTableRecord
100
AcDbBlockTableRecord
  2
block 11
340
0
102
{BLKREFS
331
81
102
}
  0
BLOCK_RECORD
  5
85
330
1
100
AcDbSymbolTableRecord
100
AcDbBlockTableRecord
  2
block 12
340
0
102
{BLKREFS
331
86
102
}
  0
BLOCK_RECORD
  5
8A
330
1
100
AcDbSymbolTableRecord
100
AcDbBlockTableRecord
  2
block 13
340
0
102
{BLKREFS
331
8B
102
}
  0
BLOCK_RECORD
  5
92
330
1
100
AcDbSymbolTableRecord
100
AcDbBlockTableRecord
  2
block 14
340
0
102
{BLKREFS
331
93
102
}
  0
BLOCK_RECORD
  5
9A
330
1
100
AcDbSymbolTableRecord
100
AcDbBlockTableRecord
  2
block 15
340
0
102
{BLKREFS
331
9B
102
}
  0
BLOCK_RECORD
  5
A2
330
1
100
AcDbSymbolTableRecord
100
AcDbBlockTableRecord
  2
block 16
340
0
102
{BLKREFS
331
A3
102
}
  0
BLOCK_RECORD
  5
A7
330
1
100
AcDbSymbolTableRecord
100
AcDbBlockTableRecord
  2
block 17
340
0
102
{BLKREFS
331
A8
102
}
  0
BLOCK_RECORD
  5
AF
330
1
100
AcDbSymbolTableRecord
100
AcDbBlockTableRecord
  2
block 18
340
0
102
{BLKREFS
331
B0
102
}
  0
BLOCK_RECORD
  5
B7
330
1
100
AcDbSymbolTableRecord
100
AcDbBlockTableRecord
  2
block 19
340
0
102
{BLKREFS
331
B8
102
}
  0
BLOCK_RECORD
  5
BF
330
1
100
AcDbSymbolTableRecord
100
AcDbBlockTableRecord
  2
block 20
340
0
102
{BLKREFS
331
C0
102
}
  0
BLOCK_RECORD
  5
C7
330
1
100
AcDbSymbolTableRecord
100
AcDbBlockTableRecord
  2
block 21
340
0
102
{BLKREFS
331
C8
102
}
  0
BLOCK_RECORD
  5
124
330
1
100
AcDbSymbolTableRecord
100
AcDbBlockTableRecord
  2
block 22
340
0
102
{BLKREFS
331
125
102
}
  0
BLOCK_RECORD
  5
12C
330
1
100
AcDbSymbolTableRecord
100
AcDbBlockTableRecord
  2
block 23
340
0
102
{BLKREFS
331
12D
102
}
  0
BLOCK_RECORD
  5
131
330
1
100
AcDbSymbolTableRecord
100
AcDbBlockTableRecord
  2
block 24
340
0
102
{BLKREFS
331
132
102
}
  0
BLOCK_RECORD
  5
139
330
1
100
AcDbSymbolTableRecord
100
AcDbBlockTableRecord
  2
block 25
340
0
102
{BLKREFS
331
13A
102
}
  0
BLOCK_RECORD
  5
141
330
1
100
AcDbSymbolTableRecord
100
AcDbBlockTableRecord
  2
block 26
340
0
102
{BLKREFS
331
142
102
}
  0
BLOCK_RECORD
  5
149
330
1
100
AcDbSymbolTableRecord
100
AcDbBlockTableRecord
  2
block 27
340
0
102
{BLKREFS
331
14A
102
}
  0
BLOCK_RECORD
  5
14E
330
1
100
AcDbSymbolTableRecord
100
AcDbBlockTableRecord
  2
block 28
340
0
102
{BLKREFS
331
14F
102
}
  0
BLOCK_RECORD
  5
156
330
1
100
AcDbSymbolTableRecord
100
AcDbBlockTableRecord
  2
block 29
340
0
102
{BLKREFS
331
157
102
}
  0
BLOCK_RECORD
  5
15E
330
1
100
AcDbSymbolTableRecord
100
AcDbBlockTableRecord
  2
block 30
340
0
102
{BLKREFS
331
15F
102
}
  0
BLOCK_RECORD
  5
163
330
1
100
AcDbSymbolTableRecord
100
AcDbBlockTableRecord
  2
block 31
340
0
102
{BLKREFS
331
164
102
}
  0
BLOCK_RECORD
  5
16B
330
1
100
AcDbSymbolTableRecord
100
AcDbBlockTableRecord
  2
block 32
340
0
102
{BLKREFS
331
16C
102
}
  0
BLOCK_RECORD
  5
170
330
1
100
AcDbSymbolTableRecord
100
AcDbBlockTableRecord
  2
block 33
340
0
102
{BLKREFS
331
171
102
}
  0
BLOCK_RECORD
  5
178
330
1
100
AcDbSymbolTableRecord
100
AcDbBlockTableRecord
  2
block 34
340
0
102
{BLKREFS
331
179
102
}
  0
BLOCK_RECORD
  5
180
330
1
100
AcDbSymbolTableRecord
100
AcDbBlockTableRecord
  2
block 35
340
0
102
{BLKREFS
331
181
102
}
  0
BLOCK_RECORD
  5
185
330
1
100
AcDbSymbolTableRecord
100
AcDbBlockTableRecord
  2
block 36
340
0
102
{BLKREFS
331
186
102
}
  0
BLOCK_RECORD
  5
18A
330
1
100
AcDbSymbolTableRecord
100
AcDbBlockTableRecord
  2
block 37
340
0
102
{BLKREFS
331
18B
102
}
  0
BLOCK_RECORD
  5
192
330
1
100
AcDbSymbolTableRecord
100
AcDbBlockTableRecord
  2
block 38
340
0
102
{BLKREFS
331
193
102
}
  0
BLOCK_RECORD
  5
197
330
1
100
AcDbSymbolTableRecord
100
AcDbBlockTableRecord
  2
block 39
340
0
102
{BLKREFS
331
198
102
}
  0
BLOCK_RECORD
  5
19C
330
1
100
AcDbSymbolTableRecord
100
AcDbBlockTableRecord
  2
block 40
340
0
102
{BLKREFS
331
19D
102
}
  0
BLOCK_RECORD
  5
1A4
330
1
100
AcDbSymbolTableRecord
100
AcDbBlockTableRecord
  2
block 41
340
0
102
{BLKREFS
331
1A5
102
}
  0
BLOCK_RECORD
  5
1AC
330
1
100
AcDbSymbolTableRecord
100
AcDbBlockTableRecord
  2
block 42
340
0
102
{BLKREFS
331
1AD
102
}
  0
BLOCK_RECORD
  5
1B4
330
1
100
AcDbSymbolTableRecord
100
AcDbBlockTableRecord
  2
block 43
340
0
102
{BLKREFS
331
1B5
102
}
  0
BLOCK_RECORD
  5
1BC
330
1
100
AcDbSymbolTableRecord
100
AcDbBlockTableRecord
  2
block 44
340
0
102
{BLKREFS
331
1BD
102
}
  0
BLOCK_RECORD
  5
1C4
330
1
100
AcDbSymbolTableRecord
100
AcDbBlockTableRecord
  2
block 45
340
0
102
{BLKREFS
331
1C5
102
}
  0
BLOCK_RECORD
  5
1CC
330
1
100
AcDbSymbolTableRecord
100
AcDbBlockTableRecord
  2
block 46
340
0
102
{BLKREFS
331
1CD
102
}
  0
BLOCK_RECORD
  5
1D4
330
1
100
AcDbSymbolTableRecord
100
AcDbBlockTableRecord
  2
block 47
340
0
102
{BLKREFS
331
1D5
102
}
  0
BLOCK_RECORD
  5
1DC
330
1
100
AcDbSymbolTableRecord
100
AcDbBlockTableRecord
  2
block 48
340
0
102
{BLKREFS
331
1DD
102
}
  0
BLOCK_RECORD
  5
1E4
330
1
100
AcDbSymbolTableRecord
100
AcDbBlockTableRecord
  2
block 49
340
0
102
{BLKREFS
331
1E5
102
}
  0
BLOCK_RECORD
  5
1E9
330
1
100
AcDbSymbolTableRecord
100
AcDbBlockTableRecord
  2
block 50
340
0
102
{BLKREFS
331
1EA
102
}
  0
BLOCK_RECORD
  5
1EE
330
1
100
AcDbSymbolTableRecord
100
AcDbBlockTableRecord
  2
block 51
340
0
102
{BLKREFS
331
1EF
102
}
  0
BLOCK_RECORD
  5
1F3
330
1
100
AcDbSymbolTableRecord
100
AcDbBlockTableRecord
  2
block 52
340
0
102
{BLKREFS
331
1F4
102
}
  0
BLOCK_RECORD
  5
1F8
330
1
100
AcDbSymbolTableRecord
100
AcDbBlockTableRecord
  2
block 53
340
0
102
{BLKREFS
331
1F9
102
}
  0
BLOCK_RECORD
  5
1FD
330
1
100
AcDbSymbolTableRecord
100
AcDbBlockTableRecord
  2
block 54
340
0
102
{BLKREFS
331
1FE
102
}
  0
BLOCK_RECORD
  5
202
330
1
100
AcDbSymbolTableRecord
100
AcDbBlockTableRecord
  2
block 55
340
0
102
{BLKREFS
331
203
102
}
  0
BLOCK_RECORD
  5
207
330
1
100
AcDbSymbolTableRecord
100
AcDbBlockTableRecord
  2
block 56
340
0
102
{BLKREFS
331
208
102
}
  0
BLOCK_RECORD
  5
20C
330
1
100
AcDbSymbolTableRecord
100
AcDbBlockTableRecord
  2
block 57
340
0
102
{BLKREFS
331
20D
102
}
  0
BLOCK_RECORD
  5
211
330
1
100
AcDbSymbolTableRecord
100
AcDbBlockTableRecord
  2
block 58
340
0
102
{BLKREFS
331
212
102
}
  0
BLOCK_RECORD
  5
216
330
1
100
AcDbSymbolTableRecord
100
AcDbBlockTableRecord
  2
block 59
340
0
102
{BLKREFS
331
217
102
}
  0
BLOCK_RECORD
  5
21B
330
1
100
AcDbSymbolTableRecord
100
AcDbBlockTableRecord
  2
block 60
340
0
102
{BLKREFS
331
21C
102
}
  0
BLOCK_RECORD
  5
220
330
1
100
AcDbSymbolTableRecord
100
AcDbBlockTableRecord
  2
block 61
340
0
102
{BLKREFS
331
221
102
}
  0
BLOCK_RECORD
  5
228
330
1
100
AcDbSymbolTableRecord
100
AcDbBlockTableRecord
  2
block 62
340
0
102
{BLKREFS
331
229
102
}
  0
BLOCK_RECORD
  5
22D
330
1
100
AcDbSymbolTableRecord
100
AcDbBlockTableRecord
  2
block 63
340
0
102
{BLKREFS
331
22E
102
}
  0
BLOCK_RECORD
  5
235
330
1
100
AcDbSymbolTableRecord
100
AcDbBlockTableRecord
  2
block 64
340
0
102
{BLKREFS
331
236
102
}
  0
BLOCK_RECORD
  5
23A
330
1
100
AcDbSymbolTableRecord
100
AcDbBlockTableRecord
  2
block 65
340
0
102
{BLKREFS
331
23B
102
}
  0
BLOCK_RECORD
  5
23F
330
1
100
AcDbSymbolTableRecord
100
AcDbBlockTableRecord
  2
block 66
340
0
102
{BLKREFS
331
240
102
}
  0
BLOCK_RECORD
  5
244
330
1
100
AcDbSymbolTableRecord
100
AcDbBlockTableRecord
  2
block 67
340
0
102
{BLKREFS
331
245
102
}
  0
BLOCK_RECORD
  5
24C
330
1
100
AcDbSymbolTableRecord
100
AcDbBlockTableRecord
  2
block 68
340
0
102
{BLKREFS
331
24D
102
}
  0
BLOCK_RECORD
  5
254
330
1
100
AcDbSymbolTableRecord
100
AcDbBlockTableRecord
  2
block 69
340
0
102
{BLKREFS
331
255
102
}
  0
BLOCK_RECORD
  5
25C
330
1
100
AcDbSymbolTableRecord
100
AcDbBlockTableRecord
  2
block 70
340
0
102
{BLKREFS
331
25D
102
}
  0
BLOCK_RECORD
  5
265
330
1
100
AcDbSymbolTableRecord
100
AcDbBlockTableRecord
  2
block 71
340
0
102
{BLKREFS
331
266
102
}
  0
BLOCK_RECORD
  5
26D
330
1
100
AcDbSymbolTableRecord
100
AcDbBlockTableRecord
  2
block 72
340
0
102
{BLKREFS
331
26E
102
}
  0
BLOCK_RECORD
  5
275
330
1
100
AcDbSymbolTableRecord
100
AcDbBlockTableRecord
  2
block 73
340
0
102
{BLKREFS
331
276
102
}
  0
BLOCK_RECORD
  5
27D
330
1
100
AcDbSymbolTableRecord
100
AcDbBlockTableRecord
  2
block 74
340
0
102
{BLKREFS
331
27E
102
}
  0
BLOCK_RECORD
  5
282
330
1
100
AcDbSymbolTableRecord
100
AcDbBlockTableRecord
  2
block 75
340
0
102
{BLKREFS
331
283
102
}
  0
BLOCK_RECORD
  5
287
330
1
100
AcDbSymbolTableRecord
100
AcDbBlockTableRecord
  2
block 76
340
0
102
{BLKREFS
331
288
102
}
  0
BLOCK_RECORD
  5
28C
330
1
100
AcDbSymbolTableRecord
100
AcDbBlockTableRecord
  2
block 77
340
0
102
{BLKREFS
331
28D
102
}
  0
BLOCK_RECORD
  5
291
330
1
100
AcDbSymbolTableRecord
100
AcDbBlockTableRecord
  2
block 78
340
0
102
{BLKREFS
331
292
102
}
  0
BLOCK_RECORD
  5
296
330
1
100
AcDbSymbolTableRecord
100
AcDbBlockTableRecord
  2
block 79
340
0
102
{BLKREFS
331
297
102
}
  0
BLOCK_RECORD
  5
29B
330
1
100
AcDbSymbolTableRecord
100
AcDbBlockTableRecord
  2
block 80
340
0
102
{BLKREFS
331
29C
102
}
  0
BLOCK_RECORD
  5
2A0
330
1
100
AcDbSymbolTableRecord
100
AcDbBlockTableRecord
  2
block 81
340
0
102
{BLKREFS
331
2A1
102
}
  0
BLOCK_RECORD
  5
2A5
330
1
100
AcDbSymbolTableRecord
100
AcDbBlockTableRecord
  2
block 82
340
0
102
{BLKREFS
331
2A6
102
}
  0
BLOCK_RECORD
  5
2AA
330
1
100
AcDbSymbolTableRecord
100
AcDbBlockTableRecord
  2
block 83
340
0
102
{BLKREFS
331
2AB
102
}
  0
BLOCK_RECORD
  5
2AF
330
1
100
AcDbSymbolTableRecord
100
AcDbBlockTableRecord
  2
block 84
340
0
102
{BLKREFS
331
2B0
102
}
  0
BLOCK_RECORD
  5
2B4
330
1
100
AcDbSymbolTableRecord
100
AcDbBlockTableRecord
  2
block 85
340
0
102
{BLKREFS
331
2B5
102
}
  0
BLOCK_RECORD
  5
2B9
330
1
100
AcDbSymbolTableRecord
100
AcDbBlockTableRecord
  2
block 86
340
0
102
{BLKREFS
331
2BA
102
}
  0
BLOCK_RECORD
  5
2BE
330
1
100
AcDbSymbolTableRecord
100
AcDbBlockTableRecord
  2
block 87
340
0
102
{BLKREFS
331
2BF
102
}
  0
BLOCK_RECORD
  5
2C3
330
1
100
AcDbSymbolTableRecord
100
AcDbBlockTableRecord
  2
block 88
340
0
102
{BLKREFS
331
2C4
102
}
  0
BLOCK_RECORD
  5
2C8
330
1
100
AcDbSymbolTableRecord
100
AcDbBlockTableRecord
  2
block 89
340
0
102
{BLKREFS
331
2C9
102
}
  0
BLOCK_RECORD
  5
2D0
330
1
100
AcDbSymbolTableRecord
100
AcDbBlockTableRecord
  2
block 90
340
0
102
{BLKREFS
331
2D1
102
}
  0
BLOCK_RECORD
  5
2D9
330
1
100
AcDbSymbolTableRecord
100
AcDbBlockTableRecord
  2
block 91
340
0
102
{BLKREFS
331
2DA
102
}
  0
BLOCK_RECORD
  5
2DD
330
1
100
AcDbSymbolTableRecord
100
AcDbBlockTableRecord
  2
block 92
340
0
102
{BLKREFS
331
2DE
102
}
  0
BLOCK_RECORD
  5
2E5
330
1
100
AcDbSymbolTableRecord
100
AcDbBlockTableRecord
  2
block 93
340
0
102
{BLKREFS
331
2E6
102
}
  0
BLOCK_RECORD
  5
2ED
330
1
100
AcDbSymbolTableRecord
100
AcDbBlockTableRecord
  2
block 94
340
0
102
{BLKREFS
331
2EE
102
}
  0
BLOCK_RECORD
  5
2F5
330
1
100
AcDbSymbolTableRecord
100
AcDbBlockTableRecord
  2
block 95
340
0
102
{BLKREFS
331
2F6
102
}
  0
BLOCK_RECORD
  5
2FD
330
1
100
AcDbSymbolTableRecord
100
AcDbBlockTableRecord
  2
block 96
340
0
102
{BLKREFS
331
2FE
102
}
  0
BLOCK_RECORD
  5
308
330
1
100
AcDbSymbolTableRecord
100
AcDbBlockTableRecord
  2
block 97
340
0
102
{BLKREFS
331
309
102
}
  0
BLOCK_RECORD
  5
313
330
1
100
AcDbSymbolTableRecord
100
AcDbBlockTableRecord
  2
block 98
340
0
102
{BLKREFS
331
314
102
}
  0
BLOCK_RECORD
  5
318
330
1
100
AcDbSymbolTableRecord
100
AcDbBlockTableRecord
  2
block 99
340
0
102
{BLKREFS
331
319
102
}
  0
BLOCK_RECORD
  5
320
330
1
100
AcDbSymbolTableRecord
100
AcDbBlockTableRecord
  2
block 100
340
0
102
{BLKREFS
331
321
102
}
  0
BLOCK_RECORD
  5
328
330
1
100
AcDbSymbolTableRecord
100
AcDbBlockTableRecord
  2
block 101
340
0
102
{BLKREFS
331
329
102
}
  0
BLOCK_RECORD
  5
330
330
1
100
AcDbSymbolTableRecord
100
AcDbBlockTableRecord
  2
block 102
340
0
102
{BLKREFS
331
331
102
}
  0
BLOCK_RECORD
  5
334
330
1
100
AcDbSymbolTableRecord
100
AcDbBlockTableRecord
  2
block 103
340
0
102
{BLKREFS
331
335
102
}
  0
BLOCK_RECORD
  5
33C
330
1
100
AcDbSymbolTableRecord
100
AcDbBlockTableRecord
  2
block 104
340
0
102
{BLKREFS
331
33D
102
}
  0
BLOCK_RECORD
  5
344
330
1
100
AcDbSymbolTableRecord
100
AcDbBlockTableRecord
  2
block 105
340
0
102
{BLKREFS
331
345
102
}
  0
BLOCK_RECORD
  5
34C
330
1
100
AcDbSymbolTableRecord
100
AcDbBlockTableRecord
  2
block 106
340
0
102
{BLKREFS
331
34D
102
}
  0
BLOCK_RECORD
  5
354
330
1
100
AcDbSymbolTableRecord
100
AcDbBlockTableRecord
  2
block 107
340
0
102
{BLKREFS
331
355
102
}
  0
BLOCK_RECORD
  5
35F
330
1
100
AcDbSymbolTableRecord
100
AcDbBlockTableRecord
  2
block 108
340
0
102
{BLKREFS
331
360
102
}
  0
BLOCK_RECORD
  5
36A
330
1
100
AcDbSymbolTableRecord
100
AcDbBlockTableRecord
  2
block 109
340
0
102
{BLKREFS
331
36B
102
}
  0
BLOCK_RECORD
  5
36F
330
1
100
AcDbSymbolTableRecord
100
AcDbBlockTableRecord
  2
block 110
340
0
102
{BLKREFS
331
370
102
}
  0
BLOCK_RECORD
  5
377
330
1
100
AcDbSymbolTableRecord
100
AcDbBlockTableRecord
  2
block 111
340
0
102
{BLKREFS
331
378
102
}
  0
BLOCK_RECORD
  5
37F
330
1
100
AcDbSymbolTableRecord
100
AcDbBlockTableRecord
  2
block 112
340
0
102
{BLKREFS
331
380
102
}
  0
BLOCK_RECORD
  5
387
330
1
100
AcDbSymbolTableRecord
100
AcDbBlockTableRecord
  2
block 113
340
0
102
{BLKREFS
331
388
102
}
  0
BLOCK_RECORD
  5
38B
330
1
100
AcDbSymbolTableRecord
100
AcDbBlockTableRecord
  2
block 114
340
0
102
{BLKREFS
331
38C
102
}
  0
BLOCK_RECORD
  5
393
330
1
100
AcDbSymbolTableRecord
100
AcDbBlockTableRecord
  2
block 115
340
0
102
{BLKREFS
331
394
102
}
  0
BLOCK_RECORD
  5
39B
330
1
100
AcDbSymbolTableRecord
100
AcDbBlockTableRecord
  2
block 116
340
0
102
{BLKREFS
331
39C
102
}
  0
BLOCK_RECORD
  5
3A3
330
1
100
AcDbSymbolTableRecord
100
AcDbBlockTableRecord
  2
block 117
340
0
102
{BLKREFS
331
3A4
102
}
  0
BLOCK_RECORD
  5
3AB
330
1
100
AcDbSymbolTableRecord
100
AcDbBlockTableRecord
  2
block 118
340
0
102
{BLKREFS
331
3AC
102
}
  0
BLOCK_RECORD
  5
3B6
330
1
100
AcDbSymbolTableRecord
100
AcDbBlockTableRecord
  2
block 119
340
0
102
{BLKREFS
331
3B7
102
}
  0
BLOCK_RECORD
  5
3C1
330
1
100
AcDbSymbolTableRecord
100
AcDbBlockTableRecord
  2
block 120
340
0
102
{BLKREFS
331
3C2
102
}
  0
BLOCK_RECORD
  5
3C6
330
1
100
AcDbSymbolTableRecord
100
AcDbBlockTableRecord
  2
block 121
340
0
102
{BLKREFS
331
3C7
102
}
  0
BLOCK_RECORD
  5
3CE
330
1
100
AcDbSymbolTableRecord
100
AcDbBlockTableRecord
  2
block 122
340
0
102
{BLKREFS
331
3CF
102
}
  0
BLOCK_RECORD
  5
3D6
330
1
100
AcDbSymbolTableRecord
100
AcDbBlockTableRecord
  2
block 123
340
0
102
{BLKREFS
331
3D7
102
}
  0
BLOCK_RECORD
  5
3DE
330
1
100
AcDbSymbolTableRecord
100
AcDbBlockTableRecord
  2
block 124
340
0
102
{BLKREFS
331
3DF
102
}
  0
BLOCK_RECORD
  5
3E2
330
1
100
AcDbSymbolTableRecord
100
AcDbBlockTableRecord
  2
block 125
340
0
102
{BLKREFS
331
3E3
102
}
  0
BLOCK_RECORD
  5
3EA
330
1
100
AcDbSymbolTableRecord
100
AcDbBlockTableRecord
  2
block 126
340
0
102
{BLKREFS
331
3EB
102
}
  0
BLOCK_RECORD
  5
3F2
330
1
100
AcDbSymbolTableRecord
100
AcDbBlockTableRecord
  2
block 127
340
0
102
{BLKREFS
331
3F3
102
}
  0
BLOCK_RECORD
  5
3FA
330
1
100
AcDbSymbolTableRecord
100
AcDbBlockTableRecord
  2
block 128
340
0
102
{BLKREFS
331
3FB
102
}
  0
BLOCK_RECORD
  5
402
330
1
100
AcDbSymbolTableRecord
100
AcDbBlockTableRecord
  2
block 129
340
0
102
{BLKREFS
331
403
102
}
  0
BLOCK_RECORD
  5
40D
330
1
100
AcDbSymbolTableRecord
100
AcDbBlockTableRecord
  2
block 130
340
0
102
{BLKREFS
331
40E
102
}
  0
BLOCK_RECORD
  5
418
330
1
100
AcDbSymbolTableRecord
100
AcDbBlockTableRecord
  2
block 131
340
0
102
{BLKREFS
331
419
102
}
  0
BLOCK_RECORD
  5
41D
330
1
100
AcDbSymbolTableRecord
100
AcDbBlockTableRecord
  2
block 132
340
0
102
{BLKREFS
331
41E
102
}
  0
BLOCK_RECORD
  5
425
330
1
100
AcDbSymbolTableRecord
100
AcDbBlockTableRecord
  2
block 133
340
0
102
{BLKREFS
331
426
102
}
  0
BLOCK_RECORD
  5
42D
330
1
100
AcDbSymbolTableRecord
100
AcDbBlockTableRecord
  2
block 134
340
0
102
{BLKREFS
331
42E
102
}
  0
BLOCK_RECORD
  5
435
330
1
100
AcDbSymbolTableRecord
100
AcDbBlockTableRecord
  2
block 135
340
0
102
{BLKREFS
331
436
102
}
  0
BLOCK_RECORD
  5
439
330
1
100
AcDbSymbolTableRecord
100
AcDbBlockTableRecord
  2
block 136
340
0
102
{BLKREFS
331
43A
102
}
  0
BLOCK_RECORD
  5
441
330
1
100
AcDbSymbolTableRecord
100
AcDbBlockTableRecord
  2
block 137
340
0
102
{BLKREFS
331
442
102
}
  0
BLOCK_RECORD
  5
449
330
1
100
AcDbSymbolTableRecord
100
AcDbBlockTableRecord
  2
block 138
340
0
102
{BLKREFS
331
44A
102
}
  0
BLOCK_RECORD
  5
451
330
1
100
AcDbSymbolTableRecord
100
AcDbBlockTableRecord
  2
block 139
340
0
102
{BLKREFS
331
452
102
}
  0
BLOCK_RECORD
  5
459
330
1
100
AcDbSymbolTableRecord
100
AcDbBlockTableRecord
  2
block 140
340
0
102
{BLKREFS
331
45A
102
}
  0
BLOCK_RECORD
  5
464
330
1
100
AcDbSymbolTableRecord
100
AcDbBlockTableRecord
  2
block 141
340
0
102
{BLKREFS
331
465
102
}
  0
BLOCK_RECORD
  5
46F
330
1
100
AcDbSymbolTableRecord
100
AcDbBlockTableRecord
  2
block 142
340
0
102
{BLKREFS
331
470
102
}
  0
BLOCK_RECORD
  5
474
330
1
100
AcDbSymbolTableRecord
100
AcDbBlockTableRecord
  2
block 143
340
0
102
{BLKREFS
331
475
102
}
  0
BLOCK_RECORD
  5
47C
330
1
100
AcDbSymbolTableRecord
100
AcDbBlockTableRecord
  2
block 144
340
0
102
{BLKREFS
331
47D
102
}
  0
BLOCK_RECORD
  5
484
330
1
100
AcDbSymbolTableRecord
100
AcDbBlockTableRecord
  2
block 145
340
0
102
{BLKREFS
331
485
102
}
  0
BLOCK_RECORD
  5
48C
330
1
100
AcDbSymbolTableRecord
100
AcDbBlockTableRecord
  2
block 146
340
0
102
{BLKREFS
331
48D
102
}
  0
BLOCK_RECORD
  5
490
330
1
100
AcDbSymbolTableRecord
100
AcDbBlockTableRecord
  2
block 147
340
0
102
{BLKREFS
331
491
102
}
  0
BLOCK_RECORD
  5
498
330
1
100
AcDbSymbolTableRecord
100
AcDbBlockTableRecord
  2
block 148
340
0
102
{BLKREFS
331
499
102
}
  0
BLOCK_RECORD
  5
4A0
330
1
100
AcDbSymbolTableRecord
100
AcDbBlockTableRecord
  2
block 149
340
0
102
{BLKREFS
331
4A1
102
}
  0
BLOCK_RECORD
  5
4A8
330
1
100
AcDbSymbolTableRecord
100
AcDbBlockTableRecord
  2
block 150
340
0
102
{BLKREFS
331
4A9
102
}
  0
BLOCK_RECORD
  5
4B0
330
1
100
AcDbSymbolTableRecord
100
AcDbBlockTableRecord
  2
block 151
340
0
102
{BLKREFS
331
4B1
102
}
  0
BLOCK_RECORD
  5
4BB
330
1
100
AcDbSymbolTableRecord
100
AcDbBlockTableRecord
  2
block 152
340
0
102
{BLKREFS
331
4BC
102
}
  0
BLOCK_RECORD
  5
4C6
330
1
100
AcDbSymbolTableRecord
100
AcDbBlockTableRecord
  2
block 153
340
0
102
{BLKREFS
331
4C7
102
}
  0
BLOCK_RECORD
  5
4CB
330
1
100
AcDbSymbolTableRecord
100
AcDbBlockTableRecord
  2
block 154
340
0
102
{BLKREFS
331
4CC
102
}
  0
BLOCK_RECORD
  5
4D3
330
1
100
AcDbSymbolTableRecord
100
AcDbBlockTableRecord
  2
block 155
340
0
102
{BLKREFS
331
4D4
102
}
  0
BLOCK_RECORD
  5
4DB
330
1
100
AcDbSymbolTableRecord
100
AcDbBlockTableRecord
  2
block 156
340
0
102
{BLKREFS
331
4DC
102
}
  0
BLOCK_RECORD
  5
4E4
330
1
100
AcDbSymbolTableRecord
100
AcDbBlockTableRecord
  2
block 157
340
0
102
{BLKREFS
331
4E5
102
}
  0
BLOCK_RECORD
  5
4ED
330
1
100
AcDbSymbolTableRecord
100
AcDbBlockTableRecord
  2
block 158
340
0
102
{BLKREFS
331
4EE
102
}
  0
BLOCK_RECORD
  5
4F6
330
1
100
AcDbSymbolTableRecord
100
AcDbBlockTableRecord
  2
block 159
340
0
102
{BLKREFS
331
4F7
102
}
  0
BLOCK_RECORD
  5
500
330
1
100
AcDbSymbolTableRecord
100
AcDbBlockTableRecord
  2
block 160
340
0
102
{BLKREFS
331
501
102
}
  0
BLOCK_RECORD
  5
509
330
1
100
AcDbSymbolTableRecord
100
AcDbBlockTableRecord
  2
block 161
340
0
102
{BLKREFS
331
50A
102
}
  0
BLOCK_RECORD
  5
533
330
1
100
AcDbSymbolTableRecord
100
AcDbBlockTableRecord
  2
block 162
340
0
102
{BLKREFS
331
534
102
}
  0
BLOCK_RECORD
  5
55C
330
1
100
AcDbSymbolTableRecord
100
AcDbBlockTableRecord
  2
block 163
340
0
102
{BLKREFS
331
55D
102
}
  0
ENDTAB
  0
ENDSEC
  0
SECTION
  2
BLOCKS
  0
BLOCK
  5
20
330
1F
100
AcDbEntity
  8
0
100
AcDbBlockBegin
  2
*Model_Space
 70
     0
 71
     0
 10
0.0
 20
0.0
 30
0.0
  3
*Model_Space
  1

  0
ENDBLK
  5
21
330
1F
100
AcDbEntity
  8
0
100
AcDbBlockEnd
  0
BLOCK
  5
1C
330
1B
100
AcDbEntity
 67
     1
  8
0
100
AcDbBlockBegin
  2
*Paper_Space
 70
     0
 71
     0
 10
0.0
 20
0.0
 30
0.0
  3
*Paper_Space
  1

  0
ENDBLK
  5
1D
330
1B
100
AcDbEntity
 67
     1
  8
0
100
AcDbBlockEnd
  0
BLOCK
  5
24
330
23
100
AcDbEntity
  8
0
100
AcDbBlockBegin
  2
*Paper_Space0
 70
     0
 71
     0
 10
0.0
 20
0.0
 30
0.0
  3
*Paper_Space0
  1

  0
ENDBLK
  5
25
330
23
100
AcDbEntity
  8
0
100
AcDbBlockEnd
  0
BLOCK
  5
40
330
3E
100
AcDbEntity
  8
0
100
AcDbBlockBegin
  2
block 2
 70
     0
 71
     0
 10
0.0
 20
0.0
 30
0.0
  3
block 2
  1

  0
POLYLINE
  5
42
330
3E
100
AcDbEntity
  8
PIEZA
 62
     7
420
 16777215
370
     9
100
AcDb2dPolyline
 66
     1
 10
0.0
 20
0.0
 30
0.0
  0
VERTEX
  5
43
330
42
100
AcDbEntity
  8
PIEZA
 62
     7
420
 16777215
370
     9
100
AcDbVertex
100
AcDb2dVertex
 10
139.5631494885707
 20
145.244976965889
 30
0.0
  0
VERTEX
  5
44
330
42
100
AcDbEntity
  8
PIEZA
 62
     7
420
 16777215
370
     9
100
AcDbVertex
100
AcDb2dVertex
 10
139.5631494885707
 20
93.28911316829297
 30
0.0
  0
SEQEND
  5
45
330
42
100
AcDbEntity
  8
PIEZA
370
     9
  0
ENDBLK
  5
41
330
3E
100
AcDbEntity
  8
0
100
AcDbBlockEnd
  0
BLOCK
  5
48
330
46
100
AcDbEntity
  8
0
100
AcDbBlockBegin
  2
block 3
 70
     0
 71
     0
 10
0.0
 20
0.0
 30
0.0
  3
block 3
  1

  0
POLYLINE
  5
4A
330
46
100
AcDbEntity
  8
PIEZA
 62
     7
420
 16777215
370
     9
100
AcDb2dPolyline
 66
     1
 10
0.0
 20
0.0
 30
0.0
  0
VERTEX
  5
4B
330
4A
100
AcDbEntity
  8
PIEZA
 62
     7
420
 16777215
370
     9
100
AcDbVertex
100
AcDb2dVertex
 10
139.5631494885707
 20
93.28911316829297
 30
0.0
  0
VERTEX
  5
4C
330
4A
100
AcDbEntity
  8
PIEZA
 62
     7
420
 16777215
370
     9
100
AcDbVertex
100
AcDb2dVertex
 10
84.10999470197984
 20
93.28911316829297
 30
0.0
  0
SEQEND
  5
4D
330
4A
100
AcDbEntity
  8
PIEZA
370
     9
  0
ENDBLK
  5
49
330
46
100
AcDbEntity
  8
0
100
AcDbBlockEnd
  0
BLOCK
  5
50
330
4E
100
AcDbEntity
  8
0
100
AcDbBlockBegin
  2
block 4
 70
     0
 71
     0
 10
0.0
 20
0.0
 30
0.0
  3
block 4
  1

  0
POLYLINE
  5
52
330
4E
100
AcDbEntity
  8
PIEZA
 62
     7
420
 16777215
370
     9
100
AcDb2dPolyline
 66
     1
 10
0.0
 20
0.0
 30
0.0
  0
VERTEX
  5
53
330
52
100
AcDbEntity
  8
PIEZA
 62
     7
420
 16777215
370
     9
100
AcDbVertex
100
AcDb2dVertex
 10
84.10999470197984
 20
145.244976965889
 30
0.0
  0
VERTEX
  5
54
330
52
100
AcDbEntity
  8
PIEZA
 62
     7
420
 16777215
370
     9
100
AcDbVertex
100
AcDb2dVertex
 10
139.5631494885707
 20
145.244976965889
 30
0.0
  0
SEQEND
  5
55
330
52
100
AcDbEntity
  8
PIEZA
370
     9
  0
ENDBLK
  5
51
330
4E
100
AcDbEntity
  8
0
100
AcDbBlockEnd
  0
BLOCK
  5
58
330
56
100
AcDbEntity
  8
0
100
AcDbBlockBegin
  2
block 5
 70
     0
 71
     0
 10
0.0
 20
0.0
 30
0.0
  3
block 5
  1

  0
POLYLINE
  5
5A
330
56
100
AcDbEntity
  8
PIEZA
 62
     7
420
 16777215
370
     9
100
AcDb2dPolyline
 66
     1
 10
0.0
 20
0.0
 30
0.0
  0
VERTEX
  5
5B
330
5A
100
AcDbEntity
  8
PIEZA
 62
     7
420
 16777215
370
     9
100
AcDbVertex
100
AcDb2dVertex
 10
79.61379761806404
 20
84.29671900046137
 30
0.0
  0
VERTEX
  5
5C
330
5A
100
AcDbEntity
  8
PIEZA
 62
     7
420
 16777215
370
     9
100
AcDbVertex
100
AcDb2dVertex
 10
147.5561207968176
 20
84.29671900046137
 30
0.0
  0
SEQEND
  5
5D
330
5A
100
AcDbEntity
  8
PIEZA
370
     9
  0
ENDBLK
  5
59
330
56
100
AcDbEntity
  8
0
100
AcDbBlockEnd
  0
BLOCK
  5
60
330
5E
100
AcDbEntity
  8
0
100
AcDbBlockBegin
  2
block 6
 70
     0
 71
     0
 10
0.0
 20
0.0
 30
0.0
  3
block 6
  1

  0
SPLINE
  5
62
330
5E
100
AcDbEntity
  8
PIEZA
 62
     7
420
 16777215
370
     9
100
AcDbSpline
210
0.0
220
0.0
230
1.0
 70
     8
 71
     3
 72
    11
 73
     7
 74
     0
 42
0.0000000001
 43
0.0000000001
 40
0.0
 40
0.0
 40
0.0
 40
0.0
 40
1.0
 40
1.0
 40
1.0
 40
2.0
 40
2.0
 40
2.0
 40
2.0
 10
78.61454701336726
 20
85.29579735027026
 30
0.0
 10
78.61454701336726
 20
84.74389268944479
 30
0.0
 10
79.06189295723858
 20
84.29671900046137
 30
0.0
 10
79.61379761806404
 20
84.29671900046137
 30
0.0
 10
79.61379761806404
 20
84.29671900046137
 30
0.0
 10
79.61379761806404
 20
84.29671900046137
 30
0.0
 10
79.61379761806404
 20
84.29671900046137
 30
0.0
  0
ENDBLK
  5
61
330
5E
100
AcDbEntity
  8
0
100
AcDbBlockEnd
  0
BLOCK
  5
65
330
63
100
AcDbEntity
  8
0
100
AcDbBlockBegin
  2
block 7
 70
     0
 71
     0
 10
0.0
 20
0.0
 30
0.0
  3
block 7
  1

  0
POLYLINE
  5
67
330
63
100
AcDbEntity
  8
PIEZA
 62
     7
420
 16777215
370
     9
100
AcDb2dPolyline
 66
     1
 10
0.0
 20
0.0
 30
0.0
  0
VERTEX
  5
68
330
67
100
AcDbEntity
  8
PIEZA
 62
     7
420
 16777215
370
     9
100
AcDbVertex
100
AcDb2dVertex
 10
78.61454701336726
 20
153.2382927839117
 30
0.0
  0
VERTEX
  5
69
330
67
100
AcDbEntity
  8
PIEZA
 62
     7
420
 16777215
370
     9
100
AcDbVertex
100
AcDb2dVertex
 10
78.61454701336726
 20
85.29579735027026
 30
0.0
  0
SEQEND
  5
6A
330
67
100
AcDbEntity
  8
PIEZA
370
     9
  0
ENDBLK
  5
66
330
63
100
AcDbEntity
  8
0
100
AcDbBlockEnd
  0
BLOCK
  5
6D
330
6B
100
AcDbEntity
  8
0
100
AcDbBlockBegin
  2
block 8
 70
     0
 71
     0
 10
0.0
 20
0.0
 30
0.0
  3
block 8
  1

  0
SPLINE
  5
6F
330
6B
100
AcDbEntity
  8
PIEZA
 62
     7
420
 16777215
370
     9
100
AcDbSpline
210
0.0
220
0.0
230
1.0
 70
     8
 71
     3
 72
    11
 73
     7
 74
     0
 42
0.0000000001
 43
0.0000000001
 40
0.0
 40
0.0
 40
0.0
 40
0.0
 40
1.0
 40
1.0
 40
1.0
 40
2.0
 40
2.0
 40
2.0
 40
2.0
 10
79.61379761806404
 20
154.2373711337206
 30
0.0
 10
79.06189295723858
 20
154.2373711337206
 30
0.0
 10
78.61454701336726
 20
153.7901974447372
 30
0.0
 10
78.61454701336726
 20
153.2382927839117
 30
0.0
 10
78.61454701336726
 20
153.2382927839117
 30
0.0
 10
78.61454701336726
 20
153.2382927839117
 30
0.0
 10
78.61454701336726
 20
153.2382927839117
 30
0.0
  0
ENDBLK
  5
6E
330
6B
100
AcDbEntity
  8
0
100
AcDbBlockEnd
  0
BLOCK
  5
72
330
70
100
AcDbEntity
  8
0
100
AcDbBlockBegin
  2
block 9
 70
     0
 71
     0
 10
0.0
 20
0.0
 30
0.0
  3
block 9
  1

  0
POLYLINE
  5
74
330
70
100
AcDbEntity
  8
PIEZA
 62
     7
420
 16777215
370
     9
100
AcDb2dPolyline
 66
     1
 10
0.0
 20
0.0
 30
0.0
  0
VERTEX
  5
75
330
74
100
AcDbEntity
  8
PIEZA
 62
     7
420
 16777215
370
     9
100
AcDbVertex
100
AcDb2dVertex
 10
148.5551991466265
 20
151.239963829406
 30
0.0
  0
VERTEX
  5
76
330
74
100
AcDbEntity
  8
PIEZA
 62
     7
420
 16777215
370
     9
100
AcDbVertex
100
AcDb2dVertex
 10
148.5551991466265
 20
87.29429855966383
 30
0.0
  0
SEQEND
  5
77
330
74
100
AcDbEntity
  8
PIEZA
370
     9
  0
ENDBLK
  5
73
330
70
100
AcDbEntity
  8
0
100
AcDbBlockEnd
  0
BLOCK
  5
7A
330
78
100
AcDbEntity
  8
0
100
AcDbBlockBegin
  2
block 10
 70
     0
 71
     0
 10
0.0
 20
0.0
 30
0.0
  3
block 10
  1

  0
POLYLINE
  5
7C
330
78
100
AcDbEntity
  8
PIEZA
 62
     7
420
 16777215
370
     9
100
AcDb2dPolyline
 66
     1
 10
0.0
 20
0.0
 30
0.0
  0
VERTEX
  5
7D
330
7C
100
AcDbEntity
  8
PIEZA
 62
     7
420
 16777215
370
     9
100
AcDbVertex
100
AcDb2dVertex
 10
148.5551991466265
 20
153.2382927839117
 30
0.0
  0
VERTEX
  5
7E
330
7C
100
AcDbEntity
  8
PIEZA
 62
     7
420
 16777215
370
     9
100
AcDbVertex
100
AcDb2dVertex
 10
148.5551991466265
 20
85.29579735027026
 30
0.0
  0
SEQEND
  5
7F
330
7C
100
AcDbEntity
  8
PIEZA
370
     9
  0
ENDBLK
  5
7B
330
78
100
AcDbEntity
  8
0
100
AcDbBlockEnd
  0
BLOCK
  5
82
330
80
100
AcDbEntity
  8
0
100
AcDbBlockBegin
  2
block 11
 70
     0
 71
     0
 10
0.0
 20
0.0
 30
0.0
  3
block 11
  1

  0
SPLINE
  5
84
330
80
100
AcDbEntity
  8
PIEZA
 62
     7
420
 16777215
370
     9
100
AcDbSpline
210
0.0
220
0.0
230
1.0
 70
     8
 71
     3
 72
    11
 73
     7
 74
     0
 42
0.0000000001
 43
0.0000000001
 40
0.0
 40
0.0
 40
0.0
 40
0.0
 40
1.0
 40
1.0
 40
1.0
 40
2.0
 40
2.0
 40
2.0
 40
2.0
 10
147.5561207968176
 20
84.29671900046137
 30
0.0
 10
148.108025457643
 20
84.29671900046137
 30
0.0
 10
148.5551991466265
 20
84.74389268944479
 30
0.0
 10
148.5551991466265
 20
85.29579735027026
 30
0.0
 10
148.5551991466265
 20
85.29579735027026
 30
0.0
 10
148.5551991466265
 20
85.29579735027026
 30
0.0
 10
148.5551991466265
 20
85.29579735027026
 30
0.0
  0
ENDBLK
  5
83
330
80
100
AcDbEntity
  8
0
100
AcDbBlockEnd
  0
BLOCK
  5
87
330
85
100
AcDbEntity
  8
0
100
AcDbBlockBegin
  2
block 12
 70
     0
 71
     0
 10
0.0
 20
0.0
 30
0.0
  3
block 12
  1

  0
SPLINE
  5
89
330
85
100
AcDbEntity
  8
PIEZA
 62
     7
420
 16777215
370
     9
100
AcDbSpline
210
0.0
220
0.0
230
1.0
 70
    11
 71
     3
 72
    23
 73
    19
 74
     0
 42
0.0000000001
 43
0.0000000001
 40
0.0
 40
0.0
 40
0.0
 40
0.0
 40
1.0
 40
1.0
 40
1.0
 40
2.0
 40
2.0
 40
2.0
 40
3.0
 40
3.0
 40
3.0
 40
4.0
 40
4.0
 40
4.0
 40
5.0
 40
5.0
 40
5.0
 40
6.0
 40
6.0
 40
6.0
 40
6.0
 10
100.5959932580418
 20
103.2805856859335
 30
0.0
 10
100.5959932580418
 20
104.935955158634
 30
0.0
 10
99.25395542642784
 20
106.2781652451359
 30
0.0
 10
97.59858595372725
 20
106.2781652451359
 30
0.0
 10
95.94304422613875
 20
106.2781652451359
 30
0.0
 10
94.60117864941267
 20
104.935955158634
 30
0.0
 10
94.60117864941267
 20
103.2805856859335
 30
0.0
 10
94.60117864941267
 20
101.6252162132329
 30
0.0
 10
95.94304422613875
 20
100.283006126731
 30
0.0
 10
97.59858595372725
 20
100.283006126731
 30
0.0
 10
99.25395542642784
 20
100.283006126731
 30
0.0
 10
100.5959932580418
 20
101.6252162132329
 30
0.0
 10
100.5959932580418
 20
103.2805856859335
 30
0.0
 10
100.5959932580418
 20
103.2805856859335
 30
0.0
 10
100.5959932580418
 20
103.2805856859335
 30
0.0
 10
100.5959932580418
 20
103.2805856859335
 30
0.0
 10
100.5959932580418
 20
103.2805856859335
 30
0.0
 10
100.5959932580418
 20
103.2805856859335
 30
0.0
 10
100.5959932580418
 20
103.2805856859335
 30
0.0
  0
ENDBLK
  5
88
330
85
100
AcDbEntity
  8
0
100
AcDbBlockEnd
  0
BLOCK
  5
8C
330
8A
100
AcDbEntity
  8
0
100
AcDbBlockBegin
  2
block 13
 70
     0
 71
     0
 10
0.0
 20
0.0
 30
0.0
  3
block 13
  1

  0
POLYLINE
  5
8E
330
8A
100
AcDbEntity
  8
PIEZA
 62
     7
420
 16777215
370
     9
100
AcDb2dPolyline
 66
     1
 10
0.0
 20
0.0
 30
0.0
  0
VERTEX
  5
8F
330
8E
100
AcDbEntity
  8
PIEZA
 62
     7
420
 16777215
370
     9
100
AcDbVertex
100
AcDb2dVertex
 10
81.61212657256972
 20
154.2373711337206
 30
0.0
  0
VERTEX
  5
90
330
8E
100
AcDbEntity
  8
PIEZA
 62
     7
420
 16777215
370
     9
100
AcDbVertex
100
AcDb2dVertex
 10
145.5579640971998
 20
154.2373711337206
 30
0.0
  0
SEQEND
  5
91
330
8E
100
AcDbEntity
  8
PIEZA
370
     9
  0
ENDBLK
  5
8D
330
8A
100
AcDbEntity
  8
0
100
AcDbBlockEnd
  0
BLOCK
  5
94
330
92
100
AcDbEntity
  8
0
100
AcDbBlockBegin
  2
block 14
 70
     0
 71
     0
 10
0.0
 20
0.0
 30
0.0
  3
block 14
  1

  0
POLYLINE
  5
96
330
92
100
AcDbEntity
  8
PIEZA
 62
     7
420
 16777215
370
     9
100
AcDb2dPolyline
 66
     1
 10
0.0
 20
0.0
 30
0.0
  0
VERTEX
  5
97
330
96
100
AcDbEntity
  8
PIEZA
 62
     7
420
 16777215
370
     9
100
AcDbVertex
100
AcDb2dVertex
 10
94.10146721962033
 20
192.1854674474444
 30
0.0
  0
VERTEX
  5
98
330
96
100
AcDbEntity
  8
PIEZA
 62
     7
420
 16777215
370
     9
100
AcDbVertex
100
AcDb2dVertex
 10
91.00415208032489
 20
192.1854674474444
 30
0.0
  0
SEQEND
  5
99
330
96
100
AcDbEntity
  8
PIEZA
370
     9
  0
ENDBLK
  5
95
330
92
100
AcDbEntity
  8
0
100
AcDbBlockEnd
  0
BLOCK
  5
9C
330
9A
100
AcDbEntity
  8
0
100
AcDbBlockBegin
  2
block 15
 70
     0
 71
     0
 10
0.0
 20
0.0
 30
0.0
  3
block 15
  1

  0
POLYLINE
  5
9E
330
9A
100
AcDbEntity
  8
PIEZA
 62
     7
420
 16777215
370
     9
100
AcDb2dPolyline
 66
     1
 10
0.0
 20
0.0
 30
0.0
  0
VERTEX
  5
9F
330
9E
100
AcDbEntity
  8
PIEZA
 62
     7
420
 16777215
370
     9
100
AcDbVertex
100
AcDb2dVertex
 10
79.61379761806404
 20
154.2373711337206
 30
0.0
  0
VERTEX
  5
A0
330
9E
100
AcDbEntity
  8
PIEZA
 62
     7
420
 16777215
370
     9
100
AcDbVertex
100
AcDb2dVertex
 10
147.5561207968176
 20
154.2373711337206
 30
0.0
  0
SEQEND
  5
A1
330
9E
100
AcDbEntity
  8
PIEZA
370
     9
  0
ENDBLK
  5
9D
330
9A
100
AcDbEntity
  8
0
100
AcDbBlockEnd
  0
BLOCK
  5
A4
330
A2
100
AcDbEntity
  8
0
100
AcDbBlockBegin
  2
block 16
 70
     0
 71
     0
 10
0.0
 20
0.0
 30
0.0
  3
block 16
  1

  0
SPLINE
  5
A6
330
A2
100
AcDbEntity
  8
PIEZA
 62
     7
420
 16777215
370
     9
100
AcDbSpline
210
0.0
220
0.0
230
1.0
 70
     8
 71
     3
 72
    11
 73
     7
 74
     0
 42
0.0000000001
 43
0.0000000001
 40
0.0
 40
0.0
 40
0.0
 40
0.0
 40
1.0
 40
1.0
 40
1.0
 40
2.0
 40
2.0
 40
2.0
 40
2.0
 10
148.5551991466265
 20
153.2382927839117
 30
0.0
 10
148.5551991466265
 20
153.7901974447372
 30
0.0
 10
148.108025457643
 20
154.2373711337206
 30
0.0
 10
147.5561207968176
 20
154.2373711337206
 30
0.0
 10
147.5561207968176
 20
154.2373711337206
 30
0.0
 10
147.5561207968176
 20
154.2373711337206
 30
0.0
 10
147.5561207968176
 20
154.2373711337206
 30
0.0
  0
ENDBLK
  5
A5
330
A2
100
AcDbEntity
  8
0
100
AcDbBlockEnd
  0
BLOCK
  5
A9
330
A7
100
AcDbEntity
  8
0
100
AcDbBlockBegin
  2
block 17
 70
     0
 71
     0
 10
0.0
 20
0.0
 30
0.0
  3
block 17
  1

  0
POLYLINE
  5
AB
330
A7
100
AcDbEntity
  8
PIEZA
 62
     7
420
 16777215
370
     9
100
AcDb2dPolyline
 66
     1
 10
0.0
 20
0.0
 30
0.0
  0
VERTEX
  5
AC
330
AB
100
AcDbEntity
  8
PIEZA
 62
     7
420
 16777215
370
     9
100
AcDbVertex
100
AcDb2dVertex
 10
144.3855973301654
 20
192.1854674474444
 30
0.0
  0
VERTEX
  5
AD
330
AB
100
AcDbEntity
  8
PIEZA
 62
     7
420
 16777215
370
     9
100
AcDbVertex
100
AcDb2dVertex
 10
98.49775646855525
 20
192.1854674474444
 30
0.0
  0
SEQEND
  5
AE
330
AB
100
AcDbEntity
  8
PIEZA
370
     9
  0
ENDBLK
  5
AA
330
A7
100
AcDbEntity
  8
0
100
AcDbBlockEnd
  0
BLOCK
  5
B1
330
AF
100
AcDbEntity
  8
0
100
AcDbBlockBegin
  2
block 18
 70
     0
 71
     0
 10
0.0
 20
0.0
 30
0.0
  3
block 18
  1

  0
POLYLINE
  5
B3
330
AF
100
AcDbEntity
  8
PIEZA
 62
     7
420
 16777215
370
     9
100
AcDb2dPolyline
 66
     1
 10
0.0
 20
0.0
 30
0.0
  0
VERTEX
  5
B4
330
B3
100
AcDbEntity
  8
PIEZA
 62
     7
420
 16777215
370
     9
100
AcDbVertex
100
AcDb2dVertex
 10
89.70517797068543
 20
192.1854674474444
 30
0.0
  0
VERTEX
  5
B5
330
B3
100
AcDbEntity
  8
PIEZA
 62
     7
420
 16777215
370
     9
100
AcDbVertex
100
AcDb2dVertex
 10
82.8468496090232
 20
192.1854674474444
 30
0.0
  0
SEQEND
  5
B6
330
B3
100
AcDbEntity
  8
PIEZA
370
     9
  0
ENDBLK
  5
B2
330
AF
100
AcDbEntity
  8
0
100
AcDbBlockEnd
  0
BLOCK
  5
B9
330
B7
100
AcDbEntity
  8
0
100
AcDbBlockBegin
  2
block 19
 70
     0
 71
     0
 10
0.0
 20
0.0
 30
0.0
  3
block 19
  1

  0
POLYLINE
  5
BB
330
B7
100
AcDbEntity
  8
PIEZA
 62
     7
420
 16777215
370
     9
100
AcDb2dPolyline
 66
     1
 10
0.0
 20
0.0
 30
0.0
  0
VERTEX
  5
BC
330
BB
100
AcDbEntity
  8
PIEZA
 62
     7
420
 16777215
370
     9
100
AcDbVertex
100
AcDb2dVertex
 10
83.59426356761298
 20
199.6012126263448
 30
0.0
  0
VERTEX
  5
BD
330
BB
100
AcDbEntity
  8
PIEZA
 62
     7
420
 16777215
370
     9
100
AcDbVertex
100
AcDb2dVertex
 10
84.01043137677476
 20
196.910074512713
 30
0.0
  0
SEQEND
  5
BE
330
BB
100
AcDbEntity
  8
PIEZA
370
     9
  0
ENDBLK
  5
BA
330
B7
100
AcDbEntity
  8
0
100
AcDbBlockEnd
  0
BLOCK
  5
C1
330
BF
100
AcDbEntity
  8
0
100
AcDbBlockBegin
  2
block 20
 70
     0
 71
     0
 10
0.0
 20
0.0
 30
0.0
  3
block 20
  1

  0
POLYLINE
  5
C3
330
BF
100
AcDbEntity
  8
PIEZA
 62
     7
420
 16777215
370
     9
100
AcDb2dPolyline
 66
     1
 10
0.0
 20
0.0
 30
0.0
  0
VERTEX
  5
C4
330
C3
100
AcDbEntity
  8
PIEZA
 62
     7
420
 16777215
370
     9
100
AcDbVertex
100
AcDb2dVertex
 10
78.61454701336726
 20
200.1775774812518
 30
0.0
  0
VERTEX
  5
C5
330
C3
100
AcDbEntity
  8
PIEZA
 62
     7
420
 16777215
370
     9
100
AcDbVertex
100
AcDb2dVertex
 10
78.61454701336726
 20
192.6850066223488
 30
0.0
  0
SEQEND
  5
C6
330
C3
100
AcDbEntity
  8
PIEZA
370
     9
  0
ENDBLK
  5
C2
330
BF
100
AcDbEntity
  8
0
100
AcDbBlockEnd
  0
BLOCK
  5
C9
330
C7
100
AcDbEntity
  8
0
100
AcDbBlockBegin
  2
block 21
 70
     0
 71
     0
 10
0.0
 20
0.0
 30
0.0
  3
block 21
  1

  0
POLYLINE
  5
CB
330
C7
100
AcDbEntity
  8
PIEZA
 62
     7
420
 16777215
370
     9
100
AcDb2dPolyline
 66
     1
 10
0.0
 20
0.0
 30
0.0
  0
VERTEX
  5
CC
330
CB
100
AcDbEntity
  8
PIEZA
 62
     7
420
 16777215
370
     9
100
AcDbVertex
100
AcDb2dVertex
 10
82.99498881261555
 20
196.9650238219525
 30
0.0
  0
VERTEX
  5
CD
330
CB
100
AcDbEntity
  8
PIEZA
 62
     7
420
 16777215
370
     9
100
AcDbVertex
100
AcDb2dVertex
 10
82.63377031269326
 20
199.2270750098302
 30
0.0
  0
SEQEND
  5
CE
330
CB
100
AcDbEntity
  8
PIEZA
370
     9
  0
POLYLINE
  5
CF
330
C7
100
AcDbEntity
  8
PIEZA
 62
     7
420
 16777215
370
     9
100
AcDb2dPolyline
 66
     1
 10
0.0
 20
0.0
 30
0.0
  0
VERTEX
  5
D0
330
CF
100
AcDbEntity
  8
PIEZA
 62
     7
420
 16777215
370
     9
100
AcDbVertex
100
AcDb2dVertex
 10
82.63377031269326
 20
199.2270750098302
 30
0.0
  0
VERTEX
  5
D1
330
CF
100
AcDbEntity
  8
PIEZA
 62
     7
420
 16777215
370
     9
100
AcDbVertex
100
AcDb2dVertex
 10
82.62326276453147
 20
199.283057848397
 30
0.0
  0
VERTEX
  5
D2
330
CF
100
AcDbEntity
  8
PIEZA
 62
     7
420
 16777215
370
     9
100
AcDbVertex
100
AcDb2dVertex
 10
82.60310894264741
 20
199.3361123538697
 30
0.0
  0
VERTEX
  5
D3
330
CF
100
AcDbEntity
  8
PIEZA
 62
     7
420
 16777215
370
     9
100
AcDbVertex
100
AcDb2dVertex
 10
82.57382561170473
 20
199.3850327420327
 30
0.0
  0
VERTEX
  5
D4
330
CF
100
AcDbEntity
  8
PIEZA
 62
     7
420
 16777215
370
     9
100
AcDbVertex
100
AcDb2dVertex
 10
82.53644630103085
 20
199.4277519542314
 30
0.0
  0
VERTEX
  5
D5
330
CF
100
AcDbEntity
  8
PIEZA
 62
     7
420
 16777215
370
     9
100
AcDbVertex
100
AcDb2dVertex
 10
82.49183228506524
 20
199.4632364611385
 30
0.0
  0
VERTEX
  5
D6
330
CF
100
AcDbEntity
  8
PIEZA
 62
     7
420
 16777215
370
     9
100
AcDbVertex
100
AcDb2dVertex
 10
82.4418783675748
 20
199.4902804785384
 30
0.0
  0
VERTEX
  5
D7
330
CF
100
AcDbEntity
  8
PIEZA
 62
     7
420
 16777215
370
     9
100
AcDbVertex
100
AcDb2dVertex
 10
82.3877903327748
 20
199.508022731992
 30
0.0
  0
VERTEX
  5
D8
330
CF
100
AcDbEntity
  8
PIEZA
 62
     7
420
 16777215
370
     9
100
AcDbVertex
100
AcDb2dVertex
 10
82.33146298443212
 20
199.5159464568353
 30
0.0
  0
SEQEND
  5
D9
330
CF
100
AcDbEntity
  8
PIEZA
370
     9
  0
POLYLINE
  5
DA
330
C7
100
AcDbEntity
  8
PIEZA
 62
     7
420
 16777215
370
     9
100
AcDb2dPolyline
 66
     1
 10
0.0
 20
0.0
 30
0.0
  0
VERTEX
  5
DB
330
DA
100
AcDbEntity
  8
PIEZA
 62
     7
420
 16777215
370
     9
100
AcDbVertex
100
AcDb2dVertex
 10
82.33146298443212
 20
199.5159464568353
 30
0.0
  0
VERTEX
  5
DC
330
DA
100
AcDbEntity
  8
PIEZA
 62
     7
420
 16777215
370
     9
100
AcDbVertex
100
AcDb2dVertex
 10
79.92850729825385
 20
199.6360081137002
 30
0.0
  0
SEQEND
  5
DD
330
DA
100
AcDbEntity
  8
PIEZA
370
     9
  0
POLYLINE
  5
DE
330
C7
100
AcDbEntity
  8
PIEZA
 62
     7
420
 16777215
370
     9
100
AcDb2dPolyline
 66
     1
 10
0.0
 20
0.0
 30
0.0
  0
VERTEX
  5
DF
330
DE
100
AcDbEntity
  8
PIEZA
 62
     7
420
 16777215
370
     9
100
AcDbVertex
100
AcDb2dVertex
 10
79.92850729825385
 20
199.6360081137002
 30
0.0
  0
VERTEX
  5
E0
330
DE
100
AcDbEntity
  8
PIEZA
 62
     7
420
 16777215
370
     9
100
AcDbVertex
100
AcDb2dVertex
 10
79.87459151834175
 20
199.6337688001576
 30
0.0
  0
VERTEX
  5
E1
330
DE
100
AcDbEntity
  8
PIEZA
 62
     7
420
 16777215
370
     9
100
AcDbVertex
100
AcDb2dVertex
 10
79.82205377753283
 20
199.6220554677805
 30
0.0
  0
VERTEX
  5
E2
330
DE
100
AcDbEntity
  8
PIEZA
 62
     7
420
 16777215
370
     9
100
AcDbVertex
100
AcDb2dVertex
 10
79.77244436981819
 20
199.6010403714569
 30
0.0
  0
VERTEX
  5
E3
330
DE
100
AcDbEntity
  8
PIEZA
 62
     7
420
 16777215
370
     9
100
AcDbVertex
100
AcDb2dVertex
 10
79.72731358918888
 20
199.5715847856264
 30
0.0
  0
VERTEX
  5
E4
330
DE
100
AcDbEntity
  8
PIEZA
 62
     7
420
 16777215
370
     9
100
AcDbVertex
100
AcDb2dVertex
 10
79.68821172963602
 20
199.5343777298404
 30
0.0
  0
VERTEX
  5
E5
330
DE
100
AcDbEntity
  8
PIEZA
 62
     7
420
 16777215
370
     9
100
AcDbVertex
100
AcDb2dVertex
 10
79.65651683026277
 20
199.4907972432021
 30
0.0
  0
VERTEX
  5
E6
330
DE
100
AcDbEntity
  8
PIEZA
 62
     7
420
 16777215
370
     9
100
AcDbVertex
100
AcDb2dVertex
 10
79.63309016550863
 20
199.4422213648149
 30
0.0
  0
VERTEX
  5
E7
330
DE
100
AcDbEntity
  8
PIEZA
 62
     7
420
 16777215
370
     9
100
AcDbVertex
100
AcDb2dVertex
 10
79.61862075492519
 20
199.3903726435576
 30
0.0
  0
VERTEX
  5
E8
330
DE
100
AcDbEntity
  8
PIEZA
 62
     7
420
 16777215
370
     9
100
AcDbVertex
100
AcDb2dVertex
 10
79.61379761806404
 20
199.3366291185334
 30
0.0
  0
SEQEND
  5
E9
330
DE
100
AcDbEntity
  8
PIEZA
370
     9
  0
POLYLINE
  5
EA
330
C7
100
AcDbEntity
  8
PIEZA
 62
     7
420
 16777215
370
     9
100
AcDb2dPolyline
 66
     1
 10
0.0
 20
0.0
 30
0.0
  0
VERTEX
  5
EB
330
EA
100
AcDbEntity
  8
PIEZA
 62
     7
420
 16777215
370
     9
100
AcDbVertex
100
AcDb2dVertex
 10
79.61379761806404
 20
199.3366291185334
 30
0.0
  0
VERTEX
  5
EC
330
EA
100
AcDbEntity
  8
PIEZA
 62
     7
420
 16777215
370
     9
100
AcDbVertex
100
AcDb2dVertex
 10
79.61379761806404
 20
193.4842693021959
 30
0.0
  0
SEQEND
  5
ED
330
EA
100
AcDbEntity
  8
PIEZA
370
     9
  0
POLYLINE
  5
EE
330
C7
100
AcDbEntity
  8
PIEZA
 62
     7
420
 16777215
370
     9
100
AcDb2dPolyline
 66
     1
 10
0.0
 20
0.0
 30
0.0
  0
VERTEX
  5
EF
330
EE
100
AcDbEntity
  8
PIEZA
 62
     7
420
 16777215
370
     9
100
AcDbVertex
100
AcDb2dVertex
 10
79.61379761806404
 20
193.4842693021959
 30
0.0
  0
VERTEX
  5
F0
330
EE
100
AcDbEntity
  8
PIEZA
 62
     7
420
 16777215
370
     9
100
AcDbVertex
100
AcDb2dVertex
 10
79.61948202936469
 20
193.4258748951985
 30
0.0
  0
VERTEX
  5
F1
330
EE
100
AcDbEntity
  8
PIEZA
 62
     7
420
 16777215
370
     9
100
AcDbVertex
100
AcDb2dVertex
 10
79.6365352632666
 20
193.3695475468558
 30
0.0
  0
VERTEX
  5
F2
330
EE
100
AcDbEntity
  8
PIEZA
 62
     7
420
 16777215
370
     9
100
AcDbVertex
100
AcDb2dVertex
 10
79.66426830021818
 20
193.3176988255985
 30
0.0
  0
VERTEX
  5
F3
330
EE
100
AcDbEntity
  8
PIEZA
 62
     7
420
 16777215
370
     9
100
AcDbVertex
100
AcDb2dVertex
 10
79.70164761089207
 20
193.2723957900813
 30
0.0
  0
VERTEX
  5
F4
330
EE
100
AcDbEntity
  8
PIEZA
 62
     7
420
 16777215
370
     9
100
AcDbVertex
100
AcDb2dVertex
 10
79.74695064640926
 20
193.2350164794074
 30
0.0
  0
VERTEX
  5
F5
330
EE
100
AcDbEntity
  8
PIEZA
 62
     7
420
 16777215
370
     9
100
AcDbVertex
100
AcDb2dVertex
 10
79.79879936766659
 20
193.2072834424558
 30
0.0
  0
VERTEX
  5
F6
330
EE
100
AcDbEntity
  8
PIEZA
 62
     7
420
 16777215
370
     9
100
AcDbVertex
100
AcDb2dVertex
 10
79.85512671600927
 20
193.1904024634418
 30
0.0
  0
VERTEX
  5
F7
330
EE
100
AcDbEntity
  8
PIEZA
 62
     7
420
 16777215
370
     9
100
AcDbVertex
100
AcDb2dVertex
 10
79.91352112300672
 20
193.1845457972533
 30
0.0
  0
SEQEND
  5
F8
330
EE
100
AcDbEntity
  8
PIEZA
370
     9
  0
POLYLINE
  5
F9
330
C7
100
AcDbEntity
  8
PIEZA
 62
     7
420
 16777215
370
     9
100
AcDb2dPolyline
 66
     1
 10
0.0
 20
0.0
 30
0.0
  0
VERTEX
  5
FA
330
F9
100
AcDbEntity
  8
PIEZA
 62
     7
420
 16777215
370
     9
100
AcDbVertex
100
AcDb2dVertex
 10
79.91352112300672
 20
193.1845457972533
 30
0.0
  0
VERTEX
  5
FB
330
F9
100
AcDbEntity
  8
PIEZA
 62
     7
420
 16777215
370
     9
100
AcDbVertex
100
AcDb2dVertex
 10
82.01416948092385
 20
193.1845457972533
 30
0.0
  0
SEQEND
  5
FC
330
F9
100
AcDbEntity
  8
PIEZA
370
     9
  0
POLYLINE
  5
FD
330
C7
100
AcDbEntity
  8
PIEZA
 62
     7
420
 16777215
370
     9
100
AcDb2dPolyline
 66
     1
 10
0.0
 20
0.0
 30
0.0
  0
VERTEX
  5
FE
330
FD
100
AcDbEntity
  8
PIEZA
 62
     7
420
 16777215
370
     9
100
AcDbVertex
100
AcDb2dVertex
 10
82.01416948092385
 20
193.1845457972533
 30
0.0
  0
VERTEX
  5
FF
330
FD
100
AcDbEntity
  8
PIEZA
 62
     7
420
 16777215
370
     9
100
AcDbVertex
100
AcDb2dVertex
 10
82.06687947662067
 20
193.1891966792265
 30
0.0
  0
VERTEX
  5
100
330
FD
100
AcDbEntity
  8
PIEZA
 62
     7
420
 16777215
370
     9
100
AcDbVertex
100
AcDb2dVertex
 10
82.1178669234385
 20
193.2029770702584
 30
0.0
  0
VERTEX
  5
101
330
FD
100
AcDbEntity
  8
PIEZA
 62
     7
420
 16777215
370
     9
100
AcDbVertex
100
AcDb2dVertex
 10
82.16575378227417
 20
193.225542460573
 30
0.0
  0
VERTEX
  5
102
330
FD
100
AcDbEntity
  8
PIEZA
 62
     7
420
 16777215
370
     9
100
AcDbVertex
100
AcDb2dVertex
 10
82.20881750424869
 20
193.2562038306189
 30
0.0
  0
VERTEX
  5
103
330
FD
100
AcDbEntity
  8
PIEZA
 62
     7
420
 16777215
370
     9
100
AcDbVertex
100
AcDb2dVertex
 10
82.24585230514678
 20
193.2939276510685
 30
0.0
  0
VERTEX
  5
104
330
FD
100
AcDbEntity
  8
PIEZA
 62
     7
420
 16777215
370
     9
100
AcDbVertex
100
AcDb2dVertex
 10
82.27565240075315
 20
193.3375081377068
 30
0.0
  0
VERTEX
  5
105
330
FD
100
AcDbEntity
  8
PIEZA
 62
     7
420
 16777215
370
     9
100
AcDbVertex
100
AcDb2dVertex
 10
82.2973565166283
 20
193.3857395063182
 30
0.0
  0
VERTEX
  5
106
330
FD
100
AcDbEntity
  8
PIEZA
 62
     7
420
 16777215
370
     9
100
AcDbVertex
100
AcDb2dVertex
 10
82.31027563322066
 20
193.436899208024
 30
0.0
  0
SEQEND
  5
107
330
FD
100
AcDbEntity
  8
PIEZA
370
     9
  0
POLYLINE
  5
108
330
C7
100
AcDbEntity
  8
PIEZA
 62
     7
420
 16777215
370
     9
100
AcDb2dPolyline
 66
     1
 10
0.0
 20
0.0
 30
0.0
  0
VERTEX
  5
109
330
108
100
AcDbEntity
  8
PIEZA
 62
     7
420
 16777215
370
     9
100
AcDbVertex
100
AcDb2dVertex
 10
82.31027563322066
 20
193.436899208024
 30
0.0
  0
VERTEX
  5
10A
330
108
100
AcDbEntity
  8
PIEZA
 62
     7
420
 16777215
370
     9
100
AcDbVertex
100
AcDb2dVertex
 10
82.39347474407543
 20
193.7700401612189
 30
0.0
  0
VERTEX
  5
10B
330
108
100
AcDbEntity
  8
PIEZA
 62
     7
420
 16777215
370
     9
100
AcDbVertex
100
AcDb2dVertex
 10
82.53231218372129
 20
194.0838885669692
 30
0.0
  0
VERTEX
  5
10C
330
108
100
AcDbEntity
  8
PIEZA
 62
     7
420
 16777215
370
     9
100
AcDbVertex
100
AcDb2dVertex
 10
82.72299834462447
 20
194.3693149162163
 30
0.0
  0
VERTEX
  5
10D
330
108
100
AcDbEntity
  8
PIEZA
 62
     7
420
 16777215
370
     9
100
AcDbVertex
100
AcDb2dVertex
 10
82.95967656059644
 20
194.6180509743411
 30
0.0
  0
VERTEX
  5
10E
330
108
100
AcDbEntity
  8
PIEZA
 62
     7
420
 16777215
370
     9
100
AcDbVertex
100
AcDb2dVertex
 10
83.23528438123337
 20
194.8225175262762
 30
0.0
  0
VERTEX
  5
10F
330
108
100
AcDbEntity
  8
PIEZA
 62
     7
420
 16777215
370
     9
100
AcDbVertex
100
AcDb2dVertex
 10
83.54207033657987
 20
194.9766856509449
 30
0.0
  0
SEQEND
  5
110
330
108
100
AcDbEntity
  8
PIEZA
370
     9
  0
POLYLINE
  5
111
330
C7
100
AcDbEntity
  8
PIEZA
 62
     7
420
 16777215
370
     9
100
AcDb2dPolyline
 66
     1
 10
0.0
 20
0.0
 30
0.0
  0
VERTEX
  5
112
330
111
100
AcDbEntity
  8
PIEZA
 62
     7
420
 16777215
370
     9
100
AcDbVertex
100
AcDb2dVertex
 10
83.54207033657987
 20
194.9766856509449
 30
0.0
  0
VERTEX
  5
113
330
111
100
AcDbEntity
  8
PIEZA
 62
     7
420
 16777215
370
     9
100
AcDbVertex
100
AcDb2dVertex
 10
83.59219650895821
 20
195.0025238841297
 30
0.0
  0
VERTEX
  5
114
330
111
100
AcDbEntity
  8
PIEZA
 62
     7
420
 16777215
370
     9
100
AcDbVertex
100
AcDb2dVertex
 10
83.63663827003592
 20
195.0373193714851
 30
0.0
  0
VERTEX
  5
115
330
111
100
AcDbEntity
  8
PIEZA
 62
     7
420
 16777215
370
     9
100
AcDbVertex
100
AcDb2dVertex
 10
83.6738453258219
 20
195.079694073908
 30
0.0
  0
VERTEX
  5
116
330
111
100
AcDbEntity
  8
PIEZA
 62
     7
420
 16777215
370
     9
100
AcDbVertex
100
AcDb2dVertex
 10
83.70243963721298
 20
195.1282699522953
 30
0.0
  0
VERTEX
  5
117
330
111
100
AcDbEntity
  8
PIEZA
 62
     7
420
 16777215
370
     9
100
AcDbVertex
100
AcDb2dVertex
 10
83.72138767488177
 20
195.1813244577679
 30
0.0
  0
VERTEX
  5
118
330
111
100
AcDbEntity
  8
PIEZA
 62
     7
420
 16777215
370
     9
100
AcDbVertex
100
AcDb2dVertex
 10
83.73000041927668
 20
195.2371350414468
 30
0.0
  0
VERTEX
  5
119
330
111
100
AcDbEntity
  8
PIEZA
 62
     7
420
 16777215
370
     9
100
AcDbVertex
100
AcDb2dVertex
 10
83.72810561550979
 20
195.2934623897895
 30
0.0
  0
VERTEX
  5
11A
330
111
100
AcDbEntity
  8
PIEZA
 62
     7
420
 16777215
370
     9
100
AcDbVertex
100
AcDb2dVertex
 10
83.71570326358113
 20
195.3485839539169
 30
0.0
  0
VERTEX
  5
11B
330
111
100
AcDbEntity
  8
PIEZA
 62
     7
420
 16777215
370
     9
100
AcDbVertex
100
AcDb2dVertex
 10
83.69313787326648
 20
195.4002604202863
 30
0.0
  0
VERTEX
  5
11C
330
111
100
AcDbEntity
  8
PIEZA
 62
     7
420
 16777215
370
     9
100
AcDbVertex
100
AcDb2dVertex
 10
83.66127071900533
 20
195.4467692400188
 30
0.0
  0
SEQEND
  5
11D
330
111
100
AcDbEntity
  8
PIEZA
370
     9
  0
POLYLINE
  5
11E
330
C7
100
AcDbEntity
  8
PIEZA
 62
     7
420
 16777215
370
     9
100
AcDb2dPolyline
 66
     1
 10
0.0
 20
0.0
 30
0.0
  0
VERTEX
  5
11F
330
11E
100
AcDbEntity
  8
PIEZA
 62
     7
420
 16777215
370
     9
100
AcDbVertex
100
AcDb2dVertex
 10
83.66127071900533
 20
195.4467692400188
 30
0.0
  0
VERTEX
  5
120
330
11E
100
AcDbEntity
  8
PIEZA
 62
     7
420
 16777215
370
     9
100
AcDbVertex
100
AcDb2dVertex
 10
83.34535525460025
 20
195.9082400846978
 30
0.0
  0
VERTEX
  5
121
330
11E
100
AcDbEntity
  8
PIEZA
 62
     7
420
 16777215
370
     9
100
AcDbVertex
100
AcDb2dVertex
 10
83.12056262589326
 20
196.4201816115309
 30
0.0
  0
VERTEX
  5
122
330
11E
100
AcDbEntity
  8
PIEZA
 62
     7
420
 16777215
370
     9
100
AcDbVertex
100
AcDb2dVertex
 10
82.99498881261555
 20
196.9650238219525
 30
0.0
  0
SEQEND
  5
123
330
11E
100
AcDbEntity
  8
PIEZA
370
     9
  0
ENDBLK
  5
CA
330
C7
100
AcDbEntity
  8
0
100
AcDbBlockEnd
  0
BLOCK
  5
126
330
124
100
AcDbEntity
  8
0
100
AcDbBlockBegin
  2
block 22
 70
     0
 71
     0
 10
0.0
 20
0.0
 30
0.0
  3
block 22
  1

  0
POLYLINE
  5
128
330
124
100
AcDbEntity
  8
PIEZA
 62
     7
420
 16777215
370
     9
100
AcDb2dPolyline
 66
     1
 10
0.0
 20
0.0
 30
0.0
  0
VERTEX
  5
129
330
128
100
AcDbEntity
  8
PIEZA
 62
     7
420
 16777215
370
     9
100
AcDbVertex
100
AcDb2dVertex
 10
82.8468496090232
 20
192.1854674474444
 30
0.0
  0
VERTEX
  5
12A
330
128
100
AcDbEntity
  8
PIEZA
 62
     7
420
 16777215
370
     9
100
AcDbVertex
100
AcDb2dVertex
 10
79.1142584431596
 20
192.1854674474444
 30
0.0
  0
SEQEND
  5
12B
330
128
100
AcDbEntity
  8
PIEZA
370
     9
  0
ENDBLK
  5
127
330
124
100
AcDbEntity
  8
0
100
AcDbBlockEnd
  0
BLOCK
  5
12E
330
12C
100
AcDbEntity
  8
0
100
AcDbBlockBegin
  2
block 23
 70
     0
 71
     0
 10
0.0
 20
0.0
 30
0.0
  3
block 23
  1

  0
SPLINE
  5
130
330
12C
100
AcDbEntity
  8
PIEZA
 62
     7
420
 16777215
370
     9
100
AcDbSpline
210
0.0
220
0.0
230
1.0
 70
     8
 71
     3
 72
    11
 73
     7
 74
     0
 42
0.0000000001
 43
0.0000000001
 40
0.0
 40
0.0
 40
0.0
 40
0.0
 40
1.0
 40
1.0
 40
1.0
 40
2.0
 40
2.0
 40
2.0
 40
2.0
 10
78.61454701336726
 20
192.6850066223488
 30
0.0
 10
78.61454701336726
 20
192.4090542919361
 30
0.0
 10
78.83830611274688
 20
192.1854674474444
 30
0.0
 10
79.1142584431596
 20
192.1854674474444
 30
0.0
 10
79.1142584431596
 20
192.1854674474444
 30
0.0
 10
79.1142584431596
 20
192.1854674474444
 30
0.0
 10
79.1142584431596
 20
192.1854674474444
 30
0.0
  0
ENDBLK
  5
12F
330
12C
100
AcDbEntity
  8
0
100
AcDbBlockEnd
  0
BLOCK
  5
133
330
131
100
AcDbEntity
  8
0
100
AcDbBlockBegin
  2
block 24
 70
     0
 71
     0
 10
0.0
 20
0.0
 30
0.0
  3
block 24
  1

  0
POLYLINE
  5
135
330
131
100
AcDbEntity
  8
PIEZA
 62
     7
420
 16777215
370
     9
100
AcDb2dPolyline
 66
     1
 10
0.0
 20
0.0
 30
0.0
  0
VERTEX
  5
136
330
135
100
AcDbEntity
  8
PIEZA
 62
     7
420
 16777215
370
     9
100
AcDbVertex
100
AcDb2dVertex
 10
91.00415208032489
 20
192.7966277897068
 30
0.0
  0
VERTEX
  5
137
330
135
100
AcDbEntity
  8
PIEZA
 62
     7
420
 16777215
370
     9
100
AcDbVertex
100
AcDb2dVertex
 10
91.00415208032489
 20
192.1854674474444
 30
0.0
  0
SEQEND
  5
138
330
135
100
AcDbEntity
  8
PIEZA
370
     9
  0
ENDBLK
  5
134
330
131
100
AcDbEntity
  8
0
100
AcDbBlockEnd
  0
BLOCK
  5
13B
330
139
100
AcDbEntity
  8
0
100
AcDbBlockBegin
  2
block 25
 70
     0
 71
     0
 10
0.0
 20
0.0
 30
0.0
  3
block 25
  1

  0
POLYLINE
  5
13D
330
139
100
AcDbEntity
  8
PIEZA
 62
     7
420
 16777215
370
     9
100
AcDb2dPolyline
 66
     1
 10
0.0
 20
0.0
 30
0.0
  0
VERTEX
  5
13E
330
13D
100
AcDbEntity
  8
PIEZA
 62
     7
420
 16777215
370
     9
100
AcDbVertex
100
AcDb2dVertex
 10
89.70517797068543
 20
192.1854674474444
 30
0.0
  0
VERTEX
  5
13F
330
13D
100
AcDbEntity
  8
PIEZA
 62
     7
420
 16777215
370
     9
100
AcDbVertex
100
AcDb2dVertex
 10
89.70517797068543
 20
192.3356737096915
 30
0.0
  0
SEQEND
  5
140
330
13D
100
AcDbEntity
  8
PIEZA
370
     9
  0
ENDBLK
  5
13C
330
139
100
AcDbEntity
  8
0
100
AcDbBlockEnd
  0
BLOCK
  5
143
330
141
100
AcDbEntity
  8
0
100
AcDbBlockBegin
  2
block 26
 70
     0
 71
     0
 10
0.0
 20
0.0
 30
0.0
  3
block 26
  1

  0
POLYLINE
  5
145
330
141
100
AcDbEntity
  8
PIEZA
 62
     7
420
 16777215
370
     9
100
AcDb2dPolyline
 66
     1
 10
0.0
 20
0.0
 30
0.0
  0
VERTEX
  5
146
330
145
100
AcDbEntity
  8
PIEZA
 62
     7
420
 16777215
370
     9
100
AcDbVertex
100
AcDb2dVertex
 10
83.14416154553528
 20
192.4471226221616
 30
0.0
  0
VERTEX
  5
147
330
145
100
AcDbEntity
  8
PIEZA
 62
     7
420
 16777215
370
     9
100
AcDbVertex
100
AcDb2dVertex
 10
83.29850192509197
 20
193.2806640247004
 30
0.0
  0
SEQEND
  5
148
330
145
100
AcDbEntity
  8
PIEZA
370
     9
  0
ENDBLK
  5
144
330
141
100
AcDbEntity
  8
0
100
AcDbBlockEnd
  0
BLOCK
  5
14B
330
149
100
AcDbEntity
  8
0
100
AcDbBlockBegin
  2
block 27
 70
     0
 71
     0
 10
0.0
 20
0.0
 30
0.0
  3
block 27
  1

  0
SPLINE
  5
14D
330
149
100
AcDbEntity
  8
PIEZA
 62
     7
420
 16777215
370
     9
100
AcDbSpline
210
0.0
220
0.0
230
1.0
 70
     8
 71
     3
 72
     8
 73
     4
 74
     0
 42
0.0000000001
 43
0.0000000001
 40
0.0
 40
0.0
 40
0.0
 40
0.0
 40
1.0
 40
1.0
 40
1.0
 40
1.0
 10
82.8468496090232
 20
192.1854674474444
 30
0.0
 10
82.99516106750345
 20
192.1832281339017
 30
0.0
 10
83.12762507629706
 20
192.2998446930087
 30
0.0
 10
83.14416154553528
 20
192.4471226221616
 30
0.0
  0
ENDBLK
  5
14C
330
149
100
AcDbEntity
  8
0
100
AcDbBlockEnd
  0
BLOCK
  5
150
330
14E
100
AcDbEntity
  8
0
100
AcDbBlockBegin
  2
block 28
 70
     0
 71
     0
 10
0.0
 20
0.0
 30
0.0
  3
block 28
  1

  0
POLYLINE
  5
152
330
14E
100
AcDbEntity
  8
PIEZA
 62
     7
420
 16777215
370
     9
100
AcDb2dPolyline
 66
     1
 10
0.0
 20
0.0
 30
0.0
  0
VERTEX
  5
153
330
152
100
AcDbEntity
  8
PIEZA
 62
     7
420
 16777215
370
     9
100
AcDbVertex
100
AcDb2dVertex
 10
91.00415208032489
 20
192.1854674474444
 30
0.0
  0
VERTEX
  5
154
330
152
100
AcDbEntity
  8
PIEZA
 62
     7
420
 16777215
370
     9
100
AcDbVertex
100
AcDb2dVertex
 10
89.70517797068543
 20
192.1854674474444
 30
0.0
  0
SEQEND
  5
155
330
152
100
AcDbEntity
  8
PIEZA
370
     9
  0
ENDBLK
  5
151
330
14E
100
AcDbEntity
  8
0
100
AcDbBlockEnd
  0
BLOCK
  5
158
330
156
100
AcDbEntity
  8
0
100
AcDbBlockBegin
  2
block 29
 70
     0
 71
     0
 10
0.0
 20
0.0
 30
0.0
  3
block 29
  1

  0
POLYLINE
  5
15A
330
156
100
AcDbEntity
  8
PIEZA
 62
     7
420
 16777215
370
     9
100
AcDb2dPolyline
 66
     1
 10
0.0
 20
0.0
 30
0.0
  0
VERTEX
  5
15B
330
15A
100
AcDbEntity
  8
PIEZA
 62
     7
420
 16777215
370
     9
100
AcDbVertex
100
AcDb2dVertex
 10
84.54717760746519
 20
194.0618399413182
 30
0.0
  0
VERTEX
  5
15C
330
15A
100
AcDbEntity
  8
PIEZA
 62
     7
420
 16777215
370
     9
100
AcDbVertex
100
AcDb2dVertex
 10
88.71350658105615
 20
192.9099715059437
 30
0.0
  0
SEQEND
  5
15D
330
15A
100
AcDbEntity
  8
PIEZA
370
     9
  0
ENDBLK
  5
159
330
156
100
AcDbEntity
  8
0
100
AcDbBlockEnd
  0
BLOCK
  5
160
330
15E
100
AcDbEntity
  8
0
100
AcDbBlockBegin
  2
block 30
 70
     0
 71
     0
 10
0.0
 20
0.0
 30
0.0
  3
block 30
  1

  0
SPLINE
  5
162
330
15E
100
AcDbEntity
  8
PIEZA
 62
     7
420
 16777215
370
     9
100
AcDbSpline
210
0.0
220
0.0
230
1.0
 70
     8
 71
     3
 72
    11
 73
     7
 74
     0
 42
0.0000000001
 43
0.0000000001
 40
0.0
 40
0.0
 40
0.0
 40
0.0
 40
1.0
 40
1.0
 40
1.0
 40
2.0
 40
2.0
 40
2.0
 40
2.0
 10
84.54717760746519
 20
194.0618399413182
 30
0.0
 10
84.0152545136359
 20
194.2089456155832
 30
0.0
 10
83.46490014680153
 20
193.8969920135997
 30
0.0
 10
83.31779447253656
 20
193.3650689197705
 30
0.0
 10
83.31176555146013
 20
193.3440538234469
 30
0.0
 10
83.30211927773783
 20
193.3023681405756
 30
0.0
 10
83.29850192509197
 20
193.2806640247004
 30
0.0
  0
ENDBLK
  5
161
330
15E
100
AcDbEntity
  8
0
100
AcDbBlockEnd
  0
BLOCK
  5
165
330
163
100
AcDbEntity
  8
0
100
AcDbBlockBegin
  2
block 31
 70
     0
 71
     0
 10
0.0
 20
0.0
 30
0.0
  3
block 31
  1

  0
POLYLINE
  5
167
330
163
100
AcDbEntity
  8
PIEZA
 62
     7
420
 16777215
370
     9
100
AcDb2dPolyline
 66
     1
 10
0.0
 20
0.0
 30
0.0
  0
VERTEX
  5
168
330
167
100
AcDbEntity
  8
PIEZA
 62
     7
420
 16777215
370
     9
100
AcDbVertex
100
AcDb2dVertex
 10
85.67992575028299
 20
195.2309338654825
 30
0.0
  0
VERTEX
  5
169
330
167
100
AcDbEntity
  8
PIEZA
 62
     7
420
 16777215
370
     9
100
AcDbVertex
100
AcDb2dVertex
 10
88.8449370605224
 20
194.2235872810545
 30
0.0
  0
SEQEND
  5
16A
330
167
100
AcDbEntity
  8
PIEZA
370
     9
  0
ENDBLK
  5
166
330
163
100
AcDbEntity
  8
0
100
AcDbBlockEnd
  0
BLOCK
  5
16D
330
16B
100
AcDbEntity
  8
0
100
AcDbBlockBegin
  2
block 32
 70
     0
 71
     0
 10
0.0
 20
0.0
 30
0.0
  3
block 32
  1

  0
SPLINE
  5
16F
330
16B
100
AcDbEntity
  8
PIEZA
 62
     7
420
 16777215
370
     9
100
AcDbSpline
210
0.0
220
0.0
230
1.0
 70
     8
 71
     3
 72
     8
 73
     4
 74
     0
 42
0.0000000001
 43
0.0000000001
 40
0.0
 40
0.0
 40
0.0
 40
0.0
 40
1.0
 40
1.0
 40
1.0
 40
1.0
 10
84.01043137677476
 20
196.910074512713
 30
0.0
 10
84.09742009516329
 20
196.0691261499946
 30
0.0
 10
84.83949415222824
 20
195.3229179756201
 30
0.0
 10
85.67992575028299
 20
195.2309338654825
 30
0.0
  0
ENDBLK
  5
16E
330
16B
100
AcDbEntity
  8
0
100
AcDbBlockEnd
  0
BLOCK
  5
172
330
170
100
AcDbEntity
  8
0
100
AcDbBlockBegin
  2
block 33
 70
     0
 71
     0
 10
0.0
 20
0.0
 30
0.0
  3
block 33
  1

  0
POLYLINE
  5
174
330
170
100
AcDbEntity
  8
PIEZA
 62
     7
420
 16777215
370
     9
100
AcDb2dPolyline
 66
     1
 10
0.0
 20
0.0
 30
0.0
  0
VERTEX
  5
175
330
174
100
AcDbEntity
  8
PIEZA
 62
     7
420
 16777215
370
     9
100
AcDbVertex
100
AcDb2dVertex
 10
89.33414094215296
 20
194.0515046480443
 30
0.0
  0
VERTEX
  5
176
330
174
100
AcDbEntity
  8
PIEZA
 62
     7
420
 16777215
370
     9
100
AcDbVertex
100
AcDb2dVertex
 10
90.75489925753635
 20
193.228987558331
 30
0.0
  0
SEQEND
  5
177
330
174
100
AcDbEntity
  8
PIEZA
370
     9
  0
ENDBLK
  5
173
330
170
100
AcDbEntity
  8
0
100
AcDbBlockEnd
  0
BLOCK
  5
17A
330
178
100
AcDbEntity
  8
0
100
AcDbBlockBegin
  2
block 34
 70
     0
 71
     0
 10
0.0
 20
0.0
 30
0.0
  3
block 34
  1

  0
POLYLINE
  5
17C
330
178
100
AcDbEntity
  8
PIEZA
 62
     7
420
 16777215
370
     9
100
AcDb2dPolyline
 66
     1
 10
0.0
 20
0.0
 30
0.0
  0
VERTEX
  5
17D
330
17C
100
AcDbEntity
  8
PIEZA
 62
     7
420
 16777215
370
     9
100
AcDbVertex
100
AcDb2dVertex
 10
88.71350658105615
 20
192.9099715059437
 30
0.0
  0
VERTEX
  5
17E
330
17C
100
AcDbEntity
  8
PIEZA
 62
     7
420
 16777215
370
     9
100
AcDbVertex
100
AcDb2dVertex
 10
89.70517797068543
 20
192.3356737096915
 30
0.0
  0
SEQEND
  5
17F
330
17C
100
AcDbEntity
  8
PIEZA
370
     9
  0
ENDBLK
  5
17B
330
178
100
AcDbEntity
  8
0
100
AcDbBlockEnd
  0
BLOCK
  5
182
330
180
100
AcDbEntity
  8
0
100
AcDbBlockBegin
  2
block 35
 70
     0
 71
     0
 10
0.0
 20
0.0
 30
0.0
  3
block 35
  1

  0
SPLINE
  5
184
330
180
100
AcDbEntity
  8
PIEZA
 62
     7
420
 16777215
370
     9
100
AcDbSpline
210
0.0
220
0.0
230
1.0
 70
     8
 71
     3
 72
     8
 73
     4
 74
     0
 42
0.0000000001
 43
0.0000000001
 40
0.0
 40
0.0
 40
0.0
 40
0.0
 40
1.0
 40
1.0
 40
1.0
 40
1.0
 10
91.00415208032489
 20
192.7966277897068
 30
0.0
 10
91.0122480600561
 20
192.9607866978737
 30
0.0
 10
90.90097140247393
 20
193.1538844272074
 30
0.0
 10
90.75489925753635
 20
193.228987558331
 30
0.0
  0
ENDBLK
  5
183
330
180
100
AcDbEntity
  8
0
100
AcDbBlockEnd
  0
BLOCK
  5
187
330
185
100
AcDbEntity
  8
0
100
AcDbBlockBegin
  2
block 36
 70
     0
 71
     0
 10
0.0
 20
0.0
 30
0.0
  3
block 36
  1

  0
SPLINE
  5
189
330
185
100
AcDbEntity
  8
PIEZA
 62
     7
420
 16777215
370
     9
100
AcDbSpline
210
0.0
220
0.0
230
1.0
 70
     8
 71
     3
 72
     8
 73
     4
 74
     0
 42
0.0000000001
 43
0.0000000001
 40
0.0
 40
0.0
 40
0.0
 40
0.0
 40
1.0
 40
1.0
 40
1.0
 40
1.0
 10
89.33414094215296
 20
194.0515046480443
 30
0.0
 10
89.21597408905487
 20
194.1272967987195
 30
0.0
 10
88.98446351971984
 20
194.2087733606953
 30
0.0
 10
88.8449370605224
 20
194.2235872810545
 30
0.0
  0
ENDBLK
  5
188
330
185
100
AcDbEntity
  8
0
100
AcDbBlockEnd
  0
BLOCK
  5
18C
330
18A
100
AcDbEntity
  8
0
100
AcDbBlockBegin
  2
block 37
 70
     0
 71
     0
 10
0.0
 20
0.0
 30
0.0
  3
block 37
  1

  0
POLYLINE
  5
18E
330
18A
100
AcDbEntity
  8
PIEZA
 62
     7
420
 16777215
370
     9
100
AcDb2dPolyline
 66
     1
 10
0.0
 20
0.0
 30
0.0
  0
VERTEX
  5
18F
330
18E
100
AcDbEntity
  8
PIEZA
 62
     7
420
 16777215
370
     9
100
AcDbVertex
100
AcDb2dVertex
 10
79.1142584431596
 20
200.6771166561562
 30
0.0
  0
VERTEX
  5
190
330
18E
100
AcDbEntity
  8
PIEZA
 62
     7
420
 16777215
370
     9
100
AcDbVertex
100
AcDb2dVertex
 10
82.64996227215569
 20
200.5003831411728
 30
0.0
  0
SEQEND
  5
191
330
18E
100
AcDbEntity
  8
PIEZA
370
     9
  0
ENDBLK
  5
18D
330
18A
100
AcDbEntity
  8
0
100
AcDbBlockEnd
  0
BLOCK
  5
194
330
192
100
AcDbEntity
  8
0
100
AcDbBlockBegin
  2
block 38
 70
     0
 71
     0
 10
0.0
 20
0.0
 30
0.0
  3
block 38
  1

  0
SPLINE
  5
196
330
192
100
AcDbEntity
  8
PIEZA
 62
     7
420
 16777215
370
     9
100
AcDbSpline
210
0.0
220
0.0
230
1.0
 70
     8
 71
     3
 72
    11
 73
     7
 74
     0
 42
0.0000000001
 43
0.0000000001
 40
0.0
 40
0.0
 40
0.0
 40
0.0
 40
1.0
 40
1.0
 40
1.0
 40
2.0
 40
2.0
 40
2.0
 40
2.0
 10
79.1142584431596
 20
200.6771166561562
 30
0.0
 10
78.83830611274688
 20
200.6771166561562
 30
0.0
 10
78.61454701336726
 20
200.4535298116645
 30
0.0
 10
78.61454701336726
 20
200.1775774812518
 30
0.0
 10
78.61454701336726
 20
200.1775774812518
 30
0.0
 10
78.61454701336726
 20
200.1775774812518
 30
0.0
 10
78.61454701336726
 20
200.1775774812518
 30
0.0
  0
ENDBLK
  5
195
330
192
100
AcDbEntity
  8
0
100
AcDbBlockEnd
  0
BLOCK
  5
199
330
197
100
AcDbEntity
  8
0
100
AcDbBlockBegin
  2
block 39
 70
     0
 71
     0
 10
0.0
 20
0.0
 30
0.0
  3
block 39
  1

  0
SPLINE
  5
19B
330
197
100
AcDbEntity
  8
PIEZA
 62
     7
420
 16777215
370
     9
100
AcDbSpline
210
0.0
220
0.0
230
1.0
 70
     8
 71
     3
 72
     8
 73
     4
 74
     0
 42
0.0000000001
 43
0.0000000001
 40
0.0
 40
0.0
 40
0.0
 40
0.0
 40
1.0
 40
1.0
 40
1.0
 40
1.0
 10
83.59426356761298
 20
199.6012126263448
 30
0.0
 10
83.55481719828433
 20
200.0843875868989
 30
0.0
 10
83.1343430169251
 20
200.4847079463741
 30
0.0
 10
82.64996227215569
 20
200.5003831411728
 30
0.0
  0
ENDBLK
  5
19A
330
197
100
AcDbEntity
  8
0
100
AcDbBlockEnd
  0
BLOCK
  5
19E
330
19C
100
AcDbEntity
  8
0
100
AcDbBlockBegin
  2
block 40
 70
     0
 71
     0
 10
0.0
 20
0.0
 30
0.0
  3
block 40
  1

  0
POLYLINE
  5
1A0
330
19C
100
AcDbEntity
  8
PIEZA
 62
     7
420
 16777215
370
     9
100
AcDb2dPolyline
 66
     1
 10
0.0
 20
0.0
 30
0.0
  0
VERTEX
  5
1A1
330
1A0
100
AcDbEntity
  8
PIEZA
 62
     7
420
 16777215
370
     9
100
AcDbVertex
100
AcDb2dVertex
 10
141.3904293393936
 20
194.293695020429
 30
0.0
  0
VERTEX
  5
1A2
330
1A0
100
AcDbEntity
  8
PIEZA
 62
     7
420
 16777215
370
     9
100
AcDbVertex
100
AcDb2dVertex
 10
107.1354778222047
 20
193.472383714931
 30
0.0
  0
SEQEND
  5
1A3
330
1A0
100
AcDbEntity
  8
PIEZA
370
     9
  0
ENDBLK
  5
19F
330
19C
100
AcDbEntity
  8
0
100
AcDbBlockEnd
  0
BLOCK
  5
1A6
330
1A4
100
AcDbEntity
  8
0
100
AcDbBlockBegin
  2
block 41
 70
     0
 71
     0
 10
0.0
 20
0.0
 30
0.0
  3
block 41
  1

  0
POLYLINE
  5
1A8
330
1A4
100
AcDbEntity
  8
PIEZA
 62
     7
420
 16777215
370
     9
100
AcDb2dPolyline
 66
     1
 10
0.0
 20
0.0
 30
0.0
  0
VERTEX
  5
1A9
330
1A8
100
AcDbEntity
  8
PIEZA
 62
     7
420
 16777215
370
     9
100
AcDbVertex
100
AcDb2dVertex
 10
138.4410811488026
 20
195.5516724667488
 30
0.0
  0
VERTEX
  5
1AA
330
1A8
100
AcDbEntity
  8
PIEZA
 62
     7
420
 16777215
370
     9
100
AcDbVertex
100
AcDb2dVertex
 10
106.2728253436111
 20
194.7465531207131
 30
0.0
  0
SEQEND
  5
1AB
330
1A8
100
AcDbEntity
  8
PIEZA
370
     9
  0
ENDBLK
  5
1A7
330
1A4
100
AcDbEntity
  8
0
100
AcDbBlockEnd
  0
BLOCK
  5
1AE
330
1AC
100
AcDbEntity
  8
0
100
AcDbBlockBegin
  2
block 42
 70
     0
 71
     0
 10
0.0
 20
0.0
 30
0.0
  3
block 42
  1

  0
POLYLINE
  5
1B0
330
1AC
100
AcDbEntity
  8
PIEZA
 62
     7
420
 16777215
370
     9
100
AcDb2dPolyline
 66
     1
 10
0.0
 20
0.0
 30
0.0
  0
VERTEX
  5
1B1
330
1B0
100
AcDbEntity
  8
PIEZA
 62
     7
420
 16777215
370
     9
100
AcDbVertex
100
AcDb2dVertex
 10
106.2728253436111
 20
194.7465531207131
 30
0.0
  0
VERTEX
  5
1B2
330
1B0
100
AcDbEntity
  8
PIEZA
 62
     7
420
 16777215
370
     9
100
AcDbVertex
100
AcDb2dVertex
 10
99.45928325280235
 20
194.1841409117258
 30
0.0
  0
SEQEND
  5
1B3
330
1B0
100
AcDbEntity
  8
PIEZA
370
     9
  0
ENDBLK
  5
1AF
330
1AC
100
AcDbEntity
  8
0
100
AcDbBlockEnd
  0
BLOCK
  5
1B6
330
1B4
100
AcDbEntity
  8
0
100
AcDbBlockBegin
  2
block 43
 70
     0
 71
     0
 10
0.0
 20
0.0
 30
0.0
  3
block 43
  1

  0
POLYLINE
  5
1B8
330
1B4
100
AcDbEntity
  8
PIEZA
 62
     7
420
 16777215
370
     9
100
AcDb2dPolyline
 66
     1
 10
0.0
 20
0.0
 30
0.0
  0
VERTEX
  5
1B9
330
1B8
100
AcDbEntity
  8
PIEZA
 62
     7
420
 16777215
370
     9
100
AcDbVertex
100
AcDb2dVertex
 10
107.1354778222047
 20
193.472383714931
 30
0.0
  0
VERTEX
  5
1BA
330
1B8
100
AcDbEntity
  8
PIEZA
 62
     7
420
 16777215
370
     9
100
AcDbVertex
100
AcDb2dVertex
 10
99.48942785818451
 20
192.9099715059437
 30
0.0
  0
SEQEND
  5
1BB
330
1B8
100
AcDbEntity
  8
PIEZA
370
     9
  0
ENDBLK
  5
1B7
330
1B4
100
AcDbEntity
  8
0
100
AcDbBlockEnd
  0
BLOCK
  5
1BE
330
1BC
100
AcDbEntity
  8
0
100
AcDbBlockBegin
  2
block 44
 70
     0
 71
     0
 10
0.0
 20
0.0
 30
0.0
  3
block 44
  1

  0
POLYLINE
  5
1C0
330
1BC
100
AcDbEntity
  8
PIEZA
 62
     7
420
 16777215
370
     9
100
AcDb2dPolyline
 66
     1
 10
0.0
 20
0.0
 30
0.0
  0
VERTEX
  5
1C1
330
1C0
100
AcDbEntity
  8
PIEZA
 62
     7
420
 16777215
370
     9
100
AcDbVertex
100
AcDb2dVertex
 10
98.49775646855525
 20
192.1854674474444
 30
0.0
  0
VERTEX
  5
1C2
330
1C0
100
AcDbEntity
  8
PIEZA
 62
     7
420
 16777215
370
     9
100
AcDbVertex
100
AcDb2dVertex
 10
98.49775646855525
 20
192.3356737096915
 30
0.0
  0
SEQEND
  5
1C3
330
1C0
100
AcDbEntity
  8
PIEZA
370
     9
  0
ENDBLK
  5
1BF
330
1BC
100
AcDbEntity
  8
0
100
AcDbBlockEnd
  0
BLOCK
  5
1C6
330
1C4
100
AcDbEntity
  8
0
100
AcDbBlockBegin
  2
block 45
 70
     0
 71
     0
 10
0.0
 20
0.0
 30
0.0
  3
block 45
  1

  0
POLYLINE
  5
1C8
330
1C4
100
AcDbEntity
  8
PIEZA
 62
     7
420
 16777215
370
     9
100
AcDb2dPolyline
 66
     1
 10
0.0
 20
0.0
 30
0.0
  0
VERTEX
  5
1C9
330
1C8
100
AcDbEntity
  8
PIEZA
 62
     7
420
 16777215
370
     9
100
AcDbVertex
100
AcDb2dVertex
 10
97.19895461380369
 20
192.7966277897068
 30
0.0
  0
VERTEX
  5
1CA
330
1C8
100
AcDbEntity
  8
PIEZA
 62
     7
420
 16777215
370
     9
100
AcDbVertex
100
AcDb2dVertex
 10
97.19895461380369
 20
192.1854674474444
 30
0.0
  0
SEQEND
  5
1CB
330
1C8
100
AcDbEntity
  8
PIEZA
370
     9
  0
ENDBLK
  5
1C7
330
1C4
100
AcDbEntity
  8
0
100
AcDbBlockEnd
  0
BLOCK
  5
1CE
330
1CC
100
AcDbEntity
  8
0
100
AcDbBlockBegin
  2
block 46
 70
     0
 71
     0
 10
0.0
 20
0.0
 30
0.0
  3
block 46
  1

  0
POLYLINE
  5
1D0
330
1CC
100
AcDbEntity
  8
PIEZA
 62
     7
420
 16777215
370
     9
100
AcDb2dPolyline
 66
     1
 10
0.0
 20
0.0
 30
0.0
  0
VERTEX
  5
1D1
330
1D0
100
AcDbEntity
  8
PIEZA
 62
     7
420
 16777215
370
     9
100
AcDbVertex
100
AcDb2dVertex
 10
94.10146721962033
 20
192.1854674474444
 30
0.0
  0
VERTEX
  5
1D2
330
1D0
100
AcDbEntity
  8
PIEZA
 62
     7
420
 16777215
370
     9
100
AcDbVertex
100
AcDb2dVertex
 10
98.49775646855525
 20
192.1854674474444
 30
0.0
  0
SEQEND
  5
1D3
330
1D0
100
AcDbEntity
  8
PIEZA
370
     9
  0
ENDBLK
  5
1CF
330
1CC
100
AcDbEntity
  8
0
100
AcDbBlockEnd
  0
BLOCK
  5
1D6
330
1D4
100
AcDbEntity
  8
0
100
AcDbBlockBegin
  2
block 47
 70
     0
 71
     0
 10
0.0
 20
0.0
 30
0.0
  3
block 47
  1

  0
POLYLINE
  5
1D8
330
1D4
100
AcDbEntity
  8
PIEZA
 62
     7
420
 16777215
370
     9
100
AcDb2dPolyline
 66
     1
 10
0.0
 20
0.0
 30
0.0
  0
VERTEX
  5
1D9
330
1D8
100
AcDbEntity
  8
PIEZA
 62
     7
420
 16777215
370
     9
100
AcDbVertex
100
AcDb2dVertex
 10
98.77301977941639
 20
193.9960385741412
 30
0.0
  0
VERTEX
  5
1DA
330
1D8
100
AcDbEntity
  8
PIEZA
 62
     7
420
 16777215
370
     9
100
AcDbVertex
100
AcDb2dVertex
 10
97.44820743659221
 20
193.228987558331
 30
0.0
  0
SEQEND
  5
1DB
330
1D8
100
AcDbEntity
  8
PIEZA
370
     9
  0
ENDBLK
  5
1D7
330
1D4
100
AcDbEntity
  8
0
100
AcDbBlockEnd
  0
BLOCK
  5
1DE
330
1DC
100
AcDbEntity
  8
0
100
AcDbBlockBegin
  2
block 48
 70
     0
 71
     0
 10
0.0
 20
0.0
 30
0.0
  3
block 48
  1

  0
POLYLINE
  5
1E0
330
1DC
100
AcDbEntity
  8
PIEZA
 62
     7
420
 16777215
370
     9
100
AcDb2dPolyline
 66
     1
 10
0.0
 20
0.0
 30
0.0
  0
VERTEX
  5
1E1
330
1E0
100
AcDbEntity
  8
PIEZA
 62
     7
420
 16777215
370
     9
100
AcDbVertex
100
AcDb2dVertex
 10
99.48942785818451
 20
192.9099715059437
 30
0.0
  0
VERTEX
  5
1E2
330
1E0
100
AcDbEntity
  8
PIEZA
 62
     7
420
 16777215
370
     9
100
AcDbVertex
100
AcDb2dVertex
 10
98.49775646855525
 20
192.3356737096915
 30
0.0
  0
SEQEND
  5
1E3
330
1E0
100
AcDbEntity
  8
PIEZA
370
     9
  0
ENDBLK
  5
1DF
330
1DC
100
AcDbEntity
  8
0
100
AcDbBlockEnd
  0
BLOCK
  5
1E6
330
1E4
100
AcDbEntity
  8
0
100
AcDbBlockBegin
  2
block 49
 70
     0
 71
     0
 10
0.0
 20
0.0
 30
0.0
  3
block 49
  1

  0
SPLINE
  5
1E8
330
1E4
100
AcDbEntity
  8
PIEZA
 62
     7
420
 16777215
370
     9
100
AcDbSpline
210
0.0
220
0.0
230
1.0
 70
     8
 71
     3
 72
     8
 73
     4
 74
     0
 42
0.0000000001
 43
0.0000000001
 40
0.0
 40
0.0
 40
0.0
 40
0.0
 40
1.0
 40
1.0
 40
1.0
 40
1.0
 10
97.44820743659221
 20
193.228987558331
 30
0.0
 10
97.30213529165464
 20
193.1538844272074
 30
0.0
 10
97.19068637918458
 20
192.9607866978737
 30
0.0
 10
97.19895461380369
 20
192.7966277897068
 30
0.0
  0
ENDBLK
  5
1E7
330
1E4
100
AcDbEntity
  8
0
100
AcDbBlockEnd
  0
BLOCK
  5
1EB
330
1E9
100
AcDbEntity
  8
0
100
AcDbBlockBegin
  2
block 50
 70
     0
 71
     0
 10
0.0
 20
0.0
 30
0.0
  3
block 50
  1

  0
SPLINE
  5
1ED
330
1E9
100
AcDbEntity
  8
PIEZA
 62
     7
420
 16777215
370
     9
100
AcDbSpline
210
0.0
220
0.0
230
1.0
 70
     8
 71
     3
 72
     8
 73
     4
 74
     0
 42
0.0000000001
 43
0.0000000001
 40
0.0
 40
0.0
 40
0.0
 40
0.0
 40
1.0
 40
1.0
 40
1.0
 40
1.0
 10
99.45928325280235
 20
194.1841409117258
 30
0.0
 10
99.25963983772847
 20
194.1929259110087
 30
0.0
 10
98.94027927556543
 20
194.1054204279564
 30
0.0
 10
98.77301977941639
 20
193.9960385741412
 30
0.0
  0
ENDBLK
  5
1EC
330
1E9
100
AcDbEntity
  8
0
100
AcDbBlockEnd
  0
BLOCK
  5
1F0
330
1EE
100
AcDbEntity
  8
0
100
AcDbBlockBegin
  2
block 51
 70
     0
 71
     0
 10
0.0
 20
0.0
 30
0.0
  3
block 51
  1

  0
SPLINE
  5
1F2
330
1EE
100
AcDbEntity
  8
PIEZA
 62
     7
420
 16777215
370
     9
100
AcDbSpline
210
0.0
220
0.0
230
1.0
 70
     8
 71
     3
 72
     8
 73
     4
 74
     0
 42
0.0000000001
 43
0.0000000001
 40
0.0
 40
0.0
 40
0.0
 40
0.0
 40
1.0
 40
1.0
 40
1.0
 40
1.0
 10
147.029709859401
 20
199.6694255619525
 30
0.0
 10
146.0829969955132
 20
199.6694255619525
 30
0.0
 10
144.3645822338419
 20
199.4019137210467
 30
0.0
 10
143.4626556408075
 20
199.1144203131448
 30
0.0
  0
ENDBLK
  5
1F1
330
1EE
100
AcDbEntity
  8
0
100
AcDbBlockEnd
  0
BLOCK
  5
1F5
330
1F3
100
AcDbEntity
  8
0
100
AcDbBlockBegin
  2
block 52
 70
     0
 71
     0
 10
0.0
 20
0.0
 30
0.0
  3
block 52
  1

  0
SPLINE
  5
1F7
330
1F3
100
AcDbEntity
  8
PIEZA
 62
     7
420
 16777215
370
     9
100
AcDbSpline
210
0.0
220
0.0
230
1.0
 70
     8
 71
     3
 72
     8
 73
     4
 74
     0
 42
0.0000000001
 43
0.0000000001
 40
0.0
 40
0.0
 40
0.0
 40
0.0
 40
1.0
 40
1.0
 40
1.0
 40
1.0
 10
147.5340721711666
 20
200.6771166561562
 30
0.0
 10
146.3761748147157
 20
200.7200081232429
 30
0.0
 10
144.2939577298037
 20
200.4318256957894
 30
0.0
 10
143.1911819374801
 20
200.0759470973919
 30
0.0
  0
ENDBLK
  5
1F6
330
1F3
100
AcDbEntity
  8
0
100
AcDbBlockEnd
  0
BLOCK
  5
1FA
330
1F8
100
AcDbEntity
  8
0
100
AcDbBlockBegin
  2
block 53
 70
     0
 71
     0
 10
0.0
 20
0.0
 30
0.0
  3
block 53
  1

  0
SPLINE
  5
1FC
330
1F8
100
AcDbEntity
  8
PIEZA
 62
     7
420
 16777215
370
     9
100
AcDbSpline
210
0.0
220
0.0
230
1.0
 70
     8
 71
     3
 72
     8
 73
     4
 74
     0
 42
0.0000000001
 43
0.0000000001
 40
0.0
 40
0.0
 40
0.0
 40
0.0
 40
1.0
 40
1.0
 40
1.0
 40
1.0
 10
143.1911819374801
 20
200.0759470973919
 30
0.0
 10
141.6639701013757
 20
199.7262696749588
 30
0.0
 10
140.1729317917299
 20
198.2054312697067
 30
0.0
 10
139.8535712295669
 20
196.6715014929742
 30
0.0
  0
ENDBLK
  5
1FB
330
1F8
100
AcDbEntity
  8
0
100
AcDbBlockEnd
  0
BLOCK
  5
1FF
330
1FD
100
AcDbEntity
  8
0
100
AcDbBlockBegin
  2
block 54
 70
     0
 71
     0
 10
0.0
 20
0.0
 30
0.0
  3
block 54
  1

  0
SPLINE
  5
201
330
1FD
100
AcDbEntity
  8
PIEZA
 62
     7
420
 16777215
370
     9
100
AcDbSpline
210
0.0
220
0.0
230
1.0
 70
     8
 71
     3
 72
     8
 73
     4
 74
     0
 42
0.0000000001
 43
0.0000000001
 40
0.0
 40
0.0
 40
0.0
 40
0.0
 40
1.0
 40
1.0
 40
1.0
 40
1.0
 10
138.4410811488026
 20
195.5516724667488
 30
0.0
 10
139.0829028611108
 20
195.5480551141029
 30
0.0
 10
139.7109441823872
 20
196.0456994852404
 30
0.0
 10
139.8535712295669
 20
196.6715014929742
 30
0.0
  0
ENDBLK
  5
200
330
1FD
100
AcDbEntity
  8
0
100
AcDbBlockEnd
  0
BLOCK
  5
204
330
202
100
AcDbEntity
  8
0
100
AcDbBlockBegin
  2
block 55
 70
     0
 71
     0
 10
0.0
 20
0.0
 30
0.0
  3
block 55
  1

  0
SPLINE
  5
206
330
202
100
AcDbEntity
  8
PIEZA
 62
     7
420
 16777215
370
     9
100
AcDbSpline
210
0.0
220
0.0
230
1.0
 70
     8
 71
     3
 72
     8
 73
     4
 74
     0
 42
0.0000000001
 43
0.0000000001
 40
0.0
 40
0.0
 40
0.0
 40
0.0
 40
1.0
 40
1.0
 40
1.0
 40
1.0
 10
143.4626556408075
 20
199.1144203131448
 30
0.0
 10
141.927175570084
 20
198.7359763244327
 30
0.0
 10
140.6989982193707
 20
197.1679400798965
 30
0.0
 10
140.6993427291465
 20
195.5864679541042
 30
0.0
  0
ENDBLK
  5
205
330
202
100
AcDbEntity
  8
0
100
AcDbBlockEnd
  0
BLOCK
  5
209
330
207
100
AcDbEntity
  8
0
100
AcDbBlockBegin
  2
block 56
 70
     0
 71
     0
 10
0.0
 20
0.0
 30
0.0
  3
block 56
  1

  0
SPLINE
  5
20B
330
207
100
AcDbEntity
  8
PIEZA
 62
     7
420
 16777215
370
     9
100
AcDbSpline
210
0.0
220
0.0
230
1.0
 70
     8
 71
     3
 72
    11
 73
     7
 74
     0
 42
0.0000000001
 43
0.0000000001
 40
0.0
 40
0.0
 40
0.0
 40
0.0
 40
1.0
 40
1.0
 40
1.0
 40
2.0
 40
2.0
 40
2.0
 40
2.0
 10
140.6993427291465
 20
195.5864679541042
 30
0.0
 10
140.6938305727337
 20
195.421103261722
 30
0.0
 10
140.8237107582088
 20
195.282438076964
 30
0.0
 10
140.989075450591
 20
195.2769259205513
 30
0.0
 10
140.9914870190216
 20
195.2767536656634
 30
0.0
 10
140.9966546656585
 20
195.2767536656634
 30
0.0
 10
140.9990662340891
 20
195.2767536656634
 30
0.0
  0
ENDBLK
  5
20A
330
207
100
AcDbEntity
  8
0
100
AcDbBlockEnd
  0
BLOCK
  5
20E
330
20C
100
AcDbEntity
  8
0
100
AcDbBlockBegin
  2
block 57
 70
     0
 71
     0
 10
0.0
 20
0.0
 30
0.0
  3
block 57
  1

  0
SPLINE
  5
210
330
20C
100
AcDbEntity
  8
PIEZA
 62
     7
420
 16777215
370
     9
100
AcDbSpline
210
0.0
220
0.0
230
1.0
 70
     8
 71
     3
 72
     8
 73
     4
 74
     0
 42
0.0000000001
 43
0.0000000001
 40
0.0
 40
0.0
 40
0.0
 40
0.0
 40
1.0
 40
1.0
 40
1.0
 40
1.0
 10
143.8175007098776
 20
192.5935392768749
 30
0.0
 10
143.88778070414
 20
192.3582391000062
 30
0.0
 10
144.1403063697986
 20
192.1768547030495
 30
0.0
 10
144.3855973301654
 20
192.1854674474444
 30
0.0
  0
ENDBLK
  5
20F
330
20C
100
AcDbEntity
  8
0
100
AcDbBlockEnd
  0
BLOCK
  5
213
330
211
100
AcDbEntity
  8
0
100
AcDbBlockBegin
  2
block 58
 70
     0
 71
     0
 10
0.0
 20
0.0
 30
0.0
  3
block 58
  1

  0
SPLINE
  5
215
330
211
100
AcDbEntity
  8
PIEZA
 62
     7
420
 16777215
370
     9
100
AcDbSpline
210
0.0
220
0.0
230
1.0
 70
     8
 71
     3
 72
     8
 73
     4
 74
     0
 42
0.0000000001
 43
0.0000000001
 40
0.0
 40
0.0
 40
0.0
 40
0.0
 40
1.0
 40
1.0
 40
1.0
 40
1.0
 10
143.8175007098776
 20
192.5935392768749
 30
0.0
 10
143.5157101462801
 20
193.5976130184329
 30
0.0
 10
142.4370500382623
 20
194.3532952116418
 30
0.0
 10
141.3904293393936
 20
194.293695020429
 30
0.0
  0
ENDBLK
  5
214
330
211
100
AcDbEntity
  8
0
100
AcDbBlockEnd
  0
BLOCK
  5
218
330
216
100
AcDbEntity
  8
0
100
AcDbBlockBegin
  2
block 59
 70
     0
 71
     0
 10
0.0
 20
0.0
 30
0.0
  3
block 59
  1

  0
SPLINE
  5
21A
330
216
100
AcDbEntity
  8
PIEZA
 62
     7
420
 16777215
370
     9
100
AcDbSpline
210
0.0
220
0.0
230
1.0
 70
     8
 71
     3
 72
     8
 73
     4
 74
     0
 42
0.0000000001
 43
0.0000000001
 40
0.0
 40
0.0
 40
0.0
 40
0.0
 40
1.0
 40
1.0
 40
1.0
 40
1.0
 10
144.5637088842521
 20
193.3504272542991
 30
0.0
 10
144.0655477484508
 20
194.474562652722
 30
0.0
 10
142.6782068813196
 20
195.3330810140061
 30
0.0
 10
141.4500295306063
 20
195.2767536656634
 30
0.0
  0
ENDBLK
  5
219
330
216
100
AcDbEntity
  8
0
100
AcDbBlockEnd
  0
BLOCK
  5
21D
330
21B
100
AcDbEntity
  8
0
100
AcDbBlockBegin
  2
block 60
 70
     0
 71
     0
 10
0.0
 20
0.0
 30
0.0
  3
block 60
  1

  0
SPLINE
  5
21F
330
21B
100
AcDbEntity
  8
PIEZA
 62
     7
420
 16777215
370
     9
100
AcDbSpline
210
0.0
220
0.0
230
1.0
 70
     8
 71
     3
 72
     8
 73
     4
 74
     0
 42
0.0000000001
 43
0.0000000001
 40
0.0
 40
0.0
 40
0.0
 40
0.0
 40
1.0
 40
1.0
 40
1.0
 40
1.0
 10
144.5637088842521
 20
193.3504272542991
 30
0.0
 10
144.6064280964508
 20
193.2536200073004
 30
0.0
 10
144.7259729886521
 20
193.1797226603921
 30
0.0
 10
144.8317374898215
 20
193.1845457972533
 30
0.0
  0
ENDBLK
  5
21E
330
21B
100
AcDbEntity
  8
0
100
AcDbBlockEnd
  0
BLOCK
  5
222
330
220
100
AcDbEntity
  8
0
100
AcDbBlockBegin
  2
block 61
 70
     0
 71
     0
 10
0.0
 20
0.0
 30
0.0
  3
block 61
  1

  0
POLYLINE
  5
224
330
220
100
AcDbEntity
  8
PIEZA
 62
     7
420
 16777215
370
     9
100
AcDb2dPolyline
 66
     1
 10
0.0
 20
0.0
 30
0.0
  0
VERTEX
  5
225
330
224
100
AcDbEntity
  8
PIEZA
 62
     7
420
 16777215
370
     9
100
AcDbVertex
100
AcDb2dVertex
 10
147.4427770805806
 20
199.2770289273206
 30
0.0
  0
VERTEX
  5
226
330
224
100
AcDbEntity
  8
PIEZA
 62
     7
420
 16777215
370
     9
100
AcDbVertex
100
AcDb2dVertex
 10
147.5437184448889
 20
193.4894369488329
 30
0.0
  0
SEQEND
  5
227
330
224
100
AcDbEntity
  8
PIEZA
370
     9
  0
ENDBLK
  5
223
330
220
100
AcDbEntity
  8
0
100
AcDbBlockEnd
  0
BLOCK
  5
22A
330
228
100
AcDbEntity
  8
0
100
AcDbBlockBegin
  2
block 62
 70
     0
 71
     0
 10
0.0
 20
0.0
 30
0.0
  3
block 62
  1

  0
SPLINE
  5
22C
330
228
100
AcDbEntity
  8
PIEZA
 62
     7
420
 16777215
370
     9
100
AcDbSpline
210
0.0
220
0.0
230
1.0
 70
     8
 71
     3
 72
    11
 73
     7
 74
     0
 42
0.0000000001
 43
0.0000000001
 40
0.0
 40
0.0
 40
0.0
 40
0.0
 40
1.0
 40
1.0
 40
1.0
 40
2.0
 40
2.0
 40
2.0
 40
2.0
 10
147.2439949399462
 20
193.1845457972533
 30
0.0
 10
147.4097041421042
 20
193.1845457972533
 30
0.0
 10
147.5437184448889
 20
193.3187323549259
 30
0.0
 10
147.5437184448889
 20
193.4842693021959
 30
0.0
 10
147.5437184448889
 20
193.4856473412991
 30
0.0
 10
147.5437184448889
 20
193.4882311646176
 30
0.0
 10
147.5437184448889
 20
193.4894369488329
 30
0.0
  0
ENDBLK
  5
22B
330
228
100
AcDbEntity
  8
0
100
AcDbBlockEnd
  0
BLOCK
  5
22F
330
22D
100
AcDbEntity
  8
0
100
AcDbBlockBegin
  2
block 63
 70
     0
 71
     0
 10
0.0
 20
0.0
 30
0.0
  3
block 63
  1

  0
POLYLINE
  5
231
330
22D
100
AcDbEntity
  8
PIEZA
 62
     7
420
 16777215
370
     9
100
AcDb2dPolyline
 66
     1
 10
0.0
 20
0.0
 30
0.0
  0
VERTEX
  5
232
330
231
100
AcDbEntity
  8
PIEZA
 62
     7
420
 16777215
370
     9
100
AcDbVertex
100
AcDb2dVertex
 10
148.4332426859946
 20
199.7779461413282
 30
0.0
  0
VERTEX
  5
233
330
231
100
AcDbEntity
  8
PIEZA
 62
     7
420
 16777215
370
     9
100
AcDbVertex
100
AcDb2dVertex
 10
148.5551991466265
 20
192.7849144573297
 30
0.0
  0
SEQEND
  5
234
330
231
100
AcDbEntity
  8
PIEZA
370
     9
  0
ENDBLK
  5
230
330
22D
100
AcDbEntity
  8
0
100
AcDbBlockEnd
  0
BLOCK
  5
237
330
235
100
AcDbEntity
  8
0
100
AcDbBlockBegin
  2
block 64
 70
     0
 71
     0
 10
0.0
 20
0.0
 30
0.0
  3
block 64
  1

  0
SPLINE
  5
239
330
235
100
AcDbEntity
  8
PIEZA
 62
     7
420
 16777215
370
     9
100
AcDbSpline
210
0.0
220
0.0
230
1.0
 70
     8
 71
     3
 72
    11
 73
     7
 74
     0
 42
0.0000000001
 43
0.0000000001
 40
0.0
 40
0.0
 40
0.0
 40
0.0
 40
1.0
 40
1.0
 40
1.0
 40
2.0
 40
2.0
 40
2.0
 40
2.0
 10
147.9557521367412
 20
192.1854674474444
 30
0.0
 10
148.2868260312813
 20
192.1854674474444
 30
0.0
 10
148.5551991466265
 20
192.4538405627896
 30
0.0
 10
148.5551991466265
 20
192.7849144573297
 30
0.0
 10
148.5551991466265
 20
192.7849144573297
 30
0.0
 10
148.5551991466265
 20
192.7849144573297
 30
0.0
 10
148.5551991466265
 20
192.7849144573297
 30
0.0
  0
ENDBLK
  5
238
330
235
100
AcDbEntity
  8
0
100
AcDbBlockEnd
  0
BLOCK
  5
23C
330
23A
100
AcDbEntity
  8
0
100
AcDbBlockBegin
  2
block 65
 70
     0
 71
     0
 10
0.0
 20
0.0
 30
0.0
  3
block 65
  1

  0
SPLINE
  5
23E
330
23A
100
AcDbEntity
  8
PIEZA
 62
     7
420
 16777215
370
     9
100
AcDbSpline
210
0.0
220
0.0
230
1.0
 70
     8
 71
     3
 72
    11
 73
     7
 74
     0
 42
0.0000000001
 43
0.0000000001
 40
0.0
 40
0.0
 40
0.0
 40
0.0
 40
1.0
 40
1.0
 40
1.0
 40
2.0
 40
2.0
 40
2.0
 40
2.0
 10
148.4332426859946
 20
199.7779461413282
 30
0.0
 10
148.4332426859946
 20
200.2745569831384
 30
0.0
 10
148.0308552678647
 20
200.6771166561562
 30
0.0
 10
147.5340721711666
 20
200.6771166561562
 30
0.0
 10
147.5340721711666
 20
200.6771166561562
 30
0.0
 10
147.5340721711666
 20
200.6771166561562
 30
0.0
 10
147.5340721711666
 20
200.6771166561562
 30
0.0
  0
ENDBLK
  5
23D
330
23A
100
AcDbEntity
  8
0
100
AcDbBlockEnd
  0
BLOCK
  5
241
330
23F
100
AcDbEntity
  8
0
100
AcDbBlockBegin
  2
block 66
 70
     0
 71
     0
 10
0.0
 20
0.0
 30
0.0
  3
block 66
  1

  0
SPLINE
  5
243
330
23F
100
AcDbEntity
  8
PIEZA
 62
     7
420
 16777215
370
     9
100
AcDbSpline
210
0.0
220
0.0
230
1.0
 70
     8
 71
     3
 72
    11
 73
     7
 74
     0
 42
0.0000000001
 43
0.0000000001
 40
0.0
 40
0.0
 40
0.0
 40
0.0
 40
1.0
 40
1.0
 40
1.0
 40
2.0
 40
2.0
 40
2.0
 40
2.0
 10
147.4427770805806
 20
199.2770289273206
 30
0.0
 10
147.4389874730469
 20
199.4976874387181
 30
0.0
 10
147.2567418016507
 20
199.673559679262
 30
0.0
 10
147.0362555451412
 20
199.6695978168404
 30
0.0
 10
147.0345329962622
 20
199.6695978168404
 30
0.0
 10
147.03143240828
 20
199.6695978168404
 30
0.0
 10
147.029709859401
 20
199.6694255619525
 30
0.0
  0
ENDBLK
  5
242
330
23F
100
AcDbEntity
  8
0
100
AcDbBlockEnd
  0
BLOCK
  5
246
330
244
100
AcDbEntity
  8
0
100
AcDbBlockBegin
  2
block 67
 70
     0
 71
     0
 10
0.0
 20
0.0
 30
0.0
  3
block 67
  1

  0
POLYLINE
  5
248
330
244
100
AcDbEntity
  8
PIEZA
 62
     7
420
 16777215
370
     9
100
AcDb2dPolyline
 66
     1
 10
0.0
 20
0.0
 30
0.0
  0
VERTEX
  5
249
330
248
100
AcDbEntity
  8
PIEZA
 62
     7
420
 16777215
370
     9
100
AcDbVertex
100
AcDb2dVertex
 10
141.4500295306063
 20
195.2767536656634
 30
0.0
  0
VERTEX
  5
24A
330
248
100
AcDbEntity
  8
PIEZA
 62
     7
420
 16777215
370
     9
100
AcDbVertex
100
AcDb2dVertex
 10
140.9990662340891
 20
195.2767536656634
 30
0.0
  0
SEQEND
  5
24B
330
248
100
AcDbEntity
  8
PIEZA
370
     9
  0
ENDBLK
  5
247
330
244
100
AcDbEntity
  8
0
100
AcDbBlockEnd
  0
BLOCK
  5
24E
330
24C
100
AcDbEntity
  8
0
100
AcDbBlockBegin
  2
block 68
 70
     0
 71
     0
 10
0.0
 20
0.0
 30
0.0
  3
block 68
  1

  0
POLYLINE
  5
250
330
24C
100
AcDbEntity
  8
PIEZA
 62
     7
420
 16777215
370
     9
100
AcDb2dPolyline
 66
     1
 10
0.0
 20
0.0
 30
0.0
  0
VERTEX
  5
251
330
250
100
AcDbEntity
  8
PIEZA
 62
     7
420
 16777215
370
     9
100
AcDbVertex
100
AcDb2dVertex
 10
147.9557521367412
 20
192.1854674474444
 30
0.0
  0
VERTEX
  5
252
330
250
100
AcDbEntity
  8
PIEZA
 62
     7
420
 16777215
370
     9
100
AcDbVertex
100
AcDb2dVertex
 10
144.3855973301654
 20
192.1854674474444
 30
0.0
  0
SEQEND
  5
253
330
250
100
AcDbEntity
  8
PIEZA
370
     9
  0
ENDBLK
  5
24F
330
24C
100
AcDbEntity
  8
0
100
AcDbBlockEnd
  0
BLOCK
  5
256
330
254
100
AcDbEntity
  8
0
100
AcDbBlockBegin
  2
block 69
 70
     0
 71
     0
 10
0.0
 20
0.0
 30
0.0
  3
block 69
  1

  0
POLYLINE
  5
258
330
254
100
AcDbEntity
  8
PIEZA
 62
     7
420
 16777215
370
     9
100
AcDb2dPolyline
 66
     1
 10
0.0
 20
0.0
 30
0.0
  0
VERTEX
  5
259
330
258
100
AcDbEntity
  8
PIEZA
 62
     7
420
 16777215
370
     9
100
AcDbVertex
100
AcDb2dVertex
 10
147.2439949399462
 20
193.1845457972533
 30
0.0
  0
VERTEX
  5
25A
330
258
100
AcDbEntity
  8
PIEZA
 62
     7
420
 16777215
370
     9
100
AcDbVertex
100
AcDb2dVertex
 10
144.8317374898215
 20
193.1845457972533
 30
0.0
  0
SEQEND
  5
25B
330
258
100
AcDbEntity
  8
PIEZA
370
     9
  0
ENDBLK
  5
257
330
254
100
AcDbEntity
  8
0
100
AcDbBlockEnd
  0
BLOCK
  5
25E
330
25C
100
AcDbEntity
  8
0
100
AcDbBlockBegin
  2
block 70
 70
     0
 71
     0
 10
0.0
 20
0.0
 30
0.0
  3
block 70
  1

  0
POLYLINE
  5
260
330
25C
100
AcDbEntity
  8
PIEZA
 62
     7
420
 16777215
370
     9
100
AcDb2dPolyline
 66
     1
 10
0.0
 20
0.0
 30
0.0
  0
VERTEX
  5
261
330
260
100
AcDbEntity
  8
PIEZA
 62
     7
420
 16777215
370
     9
100
AcDbVertex
100
AcDb2dVertex
 10
147.5340721711666
 20
200.6771166561562
 30
0.0
  0
VERTEX
  5
262
330
260
100
AcDbEntity
  8
PIEZA
 62
     7
420
 16777215
370
     9
100
AcDbVertex
100
AcDb2dVertex
 10
79.1142584431596
 20
200.6771166561562
 30
0.0
  0
SEQEND
  5
263
330
260
100
AcDbEntity
  8
PIEZA
370
     9
  0
ENDBLK
  5
25F
330
25C
100
AcDbEntity
  8
0
100
AcDbBlockEnd
  0
BLOCK
  5
267
330
265
100
AcDbEntity
  8
0
100
AcDbBlockBegin
  2
block 71
 70
     0
 71
     0
 10
0.0
 20
0.0
 30
0.0
  3
block 71
  1

  0
POLYLINE
  5
269
330
265
100
AcDbEntity
  8
Fina
 62
     7
420
 16777215
370
     9
100
AcDb2dPolyline
 66
     1
 10
0.0
 20
0.0
 30
0.0
  0
VERTEX
  5
26A
330
269
100
AcDbEntity
  8
Fina
 62
     7
420
 16777215
370
     9
100
AcDbVertex
100
AcDb2dVertex
 10
84.10999470197984
 20
89.79199443418607
 30
0.0
  0
VERTEX
  5
26B
330
269
100
AcDbEntity
  8
Fina
 62
     7
420
 16777215
370
     9
100
AcDbVertex
100
AcDb2dVertex
 10
84.10999470197984
 20
148.7420956999959
 30
0.0
  0
SEQEND
  5
26C
330
269
100
AcDbEntity
  8
Fina
370
     9
  0
ENDBLK
  5
268
330
265
100
AcDbEntity
  8
0
100
AcDbBlockEnd
  0
BLOCK
  5
26F
330
26D
100
AcDbEntity
  8
0
100
AcDbBlockBegin
  2
block 72
 70
     0
 71
     0
 10
0.0
 20
0.0
 30
0.0
  3
block 72
  1

  0
POLYLINE
  5
271
330
26D
100
AcDbEntity
  8
Fina
 62
     7
420
 16777215
370
     9
100
AcDb2dPolyline
 66
     1
 10
0.0
 20
0.0
 30
0.0
  0
VERTEX
  5
272
330
271
100
AcDbEntity
  8
Fina
 62
     7
420
 16777215
370
     9
100
AcDbVertex
100
AcDb2dVertex
 10
139.5631494885707
 20
93.28911316829297
 30
0.0
  0
VERTEX
  5
273
330
271
100
AcDbEntity
  8
Fina
 62
     7
420
 16777215
370
     9
100
AcDbVertex
100
AcDb2dVertex
 10
147.5561207968176
 20
85.29579735027026
 30
0.0
  0
SEQEND
  5
274
330
271
100
AcDbEntity
  8
Fina
370
     9
  0
ENDBLK
  5
270
330
26D
100
AcDbEntity
  8
0
100
AcDbBlockEnd
  0
BLOCK
  5
277
330
275
100
AcDbEntity
  8
0
100
AcDbBlockBegin
  2
block 73
 70
     0
 71
     0
 10
0.0
 20
0.0
 30
0.0
  3
block 73
  1

  0
POLYLINE
  5
279
330
275
100
AcDbEntity
  8
Fina
 62
     7
420
 16777215
370
     9
100
AcDb2dPolyline
 66
     1
 10
0.0
 20
0.0
 30
0.0
  0
VERTEX
  5
27A
330
279
100
AcDbEntity
  8
Fina
 62
     7
420
 16777215
370
     9
100
AcDbVertex
100
AcDb2dVertex
 10
139.5631494885707
 20
145.244976965889
 30
0.0
  0
VERTEX
  5
27B
330
279
100
AcDbEntity
  8
Fina
 62
     7
420
 16777215
370
     9
100
AcDbVertex
100
AcDb2dVertex
 10
147.5561207968176
 20
153.2382927839117
 30
0.0
  0
SEQEND
  5
27C
330
279
100
AcDbEntity
  8
Fina
370
     9
  0
ENDBLK
  5
278
330
275
100
AcDbEntity
  8
0
100
AcDbBlockEnd
  0
BLOCK
  5
27F
330
27D
100
AcDbEntity
  8
0
100
AcDbBlockBegin
  2
block 74
 70
     0
 71
     0
 10
0.0
 20
0.0
 30
0.0
  3
block 74
  1

  0
SPLINE
  5
281
330
27D
100
AcDbEntity
  8
Fina
 62
     7
420
 16777215
370
     9
100
AcDbSpline
210
0.0
220
0.0
230
1.0
 70
    11
 71
     3
 72
    23
 73
    19
 74
     0
 42
0.0000000001
 43
0.0000000001
 40
0.0
 40
0.0
 40
0.0
 40
0.0
 40
1.0
 40
1.0
 40
1.0
 40
2.0
 40
2.0
 40
2.0
 40
3.0
 40
3.0
 40
3.0
 40
4.0
 40
4.0
 40
4.0
 40
5.0
 40
5.0
 40
5.0
 40
6.0
 40
6.0
 40
6.0
 40
6.0
 10
111.336774538039
 20
103.2805856859335
 30
0.0
 10
111.336774538039
 20
104.2462465874901
 30
0.0
 10
110.5540483274301
 20
105.0293173078748
 30
0.0
 10
109.5883874258734
 20
105.0293173078748
 30
0.0
 10
108.6227265243167
 20
105.0293173078748
 30
0.0
 10
107.8400003137079
 20
104.2462465874901
 30
0.0
 10
107.8400003137079
 20
103.2805856859335
 30
0.0
 10
107.8400003137079
 20
102.3149247843768
 30
0.0
 10
108.6227265243167
 20
101.5321985737679
 30
0.0
 10
109.5883874258734
 20
101.5321985737679
 30
0.0
 10
110.5540483274301
 20
101.5321985737679
 30
0.0
 10
111.336774538039
 20
102.3149247843768
 30
0.0
 10
111.336774538039
 20
103.2805856859335
 30
0.0
 10
111.336774538039
 20
103.2805856859335
 30
0.0
 10
111.336774538039
 20
103.2805856859335
 30
0.0
 10
111.336774538039
 20
103.2805856859335
 30
0.0
 10
111.336774538039
 20
103.2805856859335
 30
0.0
 10
111.336774538039
 20
103.2805856859335
 30
0.0
 10
111.336774538039
 20
103.2805856859335
 30
0.0
  0
ENDBLK
  5
280
330
27D
100
AcDbEntity
  8
0
100
AcDbBlockEnd
  0
BLOCK
  5
284
330
282
100
AcDbEntity
  8
0
100
AcDbBlockBegin
  2
block 75
 70
     0
 71
     0
 10
0.0
 20
0.0
 30
0.0
  3
block 75
  1

  0
SPLINE
  5
286
330
282
100
AcDbEntity
  8
Fina
 62
     7
420
 16777215
370
     9
100
AcDbSpline
210
0.0
220
0.0
230
1.0
 70
    11
 71
     3
 72
    23
 73
    19
 74
     0
 42
0.0000000001
 43
0.0000000001
 40
0.0
 40
0.0
 40
0.0
 40
0.0
 40
1.0
 40
1.0
 40
1.0
 40
2.0
 40
2.0
 40
2.0
 40
3.0
 40
3.0
 40
3.0
 40
4.0
 40
4.0
 40
4.0
 40
5.0
 40
5.0
 40
5.0
 40
6.0
 40
6.0
 40
6.0
 40
6.0
 10
107.8251863933486
 20
111.7586267585014
 30
0.0
 10
107.8251863933486
 20
112.724287660058
 30
0.0
 10
107.0424601827397
 20
113.5073583804427
 30
0.0
 10
106.0767992811831
 20
113.5073583804427
 30
0.0
 10
105.1109661247385
 20
113.5073583804427
 30
0.0
 10
104.3280676592417
 20
112.724287660058
 30
0.0
 10
104.3280676592417
 20
111.7586267585014
 30
0.0
 10
104.3280676592417
 20
110.7929658569447
 30
0.0
 10
105.1109661247385
 20
110.0102396463358
 30
0.0
 10
106.0767992811831
 20
110.0102396463358
 30
0.0
 10
107.0424601827397
 20
110.0102396463358
 30
0.0
 10
107.8251863933486
 20
110.7929658569447
 30
0.0
 10
107.8251863933486
 20
111.7586267585014
 30
0.0
 10
107.8251863933486
 20
111.7586267585014
 30
0.0
 10
107.8251863933486
 20
111.7586267585014
 30
0.0
 10
107.8251863933486
 20
111.7586267585014
 30
0.0
 10
107.8251863933486
 20
111.7586267585014
 30
0.0
 10
107.8251863933486
 20
111.7586267585014
 30
0.0
 10
107.8251863933486
 20
111.7586267585014
 30
0.0
  0
ENDBLK
  5
285
330
282
100
AcDbEntity
  8
0
100
AcDbBlockEnd
  0
BLOCK
  5
289
330
287
100
AcDbEntity
  8
0
100
AcDbBlockBegin
  2
block 76
 70
     0
 71
     0
 10
0.0
 20
0.0
 30
0.0
  3
block 76
  1

  0
SPLINE
  5
28B
330
287
100
AcDbEntity
  8
Fina
 62
     7
420
 16777215
370
     9
100
AcDbSpline
210
0.0
220
0.0
230
1.0
 70
    11
 71
     3
 72
    23
 73
    19
 74
     0
 42
0.0000000001
 43
0.0000000001
 40
0.0
 40
0.0
 40
0.0
 40
0.0
 40
1.0
 40
1.0
 40
1.0
 40
2.0
 40
2.0
 40
2.0
 40
3.0
 40
3.0
 40
3.0
 40
4.0
 40
4.0
 40
4.0
 40
5.0
 40
5.0
 40
5.0
 40
6.0
 40
6.0
 40
6.0
 40
6.0
 10
99.3471453207807
 20
115.2705594129675
 30
0.0
 10
99.3471453207807
 20
116.2362203145242
 30
0.0
 10
98.56424685528391
 20
117.0189465251331
 30
0.0
 10
97.59858595372725
 20
117.0189465251331
 30
0.0
 10
96.63292505217059
 20
117.0189465251331
 30
0.0
 10
95.85002658667379
 20
116.2362203145242
 30
0.0
 10
95.85002658667379
 20
115.2705594129675
 30
0.0
 10
95.85002658667379
 20
114.3048985114109
 30
0.0
 10
96.63292505217059
 20
113.5218277910262
 30
0.0
 10
97.59858595372725
 20
113.5218277910262
 30
0.0
 10
98.56424685528391
 20
113.5218277910262
 30
0.0
 10
99.3471453207807
 20
114.3048985114109
 30
0.0
 10
99.3471453207807
 20
115.2705594129675
 30
0.0
 10
99.3471453207807
 20
115.2705594129675
 30
0.0
 10
99.3471453207807
 20
115.2705594129675
 30
0.0
 10
99.3471453207807
 20
115.2705594129675
 30
0.0
 10
99.3471453207807
 20
115.2705594129675
 30
0.0
 10
99.3471453207807
 20
115.2705594129675
 30
0.0
 10
99.3471453207807
 20
115.2705594129675
 30
0.0
  0
ENDBLK
  5
28A
330
287
100
AcDbEntity
  8
0
100
AcDbBlockEnd
  0
BLOCK
  5
28E
330
28C
100
AcDbEntity
  8
0
100
AcDbBlockBegin
  2
block 77
 70
     0
 71
     0
 10
0.0
 20
0.0
 30
0.0
  3
block 77
  1

  0
SPLINE
  5
290
330
28C
100
AcDbEntity
  8
Fina
 62
     7
420
 16777215
370
     9
100
AcDbSpline
210
0.0
220
0.0
230
1.0
 70
    11
 71
     3
 72
    23
 73
    19
 74
     0
 42
0.0000000001
 43
0.0000000001
 40
0.0
 40
0.0
 40
0.0
 40
0.0
 40
1.0
 40
1.0
 40
1.0
 40
2.0
 40
2.0
 40
2.0
 40
3.0
 40
3.0
 40
3.0
 40
4.0
 40
4.0
 40
4.0
 40
5.0
 40
5.0
 40
5.0
 40
6.0
 40
6.0
 40
6.0
 40
6.0
 10
99.3471453207807
 20
124.7624927557036
 30
0.0
 10
99.3471453207807
 20
125.7281536572602
 30
0.0
 10
98.56424685528391
 20
126.5108798678691
 30
0.0
 10
97.59858595372725
 20
126.5108798678691
 30
0.0
 10
96.63292505217059
 20
126.5108798678691
 30
0.0
 10
95.85002658667379
 20
125.7281536572602
 30
0.0
 10
95.85002658667379
 20
124.7624927557036
 30
0.0
 10
95.85002658667379
 20
123.7968318541469
 30
0.0
 10
96.63292505217059
 20
123.0137611337622
 30
0.0
 10
97.59858595372725
 20
123.0137611337622
 30
0.0
 10
98.56424685528391
 20
123.0137611337622
 30
0.0
 10
99.3471453207807
 20
123.7968318541469
 30
0.0
 10
99.3471453207807
 20
124.7624927557036
 30
0.0
 10
99.3471453207807
 20
124.7624927557036
 30
0.0
 10
99.3471453207807
 20
124.7624927557036
 30
0.0
 10
99.3471453207807
 20
124.7624927557036
 30
0.0
 10
99.3471453207807
 20
124.7624927557036
 30
0.0
 10
99.3471453207807
 20
124.7624927557036
 30
0.0
 10
99.3471453207807
 20
124.7624927557036
 30
0.0
  0
ENDBLK
  5
28F
330
28C
100
AcDbEntity
  8
0
100
AcDbBlockEnd
  0
BLOCK
  5
293
330
291
100
AcDbEntity
  8
0
100
AcDbBlockBegin
  2
block 78
 70
     0
 71
     0
 10
0.0
 20
0.0
 30
0.0
  3
block 78
  1

  0
SPLINE
  5
295
330
291
100
AcDbEntity
  8
Fina
 62
     7
420
 16777215
370
     9
100
AcDbSpline
210
0.0
220
0.0
230
1.0
 70
    11
 71
     3
 72
    23
 73
    19
 74
     0
 42
0.0000000001
 43
0.0000000001
 40
0.0
 40
0.0
 40
0.0
 40
0.0
 40
1.0
 40
1.0
 40
1.0
 40
2.0
 40
2.0
 40
2.0
 40
3.0
 40
3.0
 40
3.0
 40
4.0
 40
4.0
 40
4.0
 40
5.0
 40
5.0
 40
5.0
 40
6.0
 40
6.0
 40
6.0
 40
6.0
 10
99.3471453207807
 20
134.2544260984396
 30
0.0
 10
99.3471453207807
 20
135.2200869999963
 30
0.0
 10
98.56424685528391
 20
136.0028132106052
 30
0.0
 10
97.59858595372725
 20
136.0028132106052
 30
0.0
 10
96.63292505217059
 20
136.0028132106052
 30
0.0
 10
95.85002658667379
 20
135.2200869999963
 30
0.0
 10
95.85002658667379
 20
134.2544260984396
 30
0.0
 10
95.85002658667379
 20
133.288765196883
 30
0.0
 10
96.63292505217059
 20
132.5060389862741
 30
0.0
 10
97.59858595372725
 20
132.5060389862741
 30
0.0
 10
98.56424685528391
 20
132.5060389862741
 30
0.0
 10
99.3471453207807
 20
133.288765196883
 30
0.0
 10
99.3471453207807
 20
134.2544260984396
 30
0.0
 10
99.3471453207807
 20
134.2544260984396
 30
0.0
 10
99.3471453207807
 20
134.2544260984396
 30
0.0
 10
99.3471453207807
 20
134.2544260984396
 30
0.0
 10
99.3471453207807
 20
134.2544260984396
 30
0.0
 10
99.3471453207807
 20
134.2544260984396
 30
0.0
 10
99.3471453207807
 20
134.2544260984396
 30
0.0
  0
ENDBLK
  5
294
330
291
100
AcDbEntity
  8
0
100
AcDbBlockEnd
  0
BLOCK
  5
298
330
296
100
AcDbEntity
  8
0
100
AcDbBlockBegin
  2
block 79
 70
     0
 71
     0
 10
0.0
 20
0.0
 30
0.0
  3
block 79
  1

  0
SPLINE
  5
29A
330
296
100
AcDbEntity
  8
Fina
 62
     7
420
 16777215
370
     9
100
AcDbSpline
210
0.0
220
0.0
230
1.0
 70
    11
 71
     3
 72
    23
 73
    19
 74
     0
 42
0.0000000001
 43
0.0000000001
 40
0.0
 40
0.0
 40
0.0
 40
0.0
 40
1.0
 40
1.0
 40
1.0
 40
2.0
 40
2.0
 40
2.0
 40
3.0
 40
3.0
 40
3.0
 40
4.0
 40
4.0
 40
4.0
 40
5.0
 40
5.0
 40
5.0
 40
6.0
 40
6.0
 40
6.0
 40
6.0
 10
120.828707880775
 20
103.2805856859335
 30
0.0
 10
120.828707880775
 20
104.2462465874901
 30
0.0
 10
120.0459816701661
 20
105.0293173078748
 30
0.0
 10
119.0803207686095
 20
105.0293173078748
 30
0.0
 10
118.1146598670528
 20
105.0293173078748
 30
0.0
 10
117.3319336564439
 20
104.2462465874901
 30
0.0
 10
117.3319336564439
 20
103.2805856859335
 30
0.0
 10
117.3319336564439
 20
102.3149247843768
 30
0.0
 10
118.1146598670528
 20
101.5321985737679
 30
0.0
 10
119.0803207686095
 20
101.5321985737679
 30
0.0
 10
120.0459816701661
 20
101.5321985737679
 30
0.0
 10
120.828707880775
 20
102.3149247843768
 30
0.0
 10
120.828707880775
 20
103.2805856859335
 30
0.0
 10
120.828707880775
 20
103.2805856859335
 30
0.0
 10
120.828707880775
 20
103.2805856859335
 30
0.0
 10
120.828707880775
 20
103.2805856859335
 30
0.0
 10
120.828707880775
 20
103.2805856859335
 30
0.0
 10
120.828707880775
 20
103.2805856859335
 30
0.0
 10
120.828707880775
 20
103.2805856859335
 30
0.0
  0
ENDBLK
  5
299
330
296
100
AcDbEntity
  8
0
100
AcDbBlockEnd
  0
BLOCK
  5
29D
330
29B
100
AcDbEntity
  8
0
100
AcDbBlockBegin
  2
block 80
 70
     0
 71
     0
 10
0.0
 20
0.0
 30
0.0
  3
block 80
  1

  0
SPLINE
  5
29F
330
29B
100
AcDbEntity
  8
Fina
 62
     7
420
 16777215
370
     9
100
AcDbSpline
210
0.0
220
0.0
230
1.0
 70
    11
 71
     3
 72
    23
 73
    19
 74
     0
 42
0.0000000001
 43
0.0000000001
 40
0.0
 40
0.0
 40
0.0
 40
0.0
 40
1.0
 40
1.0
 40
1.0
 40
2.0
 40
2.0
 40
2.0
 40
3.0
 40
3.0
 40
3.0
 40
4.0
 40
4.0
 40
4.0
 40
5.0
 40
5.0
 40
5.0
 40
6.0
 40
6.0
 40
6.0
 40
6.0
 10
130.3209857332868
 20
103.2805856859335
 30
0.0
 10
130.3209857332868
 20
104.2462465874901
 30
0.0
 10
129.5379150129022
 20
105.0293173078748
 30
0.0
 10
128.5722541113455
 20
105.0293173078748
 30
0.0
 10
127.6065932097888
 20
105.0293173078748
 30
0.0
 10
126.8238669991799
 20
104.2462465874901
 30
0.0
 10
126.8238669991799
 20
103.2805856859335
 30
0.0
 10
126.8238669991799
 20
102.3149247843768
 30
0.0
 10
127.6065932097888
 20
101.5321985737679
 30
0.0
 10
128.5722541113455
 20
101.5321985737679
 30
0.0
 10
129.5379150129022
 20
101.5321985737679
 30
0.0
 10
130.3209857332868
 20
102.3149247843768
 30
0.0
 10
130.3209857332868
 20
103.2805856859335
 30
0.0
 10
130.3209857332868
 20
103.2805856859335
 30
0.0
 10
130.3209857332868
 20
103.2805856859335
 30
0.0
 10
130.3209857332868
 20
103.2805856859335
 30
0.0
 10
130.3209857332868
 20
103.2805856859335
 30
0.0
 10
130.3209857332868
 20
103.2805856859335
 30
0.0
 10
130.3209857332868
 20
103.2805856859335
 30
0.0
  0
ENDBLK
  5
29E
330
29B
100
AcDbEntity
  8
0
100
AcDbBlockEnd
  0
BLOCK
  5
2A2
330
2A0
100
AcDbEntity
  8
0
100
AcDbBlockBegin
  2
block 81
 70
     0
 71
     0
 10
0.0
 20
0.0
 30
0.0
  3
block 81
  1

  0
SPLINE
  5
2A4
330
2A0
100
AcDbEntity
  8
Fina
 62
     7
420
 16777215
370
     9
100
AcDbSpline
210
0.0
220
0.0
230
1.0
 70
    11
 71
     3
 72
    23
 73
    19
 74
     0
 42
0.0000000001
 43
0.0000000001
 40
0.0
 40
0.0
 40
0.0
 40
0.0
 40
1.0
 40
1.0
 40
1.0
 40
2.0
 40
2.0
 40
2.0
 40
3.0
 40
3.0
 40
3.0
 40
4.0
 40
4.0
 40
4.0
 40
5.0
 40
5.0
 40
5.0
 40
6.0
 40
6.0
 40
6.0
 40
6.0
 10
114.5369258454096
 20
118.4707107203381
 30
0.0
 10
114.5369258454096
 20
119.4363716218948
 30
0.0
 10
113.7541996348007
 20
120.2190978325037
 30
0.0
 10
112.788538733244
 20
120.2190978325037
 30
0.0
 10
111.8228778316874
 20
120.2190978325037
 30
0.0
 10
111.0398071113027
 20
119.4363716218948
 30
0.0
 10
111.0398071113027
 20
118.4707107203381
 30
0.0
 10
111.0398071113027
 20
117.5047053090057
 30
0.0
 10
111.8228778316874
 20
116.7219790983968
 30
0.0
 10
112.788538733244
 20
116.7219790983968
 30
0.0
 10
113.7541996348007
 20
116.7219790983968
 30
0.0
 10
114.5369258454096
 20
117.5047053090057
 30
0.0
 10
114.5369258454096
 20
118.4707107203381
 30
0.0
 10
114.5369258454096
 20
118.4707107203381
 30
0.0
 10
114.5369258454096
 20
118.4707107203381
 30
0.0
 10
114.5369258454096
 20
118.4707107203381
 30
0.0
 10
114.5369258454096
 20
118.4707107203381
 30
0.0
 10
114.5369258454096
 20
118.4707107203381
 30
0.0
 10
114.5369258454096
 20
118.4707107203381
 30
0.0
  0
ENDBLK
  5
2A3
330
2A0
100
AcDbEntity
  8
0
100
AcDbBlockEnd
  0
BLOCK
  5
2A7
330
2A5
100
AcDbEntity
  8
0
100
AcDbBlockBegin
  2
block 82
 70
     0
 71
     0
 10
0.0
 20
0.0
 30
0.0
  3
block 82
  1

  0
SPLINE
  5
2A9
330
2A5
100
AcDbEntity
  8
Fina
 62
     7
420
 16777215
370
     9
100
AcDbSpline
210
0.0
220
0.0
230
1.0
 70
    11
 71
     3
 72
    23
 73
    19
 74
     0
 42
0.0000000001
 43
0.0000000001
 40
0.0
 40
0.0
 40
0.0
 40
0.0
 40
1.0
 40
1.0
 40
1.0
 40
2.0
 40
2.0
 40
2.0
 40
3.0
 40
3.0
 40
3.0
 40
4.0
 40
4.0
 40
4.0
 40
5.0
 40
5.0
 40
5.0
 40
6.0
 40
6.0
 40
6.0
 40
6.0
 10
121.2486652974705
 20
125.1824501723991
 30
0.0
 10
121.2486652974705
 20
126.1481110739558
 30
0.0
 10
120.4659390868617
 20
126.9308372845647
 30
0.0
 10
119.500278185305
 20
126.9308372845647
 30
0.0
 10
118.5346172837483
 20
126.9308372845647
 30
0.0
 10
117.7518910731394
 20
126.1481110739558
 30
0.0
 10
117.7518910731394
 20
125.1824501723991
 30
0.0
 10
117.7518910731394
 20
124.2167892708424
 30
0.0
 10
118.5346172837483
 20
123.4337185504577
 30
0.0
 10
119.500278185305
 20
123.4337185504577
 30
0.0
 10
120.4659390868617
 20
123.4337185504577
 30
0.0
 10
121.2486652974705
 20
124.2167892708424
 30
0.0
 10
121.2486652974705
 20
125.1824501723991
 30
0.0
 10
121.2486652974705
 20
125.1824501723991
 30
0.0
 10
121.2486652974705
 20
125.1824501723991
 30
0.0
 10
121.2486652974705
 20
125.1824501723991
 30
0.0
 10
121.2486652974705
 20
125.1824501723991
 30
0.0
 10
121.2486652974705
 20
125.1824501723991
 30
0.0
 10
121.2486652974705
 20
125.1824501723991
 30
0.0
  0
ENDBLK
  5
2A8
330
2A5
100
AcDbEntity
  8
0
100
AcDbBlockEnd
  0
BLOCK
  5
2AC
330
2AA
100
AcDbEntity
  8
0
100
AcDbBlockBegin
  2
block 83
 70
     0
 71
     0
 10
0.0
 20
0.0
 30
0.0
  3
block 83
  1

  0
SPLINE
  5
2AE
330
2AA
100
AcDbEntity
  8
Fina
 62
     7
420
 16777215
370
     9
100
AcDbSpline
210
0.0
220
0.0
230
1.0
 70
    11
 71
     3
 72
    23
 73
    19
 74
     0
 42
0.0000000001
 43
0.0000000001
 40
0.0
 40
0.0
 40
0.0
 40
0.0
 40
1.0
 40
1.0
 40
1.0
 40
2.0
 40
2.0
 40
2.0
 40
3.0
 40
3.0
 40
3.0
 40
4.0
 40
4.0
 40
4.0
 40
5.0
 40
5.0
 40
5.0
 40
6.0
 40
6.0
 40
6.0
 40
6.0
 10
127.9607492593073
 20
131.8941896244601
 30
0.0
 10
127.9607492593073
 20
132.8598505260167
 30
0.0
 10
127.1776785389226
 20
133.6425767366256
 30
0.0
 10
126.2120176373659
 20
133.6425767366256
 30
0.0
 10
125.2463567358093
 20
133.6425767366256
 30
0.0
 10
124.4636305252004
 20
132.8598505260167
 30
0.0
 10
124.4636305252004
 20
131.8941896244601
 30
0.0
 10
124.4636305252004
 20
130.9285287229034
 30
0.0
 10
125.2463567358093
 20
130.1458025122945
 30
0.0
 10
126.2120176373659
 20
130.1458025122945
 30
0.0
 10
127.1776785389226
 20
130.1458025122945
 30
0.0
 10
127.9607492593073
 20
130.9285287229034
 30
0.0
 10
127.9607492593073
 20
131.8941896244601
 30
0.0
 10
127.9607492593073
 20
131.8941896244601
 30
0.0
 10
127.9607492593073
 20
131.8941896244601
 30
0.0
 10
127.9607492593073
 20
131.8941896244601
 30
0.0
 10
127.9607492593073
 20
131.8941896244601
 30
0.0
 10
127.9607492593073
 20
131.8941896244601
 30
0.0
 10
127.9607492593073
 20
131.8941896244601
 30
0.0
  0
ENDBLK
  5
2AD
330
2AA
100
AcDbEntity
  8
0
100
AcDbBlockEnd
  0
BLOCK
  5
2B1
330
2AF
100
AcDbEntity
  8
0
100
AcDbBlockBegin
  2
block 84
 70
     0
 71
     0
 10
0.0
 20
0.0
 30
0.0
  3
block 84
  1

  0
SPLINE
  5
2B3
330
2AF
100
AcDbEntity
  8
Fina
 62
     7
420
 16777215
370
     9
100
AcDbSpline
210
0.0
220
0.0
230
1.0
 70
    11
 71
     3
 72
    23
 73
    19
 74
     0
 42
0.0000000001
 43
0.0000000001
 40
0.0
 40
0.0
 40
0.0
 40
0.0
 40
1.0
 40
1.0
 40
1.0
 40
2.0
 40
2.0
 40
2.0
 40
3.0
 40
3.0
 40
3.0
 40
4.0
 40
4.0
 40
4.0
 40
5.0
 40
5.0
 40
5.0
 40
6.0
 40
6.0
 40
6.0
 40
6.0
 10
109.6707252622887
 20
128.2041454159073
 30
0.0
 10
109.6707252622887
 20
129.169806317464
 30
0.0
 10
108.8879990516798
 20
129.9528770378487
 30
0.0
 10
107.9223381501231
 20
129.9528770378487
 30
0.0
 10
106.9566772485665
 20
129.9528770378487
 30
0.0
 10
106.1736065281818
 20
129.169806317464
 30
0.0
 10
106.1736065281818
 20
128.2041454159073
 30
0.0
 10
106.1736065281818
 20
127.2384845143506
 30
0.0
 10
106.9566772485665
 20
126.4557583037417
 30
0.0
 10
107.9223381501231
 20
126.4557583037417
 30
0.0
 10
108.8879990516798
 20
126.4557583037417
 30
0.0
 10
109.6707252622887
 20
127.2384845143506
 30
0.0
 10
109.6707252622887
 20
128.2041454159073
 30
0.0
 10
109.6707252622887
 20
128.2041454159073
 30
0.0
 10
109.6707252622887
 20
128.2041454159073
 30
0.0
 10
109.6707252622887
 20
128.2041454159073
 30
0.0
 10
109.6707252622887
 20
128.2041454159073
 30
0.0
 10
109.6707252622887
 20
128.2041454159073
 30
0.0
 10
109.6707252622887
 20
128.2041454159073
 30
0.0
  0
ENDBLK
  5
2B2
330
2AF
100
AcDbEntity
  8
0
100
AcDbBlockEnd
  0
BLOCK
  5
2B6
330
2B4
100
AcDbEntity
  8
0
100
AcDbBlockBegin
  2
block 85
 70
     0
 71
     0
 10
0.0
 20
0.0
 30
0.0
  3
block 85
  1

  0
SPLINE
  5
2B8
330
2B4
100
AcDbEntity
  8
Fina
 62
     7
420
 16777215
370
     9
100
AcDbSpline
210
0.0
220
0.0
230
1.0
 70
    11
 71
     3
 72
    23
 73
    19
 74
     0
 42
0.0000000001
 43
0.0000000001
 40
0.0
 40
0.0
 40
0.0
 40
0.0
 40
1.0
 40
1.0
 40
1.0
 40
2.0
 40
2.0
 40
2.0
 40
3.0
 40
3.0
 40
3.0
 40
4.0
 40
4.0
 40
4.0
 40
5.0
 40
5.0
 40
5.0
 40
6.0
 40
6.0
 40
6.0
 40
6.0
 10
124.2707050507545
 20
113.6041656274415
 30
0.0
 10
124.2707050507545
 20
114.5701710387739
 30
0.0
 10
123.4879788401456
 20
115.3528972493828
 30
0.0
 10
122.522317938589
 20
115.3528972493828
 30
0.0
 10
121.5566570370323
 20
115.3528972493828
 30
0.0
 10
120.7735863166476
 20
114.5701710387739
 30
0.0
 10
120.7735863166476
 20
113.6041656274415
 30
0.0
 10
120.7735863166476
 20
112.6385047258848
 30
0.0
 10
121.5566570370323
 20
111.8557785152759
 30
0.0
 10
122.522317938589
 20
111.8557785152759
 30
0.0
 10
123.4879788401456
 20
111.8557785152759
 30
0.0
 10
124.2707050507545
 20
112.6385047258848
 30
0.0
 10
124.2707050507545
 20
113.6041656274415
 30
0.0
 10
124.2707050507545
 20
113.6041656274415
 30
0.0
 10
124.2707050507545
 20
113.6041656274415
 30
0.0
 10
124.2707050507545
 20
113.6041656274415
 30
0.0
 10
124.2707050507545
 20
113.6041656274415
 30
0.0
 10
124.2707050507545
 20
113.6041656274415
 30
0.0
 10
124.2707050507545
 20
113.6041656274415
 30
0.0
  0
ENDBLK
  5
2B7
330
2B4
100
AcDbEntity
  8
0
100
AcDbBlockEnd
  0
BLOCK
  5
2BB
330
2B9
100
AcDbEntity
  8
0
100
AcDbBlockBegin
  2
block 86
 70
     0
 71
     0
 10
0.0
 20
0.0
 30
0.0
  3
block 86
  1

  0
SPLINE
  5
2BD
330
2B9
100
AcDbEntity
  8
Fina
 62
     7
420
 16777215
370
     9
100
AcDbSpline
210
0.0
220
0.0
230
1.0
 70
    11
 71
     3
 72
    23
 73
    19
 74
     0
 42
0.0000000001
 43
0.0000000001
 40
0.0
 40
0.0
 40
0.0
 40
0.0
 40
1.0
 40
1.0
 40
1.0
 40
2.0
 40
2.0
 40
2.0
 40
3.0
 40
3.0
 40
3.0
 40
4.0
 40
4.0
 40
4.0
 40
5.0
 40
5.0
 40
5.0
 40
6.0
 40
6.0
 40
6.0
 40
6.0
 10
113.3032363382835
 20
136.9736417587988
 30
0.0
 10
113.3032363382835
 20
137.9393026603554
 30
0.0
 10
112.5205101276746
 20
138.7223733807401
 30
0.0
 10
111.5545047163422
 20
138.7223733807401
 30
0.0
 10
110.5888438147855
 20
138.7223733807401
 30
0.0
 10
109.8061176041766
 20
137.9393026603554
 30
0.0
 10
109.8061176041766
 20
136.9736417587988
 30
0.0
 10
109.8061176041766
 20
136.0079808572421
 30
0.0
 10
110.5888438147855
 20
135.2252546466332
 30
0.0
 10
111.5545047163422
 20
135.2252546466332
 30
0.0
 10
112.5205101276746
 20
135.2252546466332
 30
0.0
 10
113.3032363382835
 20
136.0079808572421
 30
0.0
 10
113.3032363382835
 20
136.9736417587988
 30
0.0
 10
113.3032363382835
 20
136.9736417587988
 30
0.0
 10
113.3032363382835
 20
136.9736417587988
 30
0.0
 10
113.3032363382835
 20
136.9736417587988
 30
0.0
 10
113.3032363382835
 20
136.9736417587988
 30
0.0
 10
113.3032363382835
 20
136.9736417587988
 30
0.0
 10
113.3032363382835
 20
136.9736417587988
 30
0.0
  0
ENDBLK
  5
2BC
330
2B9
100
AcDbEntity
  8
0
100
AcDbBlockEnd
  0
BLOCK
  5
2C0
330
2BE
100
AcDbEntity
  8
0
100
AcDbBlockBegin
  2
block 87
 70
     0
 71
     0
 10
0.0
 20
0.0
 30
0.0
  3
block 87
  1

  0
SPLINE
  5
2C2
330
2BE
100
AcDbEntity
  8
Fina
 62
     7
420
 16777215
370
     9
100
AcDbSpline
210
0.0
220
0.0
230
1.0
 70
    11
 71
     3
 72
    23
 73
    19
 74
     0
 42
0.0000000001
 43
0.0000000001
 40
0.0
 40
0.0
 40
0.0
 40
0.0
 40
1.0
 40
1.0
 40
1.0
 40
2.0
 40
2.0
 40
2.0
 40
3.0
 40
3.0
 40
3.0
 40
4.0
 40
4.0
 40
4.0
 40
5.0
 40
5.0
 40
5.0
 40
6.0
 40
6.0
 40
6.0
 40
6.0
 10
133.040201393646
 20
117.2366767034363
 30
0.0
 10
133.040201393646
 20
118.2023376049929
 30
0.0
 10
132.2571306732613
 20
118.9854083253776
 30
0.0
 10
131.2914697717047
 20
118.9854083253776
 30
0.0
 10
130.325808870148
 20
118.9854083253776
 30
0.0
 10
129.5430826595391
 20
118.2023376049929
 30
0.0
 10
129.5430826595391
 20
117.2366767034363
 30
0.0
 10
129.5430826595391
 20
116.2710158018796
 30
0.0
 10
130.325808870148
 20
115.4882895912707
 30
0.0
 10
131.2914697717047
 20
115.4882895912707
 30
0.0
 10
132.2571306732613
 20
115.4882895912707
 30
0.0
 10
133.040201393646
 20
116.2710158018796
 30
0.0
 10
133.040201393646
 20
117.2366767034363
 30
0.0
 10
133.040201393646
 20
117.2366767034363
 30
0.0
 10
133.040201393646
 20
117.2366767034363
 30
0.0
 10
133.040201393646
 20
117.2366767034363
 30
0.0
 10
133.040201393646
 20
117.2366767034363
 30
0.0
 10
133.040201393646
 20
117.2366767034363
 30
0.0
 10
133.040201393646
 20
117.2366767034363
 30
0.0
  0
ENDBLK
  5
2C1
330
2BE
100
AcDbEntity
  8
0
100
AcDbBlockEnd
  0
BLOCK
  5
2C5
330
2C3
100
AcDbEntity
  8
0
100
AcDbBlockBegin
  2
block 88
 70
     0
 71
     0
 10
0.0
 20
0.0
 30
0.0
  3
block 88
  1

  0
SPLINE
  5
2C7
330
2C3
100
AcDbEntity
  8
Fina
 62
     7
420
 16777215
370
     9
100
AcDbSpline
210
0.0
220
0.0
230
1.0
 70
    11
 71
     3
 72
    23
 73
    19
 74
     0
 42
0.0000000001
 43
0.0000000001
 40
0.0
 40
0.0
 40
0.0
 40
0.0
 40
1.0
 40
1.0
 40
1.0
 40
2.0
 40
2.0
 40
2.0
 40
3.0
 40
3.0
 40
3.0
 40
4.0
 40
4.0
 40
4.0
 40
5.0
 40
5.0
 40
5.0
 40
6.0
 40
6.0
 40
6.0
 40
6.0
 10
102.094783037643
 20
103.2805856859335
 30
0.0
 10
102.094783037643
 20
105.7638121498722
 30
0.0
 10
100.0816401627781
 20
107.7767827698493
 30
0.0
 10
97.59858595372725
 20
107.7767827698493
 30
0.0
 10
95.11535948978846
 20
107.7767827698493
 30
0.0
 10
93.10238886981145
 20
105.7638121498722
 30
0.0
 10
93.10238886981145
 20
103.2805856859335
 30
0.0
 10
93.10238886981145
 20
100.7973592219947
 30
0.0
 10
95.11535948978846
 20
98.78438860201766
 30
0.0
 10
97.59858595372725
 20
98.78438860201766
 30
0.0
 10
100.0816401627781
 20
98.78438860201766
 30
0.0
 10
102.094783037643
 20
100.7973592219947
 30
0.0
 10
102.094783037643
 20
103.2805856859335
 30
0.0
 10
102.094783037643
 20
103.2805856859335
 30
0.0
 10
102.094783037643
 20
103.2805856859335
 30
0.0
 10
102.094783037643
 20
103.2805856859335
 30
0.0
 10
102.094783037643
 20
103.2805856859335
 30
0.0
 10
102.094783037643
 20
103.2805856859335
 30
0.0
 10
102.094783037643
 20
103.2805856859335
 30
0.0
  0
ENDBLK
  5
2C6
330
2C3
100
AcDbEntity
  8
0
100
AcDbBlockEnd
  0
BLOCK
  5
2CA
330
2C8
100
AcDbEntity
  8
0
100
AcDbBlockBegin
  2
block 89
 70
     0
 71
     0
 10
0.0
 20
0.0
 30
0.0
  3
block 89
  1

  0
POLYLINE
  5
2CC
330
2C8
100
AcDbEntity
  8
Fina
 62
     7
420
 16777215
370
     9
100
AcDb2dPolyline
 66
     1
 10
0.0
 20
0.0
 30
0.0
  0
VERTEX
  5
2CD
330
2CC
100
AcDbEntity
  8
Fina
 62
     7
420
 16777215
370
     9
100
AcDbVertex
100
AcDb2dVertex
 10
98.88946408363549
 20
194.1836241470622
 30
0.0
  0
VERTEX
  5
2CE
330
2CC
100
AcDbEntity
  8
Fina
 62
     7
420
 16777215
370
     9
100
AcDbVertex
100
AcDb2dVertex
 10
89.31364261049308
 20
194.1836241470622
 30
0.0
  0
SEQEND
  5
2CF
330
2CC
100
AcDbEntity
  8
Fina
370
     9
  0
ENDBLK
  5
2CB
330
2C8
100
AcDbEntity
  8
0
100
AcDbBlockEnd
  0
BLOCK
  5
2D2
330
2D0
100
AcDbEntity
  8
0
100
AcDbBlockBegin
  2
block 90
 70
     0
 71
     0
 10
0.0
 20
0.0
 30
0.0
  3
block 90
  1

  0
POLYLINE
  5
2D4
330
2D0
100
AcDbEntity
  8
Fina
 62
     7
420
 16777215
370
     9
100
AcDb2dPolyline
 66
     1
 10
0.0
 20
0.0
 30
0.0
  0
VERTEX
  5
2D5
330
2D4
100
AcDbEntity
  8
Fina
 62
     7
420
 16777215
370
     9
100
AcDbVertex
100
AcDb2dVertex
 10
97.19895461380369
 20
193.0846379622724
 30
0.0
  0
VERTEX
  5
2D6
330
2D4
100
AcDbEntity
  8
Fina
 62
     7
420
 16777215
370
     9
100
AcDbVertex
100
AcDb2dVertex
 10
94.10146721962033
 20
193.0846379622724
 30
0.0
  0
SEQEND
  5
2D7
330
2D4
100
AcDbEntity
  8
Fina
370
     9
  0
ENDBLK
  5
2D3
330
2D0
100
AcDbEntity
  8
0
100
AcDbBlockEnd
  0
BLOCK
  5
2DB
330
2D9
100
AcDbEntity
  8
0
100
AcDbBlockBegin
  2
block 91
 70
     0
 71
     0
 10
0.0
 20
0.0
 30
0.0
  3
block 91
  1

  0
INSERT
  5
2DE
330
2D9
100
AcDbEntity
  8
COTAS
100
AcDbBlockReference
  2
block 92
 10
0.0
 20
0.0
 30
0.0
  0
INSERT
  5
2E6
330
2D9
100
AcDbEntity
  8
COTAS
100
AcDbBlockReference
  2
block 93
 10
0.0
 20
0.0
 30
0.0
  0
INSERT
  5
2EE
330
2D9
100
AcDbEntity
  8
COTAS
100
AcDbBlockReference
  2
block 94
 10
0.0
 20
0.0
 30
0.0
  0
INSERT
  5
2F6
330
2D9
100
AcDbEntity
  8
COTAS
100
AcDbBlockReference
  2
block 95
 10
0.0
 20
0.0
 30
0.0
  0
INSERT
  5
2FE
330
2D9
100
AcDbEntity
  8
COTAS
100
AcDbBlockReference
  2
block 96
 10
0.0
 20
0.0
 30
0.0
  0
INSERT
  5
309
330
2D9
100
AcDbEntity
  8
COTAS
100
AcDbBlockReference
  2
block 97
 10
0.0
 20
0.0
 30
0.0
  0
INSERT
  5
314
330
2D9
100
AcDbEntity
  8
COTAS
100
AcDbBlockReference
  2
block 98
 10
0.0
 20
0.0
 30
0.0
  0
INSERT
  5
319
330
2D9
100
AcDbEntity
  8
COTAS
100
AcDbBlockReference
  2
block 99
 10
0.0
 20
0.0
 30
0.0
  0
INSERT
  5
321
330
2D9
100
AcDbEntity
  8
COTAS
100
AcDbBlockReference
  2
block 100
 10
0.0
 20
0.0
 30
0.0
  0
INSERT
  5
329
330
2D9
100
AcDbEntity
  8
COTAS
100
AcDbBlockReference
  2
block 101
 10
0.0
 20
0.0
 30
0.0
  0
ENDBLK
  5
2DC
330
2D9
100
AcDbEntity
  8
0
100
AcDbBlockEnd
  0
BLOCK
  5
2DF
330
2DD
100
AcDbEntity
  8
0
100
AcDbBlockBegin
  2
block 92
 70
     0
 71
     0
 10
0.0
 20
0.0
 30
0.0
  3
block 92
  1

  0
POLYLINE
  5
2E1
330
2DD
100
AcDbEntity
  8
COTAS
 62
     7
420
 16777215
370
     9
100
AcDb2dPolyline
 66
     1
 10
0.0
 20
0.0
 30
0.0
  0
VERTEX
  5
2E2
330
2E1
100
AcDbEntity
  8
COTAS
 62
     7
420
 16777215
370
     9
100
AcDbVertex
100
AcDb2dVertex
 10
77.61546866355837
 20
154.2373711337206
 30
0.0
  0
VERTEX
  5
2E3
330
2E1
100
AcDbEntity
  8
COTAS
 62
     7
420
 16777215
370
     9
100
AcDbVertex
100
AcDb2dVertex
 10
61.93613974752314
 20
154.2373711337206
 30
0.0
  0
SEQEND
  5
2E4
330
2E1
100
AcDbEntity
  8
COTAS
370
     9
  0
ENDBLK
  5
2E0
330
2DD
100
AcDbEntity
  8
0
100
AcDbBlockEnd
  0
BLOCK
  5
2E7
330
2E5
100
AcDbEntity
  8
0
100
AcDbBlockBegin
  2
block 93
 70
     0
 71
     0
 10
0.0
 20
0.0
 30
0.0
  3
block 93
  1

  0
POLYLINE
  5
2E9
330
2E5
100
AcDbEntity
  8
COTAS
 62
     7
420
 16777215
370
     9
100
AcDb2dPolyline
 66
     1
 10
0.0
 20
0.0
 30
0.0
  0
VERTEX
  5
2EA
330
2E9
100
AcDbEntity
  8
COTAS
 62
     7
420
 16777215
370
     9
100
AcDbVertex
100
AcDb2dVertex
 10
77.61546866355837
 20
84.29671900046137
 30
0.0
  0
VERTEX
  5
2EB
330
2E9
100
AcDbEntity
  8
COTAS
 62
     7
420
 16777215
370
     9
100
AcDbVertex
100
AcDb2dVertex
 10
61.93613974752314
 20
84.29671900046137
 30
0.0
  0
SEQEND
  5
2EC
330
2E9
100
AcDbEntity
  8
COTAS
370
     9
  0
ENDBLK
  5
2E8
330
2E5
100
AcDbEntity
  8
0
100
AcDbBlockEnd
  0
BLOCK
  5
2EF
330
2ED
100
AcDbEntity
  8
0
100
AcDbBlockBegin
  2
block 94
 70
     0
 71
     0
 10
0.0
 20
0.0
 30
0.0
  3
block 94
  1

  0
POLYLINE
  5
2F1
330
2ED
100
AcDbEntity
  8
COTAS
 62
     7
420
 16777215
370
     9
100
AcDb2dPolyline
 66
     1
 10
0.0
 20
0.0
 30
0.0
  0
VERTEX
  5
2F2
330
2F1
100
AcDbEntity
  8
COTAS
 62
     7
420
 16777215
370
     9
100
AcDbVertex
100
AcDb2dVertex
 10
62.93539035221992
 20
152.4390301040646
 30
0.0
  0
VERTEX
  5
2F3
330
2F1
100
AcDbEntity
  8
COTAS
 62
     7
420
 16777215
370
     9
100
AcDbVertex
100
AcDb2dVertex
 10
62.93539035221992
 20
121.2653740215967
 30
0.0
  0
SEQEND
  5
2F4
330
2F1
100
AcDbEntity
  8
COTAS
370
     9
  0
ENDBLK
  5
2F0
330
2ED
100
AcDbEntity
  8
0
100
AcDbBlockEnd
  0
BLOCK
  5
2F7
330
2F5
100
AcDbEntity
  8
0
100
AcDbBlockBegin
  2
block 95
 70
     0
 71
     0
 10
0.0
 20
0.0
 30
0.0
  3
block 95
  1

  0
POLYLINE
  5
2F9
330
2F5
100
AcDbEntity
  8
COTAS
 62
     7
420
 16777215
370
     9
100
AcDb2dPolyline
 66
     1
 10
0.0
 20
0.0
 30
0.0
  0
VERTEX
  5
2FA
330
2F9
100
AcDbEntity
  8
COTAS
 62
     7
420
 16777215
370
     9
100
AcDbVertex
100
AcDb2dVertex
 10
62.93539035221992
 20
86.09506003011737
 30
0.0
  0
VERTEX
  5
2FB
330
2F9
100
AcDbEntity
  8
COTAS
 62
     7
420
 16777215
370
     9
100
AcDbVertex
100
AcDb2dVertex
 10
62.93539035221992
 20
117.2687161125853
 30
0.0
  0
SEQEND
  5
2FC
330
2F9
100
AcDbEntity
  8
COTAS
370
     9
  0
ENDBLK
  5
2F8
330
2F5
100
AcDbEntity
  8
0
100
AcDbBlockEnd
  0
BLOCK
  5
2FF
330
2FD
100
AcDbEntity
  8
0
100
AcDbBlockBegin
  2
block 96
 70
     0
 71
     0
 10
0.0
 20
0.0
 30
0.0
  3
block 96
  1

  0
POLYLINE
  5
301
330
2FD
100
AcDbEntity
  8
COTAS
370
     0
100
AcDb2dPolyline
 66
     1
 10
0.0
 20
0.0
 30
0.0
  0
VERTEX
  5
302
330
301
100
AcDbEntity
  8
COTAS
370
     0
100
AcDbVertex
100
AcDb2dVertex
 10
62.63549459238936
 20
152.4390301040646
 30
0.0
  0
VERTEX
  5
303
330
301
100
AcDbEntity
  8
COTAS
370
     0
100
AcDbVertex
100
AcDb2dVertex
 10
63.23511385716259
 20
152.4390301040646
 30
0.0
  0
VERTEX
  5
304
330
301
100
AcDbEntity
  8
COTAS
370
     0
100
AcDbVertex
100
AcDb2dVertex
 10
62.93539035221992
 20
154.2373711337206
 30
0.0
  0
VERTEX
  5
305
330
301
100
AcDbEntity
  8
COTAS
370
     0
100
AcDbVertex
100
AcDb2dVertex
 10
62.63549459238936
 20
152.4390301040646
 30
0.0
  0
SEQEND
  5
306
330
301
100
AcDbEntity
  8
COTAS
370
     0
  0
HATCH
  5
307
330
2FD
100
AcDbEntity
  8
COTAS
 62
     7
420
 16777215
100
AcDbHatch
 10
0.0
 20
0.0
 30
0.0
210
0.0
220
0.0
230
1.0
  2
SOLID
 70
     1
 71
     0
 91
        1
 92
        1
 93
        3
 72
     1
 10
62.63549459238936
 20
152.4390301040646
 11
63.23511385716259
 21
152.4390301040646
 72
     1
 10
63.23511385716259
 20
152.4390301040646
 11
62.93539035221992
 21
154.2373711337206
 72
     1
 10
62.93539035221992
 20
154.2373711337206
 11
62.63549459238936
 21
152.4390301040646
 97
        0
 75
     2
 76
     1
 98
        0
  0
ENDBLK
  5
300
330
2FD
100
AcDbEntity
  8
0
100
AcDbBlockEnd
  0
BLOCK
  5
30A
330
308
100
AcDbEntity
  8
0
100
AcDbBlockBegin
  2
block 97
 70
     0
 71
     0
 10
0.0
 20
0.0
 30
0.0
  3
block 97
  1

  0
POLYLINE
  5
30C
330
308
100
AcDbEntity
  8
COTAS
370
     0
100
AcDb2dPolyline
 66
     1
 10
0.0
 20
0.0
 30
0.0
  0
VERTEX
  5
30D
330
30C
100
AcDbEntity
  8
COTAS
370
     0
100
AcDbVertex
100
AcDb2dVertex
 10
62.63549459238936
 20
86.09506003011737
 30
0.0
  0
VERTEX
  5
30E
330
30C
100
AcDbEntity
  8
COTAS
370
     0
100
AcDbVertex
100
AcDb2dVertex
 10
63.23511385716259
 20
86.09506003011737
 30
0.0
  0
VERTEX
  5
30F
330
30C
100
AcDbEntity
  8
COTAS
370
     0
100
AcDbVertex
100
AcDb2dVertex
 10
62.93539035221992
 20
84.29671900046137
 30
0.0
  0
VERTEX
  5
310
330
30C
100
AcDbEntity
  8
COTAS
370
     0
100
AcDbVertex
100
AcDb2dVertex
 10
62.63549459238936
 20
86.09506003011737
 30
0.0
  0
SEQEND
  5
311
330
30C
100
AcDbEntity
  8
COTAS
370
     0
  0
HATCH
  5
312
330
308
100
AcDbEntity
  8
COTAS
 62
     7
420
 16777215
100
AcDbHatch
 10
0.0
 20
0.0
 30
0.0
210
0.0
220
0.0
230
1.0
  2
SOLID
 70
     1
 71
     0
 91
        1
 92
        1
 93
        3
 72
     1
 10
62.63549459238936
 20
86.09506003011737
 11
63.23511385716259
 21
86.09506003011737
 72
     1
 10
63.23511385716259
 20
86.09506003011737
 11
62.93539035221992
 21
84.29671900046137
 72
     1
 10
62.93539035221992
 20
84.29671900046137
 11
62.63549459238936
 21
86.09506003011737
 97
        0
 75
     2
 76
     1
 98
        0
  0
ENDBLK
  5
30B
330
308
100
AcDbEntity
  8
0
100
AcDbBlockEnd
  0
BLOCK
  5
315
330
313
100
AcDbEntity
  8
0
100
AcDbBlockBegin
  2
block 98
 70
     0
 71
     0
 10
0.0
 20
0.0
 30
0.0
  3
block 98
  1

  0
MTEXT
  5
317
330
313
100
AcDbEntity
  8
COTAS
 62
     7
420
 16777215
100
AcDbMText
 10
60.08061009508497
 20
118.2677944623942
 30
0.0
 40
2.398890470823883
 41
0.0
 71
     7
 72
     1
  1
\fArial|b1|i0|c0|p34;\W1;700
 73
     1
 44
1.0
  0
ENDBLK
  5
316
330
313
100
AcDbEntity
  8
0
100
AcDbBlockEnd
  0
BLOCK
  5
31A
330
318
100
AcDbEntity
  8
0
100
AcDbBlockBegin
  2
block 99
 70
     0
 71
     0
 10
0.0
 20
0.0
 30
0.0
  3
block 99
  1

  0
POLYLINE
  5
31C
330
318
100
AcDbEntity
  8
COTAS
 62
     7
420
 16777215
370
     9
100
AcDb2dPolyline
 66
     1
 10
0.0
 20
0.0
 30
0.0
  0
VERTEX
  5
31D
330
31C
100
AcDbEntity
  8
COTAS
 62
     7
420
 16777215
370
     9
100
AcDbVertex
100
AcDb2dVertex
 10
78.61454701336726
 20
154.2373711337206
 30
0.0
  0
VERTEX
  5
31E
330
31C
100
AcDbEntity
  8
COTAS
 62
     7
420
 16777215
370
     9
100
AcDbVertex
100
AcDb2dVertex
 10
78.61454701336726
 20
154.2373711337206
 30
0.0
  0
SEQEND
  5
31F
330
31C
100
AcDbEntity
  8
COTAS
370
     9
  0
ENDBLK
  5
31B
330
318
100
AcDbEntity
  8
0
100
AcDbBlockEnd
  0
BLOCK
  5
322
330
320
100
AcDbEntity
  8
0
100
AcDbBlockBegin
  2
block 100
 70
     0
 71
     0
 10
0.0
 20
0.0
 30
0.0
  3
block 100
  1

  0
POLYLINE
  5
324
330
320
100
AcDbEntity
  8
COTAS
 62
     7
420
 16777215
370
     9
100
AcDb2dPolyline
 66
     1
 10
0.0
 20
0.0
 30
0.0
  0
VERTEX
  5
325
330
324
100
AcDbEntity
  8
COTAS
 62
     7
420
 16777215
370
     9
100
AcDbVertex
100
AcDb2dVertex
 10
78.61454701336726
 20
84.29671900046137
 30
0.0
  0
VERTEX
  5
326
330
324
100
AcDbEntity
  8
COTAS
 62
     7
420
 16777215
370
     9
100
AcDbVertex
100
AcDb2dVertex
 10
78.61454701336726
 20
84.29671900046137
 30
0.0
  0
SEQEND
  5
327
330
324
100
AcDbEntity
  8
COTAS
370
     9
  0
ENDBLK
  5
323
330
320
100
AcDbEntity
  8
0
100
AcDbBlockEnd
  0
BLOCK
  5
32A
330
328
100
AcDbEntity
  8
0
100
AcDbBlockBegin
  2
block 101
 70
     0
 71
     0
 10
0.0
 20
0.0
 30
0.0
  3
block 101
  1

  0
POLYLINE
  5
32C
330
328
100
AcDbEntity
  8
COTAS
 62
     7
420
 16777215
370
     9
100
AcDb2dPolyline
 66
     1
 10
0.0
 20
0.0
 30
0.0
  0
VERTEX
  5
32D
330
32C
100
AcDbEntity
  8
COTAS
 62
     7
420
 16777215
370
     9
100
AcDbVertex
100
AcDb2dVertex
 10
62.93539035221992
 20
84.29671900046137
 30
0.0
  0
VERTEX
  5
32E
330
32C
100
AcDbEntity
  8
COTAS
 62
     7
420
 16777215
370
     9
100
AcDbVertex
100
AcDb2dVertex
 10
62.93539035221992
 20
84.29671900046137
 30
0.0
  0
SEQEND
  5
32F
330
32C
100
AcDbEntity
  8
COTAS
370
     9
  0
ENDBLK
  5
32B
330
328
100
AcDbEntity
  8
0
100
AcDbBlockEnd
  0
BLOCK
  5
332
330
330
100
AcDbEntity
  8
0
100
AcDbBlockBegin
  2
block 102
 70
     0
 71
     0
 10
0.0
 20
0.0
 30
0.0
  3
block 102
  1

  0
INSERT
  5
335
330
330
100
AcDbEntity
  8
COTAS
100
AcDbBlockReference
  2
block 103
 10
0.0
 20
0.0
 30
0.0
  0
INSERT
  5
33D
330
330
100
AcDbEntity
  8
COTAS
100
AcDbBlockReference
  2
block 104
 10
0.0
 20
0.0
 30
0.0
  0
INSERT
  5
345
330
330
100
AcDbEntity
  8
COTAS
100
AcDbBlockReference
  2
block 105
 10
0.0
 20
0.0
 30
0.0
  0
INSERT
  5
34D
330
330
100
AcDbEntity
  8
COTAS
100
AcDbBlockReference
  2
block 106
 10
0.0
 20
0.0
 30
0.0
  0
INSERT
  5
355
330
330
100
AcDbEntity
  8
COTAS
100
AcDbBlockReference
  2
block 107
 10
0.0
 20
0.0
 30
0.0
  0
INSERT
  5
360
330
330
100
AcDbEntity
  8
COTAS
100
AcDbBlockReference
  2
block 108
 10
0.0
 20
0.0
 30
0.0
  0
INSERT
  5
36B
330
330
100
AcDbEntity
  8
COTAS
100
AcDbBlockReference
  2
block 109
 10
0.0
 20
0.0
 30
0.0
  0
INSERT
  5
370
330
330
100
AcDbEntity
  8
COTAS
100
AcDbBlockReference
  2
block 110
 10
0.0
 20
0.0
 30
0.0
  0
INSERT
  5
378
330
330
100
AcDbEntity
  8
COTAS
100
AcDbBlockReference
  2
block 111
 10
0.0
 20
0.0
 30
0.0
  0
INSERT
  5
380
330
330
100
AcDbEntity
  8
COTAS
100
AcDbBlockReference
  2
block 112
 10
0.0
 20
0.0
 30
0.0
  0
ENDBLK
  5
333
330
330
100
AcDbEntity
  8
0
100
AcDbBlockEnd
  0
BLOCK
  5
336
330
334
100
AcDbEntity
  8
0
100
AcDbBlockBegin
  2
block 103
 70
     0
 71
     0
 10
0.0
 20
0.0
 30
0.0
  3
block 103
  1

  0
POLYLINE
  5
338
330
334
100
AcDbEntity
  8
COTAS
 62
     7
420
 16777215
370
     9
100
AcDb2dPolyline
 66
     1
 10
0.0
 20
0.0
 30
0.0
  0
VERTEX
  5
339
330
338
100
AcDbEntity
  8
COTAS
 62
     7
420
 16777215
370
     9
100
AcDbVertex
100
AcDb2dVertex
 10
78.61454701336726
 20
83.29764065065248
 30
0.0
  0
VERTEX
  5
33A
330
338
100
AcDbEntity
  8
COTAS
 62
     7
420
 16777215
370
     9
100
AcDbVertex
100
AcDb2dVertex
 10
78.61454701336726
 20
70.36956680412545
 30
0.0
  0
SEQEND
  5
33B
330
338
100
AcDbEntity
  8
COTAS
370
     9
  0
ENDBLK
  5
337
330
334
100
AcDbEntity
  8
0
100
AcDbBlockEnd
  0
BLOCK
  5
33E
330
33C
100
AcDbEntity
  8
0
100
AcDbBlockBegin
  2
block 104
 70
     0
 71
     0
 10
0.0
 20
0.0
 30
0.0
  3
block 104
  1

  0
POLYLINE
  5
340
330
33C
100
AcDbEntity
  8
COTAS
 62
     7
420
 16777215
370
     9
100
AcDb2dPolyline
 66
     1
 10
0.0
 20
0.0
 30
0.0
  0
VERTEX
  5
341
330
340
100
AcDbEntity
  8
COTAS
 62
     7
420
 16777215
370
     9
100
AcDbVertex
100
AcDb2dVertex
 10
148.5551991466265
 20
83.29764065065248
 30
0.0
  0
VERTEX
  5
342
330
340
100
AcDbEntity
  8
COTAS
 62
     7
420
 16777215
370
     9
100
AcDbVertex
100
AcDb2dVertex
 10
148.5551991466265
 20
70.36956680412545
 30
0.0
  0
SEQEND
  5
343
330
340
100
AcDbEntity
  8
COTAS
370
     9
  0
ENDBLK
  5
33F
330
33C
100
AcDbEntity
  8
0
100
AcDbBlockEnd
  0
BLOCK
  5
346
330
344
100
AcDbEntity
  8
0
100
AcDbBlockBegin
  2
block 105
 70
     0
 71
     0
 10
0.0
 20
0.0
 30
0.0
  3
block 105
  1

  0
POLYLINE
  5
348
330
344
100
AcDbEntity
  8
COTAS
 62
     7
420
 16777215
370
     9
100
AcDb2dPolyline
 66
     1
 10
0.0
 20
0.0
 30
0.0
  0
VERTEX
  5
349
330
348
100
AcDbEntity
  8
COTAS
 62
     7
420
 16777215
370
     9
100
AcDbVertex
100
AcDb2dVertex
 10
80.41306029791116
 20
71.36864515393434
 30
0.0
  0
VERTEX
  5
34A
330
348
100
AcDbEntity
  8
COTAS
 62
     7
420
 16777215
370
     9
100
AcDbVertex
100
AcDb2dVertex
 10
110.0166130771881
 20
71.36864515393434
 30
0.0
  0
SEQEND
  5
34B
330
348
100
AcDbEntity
  8
COTAS
370
     9
  0
ENDBLK
  5
347
330
344
100
AcDbEntity
  8
0
100
AcDbBlockEnd
  0
BLOCK
  5
34E
330
34C
100
AcDbEntity
  8
0
100
AcDbBlockBegin
  2
block 106
 70
     0
 71
     0
 10
0.0
 20
0.0
 30
0.0
  3
block 106
  1

  0
POLYLINE
  5
350
330
34C
100
AcDbEntity
  8
COTAS
 62
     7
420
 16777215
370
     9
100
AcDb2dPolyline
 66
     1
 10
0.0
 20
0.0
 30
0.0
  0
VERTEX
  5
351
330
350
100
AcDbEntity
  8
COTAS
 62
     7
420
 16777215
370
     9
100
AcDbVertex
100
AcDb2dVertex
 10
146.7568581169705
 20
71.36864515393434
 30
0.0
  0
VERTEX
  5
352
330
350
100
AcDbEntity
  8
COTAS
 62
     7
420
 16777215
370
     9
100
AcDbVertex
100
AcDb2dVertex
 10
117.1534775925815
 20
71.36864515393434
 30
0.0
  0
SEQEND
  5
353
330
350
100
AcDbEntity
  8
COTAS
370
     9
  0
ENDBLK
  5
34F
330
34C
100
AcDbEntity
  8
0
100
AcDbBlockEnd
  0
BLOCK
  5
356
330
354
100
AcDbEntity
  8
0
100
AcDbBlockBegin
  2
block 107
 70
     0
 71
     0
 10
0.0
 20
0.0
 30
0.0
  3
block 107
  1

  0
POLYLINE
  5
358
330
354
100
AcDbEntity
  8
COTAS
370
     0
100
AcDb2dPolyline
 66
     1
 10
0.0
 20
0.0
 30
0.0
  0
VERTEX
  5
359
330
358
100
AcDbEntity
  8
COTAS
370
     0
100
AcDbVertex
100
AcDb2dVertex
 10
80.41306029791116
 20
71.668368658877
 30
0.0
  0
VERTEX
  5
35A
330
358
100
AcDbEntity
  8
COTAS
370
     0
100
AcDbVertex
100
AcDb2dVertex
 10
80.41306029791116
 20
71.06892164899168
 30
0.0
  0
VERTEX
  5
35B
330
358
100
AcDbEntity
  8
COTAS
370
     0
100
AcDbVertex
100
AcDb2dVertex
 10
78.61454701336726
 20
71.36864515393434
 30
0.0
  0
VERTEX
  5
35C
330
358
100
AcDbEntity
  8
COTAS
370
     0
100
AcDbVertex
100
AcDb2dVertex
 10
80.41306029791116
 20
71.668368658877
 30
0.0
  0
SEQEND
  5
35D
330
358
100
AcDbEntity
  8
COTAS
370
     0
  0
HATCH
  5
35E
330
354
100
AcDbEntity
  8
COTAS
 62
     7
420
 16777215
100
AcDbHatch
 10
0.0
 20
0.0
 30
0.0
210
0.0
220
0.0
230
1.0
  2
SOLID
 70
     1
 71
     0
 91
        1
 92
        1
 93
        3
 72
     1
 10
80.41306029791116
 20
71.668368658877
 11
80.41306029791116
 21
71.06892164899168
 72
     1
 10
80.41306029791116
 20
71.06892164899168
 11
78.61454701336726
 21
71.36864515393434
 72
     1
 10
78.61454701336726
 20
71.36864515393434
 11
80.41306029791116
 21
71.668368658877
 97
        0
 75
     2
 76
     1
 98
        0
  0
ENDBLK
  5
357
330
354
100
AcDbEntity
  8
0
100
AcDbBlockEnd
  0
BLOCK
  5
361
330
35F
100
AcDbEntity
  8
0
100
AcDbBlockBegin
  2
block 108
 70
     0
 71
     0
 10
0.0
 20
0.0
 30
0.0
  3
block 108
  1

  0
POLYLINE
  5
363
330
35F
100
AcDbEntity
  8
COTAS
370
     0
100
AcDb2dPolyline
 66
     1
 10
0.0
 20
0.0
 30
0.0
  0
VERTEX
  5
364
330
363
100
AcDbEntity
  8
COTAS
370
     0
100
AcDbVertex
100
AcDb2dVertex
 10
146.7568581169705
 20
71.668368658877
 30
0.0
  0
VERTEX
  5
365
330
363
100
AcDbEntity
  8
COTAS
370
     0
100
AcDbVertex
100
AcDb2dVertex
 10
146.7568581169705
 20
71.06892164899168
 30
0.0
  0
VERTEX
  5
366
330
363
100
AcDbEntity
  8
COTAS
370
     0
100
AcDbVertex
100
AcDb2dVertex
 10
148.5551991466265
 20
71.36864515393434
 30
0.0
  0
VERTEX
  5
367
330
363
100
AcDbEntity
  8
COTAS
370
     0
100
AcDbVertex
100
AcDb2dVertex
 10
146.7568581169705
 20
71.668368658877
 30
0.0
  0
SEQEND
  5
368
330
363
100
AcDbEntity
  8
COTAS
370
     0
  0
HATCH
  5
369
330
35F
100
AcDbEntity
  8
COTAS
 62
     7
420
 16777215
100
AcDbHatch
 10
0.0
 20
0.0
 30
0.0
210
0.0
220
0.0
230
1.0
  2
SOLID
 70
     1
 71
     0
 91
        1
 92
        1
 93
        3
 72
     1
 10
146.7568581169705
 20
71.668368658877
 11
146.7568581169705
 21
71.06892164899168
 72
     1
 10
146.7568581169705
 20
71.06892164899168
 11
148.5551991466265
 21
71.36864515393434
 72
     1
 10
148.5551991466265
 20
71.36864515393434
 11
146.7568581169705
 21
71.668368658877
 97
        0
 75
     2
 76
     1
 98
        0
  0
ENDBLK
  5
362
330
35F
100
AcDbEntity
  8
0
100
AcDbBlockEnd
  0
BLOCK
  5
36C
330
36A
100
AcDbEntity
  8
0
100
AcDbBlockBegin
  2
block 109
 70
     0
 71
     0
 10
0.0
 20
0.0
 30
0.0
  3
block 109
  1

  0
MTEXT
  5
36E
330
36A
100
AcDbEntity
  8
COTAS
 62
     7
420
 16777215
100
AcDbMText
 10
110.7300928228619
 20
70.36956680412545
 30
0.0
 40
2.398890470823883
 41
0.0
 71
     7
 72
     1
  1
\fArial|b1|i0|c0|p34;\W1;700
 73
     1
 44
1.0
  0
ENDBLK
  5
36D
330
36A
100
AcDbEntity
  8
0
100
AcDbBlockEnd
  0
BLOCK
  5
371
330
36F
100
AcDbEntity
  8
0
100
AcDbBlockBegin
  2
block 110
 70
     0
 71
     0
 10
0.0
 20
0.0
 30
0.0
  3
block 110
  1

  0
POLYLINE
  5
373
330
36F
100
AcDbEntity
  8
COTAS
 62
     7
420
 16777215
370
     9
100
AcDb2dPolyline
 66
     1
 10
0.0
 20
0.0
 30
0.0
  0
VERTEX
  5
374
330
373
100
AcDbEntity
  8
COTAS
 62
     7
420
 16777215
370
     9
100
AcDbVertex
100
AcDb2dVertex
 10
78.61454701336726
 20
84.29671900046137
 30
0.0
  0
VERTEX
  5
375
330
373
100
AcDbEntity
  8
COTAS
 62
     7
420
 16777215
370
     9
100
AcDbVertex
100
AcDb2dVertex
 10
78.61454701336726
 20
84.29671900046137
 30
0.0
  0
SEQEND
  5
376
330
373
100
AcDbEntity
  8
COTAS
370
     9
  0
ENDBLK
  5
372
330
36F
100
AcDbEntity
  8
0
100
AcDbBlockEnd
  0
BLOCK
  5
379
330
377
100
AcDbEntity
  8
0
100
AcDbBlockBegin
  2
block 111
 70
     0
 71
     0
 10
0.0
 20
0.0
 30
0.0
  3
block 111
  1

  0
POLYLINE
  5
37B
330
377
100
AcDbEntity
  8
COTAS
 62
     7
420
 16777215
370
     9
100
AcDb2dPolyline
 66
     1
 10
0.0
 20
0.0
 30
0.0
  0
VERTEX
  5
37C
330
37B
100
AcDbEntity
  8
COTAS
 62
     7
420
 16777215
370
     9
100
AcDbVertex
100
AcDb2dVertex
 10
148.5551991466265
 20
84.29671900046137
 30
0.0
  0
VERTEX
  5
37D
330
37B
100
AcDbEntity
  8
COTAS
 62
     7
420
 16777215
370
     9
100
AcDbVertex
100
AcDb2dVertex
 10
148.5551991466265
 20
84.29671900046137
 30
0.0
  0
SEQEND
  5
37E
330
37B
100
AcDbEntity
  8
COTAS
370
     9
  0
ENDBLK
  5
37A
330
377
100
AcDbEntity
  8
0
100
AcDbBlockEnd
  0
BLOCK
  5
381
330
37F
100
AcDbEntity
  8
0
100
AcDbBlockBegin
  2
block 112
 70
     0
 71
     0
 10
0.0
 20
0.0
 30
0.0
  3
block 112
  1

  0
POLYLINE
  5
383
330
37F
100
AcDbEntity
  8
COTAS
 62
     7
420
 16777215
370
     9
100
AcDb2dPolyline
 66
     1
 10
0.0
 20
0.0
 30
0.0
  0
VERTEX
  5
384
330
383
100
AcDbEntity
  8
COTAS
 62
     7
420
 16777215
370
     9
100
AcDbVertex
100
AcDb2dVertex
 10
148.5551991466265
 20
71.36864515393434
 30
0.0
  0
VERTEX
  5
385
330
383
100
AcDbEntity
  8
COTAS
 62
     7
420
 16777215
370
     9
100
AcDbVertex
100
AcDb2dVertex
 10
148.5551991466265
 20
71.36864515393434
 30
0.0
  0
SEQEND
  5
386
330
383
100
AcDbEntity
  8
COTAS
370
     9
  0
ENDBLK
  5
382
330
37F
100
AcDbEntity
  8
0
100
AcDbBlockEnd
  0
BLOCK
  5
389
330
387
100
AcDbEntity
  8
0
100
AcDbBlockBegin
  2
block 113
 70
     0
 71
     0
 10
0.0
 20
0.0
 30
0.0
  3
block 113
  1

  0
INSERT
  5
38C
330
387
100
AcDbEntity
  8
COTAS
100
AcDbBlockReference
  2
block 114
 10
0.0
 20
0.0
 30
0.0
  0
INSERT
  5
394
330
387
100
AcDbEntity
  8
COTAS
100
AcDbBlockReference
  2
block 115
 10
0.0
 20
0.0
 30
0.0
  0
INSERT
  5
39C
330
387
100
AcDbEntity
  8
COTAS
100
AcDbBlockReference
  2
block 116
 10
0.0
 20
0.0
 30
0.0
  0
INSERT
  5
3A4
330
387
100
AcDbEntity
  8
COTAS
100
AcDbBlockReference
  2
block 117
 10
0.0
 20
0.0
 30
0.0
  0
INSERT
  5
3AC
330
387
100
AcDbEntity
  8
COTAS
100
AcDbBlockReference
  2
block 118
 10
0.0
 20
0.0
 30
0.0
  0
INSERT
  5
3B7
330
387
100
AcDbEntity
  8
COTAS
100
AcDbBlockReference
  2
block 119
 10
0.0
 20
0.0
 30
0.0
  0
INSERT
  5
3C2
330
387
100
AcDbEntity
  8
COTAS
100
AcDbBlockReference
  2
block 120
 10
0.0
 20
0.0
 30
0.0
  0
INSERT
  5
3C7
330
387
100
AcDbEntity
  8
COTAS
100
AcDbBlockReference
  2
block 121
 10
0.0
 20
0.0
 30
0.0
  0
INSERT
  5
3CF
330
387
100
AcDbEntity
  8
COTAS
100
AcDbBlockReference
  2
block 122
 10
0.0
 20
0.0
 30
0.0
  0
INSERT
  5
3D7
330
387
100
AcDbEntity
  8
COTAS
100
AcDbBlockReference
  2
block 123
 10
0.0
 20
0.0
 30
0.0
  0
ENDBLK
  5
38A
330
387
100
AcDbEntity
  8
0
100
AcDbBlockEnd
  0
BLOCK
  5
38D
330
38B
100
AcDbEntity
  8
0
100
AcDbBlockBegin
  2
block 114
 70
     0
 71
     0
 10
0.0
 20
0.0
 30
0.0
  3
block 114
  1

  0
POLYLINE
  5
38F
330
38B
100
AcDbEntity
  8
COTAS
 62
     7
420
 16777215
370
     9
100
AcDb2dPolyline
 66
     1
 10
0.0
 20
0.0
 30
0.0
  0
VERTEX
  5
390
330
38F
100
AcDbEntity
  8
COTAS
 62
     7
420
 16777215
370
     9
100
AcDbVertex
100
AcDb2dVertex
 10
97.59858595372725
 20
95.78301943528143
 30
0.0
  0
VERTEX
  5
391
330
38F
100
AcDbEntity
  8
COTAS
 62
     7
420
 16777215
370
     9
100
AcDbVertex
100
AcDb2dVertex
 10
97.59858595372725
 20
75.20613954652787
 30
0.0
  0
SEQEND
  5
392
330
38F
100
AcDbEntity
  8
COTAS
370
     9
  0
ENDBLK
  5
38E
330
38B
100
AcDbEntity
  8
0
100
AcDbBlockEnd
  0
BLOCK
  5
395
330
393
100
AcDbEntity
  8
0
100
AcDbBlockBegin
  2
block 115
 70
     0
 71
     0
 10
0.0
 20
0.0
 30
0.0
  3
block 115
  1

  0
POLYLINE
  5
397
330
393
100
AcDbEntity
  8
COTAS
 62
     7
420
 16777215
370
     9
100
AcDb2dPolyline
 66
     1
 10
0.0
 20
0.0
 30
0.0
  0
VERTEX
  5
398
330
397
100
AcDbEntity
  8
COTAS
 62
     7
420
 16777215
370
     9
100
AcDbVertex
100
AcDb2dVertex
 10
78.61454701336726
 20
83.29764065065248
 30
0.0
  0
VERTEX
  5
399
330
397
100
AcDbEntity
  8
COTAS
 62
     7
420
 16777215
370
     9
100
AcDbVertex
100
AcDb2dVertex
 10
78.61454701336726
 20
75.20613954652787
 30
0.0
  0
SEQEND
  5
39A
330
397
100
AcDbEntity
  8
COTAS
370
     9
  0
ENDBLK
  5
396
330
393
100
AcDbEntity
  8
0
100
AcDbBlockEnd
  0
BLOCK
  5
39D
330
39B
100
AcDbEntity
  8
0
100
AcDbBlockBegin
  2
block 116
 70
     0
 71
     0
 10
0.0
 20
0.0
 30
0.0
  3
block 116
  1

  0
POLYLINE
  5
39F
330
39B
100
AcDbEntity
  8
COTAS
 62
     7
420
 16777215
370
     9
100
AcDb2dPolyline
 66
     1
 10
0.0
 20
0.0
 30
0.0
  0
VERTEX
  5
3A0
330
39F
100
AcDbEntity
  8
COTAS
 62
     7
420
 16777215
370
     9
100
AcDbVertex
100
AcDb2dVertex
 10
95.80007266918335
 20
76.20556240611255
 30
0.0
  0
VERTEX
  5
3A1
330
39F
100
AcDbEntity
  8
COTAS
 62
     7
420
 16777215
370
     9
100
AcDbVertex
100
AcDb2dVertex
 10
91.5322855666204
 20
76.20556240611255
 30
0.0
  0
SEQEND
  5
3A2
330
39F
100
AcDbEntity
  8
COTAS
370
     9
  0
ENDBLK
  5
39E
330
39B
100
AcDbEntity
  8
0
100
AcDbBlockEnd
  0
BLOCK
  5
3A5
330
3A3
100
AcDbEntity
  8
0
100
AcDbBlockBegin
  2
block 117
 70
     0
 71
     0
 10
0.0
 20
0.0
 30
0.0
  3
block 117
  1

  0
POLYLINE
  5
3A7
330
3A3
100
AcDbEntity
  8
COTAS
 62
     7
420
 16777215
370
     9
100
AcDb2dPolyline
 66
     1
 10
0.0
 20
0.0
 30
0.0
  0
VERTEX
  5
3A8
330
3A7
100
AcDbEntity
  8
COTAS
 62
     7
420
 16777215
370
     9
100
AcDbVertex
100
AcDb2dVertex
 10
80.41306029791116
 20
76.20556240611255
 30
0.0
  0
VERTEX
  5
3A9
330
3A7
100
AcDbEntity
  8
COTAS
 62
     7
420
 16777215
370
     9
100
AcDbVertex
100
AcDb2dVertex
 10
84.6808474004741
 20
76.20556240611255
 30
0.0
  0
SEQEND
  5
3AA
330
3A7
100
AcDbEntity
  8
COTAS
370
     9
  0
ENDBLK
  5
3A6
330
3A3
100
AcDbEntity
  8
0
100
AcDbBlockEnd
  0
BLOCK
  5
3AD
330
3AB
100
AcDbEntity
  8
0
100
AcDbBlockBegin
  2
block 118
 70
     0
 71
     0
 10
0.0
 20
0.0
 30
0.0
  3
block 118
  1

  0
POLYLINE
  5
3AF
330
3AB
100
AcDbEntity
  8
COTAS
370
     0
100
AcDb2dPolyline
 66
     1
 10
0.0
 20
0.0
 30
0.0
  0
VERTEX
  5
3B0
330
3AF
100
AcDbEntity
  8
COTAS
370
     0
100
AcDbVertex
100
AcDb2dVertex
 10
95.80007266918335
 20
76.50528591105521
 30
0.0
  0
VERTEX
  5
3B1
330
3AF
100
AcDbEntity
  8
COTAS
370
     0
100
AcDbVertex
100
AcDb2dVertex
 10
95.80007266918335
 20
75.90549439139409
 30
0.0
  0
VERTEX
  5
3B2
330
3AF
100
AcDbEntity
  8
COTAS
370
     0
100
AcDbVertex
100
AcDb2dVertex
 10
97.59858595372725
 20
76.20556240611255
 30
0.0
  0
VERTEX
  5
3B3
330
3AF
100
AcDbEntity
  8
COTAS
370
     0
100
AcDbVertex
100
AcDb2dVertex
 10
95.80007266918335
 20
76.50528591105521
 30
0.0
  0
SEQEND
  5
3B4
330
3AF
100
AcDbEntity
  8
COTAS
370
     0
  0
HATCH
  5
3B5
330
3AB
100
AcDbEntity
  8
COTAS
 62
     7
420
 16777215
100
AcDbHatch
 10
0.0
 20
0.0
 30
0.0
210
0.0
220
0.0
230
1.0
  2
SOLID
 70
     1
 71
     0
 91
        1
 92
        1
 93
        3
 72
     1
 10
95.80007266918335
 20
76.50528591105521
 11
95.80007266918335
 21
75.90549439139409
 72
     1
 10
95.80007266918335
 20
75.90549439139409
 11
97.59858595372725
 21
76.20556240611255
 72
     1
 10
97.59858595372725
 20
76.20556240611255
 11
95.80007266918335
 21
76.50528591105521
 97
        0
 75
     2
 76
     1
 98
        0
  0
ENDBLK
  5
3AE
330
3AB
100
AcDbEntity
  8
0
100
AcDbBlockEnd
  0
BLOCK
  5
3B8
330
3B6
100
AcDbEntity
  8
0
100
AcDbBlockBegin
  2
block 119
 70
     0
 71
     0
 10
0.0
 20
0.0
 30
0.0
  3
block 119
  1

  0
POLYLINE
  5
3BA
330
3B6
100
AcDbEntity
  8
COTAS
370
     0
100
AcDb2dPolyline
 66
     1
 10
0.0
 20
0.0
 30
0.0
  0
VERTEX
  5
3BB
330
3BA
100
AcDbEntity
  8
COTAS
370
     0
100
AcDbVertex
100
AcDb2dVertex
 10
80.41306029791116
 20
76.50528591105521
 30
0.0
  0
VERTEX
  5
3BC
330
3BA
100
AcDbEntity
  8
COTAS
370
     0
100
AcDbVertex
100
AcDb2dVertex
 10
80.41306029791116
 20
75.90549439139409
 30
0.0
  0
VERTEX
  5
3BD
330
3BA
100
AcDbEntity
  8
COTAS
370
     0
100
AcDbVertex
100
AcDb2dVertex
 10
78.61454701336726
 20
76.20556240611255
 30
0.0
  0
VERTEX
  5
3BE
330
3BA
100
AcDbEntity
  8
COTAS
370
     0
100
AcDbVertex
100
AcDb2dVertex
 10
80.41306029791116
 20
76.50528591105521
 30
0.0
  0
SEQEND
  5
3BF
330
3BA
100
AcDbEntity
  8
COTAS
370
     0
  0
HATCH
  5
3C0
330
3B6
100
AcDbEntity
  8
COTAS
 62
     7
420
 16777215
100
AcDbHatch
 10
0.0
 20
0.0
 30
0.0
210
0.0
220
0.0
230
1.0
  2
SOLID
 70
     1
 71
     0
 91
        1
 92
        1
 93
        3
 72
     1
 10
80.41306029791116
 20
76.50528591105521
 11
80.41306029791116
 21
75.90549439139409
 72
     1
 10
80.41306029791116
 20
75.90549439139409
 11
78.61454701336726
 21
76.20556240611255
 72
     1
 10
78.61454701336726
 20
76.20556240611255
 11
80.41306029791116
 21
76.50528591105521
 97
        0
 75
     2
 76
     1
 98
        0
  0
ENDBLK
  5
3B9
330
3B6
100
AcDbEntity
  8
0
100
AcDbBlockEnd
  0
BLOCK
  5
3C3
330
3C1
100
AcDbEntity
  8
0
100
AcDbBlockBegin
  2
block 120
 70
     0
 71
     0
 10
0.0
 20
0.0
 30
0.0
  3
block 120
  1

  0
MTEXT
  5
3C5
330
3C1
100
AcDbEntity
  8
COTAS
 62
     7
420
 16777215
100
AcDbMText
 10
85.10907305178874
 20
75.20613954652787
 30
0.0
 40
2.398890470823883
 41
0.0
 71
     7
 72
     1
  1
\fArial|b1|i0|c0|p34;\W1;190
 73
     1
 44
1.0
  0
ENDBLK
  5
3C4
330
3C1
100
AcDbEntity
  8
0
100
AcDbBlockEnd
  0
BLOCK
  5
3C8
330
3C6
100
AcDbEntity
  8
0
100
AcDbBlockBegin
  2
block 121
 70
     0
 71
     0
 10
0.0
 20
0.0
 30
0.0
  3
block 121
  1

  0
POLYLINE
  5
3CA
330
3C6
100
AcDbEntity
  8
COTAS
 62
     7
420
 16777215
370
     9
100
AcDb2dPolyline
 66
     1
 10
0.0
 20
0.0
 30
0.0
  0
VERTEX
  5
3CB
330
3CA
100
AcDbEntity
  8
COTAS
 62
     7
420
 16777215
370
     9
100
AcDbVertex
100
AcDb2dVertex
 10
97.59858595372725
 20
96.78209778509033
 30
0.0
  0
VERTEX
  5
3CC
330
3CA
100
AcDbEntity
  8
COTAS
 62
     7
420
 16777215
370
     9
100
AcDbVertex
100
AcDb2dVertex
 10
97.59858595372725
 20
96.78209778509033
 30
0.0
  0
SEQEND
  5
3CD
330
3CA
100
AcDbEntity
  8
COTAS
370
     9
  0
ENDBLK
  5
3C9
330
3C6
100
AcDbEntity
  8
0
100
AcDbBlockEnd
  0
BLOCK
  5
3D0
330
3CE
100
AcDbEntity
  8
0
100
AcDbBlockBegin
  2
block 122
 70
     0
 71
     0
 10
0.0
 20
0.0
 30
0.0
  3
block 122
  1

  0
POLYLINE
  5
3D2
330
3CE
100
AcDbEntity
  8
COTAS
 62
     7
420
 16777215
370
     9
100
AcDb2dPolyline
 66
     1
 10
0.0
 20
0.0
 30
0.0
  0
VERTEX
  5
3D3
330
3D2
100
AcDbEntity
  8
COTAS
 62
     7
420
 16777215
370
     9
100
AcDbVertex
100
AcDb2dVertex
 10
78.61454701336726
 20
84.29671900046137
 30
0.0
  0
VERTEX
  5
3D4
330
3D2
100
AcDbEntity
  8
COTAS
 62
     7
420
 16777215
370
     9
100
AcDbVertex
100
AcDb2dVertex
 10
78.61454701336726
 20
84.29671900046137
 30
0.0
  0
SEQEND
  5
3D5
330
3D2
100
AcDbEntity
  8
COTAS
370
     9
  0
ENDBLK
  5
3D1
330
3CE
100
AcDbEntity
  8
0
100
AcDbBlockEnd
  0
BLOCK
  5
3D8
330
3D6
100
AcDbEntity
  8
0
100
AcDbBlockBegin
  2
block 123
 70
     0
 71
     0
 10
0.0
 20
0.0
 30
0.0
  3
block 123
  1

  0
POLYLINE
  5
3DA
330
3D6
100
AcDbEntity
  8
COTAS
 62
     7
420
 16777215
370
     9
100
AcDb2dPolyline
 66
     1
 10
0.0
 20
0.0
 30
0.0
  0
VERTEX
  5
3DB
330
3DA
100
AcDbEntity
  8
COTAS
 62
     7
420
 16777215
370
     9
100
AcDbVertex
100
AcDb2dVertex
 10
78.61454701336726
 20
76.20556240611255
 30
0.0
  0
VERTEX
  5
3DC
330
3DA
100
AcDbEntity
  8
COTAS
 62
     7
420
 16777215
370
     9
100
AcDbVertex
100
AcDb2dVertex
 10
78.61454701336726
 20
76.20556240611255
 30
0.0
  0
SEQEND
  5
3DD
330
3DA
100
AcDbEntity
  8
COTAS
370
     9
  0
ENDBLK
  5
3D9
330
3D6
100
AcDbEntity
  8
0
100
AcDbBlockEnd
  0
BLOCK
  5
3E0
330
3DE
100
AcDbEntity
  8
0
100
AcDbBlockBegin
  2
block 124
 70
     0
 71
     0
 10
0.0
 20
0.0
 30
0.0
  3
block 124
  1

  0
INSERT
  5
3E3
330
3DE
100
AcDbEntity
  8
COTAS
100
AcDbBlockReference
  2
block 125
 10
0.0
 20
0.0
 30
0.0
  0
INSERT
  5
3EB
330
3DE
100
AcDbEntity
  8
COTAS
100
AcDbBlockReference
  2
block 126
 10
0.0
 20
0.0
 30
0.0
  0
INSERT
  5
3F3
330
3DE
100
AcDbEntity
  8
COTAS
100
AcDbBlockReference
  2
block 127
 10
0.0
 20
0.0
 30
0.0
  0
INSERT
  5
3FB
330
3DE
100
AcDbEntity
  8
COTAS
100
AcDbBlockReference
  2
block 128
 10
0.0
 20
0.0
 30
0.0
  0
INSERT
  5
403
330
3DE
100
AcDbEntity
  8
COTAS
100
AcDbBlockReference
  2
block 129
 10
0.0
 20
0.0
 30
0.0
  0
INSERT
  5
40E
330
3DE
100
AcDbEntity
  8
COTAS
100
AcDbBlockReference
  2
block 130
 10
0.0
 20
0.0
 30
0.0
  0
INSERT
  5
419
330
3DE
100
AcDbEntity
  8
COTAS
100
AcDbBlockReference
  2
block 131
 10
0.0
 20
0.0
 30
0.0
  0
INSERT
  5
41E
330
3DE
100
AcDbEntity
  8
COTAS
100
AcDbBlockReference
  2
block 132
 10
0.0
 20
0.0
 30
0.0
  0
INSERT
  5
426
330
3DE
100
AcDbEntity
  8
COTAS
100
AcDbBlockReference
  2
block 133
 10
0.0
 20
0.0
 30
0.0
  0
INSERT
  5
42E
330
3DE
100
AcDbEntity
  8
COTAS
100
AcDbBlockReference
  2
block 134
 10
0.0
 20
0.0
 30
0.0
  0
ENDBLK
  5
3E1
330
3DE
100
AcDbEntity
  8
0
100
AcDbBlockEnd
  0
BLOCK
  5
3E4
330
3E2
100
AcDbEntity
  8
0
100
AcDbBlockBegin
  2
block 125
 70
     0
 71
     0
 10
0.0
 20
0.0
 30
0.0
  3
block 125
  1

  0
POLYLINE
  5
3E6
330
3E2
100
AcDbEntity
  8
COTAS
 62
     7
420
 16777215
370
     9
100
AcDb2dPolyline
 66
     1
 10
0.0
 20
0.0
 30
0.0
  0
VERTEX
  5
3E7
330
3E6
100
AcDbEntity
  8
COTAS
 62
     7
420
 16777215
370
     9
100
AcDbVertex
100
AcDb2dVertex
 10
90.10101970307522
 20
103.2805856859335
 30
0.0
  0
VERTEX
  5
3E8
330
3E6
100
AcDbEntity
  8
COTAS
 62
     7
420
 16777215
370
     9
100
AcDbVertex
100
AcDb2dVertex
 10
67.5051402732682
 20
103.2805856859335
 30
0.0
  0
SEQEND
  5
3E9
330
3E6
100
AcDbEntity
  8
COTAS
370
     9
  0
ENDBLK
  5
3E5
330
3E2
100
AcDbEntity
  8
0
100
AcDbBlockEnd
  0
BLOCK
  5
3EC
330
3EA
100
AcDbEntity
  8
0
100
AcDbBlockBegin
  2
block 126
 70
     0
 71
     0
 10
0.0
 20
0.0
 30
0.0
  3
block 126
  1

  0
POLYLINE
  5
3EE
330
3EA
100
AcDbEntity
  8
COTAS
 62
     7
420
 16777215
370
     9
100
AcDb2dPolyline
 66
     1
 10
0.0
 20
0.0
 30
0.0
  0
VERTEX
  5
3EF
330
3EE
100
AcDbEntity
  8
COTAS
 62
     7
420
 16777215
370
     9
100
AcDbVertex
100
AcDb2dVertex
 10
77.61546866355837
 20
84.29671900046137
 30
0.0
  0
VERTEX
  5
3F0
330
3EE
100
AcDbEntity
  8
COTAS
 62
     7
420
 16777215
370
     9
100
AcDbVertex
100
AcDb2dVertex
 10
67.5051402732682
 20
84.29671900046137
 30
0.0
  0
SEQEND
  5
3F1
330
3EE
100
AcDbEntity
  8
COTAS
370
     9
  0
ENDBLK
  5
3ED
330
3EA
100
AcDbEntity
  8
0
100
AcDbBlockEnd
  0
BLOCK
  5
3F4
330
3F2
100
AcDbEntity
  8
0
100
AcDbBlockBegin
  2
block 127
 70
     0
 71
     0
 10
0.0
 20
0.0
 30
0.0
  3
block 127
  1

  0
POLYLINE
  5
3F6
330
3F2
100
AcDbEntity
  8
COTAS
 62
     7
420
 16777215
370
     9
100
AcDb2dPolyline
 66
     1
 10
0.0
 20
0.0
 30
0.0
  0
VERTEX
  5
3F7
330
3F6
100
AcDbEntity
  8
COTAS
 62
     7
420
 16777215
370
     9
100
AcDbVertex
100
AcDb2dVertex
 10
68.504390877965
 20
101.4822446562775
 30
0.0
  0
VERTEX
  5
3F8
330
3F6
100
AcDbEntity
  8
COTAS
 62
     7
420
 16777215
370
     9
100
AcDbVertex
100
AcDb2dVertex
 10
68.504390877965
 20
95.7868090428152
 30
0.0
  0
SEQEND
  5
3F9
330
3F6
100
AcDbEntity
  8
COTAS
370
     9
  0
ENDBLK
  5
3F5
330
3F2
100
AcDbEntity
  8
0
100
AcDbBlockEnd
  0
BLOCK
  5
3FC
330
3FA
100
AcDbEntity
  8
0
100
AcDbBlockBegin
  2
block 128
 70
     0
 71
     0
 10
0.0
 20
0.0
 30
0.0
  3
block 128
  1

  0
POLYLINE
  5
3FE
330
3FA
100
AcDbEntity
  8
COTAS
 62
     7
420
 16777215
370
     9
100
AcDb2dPolyline
 66
     1
 10
0.0
 20
0.0
 30
0.0
  0
VERTEX
  5
3FF
330
3FE
100
AcDbEntity
  8
COTAS
 62
     7
420
 16777215
370
     9
100
AcDbVertex
100
AcDb2dVertex
 10
68.504390877965
 20
86.09506003011737
 30
0.0
  0
VERTEX
  5
400
330
3FE
100
AcDbEntity
  8
COTAS
 62
     7
420
 16777215
370
     9
100
AcDbVertex
100
AcDb2dVertex
 10
68.504390877965
 20
91.79049564357963
 30
0.0
  0
SEQEND
  5
401
330
3FE
100
AcDbEntity
  8
COTAS
370
     9
  0
ENDBLK
  5
3FD
330
3FA
100
AcDbEntity
  8
0
100
AcDbBlockEnd
  0
BLOCK
  5
404
330
402
100
AcDbEntity
  8
0
100
AcDbBlockBegin
  2
block 129
 70
     0
 71
     0
 10
0.0
 20
0.0
 30
0.0
  3
block 129
  1

  0
POLYLINE
  5
406
330
402
100
AcDbEntity
  8
COTAS
370
     0
100
AcDb2dPolyline
 66
     1
 10
0.0
 20
0.0
 30
0.0
  0
VERTEX
  5
407
330
406
100
AcDbEntity
  8
COTAS
370
     0
100
AcDbVertex
100
AcDb2dVertex
 10
68.20466737302232
 20
101.4822446562775
 30
0.0
  0
VERTEX
  5
408
330
406
100
AcDbEntity
  8
COTAS
370
     0
100
AcDbVertex
100
AcDb2dVertex
 10
68.80411438290766
 20
101.4822446562775
 30
0.0
  0
VERTEX
  5
409
330
406
100
AcDbEntity
  8
COTAS
370
     0
100
AcDbVertex
100
AcDb2dVertex
 10
68.504390877965
 20
103.2805856859335
 30
0.0
  0
VERTEX
  5
40A
330
406
100
AcDbEntity
  8
COTAS
370
     0
100
AcDbVertex
100
AcDb2dVertex
 10
68.20466737302232
 20
101.4822446562775
 30
0.0
  0
SEQEND
  5
40B
330
406
100
AcDbEntity
  8
COTAS
370
     0
  0
HATCH
  5
40C
330
402
100
AcDbEntity
  8
COTAS
 62
     7
420
 16777215
100
AcDbHatch
 10
0.0
 20
0.0
 30
0.0
210
0.0
220
0.0
230
1.0
  2
SOLID
 70
     1
 71
     0
 91
        1
 92
        1
 93
        3
 72
     1
 10
68.20466737302232
 20
101.4822446562775
 11
68.80411438290766
 21
101.4822446562775
 72
     1
 10
68.80411438290766
 20
101.4822446562775
 11
68.504390877965
 21
103.2805856859335
 72
     1
 10
68.504390877965
 20
103.2805856859335
 11
68.20466737302232
 21
101.4822446562775
 97
        0
 75
     2
 76
     1
 98
        0
  0
ENDBLK
  5
405
330
402
100
AcDbEntity
  8
0
100
AcDbBlockEnd
  0
BLOCK
  5
40F
330
40D
100
AcDbEntity
  8
0
100
AcDbBlockBegin
  2
block 130
 70
     0
 71
     0
 10
0.0
 20
0.0
 30
0.0
  3
block 130
  1

  0
POLYLINE
  5
411
330
40D
100
AcDbEntity
  8
COTAS
370
     0
100
AcDb2dPolyline
 66
     1
 10
0.0
 20
0.0
 30
0.0
  0
VERTEX
  5
412
330
411
100
AcDbEntity
  8
COTAS
370
     0
100
AcDbVertex
100
AcDb2dVertex
 10
68.20466737302232
 20
86.09506003011737
 30
0.0
  0
VERTEX
  5
413
330
411
100
AcDbEntity
  8
COTAS
370
     0
100
AcDbVertex
100
AcDb2dVertex
 10
68.80411438290766
 20
86.09506003011737
 30
0.0
  0
VERTEX
  5
414
330
411
100
AcDbEntity
  8
COTAS
370
     0
100
AcDbVertex
100
AcDb2dVertex
 10
68.504390877965
 20
84.29671900046137
 30
0.0
  0
VERTEX
  5
415
330
411
100
AcDbEntity
  8
COTAS
370
     0
100
AcDbVertex
100
AcDb2dVertex
 10
68.20466737302232
 20
86.09506003011737
 30
0.0
  0
SEQEND
  5
416
330
411
100
AcDbEntity
  8
COTAS
370
     0
  0
HATCH
  5
417
330
40D
100
AcDbEntity
  8
COTAS
 62
     7
420
 16777215
100
AcDbHatch
 10
0.0
 20
0.0
 30
0.0
210
0.0
220
0.0
230
1.0
  2
SOLID
 70
     1
 71
     0
 91
        1
 92
        1
 93
        3
 72
     1
 10
68.20466737302232
 20
86.09506003011737
 11
68.80411438290766
 21
86.09506003011737
 72
     1
 10
68.80411438290766
 20
86.09506003011737
 11
68.504390877965
 21
84.29671900046137
 72
     1
 10
68.504390877965
 20
84.29671900046137
 11
68.20466737302232
 21
86.09506003011737
 97
        0
 75
     2
 76
     1
 98
        0
  0
ENDBLK
  5
410
330
40D
100
AcDbEntity
  8
0
100
AcDbBlockEnd
  0
BLOCK
  5
41A
330
418
100
AcDbEntity
  8
0
100
AcDbBlockBegin
  2
block 131
 70
     0
 71
     0
 10
0.0
 20
0.0
 30
0.0
  3
block 131
  1

  0
MTEXT
  5
41C
330
418
100
AcDbEntity
  8
COTAS
 62
     7
420
 16777215
100
AcDbMText
 10
65.50698357365043
 20
92.78957399338853
 30
0.0
 40
2.398890470823883
 41
0.0
 71
     7
 72
     1
  1
\fArial|b1|i0|c0|p34;\W1;190
 73
     1
 44
1.0
  0
ENDBLK
  5
41B
330
418
100
AcDbEntity
  8
0
100
AcDbBlockEnd
  0
BLOCK
  5
41F
330
41D
100
AcDbEntity
  8
0
100
AcDbBlockBegin
  2
block 132
 70
     0
 71
     0
 10
0.0
 20
0.0
 30
0.0
  3
block 132
  1

  0
POLYLINE
  5
421
330
41D
100
AcDbEntity
  8
COTAS
 62
     7
420
 16777215
370
     9
100
AcDb2dPolyline
 66
     1
 10
0.0
 20
0.0
 30
0.0
  0
VERTEX
  5
422
330
421
100
AcDbEntity
  8
COTAS
 62
     7
420
 16777215
370
     9
100
AcDbVertex
100
AcDb2dVertex
 10
91.100270307772
 20
103.2805856859335
 30
0.0
  0
VERTEX
  5
423
330
421
100
AcDbEntity
  8
COTAS
 62
     7
420
 16777215
370
     9
100
AcDbVertex
100
AcDb2dVertex
 10
91.100270307772
 20
103.2805856859335
 30
0.0
  0
SEQEND
  5
424
330
421
100
AcDbEntity
  8
COTAS
370
     9
  0
ENDBLK
  5
420
330
41D
100
AcDbEntity
  8
0
100
AcDbBlockEnd
  0
BLOCK
  5
427
330
425
100
AcDbEntity
  8
0
100
AcDbBlockBegin
  2
block 133
 70
     0
 71
     0
 10
0.0
 20
0.0
 30
0.0
  3
block 133
  1

  0
POLYLINE
  5
429
330
425
100
AcDbEntity
  8
COTAS
 62
     7
420
 16777215
370
     9
100
AcDb2dPolyline
 66
     1
 10
0.0
 20
0.0
 30
0.0
  0
VERTEX
  5
42A
330
429
100
AcDbEntity
  8
COTAS
 62
     7
420
 16777215
370
     9
100
AcDbVertex
100
AcDb2dVertex
 10
78.61454701336726
 20
84.29671900046137
 30
0.0
  0
VERTEX
  5
42B
330
429
100
AcDbEntity
  8
COTAS
 62
     7
420
 16777215
370
     9
100
AcDbVertex
100
AcDb2dVertex
 10
78.61454701336726
 20
84.29671900046137
 30
0.0
  0
SEQEND
  5
42C
330
429
100
AcDbEntity
  8
COTAS
370
     9
  0
ENDBLK
  5
428
330
425
100
AcDbEntity
  8
0
100
AcDbBlockEnd
  0
BLOCK
  5
42F
330
42D
100
AcDbEntity
  8
0
100
AcDbBlockBegin
  2
block 134
 70
     0
 71
     0
 10
0.0
 20
0.0
 30
0.0
  3
block 134
  1

  0
POLYLINE
  5
431
330
42D
100
AcDbEntity
  8
COTAS
 62
     7
420
 16777215
370
     9
100
AcDb2dPolyline
 66
     1
 10
0.0
 20
0.0
 30
0.0
  0
VERTEX
  5
432
330
431
100
AcDbEntity
  8
COTAS
 62
     7
420
 16777215
370
     9
100
AcDbVertex
100
AcDb2dVertex
 10
68.504390877965
 20
84.29671900046137
 30
0.0
  0
VERTEX
  5
433
330
431
100
AcDbEntity
  8
COTAS
 62
     7
420
 16777215
370
     9
100
AcDbVertex
100
AcDb2dVertex
 10
68.504390877965
 20
84.29671900046137
 30
0.0
  0
SEQEND
  5
434
330
431
100
AcDbEntity
  8
COTAS
370
     9
  0
ENDBLK
  5
430
330
42D
100
AcDbEntity
  8
0
100
AcDbBlockEnd
  0
BLOCK
  5
437
330
435
100
AcDbEntity
  8
0
100
AcDbBlockBegin
  2
block 135
 70
     0
 71
     0
 10
0.0
 20
0.0
 30
0.0
  3
block 135
  1

  0
INSERT
  5
43A
330
435
100
AcDbEntity
  8
COTAS
100
AcDbBlockReference
  2
block 136
 10
0.0
 20
0.0
 30
0.0
  0
INSERT
  5
442
330
435
100
AcDbEntity
  8
COTAS
100
AcDbBlockReference
  2
block 137
 10
0.0
 20
0.0
 30
0.0
  0
INSERT
  5
44A
330
435
100
AcDbEntity
  8
COTAS
100
AcDbBlockReference
  2
block 138
 10
0.0
 20
0.0
 30
0.0
  0
INSERT
  5
452
330
435
100
AcDbEntity
  8
COTAS
100
AcDbBlockReference
  2
block 139
 10
0.0
 20
0.0
 30
0.0
  0
INSERT
  5
45A
330
435
100
AcDbEntity
  8
COTAS
100
AcDbBlockReference
  2
block 140
 10
0.0
 20
0.0
 30
0.0
  0
INSERT
  5
465
330
435
100
AcDbEntity
  8
COTAS
100
AcDbBlockReference
  2
block 141
 10
0.0
 20
0.0
 30
0.0
  0
INSERT
  5
470
330
435
100
AcDbEntity
  8
COTAS
100
AcDbBlockReference
  2
block 142
 10
0.0
 20
0.0
 30
0.0
  0
INSERT
  5
475
330
435
100
AcDbEntity
  8
COTAS
100
AcDbBlockReference
  2
block 143
 10
0.0
 20
0.0
 30
0.0
  0
INSERT
  5
47D
330
435
100
AcDbEntity
  8
COTAS
100
AcDbBlockReference
  2
block 144
 10
0.0
 20
0.0
 30
0.0
  0
INSERT
  5
485
330
435
100
AcDbEntity
  8
COTAS
100
AcDbBlockReference
  2
block 145
 10
0.0
 20
0.0
 30
0.0
  0
ENDBLK
  5
438
330
435
100
AcDbEntity
  8
0
100
AcDbBlockEnd
  0
BLOCK
  5
43B
330
439
100
AcDbEntity
  8
0
100
AcDbBlockBegin
  2
block 136
 70
     0
 71
     0
 10
0.0
 20
0.0
 30
0.0
  3
block 136
  1

  0
POLYLINE
  5
43D
330
439
100
AcDbEntity
  8
COTAS
 62
     7
420
 16777215
370
     9
100
AcDb2dPolyline
 66
     1
 10
0.0
 20
0.0
 30
0.0
  0
VERTEX
  5
43E
330
43D
100
AcDbEntity
  8
COTAS
 62
     7
420
 16777215
370
     9
100
AcDbVertex
100
AcDb2dVertex
 10
91.00415208032489
 20
191.1862168427476
 30
0.0
  0
VERTEX
  5
43F
330
43D
100
AcDbEntity
  8
COTAS
 62
     7
420
 16777215
370
     9
100
AcDbVertex
100
AcDb2dVertex
 10
91.00415208032489
 20
186.1086595121758
 30
0.0
  0
SEQEND
  5
440
330
43D
100
AcDbEntity
  8
COTAS
370
     9
  0
ENDBLK
  5
43C
330
439
100
AcDbEntity
  8
0
100
AcDbBlockEnd
  0
BLOCK
  5
443
330
441
100
AcDbEntity
  8
0
100
AcDbBlockBegin
  2
block 137
 70
     0
 71
     0
 10
0.0
 20
0.0
 30
0.0
  3
block 137
  1

  0
POLYLINE
  5
445
330
441
100
AcDbEntity
  8
COTAS
 62
     7
420
 16777215
370
     9
100
AcDb2dPolyline
 66
     1
 10
0.0
 20
0.0
 30
0.0
  0
VERTEX
  5
446
330
445
100
AcDbEntity
  8
COTAS
 62
     7
420
 16777215
370
     9
100
AcDbVertex
100
AcDb2dVertex
 10
97.19895461380369
 20
191.1862168427476
 30
0.0
  0
VERTEX
  5
447
330
445
100
AcDbEntity
  8
COTAS
 62
     7
420
 16777215
370
     9
100
AcDbVertex
100
AcDb2dVertex
 10
97.19895461380369
 20
186.1086595121758
 30
0.0
  0
SEQEND
  5
448
330
445
100
AcDbEntity
  8
COTAS
370
     9
  0
ENDBLK
  5
444
330
441
100
AcDbEntity
  8
0
100
AcDbBlockEnd
  0
BLOCK
  5
44B
330
449
100
AcDbEntity
  8
0
100
AcDbBlockBegin
  2
block 138
 70
     0
 71
     0
 10
0.0
 20
0.0
 30
0.0
  3
block 138
  1

  0
POLYLINE
  5
44D
330
449
100
AcDbEntity
  8
COTAS
 62
     7
420
 16777215
370
     9
100
AcDb2dPolyline
 66
     1
 10
0.0
 20
0.0
 30
0.0
  0
VERTEX
  5
44E
330
44D
100
AcDbEntity
  8
COTAS
 62
     7
420
 16777215
370
     9
100
AcDbVertex
100
AcDb2dVertex
 10
92.80266536486877
 20
187.1077378619846
 30
0.0
  0
VERTEX
  5
44F
330
44D
100
AcDbEntity
  8
COTAS
 62
     7
420
 16777215
370
     9
100
AcDbVertex
100
AcDb2dVertex
 10
95.40044132925979
 20
187.1077378619846
 30
0.0
  0
SEQEND
  5
450
330
44D
100
AcDbEntity
  8
COTAS
370
     9
  0
ENDBLK
  5
44C
330
449
100
AcDbEntity
  8
0
100
AcDbBlockEnd
  0
BLOCK
  5
453
330
451
100
AcDbEntity
  8
0
100
AcDbBlockBegin
  2
block 139
 70
     0
 71
     0
 10
0.0
 20
0.0
 30
0.0
  3
block 139
  1

  0
POLYLINE
  5
455
330
451
100
AcDbEntity
  8
COTAS
 62
     7
420
 16777215
370
     9
100
AcDb2dPolyline
 66
     1
 10
0.0
 20
0.0
 30
0.0
  0
VERTEX
  5
456
330
455
100
AcDbEntity
  8
COTAS
 62
     7
420
 16777215
370
     9
100
AcDbVertex
100
AcDb2dVertex
 10
97.19895461380369
 20
187.1077378619846
 30
0.0
  0
VERTEX
  5
457
330
455
100
AcDbEntity
  8
COTAS
 62
     7
420
 16777215
370
     9
100
AcDbVertex
100
AcDb2dVertex
 10
98.9972956434597
 20
187.1077378619846
 30
0.0
  0
SEQEND
  5
458
330
455
100
AcDbEntity
  8
COTAS
370
     9
  0
ENDBLK
  5
454
330
451
100
AcDbEntity
  8
0
100
AcDbBlockEnd
  0
BLOCK
  5
45B
330
459
100
AcDbEntity
  8
0
100
AcDbBlockBegin
  2
block 140
 70
     0
 71
     0
 10
0.0
 20
0.0
 30
0.0
  3
block 140
  1

  0
POLYLINE
  5
45D
330
459
100
AcDbEntity
  8
COTAS
370
     0
100
AcDb2dPolyline
 66
     1
 10
0.0
 20
0.0
 30
0.0
  0
VERTEX
  5
45E
330
45D
100
AcDbEntity
  8
COTAS
370
     0
100
AcDbVertex
100
AcDb2dVertex
 10
92.80266536486877
 20
187.4076336218152
 30
0.0
  0
VERTEX
  5
45F
330
45D
100
AcDbEntity
  8
COTAS
370
     0
100
AcDbVertex
100
AcDb2dVertex
 10
92.80266536486877
 20
186.808014357042
 30
0.0
  0
VERTEX
  5
460
330
45D
100
AcDbEntity
  8
COTAS
370
     0
100
AcDbVertex
100
AcDb2dVertex
 10
91.00415208032489
 20
187.1077378619846
 30
0.0
  0
VERTEX
  5
461
330
45D
100
AcDbEntity
  8
COTAS
370
     0
100
AcDbVertex
100
AcDb2dVertex
 10
92.80266536486877
 20
187.4076336218152
 30
0.0
  0
SEQEND
  5
462
330
45D
100
AcDbEntity
  8
COTAS
370
     0
  0
HATCH
  5
463
330
459
100
AcDbEntity
  8
COTAS
 62
     7
420
 16777215
100
AcDbHatch
 10
0.0
 20
0.0
 30
0.0
210
0.0
220
0.0
230
1.0
  2
SOLID
 70
     1
 71
     0
 91
        1
 92
        1
 93
        3
 72
     1
 10
92.80266536486877
 20
187.4076336218152
 11
92.80266536486877
 21
186.808014357042
 72
     1
 10
92.80266536486877
 20
186.808014357042
 11
91.00415208032489
 21
187.1077378619846
 72
     1
 10
91.00415208032489
 20
187.1077378619846
 11
92.80266536486877
 21
187.4076336218152
 97
        0
 75
     2
 76
     1
 98
        0
  0
ENDBLK
  5
45C
330
459
100
AcDbEntity
  8
0
100
AcDbBlockEnd
  0
BLOCK
  5
466
330
464
100
AcDbEntity
  8
0
100
AcDbBlockBegin
  2
block 141
 70
     0
 71
     0
 10
0.0
 20
0.0
 30
0.0
  3
block 141
  1

  0
POLYLINE
  5
468
330
464
100
AcDbEntity
  8
COTAS
370
     0
100
AcDb2dPolyline
 66
     1
 10
0.0
 20
0.0
 30
0.0
  0
VERTEX
  5
469
330
468
100
AcDbEntity
  8
COTAS
370
     0
100
AcDbVertex
100
AcDb2dVertex
 10
95.40044132925979
 20
187.4076336218152
 30
0.0
  0
VERTEX
  5
46A
330
468
100
AcDbEntity
  8
COTAS
370
     0
100
AcDbVertex
100
AcDb2dVertex
 10
95.40044132925979
 20
186.808014357042
 30
0.0
  0
VERTEX
  5
46B
330
468
100
AcDbEntity
  8
COTAS
370
     0
100
AcDbVertex
100
AcDb2dVertex
 10
97.19895461380369
 20
187.1077378619846
 30
0.0
  0
VERTEX
  5
46C
330
468
100
AcDbEntity
  8
COTAS
370
     0
100
AcDbVertex
100
AcDb2dVertex
 10
95.40044132925979
 20
187.4076336218152
 30
0.0
  0
SEQEND
  5
46D
330
468
100
AcDbEntity
  8
COTAS
370
     0
  0
HATCH
  5
46E
330
464
100
AcDbEntity
  8
COTAS
 62
     7
420
 16777215
100
AcDbHatch
 10
0.0
 20
0.0
 30
0.0
210
0.0
220
0.0
230
1.0
  2
SOLID
 70
     1
 71
     0
 91
        1
 92
        1
 93
        3
 72
     1
 10
95.40044132925979
 20
187.4076336218152
 11
95.40044132925979
 21
186.808014357042
 72
     1
 10
95.40044132925979
 20
186.808014357042
 11
97.19895461380369
 21
187.1077378619846
 72
     1
 10
97.19895461380369
 20
187.1077378619846
 11
95.40044132925979
 21
187.4076336218152
 97
        0
 75
     2
 76
     1
 98
        0
  0
ENDBLK
  5
467
330
464
100
AcDbEntity
  8
0
100
AcDbBlockEnd
  0
BLOCK
  5
471
330
46F
100
AcDbEntity
  8
0
100
AcDbBlockBegin
  2
block 142
 70
     0
 71
     0
 10
0.0
 20
0.0
 30
0.0
  3
block 142
  1

  0
MTEXT
  5
473
330
46F
100
AcDbEntity
  8
COTAS
 62
     7
420
 16777215
100
AcDbMText
 10
99.71111989890936
 20
186.1086595121758
 30
0.0
 40
2.398890470823883
 41
0.0
 71
     7
 72
     1
  1
\fArial|b1|i0|c0|p34;\W1;\U+00D862
 73
     1
 44
1.0
  0
ENDBLK
  5
472
330
46F
100
AcDbEntity
  8
0
100
AcDbBlockEnd
  0
BLOCK
  5
476
330
474
100
AcDbEntity
  8
0
100
AcDbBlockBegin
  2
block 143
 70
     0
 71
     0
 10
0.0
 20
0.0
 30
0.0
  3
block 143
  1

  0
POLYLINE
  5
478
330
474
100
AcDbEntity
  8
COTAS
 62
     7
420
 16777215
370
     9
100
AcDb2dPolyline
 66
     1
 10
0.0
 20
0.0
 30
0.0
  0
VERTEX
  5
479
330
478
100
AcDbEntity
  8
COTAS
 62
     7
420
 16777215
370
     9
100
AcDbVertex
100
AcDb2dVertex
 10
91.00415208032489
 20
192.1854674474444
 30
0.0
  0
VERTEX
  5
47A
330
478
100
AcDbEntity
  8
COTAS
 62
     7
420
 16777215
370
     9
100
AcDbVertex
100
AcDb2dVertex
 10
91.00415208032489
 20
192.1854674474444
 30
0.0
  0
SEQEND
  5
47B
330
478
100
AcDbEntity
  8
COTAS
370
     9
  0
ENDBLK
  5
477
330
474
100
AcDbEntity
  8
0
100
AcDbBlockEnd
  0
BLOCK
  5
47E
330
47C
100
AcDbEntity
  8
0
100
AcDbBlockBegin
  2
block 144
 70
     0
 71
     0
 10
0.0
 20
0.0
 30
0.0
  3
block 144
  1

  0
POLYLINE
  5
480
330
47C
100
AcDbEntity
  8
COTAS
 62
     7
420
 16777215
370
     9
100
AcDb2dPolyline
 66
     1
 10
0.0
 20
0.0
 30
0.0
  0
VERTEX
  5
481
330
480
100
AcDbEntity
  8
COTAS
 62
     7
420
 16777215
370
     9
100
AcDbVertex
100
AcDb2dVertex
 10
97.19895461380369
 20
192.1854674474444
 30
0.0
  0
VERTEX
  5
482
330
480
100
AcDbEntity
  8
COTAS
 62
     7
420
 16777215
370
     9
100
AcDbVertex
100
AcDb2dVertex
 10
97.19895461380369
 20
192.1854674474444
 30
0.0
  0
SEQEND
  5
483
330
480
100
AcDbEntity
  8
COTAS
370
     9
  0
ENDBLK
  5
47F
330
47C
100
AcDbEntity
  8
0
100
AcDbBlockEnd
  0
BLOCK
  5
486
330
484
100
AcDbEntity
  8
0
100
AcDbBlockBegin
  2
block 145
 70
     0
 71
     0
 10
0.0
 20
0.0
 30
0.0
  3
block 145
  1

  0
POLYLINE
  5
488
330
484
100
AcDbEntity
  8
COTAS
 62
     7
420
 16777215
370
     9
100
AcDb2dPolyline
 66
     1
 10
0.0
 20
0.0
 30
0.0
  0
VERTEX
  5
489
330
488
100
AcDbEntity
  8
COTAS
 62
     7
420
 16777215
370
     9
100
AcDbVertex
100
AcDb2dVertex
 10
97.19895461380369
 20
187.1077378619846
 30
0.0
  0
VERTEX
  5
48A
330
488
100
AcDbEntity
  8
COTAS
 62
     7
420
 16777215
370
     9
100
AcDbVertex
100
AcDb2dVertex
 10
97.19895461380369
 20
187.1077378619846
 30
0.0
  0
SEQEND
  5
48B
330
488
100
AcDbEntity
  8
COTAS
370
     9
  0
ENDBLK
  5
487
330
484
100
AcDbEntity
  8
0
100
AcDbBlockEnd
  0
BLOCK
  5
48E
330
48C
100
AcDbEntity
  8
0
100
AcDbBlockBegin
  2
block 146
 70
     0
 71
     0
 10
0.0
 20
0.0
 30
0.0
  3
block 146
  1

  0
INSERT
  5
491
330
48C
100
AcDbEntity
  8
COTAS
100
AcDbBlockReference
  2
block 147
 10
0.0
 20
0.0
 30
0.0
  0
INSERT
  5
499
330
48C
100
AcDbEntity
  8
COTAS
100
AcDbBlockReference
  2
block 148
 10
0.0
 20
0.0
 30
0.0
  0
INSERT
  5
4A1
330
48C
100
AcDbEntity
  8
COTAS
100
AcDbBlockReference
  2
block 149
 10
0.0
 20
0.0
 30
0.0
  0
INSERT
  5
4A9
330
48C
100
AcDbEntity
  8
COTAS
100
AcDbBlockReference
  2
block 150
 10
0.0
 20
0.0
 30
0.0
  0
INSERT
  5
4B1
330
48C
100
AcDbEntity
  8
COTAS
100
AcDbBlockReference
  2
block 151
 10
0.0
 20
0.0
 30
0.0
  0
INSERT
  5
4BC
330
48C
100
AcDbEntity
  8
COTAS
100
AcDbBlockReference
  2
block 152
 10
0.0
 20
0.0
 30
0.0
  0
INSERT
  5
4C7
330
48C
100
AcDbEntity
  8
COTAS
100
AcDbBlockReference
  2
block 153
 10
0.0
 20
0.0
 30
0.0
  0
INSERT
  5
4CC
330
48C
100
AcDbEntity
  8
COTAS
100
AcDbBlockReference
  2
block 154
 10
0.0
 20
0.0
 30
0.0
  0
INSERT
  5
4D4
330
48C
100
AcDbEntity
  8
COTAS
100
AcDbBlockReference
  2
block 155
 10
0.0
 20
0.0
 30
0.0
  0
INSERT
  5
4DC
330
48C
100
AcDbEntity
  8
COTAS
100
AcDbBlockReference
  2
block 156
 10
0.0
 20
0.0
 30
0.0
  0
ENDBLK
  5
48F
330
48C
100
AcDbEntity
  8
0
100
AcDbBlockEnd
  0
BLOCK
  5
492
330
490
100
AcDbEntity
  8
0
100
AcDbBlockBegin
  2
block 147
 70
     0
 71
     0
 10
0.0
 20
0.0
 30
0.0
  3
block 147
  1

  0
POLYLINE
  5
494
330
490
100
AcDbEntity
  8
COTAS
 62
     7
420
 16777215
370
     9
100
AcDb2dPolyline
 66
     1
 10
0.0
 20
0.0
 30
0.0
  0
VERTEX
  5
495
330
494
100
AcDbEntity
  8
COTAS
 62
     7
420
 16777215
370
     9
100
AcDbVertex
100
AcDb2dVertex
 10
77.61546866355837
 20
200.6771166561562
 30
0.0
  0
VERTEX
  5
496
330
494
100
AcDbEntity
  8
COTAS
 62
     7
420
 16777215
370
     9
100
AcDbVertex
100
AcDb2dVertex
 10
67.5051402732682
 20
200.6771166561562
 30
0.0
  0
SEQEND
  5
497
330
494
100
AcDbEntity
  8
COTAS
370
     9
  0
ENDBLK
  5
493
330
490
100
AcDbEntity
  8
0
100
AcDbBlockEnd
  0
BLOCK
  5
49A
330
498
100
AcDbEntity
  8
0
100
AcDbBlockBegin
  2
block 148
 70
     0
 71
     0
 10
0.0
 20
0.0
 30
0.0
  3
block 148
  1

  0
POLYLINE
  5
49C
330
498
100
AcDbEntity
  8
COTAS
 62
     7
420
 16777215
370
     9
100
AcDb2dPolyline
 66
     1
 10
0.0
 20
0.0
 30
0.0
  0
VERTEX
  5
49D
330
49C
100
AcDbEntity
  8
COTAS
 62
     7
420
 16777215
370
     9
100
AcDbVertex
100
AcDb2dVertex
 10
78.11500783846282
 20
192.1854674474444
 30
0.0
  0
VERTEX
  5
49E
330
49C
100
AcDbEntity
  8
COTAS
 62
     7
420
 16777215
370
     9
100
AcDbVertex
100
AcDb2dVertex
 10
67.5051402732682
 20
192.1854674474444
 30
0.0
  0
SEQEND
  5
49F
330
49C
100
AcDbEntity
  8
COTAS
370
     9
  0
ENDBLK
  5
49B
330
498
100
AcDbEntity
  8
0
100
AcDbBlockEnd
  0
BLOCK
  5
4A2
330
4A0
100
AcDbEntity
  8
0
100
AcDbBlockBegin
  2
block 149
 70
     0
 71
     0
 10
0.0
 20
0.0
 30
0.0
  3
block 149
  1

  0
POLYLINE
  5
4A4
330
4A0
100
AcDbEntity
  8
COTAS
 62
     7
420
 16777215
370
     9
100
AcDb2dPolyline
 66
     1
 10
0.0
 20
0.0
 30
0.0
  0
VERTEX
  5
4A5
330
4A4
100
AcDbEntity
  8
COTAS
 62
     7
420
 16777215
370
     9
100
AcDbVertex
100
AcDb2dVertex
 10
68.504390877965
 20
198.8786033716123
 30
0.0
  0
VERTEX
  5
4A6
330
4A4
100
AcDbEntity
  8
COTAS
 62
     7
420
 16777215
370
     9
100
AcDbVertex
100
AcDb2dVertex
 10
68.504390877965
 20
198.4295348788621
 30
0.0
  0
SEQEND
  5
4A7
330
4A4
100
AcDbEntity
  8
COTAS
370
     9
  0
ENDBLK
  5
4A3
330
4A0
100
AcDbEntity
  8
0
100
AcDbBlockEnd
  0
BLOCK
  5
4AA
330
4A8
100
AcDbEntity
  8
0
100
AcDbBlockBegin
  2
block 150
 70
     0
 71
     0
 10
0.0
 20
0.0
 30
0.0
  3
block 150
  1

  0
POLYLINE
  5
4AC
330
4A8
100
AcDbEntity
  8
COTAS
 62
     7
420
 16777215
370
     9
100
AcDb2dPolyline
 66
     1
 10
0.0
 20
0.0
 30
0.0
  0
VERTEX
  5
4AD
330
4AC
100
AcDbEntity
  8
COTAS
 62
     7
420
 16777215
370
     9
100
AcDbVertex
100
AcDb2dVertex
 10
68.504390877965
 20
193.9838084771004
 30
0.0
  0
VERTEX
  5
4AE
330
4AC
100
AcDbEntity
  8
COTAS
 62
     7
420
 16777215
370
     9
100
AcDbVertex
100
AcDb2dVertex
 10
68.504390877965
 20
194.4330492247386
 30
0.0
  0
SEQEND
  5
4AF
330
4AC
100
AcDbEntity
  8
COTAS
370
     9
  0
ENDBLK
  5
4AB
330
4A8
100
AcDbEntity
  8
0
100
AcDbBlockEnd
  0
BLOCK
  5
4B2
330
4B0
100
AcDbEntity
  8
0
100
AcDbBlockBegin
  2
block 151
 70
     0
 71
     0
 10
0.0
 20
0.0
 30
0.0
  3
block 151
  1

  0
POLYLINE
  5
4B4
330
4B0
100
AcDbEntity
  8
COTAS
370
     0
100
AcDb2dPolyline
 66
     1
 10
0.0
 20
0.0
 30
0.0
  0
VERTEX
  5
4B5
330
4B4
100
AcDbEntity
  8
COTAS
370
     0
100
AcDbVertex
100
AcDb2dVertex
 10
68.20466737302232
 20
198.8786033716123
 30
0.0
  0
VERTEX
  5
4B6
330
4B4
100
AcDbEntity
  8
COTAS
370
     0
100
AcDbVertex
100
AcDb2dVertex
 10
68.80411438290766
 20
198.8786033716123
 30
0.0
  0
VERTEX
  5
4B7
330
4B4
100
AcDbEntity
  8
COTAS
370
     0
100
AcDbVertex
100
AcDb2dVertex
 10
68.504390877965
 20
200.6771166561562
 30
0.0
  0
VERTEX
  5
4B8
330
4B4
100
AcDbEntity
  8
COTAS
370
     0
100
AcDbVertex
100
AcDb2dVertex
 10
68.20466737302232
 20
198.8786033716123
 30
0.0
  0
SEQEND
  5
4B9
330
4B4
100
AcDbEntity
  8
COTAS
370
     0
  0
HATCH
  5
4BA
330
4B0
100
AcDbEntity
  8
COTAS
 62
     7
420
 16777215
100
AcDbHatch
 10
0.0
 20
0.0
 30
0.0
210
0.0
220
0.0
230
1.0
  2
SOLID
 70
     1
 71
     0
 91
        1
 92
        1
 93
        3
 72
     1
 10
68.20466737302232
 20
198.8786033716123
 11
68.80411438290766
 21
198.8786033716123
 72
     1
 10
68.80411438290766
 20
198.8786033716123
 11
68.504390877965
 21
200.6771166561562
 72
     1
 10
68.504390877965
 20
200.6771166561562
 11
68.20466737302232
 21
198.8786033716123
 97
        0
 75
     2
 76
     1
 98
        0
  0
ENDBLK
  5
4B3
330
4B0
100
AcDbEntity
  8
0
100
AcDbBlockEnd
  0
BLOCK
  5
4BD
330
4BB
100
AcDbEntity
  8
0
100
AcDbBlockBegin
  2
block 152
 70
     0
 71
     0
 10
0.0
 20
0.0
 30
0.0
  3
block 152
  1

  0
POLYLINE
  5
4BF
330
4BB
100
AcDbEntity
  8
COTAS
370
     0
100
AcDb2dPolyline
 66
     1
 10
0.0
 20
0.0
 30
0.0
  0
VERTEX
  5
4C0
330
4BF
100
AcDbEntity
  8
COTAS
370
     0
100
AcDbVertex
100
AcDb2dVertex
 10
68.20466737302232
 20
193.9838084771004
 30
0.0
  0
VERTEX
  5
4C1
330
4BF
100
AcDbEntity
  8
COTAS
370
     0
100
AcDbVertex
100
AcDb2dVertex
 10
68.80411438290766
 20
193.9838084771004
 30
0.0
  0
VERTEX
  5
4C2
330
4BF
100
AcDbEntity
  8
COTAS
370
     0
100
AcDbVertex
100
AcDb2dVertex
 10
68.504390877965
 20
192.1854674474444
 30
0.0
  0
VERTEX
  5
4C3
330
4BF
100
AcDbEntity
  8
COTAS
370
     0
100
AcDbVertex
100
AcDb2dVertex
 10
68.20466737302232
 20
193.9838084771004
 30
0.0
  0
SEQEND
  5
4C4
330
4BF
100
AcDbEntity
  8
COTAS
370
     0
  0
HATCH
  5
4C5
330
4BB
100
AcDbEntity
  8
COTAS
 62
     7
420
 16777215
100
AcDbHatch
 10
0.0
 20
0.0
 30
0.0
210
0.0
220
0.0
230
1.0
  2
SOLID
 70
     1
 71
     0
 91
        1
 92
        1
 93
        3
 72
     1
 10
68.20466737302232
 20
193.9838084771004
 11
68.80411438290766
 21
193.9838084771004
 72
     1
 10
68.80411438290766
 20
193.9838084771004
 11
68.504390877965
 21
192.1854674474444
 72
     1
 10
68.504390877965
 20
192.1854674474444
 11
68.20466737302232
 21
193.9838084771004
 97
        0
 75
     2
 76
     1
 98
        0
  0
ENDBLK
  5
4BE
330
4BB
100
AcDbEntity
  8
0
100
AcDbBlockEnd
  0
BLOCK
  5
4C8
330
4C6
100
AcDbEntity
  8
0
100
AcDbBlockBegin
  2
block 153
 70
     0
 71
     0
 10
0.0
 20
0.0
 30
0.0
  3
block 153
  1

  0
MTEXT
  5
4CA
330
4C6
100
AcDbEntity
  8
COTAS
 62
     7
420
 16777215
100
AcDbMText
 10
66.60114662157906
 20
195.4321275745475
 30
0.0
 40
2.398890470823883
 41
0.0
 71
     7
 72
     1
  1
\fArial|b1|i0|c0|p34;\W1;80
 73
     1
 44
1.0
  0
ENDBLK
  5
4C9
330
4C6
100
AcDbEntity
  8
0
100
AcDbBlockEnd
  0
BLOCK
  5
4CD
330
4CB
100
AcDbEntity
  8
0
100
AcDbBlockBegin
  2
block 154
 70
     0
 71
     0
 10
0.0
 20
0.0
 30
0.0
  3
block 154
  1

  0
POLYLINE
  5
4CF
330
4CB
100
AcDbEntity
  8
COTAS
 62
     7
420
 16777215
370
     9
100
AcDb2dPolyline
 66
     1
 10
0.0
 20
0.0
 30
0.0
  0
VERTEX
  5
4D0
330
4CF
100
AcDbEntity
  8
COTAS
 62
     7
420
 16777215
370
     9
100
AcDbVertex
100
AcDb2dVertex
 10
78.61454701336726
 20
200.6771166561562
 30
0.0
  0
VERTEX
  5
4D1
330
4CF
100
AcDbEntity
  8
COTAS
 62
     7
420
 16777215
370
     9
100
AcDbVertex
100
AcDb2dVertex
 10
78.61454701336726
 20
200.6771166561562
 30
0.0
  0
SEQEND
  5
4D2
330
4CF
100
AcDbEntity
  8
COTAS
370
     9
  0
ENDBLK
  5
4CE
330
4CB
100
AcDbEntity
  8
0
100
AcDbBlockEnd
  0
BLOCK
  5
4D5
330
4D3
100
AcDbEntity
  8
0
100
AcDbBlockBegin
  2
block 155
 70
     0
 71
     0
 10
0.0
 20
0.0
 30
0.0
  3
block 155
  1

  0
POLYLINE
  5
4D7
330
4D3
100
AcDbEntity
  8
COTAS
 62
     7
420
 16777215
370
     9
100
AcDb2dPolyline
 66
     1
 10
0.0
 20
0.0
 30
0.0
  0
VERTEX
  5
4D8
330
4D7
100
AcDbEntity
  8
COTAS
 62
     7
420
 16777215
370
     9
100
AcDbVertex
100
AcDb2dVertex
 10
79.1142584431596
 20
192.1854674474444
 30
0.0
  0
VERTEX
  5
4D9
330
4D7
100
AcDbEntity
  8
COTAS
 62
     7
420
 16777215
370
     9
100
AcDbVertex
100
AcDb2dVertex
 10
79.1142584431596
 20
192.1854674474444
 30
0.0
  0
SEQEND
  5
4DA
330
4D7
100
AcDbEntity
  8
COTAS
370
     9
  0
ENDBLK
  5
4D6
330
4D3
100
AcDbEntity
  8
0
100
AcDbBlockEnd
  0
BLOCK
  5
4DD
330
4DB
100
AcDbEntity
  8
0
100
AcDbBlockBegin
  2
block 156
 70
     0
 71
     0
 10
0.0
 20
0.0
 30
0.0
  3
block 156
  1

  0
POLYLINE
  5
4DF
330
4DB
100
AcDbEntity
  8
COTAS
 62
     7
420
 16777215
370
     9
100
AcDb2dPolyline
 66
     1
 10
0.0
 20
0.0
 30
0.0
  0
VERTEX
  5
4E0
330
4DF
100
AcDbEntity
  8
COTAS
 62
     7
420
 16777215
370
     9
100
AcDbVertex
100
AcDb2dVertex
 10
68.504390877965
 20
192.1854674474444
 30
0.0
  0
VERTEX
  5
4E1
330
4DF
100
AcDbEntity
  8
COTAS
 62
     7
420
 16777215
370
     9
100
AcDbVertex
100
AcDb2dVertex
 10
68.504390877965
 20
192.1854674474444
 30
0.0
  0
SEQEND
  5
4E2
330
4DF
100
AcDbEntity
  8
COTAS
370
     9
  0
ENDBLK
  5
4DE
330
4DB
100
AcDbEntity
  8
0
100
AcDbBlockEnd
  0
BLOCK
  5
4E6
330
4E4
100
AcDbEntity
  8
0
100
AcDbBlockBegin
  2
block 157
 70
     0
 71
     0
 10
0.0
 20
0.0
 30
0.0
  3
block 157
  1

  0
POLYLINE
  5
4E8
330
4E4
100
AcDbEntity
  8
EJES
  6
AI-Linetype-1
 62
     7
420
 16777215
370
     9
100
AcDb2dPolyline
 66
     1
 10
0.0
 20
0.0
 30
0.0
  0
VERTEX
  5
4E9
330
4E8
100
AcDbEntity
  8
EJES
  6
AI-Linetype-1
 62
     7
420
 16777215
370
     9
100
AcDbVertex
100
AcDb2dVertex
 10
91.100270307772
 20
103.2805856859335
 30
0.0
  0
VERTEX
  5
4EA
330
4E8
100
AcDbEntity
  8
EJES
  6
AI-Linetype-1
 62
     7
420
 16777215
370
     9
100
AcDbVertex
100
AcDb2dVertex
 10
104.0969015996825
 20
103.2805856859335
 30
0.0
  0
SEQEND
  5
4EB
330
4E8
100
AcDbEntity
  8
EJES
  6
AI-Linetype-1
370
     9
  0
ENDBLK
  5
4E7
330
4E4
100
AcDbEntity
  8
0
100
AcDbBlockEnd
  0
BLOCK
  5
4EF
330
4ED
100
AcDbEntity
  8
0
100
AcDbBlockBegin
  2
block 158
 70
     0
 71
     0
 10
0.0
 20
0.0
 30
0.0
  3
block 158
  1

  0
POLYLINE
  5
4F1
330
4ED
100
AcDbEntity
  8
EJES
  6
AI-Linetype-2
 62
     7
420
 16777215
370
     9
100
AcDb2dPolyline
 66
     1
 10
0.0
 20
0.0
 30
0.0
  0
VERTEX
  5
4F2
330
4F1
100
AcDbEntity
  8
EJES
  6
AI-Linetype-2
 62
     7
420
 16777215
370
     9
100
AcDbVertex
100
AcDb2dVertex
 10
97.59858595372725
 20
109.7790735867766
 30
0.0
  0
VERTEX
  5
4F3
330
4F1
100
AcDbEntity
  8
EJES
  6
AI-Linetype-2
 62
     7
420
 16777215
370
     9
100
AcDbVertex
100
AcDb2dVertex
 10
97.59858595372725
 20
96.78209778509033
 30
0.0
  0
SEQEND
  5
4F4
330
4F1
100
AcDbEntity
  8
EJES
  6
AI-Linetype-2
370
     9
  0
ENDBLK
  5
4F0
330
4ED
100
AcDbEntity
  8
0
100
AcDbBlockEnd
  0
BLOCK
  5
4F8
330
4F6
100
AcDbEntity
  8
0
100
AcDbBlockBegin
  2
block 159
 70
     0
 71
     0
 10
0.0
 20
0.0
 30
0.0
  3
block 159
  1

  0
POLYLINE
  5
4FA
330
4F6
100
AcDbEntity
  8
EJES
  6
AI-Linetype-3
 62
     7
420
 16777215
370
     9
100
AcDb2dPolyline
 66
     1
 10
0.0
 20
0.0
 30
0.0
  0
VERTEX
  5
4FB
330
4FA
100
AcDbEntity
  8
EJES
  6
AI-Linetype-3
 62
     7
420
 16777215
370
     9
100
AcDbVertex
100
AcDb2dVertex
 10
94.10146721962033
 20
190.2024691779616
 30
0.0
  0
VERTEX
  5
4FC
330
4FA
100
AcDbEntity
  8
EJES
  6
AI-Linetype-3
 62
     7
420
 16777215
370
     9
100
AcDbVertex
100
AcDb2dVertex
 10
94.10146721962033
 20
197.6505982757869
 30
0.0
  0
SEQEND
  5
4FD
330
4FA
100
AcDbEntity
  8
EJES
  6
AI-Linetype-3
370
     9
  0
ENDBLK
  5
4F9
330
4F6
100
AcDbEntity
  8
0
100
AcDbBlockEnd
  0
BLOCK
  5
502
330
500
100
AcDbEntity
  8
0
100
AcDbBlockBegin
  2
block 160
 70
     0
 71
     0
 10
0.0
 20
0.0
 30
0.0
  3
block 160
  1

  0
POLYLINE
  5
504
330
500
100
AcDbEntity
  8
LINEAS-FINAS
 62
     7
420
 16777215
370
     9
100
AcDb2dPolyline
 66
     1
 10
0.0
 20
0.0
 30
0.0
  0
VERTEX
  5
505
330
504
100
AcDbEntity
  8
LINEAS-FINAS
 62
     7
420
 16777215
370
     9
100
AcDbVertex
100
AcDb2dVertex
 10
91.00415208032489
 20
193.0846379622724
 30
0.0
  0
VERTEX
  5
506
330
504
100
AcDbEntity
  8
LINEAS-FINAS
 62
     7
420
 16777215
370
     9
100
AcDbVertex
100
AcDb2dVertex
 10
94.10146721962033
 20
193.0846379622724
 30
0.0
  0
SEQEND
  5
507
330
504
100
AcDbEntity
  8
LINEAS-FINAS
370
     9
  0
ENDBLK
  5
503
330
500
100
AcDbEntity
  8
0
100
AcDbBlockEnd
  0
BLOCK
  5
50B
330
509
100
AcDbEntity
  8
0
100
AcDbBlockBegin
  2
block 161
 70
     0
 71
     0
 10
0.0
 20
0.0
 30
0.0
  3
block 161
  1

  0
POLYLINE
  5
50D
330
509
100
AcDbEntity
  8
SOMBREA
370
     0
100
AcDb2dPolyline
 66
     1
 10
0.0
 20
0.0
 30
0.0
  0
VERTEX
  5
50E
330
50D
100
AcDbEntity
  8
SOMBREA
370
     0
100
AcDbVertex
100
AcDb2dVertex
 10
88.8449370605224
 20
194.2239317908303
 30
0.0
  0
VERTEX
  5
50F
330
50D
100
AcDbEntity
  8
SOMBREA
370
     0
100
AcDbVertex
100
AcDb2dVertex
 10
85.67975349539509
 20
195.2309338654825
 30
0.0
  0
VERTEX
  5
510
330
50D
100
AcDbEntity
  8
SOMBREA
370
     0
100
AcDbVertex
100
AcDb2dVertex
 10
84.01025912188686
 20
196.9102467676009
 30
0.0
  0
VERTEX
  5
511
330
50D
100
AcDbEntity
  8
SOMBREA
370
     0
100
AcDbVertex
100
AcDb2dVertex
 10
83.59409131272508
 20
199.6012126263448
 30
0.0
  0
VERTEX
  5
512
330
50D
100
AcDbEntity
  8
SOMBREA
370
     0
100
AcDbVertex
100
AcDb2dVertex
 10
82.64996227215569
 20
200.4998663765091
 30
0.0
  0
VERTEX
  5
513
330
50D
100
AcDbEntity
  8
SOMBREA
370
     0
100
AcDbVertex
100
AcDb2dVertex
 10
79.11391393338381
 20
200.677461165932
 30
0.0
  0
VERTEX
  5
514
330
50D
100
AcDbEntity
  8
SOMBREA
370
     0
100
AcDbVertex
100
AcDb2dVertex
 10
78.61437475847936
 20
200.1779219910276
 30
0.0
  0
VERTEX
  5
515
330
50D
100
AcDbEntity
  8
SOMBREA
370
     0
100
AcDbVertex
100
AcDb2dVertex
 10
78.61437475847936
 20
192.6851788772367
 30
0.0
  0
VERTEX
  5
516
330
50D
100
AcDbEntity
  8
SOMBREA
370
     0
100
AcDbVertex
100
AcDb2dVertex
 10
79.11391393338381
 20
192.1856397023323
 30
0.0
  0
VERTEX
  5
517
330
50D
100
AcDbEntity
  8
SOMBREA
370
     0
100
AcDbVertex
100
AcDb2dVertex
 10
82.847194118799
 20
192.1856397023323
 30
0.0
  0
VERTEX
  5
518
330
50D
100
AcDbEntity
  8
SOMBREA
370
     0
100
AcDbVertex
100
AcDb2dVertex
 10
83.14416154553528
 20
192.4471226221616
 30
0.0
  0
VERTEX
  5
519
330
50D
100
AcDbEntity
  8
SOMBREA
370
     0
100
AcDbVertex
100
AcDb2dVertex
 10
83.29850192509197
 20
193.2804917698125
 30
0.0
  0
VERTEX
  5
51A
330
50D
100
AcDbEntity
  8
SOMBREA
370
     0
100
AcDbVertex
100
AcDb2dVertex
 10
84.54734986235309
 20
194.0620121962061
 30
0.0
  0
VERTEX
  5
51B
330
50D
100
AcDbEntity
  8
SOMBREA
370
     0
100
AcDbVertex
100
AcDb2dVertex
 10
88.71367883594405
 20
192.9096269961679
 30
0.0
  0
VERTEX
  5
51C
330
50D
100
AcDbEntity
  8
SOMBREA
370
     0
100
AcDbVertex
100
AcDb2dVertex
 10
89.70517797068543
 20
192.3360182194673
 30
0.0
  0
VERTEX
  5
51D
330
50D
100
AcDbEntity
  8
SOMBREA
370
     0
100
AcDbVertex
100
AcDb2dVertex
 10
89.70517797068543
 20
192.1856397023323
 30
0.0
  0
VERTEX
  5
51E
330
50D
100
AcDbEntity
  8
SOMBREA
370
     0
100
AcDbVertex
100
AcDb2dVertex
 10
91.00432433521277
 20
192.1856397023323
 30
0.0
  0
VERTEX
  5
51F
330
50D
100
AcDbEntity
  8
SOMBREA
370
     0
100
AcDbVertex
100
AcDb2dVertex
 10
91.00432433521277
 20
192.7964555348189
 30
0.0
  0
VERTEX
  5
520
330
50D
100
AcDbEntity
  8
SOMBREA
370
     0
100
AcDbVertex
100
AcDb2dVertex
 10
90.75507151242425
 20
193.2286430485552
 30
0.0
  0
VERTEX
  5
521
330
50D
100
AcDbEntity
  8
SOMBREA
370
     0
100
AcDbVertex
100
AcDb2dVertex
 10
89.33431319704086
 20
194.0513323931564
 30
0.0
  0
VERTEX
  5
522
330
50D
100
AcDbEntity
  8
SOMBREA
370
     0
100
AcDbVertex
100
AcDb2dVertex
 10
88.8449370605224
 20
194.2239317908303
 30
0.0
  0
SEQEND
  5
523
330
50D
100
AcDbEntity
  8
SOMBREA
370
     0
  0
POLYLINE
  5
524
330
509
100
AcDbEntity
  8
SOMBREA
370
     0
100
AcDb2dPolyline
 66
     1
 10
0.0
 20
0.0
 30
0.0
  0
VERTEX
  5
525
330
524
100
AcDbEntity
  8
SOMBREA
370
     0
100
AcDbVertex
100
AcDb2dVertex
 10
83.54189808169197
 20
194.9772024156086
 30
0.0
  0
VERTEX
  5
526
330
524
100
AcDbEntity
  8
SOMBREA
370
     0
100
AcDbVertex
100
AcDb2dVertex
 10
82.30993112344487
 20
193.4365546982482
 30
0.0
  0
VERTEX
  5
527
330
524
100
AcDbEntity
  8
SOMBREA
370
     0
100
AcDbVertex
100
AcDb2dVertex
 10
82.01434173581175
 20
193.1848903070291
 30
0.0
  0
VERTEX
  5
528
330
524
100
AcDbEntity
  8
SOMBREA
370
     0
100
AcDbVertex
100
AcDb2dVertex
 10
79.91352112300672
 20
193.1848903070291
 30
0.0
  0
VERTEX
  5
529
330
524
100
AcDbEntity
  8
SOMBREA
370
     0
100
AcDbVertex
100
AcDb2dVertex
 10
79.61362536317615
 20
193.4844415570838
 30
0.0
  0
VERTEX
  5
52A
330
524
100
AcDbEntity
  8
SOMBREA
370
     0
100
AcDbVertex
100
AcDb2dVertex
 10
79.61362536317615
 20
199.3368013734213
 30
0.0
  0
VERTEX
  5
52B
330
524
100
AcDbEntity
  8
SOMBREA
370
     0
100
AcDbVertex
100
AcDb2dVertex
 10
79.92867955314175
 20
199.636352623476
 30
0.0
  0
VERTEX
  5
52C
330
524
100
AcDbEntity
  8
SOMBREA
370
     0
100
AcDbVertex
100
AcDb2dVertex
 10
82.33146298443212
 20
199.5154296921716
 30
0.0
  0
VERTEX
  5
52D
330
524
100
AcDbEntity
  8
SOMBREA
370
     0
100
AcDbVertex
100
AcDb2dVertex
 10
82.63394256758116
 20
199.2275917744939
 30
0.0
  0
VERTEX
  5
52E
330
524
100
AcDbEntity
  8
SOMBREA
370
     0
100
AcDbVertex
100
AcDb2dVertex
 10
82.99498881261555
 20
196.9648515670646
 30
0.0
  0
VERTEX
  5
52F
330
524
100
AcDbEntity
  8
SOMBREA
370
     0
100
AcDbVertex
100
AcDb2dVertex
 10
83.66144297389323
 20
195.4465969851309
 30
0.0
  0
VERTEX
  5
530
330
524
100
AcDbEntity
  8
SOMBREA
370
     0
100
AcDbVertex
100
AcDb2dVertex
 10
83.54189808169197
 20
194.9772024156086
 30
0.0
  0
SEQEND
  5
531
330
524
100
AcDbEntity
  8
SOMBREA
370
     0
  0
HATCH
  5
532
330
509
100
AcDbEntity
  8
SOMBREA
 62
     7
420
 16777215
100
AcDbHatch
 10
0.0
 20
0.0
 30
0.0
210
0.0
220
0.0
230
1.0
  2
SOLID
 70
     1
 71
     0
 91
        2
 92
        1
 93
       20
 72
     1
 10
88.8449370605224
 20
194.2239317908303
 11
85.67975349539509
 21
195.2309338654825
 72
     1
 10
85.67975349539509
 20
195.2309338654825
 11
84.01025912188686
 21
196.9102467676009
 72
     1
 10
84.01025912188686
 20
196.9102467676009
 11
83.59409131272508
 21
199.6012126263448
 72
     1
 10
83.59409131272508
 20
199.6012126263448
 11
82.64996227215569
 21
200.4998663765091
 72
     1
 10
82.64996227215569
 20
200.4998663765091
 11
79.11391393338381
 21
200.677461165932
 72
     1
 10
79.11391393338381
 20
200.677461165932
 11
78.61437475847936
 21
200.1779219910276
 72
     1
 10
78.61437475847936
 20
200.1779219910276
 11
78.61437475847936
 21
192.6851788772367
 72
     1
 10
78.61437475847936
 20
192.6851788772367
 11
79.11391393338381
 21
192.1856397023323
 72
     1
 10
79.11391393338381
 20
192.1856397023323
 11
82.847194118799
 21
192.1856397023323
 72
     1
 10
82.847194118799
 20
192.1856397023323
 11
83.14416154553528
 21
192.4471226221616
 72
     1
 10
83.14416154553528
 20
192.4471226221616
 11
83.29850192509197
 21
193.2804917698125
 72
     1
 10
83.29850192509197
 20
193.2804917698125
 11
84.54734986235309
 21
194.0620121962061
 72
     1
 10
84.54734986235309
 20
194.0620121962061
 11
88.71367883594405
 21
192.9096269961679
 72
     1
 10
88.71367883594405
 20
192.9096269961679
 11
89.70517797068543
 21
192.3360182194673
 72
     1
 10
89.70517797068543
 20
192.3360182194673
 11
89.70517797068543
 21
192.1856397023323
 72
     1
 10
89.70517797068543
 20
192.1856397023323
 11
91.00432433521277
 21
192.1856397023323
 72
     1
 10
91.00432433521277
 20
192.1856397023323
 11
91.00432433521277
 21
192.7964555348189
 72
     1
 10
91.00432433521277
 20
192.7964555348189
 11
90.75507151242425
 21
193.2286430485552
 72
     1
 10
90.75507151242425
 20
193.2286430485552
 11
89.33431319704086
 21
194.0513323931564
 72
     1
 10
89.33431319704086
 20
194.0513323931564
 11
88.8449370605224
 21
194.2239317908303
 97
        0
 92
        1
 93
       11
 72
     1
 10
83.54189808169197
 20
194.9772024156086
 11
82.30993112344487
 21
193.4365546982482
 72
     1
 10
82.30993112344487
 20
193.4365546982482
 11
82.01434173581175
 21
193.1848903070291
 72
     1
 10
82.01434173581175
 20
193.1848903070291
 11
79.91352112300672
 21
193.1848903070291
 72
     1
 10
79.91352112300672
 20
193.1848903070291
 11
79.61362536317615
 21
193.4844415570838
 72
     1
 10
79.61362536317615
 20
193.4844415570838
 11
79.61362536317615
 21
199.3368013734213
 72
     1
 10
79.61362536317615
 20
199.3368013734213
 11
79.92867955314175
 21
199.636352623476
 72
     1
 10
79.92867955314175
 20
199.636352623476
 11
82.33146298443212
 21
199.5154296921716
 72
     1
 10
82.33146298443212
 20
199.5154296921716
 11
82.63394256758116
 21
199.2275917744939
 72
     1
 10
82.63394256758116
 20
199.2275917744939
 11
82.99498881261555
 21
196.9648515670646
 72
     1
 10
82.99498881261555
 20
196.9648515670646
 11
83.66144297389323
 21
195.4465969851309
 72
     1
 10
83.66144297389323
 20
195.4465969851309
 11
83.54189808169197
 21
194.9772024156086
 97
        0
 75
     0
 76
     1
 98
        0
  0
ENDBLK
  5
50C
330
509
100
AcDbEntity
  8
0
100
AcDbBlockEnd
  0
BLOCK
  5
535
330
533
100
AcDbEntity
  8
0
100
AcDbBlockBegin
  2
block 162
 70
     0
 71
     0
 10
0.0
 20
0.0
 30
0.0
  3
block 162
  1

  0
POLYLINE
  5
537
330
533
100
AcDbEntity
  8
SOMBREA
370
     0
100
AcDb2dPolyline
 66
     1
 10
0.0
 20
0.0
 30
0.0
  0
VERTEX
  5
538
330
537
100
AcDbEntity
  8
SOMBREA
370
     0
100
AcDbVertex
100
AcDb2dVertex
 10
147.029709859401
 20
199.6695978168404
 30
0.0
  0
VERTEX
  5
539
330
537
100
AcDbEntity
  8
SOMBREA
370
     0
100
AcDbVertex
100
AcDb2dVertex
 10
147.4427770805806
 20
199.2773734370964
 30
0.0
  0
VERTEX
  5
53A
330
537
100
AcDbEntity
  8
SOMBREA
370
     0
100
AcDbVertex
100
AcDb2dVertex
 10
147.504788840224
 20
195.7139365711487
 30
0.0
  0
VERTEX
  5
53B
330
537
100
AcDbEntity
  8
SOMBREA
370
     0
100
AcDbVertex
100
AcDb2dVertex
 10
148.5045562095845
 20
195.7139365711487
 30
0.0
  0
VERTEX
  5
53C
330
537
100
AcDbEntity
  8
SOMBREA
370
     0
100
AcDbVertex
100
AcDb2dVertex
 10
148.4332426859946
 20
199.7777738864403
 30
0.0
  0
VERTEX
  5
53D
330
537
100
AcDbEntity
  8
SOMBREA
370
     0
100
AcDbVertex
100
AcDb2dVertex
 10
147.5340721711666
 20
200.677461165932
 30
0.0
  0
VERTEX
  5
53E
330
537
100
AcDbEntity
  8
SOMBREA
370
     0
100
AcDbVertex
100
AcDb2dVertex
 10
143.1911819374801
 20
200.0754303327282
 30
0.0
  0
VERTEX
  5
53F
330
537
100
AcDbEntity
  8
SOMBREA
370
     0
100
AcDbVertex
100
AcDb2dVertex
 10
140.0588990559414
 20
197.2849011487793
 30
0.0
  0
VERTEX
  5
540
330
537
100
AcDbEntity
  8
SOMBREA
370
     0
100
AcDbVertex
100
AcDb2dVertex
 10
141.1644309264713
 20
197.2849011487793
 30
0.0
  0
VERTEX
  5
541
330
537
100
AcDbEntity
  8
SOMBREA
370
     0
100
AcDbVertex
100
AcDb2dVertex
 10
143.4626556408075
 20
199.1144203131448
 30
0.0
  0
VERTEX
  5
542
330
537
100
AcDbEntity
  8
SOMBREA
370
     0
100
AcDbVertex
100
AcDb2dVertex
 10
147.029709859401
 20
199.6695978168404
 30
0.0
  0
SEQEND
  5
543
330
537
100
AcDbEntity
  8
SOMBREA
370
     0
  0
POLYLINE
  5
544
330
533
100
AcDbEntity
  8
SOMBREA
370
     0
100
AcDb2dPolyline
 66
     1
 10
0.0
 20
0.0
 30
0.0
  0
VERTEX
  5
545
330
544
100
AcDbEntity
  8
SOMBREA
370
     0
100
AcDbVertex
100
AcDb2dVertex
 10
141.4496850208305
 20
195.2767536656634
 30
0.0
  0
VERTEX
  5
546
330
544
100
AcDbEntity
  8
SOMBREA
370
     0
100
AcDbVertex
100
AcDb2dVertex
 10
140.9990662340891
 20
195.2767536656634
 30
0.0
  0
VERTEX
  5
547
330
544
100
AcDbEntity
  8
SOMBREA
370
     0
100
AcDbVertex
100
AcDb2dVertex
 10
140.6993427291465
 20
195.5861234443284
 30
0.0
  0
VERTEX
  5
548
330
544
100
AcDbEntity
  8
SOMBREA
370
     0
100
AcDbVertex
100
AcDb2dVertex
 10
141.1644309264713
 20
197.2849011487793
 30
0.0
  0
VERTEX
  5
549
330
544
100
AcDbEntity
  8
SOMBREA
370
     0
100
AcDbVertex
100
AcDb2dVertex
 10
140.0588990559414
 20
197.2849011487793
 30
0.0
  0
VERTEX
  5
54A
330
544
100
AcDbEntity
  8
SOMBREA
370
     0
100
AcDbVertex
100
AcDb2dVertex
 10
139.8535712295669
 20
196.6711569831984
 30
0.0
  0
VERTEX
  5
54B
330
544
100
AcDbEntity
  8
SOMBREA
370
     0
100
AcDbVertex
100
AcDb2dVertex
 10
138.4410811488026
 20
195.5520169765246
 30
0.0
  0
VERTEX
  5
54C
330
544
100
AcDbEntity
  8
SOMBREA
370
     0
100
AcDbVertex
100
AcDb2dVertex
 10
124.9221730367851
 20
195.2133638669169
 30
0.0
  0
VERTEX
  5
54D
330
544
100
AcDbEntity
  8
SOMBREA
370
     0
100
AcDbVertex
100
AcDb2dVertex
 10
124.9221730367851
 20
193.8990590722545
 30
0.0
  0
VERTEX
  5
54E
330
544
100
AcDbEntity
  8
SOMBREA
370
     0
100
AcDbVertex
100
AcDb2dVertex
 10
141.3904293393936
 20
194.2942117850927
 30
0.0
  0
VERTEX
  5
54F
330
544
100
AcDbEntity
  8
SOMBREA
370
     0
100
AcDbVertex
100
AcDb2dVertex
 10
143.8175007098776
 20
192.5935392768749
 30
0.0
  0
VERTEX
  5
550
330
544
100
AcDbEntity
  8
SOMBREA
370
     0
100
AcDbVertex
100
AcDb2dVertex
 10
144.3859418399412
 20
192.1856397023323
 30
0.0
  0
VERTEX
  5
551
330
544
100
AcDbEntity
  8
SOMBREA
370
     0
100
AcDbVertex
100
AcDb2dVertex
 10
147.956096646517
 20
192.1856397023323
 30
0.0
  0
VERTEX
  5
552
330
544
100
AcDbEntity
  8
SOMBREA
370
     0
100
AcDbVertex
100
AcDb2dVertex
 10
148.5555436564023
 20
192.7847422024418
 30
0.0
  0
VERTEX
  5
553
330
544
100
AcDbEntity
  8
SOMBREA
370
     0
100
AcDbVertex
100
AcDb2dVertex
 10
148.5045562095845
 20
195.7139365711487
 30
0.0
  0
VERTEX
  5
554
330
544
100
AcDbEntity
  8
SOMBREA
370
     0
100
AcDbVertex
100
AcDb2dVertex
 10
147.504788840224
 20
195.7139365711487
 30
0.0
  0
VERTEX
  5
555
330
544
100
AcDbEntity
  8
SOMBREA
370
     0
100
AcDbVertex
100
AcDb2dVertex
 10
147.5437184448889
 20
193.489264693945
 30
0.0
  0
VERTEX
  5
556
330
544
100
AcDbEntity
  8
SOMBREA
370
     0
100
AcDbVertex
100
AcDb2dVertex
 10
147.244339449722
 20
193.1848903070291
 30
0.0
  0
VERTEX
  5
557
330
544
100
AcDbEntity
  8
SOMBREA
370
     0
100
AcDbVertex
100
AcDb2dVertex
 10
144.8317374898215
 20
193.1848903070291
 30
0.0
  0
VERTEX
  5
558
330
544
100
AcDbEntity
  8
SOMBREA
370
     0
100
AcDbVertex
100
AcDb2dVertex
 10
144.5633643744763
 20
193.350599509187
 30
0.0
  0
VERTEX
  5
559
330
544
100
AcDbEntity
  8
SOMBREA
370
     0
100
AcDbVertex
100
AcDb2dVertex
 10
141.4496850208305
 20
195.2767536656634
 30
0.0
  0
SEQEND
  5
55A
330
544
100
AcDbEntity
  8
SOMBREA
370
     0
  0
HATCH
  5
55B
330
533
100
AcDbEntity
  8
SOMBREA
 62
     7
420
 16777215
100
AcDbHatch
 10
0.0
 20
0.0
 30
0.0
210
0.0
220
0.0
230
1.0
  2
SOLID
 70
     1
 71
     0
 91
        2
 92
        1
 93
       10
 72
     1
 10
147.029709859401
 20
199.6695978168404
 11
147.4427770805806
 21
199.2773734370964
 72
     1
 10
147.4427770805806
 20
199.2773734370964
 11
147.504788840224
 21
195.7139365711487
 72
     1
 10
147.504788840224
 20
195.7139365711487
 11
148.5045562095845
 21
195.7139365711487
 72
     1
 10
148.5045562095845
 20
195.7139365711487
 11
148.4332426859946
 21
199.7777738864403
 72
     1
 10
148.4332426859946
 20
199.7777738864403
 11
147.5340721711666
 21
200.677461165932
 72
     1
 10
147.5340721711666
 20
200.677461165932
 11
143.1911819374801
 21
200.0754303327282
 72
     1
 10
143.1911819374801
 20
200.0754303327282
 11
140.0588990559414
 21
197.2849011487793
 72
     1
 10
140.0588990559414
 20
197.2849011487793
 11
141.1644309264713
 21
197.2849011487793
 72
     1
 10
141.1644309264713
 20
197.2849011487793
 11
143.4626556408075
 21
199.1144203131448
 72
     1
 10
143.4626556408075
 20
199.1144203131448
 11
147.029709859401
 21
199.6695978168404
 97
        0
 92
        1
 93
       20
 72
     1
 10
141.4496850208305
 20
195.2767536656634
 11
140.9990662340891
 21
195.2767536656634
 72
     1
 10
140.9990662340891
 20
195.2767536656634
 11
140.6993427291465
 21
195.5861234443284
 72
     1
 10
140.6993427291465
 20
195.5861234443284
 11
141.1644309264713
 21
197.2849011487793
 72
     1
 10
141.1644309264713
 20
197.2849011487793
 11
140.0588990559414
 21
197.2849011487793
 72
     1
 10
140.0588990559414
 20
197.2849011487793
 11
139.8535712295669
 21
196.6711569831984
 72
     1
 10
139.8535712295669
 20
196.6711569831984
 11
138.4410811488026
 21
195.5520169765246
 72
     1
 10
138.4410811488026
 20
195.5520169765246
 11
124.9221730367851
 21
195.2133638669169
 72
     1
 10
124.9221730367851
 20
195.2133638669169
 11
124.9221730367851
 21
193.8990590722545
 72
     1
 10
124.9221730367851
 20
193.8990590722545
 11
141.3904293393936
 21
194.2942117850927
 72
     1
 10
141.3904293393936
 20
194.2942117850927
 11
143.8175007098776
 21
192.5935392768749
 72
     1
 10
143.8175007098776
 20
192.5935392768749
 11
144.3859418399412
 21
192.1856397023323
 72
     1
 10
144.3859418399412
 20
192.1856397023323
 11
147.956096646517
 21
192.1856397023323
 72
     1
 10
147.956096646517
 20
192.1856397023323
 11
148.5555436564023
 21
192.7847422024418
 72
     1
 10
148.5555436564023
 20
192.7847422024418
 11
148.5045562095845
 21
195.7139365711487
 72
     1
 10
148.5045562095845
 20
195.7139365711487
 11
147.504788840224
 21
195.7139365711487
 72
     1
 10
147.504788840224
 20
195.7139365711487
 11
147.5437184448889
 21
193.489264693945
 72
     1
 10
147.5437184448889
 20
193.489264693945
 11
147.244339449722
 21
193.1848903070291
 72
     1
 10
147.244339449722
 20
193.1848903070291
 11
144.8317374898215
 21
193.1848903070291
 72
     1
 10
144.8317374898215
 20
193.1848903070291
 11
144.5633643744763
 21
193.350599509187
 72
     1
 10
144.5633643744763
 20
193.350599509187
 11
141.4496850208305
 21
195.2767536656634
 97
        0
 75
     0
 76
     1
 98
        0
  0
ENDBLK
  5
536
330
533
100
AcDbEntity
  8
0
100
AcDbBlockEnd
  0
BLOCK
  5
55E
330
55C
100
AcDbEntity
  8
0
100
AcDbBlockBegin
  2
block 163
 70
     0
 71
     0
 10
0.0
 20
0.0
 30
0.0
  3
block 163
  1

  0
POLYLINE
  5
560
330
55C
100
AcDbEntity
  8
SOMBREA
370
     0
100
AcDb2dPolyline
 66
     1
 10
0.0
 20
0.0
 30
0.0
  0
VERTEX
  5
561
330
560
100
AcDbEntity
  8
SOMBREA
370
     0
100
AcDbVertex
100
AcDb2dVertex
 10
124.9221730367851
 20
193.8990590722545
 30
0.0
  0
VERTEX
  5
562
330
560
100
AcDbEntity
  8
SOMBREA
370
     0
100
AcDbVertex
100
AcDb2dVertex
 10
124.9221730367851
 20
195.2133638669169
 30
0.0
  0
VERTEX
  5
563
330
560
100
AcDbEntity
  8
SOMBREA
370
     0
100
AcDbVertex
100
AcDb2dVertex
 10
106.2731698533869
 20
194.7468976304889
 30
0.0
  0
VERTEX
  5
564
330
560
100
AcDbEntity
  8
SOMBREA
370
     0
100
AcDbVertex
100
AcDb2dVertex
 10
99.45945550769025
 20
194.1839686568379
 30
0.0
  0
VERTEX
  5
565
330
560
100
AcDbEntity
  8
SOMBREA
370
     0
100
AcDbVertex
100
AcDb2dVertex
 10
98.77301977941639
 20
193.9956940643654
 30
0.0
  0
VERTEX
  5
566
330
560
100
AcDbEntity
  8
SOMBREA
370
     0
100
AcDbVertex
100
AcDb2dVertex
 10
97.44803518170433
 20
193.2286430485552
 30
0.0
  0
VERTEX
  5
567
330
560
100
AcDbEntity
  8
SOMBREA
370
     0
100
AcDbVertex
100
AcDb2dVertex
 10
97.19878235891579
 20
192.7964555348189
 30
0.0
  0
VERTEX
  5
568
330
560
100
AcDbEntity
  8
SOMBREA
370
     0
100
AcDbVertex
100
AcDb2dVertex
 10
97.19878235891579
 20
192.1856397023323
 30
0.0
  0
VERTEX
  5
569
330
560
100
AcDbEntity
  8
SOMBREA
370
     0
100
AcDbVertex
100
AcDb2dVertex
 10
98.49792872344314
 20
192.1856397023323
 30
0.0
  0
VERTEX
  5
56A
330
560
100
AcDbEntity
  8
SOMBREA
370
     0
100
AcDbVertex
100
AcDb2dVertex
 10
98.49792872344314
 20
192.3360182194673
 30
0.0
  0
VERTEX
  5
56B
330
560
100
AcDbEntity
  8
SOMBREA
370
     0
100
AcDbVertex
100
AcDb2dVertex
 10
99.48925560329663
 20
192.9096269961679
 30
0.0
  0
VERTEX
  5
56C
330
560
100
AcDbEntity
  8
SOMBREA
370
     0
100
AcDbVertex
100
AcDb2dVertex
 10
107.1354778222047
 20
193.4727282247068
 30
0.0
  0
VERTEX
  5
56D
330
560
100
AcDbEntity
  8
SOMBREA
370
     0
100
AcDbVertex
100
AcDb2dVertex
 10
124.9221730367851
 20
193.8990590722545
 30
0.0
  0
SEQEND
  5
56E
330
560
100
AcDbEntity
  8
SOMBREA
370
     0
  0
HATCH
  5
56F
330
55C
100
AcDbEntity
  8
SOMBREA
 62
     7
420
 16777215
100
AcDbHatch
 10
0.0
 20
0.0
 30
0.0
210
0.0
220
0.0
230
1.0
  2
SOLID
 70
     1
 71
     0
 91
        1
 92
        1
 93
       12
 72
     1
 10
124.9221730367851
 20
193.8990590722545
 11
124.9221730367851
 21
195.2133638669169
 72
     1
 10
124.9221730367851
 20
195.2133638669169
 11
106.2731698533869
 21
194.7468976304889
 72
     1
 10
106.2731698533869
 20
194.7468976304889
 11
99.45945550769025
 21
194.1839686568379
 72
     1
 10
99.45945550769025
 20
194.1839686568379
 11
98.77301977941639
 21
193.9956940643654
 72
     1
 10
98.77301977941639
 20
193.9956940643654
 11
97.44803518170433
 21
193.2286430485552
 72
     1
 10
97.44803518170433
 20
193.2286430485552
 11
97.19878235891579
 21
192.7964555348189
 72
     1
 10
97.19878235891579
 20
192.7964555348189
 11
97.19878235891579
 21
192.1856397023323
 72
     1
 10
97.19878235891579
 20
192.1856397023323
 11
98.49792872344314
 21
192.1856397023323
 72
     1
 10
98.49792872344314
 20
192.1856397023323
 11
98.49792872344314
 21
192.3360182194673
 72
     1
 10
98.49792872344314
 20
192.3360182194673
 11
99.48925560329663
 21
192.9096269961679
 72
     1
 10
99.48925560329663
 20
192.9096269961679
 11
107.1354778222047
 21
193.4727282247068
 72
     1
 10
107.1354778222047
 20
193.4727282247068
 11
124.9221730367851
 21
193.8990590722545
 97
        0
 75
     0
 76
     1
 98
        0
  0
ENDBLK
  5
55F
330
55C
100
AcDbEntity
  8
0
100
AcDbBlockEnd
  0
ENDSEC
  0
SECTION
  2
ENTITIES
  0
INSERT
  5
3F
330
1F
100
AcDbEntity
  8
PIEZA
100
AcDbBlockReference
  2
block 2
 10
0.0
 20
0.0
 30
0.0
  0
INSERT
  5
47
330
1F
100
AcDbEntity
  8
PIEZA
100
AcDbBlockReference
  2
block 3
 10
0.0
 20
0.0
 30
0.0
  0
INSERT
  5
4F
330
1F
100
AcDbEntity
  8
PIEZA
100
AcDbBlockReference
  2
block 4
 10
0.0
 20
0.0
 30
0.0
  0
INSERT
  5
57
330
1F
100
AcDbEntity
  8
PIEZA
100
AcDbBlockReference
  2
block 5
 10
0.0
 20
0.0
 30
0.0
  0
INSERT
  5
5F
330
1F
100
AcDbEntity
  8
PIEZA
100
AcDbBlockReference
  2
block 6
 10
0.0
 20
0.0
 30
0.0
  0
INSERT
  5
64
330
1F
100
AcDbEntity
  8
PIEZA
100
AcDbBlockReference
  2
block 7
 10
0.0
 20
0.0
 30
0.0
  0
INSERT
  5
6C
330
1F
100
AcDbEntity
  8
PIEZA
100
AcDbBlockReference
  2
block 8
 10
0.0
 20
0.0
 30
0.0
  0
INSERT
  5
71
330
1F
100
AcDbEntity
  8
PIEZA
100
AcDbBlockReference
  2
block 9
 10
0.0
 20
0.0
 30
0.0
  0
INSERT
  5
79
330
1F
100
AcDbEntity
  8
PIEZA
100
AcDbBlockReference
  2
block 10
 10
0.0
 20
0.0
 30
0.0
  0
INSERT
  5
81
330
1F
100
AcDbEntity
  8
PIEZA
100
AcDbBlockReference
  2
block 11
 10
0.0
 20
0.0
 30
0.0
  0
INSERT
  5
86
330
1F
100
AcDbEntity
  8
PIEZA
100
AcDbBlockReference
  2
block 12
 10
0.0
 20
0.0
 30
0.0
  0
INSERT
  5
8B
330
1F
100
AcDbEntity
  8
PIEZA
100
AcDbBlockReference
  2
block 13
 10
0.0
 20
0.0
 30
0.0
  0
INSERT
  5
93
330
1F
100
AcDbEntity
  8
PIEZA
100
AcDbBlockReference
  2
block 14
 10
0.0
 20
0.0
 30
0.0
  0
INSERT
  5
9B
330
1F
100
AcDbEntity
  8
PIEZA
100
AcDbBlockReference
  2
block 15
 10
0.0
 20
0.0
 30
0.0
  0
INSERT
  5
A3
330
1F
100
AcDbEntity
  8
PIEZA
100
AcDbBlockReference
  2
block 16
 10
0.0
 20
0.0
 30
0.0
  0
INSERT
  5
A8
330
1F
100
AcDbEntity
  8
PIEZA
100
AcDbBlockReference
  2
block 17
 10
0.0
 20
0.0
 30
0.0
  0
INSERT
  5
B0
330
1F
100
AcDbEntity
  8
PIEZA
100
AcDbBlockReference
  2
block 18
 10
0.0
 20
0.0
 30
0.0
  0
INSERT
  5
B8
330
1F
100
AcDbEntity
  8
PIEZA
100
AcDbBlockReference
  2
block 19
 10
0.0
 20
0.0
 30
0.0
  0
INSERT
  5
C0
330
1F
100
AcDbEntity
  8
PIEZA
100
AcDbBlockReference
  2
block 20
 10
0.0
 20
0.0
 30
0.0
  0
INSERT
  5
C8
330
1F
100
AcDbEntity
  8
PIEZA
100
AcDbBlockReference
  2
block 21
 10
0.0
 20
0.0
 30
0.0
  0
INSERT
  5
125
330
1F
100
AcDbEntity
  8
PIEZA
100
AcDbBlockReference
  2
block 22
 10
0.0
 20
0.0
 30
0.0
  0
INSERT
  5
12D
330
1F
100
AcDbEntity
  8
PIEZA
100
AcDbBlockReference
  2
block 23
 10
0.0
 20
0.0
 30
0.0
  0
INSERT
  5
132
330
1F
100
AcDbEntity
  8
PIEZA
100
AcDbBlockReference
  2
block 24
 10
0.0
 20
0.0
 30
0.0
  0
INSERT
  5
13A
330
1F
100
AcDbEntity
  8
PIEZA
100
AcDbBlockReference
  2
block 25
 10
0.0
 20
0.0
 30
0.0
  0
INSERT
  5
142
330
1F
100
AcDbEntity
  8
PIEZA
100
AcDbBlockReference
  2
block 26
 10
0.0
 20
0.0
 30
0.0
  0
INSERT
  5
14A
330
1F
100
AcDbEntity
  8
PIEZA
100
AcDbBlockReference
  2
block 27
 10
0.0
 20
0.0
 30
0.0
  0
INSERT
  5
14F
330
1F
100
AcDbEntity
  8
PIEZA
100
AcDbBlockReference
  2
block 28
 10
0.0
 20
0.0
 30
0.0
  0
INSERT
  5
157
330
1F
100
AcDbEntity
  8
PIEZA
100
AcDbBlockReference
  2
block 29
 10
0.0
 20
0.0
 30
0.0
  0
INSERT
  5
15F
330
1F
100
AcDbEntity
  8
PIEZA
100
AcDbBlockReference
  2
block 30
 10
0.0
 20
0.0
 30
0.0
  0
INSERT
  5
164
330
1F
100
AcDbEntity
  8
PIEZA
100
AcDbBlockReference
  2
block 31
 10
0.0
 20
0.0
 30
0.0
  0
INSERT
  5
16C
330
1F
100
AcDbEntity
  8
PIEZA
100
AcDbBlockReference
  2
block 32
 10
0.0
 20
0.0
 30
0.0
  0
INSERT
  5
171
330
1F
100
AcDbEntity
  8
PIEZA
100
AcDbBlockReference
  2
block 33
 10
0.0
 20
0.0
 30
0.0
  0
INSERT
  5
179
330
1F
100
AcDbEntity
  8
PIEZA
100
AcDbBlockReference
  2
block 34
 10
0.0
 20
0.0
 30
0.0
  0
INSERT
  5
181
330
1F
100
AcDbEntity
  8
PIEZA
100
AcDbBlockReference
  2
block 35
 10
0.0
 20
0.0
 30
0.0
  0
INSERT
  5
186
330
1F
100
AcDbEntity
  8
PIEZA
100
AcDbBlockReference
  2
block 36
 10
0.0
 20
0.0
 30
0.0
  0
INSERT
  5
18B
330
1F
100
AcDbEntity
  8
PIEZA
100
AcDbBlockReference
  2
block 37
 10
0.0
 20
0.0
 30
0.0
  0
INSERT
  5
193
330
1F
100
AcDbEntity
  8
PIEZA
100
AcDbBlockReference
  2
block 38
 10
0.0
 20
0.0
 30
0.0
  0
INSERT
  5
198
330
1F
100
AcDbEntity
  8
PIEZA
100
AcDbBlockReference
  2
block 39
 10
0.0
 20
0.0
 30
0.0
  0
INSERT
  5
19D
330
1F
100
AcDbEntity
  8
PIEZA
100
AcDbBlockReference
  2
block 40
 10
0.0
 20
0.0
 30
0.0
  0
INSERT
  5
1A5
330
1F
100
AcDbEntity
  8
PIEZA
100
AcDbBlockReference
  2
block 41
 10
0.0
 20
0.0
 30
0.0
  0
INSERT
  5
1AD
330
1F
100
AcDbEntity
  8
PIEZA
100
AcDbBlockReference
  2
block 42
 10
0.0
 20
0.0
 30
0.0
  0
INSERT
  5
1B5
330
1F
100
AcDbEntity
  8
PIEZA
100
AcDbBlockReference
  2
block 43
 10
0.0
 20
0.0
 30
0.0
  0
INSERT
  5
1BD
330
1F
100
AcDbEntity
  8
PIEZA
100
AcDbBlockReference
  2
block 44
 10
0.0
 20
0.0
 30
0.0
  0
INSERT
  5
1C5
330
1F
100
AcDbEntity
  8
PIEZA
100
AcDbBlockReference
  2
block 45
 10
0.0
 20
0.0
 30
0.0
  0
INSERT
  5
1CD
330
1F
100
AcDbEntity
  8
PIEZA
100
AcDbBlockReference
  2
block 46
 10
0.0
 20
0.0
 30
0.0
  0
INSERT
  5
1D5
330
1F
100
AcDbEntity
  8
PIEZA
100
AcDbBlockReference
  2
block 47
 10
0.0
 20
0.0
 30
0.0
  0
INSERT
  5
1DD
330
1F
100
AcDbEntity
  8
PIEZA
100
AcDbBlockReference
  2
block 48
 10
0.0
 20
0.0
 30
0.0
  0
INSERT
  5
1E5
330
1F
100
AcDbEntity
  8
PIEZA
100
AcDbBlockReference
  2
block 49
 10
0.0
 20
0.0
 30
0.0
  0
INSERT
  5
1EA
330
1F
100
AcDbEntity
  8
PIEZA
100
AcDbBlockReference
  2
block 50
 10
0.0
 20
0.0
 30
0.0
  0
INSERT
  5
1EF
330
1F
100
AcDbEntity
  8
PIEZA
100
AcDbBlockReference
  2
block 51
 10
0.0
 20
0.0
 30
0.0
  0
INSERT
  5
1F4
330
1F
100
AcDbEntity
  8
PIEZA
100
AcDbBlockReference
  2
block 52
 10
0.0
 20
0.0
 30
0.0
  0
INSERT
  5
1F9
330
1F
100
AcDbEntity
  8
PIEZA
100
AcDbBlockReference
  2
block 53
 10
0.0
 20
0.0
 30
0.0
  0
INSERT
  5
1FE
330
1F
100
AcDbEntity
  8
PIEZA
100
AcDbBlockReference
  2
block 54
 10
0.0
 20
0.0
 30
0.0
  0
INSERT
  5
203
330
1F
100
AcDbEntity
  8
PIEZA
100
AcDbBlockReference
  2
block 55
 10
0.0
 20
0.0
 30
0.0
  0
INSERT
  5
208
330
1F
100
AcDbEntity
  8
PIEZA
100
AcDbBlockReference
  2
block 56
 10
0.0
 20
0.0
 30
0.0
  0
INSERT
  5
20D
330
1F
100
AcDbEntity
  8
PIEZA
100
AcDbBlockReference
  2
block 57
 10
0.0
 20
0.0
 30
0.0
  0
INSERT
  5
212
330
1F
100
AcDbEntity
  8
PIEZA
100
AcDbBlockReference
  2
block 58
 10
0.0
 20
0.0
 30
0.0
  0
INSERT
  5
217
330
1F
100
AcDbEntity
  8
PIEZA
100
AcDbBlockReference
  2
block 59
 10
0.0
 20
0.0
 30
0.0
  0
INSERT
  5
21C
330
1F
100
AcDbEntity
  8
PIEZA
100
AcDbBlockReference
  2
block 60
 10
0.0
 20
0.0
 30
0.0
  0
INSERT
  5
221
330
1F
100
AcDbEntity
  8
PIEZA
100
AcDbBlockReference
  2
block 61
 10
0.0
 20
0.0
 30
0.0
  0
INSERT
  5
229
330
1F
100
AcDbEntity
  8
PIEZA
100
AcDbBlockReference
  2
block 62
 10
0.0
 20
0.0
 30
0.0
  0
INSERT
  5
22E
330
1F
100
AcDbEntity
  8
PIEZA
100
AcDbBlockReference
  2
block 63
 10
0.0
 20
0.0
 30
0.0
  0
INSERT
  5
236
330
1F
100
AcDbEntity
  8
PIEZA
100
AcDbBlockReference
  2
block 64
 10
0.0
 20
0.0
 30
0.0
  0
INSERT
  5
23B
330
1F
100
AcDbEntity
  8
PIEZA
100
AcDbBlockReference
  2
block 65
 10
0.0
 20
0.0
 30
0.0
  0
INSERT
  5
240
330
1F
100
AcDbEntity
  8
PIEZA
100
AcDbBlockReference
  2
block 66
 10
0.0
 20
0.0
 30
0.0
  0
INSERT
  5
245
330
1F
100
AcDbEntity
  8
PIEZA
100
AcDbBlockReference
  2
block 67
 10
0.0
 20
0.0
 30
0.0
  0
INSERT
  5
24D
330
1F
100
AcDbEntity
  8
PIEZA
100
AcDbBlockReference
  2
block 68
 10
0.0
 20
0.0
 30
0.0
  0
INSERT
  5
255
330
1F
100
AcDbEntity
  8
PIEZA
100
AcDbBlockReference
  2
block 69
 10
0.0
 20
0.0
 30
0.0
  0
INSERT
  5
25D
330
1F
100
AcDbEntity
  8
PIEZA
100
AcDbBlockReference
  2
block 70
 10
0.0
 20
0.0
 30
0.0
  0
INSERT
  5
266
330
1F
100
AcDbEntity
  8
Fina
100
AcDbBlockReference
  2
block 71
 10
0.0
 20
0.0
 30
0.0
  0
INSERT
  5
26E
330
1F
100
AcDbEntity
  8
Fina
100
AcDbBlockReference
  2
block 72
 10
0.0
 20
0.0
 30
0.0
  0
INSERT
  5
276
330
1F
100
AcDbEntity
  8
Fina
100
AcDbBlockReference
  2
block 73
 10
0.0
 20
0.0
 30
0.0
  0
INSERT
  5
27E
330
1F
100
AcDbEntity
  8
Fina
100
AcDbBlockReference
  2
block 74
 10
0.0
 20
0.0
 30
0.0
  0
INSERT
  5
283
330
1F
100
AcDbEntity
  8
Fina
100
AcDbBlockReference
  2
block 75
 10
0.0
 20
0.0
 30
0.0
  0
INSERT
  5
288
330
1F
100
AcDbEntity
  8
Fina
100
AcDbBlockReference
  2
block 76
 10
0.0
 20
0.0
 30
0.0
  0
INSERT
  5
28D
330
1F
100
AcDbEntity
  8
Fina
100
AcDbBlockReference
  2
block 77
 10
0.0
 20
0.0
 30
0.0
  0
INSERT
  5
292
330
1F
100
AcDbEntity
  8
Fina
100
AcDbBlockReference
  2
block 78
 10
0.0
 20
0.0
 30
0.0
  0
INSERT
  5
297
330
1F
100
AcDbEntity
  8
Fina
100
AcDbBlockReference
  2
block 79
 10
0.0
 20
0.0
 30
0.0
  0
INSERT
  5
29C
330
1F
100
AcDbEntity
  8
Fina
100
AcDbBlockReference
  2
block 80
 10
0.0
 20
0.0
 30
0.0
  0
INSERT
  5
2A1
330
1F
100
AcDbEntity
  8
Fina
100
AcDbBlockReference
  2
block 81
 10
0.0
 20
0.0
 30
0.0
  0
INSERT
  5
2A6
330
1F
100
AcDbEntity
  8
Fina
100
AcDbBlockReference
  2
block 82
 10
0.0
 20
0.0
 30
0.0
  0
INSERT
  5
2AB
330
1F
100
AcDbEntity
  8
Fina
100
AcDbBlockReference
  2
block 83
 10
0.0
 20
0.0
 30
0.0
  0
INSERT
  5
2B0
330
1F
100
AcDbEntity
  8
Fina
100
AcDbBlockReference
  2
block 84
 10
0.0
 20
0.0
 30
0.0
  0
INSERT
  5
2B5
330
1F
100
AcDbEntity
  8
Fina
100
AcDbBlockReference
  2
block 85
 10
0.0
 20
0.0
 30
0.0
  0
INSERT
  5
2BA
330
1F
100
AcDbEntity
  8
Fina
100
AcDbBlockReference
  2
block 86
 10
0.0
 20
0.0
 30
0.0
  0
INSERT
  5
2BF
330
1F
100
AcDbEntity
  8
Fina
100
AcDbBlockReference
  2
block 87
 10
0.0
 20
0.0
 30
0.0
  0
INSERT
  5
2C4
330
1F
100
AcDbEntity
  8
Fina
100
AcDbBlockReference
  2
block 88
 10
0.0
 20
0.0
 30
0.0
  0
INSERT
  5
2C9
330
1F
100
AcDbEntity
  8
Fina
100
AcDbBlockReference
  2
block 89
 10
0.0
 20
0.0
 30
0.0
  0
INSERT
  5
2D1
330
1F
100
AcDbEntity
  8
Fina
100
AcDbBlockReference
  2
block 90
 10
0.0
 20
0.0
 30
0.0
  0
INSERT
  5
2DA
330
1F
100
AcDbEntity
  8
COTAS
100
AcDbBlockReference
  2
block 91
 10
0.0
 20
0.0
 30
0.0
  0
INSERT
  5
331
330
1F
100
AcDbEntity
  8
COTAS
100
AcDbBlockReference
  2
block 102
 10
0.0
 20
0.0
 30
0.0
  0
INSERT
  5
388
330
1F
100
AcDbEntity
  8
COTAS
100
AcDbBlockReference
  2
block 113
 10
0.0
 20
0.0
 30
0.0
  0
INSERT
  5
3DF
330
1F
100
AcDbEntity
  8
COTAS
100
AcDbBlockReference
  2
block 124
 10
0.0
 20
0.0
 30
0.0
  0
INSERT
  5
436
330
1F
100
AcDbEntity
  8
COTAS
100
AcDbBlockReference
  2
block 135
 10
0.0
 20
0.0
 30
0.0
  0
INSERT
  5
48D
330
1F
100
AcDbEntity
  8
COTAS
100
AcDbBlockReference
  2
block 146
 10
0.0
 20
0.0
 30
0.0
  0
INSERT
  5
4E5
330
1F
100
AcDbEntity
  8
EJES
100
AcDbBlockReference
  2
block 157
 10
0.0
 20
0.0
 30
0.0
  0
INSERT
  5
4EE
330
1F
100
AcDbEntity
  8
EJES
100
AcDbBlockReference
  2
block 158
 10
0.0
 20
0.0
 30
0.0
  0
INSERT
  5
4F7
330
1F
100
AcDbEntity
  8
EJES
100
AcDbBlockReference
  2
block 159
 10
0.0
 20
0.0
 30
0.0
  0
INSERT
  5
501
330
1F
100
AcDbEntity
  8
LINEAS-FINAS
100
AcDbBlockReference
  2
block 160
 10
0.0
 20
0.0
 30
0.0
  0
INSERT
  5
50A
330
1F
100
AcDbEntity
  8
SOMBREA
100
AcDbBlockReference
  2
block 161
 10
0.0
 20
0.0
 30
0.0
  0
INSERT
  5
534
330
1F
100
AcDbEntity
  8
SOMBREA
100
AcDbBlockReference
  2
block 162
 10
0.0
 20
0.0
 30
0.0
  0
INSERT
  5
55D
330
1F
100
AcDbEntity
  8
SOMBREA
100
AcDbBlockReference
  2
block 163
 10
0.0
 20
0.0
 30
0.0
  0
ENDSEC
  0
SECTION
  2
OBJECTS
  0
DICTIONARY
  5
C
330
0
100
AcDbDictionary
281
     1
  3
ACAD_GROUP
350
D
  3
ACAD_LAYOUT
350
1A
  3
ACAD_MLINESTYLE
350
17
  3
ACAD_PLOTSETTINGS
350
19
  3
ACAD_PLOTSTYLENAME
350
E
  3
ACAD_TABLESTYLE
350
570
  3
ACAD_VISUALSTYLE
350
2A
  0
DICTIONARY
  5
D
102
{ACAD_REACTORS
330
C
102
}
330
C
100
AcDbDictionary
281
     1
  0
DICTIONARY
  5
1A
102
{ACAD_REACTORS
330
C
102
}
330
C
100
AcDbDictionary
281
     1
  3
Layout1
350
1E
  3
Layout2
350
26
  3
Model
350
22
  0
DICTIONARY
  5
17
102
{ACAD_REACTORS
330
C
102
}
330
C
100
AcDbDictionary
281
     1
  3
Standard
350
18
  0
DICTIONARY
  5
19
102
{ACAD_REACTORS
330
C
102
}
330
C
100
AcDbDictionary
281
     1
  0
ACDBDICTIONARYWDFLT
  5
E
102
{ACAD_REACTORS
330
C
102
}
330
C
100
AcDbDictionary
281
     1
  3
Normal
350
F
100
AcDbDictionaryWithDefault
340
F
  0
DICTIONARY
  5
570
102
{ACAD_REACTORS
330
C
102
}
330
C
100
AcDbDictionary
281
     1
  0
DICTIONARY
  5
2A
102
{ACAD_REACTORS
330
C
102
}
330
C
100
AcDbDictionary
281
     1
  3
2dWireframe
350
2F
  3
3D Hidden
350
31
  3
3dWireframe
350
30
  3
Basic
350
32
  3
Brighten
350
36
  3
ColorChange
350
3A
  3
Conceptual
350
34
  3
Dim
350
35
  3
Facepattern
350
39
  3
Flat
350
2B
  3
FlatWithEdges
350
2C
  3
Gouraud
350
2D
  3
GouraudWithEdges
350
2E
  3
Linepattern
350
38
  3
Realistic
350
33
  3
Thicken
350
37
  0
LAYOUT
  5
1E
102
{ACAD_REACTORS
330
1A
102
}
330
1A
100
AcDbPlotSettings
  1

  2
none_device
  4

  6

 40
0.0
 41
0.0
 42
0.0
 43
0.0
 44
0.0
 45
0.0
 46
0.0
 47
0.0
 48
0.0
 49
0.0
140
0.0
141
0.0
142
1.0
143
1.0
 70
   688
 72
     0
 73
     0
 74
     5
  7

 75
    16
 76
     0
 77
     2
 78
   300
147
1.0
148
0.0
149
0.0
100
AcDbLayout
  1
Layout1
 70
     1
 71
     1
 10
0.0
 20
0.0
 11
12.0
 21
9.0
 12
0.0
 22
0.0
 32
0.0
 14
1.000000000000000E+20
 24
1.000000000000000E+20
 34
1.000000000000000E+20
 15
-1.000000000000000E+20
 25
-1.000000000000000E+20
 35
-1.000000000000000E+20
146
0.0
 13
0.0
 23
0.0
 33
0.0
 16
1.0
 26
0.0
 36
0.0
 17
0.0
 27
1.0
 37
0.0
 76
     0
330
1B
  0
LAYOUT
  5
26
102
{ACAD_REACTORS
330
1A
102
}
330
1A
100
AcDbPlotSettings
  1

  2
none_device
  4

  6

 40
0.0
 41
0.0
 42
0.0
 43
0.0
 44
0.0
 45
0.0
 46
0.0
 47
0.0
 48
0.0
 49
0.0
140
0.0
141
0.0
142
1.0
143
1.0
 70
   688
 72
     0
 73
     0
 74
     5
  7

 75
    16
 76
     0
 77
     2
 78
   300
147
1.0
148
0.0
149
0.0
100
AcDbLayout
  1
Layout2
 70
     1
 71
     2
 10
0.0
 20
0.0
 11
0.0
 21
0.0
 12
0.0
 22
0.0
 32
0.0
 14
0.0
 24
0.0
 34
0.0
 15
0.0
 25
0.0
 35
0.0
146
0.0
 13
0.0
 23
0.0
 33
0.0
 16
1.0
 26
0.0
 36
0.0
 17
0.0
 27
1.0
 37
0.0
 76
     0
330
23
  0
LAYOUT
  5
22
102
{ACAD_REACTORS
330
1A
102
}
330
1A
100
AcDbPlotSettings
  1

  2
none_device
  4

  6

 40
0.0
 41
0.0
 42
0.0
 43
0.0
 44
0.0
 45
0.0
 46
0.0
 47
0.0
 48
0.0
 49
0.0
140
0.0
141
0.0
142
1.0
143
1.0
 70
  1712
 72
     0
 73
     0
 74
     0
  7

 75
     0
 76
     0
 77
     2
 78
   300
147
1.0
148
0.0
149
0.0
100
AcDbLayout
  1
Model
 70
     1
 71
     0
 10
0.0
 20
0.0
 11
12.0
 21
9.0
 12
0.0
 22
0.0
 32
0.0
 14
1.000000000000000E+20
 24
1.000000000000000E+20
 34
1.000000000000000E+20
 15
-1.000000000000000E+20
 25
-1.000000000000000E+20
 35
-1.000000000000000E+20
146
0.0
 13
0.0
 23
0.0
 33
0.0
 16
1.0
 26
0.0
 36
0.0
 17
0.0
 27
1.0
 37
0.0
 76
     0
330
1F
331
29
  0
MLINESTYLE
  5
18
102
{ACAD_REACTORS
330
17
102
}
330
17
100
AcDbMlineStyle
  2
Standard
 70
     0
  3

 62
   256
 51
90.0
 52
90.0
 71
     2
 49
0.5
 62
   256
  6
BYLAYER
 49
-0.5
 62
   256
  6
BYLAYER
  0
ACDBPLACEHOLDER
  5
F
102
{ACAD_REACTORS
330
E
102
}
330
E
  0
VISUALSTYLE
  5
2F
102
{ACAD_REACTORS
330
2A
102
}
330
2A
100
AcDbVisualStyle
  2
2dWireframe
 70
     4
 71
     0
 72
     2
 73
     0
 90
        0
 40
-0.6
 41
-30.0
 62
     5
 63
     7
421
 16777215
 74
     1
 91
        4
 64
     7
 65
   257
 75
     1
175
     1
 42
1.0
 92
        0
 66
   257
 43
1.0
 76
     1
 77
     6
 78
     2
 67
     7
 79
     5
170
     0
171
     0
290
     0
174
     0
 93
        1
 44
0.0
173
     0
291
     0
 45
0.0
1001
ACAD
1000
AcDbSavedByObjectVersion
1070
     0
  0
VISUALSTYLE
  5
31
102
{ACAD_REACTORS
330
2A
102
}
330
2A
100
AcDbVisualStyle
  2
3D Hidden
 70
     6
 71
     1
 72
     2
 73
     2
 90
        0
 40
-0.6
 41
-30.0
 62
     5
 63
     7
421
 16777215
 74
     2
 91
        2
 64
     7
 65
   257
 75
     2
175
     1
 42
40.0
 92
        0
 66
   257
 43
1.0
 76
     1
 77
     6
 78
     2
 67
     7
 79
     3
170
     0
171
     0
290
     0
174
     0
 93
        1
 44
0.0
173
     0
291
     0
 45
0.0
1001
ACAD
1000
AcDbSavedByObjectVersion
1070
     0
  0
VISUALSTYLE
  5
30
102
{ACAD_REACTORS
330
2A
102
}
330
2A
100
AcDbVisualStyle
  2
3dWireframe
 70
     5
 71
     0
 72
     2
 73
     0
 90
        0
 40
-0.6
 41
-30.0
 62
     5
 63
     7
421
 16777215
 74
     1
 91
        4
 64
     7
 65
   257
 75
     1
175
     1
 42
1.0
 92
        0
 66
   257
 43
1.0
 76
     1
 77
     6
 78
     2
 67
     7
 79
     5
170
     0
171
     0
290
     0
174
     0
 93
        1
 44
0.0
173
     0
291
     0
 45
0.0
1001
ACAD
1000
AcDbSavedByObjectVersion
1070
     0
  0
VISUALSTYLE
  5
32
102
{ACAD_REACTORS
330
2A
102
}
330
2A
100
AcDbVisualStyle
  2
Basic
 70
     7
 71
     1
 72
     0
 73
     1
 90
        0
 40
-0.6
 41
-30.0
 62
     5
 63
     7
421
 16777215
 74
     0
 91
        4
 64
     7
 65
   257
 75
     1
175
     1
 42
1.0
 92
        8
 66
     7
 43
1.0
 76
     1
 77
     6
 78
     2
 67
     7
 79
     5
170
     0
171
     0
290
     0
174
     0
 93
        1
 44
0.0
173
     0
291
     1
 45
0.0
1001
ACAD
1000
AcDbSavedByObjectVersion
1070
     0
  0
VISUALSTYLE
  5
36
102
{ACAD_REACTORS
330
2A
102
}
330
2A
100
AcDbVisualStyle
  2
Brighten
 70
    12
 71
     2
 72
     2
 73
     0
 90
        0
 40
-0.6
 41
-30.0
 62
     5
 63
     7
421
 16777215
 74
     1
 91
        4
 64
     7
 65
   257
 75
     1
175
     1
 42
1.0
 92
        8
 66
     7
 43
1.0
 76
     1
 77
     6
 78
     2
 67
     7
 79
     5
170
     0
171
     0
290
     0
174
     0
 93
        1
 44
50.0
173
     0
291
     1
 45
0.0
1001
ACAD
1000
AcDbSavedByObjectVersion
1070
     0
  0
VISUALSTYLE
  5
3A
102
{ACAD_REACTORS
330
2A
102
}
330
2A
100
AcDbVisualStyle
  2
ColorChange
 70
    16
 71
     2
 72
     2
 73
     3
 90
        0
 40
-0.6
 41
-30.0
 62
     5
 63
     8
421
  8421504
 74
     1
 91
        4
 64
     7
 65
   257
 75
     1
175
     1
 42
1.0
 92
        8
 66
     8
424
  8421504
 43
1.0
 76
     1
 77
     6
 78
     2
 67
     7
 79
     5
170
     0
171
     0
290
     0
174
     0
 93
        1
 44
0.0
173
     0
291
     1
 45
0.0
1001
ACAD
1000
AcDbSavedByObjectVersion
1070
     0
  0
VISUALSTYLE
  5
34
102
{ACAD_REACTORS
330
2A
102
}
330
2A
100
AcDbVisualStyle
  2
Conceptual
 70
     9
 71
     3
 72
     2
 73
     0
 90
        0
 40
-0.6
 41
-30.0
 62
     5
 63
     7
421
 16777215
 74
     2
 91
        2
 64
     7
 65
   257
 75
     1
175
     1
 42
40.0
 92
        8
 66
     7
 43
1.0
 76
     1
 77
     6
 78
     2
 67
     7
 79
     3
170
     0
171
     0
290
     0
174
     0
 93
        1
 44
0.0
173
     0
291
     0
 45
0.0
1001
ACAD
1000
AcDbSavedByObjectVersion
1070
     0
  0
VISUALSTYLE
  5
35
102
{ACAD_REACTORS
330
2A
102
}
330
2A
100
AcDbVisualStyle
  2
Dim
 70
    11
 71
     2
 72
     2
 73
     0
 90
        0
 40
-0.6
 41
-30.0
 62
     5
 63
     7
421
 16777215
 74
     1
 91
        4
 64
     7
 65
   257
 75
     1
175
     1
 42
1.0
 92
        8
 66
     7
 43
1.0
 76
     1
 77
     6
 78
     2
 67
     7
 79
     5
170
     0
171
     0
290
     0
174
     0
 93
        1
 44
-50.0
173
     0
291
     1
 45
0.0
1001
ACAD
1000
AcDbSavedByObjectVersion
1070
     0
  0
VISUALSTYLE
  5
39
102
{ACAD_REACTORS
330
2A
102
}
330
2A
100
AcDbVisualStyle
  2
Facepattern
 70
    15
 71
     2
 72
     2
 73
     0
 90
        0
 40
-0.6
 41
-30.0
 62
     5
 63
     7
421
 16777215
 74
     1
 91
        4
 64
     7
 65
   257
 75
     1
175
     1
 42
1.0
 92
        8
 66
     7
 43
1.0
 76
     1
 77
     6
 78
     2
 67
     7
 79
     5
170
     0
171
     0
290
     0
174
     0
 93
        1
 44
0.0
173
     0
291
     1
 45
0.0
1001
ACAD
1000
AcDbSavedByObjectVersion
1070
     0
  0
VISUALSTYLE
  5
2B
102
{ACAD_REACTORS
330
2A
102
}
330
2A
100
AcDbVisualStyle
  2
Flat
 70
     0
 71
     2
 72
     1
 73
     1
 90
        2
 40
-0.6
 41
30.0
 62
     5
 63
     7
421
 16777215
 74
     0
 91
        4
 64
     7
 65
   257
 75
     1
175
     1
 42
1.0
 92
        8
 66
     7
 43
1.0
 76
     1
 77
     6
 78
     2
 67
     7
 79
     5
170
     0
171
     0
290
     0
174
     0
 93
       13
 44
0.0
173
     0
291
     1
 45
0.0
1001
ACAD
1000
AcDbSavedByObjectVersion
1070
     0
  0
VISUALSTYLE
  5
2C
102
{ACAD_REACTORS
330
2A
102
}
330
2A
100
AcDbVisualStyle
  2
FlatWithEdges
 70
     1
 71
     2
 72
     1
 73
     1
 90
        2
 40
-0.6
 41
30.0
 62
     5
 63
     7
421
 16777215
 74
     1
 91
        4
 64
     7
 65
   257
 75
     1
175
     1
 42
1.0
 92
        0
 66
   257
 43
1.0
 76
     1
 77
     6
 78
     2
 67
     7
 79
     5
170
     0
171
     0
290
     0
174
     0
 93
       13
 44
0.0
173
     0
291
     1
 45
0.0
1001
ACAD
1000
AcDbSavedByObjectVersion
1070
     0
  0
VISUALSTYLE
  5
2D
102
{ACAD_REACTORS
330
2A
102
}
330
2A
100
AcDbVisualStyle
  2
Gouraud
 70
     2
 71
     2
 72
     2
 73
     1
 90
        2
 40
-0.6
 41
30.0
 62
     5
 63
     7
421
 16777215
 74
     0
 91
        4
 64
     7
 65
   257
 75
     1
175
     1
 42
1.0
 92
        0
 66
     7
 43
1.0
 76
     1
 77
     6
 78
     2
 67
     7
 79
     5
170
     0
171
     0
290
     0
174
     0
 93
       13
 44
0.0
173
     0
291
     1
 45
0.0
1001
ACAD
1000
AcDbSavedByObjectVersion
1070
     0
  0
VISUALSTYLE
  5
2E
102
{ACAD_REACTORS
330
2A
102
}
330
2A
100
AcDbVisualStyle
  2
GouraudWithEdges
 70
     3
 71
     2
 72
     2
 73
     1
 90
        2
 40
-0.6
 41
30.0
 62
     5
 63
     7
421
 16777215
 74
     1
 91
        4
 64
     7
 65
   257
 75
     1
175
     1
 42
1.0
 92
        0
 66
   257
 43
1.0
 76
     1
 77
     6
 78
     2
 67
     7
 79
     5
170
     0
171
     0
290
     0
174
     0
 93
       13
 44
0.0
173
     0
291
     1
 45
0.0
1001
ACAD
1000
AcDbSavedByObjectVersion
1070
     0
  0
VISUALSTYLE
  5
38
102
{ACAD_REACTORS
330
2A
102
}
330
2A
100
AcDbVisualStyle
  2
Linepattern
 70
    14
 71
     2
 72
     2
 73
     0
 90
        0
 40
-0.6
 41
-30.0
 62
     5
 63
     7
421
 16777215
 74
     1
 91
        4
 64
     7
 65
   257
 75
     7
175
     7
 42
1.0
 92
        8
 66
     7
 43
1.0
 76
     1
 77
     6
 78
     2
 67
     7
 79
     5
170
     0
171
     0
290
     0
174
     0
 93
        1
 44
0.0
173
     0
291
     1
 45
0.0
1001
ACAD
1000
AcDbSavedByObjectVersion
1070
     0
  0
VISUALSTYLE
  5
33
102
{ACAD_REACTORS
330
2A
102
}
330
2A
100
AcDbVisualStyle
  2
Realistic
 70
     8
 71
     2
 72
     2
 73
     0
 90
        0
 40
-0.6
 41
-30.0
 62
     5
 63
     7
421
 16777215
 74
     1
 91
        0
 64
     7
 65
   257
 75
     1
175
     1
 42
1.0
 92
        8
 66
     8
424
  7895160
 43
1.0
 76
     1
 77
     6
 78
     2
 67
     7
 79
     5
170
     0
171
     0
290
     0
174
     0
 93
       13
 44
0.0
173
     0
291
     0
 45
0.0
1001
ACAD
1000
AcDbSavedByObjectVersion
1070
     0
  0
VISUALSTYLE
  5
37
102
{ACAD_REACTORS
330
2A
102
}
330
2A
100
AcDbVisualStyle
  2
Thicken
 70
    13
 71
     2
 72
     2
 73
     0
 90
        0
 40
-0.6
 41
-30.0
 62
     5
 63
     7
421
 16777215
 74
     1
 91
        4
 64
     7
 65
   257
 75
     1
175
     1
 42
1.0
 92
       12
 66
     7
 43
1.0
 76
     1
 77
     6
 78
     2
 67
     7
 79
     5
170
     0
171
     0
290
     0
174
     0
 93
        1
 44
0.0
173
     0
291
     1
 45
0.0
1001
ACAD
1000
AcDbSavedByObjectVersion
1070
     0
  0
ENDSEC
  0
EOF
