  0
SECTION
  2
HEADER
  9
$ACADVER
  1
AC1015
  9
$ACADMAINTVER
 70
    20
  9
$DWGCODEPAGE
  3
ANSI_1252
  9
$INSBASE
 10
0.0
 20
0.0
 30
0.0
  9
$EXTMIN
 10
124.4775570784077
 20
-1.808917479867886
 30
-0.0015258207003583
  9
$EXTMAX
 10
1109.987734240361
 20
1026.569328287162
 30
0.0000000349246037
  9
$LIMMIN
 10
0.0
 20
0.0
  9
$LIMMAX
 10
420.0
 20
297.0
  9
$ORTHOMODE
 70
     0
  9
$REGENMODE
 70
     1
  9
$FILLMODE
 70
     1
  9
$QTEXTMODE
 70
     0
  9
$MIRRTEXT
 70
     0
  9
$LTSCALE
 40
1.0
  9
$ATTMODE
 70
     1
  9
$TEXTSIZE
 40
2.5
  9
$TRACEWID
 40
1.0
  9
$TEXTSTYLE
  7
Standard
  9
$CLAYER
  8
0
  9
$CELTYPE
  6
ByLayer
  9
$CECOLOR
 62
   256
  9
$CELTSCALE
 40
1.0
  9
$DISPSILH
 70
     0
  9
$DIMSCALE
 40
1.0
  9
$DIMASZ
 40
2.5
  9
$DIMEXO
 40
0.625
  9
$DIMDLI
 40
3.75
  9
$DIMRND
 40
0.0
  9
$DIMDLE
 40
0.0
  9
$DIMEXE
 40
1.25
  9
$DIMTP
 40
0.0
  9
$DIMTM
 40
0.0
  9
$DIMTXT
 40
2.5
  9
$DIMCEN
 40
2.5
  9
$DIMTSZ
 40
0.0
  9
$DIMTOL
 70
     0
  9
$DIMLIM
 70
     0
  9
$DIMTIH
 70
     0
  9
$DIMTOH
 70
     0
  9
$DIMSE1
 70
     0
  9
$DIMSE2
 70
     0
  9
$DIMTAD
 70
     1
  9
$DIMZIN
 70
     8
  9
$DIMBLK
  1

  9
$DIMASO
 70
     1
  9
$DIMSHO
 70
     1
  9
$DIMPOST
  1

  9
$DIMAPOST
  1

  9
$DIMALT
 70
     0
  9
$DIMALTD
 70
     3
  9
$DIMALTF
 40
0.03937007874016
  9
$DIMLFAC
 40
1.0
  9
$DIMTOFL
 70
     1
  9
$DIMTVP
 40
0.0
  9
$DIMTIX
 70
     0
  9
$DIMSOXD
 70
     0
  9
$DIMSAH
 70
     0
  9
$DIMBLK1
  1

  9
$DIMBLK2
  1

  9
$DIMSTYLE
  2
ISO-25
  9
$DIMCLRD
 70
     0
  9
$DIMCLRE
 70
     0
  9
$DIMCLRT
 70
     0
  9
$DIMTFAC
 40
1.0
  9
$DIMGAP
 40
0.625
  9
$DIMJUST
 70
     0
  9
$DIMSD1
 70
     0
  9
$DIMSD2
 70
     0
  9
$DIMTOLJ
 70
     0
  9
$DIMTZIN
 70
     8
  9
$DIMALTZ
 70
     0
  9
$DIMALTTZ
 70
     0
  9
$DIMUPT
 70
     0
  9
$DIMDEC
 70
     2
  9
$DIMTDEC
 70
     2
  9
$DIMALTU
 70
     2
  9
$DIMALTTD
 70
     3
  9
$DIMTXSTY
  7
Standard
  9
$DIMAUNIT
 70
     0
  9
$DIMADEC
 70
     0
  9
$DIMALTRND
 40
0.0
  9
$DIMAZIN
 70
     0
  9
$DIMDSEP
 70
    44
  9
$DIMATFIT
 70
     3
  9
$DIMFRAC
 70
     0
  9
$DIMLDRBLK
  1

  9
$DIMLUNIT
 70
     2
  9
$DIMLWD
 70
    -2
  9
$DIMLWE
 70
    -2
  9
$DIMTMOVE
 70
     0
  9
$LUNITS
 70
     2
  9
$LUPREC
 70
     4
  9
$SKETCHINC
 40
1.0
  9
$FILLETRAD
 40
0.0
  9
$AUNITS
 70
     0
  9
$AUPREC
 70
     0
  9
$MENU
  1
.
  9
$ELEVATION
 40
0.0
  9
$PELEVATION
 40
0.0
  9
$THICKNESS
 40
0.0
  9
$LIMCHECK
 70
     0
  9
$CHAMFERA
 40
0.0
  9
$CHAMFERB
 40
0.0
  9
$CHAMFERC
 40
0.0
  9
$CHAMFERD
 40
0.0
  9
$SKPOLY
 70
     0
  9
$TDCREATE
 40
2454481.986048901
  9
$TDUCREATE
 40
2454481.902715567
  9
$TDUPDATE
 40
2454579.385842014
  9
$TDUUPDATE
 40
2454579.302508681
  9
$TDINDWG
 40
0.0113527199
  9
$TDUSRTIMER
 40
0.0113527199
  9
$USRTIMER
 70
     1
  9
$ANGBASE
 50
0.0
  9
$ANGDIR
 70
     0
  9
$PDMODE
 70
     0
  9
$PDSIZE
 40
0.0
  9
$PLINEWID
 40
0.0
  9
$SPLFRAME
 70
     0
  9
$SPLINETYPE
 70
     6
  9
$SPLINESEGS
 70
     8
  9
$HANDSEED
  5
54F
  9
$SURFTAB1
 70
     6
  9
$SURFTAB2
 70
     6
  9
$SURFTYPE
 70
     6
  9
$SURFU
 70
     6
  9
$SURFV
 70
     6
  9
$UCSBASE
  2

  9
$UCSNAME
  2

  9
$UCSORG
 10
0.0
 20
0.0
 30
0.0
  9
$UCSXDIR
 10
1.0
 20
0.0
 30
0.0
  9
$UCSYDIR
 10
0.0
 20
1.0
 30
0.0
  9
$UCSORTHOREF
  2

  9
$UCSORTHOVIEW
 70
     0
  9
$UCSORGTOP
 10
0.0
 20
0.0
 30
0.0
  9
$UCSORGBOTTOM
 10
0.0
 20
0.0
 30
0.0
  9
$UCSORGLEFT
 10
0.0
 20
0.0
 30
0.0
  9
$UCSORGRIGHT
 10
0.0
 20
0.0
 30
0.0
  9
$UCSORGFRONT
 10
0.0
 20
0.0
 30
0.0
  9
$UCSORGBACK
 10
0.0
 20
0.0
 30
0.0
  9
$PUCSBASE
  2

  9
$PUCSNAME
  2

  9
$PUCSORG
 10
0.0
 20
0.0
 30
0.0
  9
$PUCSXDIR
 10
1.0
 20
0.0
 30
0.0
  9
$PUCSYDIR
 10
0.0
 20
1.0
 30
0.0
  9
$PUCSORTHOREF
  2

  9
$PUCSORTHOVIEW
 70
     0
  9
$PUCSORGTOP
 10
0.0
 20
0.0
 30
0.0
  9
$PUCSORGBOTTOM
 10
0.0
 20
0.0
 30
0.0
  9
$PUCSORGLEFT
 10
0.0
 20
0.0
 30
0.0
  9
$PUCSORGRIGHT
 10
0.0
 20
0.0
 30
0.0
  9
$PUCSORGFRONT
 10
0.0
 20
0.0
 30
0.0
  9
$PUCSORGBACK
 10
0.0
 20
0.0
 30
0.0
  9
$USERI1
 70
     0
  9
$USERI2
 70
     0
  9
$USERI3
 70
     0
  9
$USERI4
 70
     0
  9
$USERI5
 70
     0
  9
$USERR1
 40
0.0
  9
$USERR2
 40
0.0
  9
$USERR3
 40
0.0
  9
$USERR4
 40
0.0
  9
$USERR5
 40
0.0
  9
$WORLDVIEW
 70
     1
  9
$SHADEDGE
 70
     3
  9
$SHADEDIF
 70
    70
  9
$TILEMODE
 70
     1
  9
$MAXACTVP
 70
    64
  9
$PINSBASE
 10
0.0
 20
0.0
 30
0.0
  9
$PLIMCHECK
 70
     0
  9
$PEXTMIN
 10
0.0
 20
0.0
 30
0.0
  9
$PEXTMAX
 10
0.0
 20
0.0
 30
0.0
  9
$PLIMMIN
 10
0.0
 20
0.0
  9
$PLIMMAX
 10
12.0
 20
9.0
  9
$UNITMODE
 70
     0
  9
$VISRETAIN
 70
     1
  9
$PLINEGEN
 70
     0
  9
$PSLTSCALE
 70
     1
  9
$TREEDEPTH
 70
  3020
  9
$CMLSTYLE
  2
Standard
  9
$CMLJUST
 70
     0
  9
$CMLSCALE
 40
20.0
  9
$PROXYGRAPHICS
 70
     1
  9
$MEASUREMENT
 70
     1
  9
$CELWEIGHT
370
    -1
  9
$ENDCAPS
280
     0
  9
$JOINSTYLE
280
     0
  9
$LWDISPLAY
290
     0
  9
$INSUNITS
 70
     4
  9
$HYPERLINKBASE
  1

  9
$STYLESHEET
  1

  9
$XEDIT
290
     1
  9
$CEPSNTYPE
380
     0
  9
$PSTYLEMODE
290
     1
  9
$FINGERPRINTGUID
  2
{FDEAD578-A652-11D2-9A35-0060089B3A3F}
  9
$VERSIONGUID
  2
{26BE0D8E-B3EC-4018-83AC-D6C461970B6F}
  9
$EXTNAMES
290
     1
  9
$PSVPSCALE
 40
0.0
  9
$OLESTARTUP
290
     0
  0
ENDSEC
  0
SECTION
  2
CLASSES
  0
CLASS
  1
ACDBDICTIONARYWDFLT
  2
AcDbDictionaryWithDefault
  3
ObjectDBX Classes
 90
        0
280
     0
281
     0
  0
CLASS
  1
DICTIONARYVAR
  2
AcDbDictionaryVar
  3
ObjectDBX Classes
 90
        0
280
     0
281
     0
  0
CLASS
  1
SORTENTSTABLE
  2
AcDbSortentsTable
  3
ObjectDBX Classes
 90
        0
280
     0
281
     0
  0
CLASS
  1
TABLESTYLE
  2
AcDbTableStyle
  3
ObjectDBX Classes
 90
     2047
280
     0
281
     0
  0
CLASS
  1
ACDBPLACEHOLDER
  2
AcDbPlaceHolder
  3
ObjectDBX Classes
 90
        0
280
     0
281
     0
  0
CLASS
  1
LAYOUT
  2
AcDbLayout
  3
ObjectDBX Classes
 90
        0
280
     0
281
     0
  0
ENDSEC
  0
SECTION
  2
TABLES
  0
TABLE
  2
VPORT
  5
8
330
0
100
AcDbSymbolTable
 70
    16
  0
VPORT
  5
546
330
8
100
AcDbSymbolTableRecord
100
AcDbViewportTableRecord
  2
*Active
 70
     0
 10
0.0
 20
0.0
 11
1.0
 21
1.0
 12
617.2326456593847
 22
512.3802054036473
 13
0.0
 23
0.0
 14
10.0
 24
10.0
 15
10.0
 25
10.0
 16
0.0
 26
0.0
 36
1.0
 17
0.0
 27
0.0
 37
0.0
 40
1036.12984058437
 41
1.50440251572327
 42
50.0
 43
0.0
 44
0.0
 50
0.0
 51
0.0
 71
     0
 72
  1000
 73
     1
 74
     3
 75
     0
 76
     0
 77
     0
 78
     0
281
     0
 65
     1
110
0.0
120
0.0
130
0.0
111
1.0
121
0.0
131
0.0
112
0.0
122
1.0
132
0.0
 79
     0
146
0.0
  0
ENDTAB
  0
TABLE
  2
LTYPE
  5
5
330
0
100
AcDbSymbolTable
 70
     1
  0
LTYPE
  5
14
330
5
100
AcDbSymbolTableRecord
100
AcDbLinetypeTableRecord
  2
ByBlock
 70
     0
  3

 72
    65
 73
     0
 40
0.0
  0
LTYPE
  5
15
330
5
100
AcDbSymbolTableRecord
100
AcDbLinetypeTableRecord
  2
ByLayer
 70
     0
  3

 72
    65
 73
     0
 40
0.0
  0
LTYPE
  5
16
330
5
100
AcDbSymbolTableRecord
100
AcDbLinetypeTableRecord
  2
Continuous
 70
     0
  3
Solid line
 72
    65
 73
     0
 40
0.0
  0
ENDTAB
  0
TABLE
  2
LAYER
  5
2
102
{ACAD_XDICTIONARY
360
164
102
}
330
0
100
AcDbSymbolTable
 70
     1
  0
LAYER
  5
10
330
2
100
AcDbSymbolTableRecord
100
AcDbLayerTableRecord
  2
0
 70
     0
 62
     7
  6
Continuous
370
    -3
390
F
  0
ENDTAB
  0
TABLE
  2
STYLE
  5
3
330
0
100
AcDbSymbolTable
 70
     8
  0
STYLE
  5
11
330
3
100
AcDbSymbolTableRecord
100
AcDbTextStyleTableRecord
  2
Standard
 70
     0
 40
0.0
 41
1.0
 50
0.0
 71
     0
 42
2.5
  3
txt
  4

  0
ENDTAB
  0
TABLE
  2
VIEW
  5
6
330
0
100
AcDbSymbolTable
 70
     0
  0
ENDTAB
  0
TABLE
  2
UCS
  5
7
330
0
100
AcDbSymbolTable
 70
     0
  0
ENDTAB
  0
TABLE
  2
APPID
  5
9
330
0
100
AcDbSymbolTable
 70
     2
  0
APPID
  5
12
330
9
100
AcDbSymbolTableRecord
100
AcDbRegAppTableRecord
  2
ACAD
 70
     0
  0
APPID
  5
8D
330
9
100
AcDbSymbolTableRecord
100
AcDbRegAppTableRecord
  2
ACAD_PSEXT
 70
     0
  0
ENDTAB
  0
TABLE
  2
DIMSTYLE
  5
A
330
0
100
AcDbSymbolTable
 70
     2
100
AcDbDimStyleTable
 71
     1
340
27
  0
DIMSTYLE
105
27
330
A
100
AcDbSymbolTableRecord
100
AcDbDimStyleTableRecord
  2
ISO-25
 70
     0
 41
2.5
 42
0.625
 43
3.75
 44
1.25
 73
     0
 74
     0
 77
     1
 78
     8
140
2.5
141
2.5
143
0.03937007874016
147
0.625
171
     3
172
     1
271
     2
272
     2
274
     3
278
    44
283
     0
284
     8
340
11
  0
DIMSTYLE
105
8C
330
A
100
AcDbSymbolTableRecord
100
AcDbDimStyleTableRecord
  2
STANDARD
 70
     0
340
11
  0
ENDTAB
  0
TABLE
  2
BLOCK_RECORD
  5
1
330
0
100
AcDbSymbolTable
 70
    22
  0
BLOCK_RECORD
  5
1F
330
1
100
AcDbSymbolTableRecord
100
AcDbBlockTableRecord
  2
*Model_Space
340
22
  0
BLOCK_RECORD
  5
50
330
1
100
AcDbSymbolTableRecord
100
AcDbBlockTableRecord
  2
*Paper_Space
340
51
  0
BLOCK_RECORD
  5
55
330
1
100
AcDbSymbolTableRecord
100
AcDbBlockTableRecord
  2
*Paper_Space0
340
56
  0
BLOCK_RECORD
  5
4BF
330
1
100
AcDbSymbolTableRecord
100
AcDbBlockTableRecord
  2
10812-P
340
0
310
2800000020000000200000000100080000000000000400000000000000000000000000000000000000000000000080000080000000808000800000008000800080800000C0C0C000C0DCC000F0CAA6000020400000206000002080000020A0000020C0000020E00000400000004020000040400000406000004080000040A0
310
000040C0000040E00000600000006020000060400000606000006080000060A0000060C0000060E00000800000008020000080400000806000008080000080A0000080C0000080E00000A0000000A0200000A0400000A0600000A0800000A0A00000A0C00000A0E00000C0000000C0200000C0400000C0600000C0800000C0
310
A00000C0C00000C0E00000E0000000E0200000E0400000E0600000E0800000E0A00000E0C00000E0E00040000000400020004000400040006000400080004000A0004000C0004000E00040200000402020004020400040206000402080004020A0004020C0004020E000404000004040200040404000404060004040800040
310
40A0004040C0004040E00040600000406020004060400040606000406080004060A0004060C0004060E00040800000408020004080400040806000408080004080A0004080C0004080E00040A0000040A0200040A0400040A0600040A0800040A0A00040A0C00040A0E00040C0000040C0200040C0400040C0600040C08000
310
40C0A00040C0C00040C0E00040E0000040E0200040E0400040E0600040E0800040E0A00040E0C00040E0E00080000000800020008000400080006000800080008000A0008000C0008000E00080200000802020008020400080206000802080008020A0008020C0008020E00080400000804020008040400080406000804080
310
008040A0008040C0008040E00080600000806020008060400080606000806080008060A0008060C0008060E00080800000808020008080400080806000808080008080A0008080C0008080E00080A0000080A0200080A0400080A0600080A0800080A0A00080A0C00080A0E00080C0000080C0200080C0400080C0600080C0
310
800080C0A00080C0C00080C0E00080E0000080E0200080E0400080E0600080E0800080E0A00080E0C00080E0E000C0000000C0002000C0004000C0006000C0008000C000A000C000C000C000E000C0200000C0202000C0204000C0206000C0208000C020A000C020C000C020E000C0400000C0402000C0404000C0406000C0
310
408000C040A000C040C000C040E000C0600000C0602000C0604000C0606000C0608000C060A000C060C000C060E000C0800000C0802000C0804000C0806000C0808000C080A000C080C000C080E000C0A00000C0A02000C0A04000C0A06000C0A08000C0A0A000C0A0C000C0A0E000C0C00000C0C02000C0C04000C0C06000
310
C0C08000C0C0A000F0FBFF00A4A0A000808080000000FF0000FF000000FFFF00FF000000FF00FF00FFFF0000FFFFFF0000000000000000000000000000000000000000000000000000000000000000000000FFFFFFFFFFFFFFFFFFFFFFFFFFFFFFFFFFFFFFFFFFFFFFFFFFFFFFFF000000FF00000000000000000000000000
310
000000000000000000000000000000FF0000FF00000000000000000000000000000000000000000000000000000000FF0000FF0000FFFFFFFFFFFFFFFFFFFFFFFFFFFFFFFFFFFFFFFFFFFFFFFF0000FF0000FF0000FFFFFFFFFFFFFFFFFFFFFFFFFFFFFFFFFFFFFFFFFFFFFFFF0000FF0000FF0000FFFF0000000000000000
310
000000000000000000000000FFFF0000FF0000FF0000FFFF0000000000000000000000000000000000000000FFFF0000FF0000FF0000FFFF0000000000000000000000000000000000000000FFFF0000FF0000FF0000FFFF0000000000000000000000000000000000000000FFFF0000FF0000FF0000FFFFFFFFFFFFFFFFFF
310
FFFF0000FFFFFFFFFFFFFFFFFFFFFF0000FF0000FF0000FFFFFFFFFFFFFFFFFFFFFF0000FFFFFFFFFFFFFFFFFFFFFF0000FF0000FF0000FFFFFFFFFF00FFFF00FF000000FFFF00FFFFFFFF00FFFFFF0000FF0000FF0000FFFFFFFFFFFFFFFFFFFFFF0000FFFFFFFFFFFFFFFFFFFFFF0000FF0000FF0000FFFFFFFFFFFFFFFF
310
00FFFF0000FFFFFFFFFFFFFFFFFFFFFF0000FF0000FF0000FFFFFFFFFFFFFFFFFFFFFF0000FFFFFFFFFFFFFFFFFFFFFF0000FF0000FF0000FFFFFFFFFFFFFFFFFFFFFF0000FFFFFFFFFFFFFFFFFFFFFF0000FF0000FF0000FFFFFF00FF00FFFF00FF00000000FF00FFFF00FF00FFFFFF0000FF0000FF0000FFFFFFFFFFFFFF
310
FFFFFFFF0000FFFFFFFFFFFFFFFFFFFFFF0000FF0000FF0000FFFFFFFFFFFFFFFF00FFFF0000FFFFFFFFFFFFFFFFFFFFFF0000FF0000FF0000FFFFFFFFFFFFFFFFFFFFFF0000FFFFFFFFFFFFFFFFFFFFFF0000FF0000FF0000FFFFFFFFFFFFFFFFFFFFFF0000FFFFFFFFFFFFFFFFFFFFFF0000FF0000FF0000FFFFFF00FF00
310
FFFF00FF0000FF00FF00FFFF00FF00FFFFFF0000FF0000FF0000FFFF0000000000000000FFFFFFFF0000000000000000FFFF0000FF0000FF0000FFFF0000000000000000FFFFFFFF0000000000000000FFFF0000FF0000FF0000FFFF0000000000000000FFFFFFFF0000000000000000FFFF0000FF0000FF0000FFFF000000
310
0000000000000000000000000000000000FFFF0000FF0000FF0000FFFFFFFFFFFFFFFFFFFFFFFFFFFFFFFFFFFFFFFFFFFFFFFF0000FF0000FF00FFFFFFFFFFFFFFFFFFFFFFFFFFFFFFFFFFFFFFFFFFFFFFFFFFFF00FF0000FF00000000000000000000000000000000000000000000000000000000FF000000FFFFFFFFFFFF
310
FFFFFFFFFFFFFFFFFFFFFFFFFFFFFFFFFFFFFFFFFFFF00000000000000000000000000000000000000000000000000000000000000000000
102
{BLKREFS
331
53D
331
544
102
}
1001
ACAD
1000
DesignCenter Data
1002
{
1070
     1
1070
     4
1002
}
  0
ENDTAB
  0
ENDSEC
  0
SECTION
  2
BLOCKS
  0
BLOCK
  5
20
330
1F
100
AcDbEntity
  8
0
100
AcDbBlockBegin
  2
*Model_Space
 70
     0
 10
0.0
 20
0.0
 30
0.0
  3
*Model_Space
  1

  0
ENDBLK
  5
21
330
1F
100
AcDbEntity
  8
0
100
AcDbBlockEnd
  0
BLOCK
  5
52
330
50
100
AcDbEntity
 67
     1
  8
0
100
AcDbBlockBegin
  2
*Paper_Space
 70
     0
 10
0.0
 20
0.0
 30
0.0
  3
*Paper_Space
  1

  0
ENDBLK
  5
53
330
50
100
AcDbEntity
 67
     1
  8
0
100
AcDbBlockEnd
  0
BLOCK
  5
57
330
55
100
AcDbEntity
  8
0
100
AcDbBlockBegin
  2
*Paper_Space0
 70
     0
 10
0.0
 20
0.0
 30
0.0
  3
*Paper_Space0
  1

  0
ENDBLK
  5
58
330
55
100
AcDbEntity
  8
0
100
AcDbBlockEnd
  0
BLOCK
  5
4C0
330
4BF
100
AcDbEntity
  8
0
100
AcDbBlockBegin
  2
10812-P
 70
     0
 10
0.0
 20
0.0
 30
0.0
  3
10812-P
  1

  0
LINE
  5
4C1
330
4BF
100
AcDbEntity
  8
0
100
AcDbLine
 10
-350.0000000000027
 20
108.0000000000002
 30
0.0
 11
-350.0000000000027
 21
814.2217888781818
 31
0.0
  0
LINE
  5
4C2
330
4BF
100
AcDbEntity
  8
0
100
AcDbLine
 10
-365.0000000000027
 20
93.00000000000023
 30
0.0
 11
-365.0000000000009
 21
832.0000000000007
 31
0.0
  0
LWPOLYLINE
  5
4C3
330
4BF
100
AcDbEntity
  8
0
100
AcDbPolyline
 90
        2
 70
     0
 43
0.0
 10
-450.0000000000027
 20
17.00000000000091
 10
-450.0000000000008
 20
883.000000000001
  0
ARC
  5
4C4
330
4BF
100
AcDbEntity
  8
0
100
AcDbCircle
 10
-357.0000000000009
 20
93.00000000000023
 30
0.0
 40
8.0
100
AcDbArc
 50
180.0
 51
270.0
  0
LWPOLYLINE
  5
4C5
330
4BF
100
AcDbEntity
  8
0
100
AcDbPolyline
 90
        2
 70
     0
 43
0.0
 10
-432.9999999999991
 20
0.0
 10
432.9999999999982
 20
0.0
  0
LINE
  5
4C6
330
4BF
100
AcDbEntity
  8
0
100
AcDbLine
 10
357.0000000000018
 20
85.00000000000023
 30
0.0
 11
-357.0000000000009
 21
85.00000000000023
 31
0.0
  0
ARC
  5
4C7
330
4BF
100
AcDbEntity
  8
0
100
AcDbCircle
 10
-432.9999999999991
 20
17.00000000000068
 30
0.0
 40
17.0
100
AcDbArc
 50
180.0
 51
270.0
  0
LINE
  5
4C8
330
4BF
100
AcDbEntity
  8
0
100
AcDbLine
 10
342.0000000000018
 20
100.0000000000002
 30
0.0
 11
-342.0000000000009
 21
100.0000000000002
 31
0.0
  0
ARC
  5
4C9
330
4BF
100
AcDbEntity
  8
0
100
AcDbCircle
 10
-342.0000000000009
 20
108.0000000000002
 30
0.0
 40
8.0
100
AcDbArc
 50
180.0
 51
270.0
  0
LINE
  5
4CA
330
4BF
100
AcDbEntity
  8
0
100
AcDbLine
 10
342.0000000000018
 20
822.2217888781818
 30
0.0
 11
-342.0000000000009
 21
822.2217888781818
 31
0.0
  0
LINE
  5
4CB
330
4BF
100
AcDbEntity
  8
0
100
AcDbLine
 10
-390.0000000000009
 20
840.0000000000002
 30
0.0
 11
389.9999999999982
 21
840.0000000000002
 31
0.0
  0
LWPOLYLINE
  5
4CC
330
4BF
100
AcDbEntity
  8
0
100
AcDbPolyline
 90
        2
 70
     0
 43
0.0
 10
-432.9999999999991
 20
900.0000000000001
 10
432.9999999999982
 20
900.0000000000001
  0
ARC
  5
4CD
330
4BF
100
AcDbEntity
  8
0
100
AcDbCircle
 10
-342.0000000000009
 20
814.2217888781818
 30
0.0
 40
8.0
100
AcDbArc
 50
90.0
 51
180.0
  0
ARC
  5
4CE
330
4BF
100
AcDbEntity
  8
0
100
AcDbCircle
 10
-357.0000000000009
 20
832.0000000000007
 30
0.0
 40
8.0
100
AcDbArc
 50
90.0
 51
180.0
  0
ARC
  5
4CF
330
4BF
100
AcDbEntity
  8
0
100
AcDbCircle
 10
-432.9999999999991
 20
883.0000000000001
 30
0.0
 40
17.0
100
AcDbArc
 50
90.0
 51
180.0
  0
LINE
  5
4D0
330
4BF
100
AcDbEntity
  8
0
100
AcDbLine
 10
350.0000000000018
 20
108.0000000000002
 30
0.0
 11
350.0000000000018
 21
814.2217888781818
 31
0.0
  0
LINE
  5
4D1
330
4BF
100
AcDbEntity
  8
0
100
AcDbLine
 10
365.0000000000018
 20
93.00000000000023
 30
0.0
 11
364.9999999999982
 21
832.0000000000007
 31
0.0
  0
LWPOLYLINE
  5
4D2
330
4BF
100
AcDbEntity
  8
0
100
AcDbPolyline
 90
        2
 70
     0
 43
0.0
 10
450.0000000000018
 20
17.00000000000091
 10
450.0000000000018
 20
883.000000000001
  0
ARC
  5
4D3
330
4BF
100
AcDbEntity
  8
0
100
AcDbCircle
 10
432.9999999999982
 20
17.00000000000068
 30
0.0
 40
17.0
100
AcDbArc
 50
270.0
 51
0.0
  0
ARC
  5
4D4
330
4BF
100
AcDbEntity
  8
0
100
AcDbCircle
 10
342.0000000000018
 20
108.0000000000002
 30
0.0
 40
8.0
100
AcDbArc
 50
270.0
 51
0.0
  0
ARC
  5
4D5
330
4BF
100
AcDbEntity
  8
0
100
AcDbCircle
 10
357.0000000000018
 20
93.00000000000023
 30
0.0
 40
8.0
100
AcDbArc
 50
270.0
 51
0.0
  0
ARC
  5
4D6
330
4BF
100
AcDbEntity
  8
0
100
AcDbCircle
 10
432.9999999999982
 20
883.0000000000001
 30
0.0
 40
17.0
100
AcDbArc
 50
0.0
 51
90.0
  0
ARC
  5
4D7
330
4BF
100
AcDbEntity
  8
0
100
AcDbCircle
 10
342.0000000000018
 20
814.2217888781818
 30
0.0
 40
8.0
100
AcDbArc
 50
0.0
 51
90.0
  0
ARC
  5
4D8
330
4BF
100
AcDbEntity
  8
0
100
AcDbCircle
 10
357.0000000000018
 20
832.0000000000007
 30
0.0
 40
8.0
100
AcDbArc
 50
0.0
 51
90.0
  0
ARC
  5
4D9
330
4BF
100
AcDbEntity
  8
0
100
AcDbCircle
 10
0.0
 20
715.0000000000002
 30
0.0
 40
31.5
100
AcDbArc
 50
270.0
 51
90.0
  0
ARC
  5
4DA
330
4BF
100
AcDbEntity
  8
0
100
AcDbCircle
 10
0.000000000001819
 20
714.9999999999993
 30
0.0
 40
45.99999999999997
100
AcDbArc
 50
90.0
 51
270.0
  0
ARC
  5
4DB
330
4BF
100
AcDbEntity
  8
0
100
AcDbCircle
 10
0.0
 20
714.9999999999993
 30
0.0
 40
45.99999999999997
100
AcDbArc
 50
270.0
 51
90.0
  0
ARC
  5
4DC
330
4BF
100
AcDbEntity
  8
0
100
AcDbCircle
 10
0.000000000001819
 20
715.0000000000002
 30
0.0
 40
31.5
100
AcDbArc
 50
90.0
 51
270.0
  0
CIRCLE
  5
4DD
330
4BF
100
AcDbEntity
  8
0
100
AcDbCircle
 10
-75.99999999999818
 20
373.4999999999975
 30
0.0
 40
27.99999999999999
  0
CIRCLE
  5
4DE
330
4BF
100
AcDbEntity
  8
0
100
AcDbCircle
 10
-75.99999999999818
 20
454.4999999999975
 30
0.0
 40
27.99999999999999
  0
CIRCLE
  5
4DF
330
4BF
100
AcDbEntity
  8
0
100
AcDbCircle
 10
-75.99999999999818
 20
373.4999999999975
 30
0.0
 40
15.0
  0
CIRCLE
  5
4E0
330
4BF
100
AcDbEntity
  8
0
100
AcDbCircle
 10
-75.99999999999818
 20
454.4999999999975
 30
0.0
 40
15.0
  0
CIRCLE
  5
4E1
330
4BF
100
AcDbEntity
  8
0
100
AcDbCircle
 10
-75.99999999999818
 20
535.4999999999972
 30
0.0
 40
27.99999999999999
  0
CIRCLE
  5
4E2
330
4BF
100
AcDbEntity
  8
0
100
AcDbCircle
 10
-75.99999999999818
 20
616.4999999999972
 30
0.0
 40
27.99999999999999
  0
CIRCLE
  5
4E3
330
4BF
100
AcDbEntity
  8
0
100
AcDbCircle
 10
-75.99999999999818
 20
535.4999999999972
 30
0.0
 40
15.0
  0
CIRCLE
  5
4E4
330
4BF
100
AcDbEntity
  8
0
100
AcDbCircle
 10
-75.99999999999818
 20
616.4999999999972
 30
0.0
 40
15.0
  0
CIRCLE
  5
4E5
330
4BF
100
AcDbEntity
  8
0
100
AcDbCircle
 10
-156.9999999999982
 20
616.4999999999972
 30
0.0
 40
15.0
  0
CIRCLE
  5
4E6
330
4BF
100
AcDbEntity
  8
0
100
AcDbCircle
 10
-156.9999999999982
 20
535.4999999999972
 30
0.0
 40
15.0
  0
CIRCLE
  5
4E7
330
4BF
100
AcDbEntity
  8
0
100
AcDbCircle
 10
-156.9999999999982
 20
535.4999999999972
 30
0.0
 40
27.99999999999999
  0
CIRCLE
  5
4E8
330
4BF
100
AcDbEntity
  8
0
100
AcDbCircle
 10
-156.9999999999982
 20
616.4999999999972
 30
0.0
 40
27.99999999999999
  0
CIRCLE
  5
4E9
330
4BF
100
AcDbEntity
  8
0
100
AcDbCircle
 10
-156.9999999999982
 20
373.4999999999975
 30
0.0
 40
15.0
  0
CIRCLE
  5
4EA
330
4BF
100
AcDbEntity
  8
0
100
AcDbCircle
 10
-156.9999999999982
 20
373.4999999999975
 30
0.0
 40
27.99999999999999
  0
CIRCLE
  5
4EB
330
4BF
100
AcDbEntity
  8
0
100
AcDbCircle
 10
-156.9999999999982
 20
454.4999999999975
 30
0.0
 40
15.0
  0
CIRCLE
  5
4EC
330
4BF
100
AcDbEntity
  8
0
100
AcDbCircle
 10
-156.9999999999982
 20
454.4999999999975
 30
0.0
 40
27.99999999999999
  0
CIRCLE
  5
4ED
330
4BF
100
AcDbEntity
  8
0
100
AcDbCircle
 10
-237.9999999999982
 20
373.4999999999975
 30
0.0
 40
27.99999999999999
  0
CIRCLE
  5
4EE
330
4BF
100
AcDbEntity
  8
0
100
AcDbCircle
 10
-237.9999999999982
 20
454.4999999999975
 30
0.0
 40
27.99999999999999
  0
CIRCLE
  5
4EF
330
4BF
100
AcDbEntity
  8
0
100
AcDbCircle
 10
-318.9999999999982
 20
373.4999999999975
 30
0.0
 40
15.0
  0
CIRCLE
  5
4F0
330
4BF
100
AcDbEntity
  8
0
100
AcDbCircle
 10
-318.9999999999982
 20
373.4999999999975
 30
0.0
 40
27.99999999999999
  0
CIRCLE
  5
4F1
330
4BF
100
AcDbEntity
  8
0
100
AcDbCircle
 10
-318.9999999999982
 20
454.4999999999975
 30
0.0
 40
15.0
  0
CIRCLE
  5
4F2
330
4BF
100
AcDbEntity
  8
0
100
AcDbCircle
 10
-318.9999999999982
 20
454.4999999999975
 30
0.0
 40
27.99999999999999
  0
CIRCLE
  5
4F3
330
4BF
100
AcDbEntity
  8
0
100
AcDbCircle
 10
-237.9999999999982
 20
373.4999999999975
 30
0.0
 40
15.0
  0
CIRCLE
  5
4F4
330
4BF
100
AcDbEntity
  8
0
100
AcDbCircle
 10
-237.9999999999982
 20
454.4999999999975
 30
0.0
 40
15.0
  0
CIRCLE
  5
4F5
330
4BF
100
AcDbEntity
  8
0
100
AcDbCircle
 10
-237.9999999999982
 20
535.4999999999972
 30
0.0
 40
27.99999999999999
  0
CIRCLE
  5
4F6
330
4BF
100
AcDbEntity
  8
0
100
AcDbCircle
 10
-237.9999999999982
 20
616.4999999999972
 30
0.0
 40
27.99999999999999
  0
CIRCLE
  5
4F7
330
4BF
100
AcDbEntity
  8
0
100
AcDbCircle
 10
-318.9999999999982
 20
535.4999999999972
 30
0.0
 40
15.0
  0
CIRCLE
  5
4F8
330
4BF
100
AcDbEntity
  8
0
100
AcDbCircle
 10
-318.9999999999982
 20
535.4999999999972
 30
0.0
 40
27.99999999999999
  0
CIRCLE
  5
4F9
330
4BF
100
AcDbEntity
  8
0
100
AcDbCircle
 10
-318.9999999999982
 20
616.4999999999972
 30
0.0
 40
15.0
  0
CIRCLE
  5
4FA
330
4BF
100
AcDbEntity
  8
0
100
AcDbCircle
 10
-318.9999999999982
 20
616.4999999999972
 30
0.0
 40
27.99999999999999
  0
CIRCLE
  5
4FB
330
4BF
100
AcDbEntity
  8
0
100
AcDbCircle
 10
-237.9999999999982
 20
535.4999999999972
 30
0.0
 40
15.0
  0
CIRCLE
  5
4FC
330
4BF
100
AcDbEntity
  8
0
100
AcDbCircle
 10
-237.9999999999982
 20
616.4999999999972
 30
0.0
 40
15.0
  0
CIRCLE
  5
4FD
330
4BF
100
AcDbEntity
  8
0
100
AcDbCircle
 10
-75.99999999999818
 20
292.4999999999975
 30
0.0
 40
27.99999999999999
  0
CIRCLE
  5
4FE
330
4BF
100
AcDbEntity
  8
0
100
AcDbCircle
 10
-75.99999999999818
 20
292.4999999999975
 30
0.0
 40
15.0
  0
CIRCLE
  5
4FF
330
4BF
100
AcDbEntity
  8
0
100
AcDbCircle
 10
-156.9999999999982
 20
292.4999999999975
 30
0.0
 40
15.0
  0
CIRCLE
  5
500
330
4BF
100
AcDbEntity
  8
0
100
AcDbCircle
 10
-156.9999999999982
 20
292.4999999999975
 30
0.0
 40
27.99999999999999
  0
CIRCLE
  5
501
330
4BF
100
AcDbEntity
  8
0
100
AcDbCircle
 10
-237.9999999999982
 20
292.4999999999975
 30
0.0
 40
27.99999999999999
  0
CIRCLE
  5
502
330
4BF
100
AcDbEntity
  8
0
100
AcDbCircle
 10
-318.9999999999982
 20
292.4999999999975
 30
0.0
 40
15.0
  0
CIRCLE
  5
503
330
4BF
100
AcDbEntity
  8
0
100
AcDbCircle
 10
-318.9999999999982
 20
292.4999999999975
 30
0.0
 40
27.99999999999999
  0
CIRCLE
  5
504
330
4BF
100
AcDbEntity
  8
0
100
AcDbCircle
 10
-237.9999999999982
 20
292.4999999999975
 30
0.0
 40
15.0
  0
CIRCLE
  5
505
330
4BF
100
AcDbEntity
  8
0
100
AcDbCircle
 10
75.99999999999818
 20
373.4999999999975
 30
0.0
 40
27.99999999999999
  0
CIRCLE
  5
506
330
4BF
100
AcDbEntity
  8
0
100
AcDbCircle
 10
75.99999999999818
 20
454.4999999999975
 30
0.0
 40
27.99999999999999
  0
CIRCLE
  5
507
330
4BF
100
AcDbEntity
  8
0
100
AcDbCircle
 10
75.99999999999818
 20
373.4999999999975
 30
0.0
 40
15.0
  0
CIRCLE
  5
508
330
4BF
100
AcDbEntity
  8
0
100
AcDbCircle
 10
75.99999999999818
 20
454.4999999999975
 30
0.0
 40
15.0
  0
CIRCLE
  5
509
330
4BF
100
AcDbEntity
  8
0
100
AcDbCircle
 10
75.99999999999818
 20
535.4999999999972
 30
0.0
 40
27.99999999999999
  0
CIRCLE
  5
50A
330
4BF
100
AcDbEntity
  8
0
100
AcDbCircle
 10
75.99999999999818
 20
616.4999999999972
 30
0.0
 40
27.99999999999999
  0
CIRCLE
  5
50B
330
4BF
100
AcDbEntity
  8
0
100
AcDbCircle
 10
75.99999999999818
 20
535.4999999999972
 30
0.0
 40
15.0
  0
CIRCLE
  5
50C
330
4BF
100
AcDbEntity
  8
0
100
AcDbCircle
 10
75.99999999999818
 20
616.4999999999972
 30
0.0
 40
15.0
  0
CIRCLE
  5
50D
330
4BF
100
AcDbEntity
  8
0
100
AcDbCircle
 10
156.9999999999982
 20
616.4999999999972
 30
0.0
 40
15.0
  0
CIRCLE
  5
50E
330
4BF
100
AcDbEntity
  8
0
100
AcDbCircle
 10
156.9999999999982
 20
535.4999999999972
 30
0.0
 40
15.0
  0
CIRCLE
  5
50F
330
4BF
100
AcDbEntity
  8
0
100
AcDbCircle
 10
156.9999999999982
 20
535.4999999999972
 30
0.0
 40
27.99999999999999
  0
CIRCLE
  5
510
330
4BF
100
AcDbEntity
  8
0
100
AcDbCircle
 10
156.9999999999982
 20
616.4999999999972
 30
0.0
 40
27.99999999999999
  0
CIRCLE
  5
511
330
4BF
100
AcDbEntity
  8
0
100
AcDbCircle
 10
156.9999999999982
 20
373.4999999999975
 30
0.0
 40
15.0
  0
CIRCLE
  5
512
330
4BF
100
AcDbEntity
  8
0
100
AcDbCircle
 10
156.9999999999982
 20
373.4999999999975
 30
0.0
 40
27.99999999999999
  0
CIRCLE
  5
513
330
4BF
100
AcDbEntity
  8
0
100
AcDbCircle
 10
156.9999999999982
 20
454.4999999999975
 30
0.0
 40
15.0
  0
CIRCLE
  5
514
330
4BF
100
AcDbEntity
  8
0
100
AcDbCircle
 10
156.9999999999982
 20
454.4999999999975
 30
0.0
 40
27.99999999999999
  0
CIRCLE
  5
515
330
4BF
100
AcDbEntity
  8
0
100
AcDbCircle
 10
237.9999999999982
 20
373.4999999999975
 30
0.0
 40
27.99999999999999
  0
CIRCLE
  5
516
330
4BF
100
AcDbEntity
  8
0
100
AcDbCircle
 10
237.9999999999982
 20
454.4999999999975
 30
0.0
 40
27.99999999999999
  0
CIRCLE
  5
517
330
4BF
100
AcDbEntity
  8
0
100
AcDbCircle
 10
318.9999999999982
 20
373.4999999999975
 30
0.0
 40
15.0
  0
CIRCLE
  5
518
330
4BF
100
AcDbEntity
  8
0
100
AcDbCircle
 10
318.9999999999982
 20
373.4999999999975
 30
0.0
 40
27.99999999999999
  0
CIRCLE
  5
519
330
4BF
100
AcDbEntity
  8
0
100
AcDbCircle
 10
318.9999999999982
 20
454.4999999999975
 30
0.0
 40
15.0
  0
CIRCLE
  5
51A
330
4BF
100
AcDbEntity
  8
0
100
AcDbCircle
 10
318.9999999999982
 20
454.4999999999975
 30
0.0
 40
27.99999999999999
  0
CIRCLE
  5
51B
330
4BF
100
AcDbEntity
  8
0
100
AcDbCircle
 10
237.9999999999982
 20
373.4999999999975
 30
0.0
 40
15.0
  0
CIRCLE
  5
51C
330
4BF
100
AcDbEntity
  8
0
100
AcDbCircle
 10
237.9999999999982
 20
454.4999999999975
 30
0.0
 40
15.0
  0
CIRCLE
  5
51D
330
4BF
100
AcDbEntity
  8
0
100
AcDbCircle
 10
237.9999999999982
 20
535.4999999999972
 30
0.0
 40
27.99999999999999
  0
CIRCLE
  5
51E
330
4BF
100
AcDbEntity
  8
0
100
AcDbCircle
 10
237.9999999999982
 20
616.4999999999972
 30
0.0
 40
27.99999999999999
  0
CIRCLE
  5
51F
330
4BF
100
AcDbEntity
  8
0
100
AcDbCircle
 10
318.9999999999982
 20
535.4999999999972
 30
0.0
 40
15.0
  0
CIRCLE
  5
520
330
4BF
100
AcDbEntity
  8
0
100
AcDbCircle
 10
318.9999999999982
 20
535.4999999999972
 30
0.0
 40
27.99999999999999
  0
CIRCLE
  5
521
330
4BF
100
AcDbEntity
  8
0
100
AcDbCircle
 10
318.9999999999982
 20
616.4999999999972
 30
0.0
 40
15.0
  0
CIRCLE
  5
522
330
4BF
100
AcDbEntity
  8
0
100
AcDbCircle
 10
318.9999999999982
 20
616.4999999999972
 30
0.0
 40
27.99999999999999
  0
CIRCLE
  5
523
330
4BF
100
AcDbEntity
  8
0
100
AcDbCircle
 10
237.9999999999982
 20
535.4999999999972
 30
0.0
 40
15.0
  0
CIRCLE
  5
524
330
4BF
100
AcDbEntity
  8
0
100
AcDbCircle
 10
237.9999999999982
 20
616.4999999999972
 30
0.0
 40
15.0
  0
CIRCLE
  5
525
330
4BF
100
AcDbEntity
  8
0
100
AcDbCircle
 10
75.99999999999818
 20
292.4999999999975
 30
0.0
 40
27.99999999999999
  0
CIRCLE
  5
526
330
4BF
100
AcDbEntity
  8
0
100
AcDbCircle
 10
75.99999999999818
 20
292.4999999999975
 30
0.0
 40
15.0
  0
CIRCLE
  5
527
330
4BF
100
AcDbEntity
  8
0
100
AcDbCircle
 10
156.9999999999982
 20
292.4999999999975
 30
0.0
 40
15.0
  0
CIRCLE
  5
528
330
4BF
100
AcDbEntity
  8
0
100
AcDbCircle
 10
156.9999999999982
 20
292.4999999999975
 30
0.0
 40
27.99999999999999
  0
CIRCLE
  5
529
330
4BF
100
AcDbEntity
  8
0
100
AcDbCircle
 10
237.9999999999982
 20
292.4999999999975
 30
0.0
 40
27.99999999999999
  0
CIRCLE
  5
52A
330
4BF
100
AcDbEntity
  8
0
100
AcDbCircle
 10
318.9999999999982
 20
292.4999999999975
 30
0.0
 40
15.0
  0
CIRCLE
  5
52B
330
4BF
100
AcDbEntity
  8
0
100
AcDbCircle
 10
318.9999999999982
 20
292.4999999999975
 30
0.0
 40
27.99999999999999
  0
CIRCLE
  5
52C
330
4BF
100
AcDbEntity
  8
0
100
AcDbCircle
 10
237.9999999999982
 20
292.4999999999975
 30
0.0
 40
15.0
  0
ENDBLK
  5
52D
330
4BF
100
AcDbEntity
  8
0
100
AcDbBlockEnd
  0
ENDSEC
  0
SECTION
  2
ENTITIES
  0
MTEXT
  5
16C
330
1F
100
AcDbEntity
  8
0
100
AcDbMText
 10
169.205461982827
 20
37.78343114735776
 30
0.0
 40
30.0
 41
1220.924241397021
 71
     1
 72
     5
  1
{\fTimes New Roman|b0|i0|c0|p18;\C0;PLATO DE DUCHA ATLAS DE 90 CM. X 90 CM.}
 73
     1
 44
1.0
1001
ACAD
1000
MTEXTBEGIN
1070
    73
1070
     1
1070
    44
1040
1.0
1070
    74
1070
     0
1000
MTEXTEND
  0
INSERT
  5
544
330
1F
100
AcDbEntity
  8
0
100
AcDbBlockReference
  2
10812-P
 10
574.5889596351462
 20
122.9544955490371
 30
0.0
  0
ENDSEC
  0
SECTION
  2
OBJECTS
  0
DICTIONARY
  5
C
330
0
100
AcDbDictionary
281
     1
  3
ACAD_COLOR
350
6B
  3
ACAD_GROUP
350
D
  3
ACAD_LAYOUT
350
1A
  3
ACAD_MATERIAL
350
6A
  3
ACAD_MLINESTYLE
350
17
  3
ACAD_PLOTSETTINGS
350
19
  3
ACAD_PLOTSTYLENAME
350
E
  3
ACAD_TABLESTYLE
350
1E5
  3
ACDBHEADERROUNDTRIPXREC
350
548
  3
AcDbVariableDictionary
350
5E
  3
DWGPROPS
350
547
  0
DICTIONARY
  5
164
330
2
100
AcDbDictionary
280
     1
281
     1
  3
ACAD_LAYERSTATES
360
165
  0
DICTIONARY
  5
6B
102
{ACAD_REACTORS
330
C
102
}
330
C
100
AcDbDictionary
281
     1
  0
DICTIONARY
  5
D
102
{ACAD_REACTORS
330
C
102
}
330
C
100
AcDbDictionary
281
     1
  0
DICTIONARY
  5
1A
102
{ACAD_REACTORS
330
C
102
}
330
C
100
AcDbDictionary
281
     1
  3
Model
350
22
  3
Presentación1
350
51
  3
Presentación2
350
56
  0
DICTIONARY
  5
6A
102
{ACAD_REACTORS
330
C
102
}
330
C
100
AcDbDictionary
281
     1
  0
DICTIONARY
  5
17
102
{ACAD_REACTORS
330
C
102
}
330
C
100
AcDbDictionary
281
     1
  3
Standard
350
18
  0
DICTIONARY
  5
19
102
{ACAD_REACTORS
330
C
102
}
330
C
100
AcDbDictionary
281
     1
  0
ACDBDICTIONARYWDFLT
  5
E
102
{ACAD_REACTORS
330
C
102
}
330
C
100
AcDbDictionary
281
     1
  3
Normal
350
F
100
AcDbDictionaryWithDefault
340
F
  0
DICTIONARY
  5
1E5
102
{ACAD_REACTORS
330
C
102
}
330
C
100
AcDbDictionary
281
     1
  3
Standard
350
1E6
  0
DICTIONARY
  5
548
102
{ACAD_REACTORS
330
C
102
}
330
C
100
AcDbDictionary
281
     1
  0
DICTIONARY
  5
5E
102
{ACAD_REACTORS
330
C
102
}
330
C
100
AcDbDictionary
281
     1
  3
CTABLESTYLE
350
218
  3
DIMASSOC
350
5F
  3
HIDETEXT
350
63
  3
PROJECTNAME
350
219
  0
XRECORD
  5
547
102
{ACAD_REACTORS
330
C
102
}
330
C
100
AcDbXrecord
280
     1
  1
DWGPROPS COOKIE
  2

  3

  4

  6

  7

  8

  9

300
=
301
=
302
=
303
=
304
=
305
=
306
=
307
=
308
=
309
=
 40
0.0113525347222222
 41
2454481.986048901
 42
2454579.385842014
  1

 90
        0
  0
DICTIONARY
  5
165
102
{ACAD_REACTORS
330
164
102
}
330
164
100
AcDbDictionary
281
     1
  0
LAYOUT
  5
22
102
{ACAD_XDICTIONARY
360
549
102
}
102
{ACAD_REACTORS
330
1A
102
}
330
1A
100
AcDbPlotSettings
  1

  2
none_device
  4
ANSI_A_(8.50_x_11.00_Inches)
  6

 40
6.349999904632567
 41
19.04999923706055
 42
6.350006103515625
 43
19.04998779296875
 44
215.8999938964844
 45
279.3999938964844
 46
0.0
 47
0.0
 48
0.0
 49
0.0
140
0.0
141
0.0
142
1.0
143
78.436453180766
 70
 11952
 72
     0
 73
     1
 74
     0
  7

 75
     0
147
0.0127491741332998
148
0.0
149
0.0
100
AcDbLayout
  1
Model
 70
     1
 71
     0
 10
0.0
 20
0.0
 11
12.0
 21
9.0
 12
0.0
 22
0.0
 32
0.0
 14
0.0
 24
0.0
 34
0.0
 15
0.0
 25
0.0
 35
0.0
146
0.0
 13
0.0
 23
0.0
 33
0.0
 16
1.0
 26
0.0
 36
0.0
 17
0.0
 27
1.0
 37
0.0
 76
     0
330
1F
  0
LAYOUT
  5
51
102
{ACAD_XDICTIONARY
360
54B
102
}
102
{ACAD_REACTORS
330
1A
102
}
330
1A
100
AcDbPlotSettings
  1

  2
None
  4

  6

 40
0.0
 41
0.0
 42
0.0
 43
0.0
 44
0.0
 45
0.0
 46
0.0
 47
0.0
 48
0.0
 49
0.0
140
0.0
141
0.0
142
1.0
143
1.0
 70
   688
 72
     0
 73
     0
 74
     5
  7

 75
    16
147
1.0
148
0.0
149
0.0
100
AcDbLayout
  1
Presentación1
 70
     1
 71
     1
 10
0.0
 20
0.0
 11
12.0
 21
9.0
 12
0.0
 22
0.0
 32
0.0
 14
0.0
 24
0.0
 34
0.0
 15
0.0
 25
0.0
 35
0.0
146
0.0
 13
0.0
 23
0.0
 33
0.0
 16
1.0
 26
0.0
 36
0.0
 17
0.0
 27
1.0
 37
0.0
 76
     0
330
50
  0
LAYOUT
  5
56
102
{ACAD_XDICTIONARY
360
54D
102
}
102
{ACAD_REACTORS
330
1A
102
}
330
1A
100
AcDbPlotSettings
  1

  2
None
  4

  6

 40
0.0
 41
0.0
 42
0.0
 43
0.0
 44
0.0
 45
0.0
 46
0.0
 47
0.0
 48
0.0
 49
0.0
140
0.0
141
0.0
142
1.0
143
1.0
 70
   688
 72
     0
 73
     0
 74
     5
  7

 75
    16
147
1.0
148
0.0
149
0.0
100
AcDbLayout
  1
Presentación2
 70
     1
 71
     2
 10
0.0
 20
0.0
 11
12.0
 21
9.0
 12
0.0
 22
0.0
 32
0.0
 14
0.0
 24
0.0
 34
0.0
 15
0.0
 25
0.0
 35
0.0
146
0.0
 13
0.0
 23
0.0
 33
0.0
 16
1.0
 26
0.0
 36
0.0
 17
0.0
 27
1.0
 37
0.0
 76
     0
330
55
  0
MLINESTYLE
  5
18
102
{ACAD_REACTORS
330
17
102
}
330
17
100
AcDbMlineStyle
  2
STANDARD
 70
     0
  3

 62
   256
 51
90.0
 52
90.0
 71
     2
 49
0.5
 62
   256
  6
BYLAYER
 49
-0.5
 62
   256
  6
BYLAYER
  0
ACDBPLACEHOLDER
  5
F
102
{ACAD_REACTORS
330
E
102
}
330
E
  0
TABLESTYLE
  5
1E6
102
{ACAD_REACTORS
330
1E5
102
}
330
1E5
100
AcDbTableStyle
  3
Standard
 70
     0
 71
     0
 40
1.5
 41
1.5
280
     0
281
     0
  7
Standard
140
4.5
170
     2
 62
     0
 63
     7
283
     0
274
    -2
284
     1
 64
     0
275
    -2
285
     1
 65
     0
276
    -2
286
     1
 66
     0
277
    -2
287
     1
 67
     0
278
    -2
288
     1
 68
     0
279
    -2
289
     1
 69
     0
  7
Standard
140
6.0
170
     5
 62
     0
 63
     7
283
     0
274
    -2
284
     1
 64
     0
275
    -2
285
     1
 65
     0
276
    -2
286
     1
 66
     0
277
    -2
287
     1
 67
     0
278
    -2
288
     1
 68
     0
279
    -2
289
     1
 69
     0
  7
Standard
140
4.5
170
     5
 62
     0
 63
     7
283
     0
274
    -2
284
     1
 64
     0
275
    -2
285
     1
 65
     0
276
    -2
286
     1
 66
     0
277
    -2
287
     1
 67
     0
278
    -2
288
     1
 68
     0
279
    -2
289
     1
 69
     0
  0
DICTIONARYVAR
  5
218
102
{ACAD_REACTORS
330
5E
102
}
330
5E
100
DictionaryVariables
280
     0
  1
STANDARD
  0
DICTIONARYVAR
  5
5F
102
{ACAD_REACTORS
330
5E
102
}
330
5E
100
DictionaryVariables
280
     0
  1
2
  0
DICTIONARYVAR
  5
63
102
{ACAD_REACTORS
330
5E
102
}
330
5E
100
DictionaryVariables
280
     0
  1
1
  0
DICTIONARYVAR
  5
219
102
{ACAD_REACTORS
330
5E
102
}
330
5E
100
DictionaryVariables
280
     0
  1

  0
DICTIONARY
  5
549
330
22
100
AcDbDictionary
280
     1
281
     1
  3
ACAD_XREC_ROUNDTRIP
360
54A
  0
DICTIONARY
  5
54B
330
51
100
AcDbDictionary
280
     1
281
     1
  3
ACAD_XREC_ROUNDTRIP
360
54C
  0
DICTIONARY
  5
54D
330
56
100
AcDbDictionary
280
     1
281
     1
  3
ACAD_XREC_ROUNDTRIP
360
54E
  0
XRECORD
  5
54A
102
{ACAD_REACTORS
330
549
102
}
330
549
100
AcDbXrecord
280
     1
102
SHADEPLOT
 70
     0
102
SHADEPLOTRESLEVEL
 70
     2
102
SHADEPLOTCUSTOMDPI
 70
   300
  0
XRECORD
  5
54C
102
{ACAD_REACTORS
330
54B
102
}
330
54B
100
AcDbXrecord
280
     1
102
SHADEPLOT
 70
     0
102
SHADEPLOTRESLEVEL
 70
     2
102
SHADEPLOTCUSTOMDPI
 70
   300
  0
XRECORD
  5
54E
102
{ACAD_REACTORS
330
54D
102
}
330
54D
100
AcDbXrecord
280
     1
102
SHADEPLOT
 70
     0
102
SHADEPLOTRESLEVEL
 70
     2
102
SHADEPLOTCUSTOMDPI
 70
   300
  0
ENDSEC
  0
EOF
