  0
SECTION
  2
HEADER
  9
$ACADVER
  1
AC1018
  9
$ACADMAINTVER
 70
     0
  9
$DWGCODEPAGE
  3
ASCII
  9
$INSBASE
 10
0.0
 20
0.0
 30
0.0
  9
$EXTMIN
 10
1.000000000000000E+20
 20
1.000000000000000E+20
 30
1.000000000000000E+20
  9
$EXTMAX
 10
-1.000000000000000E+20
 20
-1.000000000000000E+20
 30
-1.000000000000000E+20
  9
$LIMMIN
 10
0.0
 20
0.0
  9
$LIMMAX
 10
12.0
 20
9.0
  9
$ORTHOMODE
 70
     0
  9
$REGENMODE
 70
     1
  9
$FILLMODE
 70
     1
  9
$QTEXTMODE
 70
     0
  9
$MIRRTEXT
 70
     1
  9
$LTSCALE
 40
1.0
  9
$ATTMODE
 70
     1
  9
$TEXTSIZE
 40
0.2
  9
$TRACEWID
 40
0.05
  9
$TEXTSTYLE
  7
Standard
  9
$CLAYER
  8
0
  9
$CELTYPE
  6
ByLayer
  9
$CECOLOR
 62
   256
  9
$CELTSCALE
 40
1.0
  9
$DISPSILH
 70
     0
  9
$DIMSCALE
 40
1.0
  9
$DIMASZ
 40
0.18
  9
$DIMEXO
 40
0.0625
  9
$DIMDLI
 40
0.38
  9
$DIMRND
 40
0.0
  9
$DIMDLE
 40
0.0
  9
$DIMEXE
 40
0.18
  9
$DIMTP
 40
0.0
  9
$DIMTM
 40
0.0
  9
$DIMTXT
 40
0.18
  9
$DIMCEN
 40
0.09
  9
$DIMTSZ
 40
0.0
  9
$DIMTOL
 70
     0
  9
$DIMLIM
 70
     0
  9
$DIMTIH
 70
     1
  9
$DIMTOH
 70
     1
  9
$DIMSE1
 70
     0
  9
$DIMSE2
 70
     0
  9
$DIMTAD
 70
     0
  9
$DIMZIN
 70
     0
  9
$DIMBLK
  1

  9
$DIMASO
 70
     1
  9
$DIMSHO
 70
     1
  9
$DIMPOST
  1

  9
$DIMAPOST
  1

  9
$DIMALT
 70
     0
  9
$DIMALTD
 70
     2
  9
$DIMALTF
 40
25.4
  9
$DIMLFAC
 40
1.0
  9
$DIMTOFL
 70
     0
  9
$DIMTVP
 40
0.0
  9
$DIMTIX
 70
     0
  9
$DIMSOXD
 70
     0
  9
$DIMSAH
 70
     0
  9
$DIMBLK1
  1

  9
$DIMBLK2
  1

  9
$DIMSTYLE
  2
Standard
  9
$DIMCLRD
 70
     0
  9
$DIMCLRE
 70
     0
  9
$DIMCLRT
 70
     0
  9
$DIMTFAC
 40
1.0
  9
$DIMGAP
 40
0.09
  9
$DIMJUST
 70
     0
  9
$DIMSD1
 70
     0
  9
$DIMSD2
 70
     0
  9
$DIMTOLJ
 70
     1
  9
$DIMTZIN
 70
     0
  9
$DIMALTZ
 70
     0
  9
$DIMALTTZ
 70
     0
  9
$DIMUPT
 70
     0
  9
$DIMDEC
 70
     4
  9
$DIMTDEC
 70
     4
  9
$DIMALTU
 70
     2
  9
$DIMALTTD
 70
     2
  9
$DIMTXSTY
  7
Standard
  9
$DIMAUNIT
 70
     0
  9
$DIMADEC
 70
     0
  9
$DIMALTRND
 40
0.0
  9
$DIMAZIN
 70
     0
  9
$DIMDSEP
 70
    46
  9
$DIMATFIT
 70
     3
  9
$DIMFRAC
 70
     0
  9
$DIMLDRBLK
  1

  9
$DIMLUNIT
 70
     2
  9
$DIMLWD
 70
    -2
  9
$DIMLWE
 70
    -2
  9
$DIMTMOVE
 70
     0
  9
$LUNITS
 70
     2
  9
$LUPREC
 70
     4
  9
$SKETCHINC
 40
0.1
  9
$FILLETRAD
 40
0.5
  9
$AUNITS
 70
     0
  9
$AUPREC
 70
     0
  9
$MENU
  1
.
  9
$ELEVATION
 40
0.0
  9
$PELEVATION
 40
0.0
  9
$THICKNESS
 40
0.0
  9
$LIMCHECK
 70
     0
  9
$CHAMFERA
 40
0.5
  9
$CHAMFERB
 40
0.5
  9
$CHAMFERC
 40
1.0
  9
$CHAMFERD
 40
0.0
  9
$SKPOLY
 70
     0
  9
$TDCREATE
 40
2456966.939338461
  9
$TDUCREATE
 40
2456966.897671794
  9
$TDUPDATE
 40
2456966.939338472
  9
$TDUUPDATE
 40
2456966.897671806
  9
$TDINDWG
 40
0.0000000116
  9
$TDUSRTIMER
 40
0.0000000116
  9
$USRTIMER
 70
     1
  9
$ANGBASE
 50
0.0
  9
$ANGDIR
 70
     0
  9
$PDMODE
 70
     0
  9
$PDSIZE
 40
0.0
  9
$PLINEWID
 40
0.0
  9
$SPLFRAME
 70
     0
  9
$SPLINETYPE
 70
     6
  9
$SPLINESEGS
 70
     8
  9
$HANDSEED
  5
5E5
  9
$SURFTAB1
 70
     6
  9
$SURFTAB2
 70
     6
  9
$SURFTYPE
 70
     6
  9
$SURFU
 70
     6
  9
$SURFV
 70
     6
  9
$UCSBASE
  2

  9
$UCSNAME
  2

  9
$UCSORG
 10
0.0
 20
0.0
 30
0.0
  9
$UCSXDIR
 10
1.0
 20
0.0
 30
0.0
  9
$UCSYDIR
 10
0.0
 20
1.0
 30
0.0
  9
$UCSORTHOREF
  2

  9
$UCSORTHOVIEW
 70
     0
  9
$UCSORGTOP
 10
0.0
 20
0.0
 30
0.0
  9
$UCSORGBOTTOM
 10
0.0
 20
0.0
 30
0.0
  9
$UCSORGLEFT
 10
0.0
 20
0.0
 30
0.0
  9
$UCSORGRIGHT
 10
0.0
 20
0.0
 30
0.0
  9
$UCSORGFRONT
 10
0.0
 20
0.0
 30
0.0
  9
$UCSORGBACK
 10
0.0
 20
0.0
 30
0.0
  9
$PUCSBASE
  2

  9
$PUCSNAME
  2

  9
$PUCSORG
 10
0.0
 20
0.0
 30
0.0
  9
$PUCSXDIR
 10
1.0
 20
0.0
 30
0.0
  9
$PUCSYDIR
 10
0.0
 20
1.0
 30
0.0
  9
$PUCSORTHOREF
  2

  9
$PUCSORTHOVIEW
 70
     0
  9
$PUCSORGTOP
 10
0.0
 20
0.0
 30
0.0
  9
$PUCSORGBOTTOM
 10
0.0
 20
0.0
 30
0.0
  9
$PUCSORGLEFT
 10
0.0
 20
0.0
 30
0.0
  9
$PUCSORGRIGHT
 10
0.0
 20
0.0
 30
0.0
  9
$PUCSORGFRONT
 10
0.0
 20
0.0
 30
0.0
  9
$PUCSORGBACK
 10
0.0
 20
0.0
 30
0.0
  9
$USERI1
 70
     0
  9
$USERI2
 70
     0
  9
$USERI3
 70
     0
  9
$USERI4
 70
     0
  9
$USERI5
 70
     0
  9
$USERR1
 40
0.0
  9
$USERR2
 40
0.0
  9
$USERR3
 40
0.0
  9
$USERR4
 40
0.0
  9
$USERR5
 40
0.0
  9
$WORLDVIEW
 70
     1
  9
$SHADEDGE
 70
     3
  9
$SHADEDIF
 70
    70
  9
$TILEMODE
 70
     1
  9
$MAXACTVP
 70
    64
  9
$PINSBASE
 10
0.0
 20
0.0
 30
0.0
  9
$PLIMCHECK
 70
     0
  9
$PEXTMIN
 10
1.000000000000000E+20
 20
1.000000000000000E+20
 30
1.000000000000000E+20
  9
$PEXTMAX
 10
-1.000000000000000E+20
 20
-1.000000000000000E+20
 30
-1.000000000000000E+20
  9
$PLIMMIN
 10
0.0
 20
0.0
  9
$PLIMMAX
 10
12.0
 20
9.0
  9
$UNITMODE
 70
     0
  9
$VISRETAIN
 70
     1
  9
$PLINEGEN
 70
     0
  9
$PSLTSCALE
 70
     1
  9
$TREEDEPTH
 70
  3020
  9
$CMLSTYLE
  2
Standard
  9
$CMLJUST
 70
     0
  9
$CMLSCALE
 40
1.0
  9
$PROXYGRAPHICS
 70
     1
  9
$MEASUREMENT
 70
     0
  9
$CELWEIGHT
370
    -1
  9
$ENDCAPS
280
     0
  9
$JOINSTYLE
280
     0
  9
$LWDISPLAY
290
     1
  9
$INSUNITS
 70
     1
  9
$HYPERLINKBASE
  1

  9
$STYLESHEET
  1

  9
$XEDIT
290
     1
  9
$CEPSNTYPE
380
     0
  9
$PSTYLEMODE
290
     1
  9
$FINGERPRINTGUID
  2
{E1CCC1E2-DADC-46DD-AE6F-A4720C1B8B81}
  9
$VERSIONGUID
  2
{FAEB1C32-E019-11D5-929B-00C0DF256EC4}
  9
$EXTNAMES
290
     1
  9
$PSVPSCALE
 40
0.0
  9
$OLESTARTUP
290
     0
  9
$SORTENTS
280
   127
  9
$INDEXCTL
280
     0
  9
$HIDETEXT
280
     1
  9
$XCLIPFRAME
290
     0
  9
$HALOGAP
280
     0
  9
$OBSCOLOR
 70
   257
  9
$OBSLTYPE
280
     0
  9
$INTERSECTIONDISPLAY
280
     0
  9
$INTERSECTIONCOLOR
 70
   257
  9
$DIMASSOC
280
     2
  9
$PROJECTNAME
  1

  0
ENDSEC
  0
SECTION
  2
CLASSES
  0
CLASS
  1
ACDBDICTIONARYWDFLT
  2
AcDbDictionaryWithDefault
  3
ObjectDBX Classes
 90
        0
 91
        3
280
     0
281
     0
  0
CLASS
  1
VISUALSTYLE
  2
AcDbVisualStyle
  3
ObjectDBX Classes
 90
     4095
 91
        3
280
     0
281
     0
  0
ENDSEC
  0
SECTION
  2
TABLES
  0
TABLE
  2
VPORT
  5
8
330
0
100
AcDbSymbolTable
 70
     1
  0
VPORT
  5
29
330
8
100
AcDbSymbolTableRecord
100
AcDbViewportTableRecord
  2
*Active
 70
     0
 10
0.0
 20
0.0
 11
1.0
 21
1.0
 12
0.0
 22
0.0
 13
0.0
 23
0.0
 14
0.5
 24
0.5
 15
0.5
 25
0.5
 16
0.0
 26
0.0
 36
1.0
 17
105.0008091239277
 27
148.5001637099431
 37
0.0
 40
297.0003274198861
 41
0.7070753762199199
 42
50.0
 43
0.0
 44
0.0
 50
0.0
 51
0.0
 71
     0
 72
   100
 73
     1
 74
     3
 75
     0
 76
     0
 77
     0
 78
     0
281
     0
 65
     1
110
0.0
120
0.0
130
0.0
111
1.0
121
0.0
131
0.0
112
0.0
122
1.0
132
0.0
 79
     0
146
0.0
  0
ENDTAB
  0
TABLE
  2
LTYPE
  5
5
330
0
100
AcDbSymbolTable
 70
     4
  0
LTYPE
  5
14
330
5
100
AcDbSymbolTableRecord
100
AcDbLinetypeTableRecord
  2
ByBlock
 70
     0
  3

 72
    65
 73
     0
 40
0.0
  0
LTYPE
  5
15
330
5
100
AcDbSymbolTableRecord
100
AcDbLinetypeTableRecord
  2
ByLayer
 70
     0
  3

 72
    65
 73
     0
 40
0.0
  0
LTYPE
  5
16
330
5
100
AcDbSymbolTableRecord
100
AcDbLinetypeTableRecord
  2
Continuous
 70
     0
  3
Solid line
 72
    65
 73
     0
 40
0.0
  0
LTYPE
  5
3B5
330
5
100
AcDbSymbolTableRecord
100
AcDbLinetypeTableRecord
  2
AI-Linetype-1
 70
     0
  3
Adobe Illustrator Linetype No. 1
 72
    65
 73
     4
 40
19.98659527776564
 49
9.991533748870172
 74
     0
 49
-4.995766874435086
 74
     0
 49
0.0035277800253007
 74
     0
 49
-4.995766874435086
 74
     0
  0
LTYPE
  5
3BE
330
5
100
AcDbSymbolTableRecord
100
AcDbLinetypeTableRecord
  2
AI-Linetype-2
 70
     0
  3
Adobe Illustrator Linetype No. 2
 72
    65
 73
     4
 40
24.98236248863606
 49
12.48941735430538
 74
     0
 49
-6.244708677152689
 74
     0
 49
0.0035277800253007
 74
     0
 49
-6.244708677152689
 74
     0
  0
LTYPE
  5
3C7
330
5
100
AcDbSymbolTableRecord
100
AcDbLinetypeTableRecord
  2
AI-Linetype-3
 70
     0
  3
Adobe Illustrator Linetype No. 3
 72
    65
 73
     4
 40
24.98236248863606
 49
12.48941735430538
 74
     0
 49
-6.244708677152689
 74
     0
 49
0.0035277800253007
 74
     0
 49
-6.244708677152689
 74
     0
  0
ENDTAB
  0
TABLE
  2
LAYER
  5
2
330
0
100
AcDbSymbolTable
 70
     9
  0
LAYER
  5
10
330
2
100
AcDbSymbolTableRecord
100
AcDbLayerTableRecord
  2
0
 70
     0
 62
     7
  6
Continuous
370
    -3
390
F
  0
LAYER
  5
3B
330
2
100
AcDbSymbolTableRecord
100
AcDbLayerTableRecord
  2
CAJETIN
 70
     0
 62
     7
  6
Continuous
370
    -3
390
F
  0
LAYER
  5
3C
330
2
100
AcDbSymbolTableRecord
100
AcDbLayerTableRecord
  2
TEXTO-NOMBRE
 70
     0
 62
     7
  6
Continuous
370
    -3
390
F
  0
LAYER
  5
3D
330
2
100
AcDbSymbolTableRecord
100
AcDbLayerTableRecord
  2
Fina
 70
     0
 62
     7
  6
Continuous
370
    -3
390
F
  0
LAYER
  5
110
330
2
100
AcDbSymbolTableRecord
100
AcDbLayerTableRecord
  2
SOMBREA
 70
     0
 62
     7
  6
Continuous
370
    -3
390
F
  0
LAYER
  5
18C
330
2
100
AcDbSymbolTableRecord
100
AcDbLayerTableRecord
  2
PIEZA
 70
     0
 62
     7
  6
Continuous
370
    -3
390
F
  0
LAYER
  5
3AC
330
2
100
AcDbSymbolTableRecord
100
AcDbLayerTableRecord
  2
EJES
 70
     0
 62
     7
  6
Continuous
370
    -3
390
F
  0
LAYER
  5
3C8
330
2
100
AcDbSymbolTableRecord
100
AcDbLayerTableRecord
  2
LINEAS-FINAS
 70
     0
 62
     7
  6
Continuous
370
    -3
390
F
  0
LAYER
  5
3D9
330
2
100
AcDbSymbolTableRecord
100
AcDbLayerTableRecord
  2
COTAS
 70
     0
 62
     7
  6
Continuous
370
    -3
390
F
  0
ENDTAB
  0
TABLE
  2
STYLE
  5
3
330
0
100
AcDbSymbolTable
 70
     1
  0
STYLE
  5
11
330
3
100
AcDbSymbolTableRecord
100
AcDbTextStyleTableRecord
  2
Standard
 70
     0
 40
0.0
 41
1.0
 50
0.0
 71
     0
 42
0.2
  3
txt
  4

  0
ENDTAB
  0
TABLE
  2
VIEW
  5
6
330
0
100
AcDbSymbolTable
 70
     0
  0
ENDTAB
  0
TABLE
  2
UCS
  5
7
330
0
100
AcDbSymbolTable
 70
     0
  0
ENDTAB
  0
TABLE
  2
APPID
  5
9
330
0
100
AcDbSymbolTable
 70
     1
  0
APPID
  5
12
330
9
100
AcDbSymbolTableRecord
100
AcDbRegAppTableRecord
  2
ACAD
 70
     0
  0
ENDTAB
  0
TABLE
  2
DIMSTYLE
  5
A
330
0
100
AcDbSymbolTable
 70
     1
100
AcDbDimStyleTable
  0
DIMSTYLE
105
27
330
A
100
AcDbSymbolTableRecord
100
AcDbDimStyleTableRecord
  2
Standard
 70
     0
340
11
  0
ENDTAB
  0
TABLE
  2
BLOCK_RECORD
  5
1
330
0
100
AcDbSymbolTable
 70
   205
  0
BLOCK_RECORD
  5
1F
330
1
100
AcDbSymbolTableRecord
100
AcDbBlockTableRecord
  2
*Model_Space
340
22
  0
BLOCK_RECORD
  5
1B
330
1
100
AcDbSymbolTableRecord
100
AcDbBlockTableRecord
  2
*Paper_Space
340
1E
  0
BLOCK_RECORD
  5
23
330
1
100
AcDbSymbolTableRecord
100
AcDbBlockTableRecord
  2
*Paper_Space0
340
26
  0
BLOCK_RECORD
  5
3E
330
1
100
AcDbSymbolTableRecord
100
AcDbBlockTableRecord
  2
block 2
340
0
102
{BLKREFS
331
3F
102
}
  0
BLOCK_RECORD
  5
43
330
1
100
AcDbSymbolTableRecord
100
AcDbBlockTableRecord
  2
block 3
340
0
102
{BLKREFS
331
44
102
}
  0
BLOCK_RECORD
  5
48
330
1
100
AcDbSymbolTableRecord
100
AcDbBlockTableRecord
  2
block 4
340
0
102
{BLKREFS
331
49
102
}
  0
BLOCK_RECORD
  5
4D
330
1
100
AcDbSymbolTableRecord
100
AcDbBlockTableRecord
  2
block 5
340
0
102
{BLKREFS
331
4E
102
}
  0
BLOCK_RECORD
  5
52
330
1
100
AcDbSymbolTableRecord
100
AcDbBlockTableRecord
  2
block 6
340
0
102
{BLKREFS
331
53
102
}
  0
BLOCK_RECORD
  5
57
330
1
100
AcDbSymbolTableRecord
100
AcDbBlockTableRecord
  2
block 7
340
0
102
{BLKREFS
331
58
102
}
  0
BLOCK_RECORD
  5
5C
330
1
100
AcDbSymbolTableRecord
100
AcDbBlockTableRecord
  2
block 8
340
0
102
{BLKREFS
331
5D
102
}
  0
BLOCK_RECORD
  5
61
330
1
100
AcDbSymbolTableRecord
100
AcDbBlockTableRecord
  2
block 9
340
0
102
{BLKREFS
331
62
102
}
  0
BLOCK_RECORD
  5
66
330
1
100
AcDbSymbolTableRecord
100
AcDbBlockTableRecord
  2
block 10
340
0
102
{BLKREFS
331
67
102
}
  0
BLOCK_RECORD
  5
6B
330
1
100
AcDbSymbolTableRecord
100
AcDbBlockTableRecord
  2
block 11
340
0
102
{BLKREFS
331
6C
102
}
  0
BLOCK_RECORD
  5
70
330
1
100
AcDbSymbolTableRecord
100
AcDbBlockTableRecord
  2
block 12
340
0
102
{BLKREFS
331
71
102
}
  0
BLOCK_RECORD
  5
75
330
1
100
AcDbSymbolTableRecord
100
AcDbBlockTableRecord
  2
block 13
340
0
102
{BLKREFS
331
76
102
}
  0
BLOCK_RECORD
  5
7A
330
1
100
AcDbSymbolTableRecord
100
AcDbBlockTableRecord
  2
block 14
340
0
102
{BLKREFS
331
7B
102
}
  0
BLOCK_RECORD
  5
7F
330
1
100
AcDbSymbolTableRecord
100
AcDbBlockTableRecord
  2
block 15
340
0
102
{BLKREFS
331
80
102
}
  0
BLOCK_RECORD
  5
84
330
1
100
AcDbSymbolTableRecord
100
AcDbBlockTableRecord
  2
block 16
340
0
102
{BLKREFS
331
85
102
}
  0
BLOCK_RECORD
  5
89
330
1
100
AcDbSymbolTableRecord
100
AcDbBlockTableRecord
  2
block 17
340
0
102
{BLKREFS
331
8A
102
}
  0
BLOCK_RECORD
  5
8E
330
1
100
AcDbSymbolTableRecord
100
AcDbBlockTableRecord
  2
block 18
340
0
102
{BLKREFS
331
8F
102
}
  0
BLOCK_RECORD
  5
93
330
1
100
AcDbSymbolTableRecord
100
AcDbBlockTableRecord
  2
block 19
340
0
102
{BLKREFS
331
94
102
}
  0
BLOCK_RECORD
  5
98
330
1
100
AcDbSymbolTableRecord
100
AcDbBlockTableRecord
  2
block 20
340
0
102
{BLKREFS
331
99
102
}
  0
BLOCK_RECORD
  5
9D
330
1
100
AcDbSymbolTableRecord
100
AcDbBlockTableRecord
  2
block 21
340
0
102
{BLKREFS
331
9E
102
}
  0
BLOCK_RECORD
  5
A2
330
1
100
AcDbSymbolTableRecord
100
AcDbBlockTableRecord
  2
block 22
340
0
102
{BLKREFS
331
A3
102
}
  0
BLOCK_RECORD
  5
A7
330
1
100
AcDbSymbolTableRecord
100
AcDbBlockTableRecord
  2
block 23
340
0
102
{BLKREFS
331
A8
102
}
  0
BLOCK_RECORD
  5
AC
330
1
100
AcDbSymbolTableRecord
100
AcDbBlockTableRecord
  2
block 24
340
0
102
{BLKREFS
331
AD
102
}
  0
BLOCK_RECORD
  5
B1
330
1
100
AcDbSymbolTableRecord
100
AcDbBlockTableRecord
  2
block 25
340
0
102
{BLKREFS
331
B2
102
}
  0
BLOCK_RECORD
  5
B6
330
1
100
AcDbSymbolTableRecord
100
AcDbBlockTableRecord
  2
block 26
340
0
102
{BLKREFS
331
B7
102
}
  0
BLOCK_RECORD
  5
BB
330
1
100
AcDbSymbolTableRecord
100
AcDbBlockTableRecord
  2
block 27
340
0
102
{BLKREFS
331
BC
102
}
  0
BLOCK_RECORD
  5
C0
330
1
100
AcDbSymbolTableRecord
100
AcDbBlockTableRecord
  2
block 28
340
0
102
{BLKREFS
331
C1
102
}
  0
BLOCK_RECORD
  5
C5
330
1
100
AcDbSymbolTableRecord
100
AcDbBlockTableRecord
  2
block 29
340
0
102
{BLKREFS
331
C6
102
}
  0
BLOCK_RECORD
  5
CA
330
1
100
AcDbSymbolTableRecord
100
AcDbBlockTableRecord
  2
block 30
340
0
102
{BLKREFS
331
CB
102
}
  0
BLOCK_RECORD
  5
CF
330
1
100
AcDbSymbolTableRecord
100
AcDbBlockTableRecord
  2
block 31
340
0
102
{BLKREFS
331
D0
102
}
  0
BLOCK_RECORD
  5
D4
330
1
100
AcDbSymbolTableRecord
100
AcDbBlockTableRecord
  2
block 32
340
0
102
{BLKREFS
331
D5
102
}
  0
BLOCK_RECORD
  5
D9
330
1
100
AcDbSymbolTableRecord
100
AcDbBlockTableRecord
  2
block 33
340
0
102
{BLKREFS
331
DA
102
}
  0
BLOCK_RECORD
  5
DE
330
1
100
AcDbSymbolTableRecord
100
AcDbBlockTableRecord
  2
block 34
340
0
102
{BLKREFS
331
DF
102
}
  0
BLOCK_RECORD
  5
E3
330
1
100
AcDbSymbolTableRecord
100
AcDbBlockTableRecord
  2
block 35
340
0
102
{BLKREFS
331
E4
102
}
  0
BLOCK_RECORD
  5
E8
330
1
100
AcDbSymbolTableRecord
100
AcDbBlockTableRecord
  2
block 36
340
0
102
{BLKREFS
331
E9
102
}
  0
BLOCK_RECORD
  5
ED
330
1
100
AcDbSymbolTableRecord
100
AcDbBlockTableRecord
  2
block 37
340
0
102
{BLKREFS
331
EE
102
}
  0
BLOCK_RECORD
  5
F2
330
1
100
AcDbSymbolTableRecord
100
AcDbBlockTableRecord
  2
block 38
340
0
102
{BLKREFS
331
F3
102
}
  0
BLOCK_RECORD
  5
F7
330
1
100
AcDbSymbolTableRecord
100
AcDbBlockTableRecord
  2
block 39
340
0
102
{BLKREFS
331
F8
102
}
  0
BLOCK_RECORD
  5
FC
330
1
100
AcDbSymbolTableRecord
100
AcDbBlockTableRecord
  2
block 40
340
0
102
{BLKREFS
331
FD
102
}
  0
BLOCK_RECORD
  5
101
330
1
100
AcDbSymbolTableRecord
100
AcDbBlockTableRecord
  2
block 41
340
0
102
{BLKREFS
331
102
102
}
  0
BLOCK_RECORD
  5
106
330
1
100
AcDbSymbolTableRecord
100
AcDbBlockTableRecord
  2
block 42
340
0
102
{BLKREFS
331
107
102
}
  0
BLOCK_RECORD
  5
10B
330
1
100
AcDbSymbolTableRecord
100
AcDbBlockTableRecord
  2
block 43
340
0
102
{BLKREFS
331
10C
102
}
  0
BLOCK_RECORD
  5
111
330
1
100
AcDbSymbolTableRecord
100
AcDbBlockTableRecord
  2
block 44
340
0
102
{BLKREFS
331
112
102
}
  0
BLOCK_RECORD
  5
125
330
1
100
AcDbSymbolTableRecord
100
AcDbBlockTableRecord
  2
block 45
340
0
102
{BLKREFS
331
126
102
}
  0
BLOCK_RECORD
  5
137
330
1
100
AcDbSymbolTableRecord
100
AcDbBlockTableRecord
  2
block 46
340
0
102
{BLKREFS
331
138
102
}
  0
BLOCK_RECORD
  5
14B
330
1
100
AcDbSymbolTableRecord
100
AcDbBlockTableRecord
  2
block 47
340
0
102
{BLKREFS
331
14C
102
}
  0
BLOCK_RECORD
  5
152
330
1
100
AcDbSymbolTableRecord
100
AcDbBlockTableRecord
  2
block 48
340
0
102
{BLKREFS
331
153
102
}
  0
BLOCK_RECORD
  5
166
330
1
100
AcDbSymbolTableRecord
100
AcDbBlockTableRecord
  2
block 49
340
0
102
{BLKREFS
331
167
102
}
  0
BLOCK_RECORD
  5
178
330
1
100
AcDbSymbolTableRecord
100
AcDbBlockTableRecord
  2
block 50
340
0
102
{BLKREFS
331
179
102
}
  0
BLOCK_RECORD
  5
18D
330
1
100
AcDbSymbolTableRecord
100
AcDbBlockTableRecord
  2
block 51
340
0
102
{BLKREFS
331
18E
102
}
  0
BLOCK_RECORD
  5
195
330
1
100
AcDbSymbolTableRecord
100
AcDbBlockTableRecord
  2
block 52
340
0
102
{BLKREFS
331
196
102
}
  0
BLOCK_RECORD
  5
19D
330
1
100
AcDbSymbolTableRecord
100
AcDbBlockTableRecord
  2
block 53
340
0
102
{BLKREFS
331
19E
102
}
  0
BLOCK_RECORD
  5
1A5
330
1
100
AcDbSymbolTableRecord
100
AcDbBlockTableRecord
  2
block 54
340
0
102
{BLKREFS
331
1A6
102
}
  0
BLOCK_RECORD
  5
1AA
330
1
100
AcDbSymbolTableRecord
100
AcDbBlockTableRecord
  2
block 55
340
0
102
{BLKREFS
331
1AB
102
}
  0
BLOCK_RECORD
  5
1AF
330
1
100
AcDbSymbolTableRecord
100
AcDbBlockTableRecord
  2
block 56
340
0
102
{BLKREFS
331
1B0
102
}
  0
BLOCK_RECORD
  5
1B4
330
1
100
AcDbSymbolTableRecord
100
AcDbBlockTableRecord
  2
block 57
340
0
102
{BLKREFS
331
1B5
102
}
  0
BLOCK_RECORD
  5
1BC
330
1
100
AcDbSymbolTableRecord
100
AcDbBlockTableRecord
  2
block 58
340
0
102
{BLKREFS
331
1BD
102
}
  0
BLOCK_RECORD
  5
1C1
330
1
100
AcDbSymbolTableRecord
100
AcDbBlockTableRecord
  2
block 59
340
0
102
{BLKREFS
331
1C2
102
}
  0
BLOCK_RECORD
  5
1C6
330
1
100
AcDbSymbolTableRecord
100
AcDbBlockTableRecord
  2
block 60
340
0
102
{BLKREFS
331
1C7
102
}
  0
BLOCK_RECORD
  5
1CE
330
1
100
AcDbSymbolTableRecord
100
AcDbBlockTableRecord
  2
block 61
340
0
102
{BLKREFS
331
1CF
102
}
  0
BLOCK_RECORD
  5
1D6
330
1
100
AcDbSymbolTableRecord
100
AcDbBlockTableRecord
  2
block 62
340
0
102
{BLKREFS
331
1D7
102
}
  0
BLOCK_RECORD
  5
1DE
330
1
100
AcDbSymbolTableRecord
100
AcDbBlockTableRecord
  2
block 63
340
0
102
{BLKREFS
331
1DF
102
}
  0
BLOCK_RECORD
  5
1E6
330
1
100
AcDbSymbolTableRecord
100
AcDbBlockTableRecord
  2
block 64
340
0
102
{BLKREFS
331
1E7
102
}
  0
BLOCK_RECORD
  5
1EB
330
1
100
AcDbSymbolTableRecord
100
AcDbBlockTableRecord
  2
block 65
340
0
102
{BLKREFS
331
1EC
102
}
  0
BLOCK_RECORD
  5
1F0
330
1
100
AcDbSymbolTableRecord
100
AcDbBlockTableRecord
  2
block 66
340
0
102
{BLKREFS
331
1F1
102
}
  0
BLOCK_RECORD
  5
1F8
330
1
100
AcDbSymbolTableRecord
100
AcDbBlockTableRecord
  2
block 67
340
0
102
{BLKREFS
331
1F9
102
}
  0
BLOCK_RECORD
  5
200
330
1
100
AcDbSymbolTableRecord
100
AcDbBlockTableRecord
  2
block 68
340
0
102
{BLKREFS
331
201
102
}
  0
BLOCK_RECORD
  5
205
330
1
100
AcDbSymbolTableRecord
100
AcDbBlockTableRecord
  2
block 69
340
0
102
{BLKREFS
331
206
102
}
  0
BLOCK_RECORD
  5
20D
330
1
100
AcDbSymbolTableRecord
100
AcDbBlockTableRecord
  2
block 70
340
0
102
{BLKREFS
331
20E
102
}
  0
BLOCK_RECORD
  5
215
330
1
100
AcDbSymbolTableRecord
100
AcDbBlockTableRecord
  2
block 71
340
0
102
{BLKREFS
331
216
102
}
  0
BLOCK_RECORD
  5
21A
330
1
100
AcDbSymbolTableRecord
100
AcDbBlockTableRecord
  2
block 72
340
0
102
{BLKREFS
331
21B
102
}
  0
BLOCK_RECORD
  5
222
330
1
100
AcDbSymbolTableRecord
100
AcDbBlockTableRecord
  2
block 73
340
0
102
{BLKREFS
331
223
102
}
  0
BLOCK_RECORD
  5
22A
330
1
100
AcDbSymbolTableRecord
100
AcDbBlockTableRecord
  2
block 74
340
0
102
{BLKREFS
331
22B
102
}
  0
BLOCK_RECORD
  5
22F
330
1
100
AcDbSymbolTableRecord
100
AcDbBlockTableRecord
  2
block 75
340
0
102
{BLKREFS
331
230
102
}
  0
BLOCK_RECORD
  5
234
330
1
100
AcDbSymbolTableRecord
100
AcDbBlockTableRecord
  2
block 76
340
0
102
{BLKREFS
331
235
102
}
  0
BLOCK_RECORD
  5
23C
330
1
100
AcDbSymbolTableRecord
100
AcDbBlockTableRecord
  2
block 77
340
0
102
{BLKREFS
331
23D
102
}
  0
BLOCK_RECORD
  5
244
330
1
100
AcDbSymbolTableRecord
100
AcDbBlockTableRecord
  2
block 78
340
0
102
{BLKREFS
331
245
102
}
  0
BLOCK_RECORD
  5
249
330
1
100
AcDbSymbolTableRecord
100
AcDbBlockTableRecord
  2
block 79
340
0
102
{BLKREFS
331
24A
102
}
  0
BLOCK_RECORD
  5
24E
330
1
100
AcDbSymbolTableRecord
100
AcDbBlockTableRecord
  2
block 80
340
0
102
{BLKREFS
331
24F
102
}
  0
BLOCK_RECORD
  5
253
330
1
100
AcDbSymbolTableRecord
100
AcDbBlockTableRecord
  2
block 81
340
0
102
{BLKREFS
331
254
102
}
  0
BLOCK_RECORD
  5
258
330
1
100
AcDbSymbolTableRecord
100
AcDbBlockTableRecord
  2
block 82
340
0
102
{BLKREFS
331
259
102
}
  0
BLOCK_RECORD
  5
25D
330
1
100
AcDbSymbolTableRecord
100
AcDbBlockTableRecord
  2
block 83
340
0
102
{BLKREFS
331
25E
102
}
  0
BLOCK_RECORD
  5
262
330
1
100
AcDbSymbolTableRecord
100
AcDbBlockTableRecord
  2
block 84
340
0
102
{BLKREFS
331
263
102
}
  0
BLOCK_RECORD
  5
267
330
1
100
AcDbSymbolTableRecord
100
AcDbBlockTableRecord
  2
block 85
340
0
102
{BLKREFS
331
268
102
}
  0
BLOCK_RECORD
  5
26C
330
1
100
AcDbSymbolTableRecord
100
AcDbBlockTableRecord
  2
block 86
340
0
102
{BLKREFS
331
26D
102
}
  0
BLOCK_RECORD
  5
271
330
1
100
AcDbSymbolTableRecord
100
AcDbBlockTableRecord
  2
block 87
340
0
102
{BLKREFS
331
272
102
}
  0
BLOCK_RECORD
  5
276
330
1
100
AcDbSymbolTableRecord
100
AcDbBlockTableRecord
  2
block 88
340
0
102
{BLKREFS
331
277
102
}
  0
BLOCK_RECORD
  5
27E
330
1
100
AcDbSymbolTableRecord
100
AcDbBlockTableRecord
  2
block 89
340
0
102
{BLKREFS
331
27F
102
}
  0
BLOCK_RECORD
  5
283
330
1
100
AcDbSymbolTableRecord
100
AcDbBlockTableRecord
  2
block 90
340
0
102
{BLKREFS
331
284
102
}
  0
BLOCK_RECORD
  5
28B
330
1
100
AcDbSymbolTableRecord
100
AcDbBlockTableRecord
  2
block 91
340
0
102
{BLKREFS
331
28C
102
}
  0
BLOCK_RECORD
  5
293
330
1
100
AcDbSymbolTableRecord
100
AcDbBlockTableRecord
  2
block 92
340
0
102
{BLKREFS
331
294
102
}
  0
BLOCK_RECORD
  5
298
330
1
100
AcDbSymbolTableRecord
100
AcDbBlockTableRecord
  2
block 93
340
0
102
{BLKREFS
331
299
102
}
  0
BLOCK_RECORD
  5
29D
330
1
100
AcDbSymbolTableRecord
100
AcDbBlockTableRecord
  2
block 94
340
0
102
{BLKREFS
331
29E
102
}
  0
BLOCK_RECORD
  5
2A2
330
1
100
AcDbSymbolTableRecord
100
AcDbBlockTableRecord
  2
block 95
340
0
102
{BLKREFS
331
2A3
102
}
  0
BLOCK_RECORD
  5
2AA
330
1
100
AcDbSymbolTableRecord
100
AcDbBlockTableRecord
  2
block 96
340
0
102
{BLKREFS
331
2AB
102
}
  0
BLOCK_RECORD
  5
2B2
330
1
100
AcDbSymbolTableRecord
100
AcDbBlockTableRecord
  2
block 97
340
0
102
{BLKREFS
331
2B3
102
}
  0
BLOCK_RECORD
  5
2BA
330
1
100
AcDbSymbolTableRecord
100
AcDbBlockTableRecord
  2
block 98
340
0
102
{BLKREFS
331
2BB
102
}
  0
BLOCK_RECORD
  5
2C2
330
1
100
AcDbSymbolTableRecord
100
AcDbBlockTableRecord
  2
block 99
340
0
102
{BLKREFS
331
2C3
102
}
  0
BLOCK_RECORD
  5
2CA
330
1
100
AcDbSymbolTableRecord
100
AcDbBlockTableRecord
  2
block 100
340
0
102
{BLKREFS
331
2CB
102
}
  0
BLOCK_RECORD
  5
2D2
330
1
100
AcDbSymbolTableRecord
100
AcDbBlockTableRecord
  2
block 101
340
0
102
{BLKREFS
331
2D3
102
}
  0
BLOCK_RECORD
  5
2DA
330
1
100
AcDbSymbolTableRecord
100
AcDbBlockTableRecord
  2
block 102
340
0
102
{BLKREFS
331
2DB
102
}
  0
BLOCK_RECORD
  5
2DF
330
1
100
AcDbSymbolTableRecord
100
AcDbBlockTableRecord
  2
block 103
340
0
102
{BLKREFS
331
2E0
102
}
  0
BLOCK_RECORD
  5
2E7
330
1
100
AcDbSymbolTableRecord
100
AcDbBlockTableRecord
  2
block 104
340
0
102
{BLKREFS
331
2E8
102
}
  0
BLOCK_RECORD
  5
2EF
330
1
100
AcDbSymbolTableRecord
100
AcDbBlockTableRecord
  2
block 105
340
0
102
{BLKREFS
331
2F0
102
}
  0
BLOCK_RECORD
  5
2F4
330
1
100
AcDbSymbolTableRecord
100
AcDbBlockTableRecord
  2
block 106
340
0
102
{BLKREFS
331
2F5
102
}
  0
BLOCK_RECORD
  5
2FC
330
1
100
AcDbSymbolTableRecord
100
AcDbBlockTableRecord
  2
block 107
340
0
102
{BLKREFS
331
2FD
102
}
  0
BLOCK_RECORD
  5
304
330
1
100
AcDbSymbolTableRecord
100
AcDbBlockTableRecord
  2
block 108
340
0
102
{BLKREFS
331
305
102
}
  0
BLOCK_RECORD
  5
309
330
1
100
AcDbSymbolTableRecord
100
AcDbBlockTableRecord
  2
block 109
340
0
102
{BLKREFS
331
30A
102
}
  0
BLOCK_RECORD
  5
30E
330
1
100
AcDbSymbolTableRecord
100
AcDbBlockTableRecord
  2
block 110
340
0
102
{BLKREFS
331
30F
102
}
  0
BLOCK_RECORD
  5
313
330
1
100
AcDbSymbolTableRecord
100
AcDbBlockTableRecord
  2
block 111
340
0
102
{BLKREFS
331
314
102
}
  0
BLOCK_RECORD
  5
318
330
1
100
AcDbSymbolTableRecord
100
AcDbBlockTableRecord
  2
block 112
340
0
102
{BLKREFS
331
319
102
}
  0
BLOCK_RECORD
  5
31D
330
1
100
AcDbSymbolTableRecord
100
AcDbBlockTableRecord
  2
block 113
340
0
102
{BLKREFS
331
31E
102
}
  0
BLOCK_RECORD
  5
322
330
1
100
AcDbSymbolTableRecord
100
AcDbBlockTableRecord
  2
block 114
340
0
102
{BLKREFS
331
323
102
}
  0
BLOCK_RECORD
  5
327
330
1
100
AcDbSymbolTableRecord
100
AcDbBlockTableRecord
  2
block 115
340
0
102
{BLKREFS
331
328
102
}
  0
BLOCK_RECORD
  5
32C
330
1
100
AcDbSymbolTableRecord
100
AcDbBlockTableRecord
  2
block 116
340
0
102
{BLKREFS
331
32D
102
}
  0
BLOCK_RECORD
  5
331
330
1
100
AcDbSymbolTableRecord
100
AcDbBlockTableRecord
  2
block 117
340
0
102
{BLKREFS
331
332
102
}
  0
BLOCK_RECORD
  5
336
330
1
100
AcDbSymbolTableRecord
100
AcDbBlockTableRecord
  2
block 118
340
0
102
{BLKREFS
331
337
102
}
  0
BLOCK_RECORD
  5
33B
330
1
100
AcDbSymbolTableRecord
100
AcDbBlockTableRecord
  2
block 119
340
0
102
{BLKREFS
331
33C
102
}
  0
BLOCK_RECORD
  5
340
330
1
100
AcDbSymbolTableRecord
100
AcDbBlockTableRecord
  2
block 120
340
0
102
{BLKREFS
331
341
102
}
  0
BLOCK_RECORD
  5
348
330
1
100
AcDbSymbolTableRecord
100
AcDbBlockTableRecord
  2
block 121
340
0
102
{BLKREFS
331
349
102
}
  0
BLOCK_RECORD
  5
34D
330
1
100
AcDbSymbolTableRecord
100
AcDbBlockTableRecord
  2
block 122
340
0
102
{BLKREFS
331
34E
102
}
  0
BLOCK_RECORD
  5
355
330
1
100
AcDbSymbolTableRecord
100
AcDbBlockTableRecord
  2
block 123
340
0
102
{BLKREFS
331
356
102
}
  0
BLOCK_RECORD
  5
35D
330
1
100
AcDbSymbolTableRecord
100
AcDbBlockTableRecord
  2
block 124
340
0
102
{BLKREFS
331
35E
102
}
  0
BLOCK_RECORD
  5
362
330
1
100
AcDbSymbolTableRecord
100
AcDbBlockTableRecord
  2
block 125
340
0
102
{BLKREFS
331
363
102
}
  0
BLOCK_RECORD
  5
367
330
1
100
AcDbSymbolTableRecord
100
AcDbBlockTableRecord
  2
block 126
340
0
102
{BLKREFS
331
368
102
}
  0
BLOCK_RECORD
  5
36C
330
1
100
AcDbSymbolTableRecord
100
AcDbBlockTableRecord
  2
block 127
340
0
102
{BLKREFS
331
36D
102
}
  0
BLOCK_RECORD
  5
374
330
1
100
AcDbSymbolTableRecord
100
AcDbBlockTableRecord
  2
block 128
340
0
102
{BLKREFS
331
375
102
}
  0
BLOCK_RECORD
  5
37C
330
1
100
AcDbSymbolTableRecord
100
AcDbBlockTableRecord
  2
block 129
340
0
102
{BLKREFS
331
37D
102
}
  0
BLOCK_RECORD
  5
384
330
1
100
AcDbSymbolTableRecord
100
AcDbBlockTableRecord
  2
block 130
340
0
102
{BLKREFS
331
385
102
}
  0
BLOCK_RECORD
  5
38C
330
1
100
AcDbSymbolTableRecord
100
AcDbBlockTableRecord
  2
block 131
340
0
102
{BLKREFS
331
38D
102
}
  0
BLOCK_RECORD
  5
394
330
1
100
AcDbSymbolTableRecord
100
AcDbBlockTableRecord
  2
block 132
340
0
102
{BLKREFS
331
395
102
}
  0
BLOCK_RECORD
  5
39C
330
1
100
AcDbSymbolTableRecord
100
AcDbBlockTableRecord
  2
block 133
340
0
102
{BLKREFS
331
39D
102
}
  0
BLOCK_RECORD
  5
3A4
330
1
100
AcDbSymbolTableRecord
100
AcDbBlockTableRecord
  2
block 134
340
0
102
{BLKREFS
331
3A5
102
}
  0
BLOCK_RECORD
  5
3AD
330
1
100
AcDbSymbolTableRecord
100
AcDbBlockTableRecord
  2
block 135
340
0
102
{BLKREFS
331
3AE
102
}
  0
BLOCK_RECORD
  5
3B6
330
1
100
AcDbSymbolTableRecord
100
AcDbBlockTableRecord
  2
block 136
340
0
102
{BLKREFS
331
3B7
102
}
  0
BLOCK_RECORD
  5
3BF
330
1
100
AcDbSymbolTableRecord
100
AcDbBlockTableRecord
  2
block 137
340
0
102
{BLKREFS
331
3C0
102
}
  0
BLOCK_RECORD
  5
3C9
330
1
100
AcDbSymbolTableRecord
100
AcDbBlockTableRecord
  2
block 138
340
0
102
{BLKREFS
331
3CA
102
}
  0
BLOCK_RECORD
  5
3D1
330
1
100
AcDbSymbolTableRecord
100
AcDbBlockTableRecord
  2
block 139
340
0
102
{BLKREFS
331
3D2
102
}
  0
BLOCK_RECORD
  5
3DA
330
1
100
AcDbSymbolTableRecord
100
AcDbBlockTableRecord
  2
block 140
340
0
102
{BLKREFS
331
3DB
102
}
  0
BLOCK_RECORD
  5
3DE
330
1
100
AcDbSymbolTableRecord
100
AcDbBlockTableRecord
  2
block 141
340
0
102
{BLKREFS
331
3DF
102
}
  0
BLOCK_RECORD
  5
3E6
330
1
100
AcDbSymbolTableRecord
100
AcDbBlockTableRecord
  2
block 142
340
0
102
{BLKREFS
331
3E7
102
}
  0
BLOCK_RECORD
  5
3EE
330
1
100
AcDbSymbolTableRecord
100
AcDbBlockTableRecord
  2
block 143
340
0
102
{BLKREFS
331
3EF
102
}
  0
BLOCK_RECORD
  5
3F6
330
1
100
AcDbSymbolTableRecord
100
AcDbBlockTableRecord
  2
block 144
340
0
102
{BLKREFS
331
3F7
102
}
  0
BLOCK_RECORD
  5
3FE
330
1
100
AcDbSymbolTableRecord
100
AcDbBlockTableRecord
  2
block 145
340
0
102
{BLKREFS
331
3FF
102
}
  0
BLOCK_RECORD
  5
409
330
1
100
AcDbSymbolTableRecord
100
AcDbBlockTableRecord
  2
block 146
340
0
102
{BLKREFS
331
40A
102
}
  0
BLOCK_RECORD
  5
414
330
1
100
AcDbSymbolTableRecord
100
AcDbBlockTableRecord
  2
block 147
340
0
102
{BLKREFS
331
415
102
}
  0
BLOCK_RECORD
  5
419
330
1
100
AcDbSymbolTableRecord
100
AcDbBlockTableRecord
  2
block 148
340
0
102
{BLKREFS
331
41A
102
}
  0
BLOCK_RECORD
  5
421
330
1
100
AcDbSymbolTableRecord
100
AcDbBlockTableRecord
  2
block 149
340
0
102
{BLKREFS
331
422
102
}
  0
BLOCK_RECORD
  5
429
330
1
100
AcDbSymbolTableRecord
100
AcDbBlockTableRecord
  2
block 150
340
0
102
{BLKREFS
331
42A
102
}
  0
BLOCK_RECORD
  5
431
330
1
100
AcDbSymbolTableRecord
100
AcDbBlockTableRecord
  2
block 151
340
0
102
{BLKREFS
331
432
102
}
  0
BLOCK_RECORD
  5
435
330
1
100
AcDbSymbolTableRecord
100
AcDbBlockTableRecord
  2
block 152
340
0
102
{BLKREFS
331
436
102
}
  0
BLOCK_RECORD
  5
43D
330
1
100
AcDbSymbolTableRecord
100
AcDbBlockTableRecord
  2
block 153
340
0
102
{BLKREFS
331
43E
102
}
  0
BLOCK_RECORD
  5
445
330
1
100
AcDbSymbolTableRecord
100
AcDbBlockTableRecord
  2
block 154
340
0
102
{BLKREFS
331
446
102
}
  0
BLOCK_RECORD
  5
44D
330
1
100
AcDbSymbolTableRecord
100
AcDbBlockTableRecord
  2
block 155
340
0
102
{BLKREFS
331
44E
102
}
  0
BLOCK_RECORD
  5
455
330
1
100
AcDbSymbolTableRecord
100
AcDbBlockTableRecord
  2
block 156
340
0
102
{BLKREFS
331
456
102
}
  0
BLOCK_RECORD
  5
460
330
1
100
AcDbSymbolTableRecord
100
AcDbBlockTableRecord
  2
block 157
340
0
102
{BLKREFS
331
461
102
}
  0
BLOCK_RECORD
  5
46B
330
1
100
AcDbSymbolTableRecord
100
AcDbBlockTableRecord
  2
block 158
340
0
102
{BLKREFS
331
46C
102
}
  0
BLOCK_RECORD
  5
470
330
1
100
AcDbSymbolTableRecord
100
AcDbBlockTableRecord
  2
block 159
340
0
102
{BLKREFS
331
471
102
}
  0
BLOCK_RECORD
  5
478
330
1
100
AcDbSymbolTableRecord
100
AcDbBlockTableRecord
  2
block 160
340
0
102
{BLKREFS
331
479
102
}
  0
BLOCK_RECORD
  5
480
330
1
100
AcDbSymbolTableRecord
100
AcDbBlockTableRecord
  2
block 161
340
0
102
{BLKREFS
331
481
102
}
  0
BLOCK_RECORD
  5
488
330
1
100
AcDbSymbolTableRecord
100
AcDbBlockTableRecord
  2
block 162
340
0
102
{BLKREFS
331
489
102
}
  0
BLOCK_RECORD
  5
48C
330
1
100
AcDbSymbolTableRecord
100
AcDbBlockTableRecord
  2
block 163
340
0
102
{BLKREFS
331
48D
102
}
  0
BLOCK_RECORD
  5
494
330
1
100
AcDbSymbolTableRecord
100
AcDbBlockTableRecord
  2
block 164
340
0
102
{BLKREFS
331
495
102
}
  0
BLOCK_RECORD
  5
49C
330
1
100
AcDbSymbolTableRecord
100
AcDbBlockTableRecord
  2
block 165
340
0
102
{BLKREFS
331
49D
102
}
  0
BLOCK_RECORD
  5
4A4
330
1
100
AcDbSymbolTableRecord
100
AcDbBlockTableRecord
  2
block 166
340
0
102
{BLKREFS
331
4A5
102
}
  0
BLOCK_RECORD
  5
4AC
330
1
100
AcDbSymbolTableRecord
100
AcDbBlockTableRecord
  2
block 167
340
0
102
{BLKREFS
331
4AD
102
}
  0
BLOCK_RECORD
  5
4B7
330
1
100
AcDbSymbolTableRecord
100
AcDbBlockTableRecord
  2
block 168
340
0
102
{BLKREFS
331
4B8
102
}
  0
BLOCK_RECORD
  5
4C2
330
1
100
AcDbSymbolTableRecord
100
AcDbBlockTableRecord
  2
block 169
340
0
102
{BLKREFS
331
4C3
102
}
  0
BLOCK_RECORD
  5
4C7
330
1
100
AcDbSymbolTableRecord
100
AcDbBlockTableRecord
  2
block 170
340
0
102
{BLKREFS
331
4C8
102
}
  0
BLOCK_RECORD
  5
4CF
330
1
100
AcDbSymbolTableRecord
100
AcDbBlockTableRecord
  2
block 171
340
0
102
{BLKREFS
331
4D0
102
}
  0
BLOCK_RECORD
  5
4D7
330
1
100
AcDbSymbolTableRecord
100
AcDbBlockTableRecord
  2
block 172
340
0
102
{BLKREFS
331
4D8
102
}
  0
BLOCK_RECORD
  5
4DF
330
1
100
AcDbSymbolTableRecord
100
AcDbBlockTableRecord
  2
block 173
340
0
102
{BLKREFS
331
4E0
102
}
  0
BLOCK_RECORD
  5
4E3
330
1
100
AcDbSymbolTableRecord
100
AcDbBlockTableRecord
  2
block 174
340
0
102
{BLKREFS
331
4E4
102
}
  0
BLOCK_RECORD
  5
4EB
330
1
100
AcDbSymbolTableRecord
100
AcDbBlockTableRecord
  2
block 175
340
0
102
{BLKREFS
331
4EC
102
}
  0
BLOCK_RECORD
  5
4F3
330
1
100
AcDbSymbolTableRecord
100
AcDbBlockTableRecord
  2
block 176
340
0
102
{BLKREFS
331
4F4
102
}
  0
BLOCK_RECORD
  5
4FB
330
1
100
AcDbSymbolTableRecord
100
AcDbBlockTableRecord
  2
block 177
340
0
102
{BLKREFS
331
4FC
102
}
  0
BLOCK_RECORD
  5
503
330
1
100
AcDbSymbolTableRecord
100
AcDbBlockTableRecord
  2
block 178
340
0
102
{BLKREFS
331
504
102
}
  0
BLOCK_RECORD
  5
50E
330
1
100
AcDbSymbolTableRecord
100
AcDbBlockTableRecord
  2
block 179
340
0
102
{BLKREFS
331
50F
102
}
  0
BLOCK_RECORD
  5
519
330
1
100
AcDbSymbolTableRecord
100
AcDbBlockTableRecord
  2
block 180
340
0
102
{BLKREFS
331
51A
102
}
  0
BLOCK_RECORD
  5
51E
330
1
100
AcDbSymbolTableRecord
100
AcDbBlockTableRecord
  2
block 181
340
0
102
{BLKREFS
331
51F
102
}
  0
BLOCK_RECORD
  5
526
330
1
100
AcDbSymbolTableRecord
100
AcDbBlockTableRecord
  2
block 182
340
0
102
{BLKREFS
331
527
102
}
  0
BLOCK_RECORD
  5
52E
330
1
100
AcDbSymbolTableRecord
100
AcDbBlockTableRecord
  2
block 183
340
0
102
{BLKREFS
331
52F
102
}
  0
BLOCK_RECORD
  5
536
330
1
100
AcDbSymbolTableRecord
100
AcDbBlockTableRecord
  2
block 184
340
0
102
{BLKREFS
331
537
102
}
  0
BLOCK_RECORD
  5
53A
330
1
100
AcDbSymbolTableRecord
100
AcDbBlockTableRecord
  2
block 185
340
0
102
{BLKREFS
331
53B
102
}
  0
BLOCK_RECORD
  5
542
330
1
100
AcDbSymbolTableRecord
100
AcDbBlockTableRecord
  2
block 186
340
0
102
{BLKREFS
331
543
102
}
  0
BLOCK_RECORD
  5
54A
330
1
100
AcDbSymbolTableRecord
100
AcDbBlockTableRecord
  2
block 187
340
0
102
{BLKREFS
331
54B
102
}
  0
BLOCK_RECORD
  5
552
330
1
100
AcDbSymbolTableRecord
100
AcDbBlockTableRecord
  2
block 188
340
0
102
{BLKREFS
331
553
102
}
  0
BLOCK_RECORD
  5
55A
330
1
100
AcDbSymbolTableRecord
100
AcDbBlockTableRecord
  2
block 189
340
0
102
{BLKREFS
331
55B
102
}
  0
BLOCK_RECORD
  5
565
330
1
100
AcDbSymbolTableRecord
100
AcDbBlockTableRecord
  2
block 190
340
0
102
{BLKREFS
331
566
102
}
  0
BLOCK_RECORD
  5
570
330
1
100
AcDbSymbolTableRecord
100
AcDbBlockTableRecord
  2
block 191
340
0
102
{BLKREFS
331
571
102
}
  0
BLOCK_RECORD
  5
575
330
1
100
AcDbSymbolTableRecord
100
AcDbBlockTableRecord
  2
block 192
340
0
102
{BLKREFS
331
576
102
}
  0
BLOCK_RECORD
  5
57D
330
1
100
AcDbSymbolTableRecord
100
AcDbBlockTableRecord
  2
block 193
340
0
102
{BLKREFS
331
57E
102
}
  0
BLOCK_RECORD
  5
585
330
1
100
AcDbSymbolTableRecord
100
AcDbBlockTableRecord
  2
block 194
340
0
102
{BLKREFS
331
586
102
}
  0
BLOCK_RECORD
  5
58D
330
1
100
AcDbSymbolTableRecord
100
AcDbBlockTableRecord
  2
block 195
340
0
102
{BLKREFS
331
58E
102
}
  0
BLOCK_RECORD
  5
591
330
1
100
AcDbSymbolTableRecord
100
AcDbBlockTableRecord
  2
block 196
340
0
102
{BLKREFS
331
592
102
}
  0
BLOCK_RECORD
  5
599
330
1
100
AcDbSymbolTableRecord
100
AcDbBlockTableRecord
  2
block 197
340
0
102
{BLKREFS
331
59A
102
}
  0
BLOCK_RECORD
  5
5A1
330
1
100
AcDbSymbolTableRecord
100
AcDbBlockTableRecord
  2
block 198
340
0
102
{BLKREFS
331
5A2
102
}
  0
BLOCK_RECORD
  5
5A9
330
1
100
AcDbSymbolTableRecord
100
AcDbBlockTableRecord
  2
block 199
340
0
102
{BLKREFS
331
5AA
102
}
  0
BLOCK_RECORD
  5
5B1
330
1
100
AcDbSymbolTableRecord
100
AcDbBlockTableRecord
  2
block 200
340
0
102
{BLKREFS
331
5B2
102
}
  0
BLOCK_RECORD
  5
5BC
330
1
100
AcDbSymbolTableRecord
100
AcDbBlockTableRecord
  2
block 201
340
0
102
{BLKREFS
331
5BD
102
}
  0
BLOCK_RECORD
  5
5C7
330
1
100
AcDbSymbolTableRecord
100
AcDbBlockTableRecord
  2
block 202
340
0
102
{BLKREFS
331
5C8
102
}
  0
BLOCK_RECORD
  5
5CC
330
1
100
AcDbSymbolTableRecord
100
AcDbBlockTableRecord
  2
block 203
340
0
102
{BLKREFS
331
5CD
102
}
  0
BLOCK_RECORD
  5
5D4
330
1
100
AcDbSymbolTableRecord
100
AcDbBlockTableRecord
  2
block 204
340
0
102
{BLKREFS
331
5D5
102
}
  0
BLOCK_RECORD
  5
5DC
330
1
100
AcDbSymbolTableRecord
100
AcDbBlockTableRecord
  2
block 205
340
0
102
{BLKREFS
331
5DD
102
}
  0
ENDTAB
  0
ENDSEC
  0
SECTION
  2
BLOCKS
  0
BLOCK
  5
20
330
1F
100
AcDbEntity
  8
0
100
AcDbBlockBegin
  2
*Model_Space
 70
     0
 71
     0
 10
0.0
 20
0.0
 30
0.0
  3
*Model_Space
  1

  0
ENDBLK
  5
21
330
1F
100
AcDbEntity
  8
0
100
AcDbBlockEnd
  0
BLOCK
  5
1C
330
1B
100
AcDbEntity
 67
     1
  8
0
100
AcDbBlockBegin
  2
*Paper_Space
 70
     0
 71
     0
 10
0.0
 20
0.0
 30
0.0
  3
*Paper_Space
  1

  0
ENDBLK
  5
1D
330
1B
100
AcDbEntity
 67
     1
  8
0
100
AcDbBlockEnd
  0
BLOCK
  5
24
330
23
100
AcDbEntity
  8
0
100
AcDbBlockBegin
  2
*Paper_Space0
 70
     0
 71
     0
 10
0.0
 20
0.0
 30
0.0
  3
*Paper_Space0
  1

  0
ENDBLK
  5
25
330
23
100
AcDbEntity
  8
0
100
AcDbBlockEnd
  0
BLOCK
  5
40
330
3E
100
AcDbEntity
  8
0
100
AcDbBlockBegin
  2
block 2
 70
     0
 71
     0
 10
0.0
 20
0.0
 30
0.0
  3
block 2
  1

  0
SPLINE
  5
42
330
3E
100
AcDbEntity
  8
Fina
 62
     7
420
 16777215
370
     9
100
AcDbSpline
210
0.0
220
0.0
230
1.0
 70
    11
 71
     3
 72
    23
 73
    19
 74
     0
 42
0.0000000001
 43
0.0000000001
 40
0.0
 40
0.0
 40
0.0
 40
0.0
 40
1.0
 40
1.0
 40
1.0
 40
2.0
 40
2.0
 40
2.0
 40
3.0
 40
3.0
 40
3.0
 40
4.0
 40
4.0
 40
4.0
 40
5.0
 40
5.0
 40
5.0
 40
6.0
 40
6.0
 40
6.0
 40
6.0
 10
85.58639134615433
 20
145.476487535224
 30
0.0
 10
85.58639134615433
 20
146.3043445264622
 30
0.0
 10
84.9152863029034
 20
146.9751050599374
 30
0.0
 10
84.08760156655309
 20
146.9751050599374
 30
0.0
 10
83.2599168302028
 20
146.9751050599374
 30
0.0
 10
82.58881178695187
 20
146.3043445264622
 30
0.0
 10
82.58881178695187
 20
145.476487535224
 30
0.0
 10
82.58881178695187
 20
144.6486305439858
 30
0.0
 10
83.2599168302028
 20
143.9778700105107
 30
0.0
 10
84.08760156655309
 20
143.9778700105107
 30
0.0
 10
84.9152863029034
 20
143.9778700105107
 30
0.0
 10
85.58639134615433
 20
144.6486305439858
 30
0.0
 10
85.58639134615433
 20
145.476487535224
 30
0.0
 10
85.58639134615433
 20
145.476487535224
 30
0.0
 10
85.58639134615433
 20
145.476487535224
 30
0.0
 10
85.58639134615433
 20
145.476487535224
 30
0.0
 10
85.58639134615433
 20
145.476487535224
 30
0.0
 10
85.58639134615433
 20
145.476487535224
 30
0.0
 10
85.58639134615433
 20
145.476487535224
 30
0.0
  0
ENDBLK
  5
41
330
3E
100
AcDbEntity
  8
0
100
AcDbBlockEnd
  0
BLOCK
  5
45
330
43
100
AcDbEntity
  8
0
100
AcDbBlockBegin
  2
block 3
 70
     0
 71
     0
 10
0.0
 20
0.0
 30
0.0
  3
block 3
  1

  0
SPLINE
  5
47
330
43
100
AcDbEntity
  8
Fina
 62
     7
420
 16777215
370
     9
100
AcDbSpline
210
0.0
220
0.0
230
1.0
 70
    11
 71
     3
 72
    23
 73
    19
 74
     0
 42
0.0000000001
 43
0.0000000001
 40
0.0
 40
0.0
 40
0.0
 40
0.0
 40
1.0
 40
1.0
 40
1.0
 40
2.0
 40
2.0
 40
2.0
 40
3.0
 40
3.0
 40
3.0
 40
4.0
 40
4.0
 40
4.0
 40
5.0
 40
5.0
 40
5.0
 40
6.0
 40
6.0
 40
6.0
 40
6.0
 10
85.58639134615433
 20
137.1834482122586
 30
0.0
 10
85.58639134615433
 20
138.0113052034968
 30
0.0
 10
84.9152863029034
 20
138.682065736972
 30
0.0
 10
84.08760156655309
 20
138.682065736972
 30
0.0
 10
83.2599168302028
 20
138.682065736972
 30
0.0
 10
82.58881178695187
 20
138.0113052034968
 30
0.0
 10
82.58881178695187
 20
137.1834482122586
 30
0.0
 10
82.58881178695187
 20
136.3555912210204
 30
0.0
 10
83.2599168302028
 20
135.6848306875453
 30
0.0
 10
84.08760156655309
 20
135.6848306875453
 30
0.0
 10
84.9152863029034
 20
135.6848306875453
 30
0.0
 10
85.58639134615433
 20
136.3555912210204
 30
0.0
 10
85.58639134615433
 20
137.1834482122586
 30
0.0
 10
85.58639134615433
 20
137.1834482122586
 30
0.0
 10
85.58639134615433
 20
137.1834482122586
 30
0.0
 10
85.58639134615433
 20
137.1834482122586
 30
0.0
 10
85.58639134615433
 20
137.1834482122586
 30
0.0
 10
85.58639134615433
 20
137.1834482122586
 30
0.0
 10
85.58639134615433
 20
137.1834482122586
 30
0.0
  0
ENDBLK
  5
46
330
43
100
AcDbEntity
  8
0
100
AcDbBlockEnd
  0
BLOCK
  5
4A
330
48
100
AcDbEntity
  8
0
100
AcDbBlockBegin
  2
block 4
 70
     0
 71
     0
 10
0.0
 20
0.0
 30
0.0
  3
block 4
  1

  0
SPLINE
  5
4C
330
48
100
AcDbEntity
  8
Fina
 62
     7
420
 16777215
370
     9
100
AcDbSpline
210
0.0
220
0.0
230
1.0
 70
    11
 71
     3
 72
    23
 73
    19
 74
     0
 42
0.0000000001
 43
0.0000000001
 40
0.0
 40
0.0
 40
0.0
 40
0.0
 40
1.0
 40
1.0
 40
1.0
 40
2.0
 40
2.0
 40
2.0
 40
3.0
 40
3.0
 40
3.0
 40
4.0
 40
4.0
 40
4.0
 40
5.0
 40
5.0
 40
5.0
 40
6.0
 40
6.0
 40
6.0
 40
6.0
 10
85.58639134615433
 20
128.8904088892933
 30
0.0
 10
85.58639134615433
 20
129.7182658805314
 30
0.0
 10
84.9152863029034
 20
130.3893709237824
 30
0.0
 10
84.08760156655309
 20
130.3893709237824
 30
0.0
 10
83.2599168302028
 20
130.3893709237824
 30
0.0
 10
82.58881178695187
 20
129.7182658805314
 30
0.0
 10
82.58881178695187
 20
128.8904088892933
 30
0.0
 10
82.58881178695187
 20
128.0628964078309
 30
0.0
 10
83.2599168302028
 20
127.3917913645799
 30
0.0
 10
84.08760156655309
 20
127.3917913645799
 30
0.0
 10
84.9152863029034
 20
127.3917913645799
 30
0.0
 10
85.58639134615433
 20
128.0628964078309
 30
0.0
 10
85.58639134615433
 20
128.8904088892933
 30
0.0
 10
85.58639134615433
 20
128.8904088892933
 30
0.0
 10
85.58639134615433
 20
128.8904088892933
 30
0.0
 10
85.58639134615433
 20
128.8904088892933
 30
0.0
 10
85.58639134615433
 20
128.8904088892933
 30
0.0
 10
85.58639134615433
 20
128.8904088892933
 30
0.0
 10
85.58639134615433
 20
128.8904088892933
 30
0.0
  0
ENDBLK
  5
4B
330
48
100
AcDbEntity
  8
0
100
AcDbBlockEnd
  0
BLOCK
  5
4F
330
4D
100
AcDbEntity
  8
0
100
AcDbBlockBegin
  2
block 5
 70
     0
 71
     0
 10
0.0
 20
0.0
 30
0.0
  3
block 5
  1

  0
SPLINE
  5
51
330
4D
100
AcDbEntity
  8
Fina
 62
     7
420
 16777215
370
     9
100
AcDbSpline
210
0.0
220
0.0
230
1.0
 70
    11
 71
     3
 72
    23
 73
    19
 74
     0
 42
0.0000000001
 43
0.0000000001
 40
0.0
 40
0.0
 40
0.0
 40
0.0
 40
1.0
 40
1.0
 40
1.0
 40
2.0
 40
2.0
 40
2.0
 40
3.0
 40
3.0
 40
3.0
 40
4.0
 40
4.0
 40
4.0
 40
5.0
 40
5.0
 40
5.0
 40
6.0
 40
6.0
 40
6.0
 40
6.0
 10
85.58639134615433
 20
120.5977140761037
 30
0.0
 10
85.58639134615433
 20
121.4252265575661
 30
0.0
 10
84.9152863029034
 20
122.096331600817
 30
0.0
 10
84.08760156655309
 20
122.096331600817
 30
0.0
 10
83.2599168302028
 20
122.096331600817
 30
0.0
 10
82.58881178695187
 20
121.4252265575661
 30
0.0
 10
82.58881178695187
 20
120.5977140761037
 30
0.0
 10
82.58881178695187
 20
119.7698570848655
 30
0.0
 10
83.2599168302028
 20
119.0987520416145
 30
0.0
 10
84.08760156655309
 20
119.0987520416145
 30
0.0
 10
84.9152863029034
 20
119.0987520416145
 30
0.0
 10
85.58639134615433
 20
119.7698570848655
 30
0.0
 10
85.58639134615433
 20
120.5977140761037
 30
0.0
 10
85.58639134615433
 20
120.5977140761037
 30
0.0
 10
85.58639134615433
 20
120.5977140761037
 30
0.0
 10
85.58639134615433
 20
120.5977140761037
 30
0.0
 10
85.58639134615433
 20
120.5977140761037
 30
0.0
 10
85.58639134615433
 20
120.5977140761037
 30
0.0
 10
85.58639134615433
 20
120.5977140761037
 30
0.0
  0
ENDBLK
  5
50
330
4D
100
AcDbEntity
  8
0
100
AcDbBlockEnd
  0
BLOCK
  5
54
330
52
100
AcDbEntity
  8
0
100
AcDbBlockBegin
  2
block 6
 70
     0
 71
     0
 10
0.0
 20
0.0
 30
0.0
  3
block 6
  1

  0
SPLINE
  5
56
330
52
100
AcDbEntity
  8
Fina
 62
     7
420
 16777215
370
     9
100
AcDbSpline
210
0.0
220
0.0
230
1.0
 70
    11
 71
     3
 72
    23
 73
    19
 74
     0
 42
0.0000000001
 43
0.0000000001
 40
0.0
 40
0.0
 40
0.0
 40
0.0
 40
1.0
 40
1.0
 40
1.0
 40
2.0
 40
2.0
 40
2.0
 40
3.0
 40
3.0
 40
3.0
 40
4.0
 40
4.0
 40
4.0
 40
5.0
 40
5.0
 40
5.0
 40
6.0
 40
6.0
 40
6.0
 40
6.0
 10
110.5905663636645
 20
145.476487535224
 30
0.0
 10
110.5905663636645
 20
146.3043445264622
 30
0.0
 10
109.9194613204135
 20
146.9751050599374
 30
0.0
 10
109.0919488389511
 20
146.9751050599374
 30
0.0
 10
108.2640918477129
 20
146.9751050599374
 30
0.0
 10
107.592986804462
 20
146.3043445264622
 30
0.0
 10
107.592986804462
 20
145.476487535224
 30
0.0
 10
107.592986804462
 20
144.6486305439858
 30
0.0
 10
108.2640918477129
 20
143.9778700105107
 30
0.0
 10
109.0919488389511
 20
143.9778700105107
 30
0.0
 10
109.9194613204135
 20
143.9778700105107
 30
0.0
 10
110.5905663636645
 20
144.6486305439858
 30
0.0
 10
110.5905663636645
 20
145.476487535224
 30
0.0
 10
110.5905663636645
 20
145.476487535224
 30
0.0
 10
110.5905663636645
 20
145.476487535224
 30
0.0
 10
110.5905663636645
 20
145.476487535224
 30
0.0
 10
110.5905663636645
 20
145.476487535224
 30
0.0
 10
110.5905663636645
 20
145.476487535224
 30
0.0
 10
110.5905663636645
 20
145.476487535224
 30
0.0
  0
ENDBLK
  5
55
330
52
100
AcDbEntity
  8
0
100
AcDbBlockEnd
  0
BLOCK
  5
59
330
57
100
AcDbEntity
  8
0
100
AcDbBlockBegin
  2
block 7
 70
     0
 71
     0
 10
0.0
 20
0.0
 30
0.0
  3
block 7
  1

  0
SPLINE
  5
5B
330
57
100
AcDbEntity
  8
Fina
 62
     7
420
 16777215
370
     9
100
AcDbSpline
210
0.0
220
0.0
230
1.0
 70
    11
 71
     3
 72
    23
 73
    19
 74
     0
 42
0.0000000001
 43
0.0000000001
 40
0.0
 40
0.0
 40
0.0
 40
0.0
 40
1.0
 40
1.0
 40
1.0
 40
2.0
 40
2.0
 40
2.0
 40
3.0
 40
3.0
 40
3.0
 40
4.0
 40
4.0
 40
4.0
 40
5.0
 40
5.0
 40
5.0
 40
6.0
 40
6.0
 40
6.0
 40
6.0
 10
110.5905663636645
 20
137.1834482122586
 30
0.0
 10
110.5905663636645
 20
138.0113052034968
 30
0.0
 10
109.9194613204135
 20
138.682065736972
 30
0.0
 10
109.0919488389511
 20
138.682065736972
 30
0.0
 10
108.2640918477129
 20
138.682065736972
 30
0.0
 10
107.592986804462
 20
138.0113052034968
 30
0.0
 10
107.592986804462
 20
137.1834482122586
 30
0.0
 10
107.592986804462
 20
136.3555912210204
 30
0.0
 10
108.2640918477129
 20
135.6848306875453
 30
0.0
 10
109.0919488389511
 20
135.6848306875453
 30
0.0
 10
109.9194613204135
 20
135.6848306875453
 30
0.0
 10
110.5905663636645
 20
136.3555912210204
 30
0.0
 10
110.5905663636645
 20
137.1834482122586
 30
0.0
 10
110.5905663636645
 20
137.1834482122586
 30
0.0
 10
110.5905663636645
 20
137.1834482122586
 30
0.0
 10
110.5905663636645
 20
137.1834482122586
 30
0.0
 10
110.5905663636645
 20
137.1834482122586
 30
0.0
 10
110.5905663636645
 20
137.1834482122586
 30
0.0
 10
110.5905663636645
 20
137.1834482122586
 30
0.0
  0
ENDBLK
  5
5A
330
57
100
AcDbEntity
  8
0
100
AcDbBlockEnd
  0
BLOCK
  5
5E
330
5C
100
AcDbEntity
  8
0
100
AcDbBlockBegin
  2
block 8
 70
     0
 71
     0
 10
0.0
 20
0.0
 30
0.0
  3
block 8
  1

  0
SPLINE
  5
60
330
5C
100
AcDbEntity
  8
Fina
 62
     7
420
 16777215
370
     9
100
AcDbSpline
210
0.0
220
0.0
230
1.0
 70
    11
 71
     3
 72
    23
 73
    19
 74
     0
 42
0.0000000001
 43
0.0000000001
 40
0.0
 40
0.0
 40
0.0
 40
0.0
 40
1.0
 40
1.0
 40
1.0
 40
2.0
 40
2.0
 40
2.0
 40
3.0
 40
3.0
 40
3.0
 40
4.0
 40
4.0
 40
4.0
 40
5.0
 40
5.0
 40
5.0
 40
6.0
 40
6.0
 40
6.0
 40
6.0
 10
102.2975270406991
 20
145.476487535224
 30
0.0
 10
102.2975270406991
 20
146.3043445264622
 30
0.0
 10
101.626594252336
 20
146.9751050599374
 30
0.0
 10
100.7989095159858
 20
146.9751050599374
 30
0.0
 10
99.97105252474756
 20
146.9751050599374
 30
0.0
 10
99.30011973638453
 20
146.3043445264622
 30
0.0
 10
99.30011973638453
 20
145.476487535224
 30
0.0
 10
99.30011973638453
 20
144.6486305439858
 30
0.0
 10
99.97105252474756
 20
143.9778700105107
 30
0.0
 10
100.7989095159858
 20
143.9778700105107
 30
0.0
 10
101.626594252336
 20
143.9778700105107
 30
0.0
 10
102.2975270406991
 20
144.6486305439858
 30
0.0
 10
102.2975270406991
 20
145.476487535224
 30
0.0
 10
102.2975270406991
 20
145.476487535224
 30
0.0
 10
102.2975270406991
 20
145.476487535224
 30
0.0
 10
102.2975270406991
 20
145.476487535224
 30
0.0
 10
102.2975270406991
 20
145.476487535224
 30
0.0
 10
102.2975270406991
 20
145.476487535224
 30
0.0
 10
102.2975270406991
 20
145.476487535224
 30
0.0
  0
ENDBLK
  5
5F
330
5C
100
AcDbEntity
  8
0
100
AcDbBlockEnd
  0
BLOCK
  5
63
330
61
100
AcDbEntity
  8
0
100
AcDbBlockBegin
  2
block 9
 70
     0
 71
     0
 10
0.0
 20
0.0
 30
0.0
  3
block 9
  1

  0
SPLINE
  5
65
330
61
100
AcDbEntity
  8
Fina
 62
     7
420
 16777215
370
     9
100
AcDbSpline
210
0.0
220
0.0
230
1.0
 70
    11
 71
     3
 72
    23
 73
    19
 74
     0
 42
0.0000000001
 43
0.0000000001
 40
0.0
 40
0.0
 40
0.0
 40
0.0
 40
1.0
 40
1.0
 40
1.0
 40
2.0
 40
2.0
 40
2.0
 40
3.0
 40
3.0
 40
3.0
 40
4.0
 40
4.0
 40
4.0
 40
5.0
 40
5.0
 40
5.0
 40
6.0
 40
6.0
 40
6.0
 40
6.0
 10
94.00465997262161
 20
145.476487535224
 30
0.0
 10
94.00465997262161
 20
146.3043445264622
 30
0.0
 10
93.33355492937068
 20
146.9751050599374
 30
0.0
 10
92.50587019302039
 20
146.9751050599374
 30
0.0
 10
91.67818545667008
 20
146.9751050599374
 30
0.0
 10
91.00708041341915
 20
146.3043445264622
 30
0.0
 10
91.00708041341915
 20
145.476487535224
 30
0.0
 10
91.00708041341915
 20
144.6486305439858
 30
0.0
 10
91.67818545667008
 20
143.9778700105107
 30
0.0
 10
92.50587019302039
 20
143.9778700105107
 30
0.0
 10
93.33355492937068
 20
143.9778700105107
 30
0.0
 10
94.00465997262161
 20
144.6486305439858
 30
0.0
 10
94.00465997262161
 20
145.476487535224
 30
0.0
 10
94.00465997262161
 20
145.476487535224
 30
0.0
 10
94.00465997262161
 20
145.476487535224
 30
0.0
 10
94.00465997262161
 20
145.476487535224
 30
0.0
 10
94.00465997262161
 20
145.476487535224
 30
0.0
 10
94.00465997262161
 20
145.476487535224
 30
0.0
 10
94.00465997262161
 20
145.476487535224
 30
0.0
  0
ENDBLK
  5
64
330
61
100
AcDbEntity
  8
0
100
AcDbBlockEnd
  0
BLOCK
  5
68
330
66
100
AcDbEntity
  8
0
100
AcDbBlockBegin
  2
block 10
 70
     0
 71
     0
 10
0.0
 20
0.0
 30
0.0
  3
block 10
  1

  0
SPLINE
  5
6A
330
66
100
AcDbEntity
  8
Fina
 62
     7
420
 16777215
370
     9
100
AcDbSpline
210
0.0
220
0.0
230
1.0
 70
    11
 71
     3
 72
    23
 73
    19
 74
     0
 42
0.0000000001
 43
0.0000000001
 40
0.0
 40
0.0
 40
0.0
 40
0.0
 40
1.0
 40
1.0
 40
1.0
 40
2.0
 40
2.0
 40
2.0
 40
3.0
 40
3.0
 40
3.0
 40
4.0
 40
4.0
 40
4.0
 40
5.0
 40
5.0
 40
5.0
 40
6.0
 40
6.0
 40
6.0
 40
6.0
 10
102.2975270406991
 20
137.1834482122586
 30
0.0
 10
102.2975270406991
 20
138.0113052034968
 30
0.0
 10
101.626594252336
 20
138.682065736972
 30
0.0
 10
100.7989095159858
 20
138.682065736972
 30
0.0
 10
99.97105252474756
 20
138.682065736972
 30
0.0
 10
99.30011973638453
 20
138.0113052034968
 30
0.0
 10
99.30011973638453
 20
137.1834482122586
 30
0.0
 10
99.30011973638453
 20
136.3555912210204
 30
0.0
 10
99.97105252474756
 20
135.6848306875453
 30
0.0
 10
100.7989095159858
 20
135.6848306875453
 30
0.0
 10
101.626594252336
 20
135.6848306875453
 30
0.0
 10
102.2975270406991
 20
136.3555912210204
 30
0.0
 10
102.2975270406991
 20
137.1834482122586
 30
0.0
 10
102.2975270406991
 20
137.1834482122586
 30
0.0
 10
102.2975270406991
 20
137.1834482122586
 30
0.0
 10
102.2975270406991
 20
137.1834482122586
 30
0.0
 10
102.2975270406991
 20
137.1834482122586
 30
0.0
 10
102.2975270406991
 20
137.1834482122586
 30
0.0
 10
102.2975270406991
 20
137.1834482122586
 30
0.0
  0
ENDBLK
  5
69
330
66
100
AcDbEntity
  8
0
100
AcDbBlockEnd
  0
BLOCK
  5
6D
330
6B
100
AcDbEntity
  8
0
100
AcDbBlockBegin
  2
block 11
 70
     0
 71
     0
 10
0.0
 20
0.0
 30
0.0
  3
block 11
  1

  0
SPLINE
  5
6F
330
6B
100
AcDbEntity
  8
Fina
 62
     7
420
 16777215
370
     9
100
AcDbSpline
210
0.0
220
0.0
230
1.0
 70
    11
 71
     3
 72
    23
 73
    19
 74
     0
 42
0.0000000001
 43
0.0000000001
 40
0.0
 40
0.0
 40
0.0
 40
0.0
 40
1.0
 40
1.0
 40
1.0
 40
2.0
 40
2.0
 40
2.0
 40
3.0
 40
3.0
 40
3.0
 40
4.0
 40
4.0
 40
4.0
 40
5.0
 40
5.0
 40
5.0
 40
6.0
 40
6.0
 40
6.0
 40
6.0
 10
94.00465997262161
 20
137.1834482122586
 30
0.0
 10
94.00465997262161
 20
138.0113052034968
 30
0.0
 10
93.33355492937068
 20
138.682065736972
 30
0.0
 10
92.50587019302039
 20
138.682065736972
 30
0.0
 10
91.67818545667008
 20
138.682065736972
 30
0.0
 10
91.00708041341915
 20
138.0113052034968
 30
0.0
 10
91.00708041341915
 20
137.1834482122586
 30
0.0
 10
91.00708041341915
 20
136.3555912210204
 30
0.0
 10
91.67818545667008
 20
135.6848306875453
 30
0.0
 10
92.50587019302039
 20
135.6848306875453
 30
0.0
 10
93.33355492937068
 20
135.6848306875453
 30
0.0
 10
94.00465997262161
 20
136.3555912210204
 30
0.0
 10
94.00465997262161
 20
137.1834482122586
 30
0.0
 10
94.00465997262161
 20
137.1834482122586
 30
0.0
 10
94.00465997262161
 20
137.1834482122586
 30
0.0
 10
94.00465997262161
 20
137.1834482122586
 30
0.0
 10
94.00465997262161
 20
137.1834482122586
 30
0.0
 10
94.00465997262161
 20
137.1834482122586
 30
0.0
 10
94.00465997262161
 20
137.1834482122586
 30
0.0
  0
ENDBLK
  5
6E
330
6B
100
AcDbEntity
  8
0
100
AcDbBlockEnd
  0
BLOCK
  5
72
330
70
100
AcDbEntity
  8
0
100
AcDbBlockBegin
  2
block 12
 70
     0
 71
     0
 10
0.0
 20
0.0
 30
0.0
  3
block 12
  1

  0
SPLINE
  5
74
330
70
100
AcDbEntity
  8
Fina
 62
     7
420
 16777215
370
     9
100
AcDbSpline
210
0.0
220
0.0
230
1.0
 70
    11
 71
     3
 72
    23
 73
    19
 74
     0
 42
0.0000000001
 43
0.0000000001
 40
0.0
 40
0.0
 40
0.0
 40
0.0
 40
1.0
 40
1.0
 40
1.0
 40
2.0
 40
2.0
 40
2.0
 40
3.0
 40
3.0
 40
3.0
 40
4.0
 40
4.0
 40
4.0
 40
5.0
 40
5.0
 40
5.0
 40
6.0
 40
6.0
 40
6.0
 40
6.0
 10
110.5905663636645
 20
128.8904088892933
 30
0.0
 10
110.5905663636645
 20
129.7182658805314
 30
0.0
 10
109.9194613204135
 20
130.3893709237824
 30
0.0
 10
109.0919488389511
 20
130.3893709237824
 30
0.0
 10
108.2640918477129
 20
130.3893709237824
 30
0.0
 10
107.592986804462
 20
129.7182658805314
 30
0.0
 10
107.592986804462
 20
128.8904088892933
 30
0.0
 10
107.592986804462
 20
128.0628964078309
 30
0.0
 10
108.2640918477129
 20
127.3917913645799
 30
0.0
 10
109.0919488389511
 20
127.3917913645799
 30
0.0
 10
109.9194613204135
 20
127.3917913645799
 30
0.0
 10
110.5905663636645
 20
128.0628964078309
 30
0.0
 10
110.5905663636645
 20
128.8904088892933
 30
0.0
 10
110.5905663636645
 20
128.8904088892933
 30
0.0
 10
110.5905663636645
 20
128.8904088892933
 30
0.0
 10
110.5905663636645
 20
128.8904088892933
 30
0.0
 10
110.5905663636645
 20
128.8904088892933
 30
0.0
 10
110.5905663636645
 20
128.8904088892933
 30
0.0
 10
110.5905663636645
 20
128.8904088892933
 30
0.0
  0
ENDBLK
  5
73
330
70
100
AcDbEntity
  8
0
100
AcDbBlockEnd
  0
BLOCK
  5
77
330
75
100
AcDbEntity
  8
0
100
AcDbBlockBegin
  2
block 13
 70
     0
 71
     0
 10
0.0
 20
0.0
 30
0.0
  3
block 13
  1

  0
SPLINE
  5
79
330
75
100
AcDbEntity
  8
Fina
 62
     7
420
 16777215
370
     9
100
AcDbSpline
210
0.0
220
0.0
230
1.0
 70
    11
 71
     3
 72
    23
 73
    19
 74
     0
 42
0.0000000001
 43
0.0000000001
 40
0.0
 40
0.0
 40
0.0
 40
0.0
 40
1.0
 40
1.0
 40
1.0
 40
2.0
 40
2.0
 40
2.0
 40
3.0
 40
3.0
 40
3.0
 40
4.0
 40
4.0
 40
4.0
 40
5.0
 40
5.0
 40
5.0
 40
6.0
 40
6.0
 40
6.0
 40
6.0
 10
110.5905663636645
 20
120.5977140761037
 30
0.0
 10
110.5905663636645
 20
121.4252265575661
 30
0.0
 10
109.9194613204135
 20
122.096331600817
 30
0.0
 10
109.0919488389511
 20
122.096331600817
 30
0.0
 10
108.2640918477129
 20
122.096331600817
 30
0.0
 10
107.592986804462
 20
121.4252265575661
 30
0.0
 10
107.592986804462
 20
120.5977140761037
 30
0.0
 10
107.592986804462
 20
119.7698570848655
 30
0.0
 10
108.2640918477129
 20
119.0987520416145
 30
0.0
 10
109.0919488389511
 20
119.0987520416145
 30
0.0
 10
109.9194613204135
 20
119.0987520416145
 30
0.0
 10
110.5905663636645
 20
119.7698570848655
 30
0.0
 10
110.5905663636645
 20
120.5977140761037
 30
0.0
 10
110.5905663636645
 20
120.5977140761037
 30
0.0
 10
110.5905663636645
 20
120.5977140761037
 30
0.0
 10
110.5905663636645
 20
120.5977140761037
 30
0.0
 10
110.5905663636645
 20
120.5977140761037
 30
0.0
 10
110.5905663636645
 20
120.5977140761037
 30
0.0
 10
110.5905663636645
 20
120.5977140761037
 30
0.0
  0
ENDBLK
  5
78
330
75
100
AcDbEntity
  8
0
100
AcDbBlockEnd
  0
BLOCK
  5
7C
330
7A
100
AcDbEntity
  8
0
100
AcDbBlockBegin
  2
block 14
 70
     0
 71
     0
 10
0.0
 20
0.0
 30
0.0
  3
block 14
  1

  0
SPLINE
  5
7E
330
7A
100
AcDbEntity
  8
Fina
 62
     7
420
 16777215
370
     9
100
AcDbSpline
210
0.0
220
0.0
230
1.0
 70
    11
 71
     3
 72
    23
 73
    19
 74
     0
 42
0.0000000001
 43
0.0000000001
 40
0.0
 40
0.0
 40
0.0
 40
0.0
 40
1.0
 40
1.0
 40
1.0
 40
2.0
 40
2.0
 40
2.0
 40
3.0
 40
3.0
 40
3.0
 40
4.0
 40
4.0
 40
4.0
 40
5.0
 40
5.0
 40
5.0
 40
6.0
 40
6.0
 40
6.0
 40
6.0
 10
102.2975270406991
 20
128.8904088892933
 30
0.0
 10
102.2975270406991
 20
129.7182658805314
 30
0.0
 10
101.626594252336
 20
130.3893709237824
 30
0.0
 10
100.7989095159858
 20
130.3893709237824
 30
0.0
 10
99.97105252474756
 20
130.3893709237824
 30
0.0
 10
99.30011973638453
 20
129.7182658805314
 30
0.0
 10
99.30011973638453
 20
128.8904088892933
 30
0.0
 10
99.30011973638453
 20
128.0628964078309
 30
0.0
 10
99.97105252474756
 20
127.3917913645799
 30
0.0
 10
100.7989095159858
 20
127.3917913645799
 30
0.0
 10
101.626594252336
 20
127.3917913645799
 30
0.0
 10
102.2975270406991
 20
128.0628964078309
 30
0.0
 10
102.2975270406991
 20
128.8904088892933
 30
0.0
 10
102.2975270406991
 20
128.8904088892933
 30
0.0
 10
102.2975270406991
 20
128.8904088892933
 30
0.0
 10
102.2975270406991
 20
128.8904088892933
 30
0.0
 10
102.2975270406991
 20
128.8904088892933
 30
0.0
 10
102.2975270406991
 20
128.8904088892933
 30
0.0
 10
102.2975270406991
 20
128.8904088892933
 30
0.0
  0
ENDBLK
  5
7D
330
7A
100
AcDbEntity
  8
0
100
AcDbBlockEnd
  0
BLOCK
  5
81
330
7F
100
AcDbEntity
  8
0
100
AcDbBlockBegin
  2
block 15
 70
     0
 71
     0
 10
0.0
 20
0.0
 30
0.0
  3
block 15
  1

  0
SPLINE
  5
83
330
7F
100
AcDbEntity
  8
Fina
 62
     7
420
 16777215
370
     9
100
AcDbSpline
210
0.0
220
0.0
230
1.0
 70
    11
 71
     3
 72
    23
 73
    19
 74
     0
 42
0.0000000001
 43
0.0000000001
 40
0.0
 40
0.0
 40
0.0
 40
0.0
 40
1.0
 40
1.0
 40
1.0
 40
2.0
 40
2.0
 40
2.0
 40
3.0
 40
3.0
 40
3.0
 40
4.0
 40
4.0
 40
4.0
 40
5.0
 40
5.0
 40
5.0
 40
6.0
 40
6.0
 40
6.0
 40
6.0
 10
94.00465997262161
 20
128.8904088892933
 30
0.0
 10
94.00465997262161
 20
129.7182658805314
 30
0.0
 10
93.33355492937068
 20
130.3893709237824
 30
0.0
 10
92.50587019302039
 20
130.3893709237824
 30
0.0
 10
91.67818545667008
 20
130.3893709237824
 30
0.0
 10
91.00708041341915
 20
129.7182658805314
 30
0.0
 10
91.00708041341915
 20
128.8904088892933
 30
0.0
 10
91.00708041341915
 20
128.0628964078309
 30
0.0
 10
91.67818545667008
 20
127.3917913645799
 30
0.0
 10
92.50587019302039
 20
127.3917913645799
 30
0.0
 10
93.33355492937068
 20
127.3917913645799
 30
0.0
 10
94.00465997262161
 20
128.0628964078309
 30
0.0
 10
94.00465997262161
 20
128.8904088892933
 30
0.0
 10
94.00465997262161
 20
128.8904088892933
 30
0.0
 10
94.00465997262161
 20
128.8904088892933
 30
0.0
 10
94.00465997262161
 20
128.8904088892933
 30
0.0
 10
94.00465997262161
 20
128.8904088892933
 30
0.0
 10
94.00465997262161
 20
128.8904088892933
 30
0.0
 10
94.00465997262161
 20
128.8904088892933
 30
0.0
  0
ENDBLK
  5
82
330
7F
100
AcDbEntity
  8
0
100
AcDbBlockEnd
  0
BLOCK
  5
86
330
84
100
AcDbEntity
  8
0
100
AcDbBlockBegin
  2
block 16
 70
     0
 71
     0
 10
0.0
 20
0.0
 30
0.0
  3
block 16
  1

  0
SPLINE
  5
88
330
84
100
AcDbEntity
  8
Fina
 62
     7
420
 16777215
370
     9
100
AcDbSpline
210
0.0
220
0.0
230
1.0
 70
    11
 71
     3
 72
    23
 73
    19
 74
     0
 42
0.0000000001
 43
0.0000000001
 40
0.0
 40
0.0
 40
0.0
 40
0.0
 40
1.0
 40
1.0
 40
1.0
 40
2.0
 40
2.0
 40
2.0
 40
3.0
 40
3.0
 40
3.0
 40
4.0
 40
4.0
 40
4.0
 40
5.0
 40
5.0
 40
5.0
 40
6.0
 40
6.0
 40
6.0
 40
6.0
 10
102.2975270406991
 20
120.5977140761037
 30
0.0
 10
102.2975270406991
 20
121.4252265575661
 30
0.0
 10
101.626594252336
 20
122.096331600817
 30
0.0
 10
100.7989095159858
 20
122.096331600817
 30
0.0
 10
99.97105252474756
 20
122.096331600817
 30
0.0
 10
99.30011973638453
 20
121.4252265575661
 30
0.0
 10
99.30011973638453
 20
120.5977140761037
 30
0.0
 10
99.30011973638453
 20
119.7698570848655
 30
0.0
 10
99.97105252474756
 20
119.0987520416145
 30
0.0
 10
100.7989095159858
 20
119.0987520416145
 30
0.0
 10
101.626594252336
 20
119.0987520416145
 30
0.0
 10
102.2975270406991
 20
119.7698570848655
 30
0.0
 10
102.2975270406991
 20
120.5977140761037
 30
0.0
 10
102.2975270406991
 20
120.5977140761037
 30
0.0
 10
102.2975270406991
 20
120.5977140761037
 30
0.0
 10
102.2975270406991
 20
120.5977140761037
 30
0.0
 10
102.2975270406991
 20
120.5977140761037
 30
0.0
 10
102.2975270406991
 20
120.5977140761037
 30
0.0
 10
102.2975270406991
 20
120.5977140761037
 30
0.0
  0
ENDBLK
  5
87
330
84
100
AcDbEntity
  8
0
100
AcDbBlockEnd
  0
BLOCK
  5
8B
330
89
100
AcDbEntity
  8
0
100
AcDbBlockBegin
  2
block 17
 70
     0
 71
     0
 10
0.0
 20
0.0
 30
0.0
  3
block 17
  1

  0
SPLINE
  5
8D
330
89
100
AcDbEntity
  8
Fina
 62
     7
420
 16777215
370
     9
100
AcDbSpline
210
0.0
220
0.0
230
1.0
 70
    11
 71
     3
 72
    23
 73
    19
 74
     0
 42
0.0000000001
 43
0.0000000001
 40
0.0
 40
0.0
 40
0.0
 40
0.0
 40
1.0
 40
1.0
 40
1.0
 40
2.0
 40
2.0
 40
2.0
 40
3.0
 40
3.0
 40
3.0
 40
4.0
 40
4.0
 40
4.0
 40
5.0
 40
5.0
 40
5.0
 40
6.0
 40
6.0
 40
6.0
 40
6.0
 10
94.00465997262161
 20
120.5977140761037
 30
0.0
 10
94.00465997262161
 20
121.4252265575661
 30
0.0
 10
93.33355492937068
 20
122.096331600817
 30
0.0
 10
92.50587019302039
 20
122.096331600817
 30
0.0
 10
91.67818545667008
 20
122.096331600817
 30
0.0
 10
91.00708041341915
 20
121.4252265575661
 30
0.0
 10
91.00708041341915
 20
120.5977140761037
 30
0.0
 10
91.00708041341915
 20
119.7698570848655
 30
0.0
 10
91.67818545667008
 20
119.0987520416145
 30
0.0
 10
92.50587019302039
 20
119.0987520416145
 30
0.0
 10
93.33355492937068
 20
119.0987520416145
 30
0.0
 10
94.00465997262161
 20
119.7698570848655
 30
0.0
 10
94.00465997262161
 20
120.5977140761037
 30
0.0
 10
94.00465997262161
 20
120.5977140761037
 30
0.0
 10
94.00465997262161
 20
120.5977140761037
 30
0.0
 10
94.00465997262161
 20
120.5977140761037
 30
0.0
 10
94.00465997262161
 20
120.5977140761037
 30
0.0
 10
94.00465997262161
 20
120.5977140761037
 30
0.0
 10
94.00465997262161
 20
120.5977140761037
 30
0.0
  0
ENDBLK
  5
8C
330
89
100
AcDbEntity
  8
0
100
AcDbBlockEnd
  0
BLOCK
  5
90
330
8E
100
AcDbEntity
  8
0
100
AcDbBlockBegin
  2
block 18
 70
     0
 71
     0
 10
0.0
 20
0.0
 30
0.0
  3
block 18
  1

  0
SPLINE
  5
92
330
8E
100
AcDbEntity
  8
Fina
 62
     7
420
 16777215
370
     9
100
AcDbSpline
210
0.0
220
0.0
230
1.0
 70
    11
 71
     3
 72
    23
 73
    19
 74
     0
 42
0.0000000001
 43
0.0000000001
 40
0.0
 40
0.0
 40
0.0
 40
0.0
 40
1.0
 40
1.0
 40
1.0
 40
2.0
 40
2.0
 40
2.0
 40
3.0
 40
3.0
 40
3.0
 40
4.0
 40
4.0
 40
4.0
 40
5.0
 40
5.0
 40
5.0
 40
6.0
 40
6.0
 40
6.0
 40
6.0
 10
85.58639134615433
 20
112.3046747531383
 30
0.0
 10
85.58639134615433
 20
113.1321872346007
 30
0.0
 10
84.9152863029034
 20
113.8032922778516
 30
0.0
 10
84.08760156655309
 20
113.8032922778516
 30
0.0
 10
83.2599168302028
 20
113.8032922778516
 30
0.0
 10
82.58881178695187
 20
113.1321872346007
 30
0.0
 10
82.58881178695187
 20
112.3046747531383
 30
0.0
 10
82.58881178695187
 20
111.4768177619001
 30
0.0
 10
83.2599168302028
 20
110.8057127186492
 30
0.0
 10
84.08760156655309
 20
110.8057127186492
 30
0.0
 10
84.9152863029034
 20
110.8057127186492
 30
0.0
 10
85.58639134615433
 20
111.4768177619001
 30
0.0
 10
85.58639134615433
 20
112.3046747531383
 30
0.0
 10
85.58639134615433
 20
112.3046747531383
 30
0.0
 10
85.58639134615433
 20
112.3046747531383
 30
0.0
 10
85.58639134615433
 20
112.3046747531383
 30
0.0
 10
85.58639134615433
 20
112.3046747531383
 30
0.0
 10
85.58639134615433
 20
112.3046747531383
 30
0.0
 10
85.58639134615433
 20
112.3046747531383
 30
0.0
  0
ENDBLK
  5
91
330
8E
100
AcDbEntity
  8
0
100
AcDbBlockEnd
  0
BLOCK
  5
95
330
93
100
AcDbEntity
  8
0
100
AcDbBlockBegin
  2
block 19
 70
     0
 71
     0
 10
0.0
 20
0.0
 30
0.0
  3
block 19
  1

  0
SPLINE
  5
97
330
93
100
AcDbEntity
  8
Fina
 62
     7
420
 16777215
370
     9
100
AcDbSpline
210
0.0
220
0.0
230
1.0
 70
    11
 71
     3
 72
    23
 73
    19
 74
     0
 42
0.0000000001
 43
0.0000000001
 40
0.0
 40
0.0
 40
0.0
 40
0.0
 40
1.0
 40
1.0
 40
1.0
 40
2.0
 40
2.0
 40
2.0
 40
3.0
 40
3.0
 40
3.0
 40
4.0
 40
4.0
 40
4.0
 40
5.0
 40
5.0
 40
5.0
 40
6.0
 40
6.0
 40
6.0
 40
6.0
 10
110.5905663636645
 20
112.3046747531383
 30
0.0
 10
110.5905663636645
 20
113.1321872346007
 30
0.0
 10
109.9194613204135
 20
113.8032922778516
 30
0.0
 10
109.0919488389511
 20
113.8032922778516
 30
0.0
 10
108.2640918477129
 20
113.8032922778516
 30
0.0
 10
107.592986804462
 20
113.1321872346007
 30
0.0
 10
107.592986804462
 20
112.3046747531383
 30
0.0
 10
107.592986804462
 20
111.4768177619001
 30
0.0
 10
108.2640918477129
 20
110.8057127186492
 30
0.0
 10
109.0919488389511
 20
110.8057127186492
 30
0.0
 10
109.9194613204135
 20
110.8057127186492
 30
0.0
 10
110.5905663636645
 20
111.4768177619001
 30
0.0
 10
110.5905663636645
 20
112.3046747531383
 30
0.0
 10
110.5905663636645
 20
112.3046747531383
 30
0.0
 10
110.5905663636645
 20
112.3046747531383
 30
0.0
 10
110.5905663636645
 20
112.3046747531383
 30
0.0
 10
110.5905663636645
 20
112.3046747531383
 30
0.0
 10
110.5905663636645
 20
112.3046747531383
 30
0.0
 10
110.5905663636645
 20
112.3046747531383
 30
0.0
  0
ENDBLK
  5
96
330
93
100
AcDbEntity
  8
0
100
AcDbBlockEnd
  0
BLOCK
  5
9A
330
98
100
AcDbEntity
  8
0
100
AcDbBlockBegin
  2
block 20
 70
     0
 71
     0
 10
0.0
 20
0.0
 30
0.0
  3
block 20
  1

  0
SPLINE
  5
9C
330
98
100
AcDbEntity
  8
Fina
 62
     7
420
 16777215
370
     9
100
AcDbSpline
210
0.0
220
0.0
230
1.0
 70
    11
 71
     3
 72
    23
 73
    19
 74
     0
 42
0.0000000001
 43
0.0000000001
 40
0.0
 40
0.0
 40
0.0
 40
0.0
 40
1.0
 40
1.0
 40
1.0
 40
2.0
 40
2.0
 40
2.0
 40
3.0
 40
3.0
 40
3.0
 40
4.0
 40
4.0
 40
4.0
 40
5.0
 40
5.0
 40
5.0
 40
6.0
 40
6.0
 40
6.0
 40
6.0
 10
102.2975270406991
 20
112.3046747531383
 30
0.0
 10
102.2975270406991
 20
113.1321872346007
 30
0.0
 10
101.626594252336
 20
113.8032922778516
 30
0.0
 10
100.7989095159858
 20
113.8032922778516
 30
0.0
 10
99.97105252474756
 20
113.8032922778516
 30
0.0
 10
99.30011973638453
 20
113.1321872346007
 30
0.0
 10
99.30011973638453
 20
112.3046747531383
 30
0.0
 10
99.30011973638453
 20
111.4768177619001
 30
0.0
 10
99.97105252474756
 20
110.8057127186492
 30
0.0
 10
100.7989095159858
 20
110.8057127186492
 30
0.0
 10
101.626594252336
 20
110.8057127186492
 30
0.0
 10
102.2975270406991
 20
111.4768177619001
 30
0.0
 10
102.2975270406991
 20
112.3046747531383
 30
0.0
 10
102.2975270406991
 20
112.3046747531383
 30
0.0
 10
102.2975270406991
 20
112.3046747531383
 30
0.0
 10
102.2975270406991
 20
112.3046747531383
 30
0.0
 10
102.2975270406991
 20
112.3046747531383
 30
0.0
 10
102.2975270406991
 20
112.3046747531383
 30
0.0
 10
102.2975270406991
 20
112.3046747531383
 30
0.0
  0
ENDBLK
  5
9B
330
98
100
AcDbEntity
  8
0
100
AcDbBlockEnd
  0
BLOCK
  5
9F
330
9D
100
AcDbEntity
  8
0
100
AcDbBlockBegin
  2
block 21
 70
     0
 71
     0
 10
0.0
 20
0.0
 30
0.0
  3
block 21
  1

  0
SPLINE
  5
A1
330
9D
100
AcDbEntity
  8
Fina
 62
     7
420
 16777215
370
     9
100
AcDbSpline
210
0.0
220
0.0
230
1.0
 70
    11
 71
     3
 72
    23
 73
    19
 74
     0
 42
0.0000000001
 43
0.0000000001
 40
0.0
 40
0.0
 40
0.0
 40
0.0
 40
1.0
 40
1.0
 40
1.0
 40
2.0
 40
2.0
 40
2.0
 40
3.0
 40
3.0
 40
3.0
 40
4.0
 40
4.0
 40
4.0
 40
5.0
 40
5.0
 40
5.0
 40
6.0
 40
6.0
 40
6.0
 40
6.0
 10
94.00465997262161
 20
112.3046747531383
 30
0.0
 10
94.00465997262161
 20
113.1321872346007
 30
0.0
 10
93.33355492937068
 20
113.8032922778516
 30
0.0
 10
92.50587019302039
 20
113.8032922778516
 30
0.0
 10
91.67818545667008
 20
113.8032922778516
 30
0.0
 10
91.00708041341915
 20
113.1321872346007
 30
0.0
 10
91.00708041341915
 20
112.3046747531383
 30
0.0
 10
91.00708041341915
 20
111.4768177619001
 30
0.0
 10
91.67818545667008
 20
110.8057127186492
 30
0.0
 10
92.50587019302039
 20
110.8057127186492
 30
0.0
 10
93.33355492937068
 20
110.8057127186492
 30
0.0
 10
94.00465997262161
 20
111.4768177619001
 30
0.0
 10
94.00465997262161
 20
112.3046747531383
 30
0.0
 10
94.00465997262161
 20
112.3046747531383
 30
0.0
 10
94.00465997262161
 20
112.3046747531383
 30
0.0
 10
94.00465997262161
 20
112.3046747531383
 30
0.0
 10
94.00465997262161
 20
112.3046747531383
 30
0.0
 10
94.00465997262161
 20
112.3046747531383
 30
0.0
 10
94.00465997262161
 20
112.3046747531383
 30
0.0
  0
ENDBLK
  5
A0
330
9D
100
AcDbEntity
  8
0
100
AcDbBlockEnd
  0
BLOCK
  5
A4
330
A2
100
AcDbEntity
  8
0
100
AcDbBlockBegin
  2
block 22
 70
     0
 71
     0
 10
0.0
 20
0.0
 30
0.0
  3
block 22
  1

  0
SPLINE
  5
A6
330
A2
100
AcDbEntity
  8
Fina
 62
     7
420
 16777215
370
     9
100
AcDbSpline
210
0.0
220
0.0
230
1.0
 70
    11
 71
     3
 72
    23
 73
    19
 74
     0
 42
0.0000000001
 43
0.0000000001
 40
0.0
 40
0.0
 40
0.0
 40
0.0
 40
1.0
 40
1.0
 40
1.0
 40
2.0
 40
2.0
 40
2.0
 40
3.0
 40
3.0
 40
3.0
 40
4.0
 40
4.0
 40
4.0
 40
5.0
 40
5.0
 40
5.0
 40
6.0
 40
6.0
 40
6.0
 40
6.0
 10
120.5313959442629
 20
145.476487535224
 30
0.0
 10
120.5313959442629
 20
146.3043445264622
 30
0.0
 10
119.860290901012
 20
146.9751050599374
 30
0.0
 10
119.0324339097738
 20
146.9751050599374
 30
0.0
 10
118.2049214283114
 20
146.9751050599374
 30
0.0
 10
117.5338163850604
 20
146.3043445264622
 30
0.0
 10
117.5338163850604
 20
145.476487535224
 30
0.0
 10
117.5338163850604
 20
144.6486305439858
 30
0.0
 10
118.2049214283114
 20
143.9778700105107
 30
0.0
 10
119.0324339097738
 20
143.9778700105107
 30
0.0
 10
119.860290901012
 20
143.9778700105107
 30
0.0
 10
120.5313959442629
 20
144.6486305439858
 30
0.0
 10
120.5313959442629
 20
145.476487535224
 30
0.0
 10
120.5313959442629
 20
145.476487535224
 30
0.0
 10
120.5313959442629
 20
145.476487535224
 30
0.0
 10
120.5313959442629
 20
145.476487535224
 30
0.0
 10
120.5313959442629
 20
145.476487535224
 30
0.0
 10
120.5313959442629
 20
145.476487535224
 30
0.0
 10
120.5313959442629
 20
145.476487535224
 30
0.0
  0
ENDBLK
  5
A5
330
A2
100
AcDbEntity
  8
0
100
AcDbBlockEnd
  0
BLOCK
  5
A9
330
A7
100
AcDbEntity
  8
0
100
AcDbBlockBegin
  2
block 23
 70
     0
 71
     0
 10
0.0
 20
0.0
 30
0.0
  3
block 23
  1

  0
SPLINE
  5
AB
330
A7
100
AcDbEntity
  8
Fina
 62
     7
420
 16777215
370
     9
100
AcDbSpline
210
0.0
220
0.0
230
1.0
 70
    11
 71
     3
 72
    23
 73
    19
 74
     0
 42
0.0000000001
 43
0.0000000001
 40
0.0
 40
0.0
 40
0.0
 40
0.0
 40
1.0
 40
1.0
 40
1.0
 40
2.0
 40
2.0
 40
2.0
 40
3.0
 40
3.0
 40
3.0
 40
4.0
 40
4.0
 40
4.0
 40
5.0
 40
5.0
 40
5.0
 40
6.0
 40
6.0
 40
6.0
 40
6.0
 10
128.8240907574525
 20
145.476487535224
 30
0.0
 10
128.8240907574525
 20
146.3043445264622
 30
0.0
 10
128.1533302239773
 20
146.9751050599374
 30
0.0
 10
127.3254732327392
 20
146.9751050599374
 30
0.0
 10
126.497616241501
 20
146.9751050599374
 30
0.0
 10
125.8268557080258
 20
146.3043445264622
 30
0.0
 10
125.8268557080258
 20
145.476487535224
 30
0.0
 10
125.8268557080258
 20
144.6486305439858
 30
0.0
 10
126.497616241501
 20
143.9778700105107
 30
0.0
 10
127.3254732327392
 20
143.9778700105107
 30
0.0
 10
128.1533302239773
 20
143.9778700105107
 30
0.0
 10
128.8240907574525
 20
144.6486305439858
 30
0.0
 10
128.8240907574525
 20
145.476487535224
 30
0.0
 10
128.8240907574525
 20
145.476487535224
 30
0.0
 10
128.8240907574525
 20
145.476487535224
 30
0.0
 10
128.8240907574525
 20
145.476487535224
 30
0.0
 10
128.8240907574525
 20
145.476487535224
 30
0.0
 10
128.8240907574525
 20
145.476487535224
 30
0.0
 10
128.8240907574525
 20
145.476487535224
 30
0.0
  0
ENDBLK
  5
AA
330
A7
100
AcDbEntity
  8
0
100
AcDbBlockEnd
  0
BLOCK
  5
AE
330
AC
100
AcDbEntity
  8
0
100
AcDbBlockBegin
  2
block 24
 70
     0
 71
     0
 10
0.0
 20
0.0
 30
0.0
  3
block 24
  1

  0
SPLINE
  5
B0
330
AC
100
AcDbEntity
  8
Fina
 62
     7
420
 16777215
370
     9
100
AcDbSpline
210
0.0
220
0.0
230
1.0
 70
    11
 71
     3
 72
    23
 73
    19
 74
     0
 42
0.0000000001
 43
0.0000000001
 40
0.0
 40
0.0
 40
0.0
 40
0.0
 40
1.0
 40
1.0
 40
1.0
 40
2.0
 40
2.0
 40
2.0
 40
3.0
 40
3.0
 40
3.0
 40
4.0
 40
4.0
 40
4.0
 40
5.0
 40
5.0
 40
5.0
 40
6.0
 40
6.0
 40
6.0
 40
6.0
 10
137.1171300804179
 20
145.476487535224
 30
0.0
 10
137.1171300804179
 20
146.3043445264622
 30
0.0
 10
136.4463695469427
 20
146.9751050599374
 30
0.0
 10
135.6185125557045
 20
146.9751050599374
 30
0.0
 10
134.7906555644663
 20
146.9751050599374
 30
0.0
 10
134.1198950309912
 20
146.3043445264622
 30
0.0
 10
134.1198950309912
 20
145.476487535224
 30
0.0
 10
134.1198950309912
 20
144.6486305439858
 30
0.0
 10
134.7906555644663
 20
143.9778700105107
 30
0.0
 10
135.6185125557045
 20
143.9778700105107
 30
0.0
 10
136.4463695469427
 20
143.9778700105107
 30
0.0
 10
137.1171300804179
 20
144.6486305439858
 30
0.0
 10
137.1171300804179
 20
145.476487535224
 30
0.0
 10
137.1171300804179
 20
145.476487535224
 30
0.0
 10
137.1171300804179
 20
145.476487535224
 30
0.0
 10
137.1171300804179
 20
145.476487535224
 30
0.0
 10
137.1171300804179
 20
145.476487535224
 30
0.0
 10
137.1171300804179
 20
145.476487535224
 30
0.0
 10
137.1171300804179
 20
145.476487535224
 30
0.0
  0
ENDBLK
  5
AF
330
AC
100
AcDbEntity
  8
0
100
AcDbBlockEnd
  0
BLOCK
  5
B3
330
B1
100
AcDbEntity
  8
0
100
AcDbBlockBegin
  2
block 25
 70
     0
 71
     0
 10
0.0
 20
0.0
 30
0.0
  3
block 25
  1

  0
SPLINE
  5
B5
330
B1
100
AcDbEntity
  8
Fina
 62
     7
420
 16777215
370
     9
100
AcDbSpline
210
0.0
220
0.0
230
1.0
 70
    11
 71
     3
 72
    23
 73
    19
 74
     0
 42
0.0000000001
 43
0.0000000001
 40
0.0
 40
0.0
 40
0.0
 40
0.0
 40
1.0
 40
1.0
 40
1.0
 40
2.0
 40
2.0
 40
2.0
 40
3.0
 40
3.0
 40
3.0
 40
4.0
 40
4.0
 40
4.0
 40
5.0
 40
5.0
 40
5.0
 40
6.0
 40
6.0
 40
6.0
 40
6.0
 10
145.5355709617731
 20
145.476487535224
 30
0.0
 10
145.5355709617731
 20
146.3043445264622
 30
0.0
 10
144.8644659185221
 20
146.9751050599374
 30
0.0
 10
144.0366089272839
 20
146.9751050599374
 30
0.0
 10
143.2090964458215
 20
146.9751050599374
 30
0.0
 10
142.5379914025706
 20
146.3043445264622
 30
0.0
 10
142.5379914025706
 20
145.476487535224
 30
0.0
 10
142.5379914025706
 20
144.6486305439858
 30
0.0
 10
143.2090964458215
 20
143.9778700105107
 30
0.0
 10
144.0366089272839
 20
143.9778700105107
 30
0.0
 10
144.8644659185221
 20
143.9778700105107
 30
0.0
 10
145.5355709617731
 20
144.6486305439858
 30
0.0
 10
145.5355709617731
 20
145.476487535224
 30
0.0
 10
145.5355709617731
 20
145.476487535224
 30
0.0
 10
145.5355709617731
 20
145.476487535224
 30
0.0
 10
145.5355709617731
 20
145.476487535224
 30
0.0
 10
145.5355709617731
 20
145.476487535224
 30
0.0
 10
145.5355709617731
 20
145.476487535224
 30
0.0
 10
145.5355709617731
 20
145.476487535224
 30
0.0
  0
ENDBLK
  5
B4
330
B1
100
AcDbEntity
  8
0
100
AcDbBlockEnd
  0
BLOCK
  5
B8
330
B6
100
AcDbEntity
  8
0
100
AcDbBlockBegin
  2
block 26
 70
     0
 71
     0
 10
0.0
 20
0.0
 30
0.0
  3
block 26
  1

  0
SPLINE
  5
BA
330
B6
100
AcDbEntity
  8
Fina
 62
     7
420
 16777215
370
     9
100
AcDbSpline
210
0.0
220
0.0
230
1.0
 70
    11
 71
     3
 72
    23
 73
    19
 74
     0
 42
0.0000000001
 43
0.0000000001
 40
0.0
 40
0.0
 40
0.0
 40
0.0
 40
1.0
 40
1.0
 40
1.0
 40
2.0
 40
2.0
 40
2.0
 40
3.0
 40
3.0
 40
3.0
 40
4.0
 40
4.0
 40
4.0
 40
5.0
 40
5.0
 40
5.0
 40
6.0
 40
6.0
 40
6.0
 40
6.0
 10
128.8240907574525
 20
112.3046747531383
 30
0.0
 10
128.8240907574525
 20
113.1321872346007
 30
0.0
 10
128.1533302239773
 20
113.8032922778516
 30
0.0
 10
127.3254732327392
 20
113.8032922778516
 30
0.0
 10
126.497616241501
 20
113.8032922778516
 30
0.0
 10
125.8268557080258
 20
113.1321872346007
 30
0.0
 10
125.8268557080258
 20
112.3046747531383
 30
0.0
 10
125.8268557080258
 20
111.4768177619001
 30
0.0
 10
126.497616241501
 20
110.8057127186492
 30
0.0
 10
127.3254732327392
 20
110.8057127186492
 30
0.0
 10
128.1533302239773
 20
110.8057127186492
 30
0.0
 10
128.8240907574525
 20
111.4768177619001
 30
0.0
 10
128.8240907574525
 20
112.3046747531383
 30
0.0
 10
128.8240907574525
 20
112.3046747531383
 30
0.0
 10
128.8240907574525
 20
112.3046747531383
 30
0.0
 10
128.8240907574525
 20
112.3046747531383
 30
0.0
 10
128.8240907574525
 20
112.3046747531383
 30
0.0
 10
128.8240907574525
 20
112.3046747531383
 30
0.0
 10
128.8240907574525
 20
112.3046747531383
 30
0.0
  0
ENDBLK
  5
B9
330
B6
100
AcDbEntity
  8
0
100
AcDbBlockEnd
  0
BLOCK
  5
BD
330
BB
100
AcDbEntity
  8
0
100
AcDbBlockBegin
  2
block 27
 70
     0
 71
     0
 10
0.0
 20
0.0
 30
0.0
  3
block 27
  1

  0
SPLINE
  5
BF
330
BB
100
AcDbEntity
  8
Fina
 62
     7
420
 16777215
370
     9
100
AcDbSpline
210
0.0
220
0.0
230
1.0
 70
    11
 71
     3
 72
    23
 73
    19
 74
     0
 42
0.0000000001
 43
0.0000000001
 40
0.0
 40
0.0
 40
0.0
 40
0.0
 40
1.0
 40
1.0
 40
1.0
 40
2.0
 40
2.0
 40
2.0
 40
3.0
 40
3.0
 40
3.0
 40
4.0
 40
4.0
 40
4.0
 40
5.0
 40
5.0
 40
5.0
 40
6.0
 40
6.0
 40
6.0
 40
6.0
 10
128.8240907574525
 20
120.5977140761037
 30
0.0
 10
128.8240907574525
 20
121.4252265575661
 30
0.0
 10
128.1533302239773
 20
122.096331600817
 30
0.0
 10
127.3254732327392
 20
122.096331600817
 30
0.0
 10
126.497616241501
 20
122.096331600817
 30
0.0
 10
125.8268557080258
 20
121.4252265575661
 30
0.0
 10
125.8268557080258
 20
120.5977140761037
 30
0.0
 10
125.8268557080258
 20
119.7698570848655
 30
0.0
 10
126.497616241501
 20
119.0987520416145
 30
0.0
 10
127.3254732327392
 20
119.0987520416145
 30
0.0
 10
128.1533302239773
 20
119.0987520416145
 30
0.0
 10
128.8240907574525
 20
119.7698570848655
 30
0.0
 10
128.8240907574525
 20
120.5977140761037
 30
0.0
 10
128.8240907574525
 20
120.5977140761037
 30
0.0
 10
128.8240907574525
 20
120.5977140761037
 30
0.0
 10
128.8240907574525
 20
120.5977140761037
 30
0.0
 10
128.8240907574525
 20
120.5977140761037
 30
0.0
 10
128.8240907574525
 20
120.5977140761037
 30
0.0
 10
128.8240907574525
 20
120.5977140761037
 30
0.0
  0
ENDBLK
  5
BE
330
BB
100
AcDbEntity
  8
0
100
AcDbBlockEnd
  0
BLOCK
  5
C2
330
C0
100
AcDbEntity
  8
0
100
AcDbBlockBegin
  2
block 28
 70
     0
 71
     0
 10
0.0
 20
0.0
 30
0.0
  3
block 28
  1

  0
SPLINE
  5
C4
330
C0
100
AcDbEntity
  8
Fina
 62
     7
420
 16777215
370
     9
100
AcDbSpline
210
0.0
220
0.0
230
1.0
 70
    11
 71
     3
 72
    23
 73
    19
 74
     0
 42
0.0000000001
 43
0.0000000001
 40
0.0
 40
0.0
 40
0.0
 40
0.0
 40
1.0
 40
1.0
 40
1.0
 40
2.0
 40
2.0
 40
2.0
 40
3.0
 40
3.0
 40
3.0
 40
4.0
 40
4.0
 40
4.0
 40
5.0
 40
5.0
 40
5.0
 40
6.0
 40
6.0
 40
6.0
 40
6.0
 10
128.8240907574525
 20
128.8904088892933
 30
0.0
 10
128.8240907574525
 20
129.7182658805314
 30
0.0
 10
128.1533302239773
 20
130.3893709237824
 30
0.0
 10
127.3254732327392
 20
130.3893709237824
 30
0.0
 10
126.497616241501
 20
130.3893709237824
 30
0.0
 10
125.8268557080258
 20
129.7182658805314
 30
0.0
 10
125.8268557080258
 20
128.8904088892933
 30
0.0
 10
125.8268557080258
 20
128.0628964078309
 30
0.0
 10
126.497616241501
 20
127.3917913645799
 30
0.0
 10
127.3254732327392
 20
127.3917913645799
 30
0.0
 10
128.1533302239773
 20
127.3917913645799
 30
0.0
 10
128.8240907574525
 20
128.0628964078309
 30
0.0
 10
128.8240907574525
 20
128.8904088892933
 30
0.0
 10
128.8240907574525
 20
128.8904088892933
 30
0.0
 10
128.8240907574525
 20
128.8904088892933
 30
0.0
 10
128.8240907574525
 20
128.8904088892933
 30
0.0
 10
128.8240907574525
 20
128.8904088892933
 30
0.0
 10
128.8240907574525
 20
128.8904088892933
 30
0.0
 10
128.8240907574525
 20
128.8904088892933
 30
0.0
  0
ENDBLK
  5
C3
330
C0
100
AcDbEntity
  8
0
100
AcDbBlockEnd
  0
BLOCK
  5
C7
330
C5
100
AcDbEntity
  8
0
100
AcDbBlockBegin
  2
block 29
 70
     0
 71
     0
 10
0.0
 20
0.0
 30
0.0
  3
block 29
  1

  0
SPLINE
  5
C9
330
C5
100
AcDbEntity
  8
Fina
 62
     7
420
 16777215
370
     9
100
AcDbSpline
210
0.0
220
0.0
230
1.0
 70
    11
 71
     3
 72
    23
 73
    19
 74
     0
 42
0.0000000001
 43
0.0000000001
 40
0.0
 40
0.0
 40
0.0
 40
0.0
 40
1.0
 40
1.0
 40
1.0
 40
2.0
 40
2.0
 40
2.0
 40
3.0
 40
3.0
 40
3.0
 40
4.0
 40
4.0
 40
4.0
 40
5.0
 40
5.0
 40
5.0
 40
6.0
 40
6.0
 40
6.0
 40
6.0
 10
128.8240907574525
 20
137.1834482122586
 30
0.0
 10
128.8240907574525
 20
138.0113052034968
 30
0.0
 10
128.1533302239773
 20
138.682065736972
 30
0.0
 10
127.3254732327392
 20
138.682065736972
 30
0.0
 10
126.497616241501
 20
138.682065736972
 30
0.0
 10
125.8268557080258
 20
138.0113052034968
 30
0.0
 10
125.8268557080258
 20
137.1834482122586
 30
0.0
 10
125.8268557080258
 20
136.3555912210204
 30
0.0
 10
126.497616241501
 20
135.6848306875453
 30
0.0
 10
127.3254732327392
 20
135.6848306875453
 30
0.0
 10
128.1533302239773
 20
135.6848306875453
 30
0.0
 10
128.8240907574525
 20
136.3555912210204
 30
0.0
 10
128.8240907574525
 20
137.1834482122586
 30
0.0
 10
128.8240907574525
 20
137.1834482122586
 30
0.0
 10
128.8240907574525
 20
137.1834482122586
 30
0.0
 10
128.8240907574525
 20
137.1834482122586
 30
0.0
 10
128.8240907574525
 20
137.1834482122586
 30
0.0
 10
128.8240907574525
 20
137.1834482122586
 30
0.0
 10
128.8240907574525
 20
137.1834482122586
 30
0.0
  0
ENDBLK
  5
C8
330
C5
100
AcDbEntity
  8
0
100
AcDbBlockEnd
  0
BLOCK
  5
CC
330
CA
100
AcDbEntity
  8
0
100
AcDbBlockBegin
  2
block 30
 70
     0
 71
     0
 10
0.0
 20
0.0
 30
0.0
  3
block 30
  1

  0
SPLINE
  5
CE
330
CA
100
AcDbEntity
  8
Fina
 62
     7
420
 16777215
370
     9
100
AcDbSpline
210
0.0
220
0.0
230
1.0
 70
    11
 71
     3
 72
    23
 73
    19
 74
     0
 42
0.0000000001
 43
0.0000000001
 40
0.0
 40
0.0
 40
0.0
 40
0.0
 40
1.0
 40
1.0
 40
1.0
 40
2.0
 40
2.0
 40
2.0
 40
3.0
 40
3.0
 40
3.0
 40
4.0
 40
4.0
 40
4.0
 40
5.0
 40
5.0
 40
5.0
 40
6.0
 40
6.0
 40
6.0
 40
6.0
 10
137.1171300804179
 20
112.3046747531383
 30
0.0
 10
137.1171300804179
 20
113.1321872346007
 30
0.0
 10
136.4463695469427
 20
113.8032922778516
 30
0.0
 10
135.6185125557045
 20
113.8032922778516
 30
0.0
 10
134.7906555644663
 20
113.8032922778516
 30
0.0
 10
134.1198950309912
 20
113.1321872346007
 30
0.0
 10
134.1198950309912
 20
112.3046747531383
 30
0.0
 10
134.1198950309912
 20
111.4768177619001
 30
0.0
 10
134.7906555644663
 20
110.8057127186492
 30
0.0
 10
135.6185125557045
 20
110.8057127186492
 30
0.0
 10
136.4463695469427
 20
110.8057127186492
 30
0.0
 10
137.1171300804179
 20
111.4768177619001
 30
0.0
 10
137.1171300804179
 20
112.3046747531383
 30
0.0
 10
137.1171300804179
 20
112.3046747531383
 30
0.0
 10
137.1171300804179
 20
112.3046747531383
 30
0.0
 10
137.1171300804179
 20
112.3046747531383
 30
0.0
 10
137.1171300804179
 20
112.3046747531383
 30
0.0
 10
137.1171300804179
 20
112.3046747531383
 30
0.0
 10
137.1171300804179
 20
112.3046747531383
 30
0.0
  0
ENDBLK
  5
CD
330
CA
100
AcDbEntity
  8
0
100
AcDbBlockEnd
  0
BLOCK
  5
D1
330
CF
100
AcDbEntity
  8
0
100
AcDbBlockBegin
  2
block 31
 70
     0
 71
     0
 10
0.0
 20
0.0
 30
0.0
  3
block 31
  1

  0
SPLINE
  5
D3
330
CF
100
AcDbEntity
  8
Fina
 62
     7
420
 16777215
370
     9
100
AcDbSpline
210
0.0
220
0.0
230
1.0
 70
    11
 71
     3
 72
    23
 73
    19
 74
     0
 42
0.0000000001
 43
0.0000000001
 40
0.0
 40
0.0
 40
0.0
 40
0.0
 40
1.0
 40
1.0
 40
1.0
 40
2.0
 40
2.0
 40
2.0
 40
3.0
 40
3.0
 40
3.0
 40
4.0
 40
4.0
 40
4.0
 40
5.0
 40
5.0
 40
5.0
 40
6.0
 40
6.0
 40
6.0
 40
6.0
 10
145.5355709617731
 20
112.3046747531383
 30
0.0
 10
145.5355709617731
 20
113.1321872346007
 30
0.0
 10
144.8644659185221
 20
113.8032922778516
 30
0.0
 10
144.0366089272839
 20
113.8032922778516
 30
0.0
 10
143.2090964458215
 20
113.8032922778516
 30
0.0
 10
142.5379914025706
 20
113.1321872346007
 30
0.0
 10
142.5379914025706
 20
112.3046747531383
 30
0.0
 10
142.5379914025706
 20
111.4768177619001
 30
0.0
 10
143.2090964458215
 20
110.8057127186492
 30
0.0
 10
144.0366089272839
 20
110.8057127186492
 30
0.0
 10
144.8644659185221
 20
110.8057127186492
 30
0.0
 10
145.5355709617731
 20
111.4768177619001
 30
0.0
 10
145.5355709617731
 20
112.3046747531383
 30
0.0
 10
145.5355709617731
 20
112.3046747531383
 30
0.0
 10
145.5355709617731
 20
112.3046747531383
 30
0.0
 10
145.5355709617731
 20
112.3046747531383
 30
0.0
 10
145.5355709617731
 20
112.3046747531383
 30
0.0
 10
145.5355709617731
 20
112.3046747531383
 30
0.0
 10
145.5355709617731
 20
112.3046747531383
 30
0.0
  0
ENDBLK
  5
D2
330
CF
100
AcDbEntity
  8
0
100
AcDbBlockEnd
  0
BLOCK
  5
D6
330
D4
100
AcDbEntity
  8
0
100
AcDbBlockBegin
  2
block 32
 70
     0
 71
     0
 10
0.0
 20
0.0
 30
0.0
  3
block 32
  1

  0
SPLINE
  5
D8
330
D4
100
AcDbEntity
  8
Fina
 62
     7
420
 16777215
370
     9
100
AcDbSpline
210
0.0
220
0.0
230
1.0
 70
    11
 71
     3
 72
    23
 73
    19
 74
     0
 42
0.0000000001
 43
0.0000000001
 40
0.0
 40
0.0
 40
0.0
 40
0.0
 40
1.0
 40
1.0
 40
1.0
 40
2.0
 40
2.0
 40
2.0
 40
3.0
 40
3.0
 40
3.0
 40
4.0
 40
4.0
 40
4.0
 40
5.0
 40
5.0
 40
5.0
 40
6.0
 40
6.0
 40
6.0
 40
6.0
 10
137.1171300804179
 20
120.5977140761037
 30
0.0
 10
137.1171300804179
 20
121.4252265575661
 30
0.0
 10
136.4463695469427
 20
122.096331600817
 30
0.0
 10
135.6185125557045
 20
122.096331600817
 30
0.0
 10
134.7906555644663
 20
122.096331600817
 30
0.0
 10
134.1198950309912
 20
121.4252265575661
 30
0.0
 10
134.1198950309912
 20
120.5977140761037
 30
0.0
 10
134.1198950309912
 20
119.7698570848655
 30
0.0
 10
134.7906555644663
 20
119.0987520416145
 30
0.0
 10
135.6185125557045
 20
119.0987520416145
 30
0.0
 10
136.4463695469427
 20
119.0987520416145
 30
0.0
 10
137.1171300804179
 20
119.7698570848655
 30
0.0
 10
137.1171300804179
 20
120.5977140761037
 30
0.0
 10
137.1171300804179
 20
120.5977140761037
 30
0.0
 10
137.1171300804179
 20
120.5977140761037
 30
0.0
 10
137.1171300804179
 20
120.5977140761037
 30
0.0
 10
137.1171300804179
 20
120.5977140761037
 30
0.0
 10
137.1171300804179
 20
120.5977140761037
 30
0.0
 10
137.1171300804179
 20
120.5977140761037
 30
0.0
  0
ENDBLK
  5
D7
330
D4
100
AcDbEntity
  8
0
100
AcDbBlockEnd
  0
BLOCK
  5
DB
330
D9
100
AcDbEntity
  8
0
100
AcDbBlockBegin
  2
block 33
 70
     0
 71
     0
 10
0.0
 20
0.0
 30
0.0
  3
block 33
  1

  0
SPLINE
  5
DD
330
D9
100
AcDbEntity
  8
Fina
 62
     7
420
 16777215
370
     9
100
AcDbSpline
210
0.0
220
0.0
230
1.0
 70
    11
 71
     3
 72
    23
 73
    19
 74
     0
 42
0.0000000001
 43
0.0000000001
 40
0.0
 40
0.0
 40
0.0
 40
0.0
 40
1.0
 40
1.0
 40
1.0
 40
2.0
 40
2.0
 40
2.0
 40
3.0
 40
3.0
 40
3.0
 40
4.0
 40
4.0
 40
4.0
 40
5.0
 40
5.0
 40
5.0
 40
6.0
 40
6.0
 40
6.0
 40
6.0
 10
137.1171300804179
 20
128.8904088892933
 30
0.0
 10
137.1171300804179
 20
129.7182658805314
 30
0.0
 10
136.4463695469427
 20
130.3893709237824
 30
0.0
 10
135.6185125557045
 20
130.3893709237824
 30
0.0
 10
134.7906555644663
 20
130.3893709237824
 30
0.0
 10
134.1198950309912
 20
129.7182658805314
 30
0.0
 10
134.1198950309912
 20
128.8904088892933
 30
0.0
 10
134.1198950309912
 20
128.0628964078309
 30
0.0
 10
134.7906555644663
 20
127.3917913645799
 30
0.0
 10
135.6185125557045
 20
127.3917913645799
 30
0.0
 10
136.4463695469427
 20
127.3917913645799
 30
0.0
 10
137.1171300804179
 20
128.0628964078309
 30
0.0
 10
137.1171300804179
 20
128.8904088892933
 30
0.0
 10
137.1171300804179
 20
128.8904088892933
 30
0.0
 10
137.1171300804179
 20
128.8904088892933
 30
0.0
 10
137.1171300804179
 20
128.8904088892933
 30
0.0
 10
137.1171300804179
 20
128.8904088892933
 30
0.0
 10
137.1171300804179
 20
128.8904088892933
 30
0.0
 10
137.1171300804179
 20
128.8904088892933
 30
0.0
  0
ENDBLK
  5
DC
330
D9
100
AcDbEntity
  8
0
100
AcDbBlockEnd
  0
BLOCK
  5
E0
330
DE
100
AcDbEntity
  8
0
100
AcDbBlockBegin
  2
block 34
 70
     0
 71
     0
 10
0.0
 20
0.0
 30
0.0
  3
block 34
  1

  0
SPLINE
  5
E2
330
DE
100
AcDbEntity
  8
Fina
 62
     7
420
 16777215
370
     9
100
AcDbSpline
210
0.0
220
0.0
230
1.0
 70
    11
 71
     3
 72
    23
 73
    19
 74
     0
 42
0.0000000001
 43
0.0000000001
 40
0.0
 40
0.0
 40
0.0
 40
0.0
 40
1.0
 40
1.0
 40
1.0
 40
2.0
 40
2.0
 40
2.0
 40
3.0
 40
3.0
 40
3.0
 40
4.0
 40
4.0
 40
4.0
 40
5.0
 40
5.0
 40
5.0
 40
6.0
 40
6.0
 40
6.0
 40
6.0
 10
145.5355709617731
 20
128.8904088892933
 30
0.0
 10
145.5355709617731
 20
129.7182658805314
 30
0.0
 10
144.8644659185221
 20
130.3893709237824
 30
0.0
 10
144.0366089272839
 20
130.3893709237824
 30
0.0
 10
143.2090964458215
 20
130.3893709237824
 30
0.0
 10
142.5379914025706
 20
129.7182658805314
 30
0.0
 10
142.5379914025706
 20
128.8904088892933
 30
0.0
 10
142.5379914025706
 20
128.0628964078309
 30
0.0
 10
143.2090964458215
 20
127.3917913645799
 30
0.0
 10
144.0366089272839
 20
127.3917913645799
 30
0.0
 10
144.8644659185221
 20
127.3917913645799
 30
0.0
 10
145.5355709617731
 20
128.0628964078309
 30
0.0
 10
145.5355709617731
 20
128.8904088892933
 30
0.0
 10
145.5355709617731
 20
128.8904088892933
 30
0.0
 10
145.5355709617731
 20
128.8904088892933
 30
0.0
 10
145.5355709617731
 20
128.8904088892933
 30
0.0
 10
145.5355709617731
 20
128.8904088892933
 30
0.0
 10
145.5355709617731
 20
128.8904088892933
 30
0.0
 10
145.5355709617731
 20
128.8904088892933
 30
0.0
  0
ENDBLK
  5
E1
330
DE
100
AcDbEntity
  8
0
100
AcDbBlockEnd
  0
BLOCK
  5
E5
330
E3
100
AcDbEntity
  8
0
100
AcDbBlockBegin
  2
block 35
 70
     0
 71
     0
 10
0.0
 20
0.0
 30
0.0
  3
block 35
  1

  0
SPLINE
  5
E7
330
E3
100
AcDbEntity
  8
Fina
 62
     7
420
 16777215
370
     9
100
AcDbSpline
210
0.0
220
0.0
230
1.0
 70
    11
 71
     3
 72
    23
 73
    19
 74
     0
 42
0.0000000001
 43
0.0000000001
 40
0.0
 40
0.0
 40
0.0
 40
0.0
 40
1.0
 40
1.0
 40
1.0
 40
2.0
 40
2.0
 40
2.0
 40
3.0
 40
3.0
 40
3.0
 40
4.0
 40
4.0
 40
4.0
 40
5.0
 40
5.0
 40
5.0
 40
6.0
 40
6.0
 40
6.0
 40
6.0
 10
145.5355709617731
 20
120.5977140761037
 30
0.0
 10
145.5355709617731
 20
121.4252265575661
 30
0.0
 10
144.8644659185221
 20
122.096331600817
 30
0.0
 10
144.0366089272839
 20
122.096331600817
 30
0.0
 10
143.2090964458215
 20
122.096331600817
 30
0.0
 10
142.5379914025706
 20
121.4252265575661
 30
0.0
 10
142.5379914025706
 20
120.5977140761037
 30
0.0
 10
142.5379914025706
 20
119.7698570848655
 30
0.0
 10
143.2090964458215
 20
119.0987520416145
 30
0.0
 10
144.0366089272839
 20
119.0987520416145
 30
0.0
 10
144.8644659185221
 20
119.0987520416145
 30
0.0
 10
145.5355709617731
 20
119.7698570848655
 30
0.0
 10
145.5355709617731
 20
120.5977140761037
 30
0.0
 10
145.5355709617731
 20
120.5977140761037
 30
0.0
 10
145.5355709617731
 20
120.5977140761037
 30
0.0
 10
145.5355709617731
 20
120.5977140761037
 30
0.0
 10
145.5355709617731
 20
120.5977140761037
 30
0.0
 10
145.5355709617731
 20
120.5977140761037
 30
0.0
 10
145.5355709617731
 20
120.5977140761037
 30
0.0
  0
ENDBLK
  5
E6
330
E3
100
AcDbEntity
  8
0
100
AcDbBlockEnd
  0
BLOCK
  5
EA
330
E8
100
AcDbEntity
  8
0
100
AcDbBlockBegin
  2
block 36
 70
     0
 71
     0
 10
0.0
 20
0.0
 30
0.0
  3
block 36
  1

  0
SPLINE
  5
EC
330
E8
100
AcDbEntity
  8
Fina
 62
     7
420
 16777215
370
     9
100
AcDbSpline
210
0.0
220
0.0
230
1.0
 70
    11
 71
     3
 72
    23
 73
    19
 74
     0
 42
0.0000000001
 43
0.0000000001
 40
0.0
 40
0.0
 40
0.0
 40
0.0
 40
1.0
 40
1.0
 40
1.0
 40
2.0
 40
2.0
 40
2.0
 40
3.0
 40
3.0
 40
3.0
 40
4.0
 40
4.0
 40
4.0
 40
5.0
 40
5.0
 40
5.0
 40
6.0
 40
6.0
 40
6.0
 40
6.0
 10
137.1171300804179
 20
137.1834482122586
 30
0.0
 10
137.1171300804179
 20
138.0113052034968
 30
0.0
 10
136.4463695469427
 20
138.682065736972
 30
0.0
 10
135.6185125557045
 20
138.682065736972
 30
0.0
 10
134.7906555644663
 20
138.682065736972
 30
0.0
 10
134.1198950309912
 20
138.0113052034968
 30
0.0
 10
134.1198950309912
 20
137.1834482122586
 30
0.0
 10
134.1198950309912
 20
136.3555912210204
 30
0.0
 10
134.7906555644663
 20
135.6848306875453
 30
0.0
 10
135.6185125557045
 20
135.6848306875453
 30
0.0
 10
136.4463695469427
 20
135.6848306875453
 30
0.0
 10
137.1171300804179
 20
136.3555912210204
 30
0.0
 10
137.1171300804179
 20
137.1834482122586
 30
0.0
 10
137.1171300804179
 20
137.1834482122586
 30
0.0
 10
137.1171300804179
 20
137.1834482122586
 30
0.0
 10
137.1171300804179
 20
137.1834482122586
 30
0.0
 10
137.1171300804179
 20
137.1834482122586
 30
0.0
 10
137.1171300804179
 20
137.1834482122586
 30
0.0
 10
137.1171300804179
 20
137.1834482122586
 30
0.0
  0
ENDBLK
  5
EB
330
E8
100
AcDbEntity
  8
0
100
AcDbBlockEnd
  0
BLOCK
  5
EF
330
ED
100
AcDbEntity
  8
0
100
AcDbBlockBegin
  2
block 37
 70
     0
 71
     0
 10
0.0
 20
0.0
 30
0.0
  3
block 37
  1

  0
SPLINE
  5
F1
330
ED
100
AcDbEntity
  8
Fina
 62
     7
420
 16777215
370
     9
100
AcDbSpline
210
0.0
220
0.0
230
1.0
 70
    11
 71
     3
 72
    23
 73
    19
 74
     0
 42
0.0000000001
 43
0.0000000001
 40
0.0
 40
0.0
 40
0.0
 40
0.0
 40
1.0
 40
1.0
 40
1.0
 40
2.0
 40
2.0
 40
2.0
 40
3.0
 40
3.0
 40
3.0
 40
4.0
 40
4.0
 40
4.0
 40
5.0
 40
5.0
 40
5.0
 40
6.0
 40
6.0
 40
6.0
 40
6.0
 10
145.5355709617731
 20
137.1834482122586
 30
0.0
 10
145.5355709617731
 20
138.0113052034968
 30
0.0
 10
144.8644659185221
 20
138.682065736972
 30
0.0
 10
144.0366089272839
 20
138.682065736972
 30
0.0
 10
143.2090964458215
 20
138.682065736972
 30
0.0
 10
142.5379914025706
 20
138.0113052034968
 30
0.0
 10
142.5379914025706
 20
137.1834482122586
 30
0.0
 10
142.5379914025706
 20
136.3555912210204
 30
0.0
 10
143.2090964458215
 20
135.6848306875453
 30
0.0
 10
144.0366089272839
 20
135.6848306875453
 30
0.0
 10
144.8644659185221
 20
135.6848306875453
 30
0.0
 10
145.5355709617731
 20
136.3555912210204
 30
0.0
 10
145.5355709617731
 20
137.1834482122586
 30
0.0
 10
145.5355709617731
 20
137.1834482122586
 30
0.0
 10
145.5355709617731
 20
137.1834482122586
 30
0.0
 10
145.5355709617731
 20
137.1834482122586
 30
0.0
 10
145.5355709617731
 20
137.1834482122586
 30
0.0
 10
145.5355709617731
 20
137.1834482122586
 30
0.0
 10
145.5355709617731
 20
137.1834482122586
 30
0.0
  0
ENDBLK
  5
F0
330
ED
100
AcDbEntity
  8
0
100
AcDbBlockEnd
  0
BLOCK
  5
F4
330
F2
100
AcDbEntity
  8
0
100
AcDbBlockBegin
  2
block 38
 70
     0
 71
     0
 10
0.0
 20
0.0
 30
0.0
  3
block 38
  1

  0
SPLINE
  5
F6
330
F2
100
AcDbEntity
  8
Fina
 62
     7
420
 16777215
370
     9
100
AcDbSpline
210
0.0
220
0.0
230
1.0
 70
    11
 71
     3
 72
    23
 73
    19
 74
     0
 42
0.0000000001
 43
0.0000000001
 40
0.0
 40
0.0
 40
0.0
 40
0.0
 40
1.0
 40
1.0
 40
1.0
 40
2.0
 40
2.0
 40
2.0
 40
3.0
 40
3.0
 40
3.0
 40
4.0
 40
4.0
 40
4.0
 40
5.0
 40
5.0
 40
5.0
 40
6.0
 40
6.0
 40
6.0
 40
6.0
 10
120.5313959442629
 20
112.3046747531383
 30
0.0
 10
120.5313959442629
 20
113.1321872346007
 30
0.0
 10
119.860290901012
 20
113.8032922778516
 30
0.0
 10
119.0324339097738
 20
113.8032922778516
 30
0.0
 10
118.2049214283114
 20
113.8032922778516
 30
0.0
 10
117.5338163850604
 20
113.1321872346007
 30
0.0
 10
117.5338163850604
 20
112.3046747531383
 30
0.0
 10
117.5338163850604
 20
111.4768177619001
 30
0.0
 10
118.2049214283114
 20
110.8057127186492
 30
0.0
 10
119.0324339097738
 20
110.8057127186492
 30
0.0
 10
119.860290901012
 20
110.8057127186492
 30
0.0
 10
120.5313959442629
 20
111.4768177619001
 30
0.0
 10
120.5313959442629
 20
112.3046747531383
 30
0.0
 10
120.5313959442629
 20
112.3046747531383
 30
0.0
 10
120.5313959442629
 20
112.3046747531383
 30
0.0
 10
120.5313959442629
 20
112.3046747531383
 30
0.0
 10
120.5313959442629
 20
112.3046747531383
 30
0.0
 10
120.5313959442629
 20
112.3046747531383
 30
0.0
 10
120.5313959442629
 20
112.3046747531383
 30
0.0
  0
ENDBLK
  5
F5
330
F2
100
AcDbEntity
  8
0
100
AcDbBlockEnd
  0
BLOCK
  5
F9
330
F7
100
AcDbEntity
  8
0
100
AcDbBlockBegin
  2
block 39
 70
     0
 71
     0
 10
0.0
 20
0.0
 30
0.0
  3
block 39
  1

  0
SPLINE
  5
FB
330
F7
100
AcDbEntity
  8
Fina
 62
     7
420
 16777215
370
     9
100
AcDbSpline
210
0.0
220
0.0
230
1.0
 70
    11
 71
     3
 72
    23
 73
    19
 74
     0
 42
0.0000000001
 43
0.0000000001
 40
0.0
 40
0.0
 40
0.0
 40
0.0
 40
1.0
 40
1.0
 40
1.0
 40
2.0
 40
2.0
 40
2.0
 40
3.0
 40
3.0
 40
3.0
 40
4.0
 40
4.0
 40
4.0
 40
5.0
 40
5.0
 40
5.0
 40
6.0
 40
6.0
 40
6.0
 40
6.0
 10
120.5313959442629
 20
120.5977140761037
 30
0.0
 10
120.5313959442629
 20
121.4252265575661
 30
0.0
 10
119.860290901012
 20
122.096331600817
 30
0.0
 10
119.0324339097738
 20
122.096331600817
 30
0.0
 10
118.2049214283114
 20
122.096331600817
 30
0.0
 10
117.5338163850604
 20
121.4252265575661
 30
0.0
 10
117.5338163850604
 20
120.5977140761037
 30
0.0
 10
117.5338163850604
 20
119.7698570848655
 30
0.0
 10
118.2049214283114
 20
119.0987520416145
 30
0.0
 10
119.0324339097738
 20
119.0987520416145
 30
0.0
 10
119.860290901012
 20
119.0987520416145
 30
0.0
 10
120.5313959442629
 20
119.7698570848655
 30
0.0
 10
120.5313959442629
 20
120.5977140761037
 30
0.0
 10
120.5313959442629
 20
120.5977140761037
 30
0.0
 10
120.5313959442629
 20
120.5977140761037
 30
0.0
 10
120.5313959442629
 20
120.5977140761037
 30
0.0
 10
120.5313959442629
 20
120.5977140761037
 30
0.0
 10
120.5313959442629
 20
120.5977140761037
 30
0.0
 10
120.5313959442629
 20
120.5977140761037
 30
0.0
  0
ENDBLK
  5
FA
330
F7
100
AcDbEntity
  8
0
100
AcDbBlockEnd
  0
BLOCK
  5
FE
330
FC
100
AcDbEntity
  8
0
100
AcDbBlockBegin
  2
block 40
 70
     0
 71
     0
 10
0.0
 20
0.0
 30
0.0
  3
block 40
  1

  0
SPLINE
  5
100
330
FC
100
AcDbEntity
  8
Fina
 62
     7
420
 16777215
370
     9
100
AcDbSpline
210
0.0
220
0.0
230
1.0
 70
    11
 71
     3
 72
    23
 73
    19
 74
     0
 42
0.0000000001
 43
0.0000000001
 40
0.0
 40
0.0
 40
0.0
 40
0.0
 40
1.0
 40
1.0
 40
1.0
 40
2.0
 40
2.0
 40
2.0
 40
3.0
 40
3.0
 40
3.0
 40
4.0
 40
4.0
 40
4.0
 40
5.0
 40
5.0
 40
5.0
 40
6.0
 40
6.0
 40
6.0
 40
6.0
 10
120.5313959442629
 20
128.8904088892933
 30
0.0
 10
120.5313959442629
 20
129.7182658805314
 30
0.0
 10
119.860290901012
 20
130.3893709237824
 30
0.0
 10
119.0324339097738
 20
130.3893709237824
 30
0.0
 10
118.2049214283114
 20
130.3893709237824
 30
0.0
 10
117.5338163850604
 20
129.7182658805314
 30
0.0
 10
117.5338163850604
 20
128.8904088892933
 30
0.0
 10
117.5338163850604
 20
128.0628964078309
 30
0.0
 10
118.2049214283114
 20
127.3917913645799
 30
0.0
 10
119.0324339097738
 20
127.3917913645799
 30
0.0
 10
119.860290901012
 20
127.3917913645799
 30
0.0
 10
120.5313959442629
 20
128.0628964078309
 30
0.0
 10
120.5313959442629
 20
128.8904088892933
 30
0.0
 10
120.5313959442629
 20
128.8904088892933
 30
0.0
 10
120.5313959442629
 20
128.8904088892933
 30
0.0
 10
120.5313959442629
 20
128.8904088892933
 30
0.0
 10
120.5313959442629
 20
128.8904088892933
 30
0.0
 10
120.5313959442629
 20
128.8904088892933
 30
0.0
 10
120.5313959442629
 20
128.8904088892933
 30
0.0
  0
ENDBLK
  5
FF
330
FC
100
AcDbEntity
  8
0
100
AcDbBlockEnd
  0
BLOCK
  5
103
330
101
100
AcDbEntity
  8
0
100
AcDbBlockBegin
  2
block 41
 70
     0
 71
     0
 10
0.0
 20
0.0
 30
0.0
  3
block 41
  1

  0
SPLINE
  5
105
330
101
100
AcDbEntity
  8
Fina
 62
     7
420
 16777215
370
     9
100
AcDbSpline
210
0.0
220
0.0
230
1.0
 70
    11
 71
     3
 72
    23
 73
    19
 74
     0
 42
0.0000000001
 43
0.0000000001
 40
0.0
 40
0.0
 40
0.0
 40
0.0
 40
1.0
 40
1.0
 40
1.0
 40
2.0
 40
2.0
 40
2.0
 40
3.0
 40
3.0
 40
3.0
 40
4.0
 40
4.0
 40
4.0
 40
5.0
 40
5.0
 40
5.0
 40
6.0
 40
6.0
 40
6.0
 40
6.0
 10
120.5313959442629
 20
137.1834482122586
 30
0.0
 10
120.5313959442629
 20
138.0113052034968
 30
0.0
 10
119.860290901012
 20
138.682065736972
 30
0.0
 10
119.0324339097738
 20
138.682065736972
 30
0.0
 10
118.2049214283114
 20
138.682065736972
 30
0.0
 10
117.5338163850604
 20
138.0113052034968
 30
0.0
 10
117.5338163850604
 20
137.1834482122586
 30
0.0
 10
117.5338163850604
 20
136.3555912210204
 30
0.0
 10
118.2049214283114
 20
135.6848306875453
 30
0.0
 10
119.0324339097738
 20
135.6848306875453
 30
0.0
 10
119.860290901012
 20
135.6848306875453
 30
0.0
 10
120.5313959442629
 20
136.3555912210204
 30
0.0
 10
120.5313959442629
 20
137.1834482122586
 30
0.0
 10
120.5313959442629
 20
137.1834482122586
 30
0.0
 10
120.5313959442629
 20
137.1834482122586
 30
0.0
 10
120.5313959442629
 20
137.1834482122586
 30
0.0
 10
120.5313959442629
 20
137.1834482122586
 30
0.0
 10
120.5313959442629
 20
137.1834482122586
 30
0.0
 10
120.5313959442629
 20
137.1834482122586
 30
0.0
  0
ENDBLK
  5
104
330
101
100
AcDbEntity
  8
0
100
AcDbBlockEnd
  0
BLOCK
  5
108
330
106
100
AcDbEntity
  8
0
100
AcDbBlockBegin
  2
block 42
 70
     0
 71
     0
 10
0.0
 20
0.0
 30
0.0
  3
block 42
  1

  0
SPLINE
  5
10A
330
106
100
AcDbEntity
  8
Fina
 62
     7
420
 16777215
370
     9
100
AcDbSpline
210
0.0
220
0.0
230
1.0
 70
     8
 71
     3
 72
    14
 73
    10
 74
     0
 42
0.0000000001
 43
0.0000000001
 40
0.0
 40
0.0
 40
0.0
 40
0.0
 40
1.0
 40
1.0
 40
1.0
 40
2.0
 40
2.0
 40
2.0
 40
3.0
 40
3.0
 40
3.0
 40
3.0
 10
114.0621913743625
 20
97.21721363192088
 30
0.0
 10
116.6005394024286
 20
97.21721363192088
 30
0.0
 10
118.6582962932592
 20
99.2749705227514
 30
0.0
 10
118.6582962932592
 20
101.8133185508176
 30
0.0
 10
118.6582962932592
 20
104.3516665788838
 30
0.0
 10
116.6005394024286
 20
106.4094234697143
 30
0.0
 10
114.0621913743625
 20
106.4094234697143
 30
0.0
 10
114.0621913743625
 20
106.4094234697143
 30
0.0
 10
114.0621913743625
 20
106.4094234697143
 30
0.0
 10
114.0621913743625
 20
106.4094234697143
 30
0.0
  0
ENDBLK
  5
109
330
106
100
AcDbEntity
  8
0
100
AcDbBlockEnd
  0
BLOCK
  5
10D
330
10B
100
AcDbEntity
  8
0
100
AcDbBlockBegin
  2
block 43
 70
     0
 71
     0
 10
0.0
 20
0.0
 30
0.0
  3
block 43
  1

  0
SPLINE
  5
10F
330
10B
100
AcDbEntity
  8
Fina
 62
     7
420
 16777215
370
     9
100
AcDbSpline
210
0.0
220
0.0
230
1.0
 70
     8
 71
     3
 72
    14
 73
    10
 74
     0
 42
0.0000000001
 43
0.0000000001
 40
0.0
 40
0.0
 40
0.0
 40
0.0
 40
1.0
 40
1.0
 40
1.0
 40
2.0
 40
2.0
 40
2.0
 40
3.0
 40
3.0
 40
3.0
 40
3.0
 10
114.0621913743625
 20
106.4094234697143
 30
0.0
 10
111.5238433462963
 20
106.4094234697143
 30
0.0
 10
109.4660864554658
 20
104.3516665788838
 30
0.0
 10
109.4660864554658
 20
101.8133185508176
 30
0.0
 10
109.4660864554658
 20
99.2749705227514
 30
0.0
 10
111.5238433462963
 20
97.21721363192088
 30
0.0
 10
114.0621913743625
 20
97.21721363192088
 30
0.0
 10
114.0621913743625
 20
97.21721363192088
 30
0.0
 10
114.0621913743625
 20
97.21721363192088
 30
0.0
 10
114.0621913743625
 20
97.21721363192088
 30
0.0
  0
ENDBLK
  5
10E
330
10B
100
AcDbEntity
  8
0
100
AcDbBlockEnd
  0
BLOCK
  5
113
330
111
100
AcDbEntity
  8
0
100
AcDbBlockBegin
  2
block 44
 70
     0
 71
     0
 10
0.0
 20
0.0
 30
0.0
  3
block 44
  1

  0
POLYLINE
  5
115
330
111
100
AcDbEntity
  8
SOMBREA
370
     0
100
AcDb2dPolyline
 66
     1
 10
0.0
 20
0.0
 30
0.0
  0
VERTEX
  5
116
330
115
100
AcDbEntity
  8
SOMBREA
370
     0
100
AcDbVertex
100
AcDb2dVertex
 10
77.802020707152
 20
196.9238549037449
 30
0.0
  0
VERTEX
  5
117
330
115
100
AcDbEntity
  8
SOMBREA
370
     0
100
AcDbVertex
100
AcDb2dVertex
 10
77.64251268095838
 20
197.4233940786493
 30
0.0
  0
VERTEX
  5
118
330
115
100
AcDbEntity
  8
SOMBREA
370
     0
100
AcDbVertex
100
AcDb2dVertex
 10
76.5516224758998
 20
197.4233940786493
 30
0.0
  0
VERTEX
  5
119
330
115
100
AcDbEntity
  8
SOMBREA
370
     0
100
AcDbVertex
100
AcDb2dVertex
 10
76.9560769526845
 20
195.8398548942022
 30
0.0
  0
VERTEX
  5
11A
330
115
100
AcDbEntity
  8
SOMBREA
370
     0
100
AcDbVertex
100
AcDb2dVertex
 10
76.65652570262974
 20
195.5294515862099
 30
0.0
  0
VERTEX
  5
11B
330
115
100
AcDbEntity
  8
SOMBREA
370
     0
100
AcDbVertex
100
AcDb2dVertex
 10
76.20573466100045
 20
195.5294515862099
 30
0.0
  0
VERTEX
  5
11C
330
115
100
AcDbEntity
  8
SOMBREA
370
     0
100
AcDbVertex
100
AcDb2dVertex
 10
75.23301130903997
 20
195.3909586563398
 30
0.0
  0
VERTEX
  5
11D
330
115
100
AcDbEntity
  8
SOMBREA
370
     0
100
AcDbVertex
100
AcDb2dVertex
 10
75.23301130903997
 20
194.3508836432112
 30
0.0
  0
VERTEX
  5
11E
330
115
100
AcDbEntity
  8
SOMBREA
370
     0
100
AcDbVertex
100
AcDb2dVertex
 10
76.24139142279535
 20
194.5479432349666
 30
0.0
  0
VERTEX
  5
11F
330
115
100
AcDbEntity
  8
SOMBREA
370
     0
100
AcDbVertex
100
AcDb2dVertex
 10
81.18441768591877
 20
194.4776632407042
 30
0.0
  0
VERTEX
  5
120
330
115
100
AcDbEntity
  8
SOMBREA
370
     0
100
AcDbVertex
100
AcDb2dVertex
 10
81.18441768591877
 20
195.7762928405679
 30
0.0
  0
VERTEX
  5
121
330
115
100
AcDbEntity
  8
SOMBREA
370
     0
100
AcDbVertex
100
AcDb2dVertex
 10
79.2310472571545
 20
195.804714897071
 30
0.0
  0
VERTEX
  5
122
330
115
100
AcDbEntity
  8
SOMBREA
370
     0
100
AcDbVertex
100
AcDb2dVertex
 10
77.802020707152
 20
196.9238549037449
 30
0.0
  0
SEQEND
  5
123
330
115
100
AcDbEntity
  8
SOMBREA
370
     0
  0
HATCH
  5
124
330
111
100
AcDbEntity
  8
SOMBREA
 62
     7
420
 16777215
100
AcDbHatch
 10
0.0
 20
0.0
 30
0.0
210
0.0
220
0.0
230
1.0
  2
SOLID
 70
     1
 71
     0
 91
        1
 92
        1
 93
       12
 72
     1
 10
77.802020707152
 20
196.9238549037449
 11
77.64251268095838
 21
197.4233940786493
 72
     1
 10
77.64251268095838
 20
197.4233940786493
 11
76.5516224758998
 21
197.4233940786493
 72
     1
 10
76.5516224758998
 20
197.4233940786493
 11
76.9560769526845
 21
195.8398548942022
 72
     1
 10
76.9560769526845
 20
195.8398548942022
 11
76.65652570262974
 21
195.5294515862099
 72
     1
 10
76.65652570262974
 20
195.5294515862099
 11
76.20573466100045
 21
195.5294515862099
 72
     1
 10
76.20573466100045
 20
195.5294515862099
 11
75.23301130903997
 21
195.3909586563398
 72
     1
 10
75.23301130903997
 20
195.3909586563398
 11
75.23301130903997
 21
194.3508836432112
 72
     1
 10
75.23301130903997
 20
194.3508836432112
 11
76.24139142279535
 21
194.5479432349666
 72
     1
 10
76.24139142279535
 20
194.5479432349666
 11
81.18441768591877
 21
194.4776632407042
 72
     1
 10
81.18441768591877
 20
194.4776632407042
 11
81.18441768591877
 21
195.7762928405679
 72
     1
 10
81.18441768591877
 20
195.7762928405679
 11
79.2310472571545
 21
195.804714897071
 72
     1
 10
79.2310472571545
 20
195.804714897071
 11
77.802020707152
 21
196.9238549037449
 97
        0
 75
     0
 76
     1
 98
        0
  0
ENDBLK
  5
114
330
111
100
AcDbEntity
  8
0
100
AcDbBlockEnd
  0
BLOCK
  5
127
330
125
100
AcDbEntity
  8
0
100
AcDbBlockBegin
  2
block 45
 70
     0
 71
     0
 10
0.0
 20
0.0
 30
0.0
  3
block 45
  1

  0
POLYLINE
  5
129
330
125
100
AcDbEntity
  8
SOMBREA
370
     0
100
AcDb2dPolyline
 66
     1
 10
0.0
 20
0.0
 30
0.0
  0
VERTEX
  5
12A
330
129
100
AcDbEntity
  8
SOMBREA
370
     0
100
AcDbVertex
100
AcDb2dVertex
 10
70.12151976555221
 20
200.9301590864785
 30
0.0
  0
VERTEX
  5
12B
330
129
100
AcDbEntity
  8
SOMBREA
370
     0
100
AcDbVertex
100
AcDb2dVertex
 10
74.46458225412661
 20
200.3291617826021
 30
0.0
  0
VERTEX
  5
12C
330
129
100
AcDbEntity
  8
SOMBREA
370
     0
100
AcDbVertex
100
AcDb2dVertex
 10
77.64251268095838
 20
197.4233940786493
 30
0.0
  0
VERTEX
  5
12D
330
129
100
AcDbEntity
  8
SOMBREA
370
     0
100
AcDbVertex
100
AcDb2dVertex
 10
76.5516224758998
 20
197.4233940786493
 30
0.0
  0
VERTEX
  5
12E
330
129
100
AcDbEntity
  8
SOMBREA
370
     0
100
AcDbVertex
100
AcDb2dVertex
 10
74.19276404102344
 20
199.3671182336913
 30
0.0
  0
VERTEX
  5
12F
330
129
100
AcDbEntity
  8
SOMBREA
370
     0
100
AcDbVertex
100
AcDb2dVertex
 10
70.6260543322057
 20
199.9222957373868
 30
0.0
  0
VERTEX
  5
130
330
129
100
AcDbEntity
  8
SOMBREA
370
     0
100
AcDbVertex
100
AcDb2dVertex
 10
70.2128148561382
 20
199.5300713576429
 30
0.0
  0
VERTEX
  5
131
330
129
100
AcDbEntity
  8
SOMBREA
370
     0
100
AcDbVertex
100
AcDb2dVertex
 10
70.1762968199038
 20
197.4233940786493
 30
0.0
  0
VERTEX
  5
132
330
129
100
AcDbEntity
  8
SOMBREA
370
     0
100
AcDbVertex
100
AcDb2dVertex
 10
69.17652945054331
 20
197.4233940786493
 30
0.0
  0
VERTEX
  5
133
330
129
100
AcDbEntity
  8
SOMBREA
370
     0
100
AcDbVertex
100
AcDb2dVertex
 10
69.22252150561211
 20
200.0306440618747
 30
0.0
  0
VERTEX
  5
134
330
129
100
AcDbEntity
  8
SOMBREA
370
     0
100
AcDbVertex
100
AcDb2dVertex
 10
70.12151976555221
 20
200.9301590864785
 30
0.0
  0
SEQEND
  5
135
330
129
100
AcDbEntity
  8
SOMBREA
370
     0
  0
HATCH
  5
136
330
125
100
AcDbEntity
  8
SOMBREA
 62
     7
420
 16777215
100
AcDbHatch
 10
0.0
 20
0.0
 30
0.0
210
0.0
220
0.0
230
1.0
  2
SOLID
 70
     1
 71
     0
 91
        1
 92
        1
 93
       10
 72
     1
 10
70.12151976555221
 20
200.9301590864785
 11
74.46458225412661
 21
200.3291617826021
 72
     1
 10
74.46458225412661
 20
200.3291617826021
 11
77.64251268095838
 21
197.4233940786493
 72
     1
 10
77.64251268095838
 20
197.4233940786493
 11
76.5516224758998
 21
197.4233940786493
 72
     1
 10
76.5516224758998
 20
197.4233940786493
 11
74.19276404102344
 21
199.3671182336913
 72
     1
 10
74.19276404102344
 20
199.3671182336913
 11
70.6260543322057
 21
199.9222957373868
 72
     1
 10
70.6260543322057
 20
199.9222957373868
 11
70.2128148561382
 21
199.5300713576429
 72
     1
 10
70.2128148561382
 20
199.5300713576429
 11
70.1762968199038
 21
197.4233940786493
 72
     1
 10
70.1762968199038
 20
197.4233940786493
 11
69.17652945054331
 21
197.4233940786493
 72
     1
 10
69.17652945054331
 20
197.4233940786493
 11
69.22252150561211
 21
200.0306440618747
 72
     1
 10
69.22252150561211
 20
200.0306440618747
 11
70.12151976555221
 21
200.9301590864785
 97
        0
 75
     0
 76
     1
 98
        0
  0
ENDBLK
  5
128
330
125
100
AcDbEntity
  8
0
100
AcDbBlockEnd
  0
BLOCK
  5
139
330
137
100
AcDbEntity
  8
0
100
AcDbBlockBegin
  2
block 46
 70
     0
 71
     0
 10
0.0
 20
0.0
 30
0.0
  3
block 46
  1

  0
POLYLINE
  5
13B
330
137
100
AcDbEntity
  8
SOMBREA
370
     0
100
AcDb2dPolyline
 66
     1
 10
0.0
 20
0.0
 30
0.0
  0
VERTEX
  5
13C
330
13B
100
AcDbEntity
  8
SOMBREA
370
     0
100
AcDbVertex
100
AcDb2dVertex
 10
75.23301130903997
 20
195.3909586563398
 30
0.0
  0
VERTEX
  5
13D
330
13B
100
AcDbEntity
  8
SOMBREA
370
     0
100
AcDbVertex
100
AcDb2dVertex
 10
75.23301130903997
 20
194.3508836432112
 30
0.0
  0
VERTEX
  5
13E
330
13B
100
AcDbEntity
  8
SOMBREA
370
     0
100
AcDbVertex
100
AcDb2dVertex
 10
73.83809122684127
 20
192.8462371974214
 30
0.0
  0
VERTEX
  5
13F
330
13B
100
AcDbEntity
  8
SOMBREA
370
     0
100
AcDbVertex
100
AcDb2dVertex
 10
73.2698223516655
 20
192.4383376228788
 30
0.0
  0
VERTEX
  5
140
330
13B
100
AcDbEntity
  8
SOMBREA
370
     0
100
AcDbVertex
100
AcDb2dVertex
 10
69.6996675450898
 20
192.4383376228788
 30
0.0
  0
VERTEX
  5
141
330
13B
100
AcDbEntity
  8
SOMBREA
370
     0
100
AcDbVertex
100
AcDb2dVertex
 10
69.10056504498026
 20
193.0589719839756
 30
0.0
  0
VERTEX
  5
142
330
13B
100
AcDbEntity
  8
SOMBREA
370
     0
100
AcDbVertex
100
AcDb2dVertex
 10
69.17652945054331
 20
197.4233940786493
 30
0.0
  0
VERTEX
  5
143
330
13B
100
AcDbEntity
  8
SOMBREA
370
     0
100
AcDbVertex
100
AcDb2dVertex
 10
70.1762968199038
 20
197.4233940786493
 30
0.0
  0
VERTEX
  5
144
330
13B
100
AcDbEntity
  8
SOMBREA
370
     0
100
AcDbVertex
100
AcDb2dVertex
 10
70.11859143245793
 20
194.1243684656252
 30
0.0
  0
VERTEX
  5
145
330
13B
100
AcDbEntity
  8
SOMBREA
370
     0
100
AcDbVertex
100
AcDb2dVertex
 10
70.41814268251271
 20
193.8191328042698
 30
0.0
  0
VERTEX
  5
146
330
13B
100
AcDbEntity
  8
SOMBREA
370
     0
100
AcDbVertex
100
AcDb2dVertex
 10
73.04296266430372
 20
193.8191328042698
 30
0.0
  0
VERTEX
  5
147
330
13B
100
AcDbEntity
  8
SOMBREA
370
     0
100
AcDbVertex
100
AcDb2dVertex
 10
73.29428254574702
 20
193.9546974010456
 30
0.0
  0
VERTEX
  5
148
330
13B
100
AcDbEntity
  8
SOMBREA
370
     0
100
AcDbVertex
100
AcDb2dVertex
 10
75.23301130903997
 20
195.3909586563398
 30
0.0
  0
SEQEND
  5
149
330
13B
100
AcDbEntity
  8
SOMBREA
370
     0
  0
HATCH
  5
14A
330
137
100
AcDbEntity
  8
SOMBREA
 62
     7
420
 16777215
100
AcDbHatch
 10
0.0
 20
0.0
 30
0.0
210
0.0
220
0.0
230
1.0
  2
SOLID
 70
     1
 71
     0
 91
        1
 92
        1
 93
       12
 72
     1
 10
75.23301130903997
 20
195.3909586563398
 11
75.23301130903997
 21
194.3508836432112
 72
     1
 10
75.23301130903997
 20
194.3508836432112
 11
73.83809122684127
 21
192.8462371974214
 72
     1
 10
73.83809122684127
 20
192.8462371974214
 11
73.2698223516655
 21
192.4383376228788
 72
     1
 10
73.2698223516655
 20
192.4383376228788
 11
69.6996675450898
 21
192.4383376228788
 72
     1
 10
69.6996675450898
 20
192.4383376228788
 11
69.10056504498026
 21
193.0589719839756
 72
     1
 10
69.10056504498026
 20
193.0589719839756
 11
69.17652945054331
 21
197.4233940786493
 72
     1
 10
69.17652945054331
 20
197.4233940786493
 11
70.1762968199038
 21
197.4233940786493
 72
     1
 10
70.1762968199038
 20
197.4233940786493
 11
70.11859143245793
 21
194.1243684656252
 72
     1
 10
70.11859143245793
 20
194.1243684656252
 11
70.41814268251271
 21
193.8191328042698
 72
     1
 10
70.41814268251271
 20
193.8191328042698
 11
73.04296266430372
 21
193.8191328042698
 72
     1
 10
73.04296266430372
 20
193.8191328042698
 11
73.29428254574702
 21
193.9546974010456
 72
     1
 10
73.29428254574702
 20
193.9546974010456
 11
75.23301130903997
 21
195.3909586563398
 97
        0
 75
     0
 76
     1
 98
        0
  0
ENDBLK
  5
13A
330
137
100
AcDbEntity
  8
0
100
AcDbBlockEnd
  0
BLOCK
  5
14D
330
14B
100
AcDbEntity
  8
0
100
AcDbBlockBegin
  2
block 47
 70
     0
 71
     0
 10
0.0
 20
0.0
 30
0.0
  3
block 47
  1

  0
SPLINE
  5
14F
330
14B
100
AcDbEntity
  8
SOMBREA
370
     0
100
AcDbSpline
210
0.0
220
0.0
230
1.0
 70
    11
 71
     3
 72
    71
 73
    67
 74
     0
 42
0.0000000001
 43
0.0000000001
 40
0.0
 40
0.0
 40
0.0
 40
0.0
 40
1.0
 40
1.0
 40
1.0
 40
2.0
 40
2.0
 40
2.0
 40
3.0
 40
3.0
 40
3.0
 40
4.0
 40
4.0
 40
4.0
 40
5.0
 40
5.0
 40
5.0
 40
6.0
 40
6.0
 40
6.0
 40
7.0
 40
7.0
 40
7.0
 40
8.0
 40
8.0
 40
8.0
 40
9.0
 40
9.0
 40
9.0
 40
10.0
 40
10.0
 40
10.0
 40
11.0
 40
11.0
 40
11.0
 40
12.0
 40
12.0
 40
12.0
 40
13.0
 40
13.0
 40
13.0
 40
14.0
 40
14.0
 40
14.0
 40
15.0
 40
15.0
 40
15.0
 40
16.0
 40
16.0
 40
16.0
 40
17.0
 40
17.0
 40
17.0
 40
18.0
 40
18.0
 40
18.0
 40
19.0
 40
19.0
 40
19.0
 40
20.0
 40
20.0
 40
20.0
 40
21.0
 40
21.0
 40
21.0
 40
22.0
 40
22.0
 40
22.0
 40
22.0
 10
108.8621608184951
 20
195.3139607214494
 30
0.0
 10
108.8621608184951
 20
195.3139607214494
 30
0.0
 10
81.18441768591877
 20
195.7762928405679
 30
0.0
 10
81.18441768591877
 20
195.7762928405679
 30
0.0
 10
81.18441768591877
 20
195.7762928405679
 30
0.0
 10
81.18441768591877
 20
195.7762928405679
 30
0.0
 10
81.18441768591877
 20
195.7762928405679
 30
0.0
 10
81.18441768591877
 20
195.7762928405679
 30
0.0
 10
81.18441768591877
 20
194.4776632407042
 30
0.0
 10
81.18441768591877
 20
194.4776632407042
 30
0.0
 10
81.18441768591877
 20
194.4776632407042
 30
0.0
 10
81.18441768591877
 20
194.4776632407042
 30
0.0
 10
81.18441768591877
 20
194.4776632407042
 30
0.0
 10
81.18441768591877
 20
194.4776632407042
 30
0.0
 10
108.8283988604671
 20
194.0093022005093
 30
0.0
 10
108.8283988604671
 20
194.0093022005093
 30
0.0
 10
108.8283988604671
 20
194.0093022005093
 30
0.0
 10
108.8283988604671
 20
194.0093022005093
 30
0.0
 10
108.8283988604671
 20
194.0093022005093
 30
0.0
 10
108.8938557178683
 20
194.0170536704647
 30
0.0
 10
108.9724039467499
 20
193.9770905364724
 30
0.0
 10
109.0051323754505
 20
193.9205909332418
 30
0.0
 10
109.0051323754505
 20
193.9205909332418
 30
0.0
 10
109.0051323754505
 20
193.9205909332418
 30
0.0
 10
109.0051323754505
 20
193.9205909332418
 30
0.0
 10
109.0051323754505
 20
193.9205909332418
 30
0.0
 10
109.6104360515244
 20
192.9759451280087
 30
0.0
 10
109.6104360515244
 20
192.9759451280087
 30
0.0
 10
109.6104360515244
 20
192.9759451280087
 30
0.0
 10
109.6104360515244
 20
192.9759451280087
 30
0.0
 10
109.6104360515244
 20
192.9759451280087
 30
0.0
 10
109.6104360515244
 20
192.9759451280087
 30
0.0
 10
109.6104360515244
 20
192.4383376228788
 30
0.0
 10
109.6104360515244
 20
192.4383376228788
 30
0.0
 10
109.6104360515244
 20
192.4383376228788
 30
0.0
 10
109.6104360515244
 20
192.4383376228788
 30
0.0
 10
109.6104360515244
 20
192.4383376228788
 30
0.0
 10
109.6104360515244
 20
192.4383376228788
 30
0.0
 10
110.9147500626887
 20
192.4383376228788
 30
0.0
 10
110.9147500626887
 20
192.4383376228788
 30
0.0
 10
110.9147500626887
 20
192.4383376228788
 30
0.0
 10
110.9147500626887
 20
192.4383376228788
 30
0.0
 10
110.9147500626887
 20
192.4383376228788
 30
0.0
 10
110.9147500626887
 20
192.4383376228788
 30
0.0
 10
110.9147500626887
 20
193.212106579317
 30
0.0
 10
110.9147500626887
 20
193.212106579317
 30
0.0
 10
110.9147500626887
 20
193.212106579317
 30
0.0
 10
110.9147500626887
 20
193.212106579317
 30
0.0
 10
110.9147500626887
 20
193.212106579317
 30
0.0
 10
110.9195731995498
 20
193.2922051021896
 30
0.0
 10
110.8830551633154
 20
193.4170898959157
 30
0.0
 10
110.8355128142555
 20
193.4815132239896
 30
0.0
 10
110.8355128142555
 20
193.4815132239896
 30
0.0
 10
110.8355128142555
 20
193.4815132239896
 30
0.0
 10
110.8355128142555
 20
193.4815132239896
 30
0.0
 10
110.8355128142555
 20
193.4815132239896
 30
0.0
 10
110.1027405211371
 20
194.6249411698571
 30
0.0
 10
110.1027405211371
 20
194.6249411698571
 30
0.0
 10
110.1027405211371
 20
194.6249411698571
 30
0.0
 10
110.1027405211371
 20
194.6249411698571
 30
0.0
 10
110.1027405211371
 20
194.6249411698571
 30
0.0
 10
109.8760530886632
 20
195.0231944706774
 30
0.0
 10
109.320358820304
 20
195.3323919944545
 30
0.0
 10
108.8621608184951
 20
195.3139607214494
 30
0.0
 10
108.8621608184951
 20
195.3139607214494
 30
0.0
 10
108.8621608184951
 20
195.3139607214494
 30
0.0
 10
108.8621608184951
 20
195.3139607214494
 30
0.0
  0
SPLINE
  5
150
330
14B
100
AcDbEntity
  8
SOMBREA
370
     0
100
AcDbSpline
210
0.0
220
0.0
230
1.0
 70
    11
 71
     3
 72
    71
 73
    67
 74
     0
 42
0.0000000001
 43
0.0000000001
 40
0.0
 40
0.0
 40
0.0
 40
0.0
 40
1.0
 40
1.0
 40
1.0
 40
2.0
 40
2.0
 40
2.0
 40
3.0
 40
3.0
 40
3.0
 40
4.0
 40
4.0
 40
4.0
 40
5.0
 40
5.0
 40
5.0
 40
6.0
 40
6.0
 40
6.0
 40
7.0
 40
7.0
 40
7.0
 40
8.0
 40
8.0
 40
8.0
 40
9.0
 40
9.0
 40
9.0
 40
10.0
 40
10.0
 40
10.0
 40
11.0
 40
11.0
 40
11.0
 40
12.0
 40
12.0
 40
12.0
 40
13.0
 40
13.0
 40
13.0
 40
14.0
 40
14.0
 40
14.0
 40
15.0
 40
15.0
 40
15.0
 40
16.0
 40
16.0
 40
16.0
 40
17.0
 40
17.0
 40
17.0
 40
18.0
 40
18.0
 40
18.0
 40
19.0
 40
19.0
 40
19.0
 40
20.0
 40
20.0
 40
20.0
 40
21.0
 40
21.0
 40
21.0
 40
22.0
 40
22.0
 40
22.0
 40
22.0
 10
146.9397928079183
 20
195.7762928405679
 30
0.0
 10
146.9397928079183
 20
195.7762928405679
 30
0.0
 10
119.2622219302298
 20
195.3139607214494
 30
0.0
 10
119.2622219302298
 20
195.3139607214494
 30
0.0
 10
119.2622219302298
 20
195.3139607214494
 30
0.0
 10
119.2622219302298
 20
195.3139607214494
 30
0.0
 10
119.2622219302298
 20
195.3139607214494
 30
0.0
 10
118.8040239284209
 20
195.3323919944545
 30
0.0
 10
118.2483296600617
 20
195.0231944706774
 30
0.0
 10
118.021297717812
 20
194.6249411698571
 30
0.0
 10
118.021297717812
 20
194.6249411698571
 30
0.0
 10
118.021297717812
 20
194.6249411698571
 30
0.0
 10
118.021297717812
 20
194.6249411698571
 30
0.0
 10
118.021297717812
 20
194.6249411698571
 30
0.0
 10
117.2885254246936
 20
193.4815132239896
 30
0.0
 10
117.2885254246936
 20
193.4815132239896
 30
0.0
 10
117.2885254246936
 20
193.4815132239896
 30
0.0
 10
117.2885254246936
 20
193.4815132239896
 30
0.0
 10
117.2885254246936
 20
193.4815132239896
 30
0.0
 10
117.2413275854095
 20
193.4170898959157
 30
0.0
 10
117.2048095491751
 20
193.2922051021896
 30
0.0
 10
117.2096326860363
 20
193.212106579317
 30
0.0
 10
117.2096326860363
 20
193.212106579317
 30
0.0
 10
117.2096326860363
 20
193.212106579317
 30
0.0
 10
117.2096326860363
 20
193.212106579317
 30
0.0
 10
117.2096326860363
 20
193.212106579317
 30
0.0
 10
117.2096326860363
 20
192.4383376228788
 30
0.0
 10
117.2096326860363
 20
192.4383376228788
 30
0.0
 10
117.2096326860363
 20
192.4383376228788
 30
0.0
 10
117.2096326860363
 20
192.4383376228788
 30
0.0
 10
117.2096326860363
 20
192.4383376228788
 30
0.0
 10
117.2096326860363
 20
192.4383376228788
 30
0.0
 10
118.5136021874248
 20
192.4383376228788
 30
0.0
 10
118.5136021874248
 20
192.4383376228788
 30
0.0
 10
118.5136021874248
 20
192.4383376228788
 30
0.0
 10
118.5136021874248
 20
192.4383376228788
 30
0.0
 10
118.5136021874248
 20
192.4383376228788
 30
0.0
 10
118.5136021874248
 20
192.4383376228788
 30
0.0
 10
118.5136021874248
 20
192.9759451280087
 30
0.0
 10
118.5136021874248
 20
192.9759451280087
 30
0.0
 10
118.5136021874248
 20
192.9759451280087
 30
0.0
 10
118.5136021874248
 20
192.9759451280087
 30
0.0
 10
118.5136021874248
 20
192.9759451280087
 30
0.0
 10
118.5136021874248
 20
192.9759451280087
 30
0.0
 10
119.1192503732744
 20
193.9205909332418
 30
0.0
 10
119.1192503732744
 20
193.9205909332418
 30
0.0
 10
119.1192503732744
 20
193.9205909332418
 30
0.0
 10
119.1192503732744
 20
193.9205909332418
 30
0.0
 10
119.1192503732744
 20
193.9205909332418
 30
0.0
 10
119.1461221357865
 20
193.9672720078622
 30
0.0
 10
119.211234483412
 20
194.0074073967424
 30
0.0
 10
119.2649780084362
 20
194.0093022005093
 30
0.0
 10
119.2649780084362
 20
194.0093022005093
 30
0.0
 10
119.2649780084362
 20
194.0093022005093
 30
0.0
 10
119.2649780084362
 20
194.0093022005093
 30
0.0
 10
119.2649780084362
 20
194.0093022005093
 30
0.0
 10
146.9397928079183
 20
194.4776632407042
 30
0.0
 10
146.9397928079183
 20
194.4776632407042
 30
0.0
 10
146.9397928079183
 20
194.4776632407042
 30
0.0
 10
146.9397928079183
 20
194.4776632407042
 30
0.0
 10
146.9397928079183
 20
194.4776632407042
 30
0.0
 10
146.9397928079183
 20
194.4776632407042
 30
0.0
 10
146.9397928079183
 20
195.7762928405679
 30
0.0
 10
146.9397928079183
 20
195.7762928405679
 30
0.0
 10
146.9397928079183
 20
195.7762928405679
 30
0.0
 10
146.9397928079183
 20
195.7762928405679
 30
0.0
 10
146.9397928079183
 20
195.7762928405679
 30
0.0
  0
HATCH
  5
151
330
14B
100
AcDbEntity
  8
SOMBREA
 62
     7
420
 16777215
100
AcDbHatch
 10
0.0
 20
0.0
 30
0.0
210
0.0
220
0.0
230
1.0
  2
SOLID
 70
     1
 71
     0
 91
        2
 92
        1
 93
        1
 72
     4
 94
        3
 73
     0
 74
     1
 95
       71
 96
       67
 40
0.0
 40
0.0
 40
0.0
 40
0.0
 40
1.0
 40
1.0
 40
1.0
 40
2.0
 40
2.0
 40
2.0
 40
3.0
 40
3.0
 40
3.0
 40
4.0
 40
4.0
 40
4.0
 40
5.0
 40
5.0
 40
5.0
 40
6.0
 40
6.0
 40
6.0
 40
7.0
 40
7.0
 40
7.0
 40
8.0
 40
8.0
 40
8.0
 40
9.0
 40
9.0
 40
9.0
 40
10.0
 40
10.0
 40
10.0
 40
11.0
 40
11.0
 40
11.0
 40
12.0
 40
12.0
 40
12.0
 40
13.0
 40
13.0
 40
13.0
 40
14.0
 40
14.0
 40
14.0
 40
15.0
 40
15.0
 40
15.0
 40
16.0
 40
16.0
 40
16.0
 40
17.0
 40
17.0
 40
17.0
 40
18.0
 40
18.0
 40
18.0
 40
19.0
 40
19.0
 40
19.0
 40
20.0
 40
20.0
 40
20.0
 40
21.0
 40
21.0
 40
21.0
 40
22.0
 40
22.0
 40
22.0
 40
22.0
 10
108.8621608184951
 20
195.3139607214494
 10
108.8621608184951
 20
195.3139607214494
 10
81.18441768591877
 20
195.7762928405679
 10
81.18441768591877
 20
195.7762928405679
 10
81.18441768591877
 20
195.7762928405679
 10
81.18441768591877
 20
195.7762928405679
 10
81.18441768591877
 20
195.7762928405679
 10
81.18441768591877
 20
195.7762928405679
 10
81.18441768591877
 20
194.4776632407042
 10
81.18441768591877
 20
194.4776632407042
 10
81.18441768591877
 20
194.4776632407042
 10
81.18441768591877
 20
194.4776632407042
 10
81.18441768591877
 20
194.4776632407042
 10
81.18441768591877
 20
194.4776632407042
 10
108.8283988604671
 20
194.0093022005093
 10
108.8283988604671
 20
194.0093022005093
 10
108.8283988604671
 20
194.0093022005093
 10
108.8283988604671
 20
194.0093022005093
 10
108.8283988604671
 20
194.0093022005093
 10
108.8938557178683
 20
194.0170536704647
 10
108.9724039467499
 20
193.9770905364724
 10
109.0051323754505
 20
193.9205909332418
 10
109.0051323754505
 20
193.9205909332418
 10
109.0051323754505
 20
193.9205909332418
 10
109.0051323754505
 20
193.9205909332418
 10
109.0051323754505
 20
193.9205909332418
 10
109.6104360515244
 20
192.9759451280087
 10
109.6104360515244
 20
192.9759451280087
 10
109.6104360515244
 20
192.9759451280087
 10
109.6104360515244
 20
192.9759451280087
 10
109.6104360515244
 20
192.9759451280087
 10
109.6104360515244
 20
192.9759451280087
 10
109.6104360515244
 20
192.4383376228788
 10
109.6104360515244
 20
192.4383376228788
 10
109.6104360515244
 20
192.4383376228788
 10
109.6104360515244
 20
192.4383376228788
 10
109.6104360515244
 20
192.4383376228788
 10
109.6104360515244
 20
192.4383376228788
 10
110.9147500626887
 20
192.4383376228788
 10
110.9147500626887
 20
192.4383376228788
 10
110.9147500626887
 20
192.4383376228788
 10
110.9147500626887
 20
192.4383376228788
 10
110.9147500626887
 20
192.4383376228788
 10
110.9147500626887
 20
192.4383376228788
 10
110.9147500626887
 20
193.212106579317
 10
110.9147500626887
 20
193.212106579317
 10
110.9147500626887
 20
193.212106579317
 10
110.9147500626887
 20
193.212106579317
 10
110.9147500626887
 20
193.212106579317
 10
110.9195731995498
 20
193.2922051021896
 10
110.8830551633154
 20
193.4170898959157
 10
110.8355128142555
 20
193.4815132239896
 10
110.8355128142555
 20
193.4815132239896
 10
110.8355128142555
 20
193.4815132239896
 10
110.8355128142555
 20
193.4815132239896
 10
110.8355128142555
 20
193.4815132239896
 10
110.1027405211371
 20
194.6249411698571
 10
110.1027405211371
 20
194.6249411698571
 10
110.1027405211371
 20
194.6249411698571
 10
110.1027405211371
 20
194.6249411698571
 10
110.1027405211371
 20
194.6249411698571
 10
109.8760530886632
 20
195.0231944706774
 10
109.320358820304
 20
195.3323919944545
 10
108.8621608184951
 20
195.3139607214494
 10
108.8621608184951
 20
195.3139607214494
 10
108.8621608184951
 20
195.3139607214494
 10
108.8621608184951
 20
195.3139607214494
 97
        0
 92
        1
 93
        1
 72
     4
 94
        3
 73
     0
 74
     1
 95
       71
 96
       67
 40
0.0
 40
0.0
 40
0.0
 40
0.0
 40
1.0
 40
1.0
 40
1.0
 40
2.0
 40
2.0
 40
2.0
 40
3.0
 40
3.0
 40
3.0
 40
4.0
 40
4.0
 40
4.0
 40
5.0
 40
5.0
 40
5.0
 40
6.0
 40
6.0
 40
6.0
 40
7.0
 40
7.0
 40
7.0
 40
8.0
 40
8.0
 40
8.0
 40
9.0
 40
9.0
 40
9.0
 40
10.0
 40
10.0
 40
10.0
 40
11.0
 40
11.0
 40
11.0
 40
12.0
 40
12.0
 40
12.0
 40
13.0
 40
13.0
 40
13.0
 40
14.0
 40
14.0
 40
14.0
 40
15.0
 40
15.0
 40
15.0
 40
16.0
 40
16.0
 40
16.0
 40
17.0
 40
17.0
 40
17.0
 40
18.0
 40
18.0
 40
18.0
 40
19.0
 40
19.0
 40
19.0
 40
20.0
 40
20.0
 40
20.0
 40
21.0
 40
21.0
 40
21.0
 40
22.0
 40
22.0
 40
22.0
 40
22.0
 10
146.9397928079183
 20
195.7762928405679
 10
146.9397928079183
 20
195.7762928405679
 10
119.2622219302298
 20
195.3139607214494
 10
119.2622219302298
 20
195.3139607214494
 10
119.2622219302298
 20
195.3139607214494
 10
119.2622219302298
 20
195.3139607214494
 10
119.2622219302298
 20
195.3139607214494
 10
118.8040239284209
 20
195.3323919944545
 10
118.2483296600617
 20
195.0231944706774
 10
118.021297717812
 20
194.6249411698571
 10
118.021297717812
 20
194.6249411698571
 10
118.021297717812
 20
194.6249411698571
 10
118.021297717812
 20
194.6249411698571
 10
118.021297717812
 20
194.6249411698571
 10
117.2885254246936
 20
193.4815132239896
 10
117.2885254246936
 20
193.4815132239896
 10
117.2885254246936
 20
193.4815132239896
 10
117.2885254246936
 20
193.4815132239896
 10
117.2885254246936
 20
193.4815132239896
 10
117.2413275854095
 20
193.4170898959157
 10
117.2048095491751
 20
193.2922051021896
 10
117.2096326860363
 20
193.212106579317
 10
117.2096326860363
 20
193.212106579317
 10
117.2096326860363
 20
193.212106579317
 10
117.2096326860363
 20
193.212106579317
 10
117.2096326860363
 20
193.212106579317
 10
117.2096326860363
 20
192.4383376228788
 10
117.2096326860363
 20
192.4383376228788
 10
117.2096326860363
 20
192.4383376228788
 10
117.2096326860363
 20
192.4383376228788
 10
117.2096326860363
 20
192.4383376228788
 10
117.2096326860363
 20
192.4383376228788
 10
118.5136021874248
 20
192.4383376228788
 10
118.5136021874248
 20
192.4383376228788
 10
118.5136021874248
 20
192.4383376228788
 10
118.5136021874248
 20
192.4383376228788
 10
118.5136021874248
 20
192.4383376228788
 10
118.5136021874248
 20
192.4383376228788
 10
118.5136021874248
 20
192.9759451280087
 10
118.5136021874248
 20
192.9759451280087
 10
118.5136021874248
 20
192.9759451280087
 10
118.5136021874248
 20
192.9759451280087
 10
118.5136021874248
 20
192.9759451280087
 10
118.5136021874248
 20
192.9759451280087
 10
119.1192503732744
 20
193.9205909332418
 10
119.1192503732744
 20
193.9205909332418
 10
119.1192503732744
 20
193.9205909332418
 10
119.1192503732744
 20
193.9205909332418
 10
119.1192503732744
 20
193.9205909332418
 10
119.1461221357865
 20
193.9672720078622
 10
119.211234483412
 20
194.0074073967424
 10
119.2649780084362
 20
194.0093022005093
 10
119.2649780084362
 20
194.0093022005093
 10
119.2649780084362
 20
194.0093022005093
 10
119.2649780084362
 20
194.0093022005093
 10
119.2649780084362
 20
194.0093022005093
 10
146.9397928079183
 20
194.4776632407042
 10
146.9397928079183
 20
194.4776632407042
 10
146.9397928079183
 20
194.4776632407042
 10
146.9397928079183
 20
194.4776632407042
 10
146.9397928079183
 20
194.4776632407042
 10
146.9397928079183
 20
194.4776632407042
 10
146.9397928079183
 20
195.7762928405679
 10
146.9397928079183
 20
195.7762928405679
 10
146.9397928079183
 20
195.7762928405679
 10
146.9397928079183
 20
195.7762928405679
 10
146.9397928079183
 20
195.7762928405679
 97
        0
 75
     0
 76
     1
 98
        0
  0
ENDBLK
  5
14E
330
14B
100
AcDbEntity
  8
0
100
AcDbBlockEnd
  0
BLOCK
  5
154
330
152
100
AcDbEntity
  8
0
100
AcDbBlockBegin
  2
block 48
 70
     0
 71
     0
 10
0.0
 20
0.0
 30
0.0
  3
block 48
  1

  0
POLYLINE
  5
156
330
152
100
AcDbEntity
  8
SOMBREA
370
     0
100
AcDb2dPolyline
 66
     1
 10
0.0
 20
0.0
 30
0.0
  0
VERTEX
  5
157
330
156
100
AcDbEntity
  8
SOMBREA
370
     0
100
AcDbVertex
100
AcDb2dVertex
 10
150.322189786685
 20
196.9238549037449
 30
0.0
  0
VERTEX
  5
158
330
156
100
AcDbEntity
  8
SOMBREA
370
     0
100
AcDbVertex
100
AcDb2dVertex
 10
150.4823868324303
 20
197.4233940786493
 30
0.0
  0
VERTEX
  5
159
330
156
100
AcDbEntity
  8
SOMBREA
370
     0
100
AcDbVertex
100
AcDb2dVertex
 10
151.5727602728251
 20
197.4233940786493
 30
0.0
  0
VERTEX
  5
15A
330
156
100
AcDbEntity
  8
SOMBREA
370
     0
100
AcDbVertex
100
AcDb2dVertex
 10
151.1683057960404
 20
195.8398548942022
 30
0.0
  0
VERTEX
  5
15B
330
156
100
AcDbEntity
  8
SOMBREA
370
     0
100
AcDbVertex
100
AcDb2dVertex
 10
151.4676847912073
 20
195.5294515862099
 30
0.0
  0
VERTEX
  5
15C
330
156
100
AcDbEntity
  8
SOMBREA
370
     0
100
AcDbVertex
100
AcDb2dVertex
 10
151.9186480877245
 20
195.5294515862099
 30
0.0
  0
VERTEX
  5
15D
330
156
100
AcDbEntity
  8
SOMBREA
370
     0
100
AcDbVertex
100
AcDb2dVertex
 10
152.8918882043486
 20
195.3909586563398
 30
0.0
  0
VERTEX
  5
15E
330
156
100
AcDbEntity
  8
SOMBREA
370
     0
100
AcDbVertex
100
AcDb2dVertex
 10
152.8918882043486
 20
194.3508836432112
 30
0.0
  0
VERTEX
  5
15F
330
156
100
AcDbEntity
  8
SOMBREA
370
     0
100
AcDbVertex
100
AcDb2dVertex
 10
151.8828190710417
 20
194.5479432349666
 30
0.0
  0
VERTEX
  5
160
330
156
100
AcDbEntity
  8
SOMBREA
370
     0
100
AcDbVertex
100
AcDb2dVertex
 10
146.9397928079183
 20
194.4776632407042
 30
0.0
  0
VERTEX
  5
161
330
156
100
AcDbEntity
  8
SOMBREA
370
     0
100
AcDbVertex
100
AcDb2dVertex
 10
146.9397928079183
 20
195.7762928405679
 30
0.0
  0
VERTEX
  5
162
330
156
100
AcDbEntity
  8
SOMBREA
370
     0
100
AcDbVertex
100
AcDb2dVertex
 10
148.8931632366825
 20
195.804714897071
 30
0.0
  0
VERTEX
  5
163
330
156
100
AcDbEntity
  8
SOMBREA
370
     0
100
AcDbVertex
100
AcDb2dVertex
 10
150.322189786685
 20
196.9238549037449
 30
0.0
  0
SEQEND
  5
164
330
156
100
AcDbEntity
  8
SOMBREA
370
     0
  0
HATCH
  5
165
330
152
100
AcDbEntity
  8
SOMBREA
 62
     7
420
 16777215
100
AcDbHatch
 10
0.0
 20
0.0
 30
0.0
210
0.0
220
0.0
230
1.0
  2
SOLID
 70
     1
 71
     0
 91
        1
 92
        1
 93
       12
 72
     1
 10
150.322189786685
 20
196.9238549037449
 11
150.4823868324303
 21
197.4233940786493
 72
     1
 10
150.4823868324303
 20
197.4233940786493
 11
151.5727602728251
 21
197.4233940786493
 72
     1
 10
151.5727602728251
 20
197.4233940786493
 11
151.1683057960404
 21
195.8398548942022
 72
     1
 10
151.1683057960404
 20
195.8398548942022
 11
151.4676847912073
 21
195.5294515862099
 72
     1
 10
151.4676847912073
 20
195.5294515862099
 11
151.9186480877245
 21
195.5294515862099
 72
     1
 10
151.9186480877245
 20
195.5294515862099
 11
152.8918882043486
 21
195.3909586563398
 72
     1
 10
152.8918882043486
 20
195.3909586563398
 11
152.8918882043486
 21
194.3508836432112
 72
     1
 10
152.8918882043486
 20
194.3508836432112
 11
151.8828190710417
 21
194.5479432349666
 72
     1
 10
151.8828190710417
 20
194.5479432349666
 11
146.9397928079183
 21
194.4776632407042
 72
     1
 10
146.9397928079183
 20
194.4776632407042
 11
146.9397928079183
 21
195.7762928405679
 72
     1
 10
146.9397928079183
 20
195.7762928405679
 11
148.8931632366825
 21
195.804714897071
 72
     1
 10
148.8931632366825
 20
195.804714897071
 11
150.322189786685
 21
196.9238549037449
 97
        0
 75
     0
 76
     1
 98
        0
  0
ENDBLK
  5
155
330
152
100
AcDbEntity
  8
0
100
AcDbBlockEnd
  0
BLOCK
  5
168
330
166
100
AcDbEntity
  8
0
100
AcDbBlockBegin
  2
block 49
 70
     0
 71
     0
 10
0.0
 20
0.0
 30
0.0
  3
block 49
  1

  0
POLYLINE
  5
16A
330
166
100
AcDbEntity
  8
SOMBREA
370
     0
100
AcDb2dPolyline
 66
     1
 10
0.0
 20
0.0
 30
0.0
  0
VERTEX
  5
16B
330
16A
100
AcDbEntity
  8
SOMBREA
370
     0
100
AcDbVertex
100
AcDb2dVertex
 10
158.0026907282848
 20
200.9301590864785
 30
0.0
  0
VERTEX
  5
16C
330
16A
100
AcDbEntity
  8
SOMBREA
370
     0
100
AcDbVertex
100
AcDb2dVertex
 10
153.6601450043741
 20
200.3291617826021
 30
0.0
  0
VERTEX
  5
16D
330
16A
100
AcDbEntity
  8
SOMBREA
370
     0
100
AcDbVertex
100
AcDb2dVertex
 10
150.4823868324303
 20
197.4233940786493
 30
0.0
  0
VERTEX
  5
16E
330
16A
100
AcDbEntity
  8
SOMBREA
370
     0
100
AcDbVertex
100
AcDb2dVertex
 10
151.5727602728251
 20
197.4233940786493
 30
0.0
  0
VERTEX
  5
16F
330
16A
100
AcDbEntity
  8
SOMBREA
370
     0
100
AcDbVertex
100
AcDb2dVertex
 10
153.9312741979257
 20
199.3671182336913
 30
0.0
  0
VERTEX
  5
170
330
16A
100
AcDbEntity
  8
SOMBREA
370
     0
100
AcDbVertex
100
AcDb2dVertex
 10
157.4983284165192
 20
199.9222957373868
 30
0.0
  0
VERTEX
  5
171
330
16A
100
AcDbEntity
  8
SOMBREA
370
     0
100
AcDbVertex
100
AcDb2dVertex
 10
157.9113956376988
 20
199.5300713576429
 30
0.0
  0
VERTEX
  5
172
330
16A
100
AcDbEntity
  8
SOMBREA
370
     0
100
AcDbVertex
100
AcDb2dVertex
 10
157.9479136739332
 20
197.4233940786493
 30
0.0
  0
VERTEX
  5
173
330
16A
100
AcDbEntity
  8
SOMBREA
370
     0
100
AcDbVertex
100
AcDb2dVertex
 10
158.9476810432937
 20
197.4233940786493
 30
0.0
  0
VERTEX
  5
174
330
16A
100
AcDbEntity
  8
SOMBREA
370
     0
100
AcDbVertex
100
AcDb2dVertex
 10
158.9018612431128
 20
200.0306440618747
 30
0.0
  0
VERTEX
  5
175
330
16A
100
AcDbEntity
  8
SOMBREA
370
     0
100
AcDbVertex
100
AcDb2dVertex
 10
158.0026907282848
 20
200.9301590864785
 30
0.0
  0
SEQEND
  5
176
330
16A
100
AcDbEntity
  8
SOMBREA
370
     0
  0
HATCH
  5
177
330
166
100
AcDbEntity
  8
SOMBREA
 62
     7
420
 16777215
100
AcDbHatch
 10
0.0
 20
0.0
 30
0.0
210
0.0
220
0.0
230
1.0
  2
SOLID
 70
     1
 71
     0
 91
        1
 92
        1
 93
       10
 72
     1
 10
158.0026907282848
 20
200.9301590864785
 11
153.6601450043741
 21
200.3291617826021
 72
     1
 10
153.6601450043741
 20
200.3291617826021
 11
150.4823868324303
 21
197.4233940786493
 72
     1
 10
150.4823868324303
 20
197.4233940786493
 11
151.5727602728251
 21
197.4233940786493
 72
     1
 10
151.5727602728251
 20
197.4233940786493
 11
153.9312741979257
 21
199.3671182336913
 72
     1
 10
153.9312741979257
 20
199.3671182336913
 11
157.4983284165192
 21
199.9222957373868
 72
     1
 10
157.4983284165192
 20
199.9222957373868
 11
157.9113956376988
 21
199.5300713576429
 72
     1
 10
157.9113956376988
 20
199.5300713576429
 11
157.9479136739332
 21
197.4233940786493
 72
     1
 10
157.9479136739332
 20
197.4233940786493
 11
158.9476810432937
 21
197.4233940786493
 72
     1
 10
158.9476810432937
 20
197.4233940786493
 11
158.9018612431128
 21
200.0306440618747
 72
     1
 10
158.9018612431128
 20
200.0306440618747
 11
158.0026907282848
 21
200.9301590864785
 97
        0
 75
     0
 76
     1
 98
        0
  0
ENDBLK
  5
169
330
166
100
AcDbEntity
  8
0
100
AcDbBlockEnd
  0
BLOCK
  5
17A
330
178
100
AcDbEntity
  8
0
100
AcDbBlockBegin
  2
block 50
 70
     0
 71
     0
 10
0.0
 20
0.0
 30
0.0
  3
block 50
  1

  0
POLYLINE
  5
17C
330
178
100
AcDbEntity
  8
SOMBREA
370
     0
100
AcDb2dPolyline
 66
     1
 10
0.0
 20
0.0
 30
0.0
  0
VERTEX
  5
17D
330
17C
100
AcDbEntity
  8
SOMBREA
370
     0
100
AcDbVertex
100
AcDb2dVertex
 10
152.8918882043486
 20
195.3909586563398
 30
0.0
  0
VERTEX
  5
17E
330
17C
100
AcDbEntity
  8
SOMBREA
370
     0
100
AcDbVertex
100
AcDb2dVertex
 10
152.8918882043486
 20
194.3508836432112
 30
0.0
  0
VERTEX
  5
17F
330
17C
100
AcDbEntity
  8
SOMBREA
370
     0
100
AcDbVertex
100
AcDb2dVertex
 10
154.2861192669957
 20
192.8462371974214
 30
0.0
  0
VERTEX
  5
180
330
17C
100
AcDbEntity
  8
SOMBREA
370
     0
100
AcDbVertex
100
AcDb2dVertex
 10
154.8545603970594
 20
192.4383376228788
 30
0.0
  0
VERTEX
  5
181
330
17C
100
AcDbEntity
  8
SOMBREA
370
     0
100
AcDbVertex
100
AcDb2dVertex
 10
158.4247152036351
 20
192.4383376228788
 30
0.0
  0
VERTEX
  5
182
330
17C
100
AcDbEntity
  8
SOMBREA
370
     0
100
AcDbVertex
100
AcDb2dVertex
 10
159.0238177037447
 20
193.0589719839756
 30
0.0
  0
VERTEX
  5
183
330
17C
100
AcDbEntity
  8
SOMBREA
370
     0
100
AcDbVertex
100
AcDb2dVertex
 10
158.9476810432937
 20
197.4233940786493
 30
0.0
  0
VERTEX
  5
184
330
17C
100
AcDbEntity
  8
SOMBREA
370
     0
100
AcDbVertex
100
AcDb2dVertex
 10
157.9479136739332
 20
197.4233940786493
 30
0.0
  0
VERTEX
  5
185
330
17C
100
AcDbEntity
  8
SOMBREA
370
     0
100
AcDbVertex
100
AcDb2dVertex
 10
158.005791316267
 20
194.1243684656252
 30
0.0
  0
VERTEX
  5
186
330
17C
100
AcDbEntity
  8
SOMBREA
370
     0
100
AcDbVertex
100
AcDb2dVertex
 10
157.7060678113243
 20
193.8191328042698
 30
0.0
  0
VERTEX
  5
187
330
17C
100
AcDbEntity
  8
SOMBREA
370
     0
100
AcDbVertex
100
AcDb2dVertex
 10
155.0812478295333
 20
193.8191328042698
 30
0.0
  0
VERTEX
  5
188
330
17C
100
AcDbEntity
  8
SOMBREA
370
     0
100
AcDbVertex
100
AcDb2dVertex
 10
154.8304447127537
 20
193.9546974010456
 30
0.0
  0
VERTEX
  5
189
330
17C
100
AcDbEntity
  8
SOMBREA
370
     0
100
AcDbVertex
100
AcDb2dVertex
 10
152.8918882043486
 20
195.3909586563398
 30
0.0
  0
SEQEND
  5
18A
330
17C
100
AcDbEntity
  8
SOMBREA
370
     0
  0
HATCH
  5
18B
330
178
100
AcDbEntity
  8
SOMBREA
 62
     7
420
 16777215
100
AcDbHatch
 10
0.0
 20
0.0
 30
0.0
210
0.0
220
0.0
230
1.0
  2
SOLID
 70
     1
 71
     0
 91
        1
 92
        1
 93
       12
 72
     1
 10
152.8918882043486
 20
195.3909586563398
 11
152.8918882043486
 21
194.3508836432112
 72
     1
 10
152.8918882043486
 20
194.3508836432112
 11
154.2861192669957
 21
192.8462371974214
 72
     1
 10
154.2861192669957
 20
192.8462371974214
 11
154.8545603970594
 21
192.4383376228788
 72
     1
 10
154.8545603970594
 20
192.4383376228788
 11
158.4247152036351
 21
192.4383376228788
 72
     1
 10
158.4247152036351
 20
192.4383376228788
 11
159.0238177037447
 21
193.0589719839756
 72
     1
 10
159.0238177037447
 20
193.0589719839756
 11
158.9476810432937
 21
197.4233940786493
 72
     1
 10
158.9476810432937
 20
197.4233940786493
 11
157.9479136739332
 21
197.4233940786493
 72
     1
 10
157.9479136739332
 20
197.4233940786493
 11
158.005791316267
 21
194.1243684656252
 72
     1
 10
158.005791316267
 20
194.1243684656252
 11
157.7060678113243
 21
193.8191328042698
 72
     1
 10
157.7060678113243
 20
193.8191328042698
 11
155.0812478295333
 21
193.8191328042698
 72
     1
 10
155.0812478295333
 20
193.8191328042698
 11
154.8304447127537
 21
193.9546974010456
 72
     1
 10
154.8304447127537
 20
193.9546974010456
 11
152.8918882043486
 21
195.3909586563398
 97
        0
 75
     0
 76
     1
 98
        0
  0
ENDBLK
  5
17B
330
178
100
AcDbEntity
  8
0
100
AcDbBlockEnd
  0
BLOCK
  5
18F
330
18D
100
AcDbEntity
  8
0
100
AcDbBlockBegin
  2
block 51
 70
     0
 71
     0
 10
0.0
 20
0.0
 30
0.0
  3
block 51
  1

  0
POLYLINE
  5
191
330
18D
100
AcDbEntity
  8
PIEZA
 62
     7
420
 16777215
370
     9
100
AcDb2dPolyline
 66
     1
 10
0.0
 20
0.0
 30
0.0
  0
VERTEX
  5
192
330
191
100
AcDbEntity
  8
PIEZA
 62
     7
420
 16777215
370
     9
100
AcDbVertex
100
AcDb2dVertex
 10
157.3253845090696
 20
173.2529327185659
 30
0.0
  0
VERTEX
  5
193
330
191
100
AcDbEntity
  8
PIEZA
 62
     7
420
 16777215
370
     9
100
AcDbVertex
100
AcDb2dVertex
 10
70.79882598476748
 20
173.2529327185659
 30
0.0
  0
SEQEND
  5
194
330
191
100
AcDbEntity
  8
PIEZA
370
     9
  0
ENDBLK
  5
190
330
18D
100
AcDbEntity
  8
0
100
AcDbBlockEnd
  0
BLOCK
  5
197
330
195
100
AcDbEntity
  8
0
100
AcDbBlockBegin
  2
block 52
 70
     0
 71
     0
 10
0.0
 20
0.0
 30
0.0
  3
block 52
  1

  0
POLYLINE
  5
199
330
195
100
AcDbEntity
  8
PIEZA
 62
     7
420
 16777215
370
     9
100
AcDb2dPolyline
 66
     1
 10
0.0
 20
0.0
 30
0.0
  0
VERTEX
  5
19A
330
199
100
AcDbEntity
  8
PIEZA
 62
     7
420
 16777215
370
     9
100
AcDbVertex
100
AcDb2dVertex
 10
70.79882598476748
 20
83.32899104024993
 30
0.0
  0
VERTEX
  5
19B
330
199
100
AcDbEntity
  8
PIEZA
 62
     7
420
 16777215
370
     9
100
AcDbVertex
100
AcDb2dVertex
 10
157.3253845090696
 20
83.32899104024993
 30
0.0
  0
SEQEND
  5
19C
330
199
100
AcDbEntity
  8
PIEZA
370
     9
  0
ENDBLK
  5
198
330
195
100
AcDbEntity
  8
0
100
AcDbBlockEnd
  0
BLOCK
  5
19F
330
19D
100
AcDbEntity
  8
0
100
AcDbBlockBegin
  2
block 53
 70
     0
 71
     0
 10
0.0
 20
0.0
 30
0.0
  3
block 53
  1

  0
POLYLINE
  5
1A1
330
19D
100
AcDbEntity
  8
PIEZA
 62
     7
420
 16777215
370
     9
100
AcDb2dPolyline
 66
     1
 10
0.0
 20
0.0
 30
0.0
  0
VERTEX
  5
1A2
330
1A1
100
AcDbEntity
  8
PIEZA
 62
     7
420
 16777215
370
     9
100
AcDbVertex
100
AcDb2dVertex
 10
69.10022053520447
 20
171.5543272690029
 30
0.0
  0
VERTEX
  5
1A3
330
1A1
100
AcDbEntity
  8
PIEZA
 62
     7
420
 16777215
370
     9
100
AcDbVertex
100
AcDb2dVertex
 10
69.10022053520447
 20
85.02776874470084
 30
0.0
  0
SEQEND
  5
1A4
330
1A1
100
AcDbEntity
  8
PIEZA
370
     9
  0
ENDBLK
  5
1A0
330
19D
100
AcDbEntity
  8
0
100
AcDbBlockEnd
  0
BLOCK
  5
1A7
330
1A5
100
AcDbEntity
  8
0
100
AcDbBlockBegin
  2
block 54
 70
     0
 71
     0
 10
0.0
 20
0.0
 30
0.0
  3
block 54
  1

  0
SPLINE
  5
1A9
330
1A5
100
AcDbEntity
  8
PIEZA
 62
     7
420
 16777215
370
     9
100
AcDbSpline
210
0.0
220
0.0
230
1.0
 70
     8
 71
     3
 72
    11
 73
     7
 74
     0
 42
0.0000000001
 43
0.0000000001
 40
0.0
 40
0.0
 40
0.0
 40
0.0
 40
1.0
 40
1.0
 40
1.0
 40
2.0
 40
2.0
 40
2.0
 40
2.0
 10
70.79882598476748
 20
173.2529327185659
 30
0.0
 10
69.8607258652745
 20
173.2529327185659
 30
0.0
 10
69.10022053520447
 20
172.4924273884959
 30
0.0
 10
69.10022053520447
 20
171.5543272690029
 30
0.0
 10
69.10022053520447
 20
171.5543272690029
 30
0.0
 10
69.10022053520447
 20
171.5543272690029
 30
0.0
 10
69.10022053520447
 20
171.5543272690029
 30
0.0
  0
ENDBLK
  5
1A8
330
1A5
100
AcDbEntity
  8
0
100
AcDbBlockEnd
  0
BLOCK
  5
1AC
330
1AA
100
AcDbEntity
  8
0
100
AcDbBlockBegin
  2
block 55
 70
     0
 71
     0
 10
0.0
 20
0.0
 30
0.0
  3
block 55
  1

  0
SPLINE
  5
1AE
330
1AA
100
AcDbEntity
  8
PIEZA
 62
     7
420
 16777215
370
     9
100
AcDbSpline
210
0.0
220
0.0
230
1.0
 70
     8
 71
     3
 72
    11
 73
     7
 74
     0
 42
0.0000000001
 43
0.0000000001
 40
0.0
 40
0.0
 40
0.0
 40
0.0
 40
1.0
 40
1.0
 40
1.0
 40
2.0
 40
2.0
 40
2.0
 40
2.0
 10
69.10022053520447
 20
85.02776874470084
 30
0.0
 10
69.10022053520447
 20
84.08966862520788
 30
0.0
 10
69.8607258652745
 20
83.32899104024993
 30
0.0
 10
70.79882598476748
 20
83.32899104024993
 30
0.0
 10
70.79882598476748
 20
83.32899104024993
 30
0.0
 10
70.79882598476748
 20
83.32899104024993
 30
0.0
 10
70.79882598476748
 20
83.32899104024993
 30
0.0
  0
ENDBLK
  5
1AD
330
1AA
100
AcDbEntity
  8
0
100
AcDbBlockEnd
  0
BLOCK
  5
1B1
330
1AF
100
AcDbEntity
  8
0
100
AcDbBlockBegin
  2
block 56
 70
     0
 71
     0
 10
0.0
 20
0.0
 30
0.0
  3
block 56
  1

  0
SPLINE
  5
1B3
330
1AF
100
AcDbEntity
  8
PIEZA
 62
     7
420
 16777215
370
     9
100
AcDbSpline
210
0.0
220
0.0
230
1.0
 70
    11
 71
     3
 72
    23
 73
    19
 74
     0
 42
0.0000000001
 43
0.0000000001
 40
0.0
 40
0.0
 40
0.0
 40
0.0
 40
1.0
 40
1.0
 40
1.0
 40
2.0
 40
2.0
 40
2.0
 40
3.0
 40
3.0
 40
3.0
 40
4.0
 40
4.0
 40
4.0
 40
5.0
 40
5.0
 40
5.0
 40
6.0
 40
6.0
 40
6.0
 40
6.0
 10
117.2096326860363
 20
101.8133185508176
 30
0.0
 10
117.2096326860363
 20
103.551714879485
 30
0.0
 10
115.8002431932541
 20
104.9607598624914
 30
0.0
 10
114.0621913743625
 20
104.9607598624914
 30
0.0
 10
112.323795045695
 20
104.9607598624914
 30
0.0
 10
110.9147500626887
 20
103.551714879485
 30
0.0
 10
110.9147500626887
 20
101.8133185508176
 30
0.0
 10
110.9147500626887
 20
100.0752667319259
 30
0.0
 10
112.323795045695
 20
98.66622174891957
 30
0.0
 10
114.0621913743625
 20
98.66622174891957
 30
0.0
 10
115.8002431932541
 20
98.66622174891957
 30
0.0
 10
117.2096326860363
 20
100.0752667319259
 30
0.0
 10
117.2096326860363
 20
101.8133185508176
 30
0.0
 10
117.2096326860363
 20
101.8133185508176
 30
0.0
 10
117.2096326860363
 20
101.8133185508176
 30
0.0
 10
117.2096326860363
 20
101.8133185508176
 30
0.0
 10
117.2096326860363
 20
101.8133185508176
 30
0.0
 10
117.2096326860363
 20
101.8133185508176
 30
0.0
 10
117.2096326860363
 20
101.8133185508176
 30
0.0
  0
ENDBLK
  5
1B2
330
1AF
100
AcDbEntity
  8
0
100
AcDbBlockEnd
  0
BLOCK
  5
1B6
330
1B4
100
AcDbEntity
  8
0
100
AcDbBlockBegin
  2
block 57
 70
     0
 71
     0
 10
0.0
 20
0.0
 30
0.0
  3
block 57
  1

  0
POLYLINE
  5
1B8
330
1B4
100
AcDbEntity
  8
PIEZA
 62
     7
420
 16777215
370
     9
100
AcDb2dPolyline
 66
     1
 10
0.0
 20
0.0
 30
0.0
  0
VERTEX
  5
1B9
330
1B8
100
AcDbEntity
  8
PIEZA
 62
     7
420
 16777215
370
     9
100
AcDbVertex
100
AcDb2dVertex
 10
159.0241622135205
 20
85.02776874470084
 30
0.0
  0
VERTEX
  5
1BA
330
1B8
100
AcDbEntity
  8
PIEZA
 62
     7
420
 16777215
370
     9
100
AcDbVertex
100
AcDb2dVertex
 10
159.0241622135205
 20
171.5543272690029
 30
0.0
  0
SEQEND
  5
1BB
330
1B8
100
AcDbEntity
  8
PIEZA
370
     9
  0
ENDBLK
  5
1B7
330
1B4
100
AcDbEntity
  8
0
100
AcDbBlockEnd
  0
BLOCK
  5
1BE
330
1BC
100
AcDbEntity
  8
0
100
AcDbBlockBegin
  2
block 58
 70
     0
 71
     0
 10
0.0
 20
0.0
 30
0.0
  3
block 58
  1

  0
SPLINE
  5
1C0
330
1BC
100
AcDbEntity
  8
PIEZA
 62
     7
420
 16777215
370
     9
100
AcDbSpline
210
0.0
220
0.0
230
1.0
 70
     8
 71
     3
 72
    11
 73
     7
 74
     0
 42
0.0000000001
 43
0.0000000001
 40
0.0
 40
0.0
 40
0.0
 40
0.0
 40
1.0
 40
1.0
 40
1.0
 40
2.0
 40
2.0
 40
2.0
 40
2.0
 10
159.0241622135205
 20
171.5543272690029
 30
0.0
 10
159.0241622135205
 20
172.4924273884959
 30
0.0
 10
158.2634846285625
 20
173.2529327185659
 30
0.0
 10
157.3253845090696
 20
173.2529327185659
 30
0.0
 10
157.3253845090696
 20
173.2529327185659
 30
0.0
 10
157.3253845090696
 20
173.2529327185659
 30
0.0
 10
157.3253845090696
 20
173.2529327185659
 30
0.0
  0
ENDBLK
  5
1BF
330
1BC
100
AcDbEntity
  8
0
100
AcDbBlockEnd
  0
BLOCK
  5
1C3
330
1C1
100
AcDbEntity
  8
0
100
AcDbBlockBegin
  2
block 59
 70
     0
 71
     0
 10
0.0
 20
0.0
 30
0.0
  3
block 59
  1

  0
SPLINE
  5
1C5
330
1C1
100
AcDbEntity
  8
PIEZA
 62
     7
420
 16777215
370
     9
100
AcDbSpline
210
0.0
220
0.0
230
1.0
 70
     8
 71
     3
 72
    11
 73
     7
 74
     0
 42
0.0000000001
 43
0.0000000001
 40
0.0
 40
0.0
 40
0.0
 40
0.0
 40
1.0
 40
1.0
 40
1.0
 40
2.0
 40
2.0
 40
2.0
 40
2.0
 10
157.3253845090696
 20
83.32899104024993
 30
0.0
 10
158.2634846285625
 20
83.32899104024993
 30
0.0
 10
159.0241622135205
 20
84.08966862520788
 30
0.0
 10
159.0241622135205
 20
85.02776874470084
 30
0.0
 10
159.0241622135205
 20
85.02776874470084
 30
0.0
 10
159.0241622135205
 20
85.02776874470084
 30
0.0
 10
159.0241622135205
 20
85.02776874470084
 30
0.0
  0
ENDBLK
  5
1C4
330
1C1
100
AcDbEntity
  8
0
100
AcDbBlockEnd
  0
BLOCK
  5
1C8
330
1C6
100
AcDbEntity
  8
0
100
AcDbBlockBegin
  2
block 60
 70
     0
 71
     0
 10
0.0
 20
0.0
 30
0.0
  3
block 60
  1

  0
POLYLINE
  5
1CA
330
1C6
100
AcDbEntity
  8
PIEZA
 62
     7
420
 16777215
370
     9
100
AcDb2dPolyline
 66
     1
 10
0.0
 20
0.0
 30
0.0
  0
VERTEX
  5
1CB
330
1CA
100
AcDbEntity
  8
PIEZA
 62
     7
420
 16777215
370
     9
100
AcDbVertex
100
AcDb2dVertex
 10
150.0317680456889
 20
88.82461098375042
 30
0.0
  0
VERTEX
  5
1CC
330
1CA
100
AcDbEntity
  8
PIEZA
 62
     7
420
 16777215
370
     9
100
AcDbVertex
100
AcDb2dVertex
 10
150.0317680456889
 20
164.2605385507343
 30
0.0
  0
SEQEND
  5
1CD
330
1CA
100
AcDbEntity
  8
PIEZA
370
     9
  0
ENDBLK
  5
1C9
330
1C6
100
AcDbEntity
  8
0
100
AcDbBlockEnd
  0
BLOCK
  5
1D0
330
1CE
100
AcDbEntity
  8
0
100
AcDbBlockBegin
  2
block 61
 70
     0
 71
     0
 10
0.0
 20
0.0
 30
0.0
  3
block 61
  1

  0
POLYLINE
  5
1D2
330
1CE
100
AcDbEntity
  8
PIEZA
 62
     7
420
 16777215
370
     9
100
AcDb2dPolyline
 66
     1
 10
0.0
 20
0.0
 30
0.0
  0
VERTEX
  5
1D3
330
1D2
100
AcDbEntity
  8
PIEZA
 62
     7
420
 16777215
370
     9
100
AcDbVertex
100
AcDb2dVertex
 10
150.0317680456889
 20
164.2605385507343
 30
0.0
  0
VERTEX
  5
1D4
330
1D2
100
AcDbEntity
  8
PIEZA
 62
     7
420
 16777215
370
     9
100
AcDbVertex
100
AcDb2dVertex
 10
78.09261470303606
 20
164.2605385507343
 30
0.0
  0
SEQEND
  5
1D5
330
1D2
100
AcDbEntity
  8
PIEZA
370
     9
  0
ENDBLK
  5
1D1
330
1CE
100
AcDbEntity
  8
0
100
AcDbBlockEnd
  0
BLOCK
  5
1D8
330
1D6
100
AcDbEntity
  8
0
100
AcDbBlockBegin
  2
block 62
 70
     0
 71
     0
 10
0.0
 20
0.0
 30
0.0
  3
block 62
  1

  0
POLYLINE
  5
1DA
330
1D6
100
AcDbEntity
  8
PIEZA
 62
     7
420
 16777215
370
     9
100
AcDb2dPolyline
 66
     1
 10
0.0
 20
0.0
 30
0.0
  0
VERTEX
  5
1DB
330
1DA
100
AcDbEntity
  8
PIEZA
 62
     7
420
 16777215
370
     9
100
AcDbVertex
100
AcDb2dVertex
 10
78.09261470303606
 20
164.2605385507343
 30
0.0
  0
VERTEX
  5
1DC
330
1DA
100
AcDbEntity
  8
PIEZA
 62
     7
420
 16777215
370
     9
100
AcDbVertex
100
AcDb2dVertex
 10
78.09261470303606
 20
88.82461098375042
 30
0.0
  0
SEQEND
  5
1DD
330
1DA
100
AcDbEntity
  8
PIEZA
370
     9
  0
ENDBLK
  5
1D9
330
1D6
100
AcDbEntity
  8
0
100
AcDbBlockEnd
  0
BLOCK
  5
1E0
330
1DE
100
AcDbEntity
  8
0
100
AcDbBlockBegin
  2
block 63
 70
     0
 71
     0
 10
0.0
 20
0.0
 30
0.0
  3
block 63
  1

  0
POLYLINE
  5
1E2
330
1DE
100
AcDbEntity
  8
PIEZA
 62
     7
420
 16777215
370
     9
100
AcDb2dPolyline
 66
     1
 10
0.0
 20
0.0
 30
0.0
  0
VERTEX
  5
1E3
330
1E2
100
AcDbEntity
  8
PIEZA
 62
     7
420
 16777215
370
     9
100
AcDbVertex
100
AcDb2dVertex
 10
74.59566822381706
 20
88.82461098375042
 30
0.0
  0
VERTEX
  5
1E4
330
1E2
100
AcDbEntity
  8
PIEZA
 62
     7
420
 16777215
370
     9
100
AcDbVertex
100
AcDb2dVertex
 10
153.5288867797958
 20
88.82461098375042
 30
0.0
  0
SEQEND
  5
1E5
330
1E2
100
AcDbEntity
  8
PIEZA
370
     9
  0
ENDBLK
  5
1E1
330
1DE
100
AcDbEntity
  8
0
100
AcDbBlockEnd
  0
BLOCK
  5
1E8
330
1E6
100
AcDbEntity
  8
0
100
AcDbBlockBegin
  2
block 64
 70
     0
 71
     0
 10
0.0
 20
0.0
 30
0.0
  3
block 64
  1

  0
SPLINE
  5
1EA
330
1E6
100
AcDbEntity
  8
PIEZA
 62
     7
420
 16777215
370
     9
100
AcDbSpline
210
0.0
220
0.0
230
1.0
 70
     8
 71
     3
 72
    14
 73
    10
 74
     0
 42
0.0000000001
 43
0.0000000001
 40
0.0
 40
0.0
 40
0.0
 40
0.0
 40
1.0
 40
1.0
 40
1.0
 40
2.0
 40
2.0
 40
2.0
 40
3.0
 40
3.0
 40
3.0
 40
3.0
 10
114.0621913743625
 20
98.66622174891957
 30
0.0
 10
115.8002431932541
 20
98.66622174891957
 30
0.0
 10
117.2096326860363
 20
100.0752667319259
 30
0.0
 10
117.2096326860363
 20
101.8133185508176
 30
0.0
 10
117.2096326860363
 20
103.551714879485
 30
0.0
 10
115.8002431932541
 20
104.9607598624914
 30
0.0
 10
114.0621913743625
 20
104.9607598624914
 30
0.0
 10
114.0621913743625
 20
104.9607598624914
 30
0.0
 10
114.0621913743625
 20
104.9607598624914
 30
0.0
 10
114.0621913743625
 20
104.9607598624914
 30
0.0
  0
ENDBLK
  5
1E9
330
1E6
100
AcDbEntity
  8
0
100
AcDbBlockEnd
  0
BLOCK
  5
1ED
330
1EB
100
AcDbEntity
  8
0
100
AcDbBlockBegin
  2
block 65
 70
     0
 71
     0
 10
0.0
 20
0.0
 30
0.0
  3
block 65
  1

  0
SPLINE
  5
1EF
330
1EB
100
AcDbEntity
  8
PIEZA
 62
     7
420
 16777215
370
     9
100
AcDbSpline
210
0.0
220
0.0
230
1.0
 70
     8
 71
     3
 72
    14
 73
    10
 74
     0
 42
0.0000000001
 43
0.0000000001
 40
0.0
 40
0.0
 40
0.0
 40
0.0
 40
1.0
 40
1.0
 40
1.0
 40
2.0
 40
2.0
 40
2.0
 40
3.0
 40
3.0
 40
3.0
 40
3.0
 10
114.0621913743625
 20
104.9607598624914
 30
0.0
 10
112.323795045695
 20
104.9607598624914
 30
0.0
 10
110.9147500626887
 20
103.551714879485
 30
0.0
 10
110.9147500626887
 20
101.8133185508176
 30
0.0
 10
110.9147500626887
 20
100.0752667319259
 30
0.0
 10
112.323795045695
 20
98.66622174891957
 30
0.0
 10
114.0621913743625
 20
98.66622174891957
 30
0.0
 10
114.0621913743625
 20
98.66622174891957
 30
0.0
 10
114.0621913743625
 20
98.66622174891957
 30
0.0
 10
114.0621913743625
 20
98.66622174891957
 30
0.0
  0
ENDBLK
  5
1EE
330
1EB
100
AcDbEntity
  8
0
100
AcDbBlockEnd
  0
BLOCK
  5
1F2
330
1F0
100
AcDbEntity
  8
0
100
AcDbBlockBegin
  2
block 66
 70
     0
 71
     0
 10
0.0
 20
0.0
 30
0.0
  3
block 66
  1

  0
POLYLINE
  5
1F4
330
1F0
100
AcDbEntity
  8
PIEZA
 62
     7
420
 16777215
370
     9
100
AcDb2dPolyline
 66
     1
 10
0.0
 20
0.0
 30
0.0
  0
VERTEX
  5
1F5
330
1F4
100
AcDbEntity
  8
PIEZA
 62
     7
420
 16777215
370
     9
100
AcDbVertex
100
AcDb2dVertex
 10
118.0216422275878
 20
194.6247689149692
 30
0.0
  0
VERTEX
  5
1F6
330
1F4
100
AcDbEntity
  8
PIEZA
 62
     7
420
 16777215
370
     9
100
AcDbVertex
100
AcDb2dVertex
 10
117.2885254246936
 20
193.4818577337654
 30
0.0
  0
SEQEND
  5
1F7
330
1F4
100
AcDbEntity
  8
PIEZA
370
     9
  0
ENDBLK
  5
1F3
330
1F0
100
AcDbEntity
  8
0
100
AcDbBlockEnd
  0
BLOCK
  5
1FA
330
1F8
100
AcDbEntity
  8
0
100
AcDbBlockBegin
  2
block 67
 70
     0
 71
     0
 10
0.0
 20
0.0
 30
0.0
  3
block 67
  1

  0
POLYLINE
  5
1FC
330
1F8
100
AcDbEntity
  8
PIEZA
 62
     7
420
 16777215
370
     9
100
AcDb2dPolyline
 66
     1
 10
0.0
 20
0.0
 30
0.0
  0
VERTEX
  5
1FD
330
1FC
100
AcDbEntity
  8
PIEZA
 62
     7
420
 16777215
370
     9
100
AcDbVertex
100
AcDb2dVertex
 10
119.1192503732744
 20
193.9205909332418
 30
0.0
  0
VERTEX
  5
1FE
330
1FC
100
AcDbEntity
  8
PIEZA
 62
     7
420
 16777215
370
     9
100
AcDbVertex
100
AcDb2dVertex
 10
118.5335837544209
 20
193.0072955176061
 30
0.0
  0
SEQEND
  5
1FF
330
1FC
100
AcDbEntity
  8
PIEZA
370
     9
  0
ENDBLK
  5
1FB
330
1F8
100
AcDbEntity
  8
0
100
AcDbBlockEnd
  0
BLOCK
  5
202
330
200
100
AcDbEntity
  8
0
100
AcDbBlockBegin
  2
block 68
 70
     0
 71
     0
 10
0.0
 20
0.0
 30
0.0
  3
block 68
  1

  0
SPLINE
  5
204
330
200
100
AcDbEntity
  8
PIEZA
 62
     7
420
 16777215
370
     9
100
AcDbSpline
210
0.0
220
0.0
230
1.0
 70
     8
 71
     3
 72
     8
 73
     4
 74
     0
 42
0.0000000001
 43
0.0000000001
 40
0.0
 40
0.0
 40
0.0
 40
0.0
 40
1.0
 40
1.0
 40
1.0
 40
1.0
 10
118.5335837544209
 20
193.0072955176061
 30
0.0
 10
118.5218704220439
 20
192.9911035581437
 30
0.0
 10
118.5125686580974
 20
192.9599254234342
 30
0.0
 10
118.5136021874248
 20
192.9397716015501
 30
0.0
  0
ENDBLK
  5
203
330
200
100
AcDbEntity
  8
0
100
AcDbBlockEnd
  0
BLOCK
  5
207
330
205
100
AcDbEntity
  8
0
100
AcDbBlockBegin
  2
block 69
 70
     0
 71
     0
 10
0.0
 20
0.0
 30
0.0
  3
block 69
  1

  0
POLYLINE
  5
209
330
205
100
AcDbEntity
  8
PIEZA
 62
     7
420
 16777215
370
     9
100
AcDb2dPolyline
 66
     1
 10
0.0
 20
0.0
 30
0.0
  0
VERTEX
  5
20A
330
209
100
AcDbEntity
  8
PIEZA
 62
     7
420
 16777215
370
     9
100
AcDbVertex
100
AcDb2dVertex
 10
117.2096326860363
 20
193.2119343244291
 30
0.0
  0
VERTEX
  5
20B
330
209
100
AcDbEntity
  8
PIEZA
 62
     7
420
 16777215
370
     9
100
AcDbVertex
100
AcDb2dVertex
 10
117.2099771958121
 20
192.4383376228788
 30
0.0
  0
SEQEND
  5
20C
330
209
100
AcDbEntity
  8
PIEZA
370
     9
  0
ENDBLK
  5
208
330
205
100
AcDbEntity
  8
0
100
AcDbBlockEnd
  0
BLOCK
  5
20F
330
20D
100
AcDbEntity
  8
0
100
AcDbBlockBegin
  2
block 70
 70
     0
 71
     0
 10
0.0
 20
0.0
 30
0.0
  3
block 70
  1

  0
POLYLINE
  5
211
330
20D
100
AcDbEntity
  8
PIEZA
 62
     7
420
 16777215
370
     9
100
AcDb2dPolyline
 66
     1
 10
0.0
 20
0.0
 30
0.0
  0
VERTEX
  5
212
330
211
100
AcDbEntity
  8
PIEZA
 62
     7
420
 16777215
370
     9
100
AcDbVertex
100
AcDb2dVertex
 10
118.5136021874248
 20
192.9397716015501
 30
0.0
  0
VERTEX
  5
213
330
211
100
AcDbEntity
  8
PIEZA
 62
     7
420
 16777215
370
     9
100
AcDbVertex
100
AcDb2dVertex
 10
118.5139466972006
 20
192.4383376228788
 30
0.0
  0
SEQEND
  5
214
330
211
100
AcDbEntity
  8
PIEZA
370
     9
  0
ENDBLK
  5
210
330
20D
100
AcDbEntity
  8
0
100
AcDbBlockEnd
  0
BLOCK
  5
217
330
215
100
AcDbEntity
  8
0
100
AcDbBlockBegin
  2
block 71
 70
     0
 71
     0
 10
0.0
 20
0.0
 30
0.0
  3
block 71
  1

  0
SPLINE
  5
219
330
215
100
AcDbEntity
  8
PIEZA
 62
     7
420
 16777215
370
     9
100
AcDbSpline
210
0.0
220
0.0
230
1.0
 70
     8
 71
     3
 72
     8
 73
     4
 74
     0
 42
0.0000000001
 43
0.0000000001
 40
0.0
 40
0.0
 40
0.0
 40
0.0
 40
1.0
 40
1.0
 40
1.0
 40
1.0
 10
117.2885254246936
 20
193.4818577337654
 30
0.0
 10
117.2413275854095
 20
193.4169176410278
 30
0.0
 10
117.2048095491751
 20
193.2920328473017
 30
0.0
 10
117.2096326860363
 20
193.2119343244291
 30
0.0
  0
ENDBLK
  5
218
330
215
100
AcDbEntity
  8
0
100
AcDbBlockEnd
  0
BLOCK
  5
21C
330
21A
100
AcDbEntity
  8
0
100
AcDbBlockBegin
  2
block 72
 70
     0
 71
     0
 10
0.0
 20
0.0
 30
0.0
  3
block 72
  1

  0
POLYLINE
  5
21E
330
21A
100
AcDbEntity
  8
PIEZA
 62
     7
420
 16777215
370
     9
100
AcDb2dPolyline
 66
     1
 10
0.0
 20
0.0
 30
0.0
  0
VERTEX
  5
21F
330
21E
100
AcDbEntity
  8
PIEZA
 62
     7
420
 16777215
370
     9
100
AcDbVertex
100
AcDb2dVertex
 10
119.265322518212
 20
194.0093022005093
 30
0.0
  0
VERTEX
  5
220
330
21E
100
AcDbEntity
  8
PIEZA
 62
     7
420
 16777215
370
     9
100
AcDbVertex
100
AcDb2dVertex
 10
151.8831635808175
 20
194.5477709800787
 30
0.0
  0
SEQEND
  5
221
330
21E
100
AcDbEntity
  8
PIEZA
370
     9
  0
ENDBLK
  5
21D
330
21A
100
AcDbEntity
  8
0
100
AcDbBlockEnd
  0
BLOCK
  5
224
330
222
100
AcDbEntity
  8
0
100
AcDbBlockBegin
  2
block 73
 70
     0
 71
     0
 10
0.0
 20
0.0
 30
0.0
  3
block 73
  1

  0
POLYLINE
  5
226
330
222
100
AcDbEntity
  8
PIEZA
 62
     7
420
 16777215
370
     9
100
AcDb2dPolyline
 66
     1
 10
0.0
 20
0.0
 30
0.0
  0
VERTEX
  5
227
330
226
100
AcDbEntity
  8
PIEZA
 62
     7
420
 16777215
370
     9
100
AcDbVertex
100
AcDb2dVertex
 10
119.2622219302298
 20
195.3141329763373
 30
0.0
  0
VERTEX
  5
228
330
226
100
AcDbEntity
  8
PIEZA
 62
     7
420
 16777215
370
     9
100
AcDbVertex
100
AcDb2dVertex
 10
148.8935077464583
 20
195.8041981324074
 30
0.0
  0
SEQEND
  5
229
330
226
100
AcDbEntity
  8
PIEZA
370
     9
  0
ENDBLK
  5
225
330
222
100
AcDbEntity
  8
0
100
AcDbBlockEnd
  0
BLOCK
  5
22C
330
22A
100
AcDbEntity
  8
0
100
AcDbBlockBegin
  2
block 74
 70
     0
 71
     0
 10
0.0
 20
0.0
 30
0.0
  3
block 74
  1

  0
SPLINE
  5
22E
330
22A
100
AcDbEntity
  8
PIEZA
 62
     7
420
 16777215
370
     9
100
AcDbSpline
210
0.0
220
0.0
230
1.0
 70
     8
 71
     3
 72
     8
 73
     4
 74
     0
 42
0.0000000001
 43
0.0000000001
 40
0.0
 40
0.0
 40
0.0
 40
0.0
 40
1.0
 40
1.0
 40
1.0
 40
1.0
 10
119.2622219302298
 20
195.3141329763373
 30
0.0
 10
118.8040239284209
 20
195.3318752297908
 30
0.0
 10
118.2483296600617
 20
195.0231944706774
 30
0.0
 10
118.0216422275878
 20
194.6247689149692
 30
0.0
  0
ENDBLK
  5
22D
330
22A
100
AcDbEntity
  8
0
100
AcDbBlockEnd
  0
BLOCK
  5
231
330
22F
100
AcDbEntity
  8
0
100
AcDbBlockBegin
  2
block 75
 70
     0
 71
     0
 10
0.0
 20
0.0
 30
0.0
  3
block 75
  1

  0
SPLINE
  5
233
330
22F
100
AcDbEntity
  8
PIEZA
 62
     7
420
 16777215
370
     9
100
AcDbSpline
210
0.0
220
0.0
230
1.0
 70
     8
 71
     3
 72
     8
 73
     4
 74
     0
 42
0.0000000001
 43
0.0000000001
 40
0.0
 40
0.0
 40
0.0
 40
0.0
 40
1.0
 40
1.0
 40
1.0
 40
1.0
 10
119.280480948347
 20
194.0101634749488
 30
0.0
 10
119.2208807571343
 20
194.0124027884915
 30
0.0
 10
119.1488782139929
 20
193.9724396544991
 30
0.0
 10
119.1192503732744
 20
193.9205909332418
 30
0.0
  0
ENDBLK
  5
232
330
22F
100
AcDbEntity
  8
0
100
AcDbBlockEnd
  0
BLOCK
  5
236
330
234
100
AcDbEntity
  8
0
100
AcDbBlockBegin
  2
block 76
 70
     0
 71
     0
 10
0.0
 20
0.0
 30
0.0
  3
block 76
  1

  0
POLYLINE
  5
238
330
234
100
AcDbEntity
  8
PIEZA
 62
     7
420
 16777215
370
     9
100
AcDb2dPolyline
 66
     1
 10
0.0
 20
0.0
 30
0.0
  0
VERTEX
  5
239
330
238
100
AcDbEntity
  8
PIEZA
 62
     7
420
 16777215
370
     9
100
AcDbVertex
100
AcDb2dVertex
 10
70.79882598476748
 20
171.5543272690029
 30
0.0
  0
VERTEX
  5
23A
330
238
100
AcDbEntity
  8
PIEZA
 62
     7
420
 16777215
370
     9
100
AcDbVertex
100
AcDb2dVertex
 10
78.09261470303606
 20
164.2605385507343
 30
0.0
  0
SEQEND
  5
23B
330
238
100
AcDbEntity
  8
PIEZA
370
     9
  0
ENDBLK
  5
237
330
234
100
AcDbEntity
  8
0
100
AcDbBlockEnd
  0
BLOCK
  5
23E
330
23C
100
AcDbEntity
  8
0
100
AcDbBlockBegin
  2
block 77
 70
     0
 71
     0
 10
0.0
 20
0.0
 30
0.0
  3
block 77
  1

  0
POLYLINE
  5
240
330
23C
100
AcDbEntity
  8
PIEZA
 62
     7
420
 16777215
370
     9
100
AcDb2dPolyline
 66
     1
 10
0.0
 20
0.0
 30
0.0
  0
VERTEX
  5
241
330
240
100
AcDbEntity
  8
PIEZA
 62
     7
420
 16777215
370
     9
100
AcDbVertex
100
AcDb2dVertex
 10
150.0317680456889
 20
164.2605385507343
 30
0.0
  0
VERTEX
  5
242
330
240
100
AcDbEntity
  8
PIEZA
 62
     7
420
 16777215
370
     9
100
AcDbVertex
100
AcDb2dVertex
 10
157.3253845090696
 20
171.5543272690029
 30
0.0
  0
SEQEND
  5
243
330
240
100
AcDbEntity
  8
PIEZA
370
     9
  0
ENDBLK
  5
23F
330
23C
100
AcDbEntity
  8
0
100
AcDbBlockEnd
  0
BLOCK
  5
246
330
244
100
AcDbEntity
  8
0
100
AcDbBlockBegin
  2
block 78
 70
     0
 71
     0
 10
0.0
 20
0.0
 30
0.0
  3
block 78
  1

  0
SPLINE
  5
248
330
244
100
AcDbEntity
  8
PIEZA
 62
     7
420
 16777215
370
     9
100
AcDbSpline
210
0.0
220
0.0
230
1.0
 70
     8
 71
     3
 72
     8
 73
     4
 74
     0
 42
0.0000000001
 43
0.0000000001
 40
0.0
 40
0.0
 40
0.0
 40
0.0
 40
1.0
 40
1.0
 40
1.0
 40
1.0
 10
157.4983284165192
 20
199.9222957373868
 30
0.0
 10
156.5516155526313
 20
199.922123482499
 30
0.0
 10
154.8335453007359
 20
199.6547838964811
 30
0.0
 10
153.9312741979257
 20
199.3672904885792
 30
0.0
  0
ENDBLK
  5
247
330
244
100
AcDbEntity
  8
0
100
AcDbBlockEnd
  0
BLOCK
  5
24B
330
249
100
AcDbEntity
  8
0
100
AcDbBlockBegin
  2
block 79
 70
     0
 71
     0
 10
0.0
 20
0.0
 30
0.0
  3
block 79
  1

  0
SPLINE
  5
24D
330
249
100
AcDbEntity
  8
PIEZA
 62
     7
420
 16777215
370
     9
100
AcDbSpline
210
0.0
220
0.0
230
1.0
 70
     8
 71
     3
 72
     8
 73
     4
 74
     0
 42
0.0000000001
 43
0.0000000001
 40
0.0
 40
0.0
 40
0.0
 40
0.0
 40
1.0
 40
1.0
 40
1.0
 40
1.0
 10
158.0026907282848
 20
200.9299868315906
 30
0.0
 10
156.8447933718339
 20
200.9728782986773
 30
0.0
 10
154.7629207966976
 20
200.6846958712238
 30
0.0
 10
153.6598004945983
 20
200.3288172728263
 30
0.0
  0
ENDBLK
  5
24C
330
249
100
AcDbEntity
  8
0
100
AcDbBlockEnd
  0
BLOCK
  5
250
330
24E
100
AcDbEntity
  8
0
100
AcDbBlockBegin
  2
block 80
 70
     0
 71
     0
 10
0.0
 20
0.0
 30
0.0
  3
block 80
  1

  0
SPLINE
  5
252
330
24E
100
AcDbEntity
  8
PIEZA
 62
     7
420
 16777215
370
     9
100
AcDbSpline
210
0.0
220
0.0
230
1.0
 70
     8
 71
     3
 72
     8
 73
     4
 74
     0
 42
0.0000000001
 43
0.0000000001
 40
0.0
 40
0.0
 40
0.0
 40
0.0
 40
1.0
 40
1.0
 40
1.0
 40
1.0
 10
153.6598004945983
 20
200.3288172728263
 30
0.0
 10
152.1325886584939
 20
199.9791398503932
 30
0.0
 10
150.6415503488481
 20
198.458301445141
 30
0.0
 10
150.322189786685
 20
196.9243716684086
 30
0.0
  0
ENDBLK
  5
251
330
24E
100
AcDbEntity
  8
0
100
AcDbBlockEnd
  0
BLOCK
  5
255
330
253
100
AcDbEntity
  8
0
100
AcDbBlockBegin
  2
block 81
 70
     0
 71
     0
 10
0.0
 20
0.0
 30
0.0
  3
block 81
  1

  0
SPLINE
  5
257
330
253
100
AcDbEntity
  8
PIEZA
 62
     7
420
 16777215
370
     9
100
AcDbSpline
210
0.0
220
0.0
230
1.0
 70
     8
 71
     3
 72
     8
 73
     4
 74
     0
 42
0.0000000001
 43
0.0000000001
 40
0.0
 40
0.0
 40
0.0
 40
0.0
 40
1.0
 40
1.0
 40
1.0
 40
1.0
 10
148.8935077464583
 20
195.8041981324074
 30
0.0
 10
149.5422196542825
 20
195.7940350940214
 30
0.0
 10
150.1771511710749
 20
196.2918517200468
 30
0.0
 10
150.322189786685
 20
196.9243716684086
 30
0.0
  0
ENDBLK
  5
256
330
253
100
AcDbEntity
  8
0
100
AcDbBlockEnd
  0
BLOCK
  5
25A
330
258
100
AcDbEntity
  8
0
100
AcDbBlockBegin
  2
block 82
 70
     0
 71
     0
 10
0.0
 20
0.0
 30
0.0
  3
block 82
  1

  0
SPLINE
  5
25C
330
258
100
AcDbEntity
  8
PIEZA
 62
     7
420
 16777215
370
     9
100
AcDbSpline
210
0.0
220
0.0
230
1.0
 70
     8
 71
     3
 72
     8
 73
     4
 74
     0
 42
0.0000000001
 43
0.0000000001
 40
0.0
 40
0.0
 40
0.0
 40
0.0
 40
1.0
 40
1.0
 40
1.0
 40
1.0
 10
153.9312741979257
 20
199.3672904885792
 30
0.0
 10
152.3957941272022
 20
198.9888464998671
 30
0.0
 10
151.1676167764888
 20
197.4208102553308
 30
0.0
 10
151.1679612862646
 20
195.8393381295386
 30
0.0
  0
ENDBLK
  5
25B
330
258
100
AcDbEntity
  8
0
100
AcDbBlockEnd
  0
BLOCK
  5
25F
330
25D
100
AcDbEntity
  8
0
100
AcDbBlockBegin
  2
block 83
 70
     0
 71
     0
 10
0.0
 20
0.0
 30
0.0
  3
block 83
  1

  0
SPLINE
  5
261
330
25D
100
AcDbEntity
  8
PIEZA
 62
     7
420
 16777215
370
     9
100
AcDbSpline
210
0.0
220
0.0
230
1.0
 70
     8
 71
     3
 72
    11
 73
     7
 74
     0
 42
0.0000000001
 43
0.0000000001
 40
0.0
 40
0.0
 40
0.0
 40
0.0
 40
1.0
 40
1.0
 40
1.0
 40
2.0
 40
2.0
 40
2.0
 40
2.0
 10
151.1679612862646
 20
195.8393381295386
 30
0.0
 10
151.1624491298519
 20
195.6739734371564
 30
0.0
 10
151.292329315327
 20
195.5353082523984
 30
0.0
 10
151.4576940077092
 20
195.5297960959857
 30
0.0
 10
151.4601055761398
 20
195.5296238410978
 30
0.0
 10
151.4652732227767
 20
195.5296238410978
 30
0.0
 10
151.4676847912073
 20
195.5296238410978
 30
0.0
  0
ENDBLK
  5
260
330
25D
100
AcDbEntity
  8
0
100
AcDbBlockEnd
  0
BLOCK
  5
264
330
262
100
AcDbEntity
  8
0
100
AcDbBlockBegin
  2
block 84
 70
     0
 71
     0
 10
0.0
 20
0.0
 30
0.0
  3
block 84
  1

  0
SPLINE
  5
266
330
262
100
AcDbEntity
  8
PIEZA
 62
     7
420
 16777215
370
     9
100
AcDbSpline
210
0.0
220
0.0
230
1.0
 70
     8
 71
     3
 72
     8
 73
     4
 74
     0
 42
0.0000000001
 43
0.0000000001
 40
0.0
 40
0.0
 40
0.0
 40
0.0
 40
1.0
 40
1.0
 40
1.0
 40
1.0
 10
154.2861192669957
 20
192.8465817071972
 30
0.0
 10
154.3563992612582
 20
192.6112815303285
 30
0.0
 10
154.6089249269168
 20
192.4297248784839
 30
0.0
 10
154.8545603970594
 20
192.4383376228788
 30
0.0
  0
ENDBLK
  5
265
330
262
100
AcDbEntity
  8
0
100
AcDbBlockEnd
  0
BLOCK
  5
269
330
267
100
AcDbEntity
  8
0
100
AcDbBlockBegin
  2
block 85
 70
     0
 71
     0
 10
0.0
 20
0.0
 30
0.0
  3
block 85
  1

  0
SPLINE
  5
26B
330
267
100
AcDbEntity
  8
PIEZA
 62
     7
420
 16777215
370
     9
100
AcDbSpline
210
0.0
220
0.0
230
1.0
 70
     8
 71
     3
 72
     8
 73
     4
 74
     0
 42
0.0000000001
 43
0.0000000001
 40
0.0
 40
0.0
 40
0.0
 40
0.0
 40
1.0
 40
1.0
 40
1.0
 40
1.0
 10
154.2861192669957
 20
192.8465817071972
 30
0.0
 10
153.9884628207079
 20
193.8413536848087
 30
0.0
 10
152.9204825157397
 20
194.5975526426813
 30
0.0
 10
151.8831635808175
 20
194.5477709800787
 30
0.0
  0
ENDBLK
  5
26A
330
267
100
AcDbEntity
  8
0
100
AcDbBlockEnd
  0
BLOCK
  5
26E
330
26C
100
AcDbEntity
  8
0
100
AcDbBlockBegin
  2
block 86
 70
     0
 71
     0
 10
0.0
 20
0.0
 30
0.0
  3
block 86
  1

  0
SPLINE
  5
270
330
26C
100
AcDbEntity
  8
PIEZA
 62
     7
420
 16777215
370
     9
100
AcDbSpline
210
0.0
220
0.0
230
1.0
 70
     8
 71
     3
 72
     8
 73
     4
 74
     0
 42
0.0000000001
 43
0.0000000001
 40
0.0
 40
0.0
 40
0.0
 40
0.0
 40
1.0
 40
1.0
 40
1.0
 40
1.0
 10
154.8304447127537
 20
193.9552141657093
 30
0.0
 10
154.2919759331843
 20
194.8812564430494
 30
0.0
 10
152.9883509415716
 20
195.5861234443284
 30
0.0
 10
151.9186480877245
 20
195.5296238410978
 30
0.0
  0
ENDBLK
  5
26F
330
26C
100
AcDbEntity
  8
0
100
AcDbBlockEnd
  0
BLOCK
  5
273
330
271
100
AcDbEntity
  8
0
100
AcDbBlockBegin
  2
block 87
 70
     0
 71
     0
 10
0.0
 20
0.0
 30
0.0
  3
block 87
  1

  0
SPLINE
  5
275
330
271
100
AcDbEntity
  8
PIEZA
 62
     7
420
 16777215
370
     9
100
AcDbSpline
210
0.0
220
0.0
230
1.0
 70
     8
 71
     3
 72
     8
 73
     4
 74
     0
 42
0.0000000001
 43
0.0000000001
 40
0.0
 40
0.0
 40
0.0
 40
0.0
 40
1.0
 40
1.0
 40
1.0
 40
1.0
 10
154.8304447127537
 20
193.9552141657093
 30
0.0
 10
154.8766090227104
 20
193.8752878977246
 30
0.0
 10
154.9889192096199
 20
193.8146541771845
 30
0.0
 10
155.0812478295333
 20
193.8194773140456
 30
0.0
  0
ENDBLK
  5
274
330
271
100
AcDbEntity
  8
0
100
AcDbBlockEnd
  0
BLOCK
  5
278
330
276
100
AcDbEntity
  8
0
100
AcDbBlockBegin
  2
block 88
 70
     0
 71
     0
 10
0.0
 20
0.0
 30
0.0
  3
block 88
  1

  0
POLYLINE
  5
27A
330
276
100
AcDbEntity
  8
PIEZA
 62
     7
420
 16777215
370
     9
100
AcDb2dPolyline
 66
     1
 10
0.0
 20
0.0
 30
0.0
  0
VERTEX
  5
27B
330
27A
100
AcDbEntity
  8
PIEZA
 62
     7
420
 16777215
370
     9
100
AcDbVertex
100
AcDb2dVertex
 10
157.9113956376988
 20
199.529899102755
 30
0.0
  0
VERTEX
  5
27C
330
27A
100
AcDbEntity
  8
PIEZA
 62
     7
420
 16777215
370
     9
100
AcDbVertex
100
AcDb2dVertex
 10
158.005791316267
 20
194.1245407205131
 30
0.0
  0
SEQEND
  5
27D
330
27A
100
AcDbEntity
  8
PIEZA
370
     9
  0
ENDBLK
  5
279
330
276
100
AcDbEntity
  8
0
100
AcDbBlockEnd
  0
BLOCK
  5
280
330
27E
100
AcDbEntity
  8
0
100
AcDbBlockBegin
  2
block 89
 70
     0
 71
     0
 10
0.0
 20
0.0
 30
0.0
  3
block 89
  1

  0
SPLINE
  5
282
330
27E
100
AcDbEntity
  8
PIEZA
 62
     7
420
 16777215
370
     9
100
AcDbSpline
210
0.0
220
0.0
230
1.0
 70
     8
 71
     3
 72
    11
 73
     7
 74
     0
 42
0.0000000001
 43
0.0000000001
 40
0.0
 40
0.0
 40
0.0
 40
0.0
 40
1.0
 40
1.0
 40
1.0
 40
2.0
 40
2.0
 40
2.0
 40
2.0
 10
157.7060678113243
 20
193.8194773140456
 30
0.0
 10
157.8717770134823
 20
193.8194773140456
 30
0.0
 10
158.005791316267
 20
193.9536638717182
 30
0.0
 10
158.005791316267
 20
194.1192008189883
 30
0.0
 10
158.005791316267
 20
194.1205788580915
 30
0.0
 10
158.005791316267
 20
194.1231626814099
 30
0.0
 10
158.005791316267
 20
194.1245407205131
 30
0.0
  0
ENDBLK
  5
281
330
27E
100
AcDbEntity
  8
0
100
AcDbBlockEnd
  0
BLOCK
  5
285
330
283
100
AcDbEntity
  8
0
100
AcDbBlockBegin
  2
block 90
 70
     0
 71
     0
 10
0.0
 20
0.0
 30
0.0
  3
block 90
  1

  0
POLYLINE
  5
287
330
283
100
AcDbEntity
  8
PIEZA
 62
     7
420
 16777215
370
     9
100
AcDb2dPolyline
 66
     1
 10
0.0
 20
0.0
 30
0.0
  0
VERTEX
  5
288
330
287
100
AcDbEntity
  8
PIEZA
 62
     7
420
 16777215
370
     9
100
AcDbVertex
100
AcDb2dVertex
 10
158.9018612431128
 20
200.0308163167626
 30
0.0
  0
VERTEX
  5
289
330
287
100
AcDbEntity
  8
PIEZA
 62
     7
420
 16777215
370
     9
100
AcDbVertex
100
AcDb2dVertex
 10
159.0241622135205
 20
193.0377846327641
 30
0.0
  0
SEQEND
  5
28A
330
287
100
AcDbEntity
  8
PIEZA
370
     9
  0
ENDBLK
  5
286
330
283
100
AcDbEntity
  8
0
100
AcDbBlockEnd
  0
BLOCK
  5
28D
330
28B
100
AcDbEntity
  8
0
100
AcDbBlockBegin
  2
block 91
 70
     0
 71
     0
 10
0.0
 20
0.0
 30
0.0
  3
block 91
  1

  0
POLYLINE
  5
28F
330
28B
100
AcDbEntity
  8
PIEZA
 62
     7
420
 16777215
370
     9
100
AcDb2dPolyline
 66
     1
 10
0.0
 20
0.0
 30
0.0
  0
VERTEX
  5
290
330
28F
100
AcDbEntity
  8
PIEZA
 62
     7
420
 16777215
370
     9
100
AcDbVertex
100
AcDb2dVertex
 10
157.7060678113243
 20
193.8194773140456
 30
0.0
  0
VERTEX
  5
291
330
28F
100
AcDbEntity
  8
PIEZA
 62
     7
420
 16777215
370
     9
100
AcDbVertex
100
AcDb2dVertex
 10
155.0812478295333
 20
193.8194773140456
 30
0.0
  0
SEQEND
  5
292
330
28F
100
AcDbEntity
  8
PIEZA
370
     9
  0
ENDBLK
  5
28E
330
28B
100
AcDbEntity
  8
0
100
AcDbBlockEnd
  0
BLOCK
  5
295
330
293
100
AcDbEntity
  8
0
100
AcDbBlockBegin
  2
block 92
 70
     0
 71
     0
 10
0.0
 20
0.0
 30
0.0
  3
block 92
  1

  0
SPLINE
  5
297
330
293
100
AcDbEntity
  8
PIEZA
 62
     7
420
 16777215
370
     9
100
AcDbSpline
210
0.0
220
0.0
230
1.0
 70
     8
 71
     3
 72
    11
 73
     7
 74
     0
 42
0.0000000001
 43
0.0000000001
 40
0.0
 40
0.0
 40
0.0
 40
0.0
 40
1.0
 40
1.0
 40
1.0
 40
2.0
 40
2.0
 40
2.0
 40
2.0
 10
158.4247152036351
 20
192.4383376228788
 30
0.0
 10
158.7557890981752
 20
192.4383376228788
 30
0.0
 10
159.0241622135205
 20
192.706710738224
 30
0.0
 10
159.0241622135205
 20
193.0377846327641
 30
0.0
 10
159.0241622135205
 20
193.0377846327641
 30
0.0
 10
159.0241622135205
 20
193.0377846327641
 30
0.0
 10
159.0241622135205
 20
193.0377846327641
 30
0.0
  0
ENDBLK
  5
296
330
293
100
AcDbEntity
  8
0
100
AcDbBlockEnd
  0
BLOCK
  5
29A
330
298
100
AcDbEntity
  8
0
100
AcDbBlockBegin
  2
block 93
 70
     0
 71
     0
 10
0.0
 20
0.0
 30
0.0
  3
block 93
  1

  0
SPLINE
  5
29C
330
298
100
AcDbEntity
  8
PIEZA
 62
     7
420
 16777215
370
     9
100
AcDbSpline
210
0.0
220
0.0
230
1.0
 70
     8
 71
     3
 72
    11
 73
     7
 74
     0
 42
0.0000000001
 43
0.0000000001
 40
0.0
 40
0.0
 40
0.0
 40
0.0
 40
1.0
 40
1.0
 40
1.0
 40
2.0
 40
2.0
 40
2.0
 40
2.0
 10
158.9018612431128
 20
200.0308163167626
 30
0.0
 10
158.9018612431128
 20
200.5274271585728
 30
0.0
 10
158.4994738249829
 20
200.9299868315906
 30
0.0
 10
158.0026907282848
 20
200.9299868315906
 30
0.0
 10
158.0026907282848
 20
200.9299868315906
 30
0.0
 10
158.0026907282848
 20
200.9299868315906
 30
0.0
 10
158.0026907282848
 20
200.9299868315906
 30
0.0
  0
ENDBLK
  5
29B
330
298
100
AcDbEntity
  8
0
100
AcDbBlockEnd
  0
BLOCK
  5
29F
330
29D
100
AcDbEntity
  8
0
100
AcDbBlockBegin
  2
block 94
 70
     0
 71
     0
 10
0.0
 20
0.0
 30
0.0
  3
block 94
  1

  0
SPLINE
  5
2A1
330
29D
100
AcDbEntity
  8
PIEZA
 62
     7
420
 16777215
370
     9
100
AcDbSpline
210
0.0
220
0.0
230
1.0
 70
     8
 71
     3
 72
    11
 73
     7
 74
     0
 42
0.0000000001
 43
0.0000000001
 40
0.0
 40
0.0
 40
0.0
 40
0.0
 40
1.0
 40
1.0
 40
1.0
 40
2.0
 40
2.0
 40
2.0
 40
2.0
 10
157.9113956376988
 20
199.529899102755
 30
0.0
 10
157.9076060301651
 20
199.7505576141525
 30
0.0
 10
157.7257048685447
 20
199.9264298546964
 30
0.0
 10
157.5048741022594
 20
199.9224679922747
 30
0.0
 10
157.5031515533804
 20
199.9224679922747
 30
0.0
 10
157.5000509653982
 20
199.9224679922747
 30
0.0
 10
157.4983284165192
 20
199.9222957373868
 30
0.0
  0
ENDBLK
  5
2A0
330
29D
100
AcDbEntity
  8
0
100
AcDbBlockEnd
  0
BLOCK
  5
2A4
330
2A2
100
AcDbEntity
  8
0
100
AcDbBlockBegin
  2
block 95
 70
     0
 71
     0
 10
0.0
 20
0.0
 30
0.0
  3
block 95
  1

  0
POLYLINE
  5
2A6
330
2A2
100
AcDbEntity
  8
PIEZA
 62
     7
420
 16777215
370
     9
100
AcDb2dPolyline
 66
     1
 10
0.0
 20
0.0
 30
0.0
  0
VERTEX
  5
2A7
330
2A6
100
AcDbEntity
  8
PIEZA
 62
     7
420
 16777215
370
     9
100
AcDbVertex
100
AcDb2dVertex
 10
151.9186480877245
 20
195.5296238410978
 30
0.0
  0
VERTEX
  5
2A8
330
2A6
100
AcDbEntity
  8
PIEZA
 62
     7
420
 16777215
370
     9
100
AcDbVertex
100
AcDb2dVertex
 10
151.4676847912073
 20
195.5296238410978
 30
0.0
  0
SEQEND
  5
2A9
330
2A6
100
AcDbEntity
  8
PIEZA
370
     9
  0
ENDBLK
  5
2A5
330
2A2
100
AcDbEntity
  8
0
100
AcDbBlockEnd
  0
BLOCK
  5
2AC
330
2AA
100
AcDbEntity
  8
0
100
AcDbBlockBegin
  2
block 96
 70
     0
 71
     0
 10
0.0
 20
0.0
 30
0.0
  3
block 96
  1

  0
POLYLINE
  5
2AE
330
2AA
100
AcDbEntity
  8
PIEZA
 62
     7
420
 16777215
370
     9
100
AcDb2dPolyline
 66
     1
 10
0.0
 20
0.0
 30
0.0
  0
VERTEX
  5
2AF
330
2AE
100
AcDbEntity
  8
PIEZA
 62
     7
420
 16777215
370
     9
100
AcDbVertex
100
AcDb2dVertex
 10
114.0621913743625
 20
200.9299868315906
 30
0.0
  0
VERTEX
  5
2B0
330
2AE
100
AcDbEntity
  8
PIEZA
 62
     7
420
 16777215
370
     9
100
AcDbVertex
100
AcDb2dVertex
 10
158.0026907282848
 20
200.9299868315906
 30
0.0
  0
SEQEND
  5
2B1
330
2AE
100
AcDbEntity
  8
PIEZA
370
     9
  0
ENDBLK
  5
2AD
330
2AA
100
AcDbEntity
  8
0
100
AcDbBlockEnd
  0
BLOCK
  5
2B4
330
2B2
100
AcDbEntity
  8
0
100
AcDbBlockBegin
  2
block 97
 70
     0
 71
     0
 10
0.0
 20
0.0
 30
0.0
  3
block 97
  1

  0
POLYLINE
  5
2B6
330
2B2
100
AcDbEntity
  8
PIEZA
 62
     7
420
 16777215
370
     9
100
AcDb2dPolyline
 66
     1
 10
0.0
 20
0.0
 30
0.0
  0
VERTEX
  5
2B7
330
2B6
100
AcDbEntity
  8
PIEZA
 62
     7
420
 16777215
370
     9
100
AcDbVertex
100
AcDb2dVertex
 10
158.4247152036351
 20
192.4383376228788
 30
0.0
  0
VERTEX
  5
2B8
330
2B6
100
AcDbEntity
  8
PIEZA
 62
     7
420
 16777215
370
     9
100
AcDbVertex
100
AcDb2dVertex
 10
154.8545603970594
 20
192.4383376228788
 30
0.0
  0
SEQEND
  5
2B9
330
2B6
100
AcDbEntity
  8
PIEZA
370
     9
  0
ENDBLK
  5
2B5
330
2B2
100
AcDbEntity
  8
0
100
AcDbBlockEnd
  0
BLOCK
  5
2BC
330
2BA
100
AcDbEntity
  8
0
100
AcDbBlockBegin
  2
block 98
 70
     0
 71
     0
 10
0.0
 20
0.0
 30
0.0
  3
block 98
  1

  0
POLYLINE
  5
2BE
330
2BA
100
AcDbEntity
  8
PIEZA
 62
     7
420
 16777215
370
     9
100
AcDb2dPolyline
 66
     1
 10
0.0
 20
0.0
 30
0.0
  0
VERTEX
  5
2BF
330
2BE
100
AcDbEntity
  8
PIEZA
 62
     7
420
 16777215
370
     9
100
AcDbVertex
100
AcDb2dVertex
 10
154.8545603970594
 20
192.4383376228788
 30
0.0
  0
VERTEX
  5
2C0
330
2BE
100
AcDbEntity
  8
PIEZA
 62
     7
420
 16777215
370
     9
100
AcDbVertex
100
AcDb2dVertex
 10
118.5139466972006
 20
192.4383376228788
 30
0.0
  0
SEQEND
  5
2C1
330
2BE
100
AcDbEntity
  8
PIEZA
370
     9
  0
ENDBLK
  5
2BD
330
2BA
100
AcDbEntity
  8
0
100
AcDbBlockEnd
  0
BLOCK
  5
2C4
330
2C2
100
AcDbEntity
  8
0
100
AcDbBlockBegin
  2
block 99
 70
     0
 71
     0
 10
0.0
 20
0.0
 30
0.0
  3
block 99
  1

  0
POLYLINE
  5
2C6
330
2C2
100
AcDbEntity
  8
PIEZA
 62
     7
420
 16777215
370
     9
100
AcDb2dPolyline
 66
     1
 10
0.0
 20
0.0
 30
0.0
  0
VERTEX
  5
2C7
330
2C6
100
AcDbEntity
  8
PIEZA
 62
     7
420
 16777215
370
     9
100
AcDbVertex
100
AcDb2dVertex
 10
114.0621913743625
 20
192.4383376228788
 30
0.0
  0
VERTEX
  5
2C8
330
2C6
100
AcDbEntity
  8
PIEZA
 62
     7
420
 16777215
370
     9
100
AcDbVertex
100
AcDb2dVertex
 10
114.0615023548109
 20
192.4383376228788
 30
0.0
  0
SEQEND
  5
2C9
330
2C6
100
AcDbEntity
  8
PIEZA
370
     9
  0
ENDBLK
  5
2C5
330
2C2
100
AcDbEntity
  8
0
100
AcDbBlockEnd
  0
BLOCK
  5
2CC
330
2CA
100
AcDbEntity
  8
0
100
AcDbBlockBegin
  2
block 100
 70
     0
 71
     0
 10
0.0
 20
0.0
 30
0.0
  3
block 100
  1

  0
POLYLINE
  5
2CE
330
2CA
100
AcDbEntity
  8
PIEZA
 62
     7
420
 16777215
370
     9
100
AcDb2dPolyline
 66
     1
 10
0.0
 20
0.0
 30
0.0
  0
VERTEX
  5
2CF
330
2CE
100
AcDbEntity
  8
PIEZA
 62
     7
420
 16777215
370
     9
100
AcDbVertex
100
AcDb2dVertex
 10
110.1027405211371
 20
194.6247689149692
 30
0.0
  0
VERTEX
  5
2D0
330
2CE
100
AcDbEntity
  8
PIEZA
 62
     7
420
 16777215
370
     9
100
AcDbVertex
100
AcDb2dVertex
 10
110.8358573240313
 20
193.4818577337654
 30
0.0
  0
SEQEND
  5
2D1
330
2CE
100
AcDbEntity
  8
PIEZA
370
     9
  0
ENDBLK
  5
2CD
330
2CA
100
AcDbEntity
  8
0
100
AcDbBlockEnd
  0
BLOCK
  5
2D4
330
2D2
100
AcDbEntity
  8
0
100
AcDbBlockBegin
  2
block 101
 70
     0
 71
     0
 10
0.0
 20
0.0
 30
0.0
  3
block 101
  1

  0
POLYLINE
  5
2D6
330
2D2
100
AcDbEntity
  8
PIEZA
 62
     7
420
 16777215
370
     9
100
AcDb2dPolyline
 66
     1
 10
0.0
 20
0.0
 30
0.0
  0
VERTEX
  5
2D7
330
2D6
100
AcDbEntity
  8
PIEZA
 62
     7
420
 16777215
370
     9
100
AcDbVertex
100
AcDb2dVertex
 10
109.0051323754505
 20
193.9205909332418
 30
0.0
  0
VERTEX
  5
2D8
330
2D6
100
AcDbEntity
  8
PIEZA
 62
     7
420
 16777215
370
     9
100
AcDbVertex
100
AcDb2dVertex
 10
109.590798994304
 20
193.0072955176061
 30
0.0
  0
SEQEND
  5
2D9
330
2D6
100
AcDbEntity
  8
PIEZA
370
     9
  0
ENDBLK
  5
2D5
330
2D2
100
AcDbEntity
  8
0
100
AcDbBlockEnd
  0
BLOCK
  5
2DC
330
2DA
100
AcDbEntity
  8
0
100
AcDbBlockBegin
  2
block 102
 70
     0
 71
     0
 10
0.0
 20
0.0
 30
0.0
  3
block 102
  1

  0
SPLINE
  5
2DE
330
2DA
100
AcDbEntity
  8
PIEZA
 62
     7
420
 16777215
370
     9
100
AcDbSpline
210
0.0
220
0.0
230
1.0
 70
     8
 71
     3
 72
     8
 73
     4
 74
     0
 42
0.0000000001
 43
0.0000000001
 40
0.0
 40
0.0
 40
0.0
 40
0.0
 40
1.0
 40
1.0
 40
1.0
 40
1.0
 10
109.6107805613002
 20
192.9397716015501
 30
0.0
 10
109.6118140906275
 20
192.9599254234342
 30
0.0
 10
109.6025123266811
 20
192.9911035581437
 30
0.0
 10
109.590798994304
 20
193.0072955176061
 30
0.0
  0
ENDBLK
  5
2DD
330
2DA
100
AcDbEntity
  8
0
100
AcDbBlockEnd
  0
BLOCK
  5
2E1
330
2DF
100
AcDbEntity
  8
0
100
AcDbBlockBegin
  2
block 103
 70
     0
 71
     0
 10
0.0
 20
0.0
 30
0.0
  3
block 103
  1

  0
POLYLINE
  5
2E3
330
2DF
100
AcDbEntity
  8
PIEZA
 62
     7
420
 16777215
370
     9
100
AcDb2dPolyline
 66
     1
 10
0.0
 20
0.0
 30
0.0
  0
VERTEX
  5
2E4
330
2E3
100
AcDbEntity
  8
PIEZA
 62
     7
420
 16777215
370
     9
100
AcDbVertex
100
AcDb2dVertex
 10
110.9147500626887
 20
193.2119343244291
 30
0.0
  0
VERTEX
  5
2E5
330
2E3
100
AcDbEntity
  8
PIEZA
 62
     7
420
 16777215
370
     9
100
AcDbVertex
100
AcDb2dVertex
 10
110.9144055529129
 20
192.4383376228788
 30
0.0
  0
SEQEND
  5
2E6
330
2E3
100
AcDbEntity
  8
PIEZA
370
     9
  0
ENDBLK
  5
2E2
330
2DF
100
AcDbEntity
  8
0
100
AcDbBlockEnd
  0
BLOCK
  5
2E9
330
2E7
100
AcDbEntity
  8
0
100
AcDbBlockBegin
  2
block 104
 70
     0
 71
     0
 10
0.0
 20
0.0
 30
0.0
  3
block 104
  1

  0
POLYLINE
  5
2EB
330
2E7
100
AcDbEntity
  8
PIEZA
 62
     7
420
 16777215
370
     9
100
AcDb2dPolyline
 66
     1
 10
0.0
 20
0.0
 30
0.0
  0
VERTEX
  5
2EC
330
2EB
100
AcDbEntity
  8
PIEZA
 62
     7
420
 16777215
370
     9
100
AcDbVertex
100
AcDb2dVertex
 10
109.6107805613002
 20
192.9397716015501
 30
0.0
  0
VERTEX
  5
2ED
330
2EB
100
AcDbEntity
  8
PIEZA
 62
     7
420
 16777215
370
     9
100
AcDbVertex
100
AcDb2dVertex
 10
109.6104360515244
 20
192.4383376228788
 30
0.0
  0
SEQEND
  5
2EE
330
2EB
100
AcDbEntity
  8
PIEZA
370
     9
  0
ENDBLK
  5
2EA
330
2E7
100
AcDbEntity
  8
0
100
AcDbBlockEnd
  0
BLOCK
  5
2F1
330
2EF
100
AcDbEntity
  8
0
100
AcDbBlockBegin
  2
block 105
 70
     0
 71
     0
 10
0.0
 20
0.0
 30
0.0
  3
block 105
  1

  0
SPLINE
  5
2F3
330
2EF
100
AcDbEntity
  8
PIEZA
 62
     7
420
 16777215
370
     9
100
AcDbSpline
210
0.0
220
0.0
230
1.0
 70
     8
 71
     3
 72
     8
 73
     4
 74
     0
 42
0.0000000001
 43
0.0000000001
 40
0.0
 40
0.0
 40
0.0
 40
0.0
 40
1.0
 40
1.0
 40
1.0
 40
1.0
 10
110.9147500626887
 20
193.2119343244291
 30
0.0
 10
110.9195731995498
 20
193.2920328473017
 30
0.0
 10
110.8827106535396
 20
193.4169176410278
 30
0.0
 10
110.8358573240313
 20
193.4818577337654
 30
0.0
  0
ENDBLK
  5
2F2
330
2EF
100
AcDbEntity
  8
0
100
AcDbBlockEnd
  0
BLOCK
  5
2F6
330
2F4
100
AcDbEntity
  8
0
100
AcDbBlockBegin
  2
block 106
 70
     0
 71
     0
 10
0.0
 20
0.0
 30
0.0
  3
block 106
  1

  0
POLYLINE
  5
2F8
330
2F4
100
AcDbEntity
  8
PIEZA
 62
     7
420
 16777215
370
     9
100
AcDb2dPolyline
 66
     1
 10
0.0
 20
0.0
 30
0.0
  0
VERTEX
  5
2F9
330
2F8
100
AcDbEntity
  8
PIEZA
 62
     7
420
 16777215
370
     9
100
AcDbVertex
100
AcDb2dVertex
 10
108.8590602305129
 20
194.0093022005093
 30
0.0
  0
VERTEX
  5
2FA
330
2F8
100
AcDbEntity
  8
PIEZA
 62
     7
420
 16777215
370
     9
100
AcDbVertex
100
AcDb2dVertex
 10
76.24121916790745
 20
194.5477709800787
 30
0.0
  0
SEQEND
  5
2FB
330
2F8
100
AcDbEntity
  8
PIEZA
370
     9
  0
ENDBLK
  5
2F7
330
2F4
100
AcDbEntity
  8
0
100
AcDbBlockEnd
  0
BLOCK
  5
2FE
330
2FC
100
AcDbEntity
  8
0
100
AcDbBlockBegin
  2
block 107
 70
     0
 71
     0
 10
0.0
 20
0.0
 30
0.0
  3
block 107
  1

  0
POLYLINE
  5
300
330
2FC
100
AcDbEntity
  8
PIEZA
 62
     7
420
 16777215
370
     9
100
AcDb2dPolyline
 66
     1
 10
0.0
 20
0.0
 30
0.0
  0
VERTEX
  5
301
330
300
100
AcDbEntity
  8
PIEZA
 62
     7
420
 16777215
370
     9
100
AcDbVertex
100
AcDb2dVertex
 10
108.8621608184951
 20
195.3141329763373
 30
0.0
  0
VERTEX
  5
302
330
300
100
AcDbEntity
  8
PIEZA
 62
     7
420
 16777215
370
     9
100
AcDbVertex
100
AcDb2dVertex
 10
79.2308750022666
 20
195.8041981324074
 30
0.0
  0
SEQEND
  5
303
330
300
100
AcDbEntity
  8
PIEZA
370
     9
  0
ENDBLK
  5
2FF
330
2FC
100
AcDbEntity
  8
0
100
AcDbBlockEnd
  0
BLOCK
  5
306
330
304
100
AcDbEntity
  8
0
100
AcDbBlockBegin
  2
block 108
 70
     0
 71
     0
 10
0.0
 20
0.0
 30
0.0
  3
block 108
  1

  0
SPLINE
  5
308
330
304
100
AcDbEntity
  8
PIEZA
 62
     7
420
 16777215
370
     9
100
AcDbSpline
210
0.0
220
0.0
230
1.0
 70
     8
 71
     3
 72
     8
 73
     4
 74
     0
 42
0.0000000001
 43
0.0000000001
 40
0.0
 40
0.0
 40
0.0
 40
0.0
 40
1.0
 40
1.0
 40
1.0
 40
1.0
 10
110.1027405211371
 20
194.6247689149692
 30
0.0
 10
109.8757085788874
 20
195.0231944706774
 30
0.0
 10
109.320358820304
 20
195.3318752297908
 30
0.0
 10
108.8621608184951
 20
195.3141329763373
 30
0.0
  0
ENDBLK
  5
307
330
304
100
AcDbEntity
  8
0
100
AcDbBlockEnd
  0
BLOCK
  5
30B
330
309
100
AcDbEntity
  8
0
100
AcDbBlockBegin
  2
block 109
 70
     0
 71
     0
 10
0.0
 20
0.0
 30
0.0
  3
block 109
  1

  0
SPLINE
  5
30D
330
309
100
AcDbEntity
  8
PIEZA
 62
     7
420
 16777215
370
     9
100
AcDbSpline
210
0.0
220
0.0
230
1.0
 70
     8
 71
     3
 72
     8
 73
     4
 74
     0
 42
0.0000000001
 43
0.0000000001
 40
0.0
 40
0.0
 40
0.0
 40
0.0
 40
1.0
 40
1.0
 40
1.0
 40
1.0
 10
109.0051323754505
 20
193.9205909332418
 30
0.0
 10
108.975504534732
 20
193.9724396544991
 30
0.0
 10
108.9035019915906
 20
194.0124027884915
 30
0.0
 10
108.8439018003779
 20
194.0101634749488
 30
0.0
  0
ENDBLK
  5
30C
330
309
100
AcDbEntity
  8
0
100
AcDbBlockEnd
  0
BLOCK
  5
310
330
30E
100
AcDbEntity
  8
0
100
AcDbBlockBegin
  2
block 110
 70
     0
 71
     0
 10
0.0
 20
0.0
 30
0.0
  3
block 110
  1

  0
SPLINE
  5
312
330
30E
100
AcDbEntity
  8
PIEZA
 62
     7
420
 16777215
370
     9
100
AcDbSpline
210
0.0
220
0.0
230
1.0
 70
     8
 71
     3
 72
     8
 73
     4
 74
     0
 42
0.0000000001
 43
0.0000000001
 40
0.0
 40
0.0
 40
0.0
 40
0.0
 40
1.0
 40
1.0
 40
1.0
 40
1.0
 10
74.19293629591132
 20
199.3672904885792
 30
0.0
 10
73.29083744798906
 20
199.6547838964811
 30
0.0
 10
71.57276719609357
 20
199.922123482499
 30
0.0
 10
70.6258820773178
 20
199.9222957373868
 30
0.0
  0
ENDBLK
  5
311
330
30E
100
AcDbEntity
  8
0
100
AcDbBlockEnd
  0
BLOCK
  5
315
330
313
100
AcDbEntity
  8
0
100
AcDbBlockBegin
  2
block 111
 70
     0
 71
     0
 10
0.0
 20
0.0
 30
0.0
  3
block 111
  1

  0
SPLINE
  5
317
330
313
100
AcDbEntity
  8
PIEZA
 62
     7
420
 16777215
370
     9
100
AcDbSpline
210
0.0
220
0.0
230
1.0
 70
     8
 71
     3
 72
     8
 73
     4
 74
     0
 42
0.0000000001
 43
0.0000000001
 40
0.0
 40
0.0
 40
0.0
 40
0.0
 40
1.0
 40
1.0
 40
1.0
 40
1.0
 10
74.46440999923871
 20
200.3288172728263
 30
0.0
 10
73.36163420691517
 20
200.6846958712238
 30
0.0
 10
71.27958937689102
 20
200.9728782986773
 30
0.0
 10
70.12151976555221
 20
200.9299868315906
 30
0.0
  0
ENDBLK
  5
316
330
313
100
AcDbEntity
  8
0
100
AcDbBlockEnd
  0
BLOCK
  5
31A
330
318
100
AcDbEntity
  8
0
100
AcDbBlockBegin
  2
block 112
 70
     0
 71
     0
 10
0.0
 20
0.0
 30
0.0
  3
block 112
  1

  0
SPLINE
  5
31C
330
318
100
AcDbEntity
  8
PIEZA
 62
     7
420
 16777215
370
     9
100
AcDbSpline
210
0.0
220
0.0
230
1.0
 70
     8
 71
     3
 72
     8
 73
     4
 74
     0
 42
0.0000000001
 43
0.0000000001
 40
0.0
 40
0.0
 40
0.0
 40
0.0
 40
1.0
 40
1.0
 40
1.0
 40
1.0
 10
77.802020707152
 20
196.9243716684086
 30
0.0
 10
77.48266014498894
 20
198.458301445141
 30
0.0
 10
75.99179409023102
 20
199.9791398503932
 30
0.0
 10
74.46440999923871
 20
200.3288172728263
 30
0.0
  0
ENDBLK
  5
31B
330
318
100
AcDbEntity
  8
0
100
AcDbBlockEnd
  0
BLOCK
  5
31F
330
31D
100
AcDbEntity
  8
0
100
AcDbBlockBegin
  2
block 113
 70
     0
 71
     0
 10
0.0
 20
0.0
 30
0.0
  3
block 113
  1

  0
SPLINE
  5
321
330
31D
100
AcDbEntity
  8
PIEZA
 62
     7
420
 16777215
370
     9
100
AcDbSpline
210
0.0
220
0.0
230
1.0
 70
     8
 71
     3
 72
     8
 73
     4
 74
     0
 42
0.0000000001
 43
0.0000000001
 40
0.0
 40
0.0
 40
0.0
 40
0.0
 40
1.0
 40
1.0
 40
1.0
 40
1.0
 10
77.802020707152
 20
196.9243716684086
 30
0.0
 10
77.94705932276219
 20
196.2918517200468
 30
0.0
 10
78.58216309444242
 20
195.7940350940214
 30
0.0
 10
79.2308750022666
 20
195.8041981324074
 30
0.0
  0
ENDBLK
  5
320
330
31D
100
AcDbEntity
  8
0
100
AcDbBlockEnd
  0
BLOCK
  5
324
330
322
100
AcDbEntity
  8
0
100
AcDbBlockBegin
  2
block 114
 70
     0
 71
     0
 10
0.0
 20
0.0
 30
0.0
  3
block 114
  1

  0
SPLINE
  5
326
330
322
100
AcDbEntity
  8
PIEZA
 62
     7
420
 16777215
370
     9
100
AcDbSpline
210
0.0
220
0.0
230
1.0
 70
     8
 71
     3
 72
     8
 73
     4
 74
     0
 42
0.0000000001
 43
0.0000000001
 40
0.0
 40
0.0
 40
0.0
 40
0.0
 40
1.0
 40
1.0
 40
1.0
 40
1.0
 10
76.9562492075724
 20
195.8393381295386
 30
0.0
 10
76.9565937173482
 20
197.4208102553308
 30
0.0
 10
75.72841636663486
 20
198.9888464998671
 30
0.0
 10
74.19293629591132
 20
199.3672904885792
 30
0.0
  0
ENDBLK
  5
325
330
322
100
AcDbEntity
  8
0
100
AcDbBlockEnd
  0
BLOCK
  5
329
330
327
100
AcDbEntity
  8
0
100
AcDbBlockBegin
  2
block 115
 70
     0
 71
     0
 10
0.0
 20
0.0
 30
0.0
  3
block 115
  1

  0
SPLINE
  5
32B
330
327
100
AcDbEntity
  8
PIEZA
 62
     7
420
 16777215
370
     9
100
AcDbSpline
210
0.0
220
0.0
230
1.0
 70
     8
 71
     3
 72
    11
 73
     7
 74
     0
 42
0.0000000001
 43
0.0000000001
 40
0.0
 40
0.0
 40
0.0
 40
0.0
 40
1.0
 40
1.0
 40
1.0
 40
2.0
 40
2.0
 40
2.0
 40
2.0
 10
76.65669795751764
 20
195.5296238410978
 30
0.0
 10
76.82223490478769
 20
195.5296238410978
 30
0.0
 10
76.9564214624603
 20
195.6638103987704
 30
0.0
 10
76.9564214624603
 20
195.8293473460405
 30
0.0
 10
76.9564214624603
 20
195.8319311693589
 30
0.0
 10
76.9562492075724
 20
195.836926561108
 30
0.0
 10
76.9562492075724
 20
195.8393381295386
 30
0.0
  0
ENDBLK
  5
32A
330
327
100
AcDbEntity
  8
0
100
AcDbBlockEnd
  0
BLOCK
  5
32E
330
32C
100
AcDbEntity
  8
0
100
AcDbBlockBegin
  2
block 116
 70
     0
 71
     0
 10
0.0
 20
0.0
 30
0.0
  3
block 116
  1

  0
SPLINE
  5
330
330
32C
100
AcDbEntity
  8
PIEZA
 62
     7
420
 16777215
370
     9
100
AcDbSpline
210
0.0
220
0.0
230
1.0
 70
     8
 71
     3
 72
     8
 73
     4
 74
     0
 42
0.0000000001
 43
0.0000000001
 40
0.0
 40
0.0
 40
0.0
 40
0.0
 40
1.0
 40
1.0
 40
1.0
 40
1.0
 10
73.2699946065534
 20
192.4383376228788
 30
0.0
 10
73.51545782180817
 20
192.4297248784839
 30
0.0
 10
73.76798348746675
 20
192.6112815303285
 30
0.0
 10
73.83809122684127
 20
192.8465817071972
 30
0.0
  0
ENDBLK
  5
32F
330
32C
100
AcDbEntity
  8
0
100
AcDbBlockEnd
  0
BLOCK
  5
333
330
331
100
AcDbEntity
  8
0
100
AcDbBlockBegin
  2
block 117
 70
     0
 71
     0
 10
0.0
 20
0.0
 30
0.0
  3
block 117
  1

  0
SPLINE
  5
335
330
331
100
AcDbEntity
  8
PIEZA
 62
     7
420
 16777215
370
     9
100
AcDbSpline
210
0.0
220
0.0
230
1.0
 70
     8
 71
     3
 72
     8
 73
     4
 74
     0
 42
0.0000000001
 43
0.0000000001
 40
0.0
 40
0.0
 40
0.0
 40
0.0
 40
1.0
 40
1.0
 40
1.0
 40
1.0
 10
76.24121916790745
 20
194.5477709800787
 30
0.0
 10
75.20407248787309
 20
194.5975526426813
 30
0.0
 10
74.13591992801706
 20
193.8413536848087
 30
0.0
 10
73.83809122684127
 20
192.8465817071972
 30
0.0
  0
ENDBLK
  5
334
330
331
100
AcDbEntity
  8
0
100
AcDbBlockEnd
  0
BLOCK
  5
338
330
336
100
AcDbEntity
  8
0
100
AcDbBlockBegin
  2
block 118
 70
     0
 71
     0
 10
0.0
 20
0.0
 30
0.0
  3
block 118
  1

  0
SPLINE
  5
33A
330
336
100
AcDbEntity
  8
PIEZA
 62
     7
420
 16777215
370
     9
100
AcDbSpline
210
0.0
220
0.0
230
1.0
 70
     8
 71
     3
 72
     8
 73
     4
 74
     0
 42
0.0000000001
 43
0.0000000001
 40
0.0
 40
0.0
 40
0.0
 40
0.0
 40
1.0
 40
1.0
 40
1.0
 40
1.0
 10
76.20573466100045
 20
195.5296238410978
 30
0.0
 10
75.13585955226544
 20
195.5861234443284
 30
0.0
 10
73.83240681554064
 20
194.8812564430494
 30
0.0
 10
73.29393803597122
 20
193.9552141657093
 30
0.0
  0
ENDBLK
  5
339
330
336
100
AcDbEntity
  8
0
100
AcDbBlockEnd
  0
BLOCK
  5
33D
330
33B
100
AcDbEntity
  8
0
100
AcDbBlockBegin
  2
block 119
 70
     0
 71
     0
 10
0.0
 20
0.0
 30
0.0
  3
block 119
  1

  0
SPLINE
  5
33F
330
33B
100
AcDbEntity
  8
PIEZA
 62
     7
420
 16777215
370
     9
100
AcDbSpline
210
0.0
220
0.0
230
1.0
 70
     8
 71
     3
 72
     8
 73
     4
 74
     0
 42
0.0000000001
 43
0.0000000001
 40
0.0
 40
0.0
 40
0.0
 40
0.0
 40
1.0
 40
1.0
 40
1.0
 40
1.0
 10
73.04313491919162
 20
193.8194773140456
 30
0.0
 10
73.13529128421709
 20
193.8146541771845
 30
0.0
 10
73.24760147112664
 20
193.8752878977246
 30
0.0
 10
73.29393803597122
 20
193.9552141657093
 30
0.0
  0
ENDBLK
  5
33E
330
33B
100
AcDbEntity
  8
0
100
AcDbBlockEnd
  0
BLOCK
  5
342
330
340
100
AcDbEntity
  8
0
100
AcDbBlockBegin
  2
block 120
 70
     0
 71
     0
 10
0.0
 20
0.0
 30
0.0
  3
block 120
  1

  0
POLYLINE
  5
344
330
340
100
AcDbEntity
  8
PIEZA
 62
     7
420
 16777215
370
     9
100
AcDb2dPolyline
 66
     1
 10
0.0
 20
0.0
 30
0.0
  0
VERTEX
  5
345
330
344
100
AcDbEntity
  8
PIEZA
 62
     7
420
 16777215
370
     9
100
AcDbVertex
100
AcDb2dVertex
 10
70.2128148561382
 20
199.529899102755
 30
0.0
  0
VERTEX
  5
346
330
344
100
AcDbEntity
  8
PIEZA
 62
     7
420
 16777215
370
     9
100
AcDbVertex
100
AcDb2dVertex
 10
70.11859143245793
 20
194.1245407205131
 30
0.0
  0
SEQEND
  5
347
330
344
100
AcDbEntity
  8
PIEZA
370
     9
  0
ENDBLK
  5
343
330
340
100
AcDbEntity
  8
0
100
AcDbBlockEnd
  0
BLOCK
  5
34A
330
348
100
AcDbEntity
  8
0
100
AcDbBlockBegin
  2
block 121
 70
     0
 71
     0
 10
0.0
 20
0.0
 30
0.0
  3
block 121
  1

  0
SPLINE
  5
34C
330
348
100
AcDbEntity
  8
PIEZA
 62
     7
420
 16777215
370
     9
100
AcDbSpline
210
0.0
220
0.0
230
1.0
 70
     8
 71
     3
 72
    11
 73
     7
 74
     0
 42
0.0000000001
 43
0.0000000001
 40
0.0
 40
0.0
 40
0.0
 40
0.0
 40
1.0
 40
1.0
 40
1.0
 40
2.0
 40
2.0
 40
2.0
 40
2.0
 10
70.11859143245793
 20
194.1245407205131
 30
0.0
 10
70.11566309936367
 20
193.9590037732431
 30
0.0
 10
70.2474380886057
 20
193.8224056471399
 30
0.0
 10
70.41297503587576
 20
193.8194773140456
 30
0.0
 10
70.41435307497895
 20
193.8194773140456
 30
0.0
 10
70.41693689829742
 20
193.8194773140456
 30
0.0
 10
70.41831493740061
 20
193.8194773140456
 30
0.0
  0
ENDBLK
  5
34B
330
348
100
AcDbEntity
  8
0
100
AcDbBlockEnd
  0
BLOCK
  5
34F
330
34D
100
AcDbEntity
  8
0
100
AcDbBlockBegin
  2
block 122
 70
     0
 71
     0
 10
0.0
 20
0.0
 30
0.0
  3
block 122
  1

  0
POLYLINE
  5
351
330
34D
100
AcDbEntity
  8
PIEZA
 62
     7
420
 16777215
370
     9
100
AcDb2dPolyline
 66
     1
 10
0.0
 20
0.0
 30
0.0
  0
VERTEX
  5
352
330
351
100
AcDbEntity
  8
PIEZA
 62
     7
420
 16777215
370
     9
100
AcDbVertex
100
AcDb2dVertex
 10
69.2223492507242
 20
200.0308163167626
 30
0.0
  0
VERTEX
  5
353
330
351
100
AcDbEntity
  8
PIEZA
 62
     7
420
 16777215
370
     9
100
AcDbVertex
100
AcDb2dVertex
 10
69.10022053520447
 20
193.0377846327641
 30
0.0
  0
SEQEND
  5
354
330
351
100
AcDbEntity
  8
PIEZA
370
     9
  0
ENDBLK
  5
350
330
34D
100
AcDbEntity
  8
0
100
AcDbBlockEnd
  0
BLOCK
  5
357
330
355
100
AcDbEntity
  8
0
100
AcDbBlockBegin
  2
block 123
 70
     0
 71
     0
 10
0.0
 20
0.0
 30
0.0
  3
block 123
  1

  0
POLYLINE
  5
359
330
355
100
AcDbEntity
  8
PIEZA
 62
     7
420
 16777215
370
     9
100
AcDb2dPolyline
 66
     1
 10
0.0
 20
0.0
 30
0.0
  0
VERTEX
  5
35A
330
359
100
AcDbEntity
  8
PIEZA
 62
     7
420
 16777215
370
     9
100
AcDbVertex
100
AcDb2dVertex
 10
70.41831493740061
 20
193.8194773140456
 30
0.0
  0
VERTEX
  5
35B
330
359
100
AcDbEntity
  8
PIEZA
 62
     7
420
 16777215
370
     9
100
AcDbVertex
100
AcDb2dVertex
 10
73.04313491919162
 20
193.8194773140456
 30
0.0
  0
SEQEND
  5
35C
330
359
100
AcDbEntity
  8
PIEZA
370
     9
  0
ENDBLK
  5
358
330
355
100
AcDbEntity
  8
0
100
AcDbBlockEnd
  0
BLOCK
  5
35F
330
35D
100
AcDbEntity
  8
0
100
AcDbBlockBegin
  2
block 124
 70
     0
 71
     0
 10
0.0
 20
0.0
 30
0.0
  3
block 124
  1

  0
SPLINE
  5
361
330
35D
100
AcDbEntity
  8
PIEZA
 62
     7
420
 16777215
370
     9
100
AcDbSpline
210
0.0
220
0.0
230
1.0
 70
     8
 71
     3
 72
    11
 73
     7
 74
     0
 42
0.0000000001
 43
0.0000000001
 40
0.0
 40
0.0
 40
0.0
 40
0.0
 40
1.0
 40
1.0
 40
1.0
 40
2.0
 40
2.0
 40
2.0
 40
2.0
 10
69.10022053520447
 20
193.0377846327641
 30
0.0
 10
69.10022053520447
 20
192.706710738224
 30
0.0
 10
69.36859365054968
 20
192.4383376228788
 30
0.0
 10
69.6998397999777
 20
192.4383376228788
 30
0.0
 10
69.6998397999777
 20
192.4383376228788
 30
0.0
 10
69.6998397999777
 20
192.4383376228788
 30
0.0
 10
69.6998397999777
 20
192.4383376228788
 30
0.0
  0
ENDBLK
  5
360
330
35D
100
AcDbEntity
  8
0
100
AcDbBlockEnd
  0
BLOCK
  5
364
330
362
100
AcDbEntity
  8
0
100
AcDbBlockBegin
  2
block 125
 70
     0
 71
     0
 10
0.0
 20
0.0
 30
0.0
  3
block 125
  1

  0
SPLINE
  5
366
330
362
100
AcDbEntity
  8
PIEZA
 62
     7
420
 16777215
370
     9
100
AcDbSpline
210
0.0
220
0.0
230
1.0
 70
     8
 71
     3
 72
    11
 73
     7
 74
     0
 42
0.0000000001
 43
0.0000000001
 40
0.0
 40
0.0
 40
0.0
 40
0.0
 40
1.0
 40
1.0
 40
1.0
 40
2.0
 40
2.0
 40
2.0
 40
2.0
 10
70.12151976555221
 20
200.9299868315906
 30
0.0
 10
69.62490892374203
 20
200.9299868315906
 30
0.0
 10
69.2223492507242
 20
200.5274271585728
 30
0.0
 10
69.2223492507242
 20
200.0308163167626
 30
0.0
 10
69.2223492507242
 20
200.0308163167626
 30
0.0
 10
69.2223492507242
 20
200.0308163167626
 30
0.0
 10
69.2223492507242
 20
200.0308163167626
 30
0.0
  0
ENDBLK
  5
365
330
362
100
AcDbEntity
  8
0
100
AcDbBlockEnd
  0
BLOCK
  5
369
330
367
100
AcDbEntity
  8
0
100
AcDbBlockBegin
  2
block 126
 70
     0
 71
     0
 10
0.0
 20
0.0
 30
0.0
  3
block 126
  1

  0
SPLINE
  5
36B
330
367
100
AcDbEntity
  8
PIEZA
 62
     7
420
 16777215
370
     9
100
AcDbSpline
210
0.0
220
0.0
230
1.0
 70
     8
 71
     3
 72
    11
 73
     7
 74
     0
 42
0.0000000001
 43
0.0000000001
 40
0.0
 40
0.0
 40
0.0
 40
0.0
 40
1.0
 40
1.0
 40
1.0
 40
2.0
 40
2.0
 40
2.0
 40
2.0
 10
70.6258820773178
 20
199.9222957373868
 30
0.0
 10
70.40539582080825
 20
199.9297026975665
 30
0.0
 10
70.2205663260936
 20
199.7569310450047
 30
0.0
 10
70.2129871110261
 20
199.5364447884951
 30
0.0
 10
70.2129871110261
 20
199.5347222396161
 30
0.0
 10
70.2129871110261
 20
199.5314493967461
 30
0.0
 10
70.2128148561382
 20
199.529899102755
 30
0.0
  0
ENDBLK
  5
36A
330
367
100
AcDbEntity
  8
0
100
AcDbBlockEnd
  0
BLOCK
  5
36E
330
36C
100
AcDbEntity
  8
0
100
AcDbBlockBegin
  2
block 127
 70
     0
 71
     0
 10
0.0
 20
0.0
 30
0.0
  3
block 127
  1

  0
POLYLINE
  5
370
330
36C
100
AcDbEntity
  8
PIEZA
 62
     7
420
 16777215
370
     9
100
AcDb2dPolyline
 66
     1
 10
0.0
 20
0.0
 30
0.0
  0
VERTEX
  5
371
330
370
100
AcDbEntity
  8
PIEZA
 62
     7
420
 16777215
370
     9
100
AcDbVertex
100
AcDb2dVertex
 10
76.20573466100045
 20
195.5296238410978
 30
0.0
  0
VERTEX
  5
372
330
370
100
AcDbEntity
  8
PIEZA
 62
     7
420
 16777215
370
     9
100
AcDbVertex
100
AcDb2dVertex
 10
76.65669795751764
 20
195.5296238410978
 30
0.0
  0
SEQEND
  5
373
330
370
100
AcDbEntity
  8
PIEZA
370
     9
  0
ENDBLK
  5
36F
330
36C
100
AcDbEntity
  8
0
100
AcDbBlockEnd
  0
BLOCK
  5
376
330
374
100
AcDbEntity
  8
0
100
AcDbBlockBegin
  2
block 128
 70
     0
 71
     0
 10
0.0
 20
0.0
 30
0.0
  3
block 128
  1

  0
POLYLINE
  5
378
330
374
100
AcDbEntity
  8
PIEZA
 62
     7
420
 16777215
370
     9
100
AcDb2dPolyline
 66
     1
 10
0.0
 20
0.0
 30
0.0
  0
VERTEX
  5
379
330
378
100
AcDbEntity
  8
PIEZA
 62
     7
420
 16777215
370
     9
100
AcDbVertex
100
AcDb2dVertex
 10
114.0621913743625
 20
200.9299868315906
 30
0.0
  0
VERTEX
  5
37A
330
378
100
AcDbEntity
  8
PIEZA
 62
     7
420
 16777215
370
     9
100
AcDbVertex
100
AcDb2dVertex
 10
70.12151976555221
 20
200.9299868315906
 30
0.0
  0
SEQEND
  5
37B
330
378
100
AcDbEntity
  8
PIEZA
370
     9
  0
ENDBLK
  5
377
330
374
100
AcDbEntity
  8
0
100
AcDbBlockEnd
  0
BLOCK
  5
37E
330
37C
100
AcDbEntity
  8
0
100
AcDbBlockBegin
  2
block 129
 70
     0
 71
     0
 10
0.0
 20
0.0
 30
0.0
  3
block 129
  1

  0
POLYLINE
  5
380
330
37C
100
AcDbEntity
  8
PIEZA
 62
     7
420
 16777215
370
     9
100
AcDb2dPolyline
 66
     1
 10
0.0
 20
0.0
 30
0.0
  0
VERTEX
  5
381
330
380
100
AcDbEntity
  8
PIEZA
 62
     7
420
 16777215
370
     9
100
AcDbVertex
100
AcDb2dVertex
 10
69.6998397999777
 20
192.4383376228788
 30
0.0
  0
VERTEX
  5
382
330
380
100
AcDbEntity
  8
PIEZA
 62
     7
420
 16777215
370
     9
100
AcDbVertex
100
AcDb2dVertex
 10
73.2699946065534
 20
192.4383376228788
 30
0.0
  0
SEQEND
  5
383
330
380
100
AcDbEntity
  8
PIEZA
370
     9
  0
ENDBLK
  5
37F
330
37C
100
AcDbEntity
  8
0
100
AcDbBlockEnd
  0
BLOCK
  5
386
330
384
100
AcDbEntity
  8
0
100
AcDbBlockBegin
  2
block 130
 70
     0
 71
     0
 10
0.0
 20
0.0
 30
0.0
  3
block 130
  1

  0
POLYLINE
  5
388
330
384
100
AcDbEntity
  8
PIEZA
 62
     7
420
 16777215
370
     9
100
AcDb2dPolyline
 66
     1
 10
0.0
 20
0.0
 30
0.0
  0
VERTEX
  5
389
330
388
100
AcDbEntity
  8
PIEZA
 62
     7
420
 16777215
370
     9
100
AcDbVertex
100
AcDb2dVertex
 10
73.2699946065534
 20
192.4383376228788
 30
0.0
  0
VERTEX
  5
38A
330
388
100
AcDbEntity
  8
PIEZA
 62
     7
420
 16777215
370
     9
100
AcDbVertex
100
AcDb2dVertex
 10
109.6104360515244
 20
192.4383376228788
 30
0.0
  0
SEQEND
  5
38B
330
388
100
AcDbEntity
  8
PIEZA
370
     9
  0
ENDBLK
  5
387
330
384
100
AcDbEntity
  8
0
100
AcDbBlockEnd
  0
BLOCK
  5
38E
330
38C
100
AcDbEntity
  8
0
100
AcDbBlockBegin
  2
block 131
 70
     0
 71
     0
 10
0.0
 20
0.0
 30
0.0
  3
block 131
  1

  0
POLYLINE
  5
390
330
38C
100
AcDbEntity
  8
PIEZA
 62
     7
420
 16777215
370
     9
100
AcDb2dPolyline
 66
     1
 10
0.0
 20
0.0
 30
0.0
  0
VERTEX
  5
391
330
390
100
AcDbEntity
  8
PIEZA
 62
     7
420
 16777215
370
     9
100
AcDbVertex
100
AcDb2dVertex
 10
114.0621913743625
 20
192.4383376228788
 30
0.0
  0
VERTEX
  5
392
330
390
100
AcDbEntity
  8
PIEZA
 62
     7
420
 16777215
370
     9
100
AcDbVertex
100
AcDb2dVertex
 10
114.0628803939141
 20
192.4383376228788
 30
0.0
  0
SEQEND
  5
393
330
390
100
AcDbEntity
  8
PIEZA
370
     9
  0
ENDBLK
  5
38F
330
38C
100
AcDbEntity
  8
0
100
AcDbBlockEnd
  0
BLOCK
  5
396
330
394
100
AcDbEntity
  8
0
100
AcDbBlockBegin
  2
block 132
 70
     0
 71
     0
 10
0.0
 20
0.0
 30
0.0
  3
block 132
  1

  0
POLYLINE
  5
398
330
394
100
AcDbEntity
  8
PIEZA
 62
     7
420
 16777215
370
     9
100
AcDb2dPolyline
 66
     1
 10
0.0
 20
0.0
 30
0.0
  0
VERTEX
  5
399
330
398
100
AcDbEntity
  8
PIEZA
 62
     7
420
 16777215
370
     9
100
AcDbVertex
100
AcDb2dVertex
 10
110.9144055529129
 20
192.4383376228788
 30
0.0
  0
VERTEX
  5
39A
330
398
100
AcDbEntity
  8
PIEZA
 62
     7
420
 16777215
370
     9
100
AcDbVertex
100
AcDb2dVertex
 10
117.2099771958121
 20
192.4383376228788
 30
0.0
  0
SEQEND
  5
39B
330
398
100
AcDbEntity
  8
PIEZA
370
     9
  0
ENDBLK
  5
397
330
394
100
AcDbEntity
  8
0
100
AcDbBlockEnd
  0
BLOCK
  5
39E
330
39C
100
AcDbEntity
  8
0
100
AcDbBlockBegin
  2
block 133
 70
     0
 71
     0
 10
0.0
 20
0.0
 30
0.0
  3
block 133
  1

  0
POLYLINE
  5
3A0
330
39C
100
AcDbEntity
  8
PIEZA
 62
     7
420
 16777215
370
     9
100
AcDb2dPolyline
 66
     1
 10
0.0
 20
0.0
 30
0.0
  0
VERTEX
  5
3A1
330
3A0
100
AcDbEntity
  8
PIEZA
 62
     7
420
 16777215
370
     9
100
AcDbVertex
100
AcDb2dVertex
 10
117.2099771958121
 20
192.4383376228788
 30
0.0
  0
VERTEX
  5
3A2
330
3A0
100
AcDbEntity
  8
PIEZA
 62
     7
420
 16777215
370
     9
100
AcDbVertex
100
AcDb2dVertex
 10
118.5139466972006
 20
192.4383376228788
 30
0.0
  0
SEQEND
  5
3A3
330
3A0
100
AcDbEntity
  8
PIEZA
370
     9
  0
ENDBLK
  5
39F
330
39C
100
AcDbEntity
  8
0
100
AcDbBlockEnd
  0
BLOCK
  5
3A6
330
3A4
100
AcDbEntity
  8
0
100
AcDbBlockBegin
  2
block 134
 70
     0
 71
     0
 10
0.0
 20
0.0
 30
0.0
  3
block 134
  1

  0
POLYLINE
  5
3A8
330
3A4
100
AcDbEntity
  8
PIEZA
 62
     7
420
 16777215
370
     9
100
AcDb2dPolyline
 66
     1
 10
0.0
 20
0.0
 30
0.0
  0
VERTEX
  5
3A9
330
3A8
100
AcDbEntity
  8
PIEZA
 62
     7
420
 16777215
370
     9
100
AcDbVertex
100
AcDb2dVertex
 10
109.6104360515244
 20
192.4383376228788
 30
0.0
  0
VERTEX
  5
3AA
330
3A8
100
AcDbEntity
  8
PIEZA
 62
     7
420
 16777215
370
     9
100
AcDbVertex
100
AcDb2dVertex
 10
110.9144055529129
 20
192.4383376228788
 30
0.0
  0
SEQEND
  5
3AB
330
3A8
100
AcDbEntity
  8
PIEZA
370
     9
  0
ENDBLK
  5
3A7
330
3A4
100
AcDbEntity
  8
0
100
AcDbBlockEnd
  0
BLOCK
  5
3AF
330
3AD
100
AcDbEntity
  8
0
100
AcDbBlockBegin
  2
block 135
 70
     0
 71
     0
 10
0.0
 20
0.0
 30
0.0
  3
block 135
  1

  0
POLYLINE
  5
3B1
330
3AD
100
AcDbEntity
  8
EJES
  6
AI-Linetype-1
 62
     7
420
 16777215
370
     9
100
AcDb2dPolyline
 66
     1
 10
0.0
 20
0.0
 30
0.0
  0
VERTEX
  5
3B2
330
3B1
100
AcDbEntity
  8
EJES
  6
AI-Linetype-1
 62
     7
420
 16777215
370
     9
100
AcDbVertex
100
AcDb2dVertex
 10
114.0621913743625
 20
190.4834169001234
 30
0.0
  0
VERTEX
  5
3B3
330
3B1
100
AcDbEntity
  8
EJES
  6
AI-Linetype-1
 62
     7
420
 16777215
370
     9
100
AcDbVertex
100
AcDb2dVertex
 10
114.0621913743625
 20
197.1483030226761
 30
0.0
  0
SEQEND
  5
3B4
330
3B1
100
AcDbEntity
  8
EJES
  6
AI-Linetype-1
370
     9
  0
ENDBLK
  5
3B0
330
3AD
100
AcDbEntity
  8
0
100
AcDbBlockEnd
  0
BLOCK
  5
3B8
330
3B6
100
AcDbEntity
  8
0
100
AcDbBlockBegin
  2
block 136
 70
     0
 71
     0
 10
0.0
 20
0.0
 30
0.0
  3
block 136
  1

  0
POLYLINE
  5
3BA
330
3B6
100
AcDbEntity
  8
EJES
  6
AI-Linetype-2
 62
     7
420
 16777215
370
     9
100
AcDb2dPolyline
 66
     1
 10
0.0
 20
0.0
 30
0.0
  0
VERTEX
  5
3BB
330
3BA
100
AcDbEntity
  8
EJES
  6
AI-Linetype-2
 62
     7
420
 16777215
370
     9
100
AcDbVertex
100
AcDb2dVertex
 10
114.0621913743625
 20
88.82461098375042
 30
0.0
  0
VERTEX
  5
3BC
330
3BA
100
AcDbEntity
  8
EJES
  6
AI-Linetype-2
 62
     7
420
 16777215
370
     9
100
AcDbVertex
100
AcDb2dVertex
 10
114.0621913743625
 20
107.6620610145091
 30
0.0
  0
SEQEND
  5
3BD
330
3BA
100
AcDbEntity
  8
EJES
  6
AI-Linetype-2
370
     9
  0
ENDBLK
  5
3B9
330
3B6
100
AcDbEntity
  8
0
100
AcDbBlockEnd
  0
BLOCK
  5
3C1
330
3BF
100
AcDbEntity
  8
0
100
AcDbBlockBegin
  2
block 137
 70
     0
 71
     0
 10
0.0
 20
0.0
 30
0.0
  3
block 137
  1

  0
POLYLINE
  5
3C3
330
3BF
100
AcDbEntity
  8
EJES
  6
AI-Linetype-3
 62
     7
420
 16777215
370
     9
100
AcDb2dPolyline
 66
     1
 10
0.0
 20
0.0
 30
0.0
  0
VERTEX
  5
3C4
330
3C3
100
AcDbEntity
  8
EJES
  6
AI-Linetype-3
 62
     7
420
 16777215
370
     9
100
AcDbVertex
100
AcDb2dVertex
 10
78.09261470303606
 20
101.8133185508176
 30
0.0
  0
VERTEX
  5
3C5
330
3C3
100
AcDbEntity
  8
EJES
  6
AI-Linetype-3
 62
     7
420
 16777215
370
     9
100
AcDbVertex
100
AcDb2dVertex
 10
119.9105893282782
 20
101.8133185508176
 30
0.0
  0
SEQEND
  5
3C6
330
3C3
100
AcDbEntity
  8
EJES
  6
AI-Linetype-3
370
     9
  0
ENDBLK
  5
3C2
330
3BF
100
AcDbEntity
  8
0
100
AcDbBlockEnd
  0
BLOCK
  5
3CB
330
3C9
100
AcDbEntity
  8
0
100
AcDbBlockBegin
  2
block 138
 70
     0
 71
     0
 10
0.0
 20
0.0
 30
0.0
  3
block 138
  1

  0
POLYLINE
  5
3CD
330
3C9
100
AcDbEntity
  8
LINEAS-FINAS
 62
     7
420
 16777215
370
     9
100
AcDb2dPolyline
 66
     1
 10
0.0
 20
0.0
 30
0.0
  0
VERTEX
  5
3CE
330
3CD
100
AcDbEntity
  8
LINEAS-FINAS
 62
     7
420
 16777215
370
     9
100
AcDbVertex
100
AcDb2dVertex
 10
108.8621608184951
 20
195.3141329763373
 30
0.0
  0
VERTEX
  5
3CF
330
3CD
100
AcDbEntity
  8
LINEAS-FINAS
 62
     7
420
 16777215
370
     9
100
AcDbVertex
100
AcDb2dVertex
 10
119.2622219302298
 20
195.3141329763373
 30
0.0
  0
SEQEND
  5
3D0
330
3CD
100
AcDbEntity
  8
LINEAS-FINAS
370
     9
  0
ENDBLK
  5
3CC
330
3C9
100
AcDbEntity
  8
0
100
AcDbBlockEnd
  0
BLOCK
  5
3D3
330
3D1
100
AcDbEntity
  8
0
100
AcDbBlockBegin
  2
block 139
 70
     0
 71
     0
 10
0.0
 20
0.0
 30
0.0
  3
block 139
  1

  0
POLYLINE
  5
3D5
330
3D1
100
AcDbEntity
  8
LINEAS-FINAS
 62
     7
420
 16777215
370
     9
100
AcDb2dPolyline
 66
     1
 10
0.0
 20
0.0
 30
0.0
  0
VERTEX
  5
3D6
330
3D5
100
AcDbEntity
  8
LINEAS-FINAS
 62
     7
420
 16777215
370
     9
100
AcDbVertex
100
AcDb2dVertex
 10
110.8947684956925
 20
193.3526665678418
 30
0.0
  0
VERTEX
  5
3D7
330
3D5
100
AcDbEntity
  8
LINEAS-FINAS
 62
     7
420
 16777215
370
     9
100
AcDbVertex
100
AcDb2dVertex
 10
117.2296142530324
 20
193.3526665678418
 30
0.0
  0
SEQEND
  5
3D8
330
3D5
100
AcDbEntity
  8
LINEAS-FINAS
370
     9
  0
ENDBLK
  5
3D4
330
3D1
100
AcDbEntity
  8
0
100
AcDbBlockEnd
  0
BLOCK
  5
3DC
330
3DA
100
AcDbEntity
  8
0
100
AcDbBlockBegin
  2
block 140
 70
     0
 71
     0
 10
0.0
 20
0.0
 30
0.0
  3
block 140
  1

  0
INSERT
  5
3DF
330
3DA
100
AcDbEntity
  8
COTAS
100
AcDbBlockReference
  2
block 141
 10
0.0
 20
0.0
 30
0.0
  0
INSERT
  5
3E7
330
3DA
100
AcDbEntity
  8
COTAS
100
AcDbBlockReference
  2
block 142
 10
0.0
 20
0.0
 30
0.0
  0
INSERT
  5
3EF
330
3DA
100
AcDbEntity
  8
COTAS
100
AcDbBlockReference
  2
block 143
 10
0.0
 20
0.0
 30
0.0
  0
INSERT
  5
3F7
330
3DA
100
AcDbEntity
  8
COTAS
100
AcDbBlockReference
  2
block 144
 10
0.0
 20
0.0
 30
0.0
  0
INSERT
  5
3FF
330
3DA
100
AcDbEntity
  8
COTAS
100
AcDbBlockReference
  2
block 145
 10
0.0
 20
0.0
 30
0.0
  0
INSERT
  5
40A
330
3DA
100
AcDbEntity
  8
COTAS
100
AcDbBlockReference
  2
block 146
 10
0.0
 20
0.0
 30
0.0
  0
INSERT
  5
415
330
3DA
100
AcDbEntity
  8
COTAS
100
AcDbBlockReference
  2
block 147
 10
0.0
 20
0.0
 30
0.0
  0
INSERT
  5
41A
330
3DA
100
AcDbEntity
  8
COTAS
100
AcDbBlockReference
  2
block 148
 10
0.0
 20
0.0
 30
0.0
  0
INSERT
  5
422
330
3DA
100
AcDbEntity
  8
COTAS
100
AcDbBlockReference
  2
block 149
 10
0.0
 20
0.0
 30
0.0
  0
INSERT
  5
42A
330
3DA
100
AcDbEntity
  8
COTAS
100
AcDbBlockReference
  2
block 150
 10
0.0
 20
0.0
 30
0.0
  0
ENDBLK
  5
3DD
330
3DA
100
AcDbEntity
  8
0
100
AcDbBlockEnd
  0
BLOCK
  5
3E0
330
3DE
100
AcDbEntity
  8
0
100
AcDbBlockBegin
  2
block 141
 70
     0
 71
     0
 10
0.0
 20
0.0
 30
0.0
  3
block 141
  1

  0
POLYLINE
  5
3E2
330
3DE
100
AcDbEntity
  8
COTAS
 62
     7
420
 16777215
370
     9
100
AcDb2dPolyline
 66
     1
 10
0.0
 20
0.0
 30
0.0
  0
VERTEX
  5
3E3
330
3E2
100
AcDbEntity
  8
COTAS
 62
     7
420
 16777215
370
     9
100
AcDbVertex
100
AcDb2dVertex
 10
110.9643594704033
 20
191.9386261930864
 30
0.0
  0
VERTEX
  5
3E4
330
3E2
100
AcDbEntity
  8
COTAS
 62
     7
420
 16777215
370
     9
100
AcDbVertex
100
AcDb2dVertex
 10
110.9643594704033
 20
186.3615296876102
 30
0.0
  0
SEQEND
  5
3E5
330
3E2
100
AcDbEntity
  8
COTAS
370
     9
  0
ENDBLK
  5
3E1
330
3DE
100
AcDbEntity
  8
0
100
AcDbBlockEnd
  0
BLOCK
  5
3E8
330
3E6
100
AcDbEntity
  8
0
100
AcDbBlockBegin
  2
block 142
 70
     0
 71
     0
 10
0.0
 20
0.0
 30
0.0
  3
block 142
  1

  0
POLYLINE
  5
3EA
330
3E6
100
AcDbEntity
  8
COTAS
 62
     7
420
 16777215
370
     9
100
AcDb2dPolyline
 66
     1
 10
0.0
 20
0.0
 30
0.0
  0
VERTEX
  5
3EB
330
3EA
100
AcDbEntity
  8
COTAS
 62
     7
420
 16777215
370
     9
100
AcDbVertex
100
AcDb2dVertex
 10
117.1589897489942
 20
191.9386261930864
 30
0.0
  0
VERTEX
  5
3EC
330
3EA
100
AcDbEntity
  8
COTAS
 62
     7
420
 16777215
370
     9
100
AcDbVertex
100
AcDb2dVertex
 10
117.1589897489942
 20
186.3615296876102
 30
0.0
  0
SEQEND
  5
3ED
330
3EA
100
AcDbEntity
  8
COTAS
370
     9
  0
ENDBLK
  5
3E9
330
3E6
100
AcDbEntity
  8
0
100
AcDbBlockEnd
  0
BLOCK
  5
3F0
330
3EE
100
AcDbEntity
  8
0
100
AcDbBlockBegin
  2
block 143
 70
     0
 71
     0
 10
0.0
 20
0.0
 30
0.0
  3
block 143
  1

  0
POLYLINE
  5
3F2
330
3EE
100
AcDbEntity
  8
COTAS
 62
     7
420
 16777215
370
     9
100
AcDb2dPolyline
 66
     1
 10
0.0
 20
0.0
 30
0.0
  0
VERTEX
  5
3F3
330
3F2
100
AcDbEntity
  8
COTAS
 62
     7
420
 16777215
370
     9
100
AcDbVertex
100
AcDb2dVertex
 10
112.7627005000593
 20
187.360608037419
 30
0.0
  0
VERTEX
  5
3F4
330
3F2
100
AcDbEntity
  8
COTAS
 62
     7
420
 16777215
370
     9
100
AcDbVertex
100
AcDb2dVertex
 10
115.3603042095624
 20
187.360608037419
 30
0.0
  0
SEQEND
  5
3F5
330
3F2
100
AcDbEntity
  8
COTAS
370
     9
  0
ENDBLK
  5
3F1
330
3EE
100
AcDbEntity
  8
0
100
AcDbBlockEnd
  0
BLOCK
  5
3F8
330
3F6
100
AcDbEntity
  8
0
100
AcDbBlockBegin
  2
block 144
 70
     0
 71
     0
 10
0.0
 20
0.0
 30
0.0
  3
block 144
  1

  0
POLYLINE
  5
3FA
330
3F6
100
AcDbEntity
  8
COTAS
 62
     7
420
 16777215
370
     9
100
AcDb2dPolyline
 66
     1
 10
0.0
 20
0.0
 30
0.0
  0
VERTEX
  5
3FB
330
3FA
100
AcDbEntity
  8
COTAS
 62
     7
420
 16777215
370
     9
100
AcDbVertex
100
AcDb2dVertex
 10
117.1589897489942
 20
187.360608037419
 30
0.0
  0
VERTEX
  5
3FC
330
3FA
100
AcDbEntity
  8
COTAS
 62
     7
420
 16777215
370
     9
100
AcDbVertex
100
AcDb2dVertex
 10
118.9573307786502
 20
187.360608037419
 30
0.0
  0
SEQEND
  5
3FD
330
3FA
100
AcDbEntity
  8
COTAS
370
     9
  0
ENDBLK
  5
3F9
330
3F6
100
AcDbEntity
  8
0
100
AcDbBlockEnd
  0
BLOCK
  5
400
330
3FE
100
AcDbEntity
  8
0
100
AcDbBlockBegin
  2
block 145
 70
     0
 71
     0
 10
0.0
 20
0.0
 30
0.0
  3
block 145
  1

  0
POLYLINE
  5
402
330
3FE
100
AcDbEntity
  8
COTAS
370
     0
100
AcDb2dPolyline
 66
     1
 10
0.0
 20
0.0
 30
0.0
  0
VERTEX
  5
403
330
402
100
AcDbEntity
  8
COTAS
370
     0
100
AcDbVertex
100
AcDb2dVertex
 10
112.7627005000593
 20
187.6605037972496
 30
0.0
  0
VERTEX
  5
404
330
402
100
AcDbEntity
  8
COTAS
370
     0
100
AcDbVertex
100
AcDb2dVertex
 10
112.7627005000593
 20
187.0608845324764
 30
0.0
  0
VERTEX
  5
405
330
402
100
AcDbEntity
  8
COTAS
370
     0
100
AcDbVertex
100
AcDb2dVertex
 10
110.9643594704033
 20
187.360608037419
 30
0.0
  0
VERTEX
  5
406
330
402
100
AcDbEntity
  8
COTAS
370
     0
100
AcDbVertex
100
AcDb2dVertex
 10
112.7627005000593
 20
187.6605037972496
 30
0.0
  0
SEQEND
  5
407
330
402
100
AcDbEntity
  8
COTAS
370
     0
  0
HATCH
  5
408
330
3FE
100
AcDbEntity
  8
COTAS
 62
     7
420
 16777215
100
AcDbHatch
 10
0.0
 20
0.0
 30
0.0
210
0.0
220
0.0
230
1.0
  2
SOLID
 70
     1
 71
     0
 91
        1
 92
        1
 93
        3
 72
     1
 10
112.7627005000593
 20
187.6605037972496
 11
112.7627005000593
 21
187.0608845324764
 72
     1
 10
112.7627005000593
 20
187.0608845324764
 11
110.9643594704033
 21
187.360608037419
 72
     1
 10
110.9643594704033
 20
187.360608037419
 11
112.7627005000593
 21
187.6605037972496
 97
        0
 75
     2
 76
     1
 98
        0
  0
ENDBLK
  5
401
330
3FE
100
AcDbEntity
  8
0
100
AcDbBlockEnd
  0
BLOCK
  5
40B
330
409
100
AcDbEntity
  8
0
100
AcDbBlockBegin
  2
block 146
 70
     0
 71
     0
 10
0.0
 20
0.0
 30
0.0
  3
block 146
  1

  0
POLYLINE
  5
40D
330
409
100
AcDbEntity
  8
COTAS
370
     0
100
AcDb2dPolyline
 66
     1
 10
0.0
 20
0.0
 30
0.0
  0
VERTEX
  5
40E
330
40D
100
AcDbEntity
  8
COTAS
370
     0
100
AcDbVertex
100
AcDb2dVertex
 10
115.3603042095624
 20
187.6605037972496
 30
0.0
  0
VERTEX
  5
40F
330
40D
100
AcDbEntity
  8
COTAS
370
     0
100
AcDbVertex
100
AcDb2dVertex
 10
115.3603042095624
 20
187.0608845324764
 30
0.0
  0
VERTEX
  5
410
330
40D
100
AcDbEntity
  8
COTAS
370
     0
100
AcDbVertex
100
AcDb2dVertex
 10
117.1589897489942
 20
187.360608037419
 30
0.0
  0
VERTEX
  5
411
330
40D
100
AcDbEntity
  8
COTAS
370
     0
100
AcDbVertex
100
AcDb2dVertex
 10
115.3603042095624
 20
187.6605037972496
 30
0.0
  0
SEQEND
  5
412
330
40D
100
AcDbEntity
  8
COTAS
370
     0
  0
HATCH
  5
413
330
409
100
AcDbEntity
  8
COTAS
 62
     7
420
 16777215
100
AcDbHatch
 10
0.0
 20
0.0
 30
0.0
210
0.0
220
0.0
230
1.0
  2
SOLID
 70
     1
 71
     0
 91
        1
 92
        1
 93
        3
 72
     1
 10
115.3603042095624
 20
187.6605037972496
 11
115.3603042095624
 21
187.0608845324764
 72
     1
 10
115.3603042095624
 20
187.0608845324764
 11
117.1589897489942
 21
187.360608037419
 72
     1
 10
117.1589897489942
 20
187.360608037419
 11
115.3603042095624
 21
187.6605037972496
 97
        0
 75
     2
 76
     1
 98
        0
  0
ENDBLK
  5
40C
330
409
100
AcDbEntity
  8
0
100
AcDbBlockEnd
  0
BLOCK
  5
416
330
414
100
AcDbEntity
  8
0
100
AcDbBlockBegin
  2
block 147
 70
     0
 71
     0
 10
0.0
 20
0.0
 30
0.0
  3
block 147
  1

  0
MTEXT
  5
418
330
414
100
AcDbEntity
  8
COTAS
 62
     7
420
 16777215
100
AcDbMText
 10
119.6711550340999
 20
186.3615296876102
 30
0.0
 40
2.398890470823883
 41
0.0
 71
     7
 72
     1
  1
\fArial|b1|i0|c0|p34;\W1;\U+00D862
 73
     1
 44
1.0
  0
ENDBLK
  5
417
330
414
100
AcDbEntity
  8
0
100
AcDbBlockEnd
  0
BLOCK
  5
41B
330
419
100
AcDbEntity
  8
0
100
AcDbBlockBegin
  2
block 148
 70
     0
 71
     0
 10
0.0
 20
0.0
 30
0.0
  3
block 148
  1

  0
POLYLINE
  5
41D
330
419
100
AcDbEntity
  8
COTAS
 62
     7
420
 16777215
370
     9
100
AcDb2dPolyline
 66
     1
 10
0.0
 20
0.0
 30
0.0
  0
VERTEX
  5
41E
330
41D
100
AcDbEntity
  8
COTAS
 62
     7
420
 16777215
370
     9
100
AcDbVertex
100
AcDb2dVertex
 10
110.9643594704033
 20
192.9378767977832
 30
0.0
  0
VERTEX
  5
41F
330
41D
100
AcDbEntity
  8
COTAS
 62
     7
420
 16777215
370
     9
100
AcDbVertex
100
AcDb2dVertex
 10
110.9643594704033
 20
192.9378767977832
 30
0.0
  0
SEQEND
  5
420
330
41D
100
AcDbEntity
  8
COTAS
370
     9
  0
ENDBLK
  5
41C
330
419
100
AcDbEntity
  8
0
100
AcDbBlockEnd
  0
BLOCK
  5
423
330
421
100
AcDbEntity
  8
0
100
AcDbBlockBegin
  2
block 149
 70
     0
 71
     0
 10
0.0
 20
0.0
 30
0.0
  3
block 149
  1

  0
POLYLINE
  5
425
330
421
100
AcDbEntity
  8
COTAS
 62
     7
420
 16777215
370
     9
100
AcDb2dPolyline
 66
     1
 10
0.0
 20
0.0
 30
0.0
  0
VERTEX
  5
426
330
425
100
AcDbEntity
  8
COTAS
 62
     7
420
 16777215
370
     9
100
AcDbVertex
100
AcDb2dVertex
 10
117.1589897489942
 20
192.9378767977832
 30
0.0
  0
VERTEX
  5
427
330
425
100
AcDbEntity
  8
COTAS
 62
     7
420
 16777215
370
     9
100
AcDbVertex
100
AcDb2dVertex
 10
117.1589897489942
 20
192.9378767977832
 30
0.0
  0
SEQEND
  5
428
330
425
100
AcDbEntity
  8
COTAS
370
     9
  0
ENDBLK
  5
424
330
421
100
AcDbEntity
  8
0
100
AcDbBlockEnd
  0
BLOCK
  5
42B
330
429
100
AcDbEntity
  8
0
100
AcDbBlockBegin
  2
block 150
 70
     0
 71
     0
 10
0.0
 20
0.0
 30
0.0
  3
block 150
  1

  0
POLYLINE
  5
42D
330
429
100
AcDbEntity
  8
COTAS
 62
     7
420
 16777215
370
     9
100
AcDb2dPolyline
 66
     1
 10
0.0
 20
0.0
 30
0.0
  0
VERTEX
  5
42E
330
42D
100
AcDbEntity
  8
COTAS
 62
     7
420
 16777215
370
     9
100
AcDbVertex
100
AcDb2dVertex
 10
117.1589897489942
 20
187.360608037419
 30
0.0
  0
VERTEX
  5
42F
330
42D
100
AcDbEntity
  8
COTAS
 62
     7
420
 16777215
370
     9
100
AcDbVertex
100
AcDb2dVertex
 10
117.1589897489942
 20
187.360608037419
 30
0.0
  0
SEQEND
  5
430
330
42D
100
AcDbEntity
  8
COTAS
370
     9
  0
ENDBLK
  5
42C
330
429
100
AcDbEntity
  8
0
100
AcDbBlockEnd
  0
BLOCK
  5
433
330
431
100
AcDbEntity
  8
0
100
AcDbBlockBegin
  2
block 151
 70
     0
 71
     0
 10
0.0
 20
0.0
 30
0.0
  3
block 151
  1

  0
INSERT
  5
436
330
431
100
AcDbEntity
  8
COTAS
100
AcDbBlockReference
  2
block 152
 10
0.0
 20
0.0
 30
0.0
  0
INSERT
  5
43E
330
431
100
AcDbEntity
  8
COTAS
100
AcDbBlockReference
  2
block 153
 10
0.0
 20
0.0
 30
0.0
  0
INSERT
  5
446
330
431
100
AcDbEntity
  8
COTAS
100
AcDbBlockReference
  2
block 154
 10
0.0
 20
0.0
 30
0.0
  0
INSERT
  5
44E
330
431
100
AcDbEntity
  8
COTAS
100
AcDbBlockReference
  2
block 155
 10
0.0
 20
0.0
 30
0.0
  0
INSERT
  5
456
330
431
100
AcDbEntity
  8
COTAS
100
AcDbBlockReference
  2
block 156
 10
0.0
 20
0.0
 30
0.0
  0
INSERT
  5
461
330
431
100
AcDbEntity
  8
COTAS
100
AcDbBlockReference
  2
block 157
 10
0.0
 20
0.0
 30
0.0
  0
INSERT
  5
46C
330
431
100
AcDbEntity
  8
COTAS
100
AcDbBlockReference
  2
block 158
 10
0.0
 20
0.0
 30
0.0
  0
INSERT
  5
471
330
431
100
AcDbEntity
  8
COTAS
100
AcDbBlockReference
  2
block 159
 10
0.0
 20
0.0
 30
0.0
  0
INSERT
  5
479
330
431
100
AcDbEntity
  8
COTAS
100
AcDbBlockReference
  2
block 160
 10
0.0
 20
0.0
 30
0.0
  0
INSERT
  5
481
330
431
100
AcDbEntity
  8
COTAS
100
AcDbBlockReference
  2
block 161
 10
0.0
 20
0.0
 30
0.0
  0
ENDBLK
  5
434
330
431
100
AcDbEntity
  8
0
100
AcDbBlockEnd
  0
BLOCK
  5
437
330
435
100
AcDbEntity
  8
0
100
AcDbBlockBegin
  2
block 152
 70
     0
 71
     0
 10
0.0
 20
0.0
 30
0.0
  3
block 152
  1

  0
POLYLINE
  5
439
330
435
100
AcDbEntity
  8
COTAS
 62
     7
420
 16777215
370
     9
100
AcDb2dPolyline
 66
     1
 10
0.0
 20
0.0
 30
0.0
  0
VERTEX
  5
43A
330
439
100
AcDbEntity
  8
COTAS
 62
     7
420
 16777215
370
     9
100
AcDbVertex
100
AcDb2dVertex
 10
69.12244141574332
 20
200.9299868315906
 30
0.0
  0
VERTEX
  5
43B
330
439
100
AcDbEntity
  8
COTAS
 62
     7
420
 16777215
370
     9
100
AcDbVertex
100
AcDb2dVertex
 10
57.69160705482643
 20
200.9299868315906
 30
0.0
  0
SEQEND
  5
43C
330
439
100
AcDbEntity
  8
COTAS
370
     9
  0
ENDBLK
  5
438
330
435
100
AcDbEntity
  8
0
100
AcDbBlockEnd
  0
BLOCK
  5
43F
330
43D
100
AcDbEntity
  8
0
100
AcDbBlockBegin
  2
block 153
 70
     0
 71
     0
 10
0.0
 20
0.0
 30
0.0
  3
block 153
  1

  0
POLYLINE
  5
441
330
43D
100
AcDbEntity
  8
COTAS
 62
     7
420
 16777215
370
     9
100
AcDb2dPolyline
 66
     1
 10
0.0
 20
0.0
 30
0.0
  0
VERTEX
  5
442
330
441
100
AcDbEntity
  8
COTAS
 62
     7
420
 16777215
370
     9
100
AcDbVertex
100
AcDb2dVertex
 10
68.70058919528091
 20
192.4383376228788
 30
0.0
  0
VERTEX
  5
443
330
441
100
AcDbEntity
  8
COTAS
 62
     7
420
 16777215
370
     9
100
AcDbVertex
100
AcDb2dVertex
 10
57.69160705482643
 20
192.4383376228788
 30
0.0
  0
SEQEND
  5
444
330
441
100
AcDbEntity
  8
COTAS
370
     9
  0
ENDBLK
  5
440
330
43D
100
AcDbEntity
  8
0
100
AcDbBlockEnd
  0
BLOCK
  5
447
330
445
100
AcDbEntity
  8
0
100
AcDbBlockBegin
  2
block 154
 70
     0
 71
     0
 10
0.0
 20
0.0
 30
0.0
  3
block 154
  1

  0
POLYLINE
  5
449
330
445
100
AcDbEntity
  8
COTAS
 62
     7
420
 16777215
370
     9
100
AcDb2dPolyline
 66
     1
 10
0.0
 20
0.0
 30
0.0
  0
VERTEX
  5
44A
330
449
100
AcDbEntity
  8
COTAS
 62
     7
420
 16777215
370
     9
100
AcDbVertex
100
AcDb2dVertex
 10
58.69085765952322
 20
199.1314735470467
 30
0.0
  0
VERTEX
  5
44B
330
449
100
AcDbEntity
  8
COTAS
 62
     7
420
 16777215
370
     9
100
AcDbVertex
100
AcDb2dVertex
 10
58.69085765952322
 20
198.8691293527779
 30
0.0
  0
SEQEND
  5
44C
330
449
100
AcDbEntity
  8
COTAS
370
     9
  0
ENDBLK
  5
448
330
445
100
AcDbEntity
  8
0
100
AcDbBlockEnd
  0
BLOCK
  5
44F
330
44D
100
AcDbEntity
  8
0
100
AcDbBlockBegin
  2
block 155
 70
     0
 71
     0
 10
0.0
 20
0.0
 30
0.0
  3
block 155
  1

  0
POLYLINE
  5
451
330
44D
100
AcDbEntity
  8
COTAS
 62
     7
420
 16777215
370
     9
100
AcDb2dPolyline
 66
     1
 10
0.0
 20
0.0
 30
0.0
  0
VERTEX
  5
452
330
451
100
AcDbEntity
  8
COTAS
 62
     7
420
 16777215
370
     9
100
AcDbVertex
100
AcDb2dVertex
 10
58.69085765952322
 20
194.2366786525348
 30
0.0
  0
VERTEX
  5
453
330
451
100
AcDbEntity
  8
COTAS
 62
     7
420
 16777215
370
     9
100
AcDbVertex
100
AcDb2dVertex
 10
58.69085765952322
 20
194.8724714437666
 30
0.0
  0
SEQEND
  5
454
330
451
100
AcDbEntity
  8
COTAS
370
     9
  0
ENDBLK
  5
450
330
44D
100
AcDbEntity
  8
0
100
AcDbBlockEnd
  0
BLOCK
  5
457
330
455
100
AcDbEntity
  8
0
100
AcDbBlockBegin
  2
block 156
 70
     0
 71
     0
 10
0.0
 20
0.0
 30
0.0
  3
block 156
  1

  0
POLYLINE
  5
459
330
455
100
AcDbEntity
  8
COTAS
370
     0
100
AcDb2dPolyline
 66
     1
 10
0.0
 20
0.0
 30
0.0
  0
VERTEX
  5
45A
330
459
100
AcDbEntity
  8
COTAS
370
     0
100
AcDbVertex
100
AcDb2dVertex
 10
58.39113415458056
 20
199.1314735470467
 30
0.0
  0
VERTEX
  5
45B
330
459
100
AcDbEntity
  8
COTAS
370
     0
100
AcDbVertex
100
AcDb2dVertex
 10
58.99058116446589
 20
199.1314735470467
 30
0.0
  0
VERTEX
  5
45C
330
459
100
AcDbEntity
  8
COTAS
370
     0
100
AcDbVertex
100
AcDb2dVertex
 10
58.69085765952322
 20
200.9299868315906
 30
0.0
  0
VERTEX
  5
45D
330
459
100
AcDbEntity
  8
COTAS
370
     0
100
AcDbVertex
100
AcDb2dVertex
 10
58.39113415458056
 20
199.1314735470467
 30
0.0
  0
SEQEND
  5
45E
330
459
100
AcDbEntity
  8
COTAS
370
     0
  0
HATCH
  5
45F
330
455
100
AcDbEntity
  8
COTAS
 62
     7
420
 16777215
100
AcDbHatch
 10
0.0
 20
0.0
 30
0.0
210
0.0
220
0.0
230
1.0
  2
SOLID
 70
     1
 71
     0
 91
        1
 92
        1
 93
        3
 72
     1
 10
58.39113415458056
 20
199.1314735470467
 11
58.99058116446589
 21
199.1314735470467
 72
     1
 10
58.99058116446589
 20
199.1314735470467
 11
58.69085765952322
 21
200.9299868315906
 72
     1
 10
58.69085765952322
 20
200.9299868315906
 11
58.39113415458056
 21
199.1314735470467
 97
        0
 75
     2
 76
     1
 98
        0
  0
ENDBLK
  5
458
330
455
100
AcDbEntity
  8
0
100
AcDbBlockEnd
  0
BLOCK
  5
462
330
460
100
AcDbEntity
  8
0
100
AcDbBlockBegin
  2
block 157
 70
     0
 71
     0
 10
0.0
 20
0.0
 30
0.0
  3
block 157
  1

  0
POLYLINE
  5
464
330
460
100
AcDbEntity
  8
COTAS
370
     0
100
AcDb2dPolyline
 66
     1
 10
0.0
 20
0.0
 30
0.0
  0
VERTEX
  5
465
330
464
100
AcDbEntity
  8
COTAS
370
     0
100
AcDbVertex
100
AcDb2dVertex
 10
58.39113415458056
 20
194.2366786525348
 30
0.0
  0
VERTEX
  5
466
330
464
100
AcDbEntity
  8
COTAS
370
     0
100
AcDbVertex
100
AcDb2dVertex
 10
58.99058116446589
 20
194.2366786525348
 30
0.0
  0
VERTEX
  5
467
330
464
100
AcDbEntity
  8
COTAS
370
     0
100
AcDbVertex
100
AcDb2dVertex
 10
58.69085765952322
 20
192.4383376228788
 30
0.0
  0
VERTEX
  5
468
330
464
100
AcDbEntity
  8
COTAS
370
     0
100
AcDbVertex
100
AcDb2dVertex
 10
58.39113415458056
 20
194.2366786525348
 30
0.0
  0
SEQEND
  5
469
330
464
100
AcDbEntity
  8
COTAS
370
     0
  0
HATCH
  5
46A
330
460
100
AcDbEntity
  8
COTAS
 62
     7
420
 16777215
100
AcDbHatch
 10
0.0
 20
0.0
 30
0.0
210
0.0
220
0.0
230
1.0
  2
SOLID
 70
     1
 71
     0
 91
        1
 92
        1
 93
        3
 72
     1
 10
58.39113415458056
 20
194.2366786525348
 11
58.99058116446589
 21
194.2366786525348
 72
     1
 10
58.99058116446589
 20
194.2366786525348
 11
58.69085765952322
 21
192.4383376228788
 72
     1
 10
58.69085765952322
 20
192.4383376228788
 11
58.39113415458056
 21
194.2366786525348
 97
        0
 75
     2
 76
     1
 98
        0
  0
ENDBLK
  5
463
330
460
100
AcDbEntity
  8
0
100
AcDbBlockEnd
  0
BLOCK
  5
46D
330
46B
100
AcDbEntity
  8
0
100
AcDbBlockBegin
  2
block 158
 70
     0
 71
     0
 10
0.0
 20
0.0
 30
0.0
  3
block 158
  1

  0
MTEXT
  5
46F
330
46B
100
AcDbEntity
  8
COTAS
 62
     7
420
 16777215
100
AcDbMText
 10
56.78761340313729
 20
195.8717220484634
 30
0.0
 40
2.398890470823883
 41
0.0
 71
     7
 72
     1
  1
\fArial|b1|i0|c0|p34;\W1;80
 73
     1
 44
1.0
  0
ENDBLK
  5
46E
330
46B
100
AcDbEntity
  8
0
100
AcDbBlockEnd
  0
BLOCK
  5
472
330
470
100
AcDbEntity
  8
0
100
AcDbBlockBegin
  2
block 159
 70
     0
 71
     0
 10
0.0
 20
0.0
 30
0.0
  3
block 159
  1

  0
POLYLINE
  5
474
330
470
100
AcDbEntity
  8
COTAS
 62
     7
420
 16777215
370
     9
100
AcDb2dPolyline
 66
     1
 10
0.0
 20
0.0
 30
0.0
  0
VERTEX
  5
475
330
474
100
AcDbEntity
  8
COTAS
 62
     7
420
 16777215
370
     9
100
AcDbVertex
100
AcDb2dVertex
 10
70.12151976555221
 20
200.9299868315906
 30
0.0
  0
VERTEX
  5
476
330
474
100
AcDbEntity
  8
COTAS
 62
     7
420
 16777215
370
     9
100
AcDbVertex
100
AcDb2dVertex
 10
70.12151976555221
 20
200.9299868315906
 30
0.0
  0
SEQEND
  5
477
330
474
100
AcDbEntity
  8
COTAS
370
     9
  0
ENDBLK
  5
473
330
470
100
AcDbEntity
  8
0
100
AcDbBlockEnd
  0
BLOCK
  5
47A
330
478
100
AcDbEntity
  8
0
100
AcDbBlockBegin
  2
block 160
 70
     0
 71
     0
 10
0.0
 20
0.0
 30
0.0
  3
block 160
  1

  0
POLYLINE
  5
47C
330
478
100
AcDbEntity
  8
COTAS
 62
     7
420
 16777215
370
     9
100
AcDb2dPolyline
 66
     1
 10
0.0
 20
0.0
 30
0.0
  0
VERTEX
  5
47D
330
47C
100
AcDbEntity
  8
COTAS
 62
     7
420
 16777215
370
     9
100
AcDbVertex
100
AcDb2dVertex
 10
69.6998397999777
 20
192.4383376228788
 30
0.0
  0
VERTEX
  5
47E
330
47C
100
AcDbEntity
  8
COTAS
 62
     7
420
 16777215
370
     9
100
AcDbVertex
100
AcDb2dVertex
 10
69.6998397999777
 20
192.4383376228788
 30
0.0
  0
SEQEND
  5
47F
330
47C
100
AcDbEntity
  8
COTAS
370
     9
  0
ENDBLK
  5
47B
330
478
100
AcDbEntity
  8
0
100
AcDbBlockEnd
  0
BLOCK
  5
482
330
480
100
AcDbEntity
  8
0
100
AcDbBlockBegin
  2
block 161
 70
     0
 71
     0
 10
0.0
 20
0.0
 30
0.0
  3
block 161
  1

  0
POLYLINE
  5
484
330
480
100
AcDbEntity
  8
COTAS
 62
     7
420
 16777215
370
     9
100
AcDb2dPolyline
 66
     1
 10
0.0
 20
0.0
 30
0.0
  0
VERTEX
  5
485
330
484
100
AcDbEntity
  8
COTAS
 62
     7
420
 16777215
370
     9
100
AcDbVertex
100
AcDb2dVertex
 10
58.69085765952322
 20
192.4383376228788
 30
0.0
  0
VERTEX
  5
486
330
484
100
AcDbEntity
  8
COTAS
 62
     7
420
 16777215
370
     9
100
AcDbVertex
100
AcDb2dVertex
 10
58.69085765952322
 20
192.4383376228788
 30
0.0
  0
SEQEND
  5
487
330
484
100
AcDbEntity
  8
COTAS
370
     9
  0
ENDBLK
  5
483
330
480
100
AcDbEntity
  8
0
100
AcDbBlockEnd
  0
BLOCK
  5
48A
330
488
100
AcDbEntity
  8
0
100
AcDbBlockBegin
  2
block 162
 70
     0
 71
     0
 10
0.0
 20
0.0
 30
0.0
  3
block 162
  1

  0
INSERT
  5
48D
330
488
100
AcDbEntity
  8
COTAS
100
AcDbBlockReference
  2
block 163
 10
0.0
 20
0.0
 30
0.0
  0
INSERT
  5
495
330
488
100
AcDbEntity
  8
COTAS
100
AcDbBlockReference
  2
block 164
 10
0.0
 20
0.0
 30
0.0
  0
INSERT
  5
49D
330
488
100
AcDbEntity
  8
COTAS
100
AcDbBlockReference
  2
block 165
 10
0.0
 20
0.0
 30
0.0
  0
INSERT
  5
4A5
330
488
100
AcDbEntity
  8
COTAS
100
AcDbBlockReference
  2
block 166
 10
0.0
 20
0.0
 30
0.0
  0
INSERT
  5
4AD
330
488
100
AcDbEntity
  8
COTAS
100
AcDbBlockReference
  2
block 167
 10
0.0
 20
0.0
 30
0.0
  0
INSERT
  5
4B8
330
488
100
AcDbEntity
  8
COTAS
100
AcDbBlockReference
  2
block 168
 10
0.0
 20
0.0
 30
0.0
  0
INSERT
  5
4C3
330
488
100
AcDbEntity
  8
COTAS
100
AcDbBlockReference
  2
block 169
 10
0.0
 20
0.0
 30
0.0
  0
INSERT
  5
4C8
330
488
100
AcDbEntity
  8
COTAS
100
AcDbBlockReference
  2
block 170
 10
0.0
 20
0.0
 30
0.0
  0
INSERT
  5
4D0
330
488
100
AcDbEntity
  8
COTAS
100
AcDbBlockReference
  2
block 171
 10
0.0
 20
0.0
 30
0.0
  0
INSERT
  5
4D8
330
488
100
AcDbEntity
  8
COTAS
100
AcDbBlockReference
  2
block 172
 10
0.0
 20
0.0
 30
0.0
  0
ENDBLK
  5
48B
330
488
100
AcDbEntity
  8
0
100
AcDbBlockEnd
  0
BLOCK
  5
48E
330
48C
100
AcDbEntity
  8
0
100
AcDbBlockBegin
  2
block 163
 70
     0
 71
     0
 10
0.0
 20
0.0
 30
0.0
  3
block 163
  1

  0
POLYLINE
  5
490
330
48C
100
AcDbEntity
  8
COTAS
 62
     7
420
 16777215
370
     9
100
AcDb2dPolyline
 66
     1
 10
0.0
 20
0.0
 30
0.0
  0
VERTEX
  5
491
330
490
100
AcDbEntity
  8
COTAS
 62
     7
420
 16777215
370
     9
100
AcDbVertex
100
AcDb2dVertex
 10
114.0621913743625
 20
87.82518812416573
 30
0.0
  0
VERTEX
  5
492
330
490
100
AcDbEntity
  8
COTAS
 62
     7
420
 16777215
370
     9
100
AcDbVertex
100
AcDb2dVertex
 10
114.0621913743625
 20
75.23783444590111
 30
0.0
  0
SEQEND
  5
493
330
490
100
AcDbEntity
  8
COTAS
370
     9
  0
ENDBLK
  5
48F
330
48C
100
AcDbEntity
  8
0
100
AcDbBlockEnd
  0
BLOCK
  5
496
330
494
100
AcDbEntity
  8
0
100
AcDbBlockBegin
  2
block 164
 70
     0
 71
     0
 10
0.0
 20
0.0
 30
0.0
  3
block 164
  1

  0
POLYLINE
  5
498
330
494
100
AcDbEntity
  8
COTAS
 62
     7
420
 16777215
370
     9
100
AcDb2dPolyline
 66
     1
 10
0.0
 20
0.0
 30
0.0
  0
VERTEX
  5
499
330
498
100
AcDbEntity
  8
COTAS
 62
     7
420
 16777215
370
     9
100
AcDbVertex
100
AcDb2dVertex
 10
69.10022053520447
 20
82.32991269044105
 30
0.0
  0
VERTEX
  5
49A
330
498
100
AcDbEntity
  8
COTAS
 62
     7
420
 16777215
370
     9
100
AcDbVertex
100
AcDb2dVertex
 10
69.10022053520447
 20
75.23783444590111
 30
0.0
  0
SEQEND
  5
49B
330
498
100
AcDbEntity
  8
COTAS
370
     9
  0
ENDBLK
  5
497
330
494
100
AcDbEntity
  8
0
100
AcDbBlockEnd
  0
BLOCK
  5
49E
330
49C
100
AcDbEntity
  8
0
100
AcDbBlockBegin
  2
block 165
 70
     0
 71
     0
 10
0.0
 20
0.0
 30
0.0
  3
block 165
  1

  0
POLYLINE
  5
4A0
330
49C
100
AcDbEntity
  8
COTAS
 62
     7
420
 16777215
370
     9
100
AcDb2dPolyline
 66
     1
 10
0.0
 20
0.0
 30
0.0
  0
VERTEX
  5
4A1
330
4A0
100
AcDbEntity
  8
COTAS
 62
     7
420
 16777215
370
     9
100
AcDbVertex
100
AcDb2dVertex
 10
112.2638503447065
 20
76.23691279571
 30
0.0
  0
VERTEX
  5
4A2
330
4A0
100
AcDbEntity
  8
COTAS
 62
     7
420
 16777215
370
     9
100
AcDbVertex
100
AcDb2dVertex
 10
95.14963821248018
 20
76.23691279571
 30
0.0
  0
SEQEND
  5
4A3
330
4A0
100
AcDbEntity
  8
COTAS
370
     9
  0
ENDBLK
  5
49F
330
49C
100
AcDbEntity
  8
0
100
AcDbBlockEnd
  0
BLOCK
  5
4A6
330
4A4
100
AcDbEntity
  8
0
100
AcDbBlockBegin
  2
block 166
 70
     0
 71
     0
 10
0.0
 20
0.0
 30
0.0
  3
block 166
  1

  0
POLYLINE
  5
4A8
330
4A4
100
AcDbEntity
  8
COTAS
 62
     7
420
 16777215
370
     9
100
AcDb2dPolyline
 66
     1
 10
0.0
 20
0.0
 30
0.0
  0
VERTEX
  5
4A9
330
4A8
100
AcDbEntity
  8
COTAS
 62
     7
420
 16777215
370
     9
100
AcDbVertex
100
AcDb2dVertex
 10
70.89873381974836
 20
76.23691279571
 30
0.0
  0
VERTEX
  5
4AA
330
4A8
100
AcDbEntity
  8
COTAS
 62
     7
420
 16777215
370
     9
100
AcDbVertex
100
AcDb2dVertex
 10
88.01277369708674
 20
76.23691279571
 30
0.0
  0
SEQEND
  5
4AB
330
4A8
100
AcDbEntity
  8
COTAS
370
     9
  0
ENDBLK
  5
4A7
330
4A4
100
AcDbEntity
  8
0
100
AcDbBlockEnd
  0
BLOCK
  5
4AE
330
4AC
100
AcDbEntity
  8
0
100
AcDbBlockBegin
  2
block 167
 70
     0
 71
     0
 10
0.0
 20
0.0
 30
0.0
  3
block 167
  1

  0
POLYLINE
  5
4B0
330
4AC
100
AcDbEntity
  8
COTAS
370
     0
100
AcDb2dPolyline
 66
     1
 10
0.0
 20
0.0
 30
0.0
  0
VERTEX
  5
4B1
330
4B0
100
AcDbEntity
  8
COTAS
370
     0
100
AcDbVertex
100
AcDb2dVertex
 10
112.2638503447065
 20
76.53663630065267
 30
0.0
  0
VERTEX
  5
4B2
330
4B0
100
AcDbEntity
  8
COTAS
370
     0
100
AcDbVertex
100
AcDb2dVertex
 10
112.2638503447065
 20
75.93718929076734
 30
0.0
  0
VERTEX
  5
4B3
330
4B0
100
AcDbEntity
  8
COTAS
370
     0
100
AcDbVertex
100
AcDb2dVertex
 10
114.0621913743625
 20
76.23691279571
 30
0.0
  0
VERTEX
  5
4B4
330
4B0
100
AcDbEntity
  8
COTAS
370
     0
100
AcDbVertex
100
AcDb2dVertex
 10
112.2638503447065
 20
76.53663630065267
 30
0.0
  0
SEQEND
  5
4B5
330
4B0
100
AcDbEntity
  8
COTAS
370
     0
  0
HATCH
  5
4B6
330
4AC
100
AcDbEntity
  8
COTAS
 62
     7
420
 16777215
100
AcDbHatch
 10
0.0
 20
0.0
 30
0.0
210
0.0
220
0.0
230
1.0
  2
SOLID
 70
     1
 71
     0
 91
        1
 92
        1
 93
        3
 72
     1
 10
112.2638503447065
 20
76.53663630065267
 11
112.2638503447065
 21
75.93718929076734
 72
     1
 10
112.2638503447065
 20
75.93718929076734
 11
114.0621913743625
 21
76.23691279571
 72
     1
 10
114.0621913743625
 20
76.23691279571
 11
112.2638503447065
 21
76.53663630065267
 97
        0
 75
     2
 76
     1
 98
        0
  0
ENDBLK
  5
4AF
330
4AC
100
AcDbEntity
  8
0
100
AcDbBlockEnd
  0
BLOCK
  5
4B9
330
4B7
100
AcDbEntity
  8
0
100
AcDbBlockBegin
  2
block 168
 70
     0
 71
     0
 10
0.0
 20
0.0
 30
0.0
  3
block 168
  1

  0
POLYLINE
  5
4BB
330
4B7
100
AcDbEntity
  8
COTAS
370
     0
100
AcDb2dPolyline
 66
     1
 10
0.0
 20
0.0
 30
0.0
  0
VERTEX
  5
4BC
330
4BB
100
AcDbEntity
  8
COTAS
370
     0
100
AcDbVertex
100
AcDb2dVertex
 10
70.89873381974836
 20
76.53663630065267
 30
0.0
  0
VERTEX
  5
4BD
330
4BB
100
AcDbEntity
  8
COTAS
370
     0
100
AcDbVertex
100
AcDb2dVertex
 10
70.89873381974836
 20
75.93718929076734
 30
0.0
  0
VERTEX
  5
4BE
330
4BB
100
AcDbEntity
  8
COTAS
370
     0
100
AcDbVertex
100
AcDb2dVertex
 10
69.10022053520447
 20
76.23691279571
 30
0.0
  0
VERTEX
  5
4BF
330
4BB
100
AcDbEntity
  8
COTAS
370
     0
100
AcDbVertex
100
AcDb2dVertex
 10
70.89873381974836
 20
76.53663630065267
 30
0.0
  0
SEQEND
  5
4C0
330
4BB
100
AcDbEntity
  8
COTAS
370
     0
  0
HATCH
  5
4C1
330
4B7
100
AcDbEntity
  8
COTAS
 62
     7
420
 16777215
100
AcDbHatch
 10
0.0
 20
0.0
 30
0.0
210
0.0
220
0.0
230
1.0
  2
SOLID
 70
     1
 71
     0
 91
        1
 92
        1
 93
        3
 72
     1
 10
70.89873381974836
 20
76.53663630065267
 11
70.89873381974836
 21
75.93718929076734
 72
     1
 10
70.89873381974836
 20
75.93718929076734
 11
69.10022053520447
 21
76.23691279571
 72
     1
 10
69.10022053520447
 20
76.23691279571
 11
70.89873381974836
 21
76.53663630065267
 97
        0
 75
     2
 76
     1
 98
        0
  0
ENDBLK
  5
4BA
330
4B7
100
AcDbEntity
  8
0
100
AcDbBlockEnd
  0
BLOCK
  5
4C4
330
4C2
100
AcDbEntity
  8
0
100
AcDbBlockBegin
  2
block 169
 70
     0
 71
     0
 10
0.0
 20
0.0
 30
0.0
  3
block 169
  1

  0
MTEXT
  5
4C6
330
4C2
100
AcDbEntity
  8
COTAS
 62
     7
420
 16777215
100
AcDbMText
 10
88.72642569764851
 20
75.23783444590111
 30
0.0
 40
2.398890470823883
 41
0.0
 71
     7
 72
     1
  1
\fArial|b1|i0|c0|p34;\W1;450
 73
     1
 44
1.0
  0
ENDBLK
  5
4C5
330
4C2
100
AcDbEntity
  8
0
100
AcDbBlockEnd
  0
BLOCK
  5
4C9
330
4C7
100
AcDbEntity
  8
0
100
AcDbBlockBegin
  2
block 170
 70
     0
 71
     0
 10
0.0
 20
0.0
 30
0.0
  3
block 170
  1

  0
POLYLINE
  5
4CB
330
4C7
100
AcDbEntity
  8
COTAS
 62
     7
420
 16777215
370
     9
100
AcDb2dPolyline
 66
     1
 10
0.0
 20
0.0
 30
0.0
  0
VERTEX
  5
4CC
330
4CB
100
AcDbEntity
  8
COTAS
 62
     7
420
 16777215
370
     9
100
AcDbVertex
100
AcDb2dVertex
 10
114.0621913743625
 20
88.82461098375042
 30
0.0
  0
VERTEX
  5
4CD
330
4CB
100
AcDbEntity
  8
COTAS
 62
     7
420
 16777215
370
     9
100
AcDbVertex
100
AcDb2dVertex
 10
114.0621913743625
 20
88.82461098375042
 30
0.0
  0
SEQEND
  5
4CE
330
4CB
100
AcDbEntity
  8
COTAS
370
     9
  0
ENDBLK
  5
4CA
330
4C7
100
AcDbEntity
  8
0
100
AcDbBlockEnd
  0
BLOCK
  5
4D1
330
4CF
100
AcDbEntity
  8
0
100
AcDbBlockBegin
  2
block 171
 70
     0
 71
     0
 10
0.0
 20
0.0
 30
0.0
  3
block 171
  1

  0
POLYLINE
  5
4D3
330
4CF
100
AcDbEntity
  8
COTAS
 62
     7
420
 16777215
370
     9
100
AcDb2dPolyline
 66
     1
 10
0.0
 20
0.0
 30
0.0
  0
VERTEX
  5
4D4
330
4D3
100
AcDbEntity
  8
COTAS
 62
     7
420
 16777215
370
     9
100
AcDbVertex
100
AcDb2dVertex
 10
69.10022053520447
 20
83.32899104024993
 30
0.0
  0
VERTEX
  5
4D5
330
4D3
100
AcDbEntity
  8
COTAS
 62
     7
420
 16777215
370
     9
100
AcDbVertex
100
AcDb2dVertex
 10
69.10022053520447
 20
83.32899104024993
 30
0.0
  0
SEQEND
  5
4D6
330
4D3
100
AcDbEntity
  8
COTAS
370
     9
  0
ENDBLK
  5
4D2
330
4CF
100
AcDbEntity
  8
0
100
AcDbBlockEnd
  0
BLOCK
  5
4D9
330
4D7
100
AcDbEntity
  8
0
100
AcDbBlockBegin
  2
block 172
 70
     0
 71
     0
 10
0.0
 20
0.0
 30
0.0
  3
block 172
  1

  0
POLYLINE
  5
4DB
330
4D7
100
AcDbEntity
  8
COTAS
 62
     7
420
 16777215
370
     9
100
AcDb2dPolyline
 66
     1
 10
0.0
 20
0.0
 30
0.0
  0
VERTEX
  5
4DC
330
4DB
100
AcDbEntity
  8
COTAS
 62
     7
420
 16777215
370
     9
100
AcDbVertex
100
AcDb2dVertex
 10
69.10022053520447
 20
76.23691279571
 30
0.0
  0
VERTEX
  5
4DD
330
4DB
100
AcDbEntity
  8
COTAS
 62
     7
420
 16777215
370
     9
100
AcDbVertex
100
AcDb2dVertex
 10
69.10022053520447
 20
76.23691279571
 30
0.0
  0
SEQEND
  5
4DE
330
4DB
100
AcDbEntity
  8
COTAS
370
     9
  0
ENDBLK
  5
4DA
330
4D7
100
AcDbEntity
  8
0
100
AcDbBlockEnd
  0
BLOCK
  5
4E1
330
4DF
100
AcDbEntity
  8
0
100
AcDbBlockBegin
  2
block 173
 70
     0
 71
     0
 10
0.0
 20
0.0
 30
0.0
  3
block 173
  1

  0
INSERT
  5
4E4
330
4DF
100
AcDbEntity
  8
COTAS
100
AcDbBlockReference
  2
block 174
 10
0.0
 20
0.0
 30
0.0
  0
INSERT
  5
4EC
330
4DF
100
AcDbEntity
  8
COTAS
100
AcDbBlockReference
  2
block 175
 10
0.0
 20
0.0
 30
0.0
  0
INSERT
  5
4F4
330
4DF
100
AcDbEntity
  8
COTAS
100
AcDbBlockReference
  2
block 176
 10
0.0
 20
0.0
 30
0.0
  0
INSERT
  5
4FC
330
4DF
100
AcDbEntity
  8
COTAS
100
AcDbBlockReference
  2
block 177
 10
0.0
 20
0.0
 30
0.0
  0
INSERT
  5
504
330
4DF
100
AcDbEntity
  8
COTAS
100
AcDbBlockReference
  2
block 178
 10
0.0
 20
0.0
 30
0.0
  0
INSERT
  5
50F
330
4DF
100
AcDbEntity
  8
COTAS
100
AcDbBlockReference
  2
block 179
 10
0.0
 20
0.0
 30
0.0
  0
INSERT
  5
51A
330
4DF
100
AcDbEntity
  8
COTAS
100
AcDbBlockReference
  2
block 180
 10
0.0
 20
0.0
 30
0.0
  0
INSERT
  5
51F
330
4DF
100
AcDbEntity
  8
COTAS
100
AcDbBlockReference
  2
block 181
 10
0.0
 20
0.0
 30
0.0
  0
INSERT
  5
527
330
4DF
100
AcDbEntity
  8
COTAS
100
AcDbBlockReference
  2
block 182
 10
0.0
 20
0.0
 30
0.0
  0
INSERT
  5
52F
330
4DF
100
AcDbEntity
  8
COTAS
100
AcDbBlockReference
  2
block 183
 10
0.0
 20
0.0
 30
0.0
  0
ENDBLK
  5
4E2
330
4DF
100
AcDbEntity
  8
0
100
AcDbBlockEnd
  0
BLOCK
  5
4E5
330
4E3
100
AcDbEntity
  8
0
100
AcDbBlockBegin
  2
block 174
 70
     0
 71
     0
 10
0.0
 20
0.0
 30
0.0
  3
block 174
  1

  0
POLYLINE
  5
4E7
330
4E3
100
AcDbEntity
  8
COTAS
 62
     7
420
 16777215
370
     9
100
AcDb2dPolyline
 66
     1
 10
0.0
 20
0.0
 30
0.0
  0
VERTEX
  5
4E8
330
4E7
100
AcDbEntity
  8
COTAS
 62
     7
420
 16777215
370
     9
100
AcDbVertex
100
AcDb2dVertex
 10
69.10022053520447
 20
82.32991269044105
 30
0.0
  0
VERTEX
  5
4E9
330
4E7
100
AcDbEntity
  8
COTAS
 62
     7
420
 16777215
370
     9
100
AcDbVertex
100
AcDb2dVertex
 10
69.10022053520447
 20
68.28459364100704
 30
0.0
  0
SEQEND
  5
4EA
330
4E7
100
AcDbEntity
  8
COTAS
370
     9
  0
ENDBLK
  5
4E6
330
4E3
100
AcDbEntity
  8
0
100
AcDbBlockEnd
  0
BLOCK
  5
4ED
330
4EB
100
AcDbEntity
  8
0
100
AcDbBlockBegin
  2
block 175
 70
     0
 71
     0
 10
0.0
 20
0.0
 30
0.0
  3
block 175
  1

  0
POLYLINE
  5
4EF
330
4EB
100
AcDbEntity
  8
COTAS
 62
     7
420
 16777215
370
     9
100
AcDb2dPolyline
 66
     1
 10
0.0
 20
0.0
 30
0.0
  0
VERTEX
  5
4F0
330
4EF
100
AcDbEntity
  8
COTAS
 62
     7
420
 16777215
370
     9
100
AcDbVertex
100
AcDb2dVertex
 10
159.0241622135205
 20
82.32991269044105
 30
0.0
  0
VERTEX
  5
4F1
330
4EF
100
AcDbEntity
  8
COTAS
 62
     7
420
 16777215
370
     9
100
AcDbVertex
100
AcDb2dVertex
 10
159.0241622135205
 20
68.28459364100704
 30
0.0
  0
SEQEND
  5
4F2
330
4EF
100
AcDbEntity
  8
COTAS
370
     9
  0
ENDBLK
  5
4EE
330
4EB
100
AcDbEntity
  8
0
100
AcDbBlockEnd
  0
BLOCK
  5
4F5
330
4F3
100
AcDbEntity
  8
0
100
AcDbBlockBegin
  2
block 176
 70
     0
 71
     0
 10
0.0
 20
0.0
 30
0.0
  3
block 176
  1

  0
POLYLINE
  5
4F7
330
4F3
100
AcDbEntity
  8
COTAS
 62
     7
420
 16777215
370
     9
100
AcDb2dPolyline
 66
     1
 10
0.0
 20
0.0
 30
0.0
  0
VERTEX
  5
4F8
330
4F7
100
AcDbEntity
  8
COTAS
 62
     7
420
 16777215
370
     9
100
AcDbVertex
100
AcDb2dVertex
 10
70.89873381974836
 20
69.28367199081592
 30
0.0
  0
VERTEX
  5
4F9
330
4F7
100
AcDbEntity
  8
COTAS
 62
     7
420
 16777215
370
     9
100
AcDbVertex
100
AcDb2dVertex
 10
110.4937591166657
 20
69.28367199081592
 30
0.0
  0
SEQEND
  5
4FA
330
4F7
100
AcDbEntity
  8
COTAS
370
     9
  0
ENDBLK
  5
4F6
330
4F3
100
AcDbEntity
  8
0
100
AcDbBlockEnd
  0
BLOCK
  5
4FD
330
4FB
100
AcDbEntity
  8
0
100
AcDbBlockBegin
  2
block 177
 70
     0
 71
     0
 10
0.0
 20
0.0
 30
0.0
  3
block 177
  1

  0
POLYLINE
  5
4FF
330
4FB
100
AcDbEntity
  8
COTAS
 62
     7
420
 16777215
370
     9
100
AcDb2dPolyline
 66
     1
 10
0.0
 20
0.0
 30
0.0
  0
VERTEX
  5
500
330
4FF
100
AcDbEntity
  8
COTAS
 62
     7
420
 16777215
370
     9
100
AcDbVertex
100
AcDb2dVertex
 10
157.2254766740887
 20
69.28367199081592
 30
0.0
  0
VERTEX
  5
501
330
4FF
100
AcDbEntity
  8
COTAS
 62
     7
420
 16777215
370
     9
100
AcDbVertex
100
AcDb2dVertex
 10
117.6306236320592
 20
69.28367199081592
 30
0.0
  0
SEQEND
  5
502
330
4FF
100
AcDbEntity
  8
COTAS
370
     9
  0
ENDBLK
  5
4FE
330
4FB
100
AcDbEntity
  8
0
100
AcDbBlockEnd
  0
BLOCK
  5
505
330
503
100
AcDbEntity
  8
0
100
AcDbBlockBegin
  2
block 178
 70
     0
 71
     0
 10
0.0
 20
0.0
 30
0.0
  3
block 178
  1

  0
POLYLINE
  5
507
330
503
100
AcDbEntity
  8
COTAS
370
     0
100
AcDb2dPolyline
 66
     1
 10
0.0
 20
0.0
 30
0.0
  0
VERTEX
  5
508
330
507
100
AcDbEntity
  8
COTAS
370
     0
100
AcDbVertex
100
AcDb2dVertex
 10
70.89873381974836
 20
69.5833954957586
 30
0.0
  0
VERTEX
  5
509
330
507
100
AcDbEntity
  8
COTAS
370
     0
100
AcDbVertex
100
AcDb2dVertex
 10
70.89873381974836
 20
68.98394848587326
 30
0.0
  0
VERTEX
  5
50A
330
507
100
AcDbEntity
  8
COTAS
370
     0
100
AcDbVertex
100
AcDb2dVertex
 10
69.10022053520447
 20
69.28367199081592
 30
0.0
  0
VERTEX
  5
50B
330
507
100
AcDbEntity
  8
COTAS
370
     0
100
AcDbVertex
100
AcDb2dVertex
 10
70.89873381974836
 20
69.5833954957586
 30
0.0
  0
SEQEND
  5
50C
330
507
100
AcDbEntity
  8
COTAS
370
     0
  0
HATCH
  5
50D
330
503
100
AcDbEntity
  8
COTAS
 62
     7
420
 16777215
100
AcDbHatch
 10
0.0
 20
0.0
 30
0.0
210
0.0
220
0.0
230
1.0
  2
SOLID
 70
     1
 71
     0
 91
        1
 92
        1
 93
        3
 72
     1
 10
70.89873381974836
 20
69.5833954957586
 11
70.89873381974836
 21
68.98394848587326
 72
     1
 10
70.89873381974836
 20
68.98394848587326
 11
69.10022053520447
 21
69.28367199081592
 72
     1
 10
69.10022053520447
 20
69.28367199081592
 11
70.89873381974836
 21
69.5833954957586
 97
        0
 75
     2
 76
     1
 98
        0
  0
ENDBLK
  5
506
330
503
100
AcDbEntity
  8
0
100
AcDbBlockEnd
  0
BLOCK
  5
510
330
50E
100
AcDbEntity
  8
0
100
AcDbBlockBegin
  2
block 179
 70
     0
 71
     0
 10
0.0
 20
0.0
 30
0.0
  3
block 179
  1

  0
POLYLINE
  5
512
330
50E
100
AcDbEntity
  8
COTAS
370
     0
100
AcDb2dPolyline
 66
     1
 10
0.0
 20
0.0
 30
0.0
  0
VERTEX
  5
513
330
512
100
AcDbEntity
  8
COTAS
370
     0
100
AcDbVertex
100
AcDb2dVertex
 10
157.2254766740887
 20
69.5833954957586
 30
0.0
  0
VERTEX
  5
514
330
512
100
AcDbEntity
  8
COTAS
370
     0
100
AcDbVertex
100
AcDb2dVertex
 10
157.2254766740887
 20
68.98394848587326
 30
0.0
  0
VERTEX
  5
515
330
512
100
AcDbEntity
  8
COTAS
370
     0
100
AcDbVertex
100
AcDb2dVertex
 10
159.0241622135205
 20
69.28367199081592
 30
0.0
  0
VERTEX
  5
516
330
512
100
AcDbEntity
  8
COTAS
370
     0
100
AcDbVertex
100
AcDb2dVertex
 10
157.2254766740887
 20
69.5833954957586
 30
0.0
  0
SEQEND
  5
517
330
512
100
AcDbEntity
  8
COTAS
370
     0
  0
HATCH
  5
518
330
50E
100
AcDbEntity
  8
COTAS
 62
     7
420
 16777215
100
AcDbHatch
 10
0.0
 20
0.0
 30
0.0
210
0.0
220
0.0
230
1.0
  2
SOLID
 70
     1
 71
     0
 91
        1
 92
        1
 93
        3
 72
     1
 10
157.2254766740887
 20
69.5833954957586
 11
157.2254766740887
 21
68.98394848587326
 72
     1
 10
157.2254766740887
 20
68.98394848587326
 11
159.0241622135205
 21
69.28367199081592
 72
     1
 10
159.0241622135205
 20
69.28367199081592
 11
157.2254766740887
 21
69.5833954957586
 97
        0
 75
     2
 76
     1
 98
        0
  0
ENDBLK
  5
511
330
50E
100
AcDbEntity
  8
0
100
AcDbBlockEnd
  0
BLOCK
  5
51B
330
519
100
AcDbEntity
  8
0
100
AcDbBlockBegin
  2
block 180
 70
     0
 71
     0
 10
0.0
 20
0.0
 30
0.0
  3
block 180
  1

  0
MTEXT
  5
51D
330
519
100
AcDbEntity
  8
COTAS
 62
     7
420
 16777215
100
AcDbMText
 10
111.2075833721154
 20
68.28459364100704
 30
0.0
 40
2.398890470823883
 41
0.0
 71
     7
 72
     1
  1
\fArial|b1|i0|c0|p34;\W1;900
 73
     1
 44
1.0
  0
ENDBLK
  5
51C
330
519
100
AcDbEntity
  8
0
100
AcDbBlockEnd
  0
BLOCK
  5
520
330
51E
100
AcDbEntity
  8
0
100
AcDbBlockBegin
  2
block 181
 70
     0
 71
     0
 10
0.0
 20
0.0
 30
0.0
  3
block 181
  1

  0
POLYLINE
  5
522
330
51E
100
AcDbEntity
  8
COTAS
 62
     7
420
 16777215
370
     9
100
AcDb2dPolyline
 66
     1
 10
0.0
 20
0.0
 30
0.0
  0
VERTEX
  5
523
330
522
100
AcDbEntity
  8
COTAS
 62
     7
420
 16777215
370
     9
100
AcDbVertex
100
AcDb2dVertex
 10
69.10022053520447
 20
83.32899104024993
 30
0.0
  0
VERTEX
  5
524
330
522
100
AcDbEntity
  8
COTAS
 62
     7
420
 16777215
370
     9
100
AcDbVertex
100
AcDb2dVertex
 10
69.10022053520447
 20
83.32899104024993
 30
0.0
  0
SEQEND
  5
525
330
522
100
AcDbEntity
  8
COTAS
370
     9
  0
ENDBLK
  5
521
330
51E
100
AcDbEntity
  8
0
100
AcDbBlockEnd
  0
BLOCK
  5
528
330
526
100
AcDbEntity
  8
0
100
AcDbBlockBegin
  2
block 182
 70
     0
 71
     0
 10
0.0
 20
0.0
 30
0.0
  3
block 182
  1

  0
POLYLINE
  5
52A
330
526
100
AcDbEntity
  8
COTAS
 62
     7
420
 16777215
370
     9
100
AcDb2dPolyline
 66
     1
 10
0.0
 20
0.0
 30
0.0
  0
VERTEX
  5
52B
330
52A
100
AcDbEntity
  8
COTAS
 62
     7
420
 16777215
370
     9
100
AcDbVertex
100
AcDb2dVertex
 10
159.0241622135205
 20
83.32899104024993
 30
0.0
  0
VERTEX
  5
52C
330
52A
100
AcDbEntity
  8
COTAS
 62
     7
420
 16777215
370
     9
100
AcDbVertex
100
AcDb2dVertex
 10
159.0241622135205
 20
83.32899104024993
 30
0.0
  0
SEQEND
  5
52D
330
52A
100
AcDbEntity
  8
COTAS
370
     9
  0
ENDBLK
  5
529
330
526
100
AcDbEntity
  8
0
100
AcDbBlockEnd
  0
BLOCK
  5
530
330
52E
100
AcDbEntity
  8
0
100
AcDbBlockBegin
  2
block 183
 70
     0
 71
     0
 10
0.0
 20
0.0
 30
0.0
  3
block 183
  1

  0
POLYLINE
  5
532
330
52E
100
AcDbEntity
  8
COTAS
 62
     7
420
 16777215
370
     9
100
AcDb2dPolyline
 66
     1
 10
0.0
 20
0.0
 30
0.0
  0
VERTEX
  5
533
330
532
100
AcDbEntity
  8
COTAS
 62
     7
420
 16777215
370
     9
100
AcDbVertex
100
AcDb2dVertex
 10
159.0241622135205
 20
69.28367199081592
 30
0.0
  0
VERTEX
  5
534
330
532
100
AcDbEntity
  8
COTAS
 62
     7
420
 16777215
370
     9
100
AcDbVertex
100
AcDb2dVertex
 10
159.0241622135205
 20
69.28367199081592
 30
0.0
  0
SEQEND
  5
535
330
532
100
AcDbEntity
  8
COTAS
370
     9
  0
ENDBLK
  5
531
330
52E
100
AcDbEntity
  8
0
100
AcDbBlockEnd
  0
BLOCK
  5
538
330
536
100
AcDbEntity
  8
0
100
AcDbBlockBegin
  2
block 184
 70
     0
 71
     0
 10
0.0
 20
0.0
 30
0.0
  3
block 184
  1

  0
INSERT
  5
53B
330
536
100
AcDbEntity
  8
COTAS
100
AcDbBlockReference
  2
block 185
 10
0.0
 20
0.0
 30
0.0
  0
INSERT
  5
543
330
536
100
AcDbEntity
  8
COTAS
100
AcDbBlockReference
  2
block 186
 10
0.0
 20
0.0
 30
0.0
  0
INSERT
  5
54B
330
536
100
AcDbEntity
  8
COTAS
100
AcDbBlockReference
  2
block 187
 10
0.0
 20
0.0
 30
0.0
  0
INSERT
  5
553
330
536
100
AcDbEntity
  8
COTAS
100
AcDbBlockReference
  2
block 188
 10
0.0
 20
0.0
 30
0.0
  0
INSERT
  5
55B
330
536
100
AcDbEntity
  8
COTAS
100
AcDbBlockReference
  2
block 189
 10
0.0
 20
0.0
 30
0.0
  0
INSERT
  5
566
330
536
100
AcDbEntity
  8
COTAS
100
AcDbBlockReference
  2
block 190
 10
0.0
 20
0.0
 30
0.0
  0
INSERT
  5
571
330
536
100
AcDbEntity
  8
COTAS
100
AcDbBlockReference
  2
block 191
 10
0.0
 20
0.0
 30
0.0
  0
INSERT
  5
576
330
536
100
AcDbEntity
  8
COTAS
100
AcDbBlockReference
  2
block 192
 10
0.0
 20
0.0
 30
0.0
  0
INSERT
  5
57E
330
536
100
AcDbEntity
  8
COTAS
100
AcDbBlockReference
  2
block 193
 10
0.0
 20
0.0
 30
0.0
  0
INSERT
  5
586
330
536
100
AcDbEntity
  8
COTAS
100
AcDbBlockReference
  2
block 194
 10
0.0
 20
0.0
 30
0.0
  0
ENDBLK
  5
539
330
536
100
AcDbEntity
  8
0
100
AcDbBlockEnd
  0
BLOCK
  5
53C
330
53A
100
AcDbEntity
  8
0
100
AcDbBlockBegin
  2
block 185
 70
     0
 71
     0
 10
0.0
 20
0.0
 30
0.0
  3
block 185
  1

  0
POLYLINE
  5
53E
330
53A
100
AcDbEntity
  8
COTAS
 62
     7
420
 16777215
370
     9
100
AcDb2dPolyline
 66
     1
 10
0.0
 20
0.0
 30
0.0
  0
VERTEX
  5
53F
330
53E
100
AcDbEntity
  8
COTAS
 62
     7
420
 16777215
370
     9
100
AcDbVertex
100
AcDb2dVertex
 10
68.10114218539557
 20
173.2529327185659
 30
0.0
  0
VERTEX
  5
540
330
53E
100
AcDbEntity
  8
COTAS
 62
     7
420
 16777215
370
     9
100
AcDbVertex
100
AcDb2dVertex
 10
52.44937405142403
 20
173.2529327185659
 30
0.0
  0
SEQEND
  5
541
330
53E
100
AcDbEntity
  8
COTAS
370
     9
  0
ENDBLK
  5
53D
330
53A
100
AcDbEntity
  8
0
100
AcDbBlockEnd
  0
BLOCK
  5
544
330
542
100
AcDbEntity
  8
0
100
AcDbBlockBegin
  2
block 186
 70
     0
 71
     0
 10
0.0
 20
0.0
 30
0.0
  3
block 186
  1

  0
POLYLINE
  5
546
330
542
100
AcDbEntity
  8
COTAS
 62
     7
420
 16777215
370
     9
100
AcDb2dPolyline
 66
     1
 10
0.0
 20
0.0
 30
0.0
  0
VERTEX
  5
547
330
546
100
AcDbEntity
  8
COTAS
 62
     7
420
 16777215
370
     9
100
AcDbVertex
100
AcDb2dVertex
 10
68.10114218539557
 20
83.32899104024993
 30
0.0
  0
VERTEX
  5
548
330
546
100
AcDbEntity
  8
COTAS
 62
     7
420
 16777215
370
     9
100
AcDbVertex
100
AcDb2dVertex
 10
52.44937405142403
 20
83.32899104024993
 30
0.0
  0
SEQEND
  5
549
330
546
100
AcDbEntity
  8
COTAS
370
     9
  0
ENDBLK
  5
545
330
542
100
AcDbEntity
  8
0
100
AcDbBlockEnd
  0
BLOCK
  5
54C
330
54A
100
AcDbEntity
  8
0
100
AcDbBlockBegin
  2
block 187
 70
     0
 71
     0
 10
0.0
 20
0.0
 30
0.0
  3
block 187
  1

  0
POLYLINE
  5
54E
330
54A
100
AcDbEntity
  8
COTAS
 62
     7
420
 16777215
370
     9
100
AcDb2dPolyline
 66
     1
 10
0.0
 20
0.0
 30
0.0
  0
VERTEX
  5
54F
330
54E
100
AcDbEntity
  8
COTAS
 62
     7
420
 16777215
370
     9
100
AcDbVertex
100
AcDb2dVertex
 10
53.44845240123292
 20
171.454419434022
 30
0.0
  0
VERTEX
  5
550
330
54E
100
AcDbEntity
  8
COTAS
 62
     7
420
 16777215
370
     9
100
AcDbVertex
100
AcDb2dVertex
 10
53.44845240123292
 20
130.2894630888015
 30
0.0
  0
SEQEND
  5
551
330
54E
100
AcDbEntity
  8
COTAS
370
     9
  0
ENDBLK
  5
54D
330
54A
100
AcDbEntity
  8
0
100
AcDbBlockEnd
  0
BLOCK
  5
554
330
552
100
AcDbEntity
  8
0
100
AcDbBlockBegin
  2
block 188
 70
     0
 71
     0
 10
0.0
 20
0.0
 30
0.0
  3
block 188
  1

  0
POLYLINE
  5
556
330
552
100
AcDbEntity
  8
COTAS
 62
     7
420
 16777215
370
     9
100
AcDb2dPolyline
 66
     1
 10
0.0
 20
0.0
 30
0.0
  0
VERTEX
  5
557
330
556
100
AcDbEntity
  8
COTAS
 62
     7
420
 16777215
370
     9
100
AcDbVertex
100
AcDb2dVertex
 10
53.44845240123292
 20
85.12767657968173
 30
0.0
  0
VERTEX
  5
558
330
556
100
AcDbEntity
  8
COTAS
 62
     7
420
 16777215
370
     9
100
AcDbVertex
100
AcDb2dVertex
 10
53.44845240123292
 20
126.2928051797902
 30
0.0
  0
SEQEND
  5
559
330
556
100
AcDbEntity
  8
COTAS
370
     9
  0
ENDBLK
  5
555
330
552
100
AcDbEntity
  8
0
100
AcDbBlockEnd
  0
BLOCK
  5
55C
330
55A
100
AcDbEntity
  8
0
100
AcDbBlockBegin
  2
block 189
 70
     0
 71
     0
 10
0.0
 20
0.0
 30
0.0
  3
block 189
  1

  0
POLYLINE
  5
55E
330
55A
100
AcDbEntity
  8
COTAS
370
     0
100
AcDb2dPolyline
 66
     1
 10
0.0
 20
0.0
 30
0.0
  0
VERTEX
  5
55F
330
55E
100
AcDbEntity
  8
COTAS
370
     0
100
AcDbVertex
100
AcDb2dVertex
 10
53.14872889629025
 20
171.454419434022
 30
0.0
  0
VERTEX
  5
560
330
55E
100
AcDbEntity
  8
COTAS
370
     0
100
AcDbVertex
100
AcDb2dVertex
 10
53.74834816106349
 20
171.454419434022
 30
0.0
  0
VERTEX
  5
561
330
55E
100
AcDbEntity
  8
COTAS
370
     0
100
AcDbVertex
100
AcDb2dVertex
 10
53.44845240123292
 20
173.2529327185659
 30
0.0
  0
VERTEX
  5
562
330
55E
100
AcDbEntity
  8
COTAS
370
     0
100
AcDbVertex
100
AcDb2dVertex
 10
53.14872889629025
 20
171.454419434022
 30
0.0
  0
SEQEND
  5
563
330
55E
100
AcDbEntity
  8
COTAS
370
     0
  0
HATCH
  5
564
330
55A
100
AcDbEntity
  8
COTAS
 62
     7
420
 16777215
100
AcDbHatch
 10
0.0
 20
0.0
 30
0.0
210
0.0
220
0.0
230
1.0
  2
SOLID
 70
     1
 71
     0
 91
        1
 92
        1
 93
        3
 72
     1
 10
53.14872889629025
 20
171.454419434022
 11
53.74834816106349
 21
171.454419434022
 72
     1
 10
53.74834816106349
 20
171.454419434022
 11
53.44845240123292
 21
173.2529327185659
 72
     1
 10
53.44845240123292
 20
173.2529327185659
 11
53.14872889629025
 21
171.454419434022
 97
        0
 75
     2
 76
     1
 98
        0
  0
ENDBLK
  5
55D
330
55A
100
AcDbEntity
  8
0
100
AcDbBlockEnd
  0
BLOCK
  5
567
330
565
100
AcDbEntity
  8
0
100
AcDbBlockBegin
  2
block 190
 70
     0
 71
     0
 10
0.0
 20
0.0
 30
0.0
  3
block 190
  1

  0
POLYLINE
  5
569
330
565
100
AcDbEntity
  8
COTAS
370
     0
100
AcDb2dPolyline
 66
     1
 10
0.0
 20
0.0
 30
0.0
  0
VERTEX
  5
56A
330
569
100
AcDbEntity
  8
COTAS
370
     0
100
AcDbVertex
100
AcDb2dVertex
 10
53.14872889629025
 20
85.12767657968173
 30
0.0
  0
VERTEX
  5
56B
330
569
100
AcDbEntity
  8
COTAS
370
     0
100
AcDbVertex
100
AcDb2dVertex
 10
53.74834816106349
 20
85.12767657968173
 30
0.0
  0
VERTEX
  5
56C
330
569
100
AcDbEntity
  8
COTAS
370
     0
100
AcDbVertex
100
AcDb2dVertex
 10
53.44845240123292
 20
83.32899104024993
 30
0.0
  0
VERTEX
  5
56D
330
569
100
AcDbEntity
  8
COTAS
370
     0
100
AcDbVertex
100
AcDb2dVertex
 10
53.14872889629025
 20
85.12767657968173
 30
0.0
  0
SEQEND
  5
56E
330
569
100
AcDbEntity
  8
COTAS
370
     0
  0
HATCH
  5
56F
330
565
100
AcDbEntity
  8
COTAS
 62
     7
420
 16777215
100
AcDbHatch
 10
0.0
 20
0.0
 30
0.0
210
0.0
220
0.0
230
1.0
  2
SOLID
 70
     1
 71
     0
 91
        1
 92
        1
 93
        3
 72
     1
 10
53.14872889629025
 20
85.12767657968173
 11
53.74834816106349
 21
85.12767657968173
 72
     1
 10
53.74834816106349
 20
85.12767657968173
 11
53.44845240123292
 21
83.32899104024993
 72
     1
 10
53.44845240123292
 20
83.32899104024993
 11
53.14872889629025
 21
85.12767657968173
 97
        0
 75
     2
 76
     1
 98
        0
  0
ENDBLK
  5
568
330
565
100
AcDbEntity
  8
0
100
AcDbBlockEnd
  0
BLOCK
  5
572
330
570
100
AcDbEntity
  8
0
100
AcDbBlockBegin
  2
block 191
 70
     0
 71
     0
 10
0.0
 20
0.0
 30
0.0
  3
block 191
  1

  0
MTEXT
  5
574
330
570
100
AcDbEntity
  8
COTAS
 62
     7
420
 16777215
100
AcDbMText
 10
50.59384439898587
 20
127.291883529599
 30
0.0
 40
2.398890470823883
 41
0.0
 71
     7
 72
     1
  1
\fArial|b1|i0|c0|p34;\W1;900
 73
     1
 44
1.0
  0
ENDBLK
  5
573
330
570
100
AcDbEntity
  8
0
100
AcDbBlockEnd
  0
BLOCK
  5
577
330
575
100
AcDbEntity
  8
0
100
AcDbBlockBegin
  2
block 192
 70
     0
 71
     0
 10
0.0
 20
0.0
 30
0.0
  3
block 192
  1

  0
POLYLINE
  5
579
330
575
100
AcDbEntity
  8
COTAS
 62
     7
420
 16777215
370
     9
100
AcDb2dPolyline
 66
     1
 10
0.0
 20
0.0
 30
0.0
  0
VERTEX
  5
57A
330
579
100
AcDbEntity
  8
COTAS
 62
     7
420
 16777215
370
     9
100
AcDbVertex
100
AcDb2dVertex
 10
69.10022053520447
 20
173.2529327185659
 30
0.0
  0
VERTEX
  5
57B
330
579
100
AcDbEntity
  8
COTAS
 62
     7
420
 16777215
370
     9
100
AcDbVertex
100
AcDb2dVertex
 10
69.10022053520447
 20
173.2529327185659
 30
0.0
  0
SEQEND
  5
57C
330
579
100
AcDbEntity
  8
COTAS
370
     9
  0
ENDBLK
  5
578
330
575
100
AcDbEntity
  8
0
100
AcDbBlockEnd
  0
BLOCK
  5
57F
330
57D
100
AcDbEntity
  8
0
100
AcDbBlockBegin
  2
block 193
 70
     0
 71
     0
 10
0.0
 20
0.0
 30
0.0
  3
block 193
  1

  0
POLYLINE
  5
581
330
57D
100
AcDbEntity
  8
COTAS
 62
     7
420
 16777215
370
     9
100
AcDb2dPolyline
 66
     1
 10
0.0
 20
0.0
 30
0.0
  0
VERTEX
  5
582
330
581
100
AcDbEntity
  8
COTAS
 62
     7
420
 16777215
370
     9
100
AcDbVertex
100
AcDb2dVertex
 10
69.10022053520447
 20
83.32899104024993
 30
0.0
  0
VERTEX
  5
583
330
581
100
AcDbEntity
  8
COTAS
 62
     7
420
 16777215
370
     9
100
AcDbVertex
100
AcDb2dVertex
 10
69.10022053520447
 20
83.32899104024993
 30
0.0
  0
SEQEND
  5
584
330
581
100
AcDbEntity
  8
COTAS
370
     9
  0
ENDBLK
  5
580
330
57D
100
AcDbEntity
  8
0
100
AcDbBlockEnd
  0
BLOCK
  5
587
330
585
100
AcDbEntity
  8
0
100
AcDbBlockBegin
  2
block 194
 70
     0
 71
     0
 10
0.0
 20
0.0
 30
0.0
  3
block 194
  1

  0
POLYLINE
  5
589
330
585
100
AcDbEntity
  8
COTAS
 62
     7
420
 16777215
370
     9
100
AcDb2dPolyline
 66
     1
 10
0.0
 20
0.0
 30
0.0
  0
VERTEX
  5
58A
330
589
100
AcDbEntity
  8
COTAS
 62
     7
420
 16777215
370
     9
100
AcDbVertex
100
AcDb2dVertex
 10
53.44845240123292
 20
83.32899104024993
 30
0.0
  0
VERTEX
  5
58B
330
589
100
AcDbEntity
  8
COTAS
 62
     7
420
 16777215
370
     9
100
AcDbVertex
100
AcDb2dVertex
 10
53.44845240123292
 20
83.32899104024993
 30
0.0
  0
SEQEND
  5
58C
330
589
100
AcDbEntity
  8
COTAS
370
     9
  0
ENDBLK
  5
588
330
585
100
AcDbEntity
  8
0
100
AcDbBlockEnd
  0
BLOCK
  5
58F
330
58D
100
AcDbEntity
  8
0
100
AcDbBlockBegin
  2
block 195
 70
     0
 71
     0
 10
0.0
 20
0.0
 30
0.0
  3
block 195
  1

  0
INSERT
  5
592
330
58D
100
AcDbEntity
  8
COTAS
100
AcDbBlockReference
  2
block 196
 10
0.0
 20
0.0
 30
0.0
  0
INSERT
  5
59A
330
58D
100
AcDbEntity
  8
COTAS
100
AcDbBlockReference
  2
block 197
 10
0.0
 20
0.0
 30
0.0
  0
INSERT
  5
5A2
330
58D
100
AcDbEntity
  8
COTAS
100
AcDbBlockReference
  2
block 198
 10
0.0
 20
0.0
 30
0.0
  0
INSERT
  5
5AA
330
58D
100
AcDbEntity
  8
COTAS
100
AcDbBlockReference
  2
block 199
 10
0.0
 20
0.0
 30
0.0
  0
INSERT
  5
5B2
330
58D
100
AcDbEntity
  8
COTAS
100
AcDbBlockReference
  2
block 200
 10
0.0
 20
0.0
 30
0.0
  0
INSERT
  5
5BD
330
58D
100
AcDbEntity
  8
COTAS
100
AcDbBlockReference
  2
block 201
 10
0.0
 20
0.0
 30
0.0
  0
INSERT
  5
5C8
330
58D
100
AcDbEntity
  8
COTAS
100
AcDbBlockReference
  2
block 202
 10
0.0
 20
0.0
 30
0.0
  0
INSERT
  5
5CD
330
58D
100
AcDbEntity
  8
COTAS
100
AcDbBlockReference
  2
block 203
 10
0.0
 20
0.0
 30
0.0
  0
INSERT
  5
5D5
330
58D
100
AcDbEntity
  8
COTAS
100
AcDbBlockReference
  2
block 204
 10
0.0
 20
0.0
 30
0.0
  0
INSERT
  5
5DD
330
58D
100
AcDbEntity
  8
COTAS
100
AcDbBlockReference
  2
block 205
 10
0.0
 20
0.0
 30
0.0
  0
ENDBLK
  5
590
330
58D
100
AcDbEntity
  8
0
100
AcDbBlockEnd
  0
BLOCK
  5
593
330
591
100
AcDbEntity
  8
0
100
AcDbBlockBegin
  2
block 196
 70
     0
 71
     0
 10
0.0
 20
0.0
 30
0.0
  3
block 196
  1

  0
POLYLINE
  5
595
330
591
100
AcDbEntity
  8
COTAS
 62
     7
420
 16777215
370
     9
100
AcDb2dPolyline
 66
     1
 10
0.0
 20
0.0
 30
0.0
  0
VERTEX
  5
596
330
595
100
AcDbEntity
  8
COTAS
 62
     7
420
 16777215
370
     9
100
AcDbVertex
100
AcDb2dVertex
 10
77.09353635322718
 20
101.8133185508176
 30
0.0
  0
VERTEX
  5
597
330
595
100
AcDbEntity
  8
COTAS
 62
     7
420
 16777215
370
     9
100
AcDbVertex
100
AcDb2dVertex
 10
60.34209301491426
 20
101.8133185508176
 30
0.0
  0
SEQEND
  5
598
330
595
100
AcDbEntity
  8
COTAS
370
     9
  0
ENDBLK
  5
594
330
591
100
AcDbEntity
  8
0
100
AcDbBlockEnd
  0
BLOCK
  5
59B
330
599
100
AcDbEntity
  8
0
100
AcDbBlockBegin
  2
block 197
 70
     0
 71
     0
 10
0.0
 20
0.0
 30
0.0
  3
block 197
  1

  0
POLYLINE
  5
59D
330
599
100
AcDbEntity
  8
COTAS
 62
     7
420
 16777215
370
     9
100
AcDb2dPolyline
 66
     1
 10
0.0
 20
0.0
 30
0.0
  0
VERTEX
  5
59E
330
59D
100
AcDbEntity
  8
COTAS
 62
     7
420
 16777215
370
     9
100
AcDbVertex
100
AcDb2dVertex
 10
68.10114218539557
 20
83.32899104024993
 30
0.0
  0
VERTEX
  5
59F
330
59D
100
AcDbEntity
  8
COTAS
 62
     7
420
 16777215
370
     9
100
AcDbVertex
100
AcDb2dVertex
 10
60.34209301491426
 20
83.32899104024993
 30
0.0
  0
SEQEND
  5
5A0
330
59D
100
AcDbEntity
  8
COTAS
370
     9
  0
ENDBLK
  5
59C
330
599
100
AcDbEntity
  8
0
100
AcDbBlockEnd
  0
BLOCK
  5
5A3
330
5A1
100
AcDbEntity
  8
0
100
AcDbBlockBegin
  2
block 198
 70
     0
 71
     0
 10
0.0
 20
0.0
 30
0.0
  3
block 198
  1

  0
POLYLINE
  5
5A5
330
5A1
100
AcDbEntity
  8
COTAS
 62
     7
420
 16777215
370
     9
100
AcDb2dPolyline
 66
     1
 10
0.0
 20
0.0
 30
0.0
  0
VERTEX
  5
5A6
330
5A5
100
AcDbEntity
  8
COTAS
 62
     7
420
 16777215
370
     9
100
AcDbVertex
100
AcDb2dVertex
 10
61.34117136472315
 20
100.0149775211616
 30
0.0
  0
VERTEX
  5
5A7
330
5A5
100
AcDbEntity
  8
COTAS
 62
     7
420
 16777215
370
     9
100
AcDbVertex
100
AcDb2dVertex
 10
61.34117136472315
 20
94.56965600492732
 30
0.0
  0
SEQEND
  5
5A8
330
5A5
100
AcDbEntity
  8
COTAS
370
     9
  0
ENDBLK
  5
5A4
330
5A1
100
AcDbEntity
  8
0
100
AcDbBlockEnd
  0
BLOCK
  5
5AB
330
5A9
100
AcDbEntity
  8
0
100
AcDbBlockBegin
  2
block 199
 70
     0
 71
     0
 10
0.0
 20
0.0
 30
0.0
  3
block 199
  1

  0
POLYLINE
  5
5AD
330
5A9
100
AcDbEntity
  8
COTAS
 62
     7
420
 16777215
370
     9
100
AcDb2dPolyline
 66
     1
 10
0.0
 20
0.0
 30
0.0
  0
VERTEX
  5
5AE
330
5AD
100
AcDbEntity
  8
COTAS
 62
     7
420
 16777215
370
     9
100
AcDbVertex
100
AcDb2dVertex
 10
61.34117136472315
 20
85.12767657968173
 30
0.0
  0
VERTEX
  5
5AF
330
5AD
100
AcDbEntity
  8
COTAS
 62
     7
420
 16777215
370
     9
100
AcDbVertex
100
AcDb2dVertex
 10
61.34117136472315
 20
90.57299809591598
 30
0.0
  0
SEQEND
  5
5B0
330
5AD
100
AcDbEntity
  8
COTAS
370
     9
  0
ENDBLK
  5
5AC
330
5A9
100
AcDbEntity
  8
0
100
AcDbBlockEnd
  0
BLOCK
  5
5B3
330
5B1
100
AcDbEntity
  8
0
100
AcDbBlockBegin
  2
block 200
 70
     0
 71
     0
 10
0.0
 20
0.0
 30
0.0
  3
block 200
  1

  0
POLYLINE
  5
5B5
330
5B1
100
AcDbEntity
  8
COTAS
370
     0
100
AcDb2dPolyline
 66
     1
 10
0.0
 20
0.0
 30
0.0
  0
VERTEX
  5
5B6
330
5B5
100
AcDbEntity
  8
COTAS
370
     0
100
AcDbVertex
100
AcDb2dVertex
 10
61.04144785978048
 20
100.0149775211616
 30
0.0
  0
VERTEX
  5
5B7
330
5B5
100
AcDbEntity
  8
COTAS
370
     0
100
AcDbVertex
100
AcDb2dVertex
 10
61.64089486966581
 20
100.0149775211616
 30
0.0
  0
VERTEX
  5
5B8
330
5B5
100
AcDbEntity
  8
COTAS
370
     0
100
AcDbVertex
100
AcDb2dVertex
 10
61.34117136472315
 20
101.8133185508176
 30
0.0
  0
VERTEX
  5
5B9
330
5B5
100
AcDbEntity
  8
COTAS
370
     0
100
AcDbVertex
100
AcDb2dVertex
 10
61.04144785978048
 20
100.0149775211616
 30
0.0
  0
SEQEND
  5
5BA
330
5B5
100
AcDbEntity
  8
COTAS
370
     0
  0
HATCH
  5
5BB
330
5B1
100
AcDbEntity
  8
COTAS
 62
     7
420
 16777215
100
AcDbHatch
 10
0.0
 20
0.0
 30
0.0
210
0.0
220
0.0
230
1.0
  2
SOLID
 70
     1
 71
     0
 91
        1
 92
        1
 93
        3
 72
     1
 10
61.04144785978048
 20
100.0149775211616
 11
61.64089486966581
 21
100.0149775211616
 72
     1
 10
61.64089486966581
 20
100.0149775211616
 11
61.34117136472315
 21
101.8133185508176
 72
     1
 10
61.34117136472315
 20
101.8133185508176
 11
61.04144785978048
 21
100.0149775211616
 97
        0
 75
     2
 76
     1
 98
        0
  0
ENDBLK
  5
5B4
330
5B1
100
AcDbEntity
  8
0
100
AcDbBlockEnd
  0
BLOCK
  5
5BE
330
5BC
100
AcDbEntity
  8
0
100
AcDbBlockBegin
  2
block 201
 70
     0
 71
     0
 10
0.0
 20
0.0
 30
0.0
  3
block 201
  1

  0
POLYLINE
  5
5C0
330
5BC
100
AcDbEntity
  8
COTAS
370
     0
100
AcDb2dPolyline
 66
     1
 10
0.0
 20
0.0
 30
0.0
  0
VERTEX
  5
5C1
330
5C0
100
AcDbEntity
  8
COTAS
370
     0
100
AcDbVertex
100
AcDb2dVertex
 10
61.04144785978048
 20
85.12767657968173
 30
0.0
  0
VERTEX
  5
5C2
330
5C0
100
AcDbEntity
  8
COTAS
370
     0
100
AcDbVertex
100
AcDb2dVertex
 10
61.64089486966581
 20
85.12767657968173
 30
0.0
  0
VERTEX
  5
5C3
330
5C0
100
AcDbEntity
  8
COTAS
370
     0
100
AcDbVertex
100
AcDb2dVertex
 10
61.34117136472315
 20
83.32899104024993
 30
0.0
  0
VERTEX
  5
5C4
330
5C0
100
AcDbEntity
  8
COTAS
370
     0
100
AcDbVertex
100
AcDb2dVertex
 10
61.04144785978048
 20
85.12767657968173
 30
0.0
  0
SEQEND
  5
5C5
330
5C0
100
AcDbEntity
  8
COTAS
370
     0
  0
HATCH
  5
5C6
330
5BC
100
AcDbEntity
  8
COTAS
 62
     7
420
 16777215
100
AcDbHatch
 10
0.0
 20
0.0
 30
0.0
210
0.0
220
0.0
230
1.0
  2
SOLID
 70
     1
 71
     0
 91
        1
 92
        1
 93
        3
 72
     1
 10
61.04144785978048
 20
85.12767657968173
 11
61.64089486966581
 21
85.12767657968173
 72
     1
 10
61.64089486966581
 20
85.12767657968173
 11
61.34117136472315
 21
83.32899104024993
 72
     1
 10
61.34117136472315
 20
83.32899104024993
 11
61.04144785978048
 21
85.12767657968173
 97
        0
 75
     2
 76
     1
 98
        0
  0
ENDBLK
  5
5BF
330
5BC
100
AcDbEntity
  8
0
100
AcDbBlockEnd
  0
BLOCK
  5
5C9
330
5C7
100
AcDbEntity
  8
0
100
AcDbBlockBegin
  2
block 202
 70
     0
 71
     0
 10
0.0
 20
0.0
 30
0.0
  3
block 202
  1

  0
MTEXT
  5
5CB
330
5C7
100
AcDbEntity
  8
COTAS
 62
     7
420
 16777215
100
AcDbMText
 10
58.34376406040858
 20
91.57207644572486
 30
0.0
 40
2.398890470823883
 41
0.0
 71
     7
 72
     1
  1
\fArial|b1|i0|c0|p34;\W1;185
 73
     1
 44
1.0
  0
ENDBLK
  5
5CA
330
5C7
100
AcDbEntity
  8
0
100
AcDbBlockEnd
  0
BLOCK
  5
5CE
330
5CC
100
AcDbEntity
  8
0
100
AcDbBlockBegin
  2
block 203
 70
     0
 71
     0
 10
0.0
 20
0.0
 30
0.0
  3
block 203
  1

  0
POLYLINE
  5
5D0
330
5CC
100
AcDbEntity
  8
COTAS
 62
     7
420
 16777215
370
     9
100
AcDb2dPolyline
 66
     1
 10
0.0
 20
0.0
 30
0.0
  0
VERTEX
  5
5D1
330
5D0
100
AcDbEntity
  8
COTAS
 62
     7
420
 16777215
370
     9
100
AcDbVertex
100
AcDb2dVertex
 10
78.09261470303606
 20
101.8133185508176
 30
0.0
  0
VERTEX
  5
5D2
330
5D0
100
AcDbEntity
  8
COTAS
 62
     7
420
 16777215
370
     9
100
AcDbVertex
100
AcDb2dVertex
 10
78.09261470303606
 20
101.8133185508176
 30
0.0
  0
SEQEND
  5
5D3
330
5D0
100
AcDbEntity
  8
COTAS
370
     9
  0
ENDBLK
  5
5CF
330
5CC
100
AcDbEntity
  8
0
100
AcDbBlockEnd
  0
BLOCK
  5
5D6
330
5D4
100
AcDbEntity
  8
0
100
AcDbBlockBegin
  2
block 204
 70
     0
 71
     0
 10
0.0
 20
0.0
 30
0.0
  3
block 204
  1

  0
POLYLINE
  5
5D8
330
5D4
100
AcDbEntity
  8
COTAS
 62
     7
420
 16777215
370
     9
100
AcDb2dPolyline
 66
     1
 10
0.0
 20
0.0
 30
0.0
  0
VERTEX
  5
5D9
330
5D8
100
AcDbEntity
  8
COTAS
 62
     7
420
 16777215
370
     9
100
AcDbVertex
100
AcDb2dVertex
 10
69.10022053520447
 20
83.32899104024993
 30
0.0
  0
VERTEX
  5
5DA
330
5D8
100
AcDbEntity
  8
COTAS
 62
     7
420
 16777215
370
     9
100
AcDbVertex
100
AcDb2dVertex
 10
69.10022053520447
 20
83.32899104024993
 30
0.0
  0
SEQEND
  5
5DB
330
5D8
100
AcDbEntity
  8
COTAS
370
     9
  0
ENDBLK
  5
5D7
330
5D4
100
AcDbEntity
  8
0
100
AcDbBlockEnd
  0
BLOCK
  5
5DE
330
5DC
100
AcDbEntity
  8
0
100
AcDbBlockBegin
  2
block 205
 70
     0
 71
     0
 10
0.0
 20
0.0
 30
0.0
  3
block 205
  1

  0
POLYLINE
  5
5E0
330
5DC
100
AcDbEntity
  8
COTAS
 62
     7
420
 16777215
370
     9
100
AcDb2dPolyline
 66
     1
 10
0.0
 20
0.0
 30
0.0
  0
VERTEX
  5
5E1
330
5E0
100
AcDbEntity
  8
COTAS
 62
     7
420
 16777215
370
     9
100
AcDbVertex
100
AcDb2dVertex
 10
61.34117136472315
 20
83.32899104024993
 30
0.0
  0
VERTEX
  5
5E2
330
5E0
100
AcDbEntity
  8
COTAS
 62
     7
420
 16777215
370
     9
100
AcDbVertex
100
AcDb2dVertex
 10
61.34117136472315
 20
83.32899104024993
 30
0.0
  0
SEQEND
  5
5E3
330
5E0
100
AcDbEntity
  8
COTAS
370
     9
  0
ENDBLK
  5
5DF
330
5DC
100
AcDbEntity
  8
0
100
AcDbBlockEnd
  0
ENDSEC
  0
SECTION
  2
ENTITIES
  0
INSERT
  5
3F
330
1F
100
AcDbEntity
  8
Fina
100
AcDbBlockReference
  2
block 2
 10
0.0
 20
0.0
 30
0.0
  0
INSERT
  5
44
330
1F
100
AcDbEntity
  8
Fina
100
AcDbBlockReference
  2
block 3
 10
0.0
 20
0.0
 30
0.0
  0
INSERT
  5
49
330
1F
100
AcDbEntity
  8
Fina
100
AcDbBlockReference
  2
block 4
 10
0.0
 20
0.0
 30
0.0
  0
INSERT
  5
4E
330
1F
100
AcDbEntity
  8
Fina
100
AcDbBlockReference
  2
block 5
 10
0.0
 20
0.0
 30
0.0
  0
INSERT
  5
53
330
1F
100
AcDbEntity
  8
Fina
100
AcDbBlockReference
  2
block 6
 10
0.0
 20
0.0
 30
0.0
  0
INSERT
  5
58
330
1F
100
AcDbEntity
  8
Fina
100
AcDbBlockReference
  2
block 7
 10
0.0
 20
0.0
 30
0.0
  0
INSERT
  5
5D
330
1F
100
AcDbEntity
  8
Fina
100
AcDbBlockReference
  2
block 8
 10
0.0
 20
0.0
 30
0.0
  0
INSERT
  5
62
330
1F
100
AcDbEntity
  8
Fina
100
AcDbBlockReference
  2
block 9
 10
0.0
 20
0.0
 30
0.0
  0
INSERT
  5
67
330
1F
100
AcDbEntity
  8
Fina
100
AcDbBlockReference
  2
block 10
 10
0.0
 20
0.0
 30
0.0
  0
INSERT
  5
6C
330
1F
100
AcDbEntity
  8
Fina
100
AcDbBlockReference
  2
block 11
 10
0.0
 20
0.0
 30
0.0
  0
INSERT
  5
71
330
1F
100
AcDbEntity
  8
Fina
100
AcDbBlockReference
  2
block 12
 10
0.0
 20
0.0
 30
0.0
  0
INSERT
  5
76
330
1F
100
AcDbEntity
  8
Fina
100
AcDbBlockReference
  2
block 13
 10
0.0
 20
0.0
 30
0.0
  0
INSERT
  5
7B
330
1F
100
AcDbEntity
  8
Fina
100
AcDbBlockReference
  2
block 14
 10
0.0
 20
0.0
 30
0.0
  0
INSERT
  5
80
330
1F
100
AcDbEntity
  8
Fina
100
AcDbBlockReference
  2
block 15
 10
0.0
 20
0.0
 30
0.0
  0
INSERT
  5
85
330
1F
100
AcDbEntity
  8
Fina
100
AcDbBlockReference
  2
block 16
 10
0.0
 20
0.0
 30
0.0
  0
INSERT
  5
8A
330
1F
100
AcDbEntity
  8
Fina
100
AcDbBlockReference
  2
block 17
 10
0.0
 20
0.0
 30
0.0
  0
INSERT
  5
8F
330
1F
100
AcDbEntity
  8
Fina
100
AcDbBlockReference
  2
block 18
 10
0.0
 20
0.0
 30
0.0
  0
INSERT
  5
94
330
1F
100
AcDbEntity
  8
Fina
100
AcDbBlockReference
  2
block 19
 10
0.0
 20
0.0
 30
0.0
  0
INSERT
  5
99
330
1F
100
AcDbEntity
  8
Fina
100
AcDbBlockReference
  2
block 20
 10
0.0
 20
0.0
 30
0.0
  0
INSERT
  5
9E
330
1F
100
AcDbEntity
  8
Fina
100
AcDbBlockReference
  2
block 21
 10
0.0
 20
0.0
 30
0.0
  0
INSERT
  5
A3
330
1F
100
AcDbEntity
  8
Fina
100
AcDbBlockReference
  2
block 22
 10
0.0
 20
0.0
 30
0.0
  0
INSERT
  5
A8
330
1F
100
AcDbEntity
  8
Fina
100
AcDbBlockReference
  2
block 23
 10
0.0
 20
0.0
 30
0.0
  0
INSERT
  5
AD
330
1F
100
AcDbEntity
  8
Fina
100
AcDbBlockReference
  2
block 24
 10
0.0
 20
0.0
 30
0.0
  0
INSERT
  5
B2
330
1F
100
AcDbEntity
  8
Fina
100
AcDbBlockReference
  2
block 25
 10
0.0
 20
0.0
 30
0.0
  0
INSERT
  5
B7
330
1F
100
AcDbEntity
  8
Fina
100
AcDbBlockReference
  2
block 26
 10
0.0
 20
0.0
 30
0.0
  0
INSERT
  5
BC
330
1F
100
AcDbEntity
  8
Fina
100
AcDbBlockReference
  2
block 27
 10
0.0
 20
0.0
 30
0.0
  0
INSERT
  5
C1
330
1F
100
AcDbEntity
  8
Fina
100
AcDbBlockReference
  2
block 28
 10
0.0
 20
0.0
 30
0.0
  0
INSERT
  5
C6
330
1F
100
AcDbEntity
  8
Fina
100
AcDbBlockReference
  2
block 29
 10
0.0
 20
0.0
 30
0.0
  0
INSERT
  5
CB
330
1F
100
AcDbEntity
  8
Fina
100
AcDbBlockReference
  2
block 30
 10
0.0
 20
0.0
 30
0.0
  0
INSERT
  5
D0
330
1F
100
AcDbEntity
  8
Fina
100
AcDbBlockReference
  2
block 31
 10
0.0
 20
0.0
 30
0.0
  0
INSERT
  5
D5
330
1F
100
AcDbEntity
  8
Fina
100
AcDbBlockReference
  2
block 32
 10
0.0
 20
0.0
 30
0.0
  0
INSERT
  5
DA
330
1F
100
AcDbEntity
  8
Fina
100
AcDbBlockReference
  2
block 33
 10
0.0
 20
0.0
 30
0.0
  0
INSERT
  5
DF
330
1F
100
AcDbEntity
  8
Fina
100
AcDbBlockReference
  2
block 34
 10
0.0
 20
0.0
 30
0.0
  0
INSERT
  5
E4
330
1F
100
AcDbEntity
  8
Fina
100
AcDbBlockReference
  2
block 35
 10
0.0
 20
0.0
 30
0.0
  0
INSERT
  5
E9
330
1F
100
AcDbEntity
  8
Fina
100
AcDbBlockReference
  2
block 36
 10
0.0
 20
0.0
 30
0.0
  0
INSERT
  5
EE
330
1F
100
AcDbEntity
  8
Fina
100
AcDbBlockReference
  2
block 37
 10
0.0
 20
0.0
 30
0.0
  0
INSERT
  5
F3
330
1F
100
AcDbEntity
  8
Fina
100
AcDbBlockReference
  2
block 38
 10
0.0
 20
0.0
 30
0.0
  0
INSERT
  5
F8
330
1F
100
AcDbEntity
  8
Fina
100
AcDbBlockReference
  2
block 39
 10
0.0
 20
0.0
 30
0.0
  0
INSERT
  5
FD
330
1F
100
AcDbEntity
  8
Fina
100
AcDbBlockReference
  2
block 40
 10
0.0
 20
0.0
 30
0.0
  0
INSERT
  5
102
330
1F
100
AcDbEntity
  8
Fina
100
AcDbBlockReference
  2
block 41
 10
0.0
 20
0.0
 30
0.0
  0
INSERT
  5
107
330
1F
100
AcDbEntity
  8
Fina
100
AcDbBlockReference
  2
block 42
 10
0.0
 20
0.0
 30
0.0
  0
INSERT
  5
10C
330
1F
100
AcDbEntity
  8
Fina
100
AcDbBlockReference
  2
block 43
 10
0.0
 20
0.0
 30
0.0
  0
INSERT
  5
112
330
1F
100
AcDbEntity
  8
SOMBREA
100
AcDbBlockReference
  2
block 44
 10
0.0
 20
0.0
 30
0.0
  0
INSERT
  5
126
330
1F
100
AcDbEntity
  8
SOMBREA
100
AcDbBlockReference
  2
block 45
 10
0.0
 20
0.0
 30
0.0
  0
INSERT
  5
138
330
1F
100
AcDbEntity
  8
SOMBREA
100
AcDbBlockReference
  2
block 46
 10
0.0
 20
0.0
 30
0.0
  0
INSERT
  5
14C
330
1F
100
AcDbEntity
  8
SOMBREA
100
AcDbBlockReference
  2
block 47
 10
0.0
 20
0.0
 30
0.0
  0
INSERT
  5
153
330
1F
100
AcDbEntity
  8
SOMBREA
100
AcDbBlockReference
  2
block 48
 10
0.0
 20
0.0
 30
0.0
  0
INSERT
  5
167
330
1F
100
AcDbEntity
  8
SOMBREA
100
AcDbBlockReference
  2
block 49
 10
0.0
 20
0.0
 30
0.0
  0
INSERT
  5
179
330
1F
100
AcDbEntity
  8
SOMBREA
100
AcDbBlockReference
  2
block 50
 10
0.0
 20
0.0
 30
0.0
  0
INSERT
  5
18E
330
1F
100
AcDbEntity
  8
PIEZA
100
AcDbBlockReference
  2
block 51
 10
0.0
 20
0.0
 30
0.0
  0
INSERT
  5
196
330
1F
100
AcDbEntity
  8
PIEZA
100
AcDbBlockReference
  2
block 52
 10
0.0
 20
0.0
 30
0.0
  0
INSERT
  5
19E
330
1F
100
AcDbEntity
  8
PIEZA
100
AcDbBlockReference
  2
block 53
 10
0.0
 20
0.0
 30
0.0
  0
INSERT
  5
1A6
330
1F
100
AcDbEntity
  8
PIEZA
100
AcDbBlockReference
  2
block 54
 10
0.0
 20
0.0
 30
0.0
  0
INSERT
  5
1AB
330
1F
100
AcDbEntity
  8
PIEZA
100
AcDbBlockReference
  2
block 55
 10
0.0
 20
0.0
 30
0.0
  0
INSERT
  5
1B0
330
1F
100
AcDbEntity
  8
PIEZA
100
AcDbBlockReference
  2
block 56
 10
0.0
 20
0.0
 30
0.0
  0
INSERT
  5
1B5
330
1F
100
AcDbEntity
  8
PIEZA
100
AcDbBlockReference
  2
block 57
 10
0.0
 20
0.0
 30
0.0
  0
INSERT
  5
1BD
330
1F
100
AcDbEntity
  8
PIEZA
100
AcDbBlockReference
  2
block 58
 10
0.0
 20
0.0
 30
0.0
  0
INSERT
  5
1C2
330
1F
100
AcDbEntity
  8
PIEZA
100
AcDbBlockReference
  2
block 59
 10
0.0
 20
0.0
 30
0.0
  0
INSERT
  5
1C7
330
1F
100
AcDbEntity
  8
PIEZA
100
AcDbBlockReference
  2
block 60
 10
0.0
 20
0.0
 30
0.0
  0
INSERT
  5
1CF
330
1F
100
AcDbEntity
  8
PIEZA
100
AcDbBlockReference
  2
block 61
 10
0.0
 20
0.0
 30
0.0
  0
INSERT
  5
1D7
330
1F
100
AcDbEntity
  8
PIEZA
100
AcDbBlockReference
  2
block 62
 10
0.0
 20
0.0
 30
0.0
  0
INSERT
  5
1DF
330
1F
100
AcDbEntity
  8
PIEZA
100
AcDbBlockReference
  2
block 63
 10
0.0
 20
0.0
 30
0.0
  0
INSERT
  5
1E7
330
1F
100
AcDbEntity
  8
PIEZA
100
AcDbBlockReference
  2
block 64
 10
0.0
 20
0.0
 30
0.0
  0
INSERT
  5
1EC
330
1F
100
AcDbEntity
  8
PIEZA
100
AcDbBlockReference
  2
block 65
 10
0.0
 20
0.0
 30
0.0
  0
INSERT
  5
1F1
330
1F
100
AcDbEntity
  8
PIEZA
100
AcDbBlockReference
  2
block 66
 10
0.0
 20
0.0
 30
0.0
  0
INSERT
  5
1F9
330
1F
100
AcDbEntity
  8
PIEZA
100
AcDbBlockReference
  2
block 67
 10
0.0
 20
0.0
 30
0.0
  0
INSERT
  5
201
330
1F
100
AcDbEntity
  8
PIEZA
100
AcDbBlockReference
  2
block 68
 10
0.0
 20
0.0
 30
0.0
  0
INSERT
  5
206
330
1F
100
AcDbEntity
  8
PIEZA
100
AcDbBlockReference
  2
block 69
 10
0.0
 20
0.0
 30
0.0
  0
INSERT
  5
20E
330
1F
100
AcDbEntity
  8
PIEZA
100
AcDbBlockReference
  2
block 70
 10
0.0
 20
0.0
 30
0.0
  0
INSERT
  5
216
330
1F
100
AcDbEntity
  8
PIEZA
100
AcDbBlockReference
  2
block 71
 10
0.0
 20
0.0
 30
0.0
  0
INSERT
  5
21B
330
1F
100
AcDbEntity
  8
PIEZA
100
AcDbBlockReference
  2
block 72
 10
0.0
 20
0.0
 30
0.0
  0
INSERT
  5
223
330
1F
100
AcDbEntity
  8
PIEZA
100
AcDbBlockReference
  2
block 73
 10
0.0
 20
0.0
 30
0.0
  0
INSERT
  5
22B
330
1F
100
AcDbEntity
  8
PIEZA
100
AcDbBlockReference
  2
block 74
 10
0.0
 20
0.0
 30
0.0
  0
INSERT
  5
230
330
1F
100
AcDbEntity
  8
PIEZA
100
AcDbBlockReference
  2
block 75
 10
0.0
 20
0.0
 30
0.0
  0
INSERT
  5
235
330
1F
100
AcDbEntity
  8
PIEZA
100
AcDbBlockReference
  2
block 76
 10
0.0
 20
0.0
 30
0.0
  0
INSERT
  5
23D
330
1F
100
AcDbEntity
  8
PIEZA
100
AcDbBlockReference
  2
block 77
 10
0.0
 20
0.0
 30
0.0
  0
INSERT
  5
245
330
1F
100
AcDbEntity
  8
PIEZA
100
AcDbBlockReference
  2
block 78
 10
0.0
 20
0.0
 30
0.0
  0
INSERT
  5
24A
330
1F
100
AcDbEntity
  8
PIEZA
100
AcDbBlockReference
  2
block 79
 10
0.0
 20
0.0
 30
0.0
  0
INSERT
  5
24F
330
1F
100
AcDbEntity
  8
PIEZA
100
AcDbBlockReference
  2
block 80
 10
0.0
 20
0.0
 30
0.0
  0
INSERT
  5
254
330
1F
100
AcDbEntity
  8
PIEZA
100
AcDbBlockReference
  2
block 81
 10
0.0
 20
0.0
 30
0.0
  0
INSERT
  5
259
330
1F
100
AcDbEntity
  8
PIEZA
100
AcDbBlockReference
  2
block 82
 10
0.0
 20
0.0
 30
0.0
  0
INSERT
  5
25E
330
1F
100
AcDbEntity
  8
PIEZA
100
AcDbBlockReference
  2
block 83
 10
0.0
 20
0.0
 30
0.0
  0
INSERT
  5
263
330
1F
100
AcDbEntity
  8
PIEZA
100
AcDbBlockReference
  2
block 84
 10
0.0
 20
0.0
 30
0.0
  0
INSERT
  5
268
330
1F
100
AcDbEntity
  8
PIEZA
100
AcDbBlockReference
  2
block 85
 10
0.0
 20
0.0
 30
0.0
  0
INSERT
  5
26D
330
1F
100
AcDbEntity
  8
PIEZA
100
AcDbBlockReference
  2
block 86
 10
0.0
 20
0.0
 30
0.0
  0
INSERT
  5
272
330
1F
100
AcDbEntity
  8
PIEZA
100
AcDbBlockReference
  2
block 87
 10
0.0
 20
0.0
 30
0.0
  0
INSERT
  5
277
330
1F
100
AcDbEntity
  8
PIEZA
100
AcDbBlockReference
  2
block 88
 10
0.0
 20
0.0
 30
0.0
  0
INSERT
  5
27F
330
1F
100
AcDbEntity
  8
PIEZA
100
AcDbBlockReference
  2
block 89
 10
0.0
 20
0.0
 30
0.0
  0
INSERT
  5
284
330
1F
100
AcDbEntity
  8
PIEZA
100
AcDbBlockReference
  2
block 90
 10
0.0
 20
0.0
 30
0.0
  0
INSERT
  5
28C
330
1F
100
AcDbEntity
  8
PIEZA
100
AcDbBlockReference
  2
block 91
 10
0.0
 20
0.0
 30
0.0
  0
INSERT
  5
294
330
1F
100
AcDbEntity
  8
PIEZA
100
AcDbBlockReference
  2
block 92
 10
0.0
 20
0.0
 30
0.0
  0
INSERT
  5
299
330
1F
100
AcDbEntity
  8
PIEZA
100
AcDbBlockReference
  2
block 93
 10
0.0
 20
0.0
 30
0.0
  0
INSERT
  5
29E
330
1F
100
AcDbEntity
  8
PIEZA
100
AcDbBlockReference
  2
block 94
 10
0.0
 20
0.0
 30
0.0
  0
INSERT
  5
2A3
330
1F
100
AcDbEntity
  8
PIEZA
100
AcDbBlockReference
  2
block 95
 10
0.0
 20
0.0
 30
0.0
  0
INSERT
  5
2AB
330
1F
100
AcDbEntity
  8
PIEZA
100
AcDbBlockReference
  2
block 96
 10
0.0
 20
0.0
 30
0.0
  0
INSERT
  5
2B3
330
1F
100
AcDbEntity
  8
PIEZA
100
AcDbBlockReference
  2
block 97
 10
0.0
 20
0.0
 30
0.0
  0
INSERT
  5
2BB
330
1F
100
AcDbEntity
  8
PIEZA
100
AcDbBlockReference
  2
block 98
 10
0.0
 20
0.0
 30
0.0
  0
INSERT
  5
2C3
330
1F
100
AcDbEntity
  8
PIEZA
100
AcDbBlockReference
  2
block 99
 10
0.0
 20
0.0
 30
0.0
  0
INSERT
  5
2CB
330
1F
100
AcDbEntity
  8
PIEZA
100
AcDbBlockReference
  2
block 100
 10
0.0
 20
0.0
 30
0.0
  0
INSERT
  5
2D3
330
1F
100
AcDbEntity
  8
PIEZA
100
AcDbBlockReference
  2
block 101
 10
0.0
 20
0.0
 30
0.0
  0
INSERT
  5
2DB
330
1F
100
AcDbEntity
  8
PIEZA
100
AcDbBlockReference
  2
block 102
 10
0.0
 20
0.0
 30
0.0
  0
INSERT
  5
2E0
330
1F
100
AcDbEntity
  8
PIEZA
100
AcDbBlockReference
  2
block 103
 10
0.0
 20
0.0
 30
0.0
  0
INSERT
  5
2E8
330
1F
100
AcDbEntity
  8
PIEZA
100
AcDbBlockReference
  2
block 104
 10
0.0
 20
0.0
 30
0.0
  0
INSERT
  5
2F0
330
1F
100
AcDbEntity
  8
PIEZA
100
AcDbBlockReference
  2
block 105
 10
0.0
 20
0.0
 30
0.0
  0
INSERT
  5
2F5
330
1F
100
AcDbEntity
  8
PIEZA
100
AcDbBlockReference
  2
block 106
 10
0.0
 20
0.0
 30
0.0
  0
INSERT
  5
2FD
330
1F
100
AcDbEntity
  8
PIEZA
100
AcDbBlockReference
  2
block 107
 10
0.0
 20
0.0
 30
0.0
  0
INSERT
  5
305
330
1F
100
AcDbEntity
  8
PIEZA
100
AcDbBlockReference
  2
block 108
 10
0.0
 20
0.0
 30
0.0
  0
INSERT
  5
30A
330
1F
100
AcDbEntity
  8
PIEZA
100
AcDbBlockReference
  2
block 109
 10
0.0
 20
0.0
 30
0.0
  0
INSERT
  5
30F
330
1F
100
AcDbEntity
  8
PIEZA
100
AcDbBlockReference
  2
block 110
 10
0.0
 20
0.0
 30
0.0
  0
INSERT
  5
314
330
1F
100
AcDbEntity
  8
PIEZA
100
AcDbBlockReference
  2
block 111
 10
0.0
 20
0.0
 30
0.0
  0
INSERT
  5
319
330
1F
100
AcDbEntity
  8
PIEZA
100
AcDbBlockReference
  2
block 112
 10
0.0
 20
0.0
 30
0.0
  0
INSERT
  5
31E
330
1F
100
AcDbEntity
  8
PIEZA
100
AcDbBlockReference
  2
block 113
 10
0.0
 20
0.0
 30
0.0
  0
INSERT
  5
323
330
1F
100
AcDbEntity
  8
PIEZA
100
AcDbBlockReference
  2
block 114
 10
0.0
 20
0.0
 30
0.0
  0
INSERT
  5
328
330
1F
100
AcDbEntity
  8
PIEZA
100
AcDbBlockReference
  2
block 115
 10
0.0
 20
0.0
 30
0.0
  0
INSERT
  5
32D
330
1F
100
AcDbEntity
  8
PIEZA
100
AcDbBlockReference
  2
block 116
 10
0.0
 20
0.0
 30
0.0
  0
INSERT
  5
332
330
1F
100
AcDbEntity
  8
PIEZA
100
AcDbBlockReference
  2
block 117
 10
0.0
 20
0.0
 30
0.0
  0
INSERT
  5
337
330
1F
100
AcDbEntity
  8
PIEZA
100
AcDbBlockReference
  2
block 118
 10
0.0
 20
0.0
 30
0.0
  0
INSERT
  5
33C
330
1F
100
AcDbEntity
  8
PIEZA
100
AcDbBlockReference
  2
block 119
 10
0.0
 20
0.0
 30
0.0
  0
INSERT
  5
341
330
1F
100
AcDbEntity
  8
PIEZA
100
AcDbBlockReference
  2
block 120
 10
0.0
 20
0.0
 30
0.0
  0
INSERT
  5
349
330
1F
100
AcDbEntity
  8
PIEZA
100
AcDbBlockReference
  2
block 121
 10
0.0
 20
0.0
 30
0.0
  0
INSERT
  5
34E
330
1F
100
AcDbEntity
  8
PIEZA
100
AcDbBlockReference
  2
block 122
 10
0.0
 20
0.0
 30
0.0
  0
INSERT
  5
356
330
1F
100
AcDbEntity
  8
PIEZA
100
AcDbBlockReference
  2
block 123
 10
0.0
 20
0.0
 30
0.0
  0
INSERT
  5
35E
330
1F
100
AcDbEntity
  8
PIEZA
100
AcDbBlockReference
  2
block 124
 10
0.0
 20
0.0
 30
0.0
  0
INSERT
  5
363
330
1F
100
AcDbEntity
  8
PIEZA
100
AcDbBlockReference
  2
block 125
 10
0.0
 20
0.0
 30
0.0
  0
INSERT
  5
368
330
1F
100
AcDbEntity
  8
PIEZA
100
AcDbBlockReference
  2
block 126
 10
0.0
 20
0.0
 30
0.0
  0
INSERT
  5
36D
330
1F
100
AcDbEntity
  8
PIEZA
100
AcDbBlockReference
  2
block 127
 10
0.0
 20
0.0
 30
0.0
  0
INSERT
  5
375
330
1F
100
AcDbEntity
  8
PIEZA
100
AcDbBlockReference
  2
block 128
 10
0.0
 20
0.0
 30
0.0
  0
INSERT
  5
37D
330
1F
100
AcDbEntity
  8
PIEZA
100
AcDbBlockReference
  2
block 129
 10
0.0
 20
0.0
 30
0.0
  0
INSERT
  5
385
330
1F
100
AcDbEntity
  8
PIEZA
100
AcDbBlockReference
  2
block 130
 10
0.0
 20
0.0
 30
0.0
  0
INSERT
  5
38D
330
1F
100
AcDbEntity
  8
PIEZA
100
AcDbBlockReference
  2
block 131
 10
0.0
 20
0.0
 30
0.0
  0
INSERT
  5
395
330
1F
100
AcDbEntity
  8
PIEZA
100
AcDbBlockReference
  2
block 132
 10
0.0
 20
0.0
 30
0.0
  0
INSERT
  5
39D
330
1F
100
AcDbEntity
  8
PIEZA
100
AcDbBlockReference
  2
block 133
 10
0.0
 20
0.0
 30
0.0
  0
INSERT
  5
3A5
330
1F
100
AcDbEntity
  8
PIEZA
100
AcDbBlockReference
  2
block 134
 10
0.0
 20
0.0
 30
0.0
  0
INSERT
  5
3AE
330
1F
100
AcDbEntity
  8
EJES
100
AcDbBlockReference
  2
block 135
 10
0.0
 20
0.0
 30
0.0
  0
INSERT
  5
3B7
330
1F
100
AcDbEntity
  8
EJES
100
AcDbBlockReference
  2
block 136
 10
0.0
 20
0.0
 30
0.0
  0
INSERT
  5
3C0
330
1F
100
AcDbEntity
  8
EJES
100
AcDbBlockReference
  2
block 137
 10
0.0
 20
0.0
 30
0.0
  0
INSERT
  5
3CA
330
1F
100
AcDbEntity
  8
LINEAS-FINAS
100
AcDbBlockReference
  2
block 138
 10
0.0
 20
0.0
 30
0.0
  0
INSERT
  5
3D2
330
1F
100
AcDbEntity
  8
LINEAS-FINAS
100
AcDbBlockReference
  2
block 139
 10
0.0
 20
0.0
 30
0.0
  0
INSERT
  5
3DB
330
1F
100
AcDbEntity
  8
COTAS
100
AcDbBlockReference
  2
block 140
 10
0.0
 20
0.0
 30
0.0
  0
INSERT
  5
432
330
1F
100
AcDbEntity
  8
COTAS
100
AcDbBlockReference
  2
block 151
 10
0.0
 20
0.0
 30
0.0
  0
INSERT
  5
489
330
1F
100
AcDbEntity
  8
COTAS
100
AcDbBlockReference
  2
block 162
 10
0.0
 20
0.0
 30
0.0
  0
INSERT
  5
4E0
330
1F
100
AcDbEntity
  8
COTAS
100
AcDbBlockReference
  2
block 173
 10
0.0
 20
0.0
 30
0.0
  0
INSERT
  5
537
330
1F
100
AcDbEntity
  8
COTAS
100
AcDbBlockReference
  2
block 184
 10
0.0
 20
0.0
 30
0.0
  0
INSERT
  5
58E
330
1F
100
AcDbEntity
  8
COTAS
100
AcDbBlockReference
  2
block 195
 10
0.0
 20
0.0
 30
0.0
  0
ENDSEC
  0
SECTION
  2
OBJECTS
  0
DICTIONARY
  5
C
330
0
100
AcDbDictionary
281
     1
  3
ACAD_GROUP
350
D
  3
ACAD_LAYOUT
350
1A
  3
ACAD_MLINESTYLE
350
17
  3
ACAD_PLOTSETTINGS
350
19
  3
ACAD_PLOTSTYLENAME
350
E
  3
ACAD_TABLESTYLE
350
5E4
  3
ACAD_VISUALSTYLE
350
2A
  0
DICTIONARY
  5
D
102
{ACAD_REACTORS
330
C
102
}
330
C
100
AcDbDictionary
281
     1
  0
DICTIONARY
  5
1A
102
{ACAD_REACTORS
330
C
102
}
330
C
100
AcDbDictionary
281
     1
  3
Layout1
350
1E
  3
Layout2
350
26
  3
Model
350
22
  0
DICTIONARY
  5
17
102
{ACAD_REACTORS
330
C
102
}
330
C
100
AcDbDictionary
281
     1
  3
Standard
350
18
  0
DICTIONARY
  5
19
102
{ACAD_REACTORS
330
C
102
}
330
C
100
AcDbDictionary
281
     1
  0
ACDBDICTIONARYWDFLT
  5
E
102
{ACAD_REACTORS
330
C
102
}
330
C
100
AcDbDictionary
281
     1
  3
Normal
350
F
100
AcDbDictionaryWithDefault
340
F
  0
DICTIONARY
  5
5E4
102
{ACAD_REACTORS
330
C
102
}
330
C
100
AcDbDictionary
281
     1
  0
DICTIONARY
  5
2A
102
{ACAD_REACTORS
330
C
102
}
330
C
100
AcDbDictionary
281
     1
  3
2dWireframe
350
2F
  3
3D Hidden
350
31
  3
3dWireframe
350
30
  3
Basic
350
32
  3
Brighten
350
36
  3
ColorChange
350
3A
  3
Conceptual
350
34
  3
Dim
350
35
  3
Facepattern
350
39
  3
Flat
350
2B
  3
FlatWithEdges
350
2C
  3
Gouraud
350
2D
  3
GouraudWithEdges
350
2E
  3
Linepattern
350
38
  3
Realistic
350
33
  3
Thicken
350
37
  0
LAYOUT
  5
1E
102
{ACAD_REACTORS
330
1A
102
}
330
1A
100
AcDbPlotSettings
  1

  2
none_device
  4

  6

 40
0.0
 41
0.0
 42
0.0
 43
0.0
 44
0.0
 45
0.0
 46
0.0
 47
0.0
 48
0.0
 49
0.0
140
0.0
141
0.0
142
1.0
143
1.0
 70
   688
 72
     0
 73
     0
 74
     5
  7

 75
    16
 76
     0
 77
     2
 78
   300
147
1.0
148
0.0
149
0.0
100
AcDbLayout
  1
Layout1
 70
     1
 71
     1
 10
0.0
 20
0.0
 11
12.0
 21
9.0
 12
0.0
 22
0.0
 32
0.0
 14
1.000000000000000E+20
 24
1.000000000000000E+20
 34
1.000000000000000E+20
 15
-1.000000000000000E+20
 25
-1.000000000000000E+20
 35
-1.000000000000000E+20
146
0.0
 13
0.0
 23
0.0
 33
0.0
 16
1.0
 26
0.0
 36
0.0
 17
0.0
 27
1.0
 37
0.0
 76
     0
330
1B
  0
LAYOUT
  5
26
102
{ACAD_REACTORS
330
1A
102
}
330
1A
100
AcDbPlotSettings
  1

  2
none_device
  4

  6

 40
0.0
 41
0.0
 42
0.0
 43
0.0
 44
0.0
 45
0.0
 46
0.0
 47
0.0
 48
0.0
 49
0.0
140
0.0
141
0.0
142
1.0
143
1.0
 70
   688
 72
     0
 73
     0
 74
     5
  7

 75
    16
 76
     0
 77
     2
 78
   300
147
1.0
148
0.0
149
0.0
100
AcDbLayout
  1
Layout2
 70
     1
 71
     2
 10
0.0
 20
0.0
 11
0.0
 21
0.0
 12
0.0
 22
0.0
 32
0.0
 14
0.0
 24
0.0
 34
0.0
 15
0.0
 25
0.0
 35
0.0
146
0.0
 13
0.0
 23
0.0
 33
0.0
 16
1.0
 26
0.0
 36
0.0
 17
0.0
 27
1.0
 37
0.0
 76
     0
330
23
  0
LAYOUT
  5
22
102
{ACAD_REACTORS
330
1A
102
}
330
1A
100
AcDbPlotSettings
  1

  2
none_device
  4

  6

 40
0.0
 41
0.0
 42
0.0
 43
0.0
 44
0.0
 45
0.0
 46
0.0
 47
0.0
 48
0.0
 49
0.0
140
0.0
141
0.0
142
1.0
143
1.0
 70
  1712
 72
     0
 73
     0
 74
     0
  7

 75
     0
 76
     0
 77
     2
 78
   300
147
1.0
148
0.0
149
0.0
100
AcDbLayout
  1
Model
 70
     1
 71
     0
 10
0.0
 20
0.0
 11
12.0
 21
9.0
 12
0.0
 22
0.0
 32
0.0
 14
1.000000000000000E+20
 24
1.000000000000000E+20
 34
1.000000000000000E+20
 15
-1.000000000000000E+20
 25
-1.000000000000000E+20
 35
-1.000000000000000E+20
146
0.0
 13
0.0
 23
0.0
 33
0.0
 16
1.0
 26
0.0
 36
0.0
 17
0.0
 27
1.0
 37
0.0
 76
     0
330
1F
331
29
  0
MLINESTYLE
  5
18
102
{ACAD_REACTORS
330
17
102
}
330
17
100
AcDbMlineStyle
  2
Standard
 70
     0
  3

 62
   256
 51
90.0
 52
90.0
 71
     2
 49
0.5
 62
   256
  6
BYLAYER
 49
-0.5
 62
   256
  6
BYLAYER
  0
ACDBPLACEHOLDER
  5
F
102
{ACAD_REACTORS
330
E
102
}
330
E
  0
VISUALSTYLE
  5
2F
102
{ACAD_REACTORS
330
2A
102
}
330
2A
100
AcDbVisualStyle
  2
2dWireframe
 70
     4
 71
     0
 72
     2
 73
     0
 90
        0
 40
-0.6
 41
-30.0
 62
     5
 63
     7
421
 16777215
 74
     1
 91
        4
 64
     7
 65
   257
 75
     1
175
     1
 42
1.0
 92
        0
 66
   257
 43
1.0
 76
     1
 77
     6
 78
     2
 67
     7
 79
     5
170
     0
171
     0
290
     0
174
     0
 93
        1
 44
0.0
173
     0
291
     0
 45
0.0
1001
ACAD
1000
AcDbSavedByObjectVersion
1070
     0
  0
VISUALSTYLE
  5
31
102
{ACAD_REACTORS
330
2A
102
}
330
2A
100
AcDbVisualStyle
  2
3D Hidden
 70
     6
 71
     1
 72
     2
 73
     2
 90
        0
 40
-0.6
 41
-30.0
 62
     5
 63
     7
421
 16777215
 74
     2
 91
        2
 64
     7
 65
   257
 75
     2
175
     1
 42
40.0
 92
        0
 66
   257
 43
1.0
 76
     1
 77
     6
 78
     2
 67
     7
 79
     3
170
     0
171
     0
290
     0
174
     0
 93
        1
 44
0.0
173
     0
291
     0
 45
0.0
1001
ACAD
1000
AcDbSavedByObjectVersion
1070
     0
  0
VISUALSTYLE
  5
30
102
{ACAD_REACTORS
330
2A
102
}
330
2A
100
AcDbVisualStyle
  2
3dWireframe
 70
     5
 71
     0
 72
     2
 73
     0
 90
        0
 40
-0.6
 41
-30.0
 62
     5
 63
     7
421
 16777215
 74
     1
 91
        4
 64
     7
 65
   257
 75
     1
175
     1
 42
1.0
 92
        0
 66
   257
 43
1.0
 76
     1
 77
     6
 78
     2
 67
     7
 79
     5
170
     0
171
     0
290
     0
174
     0
 93
        1
 44
0.0
173
     0
291
     0
 45
0.0
1001
ACAD
1000
AcDbSavedByObjectVersion
1070
     0
  0
VISUALSTYLE
  5
32
102
{ACAD_REACTORS
330
2A
102
}
330
2A
100
AcDbVisualStyle
  2
Basic
 70
     7
 71
     1
 72
     0
 73
     1
 90
        0
 40
-0.6
 41
-30.0
 62
     5
 63
     7
421
 16777215
 74
     0
 91
        4
 64
     7
 65
   257
 75
     1
175
     1
 42
1.0
 92
        8
 66
     7
 43
1.0
 76
     1
 77
     6
 78
     2
 67
     7
 79
     5
170
     0
171
     0
290
     0
174
     0
 93
        1
 44
0.0
173
     0
291
     1
 45
0.0
1001
ACAD
1000
AcDbSavedByObjectVersion
1070
     0
  0
VISUALSTYLE
  5
36
102
{ACAD_REACTORS
330
2A
102
}
330
2A
100
AcDbVisualStyle
  2
Brighten
 70
    12
 71
     2
 72
     2
 73
     0
 90
        0
 40
-0.6
 41
-30.0
 62
     5
 63
     7
421
 16777215
 74
     1
 91
        4
 64
     7
 65
   257
 75
     1
175
     1
 42
1.0
 92
        8
 66
     7
 43
1.0
 76
     1
 77
     6
 78
     2
 67
     7
 79
     5
170
     0
171
     0
290
     0
174
     0
 93
        1
 44
50.0
173
     0
291
     1
 45
0.0
1001
ACAD
1000
AcDbSavedByObjectVersion
1070
     0
  0
VISUALSTYLE
  5
3A
102
{ACAD_REACTORS
330
2A
102
}
330
2A
100
AcDbVisualStyle
  2
ColorChange
 70
    16
 71
     2
 72
     2
 73
     3
 90
        0
 40
-0.6
 41
-30.0
 62
     5
 63
     8
421
  8421504
 74
     1
 91
        4
 64
     7
 65
   257
 75
     1
175
     1
 42
1.0
 92
        8
 66
     8
424
  8421504
 43
1.0
 76
     1
 77
     6
 78
     2
 67
     7
 79
     5
170
     0
171
     0
290
     0
174
     0
 93
        1
 44
0.0
173
     0
291
     1
 45
0.0
1001
ACAD
1000
AcDbSavedByObjectVersion
1070
     0
  0
VISUALSTYLE
  5
34
102
{ACAD_REACTORS
330
2A
102
}
330
2A
100
AcDbVisualStyle
  2
Conceptual
 70
     9
 71
     3
 72
     2
 73
     0
 90
        0
 40
-0.6
 41
-30.0
 62
     5
 63
     7
421
 16777215
 74
     2
 91
        2
 64
     7
 65
   257
 75
     1
175
     1
 42
40.0
 92
        8
 66
     7
 43
1.0
 76
     1
 77
     6
 78
     2
 67
     7
 79
     3
170
     0
171
     0
290
     0
174
     0
 93
        1
 44
0.0
173
     0
291
     0
 45
0.0
1001
ACAD
1000
AcDbSavedByObjectVersion
1070
     0
  0
VISUALSTYLE
  5
35
102
{ACAD_REACTORS
330
2A
102
}
330
2A
100
AcDbVisualStyle
  2
Dim
 70
    11
 71
     2
 72
     2
 73
     0
 90
        0
 40
-0.6
 41
-30.0
 62
     5
 63
     7
421
 16777215
 74
     1
 91
        4
 64
     7
 65
   257
 75
     1
175
     1
 42
1.0
 92
        8
 66
     7
 43
1.0
 76
     1
 77
     6
 78
     2
 67
     7
 79
     5
170
     0
171
     0
290
     0
174
     0
 93
        1
 44
-50.0
173
     0
291
     1
 45
0.0
1001
ACAD
1000
AcDbSavedByObjectVersion
1070
     0
  0
VISUALSTYLE
  5
39
102
{ACAD_REACTORS
330
2A
102
}
330
2A
100
AcDbVisualStyle
  2
Facepattern
 70
    15
 71
     2
 72
     2
 73
     0
 90
        0
 40
-0.6
 41
-30.0
 62
     5
 63
     7
421
 16777215
 74
     1
 91
        4
 64
     7
 65
   257
 75
     1
175
     1
 42
1.0
 92
        8
 66
     7
 43
1.0
 76
     1
 77
     6
 78
     2
 67
     7
 79
     5
170
     0
171
     0
290
     0
174
     0
 93
        1
 44
0.0
173
     0
291
     1
 45
0.0
1001
ACAD
1000
AcDbSavedByObjectVersion
1070
     0
  0
VISUALSTYLE
  5
2B
102
{ACAD_REACTORS
330
2A
102
}
330
2A
100
AcDbVisualStyle
  2
Flat
 70
     0
 71
     2
 72
     1
 73
     1
 90
        2
 40
-0.6
 41
30.0
 62
     5
 63
     7
421
 16777215
 74
     0
 91
        4
 64
     7
 65
   257
 75
     1
175
     1
 42
1.0
 92
        8
 66
     7
 43
1.0
 76
     1
 77
     6
 78
     2
 67
     7
 79
     5
170
     0
171
     0
290
     0
174
     0
 93
       13
 44
0.0
173
     0
291
     1
 45
0.0
1001
ACAD
1000
AcDbSavedByObjectVersion
1070
     0
  0
VISUALSTYLE
  5
2C
102
{ACAD_REACTORS
330
2A
102
}
330
2A
100
AcDbVisualStyle
  2
FlatWithEdges
 70
     1
 71
     2
 72
     1
 73
     1
 90
        2
 40
-0.6
 41
30.0
 62
     5
 63
     7
421
 16777215
 74
     1
 91
        4
 64
     7
 65
   257
 75
     1
175
     1
 42
1.0
 92
        0
 66
   257
 43
1.0
 76
     1
 77
     6
 78
     2
 67
     7
 79
     5
170
     0
171
     0
290
     0
174
     0
 93
       13
 44
0.0
173
     0
291
     1
 45
0.0
1001
ACAD
1000
AcDbSavedByObjectVersion
1070
     0
  0
VISUALSTYLE
  5
2D
102
{ACAD_REACTORS
330
2A
102
}
330
2A
100
AcDbVisualStyle
  2
Gouraud
 70
     2
 71
     2
 72
     2
 73
     1
 90
        2
 40
-0.6
 41
30.0
 62
     5
 63
     7
421
 16777215
 74
     0
 91
        4
 64
     7
 65
   257
 75
     1
175
     1
 42
1.0
 92
        0
 66
     7
 43
1.0
 76
     1
 77
     6
 78
     2
 67
     7
 79
     5
170
     0
171
     0
290
     0
174
     0
 93
       13
 44
0.0
173
     0
291
     1
 45
0.0
1001
ACAD
1000
AcDbSavedByObjectVersion
1070
     0
  0
VISUALSTYLE
  5
2E
102
{ACAD_REACTORS
330
2A
102
}
330
2A
100
AcDbVisualStyle
  2
GouraudWithEdges
 70
     3
 71
     2
 72
     2
 73
     1
 90
        2
 40
-0.6
 41
30.0
 62
     5
 63
     7
421
 16777215
 74
     1
 91
        4
 64
     7
 65
   257
 75
     1
175
     1
 42
1.0
 92
        0
 66
   257
 43
1.0
 76
     1
 77
     6
 78
     2
 67
     7
 79
     5
170
     0
171
     0
290
     0
174
     0
 93
       13
 44
0.0
173
     0
291
     1
 45
0.0
1001
ACAD
1000
AcDbSavedByObjectVersion
1070
     0
  0
VISUALSTYLE
  5
38
102
{ACAD_REACTORS
330
2A
102
}
330
2A
100
AcDbVisualStyle
  2
Linepattern
 70
    14
 71
     2
 72
     2
 73
     0
 90
        0
 40
-0.6
 41
-30.0
 62
     5
 63
     7
421
 16777215
 74
     1
 91
        4
 64
     7
 65
   257
 75
     7
175
     7
 42
1.0
 92
        8
 66
     7
 43
1.0
 76
     1
 77
     6
 78
     2
 67
     7
 79
     5
170
     0
171
     0
290
     0
174
     0
 93
        1
 44
0.0
173
     0
291
     1
 45
0.0
1001
ACAD
1000
AcDbSavedByObjectVersion
1070
     0
  0
VISUALSTYLE
  5
33
102
{ACAD_REACTORS
330
2A
102
}
330
2A
100
AcDbVisualStyle
  2
Realistic
 70
     8
 71
     2
 72
     2
 73
     0
 90
        0
 40
-0.6
 41
-30.0
 62
     5
 63
     7
421
 16777215
 74
     1
 91
        0
 64
     7
 65
   257
 75
     1
175
     1
 42
1.0
 92
        8
 66
     8
424
  7895160
 43
1.0
 76
     1
 77
     6
 78
     2
 67
     7
 79
     5
170
     0
171
     0
290
     0
174
     0
 93
       13
 44
0.0
173
     0
291
     0
 45
0.0
1001
ACAD
1000
AcDbSavedByObjectVersion
1070
     0
  0
VISUALSTYLE
  5
37
102
{ACAD_REACTORS
330
2A
102
}
330
2A
100
AcDbVisualStyle
  2
Thicken
 70
    13
 71
     2
 72
     2
 73
     0
 90
        0
 40
-0.6
 41
-30.0
 62
     5
 63
     7
421
 16777215
 74
     1
 91
        4
 64
     7
 65
   257
 75
     1
175
     1
 42
1.0
 92
       12
 66
     7
 43
1.0
 76
     1
 77
     6
 78
     2
 67
     7
 79
     5
170
     0
171
     0
290
     0
174
     0
 93
        1
 44
0.0
173
     0
291
     1
 45
0.0
1001
ACAD
1000
AcDbSavedByObjectVersion
1070
     0
  0
ENDSEC
  0
EOF
