  0
SECTION
  2
HEADER
  9
$ACADVER
  1
AC1015
  9
$ACADMAINTVER
 70
    20
  9
$DWGCODEPAGE
  3
ANSI_1252
  9
$INSBASE
 10
0.0
 20
0.0
 30
0.0
  9
$EXTMIN
 10
168.3655354703405
 20
-1.808917479867886
 30
-0.0015258207003583
  9
$EXTMAX
 10
1337.821179358458
 20
1329.035127280453
 30
0.0000000349246037
  9
$LIMMIN
 10
0.0
 20
0.0
  9
$LIMMAX
 10
420.0
 20
297.0
  9
$ORTHOMODE
 70
     0
  9
$REGENMODE
 70
     1
  9
$FILLMODE
 70
     1
  9
$QTEXTMODE
 70
     0
  9
$MIRRTEXT
 70
     0
  9
$LTSCALE
 40
1.0
  9
$ATTMODE
 70
     1
  9
$TEXTSIZE
 40
2.5
  9
$TRACEWID
 40
1.0
  9
$TEXTSTYLE
  7
Standard
  9
$CLAYER
  8
0
  9
$CELTYPE
  6
ByLayer
  9
$CECOLOR
 62
   256
  9
$CELTSCALE
 40
1.0
  9
$DISPSILH
 70
     0
  9
$DIMSCALE
 40
1.0
  9
$DIMASZ
 40
2.5
  9
$DIMEXO
 40
0.625
  9
$DIMDLI
 40
3.75
  9
$DIMRND
 40
0.0
  9
$DIMDLE
 40
0.0
  9
$DIMEXE
 40
1.25
  9
$DIMTP
 40
0.0
  9
$DIMTM
 40
0.0
  9
$DIMTXT
 40
2.5
  9
$DIMCEN
 40
2.5
  9
$DIMTSZ
 40
0.0
  9
$DIMTOL
 70
     0
  9
$DIMLIM
 70
     0
  9
$DIMTIH
 70
     0
  9
$DIMTOH
 70
     0
  9
$DIMSE1
 70
     0
  9
$DIMSE2
 70
     0
  9
$DIMTAD
 70
     1
  9
$DIMZIN
 70
     8
  9
$DIMBLK
  1

  9
$DIMASO
 70
     1
  9
$DIMSHO
 70
     1
  9
$DIMPOST
  1

  9
$DIMAPOST
  1

  9
$DIMALT
 70
     0
  9
$DIMALTD
 70
     3
  9
$DIMALTF
 40
0.03937007874016
  9
$DIMLFAC
 40
1.0
  9
$DIMTOFL
 70
     1
  9
$DIMTVP
 40
0.0
  9
$DIMTIX
 70
     0
  9
$DIMSOXD
 70
     0
  9
$DIMSAH
 70
     0
  9
$DIMBLK1
  1

  9
$DIMBLK2
  1

  9
$DIMSTYLE
  2
ISO-25
  9
$DIMCLRD
 70
     0
  9
$DIMCLRE
 70
     0
  9
$DIMCLRT
 70
     0
  9
$DIMTFAC
 40
1.0
  9
$DIMGAP
 40
0.625
  9
$DIMJUST
 70
     0
  9
$DIMSD1
 70
     0
  9
$DIMSD2
 70
     0
  9
$DIMTOLJ
 70
     0
  9
$DIMTZIN
 70
     8
  9
$DIMALTZ
 70
     0
  9
$DIMALTTZ
 70
     0
  9
$DIMUPT
 70
     0
  9
$DIMDEC
 70
     2
  9
$DIMTDEC
 70
     2
  9
$DIMALTU
 70
     2
  9
$DIMALTTD
 70
     3
  9
$DIMTXSTY
  7
Standard
  9
$DIMAUNIT
 70
     0
  9
$DIMADEC
 70
     0
  9
$DIMALTRND
 40
0.0
  9
$DIMAZIN
 70
     0
  9
$DIMDSEP
 70
    44
  9
$DIMATFIT
 70
     3
  9
$DIMFRAC
 70
     0
  9
$DIMLDRBLK
  1

  9
$DIMLUNIT
 70
     2
  9
$DIMLWD
 70
    -2
  9
$DIMLWE
 70
    -2
  9
$DIMTMOVE
 70
     0
  9
$LUNITS
 70
     2
  9
$LUPREC
 70
     4
  9
$SKETCHINC
 40
1.0
  9
$FILLETRAD
 40
0.0
  9
$AUNITS
 70
     0
  9
$AUPREC
 70
     0
  9
$MENU
  1
.
  9
$ELEVATION
 40
0.0
  9
$PELEVATION
 40
0.0
  9
$THICKNESS
 40
0.0
  9
$LIMCHECK
 70
     0
  9
$CHAMFERA
 40
0.0
  9
$CHAMFERB
 40
0.0
  9
$CHAMFERC
 40
0.0
  9
$CHAMFERD
 40
0.0
  9
$SKPOLY
 70
     0
  9
$TDCREATE
 40
2454481.986048901
  9
$TDUCREATE
 40
2454481.902715567
  9
$TDUPDATE
 40
2454579.396170428
  9
$TDUUPDATE
 40
2454579.312837095
  9
$TDINDWG
 40
0.0216809491
  9
$TDUSRTIMER
 40
0.0216809491
  9
$USRTIMER
 70
     1
  9
$ANGBASE
 50
0.0
  9
$ANGDIR
 70
     0
  9
$PDMODE
 70
     0
  9
$PDSIZE
 40
0.0
  9
$PLINEWID
 40
0.0
  9
$SPLFRAME
 70
     0
  9
$SPLINETYPE
 70
     6
  9
$SPLINESEGS
 70
     8
  9
$HANDSEED
  5
7DC
  9
$SURFTAB1
 70
     6
  9
$SURFTAB2
 70
     6
  9
$SURFTYPE
 70
     6
  9
$SURFU
 70
     6
  9
$SURFV
 70
     6
  9
$UCSBASE
  2

  9
$UCSNAME
  2

  9
$UCSORG
 10
0.0
 20
0.0
 30
0.0
  9
$UCSXDIR
 10
1.0
 20
0.0
 30
0.0
  9
$UCSYDIR
 10
0.0
 20
1.0
 30
0.0
  9
$UCSORTHOREF
  2

  9
$UCSORTHOVIEW
 70
     0
  9
$UCSORGTOP
 10
0.0
 20
0.0
 30
0.0
  9
$UCSORGBOTTOM
 10
0.0
 20
0.0
 30
0.0
  9
$UCSORGLEFT
 10
0.0
 20
0.0
 30
0.0
  9
$UCSORGRIGHT
 10
0.0
 20
0.0
 30
0.0
  9
$UCSORGFRONT
 10
0.0
 20
0.0
 30
0.0
  9
$UCSORGBACK
 10
0.0
 20
0.0
 30
0.0
  9
$PUCSBASE
  2

  9
$PUCSNAME
  2

  9
$PUCSORG
 10
0.0
 20
0.0
 30
0.0
  9
$PUCSXDIR
 10
1.0
 20
0.0
 30
0.0
  9
$PUCSYDIR
 10
0.0
 20
1.0
 30
0.0
  9
$PUCSORTHOREF
  2

  9
$PUCSORTHOVIEW
 70
     0
  9
$PUCSORGTOP
 10
0.0
 20
0.0
 30
0.0
  9
$PUCSORGBOTTOM
 10
0.0
 20
0.0
 30
0.0
  9
$PUCSORGLEFT
 10
0.0
 20
0.0
 30
0.0
  9
$PUCSORGRIGHT
 10
0.0
 20
0.0
 30
0.0
  9
$PUCSORGFRONT
 10
0.0
 20
0.0
 30
0.0
  9
$PUCSORGBACK
 10
0.0
 20
0.0
 30
0.0
  9
$USERI1
 70
     0
  9
$USERI2
 70
     0
  9
$USERI3
 70
     0
  9
$USERI4
 70
     0
  9
$USERI5
 70
     0
  9
$USERR1
 40
0.0
  9
$USERR2
 40
0.0
  9
$USERR3
 40
0.0
  9
$USERR4
 40
0.0
  9
$USERR5
 40
0.0
  9
$WORLDVIEW
 70
     1
  9
$SHADEDGE
 70
     3
  9
$SHADEDIF
 70
    70
  9
$TILEMODE
 70
     1
  9
$MAXACTVP
 70
    64
  9
$PINSBASE
 10
0.0
 20
0.0
 30
0.0
  9
$PLIMCHECK
 70
     0
  9
$PEXTMIN
 10
0.0
 20
0.0
 30
0.0
  9
$PEXTMAX
 10
0.0
 20
0.0
 30
0.0
  9
$PLIMMIN
 10
0.0
 20
0.0
  9
$PLIMMAX
 10
12.0
 20
9.0
  9
$UNITMODE
 70
     0
  9
$VISRETAIN
 70
     1
  9
$PLINEGEN
 70
     0
  9
$PSLTSCALE
 70
     1
  9
$TREEDEPTH
 70
  3020
  9
$CMLSTYLE
  2
Standard
  9
$CMLJUST
 70
     0
  9
$CMLSCALE
 40
20.0
  9
$PROXYGRAPHICS
 70
     1
  9
$MEASUREMENT
 70
     1
  9
$CELWEIGHT
370
    -1
  9
$ENDCAPS
280
     0
  9
$JOINSTYLE
280
     0
  9
$LWDISPLAY
290
     0
  9
$INSUNITS
 70
     4
  9
$HYPERLINKBASE
  1

  9
$STYLESHEET
  1

  9
$XEDIT
290
     1
  9
$CEPSNTYPE
380
     0
  9
$PSTYLEMODE
290
     1
  9
$FINGERPRINTGUID
  2
{FDEAD578-A652-11D2-9A35-0060089B3A3F}
  9
$VERSIONGUID
  2
{9E2330F1-536F-427A-8F6F-C13C9C10E0BA}
  9
$EXTNAMES
290
     1
  9
$PSVPSCALE
 40
0.0
  9
$OLESTARTUP
290
     0
  0
ENDSEC
  0
SECTION
  2
CLASSES
  0
CLASS
  1
ACDBDICTIONARYWDFLT
  2
AcDbDictionaryWithDefault
  3
ObjectDBX Classes
 90
        0
280
     0
281
     0
  0
CLASS
  1
DICTIONARYVAR
  2
AcDbDictionaryVar
  3
ObjectDBX Classes
 90
        0
280
     0
281
     0
  0
CLASS
  1
SORTENTSTABLE
  2
AcDbSortentsTable
  3
ObjectDBX Classes
 90
        0
280
     0
281
     0
  0
CLASS
  1
TABLESTYLE
  2
AcDbTableStyle
  3
ObjectDBX Classes
 90
     2047
280
     0
281
     0
  0
CLASS
  1
ACDBPLACEHOLDER
  2
AcDbPlaceHolder
  3
ObjectDBX Classes
 90
        0
280
     0
281
     0
  0
CLASS
  1
LAYOUT
  2
AcDbLayout
  3
ObjectDBX Classes
 90
        0
280
     0
281
     0
  0
ENDSEC
  0
SECTION
  2
TABLES
  0
TABLE
  2
VPORT
  5
8
330
0
100
AcDbSymbolTable
 70
    36
  0
VPORT
  5
7D3
330
8
100
AcDbSymbolTableRecord
100
AcDbViewportTableRecord
  2
*Active
 70
     0
 10
0.0
 20
0.0
 11
1.0
 21
1.0
 12
730.8720766645592
 22
514.3865153207248
 13
0.0
 23
0.0
 14
10.0
 24
10.0
 15
10.0
 25
10.0
 16
0.0
 26
0.0
 36
1.0
 17
0.0
 27
0.0
 37
0.0
 40
2570.505096619287
 41
1.50440251572327
 42
50.0
 43
0.0
 44
0.0
 50
0.0
 51
0.0
 71
     0
 72
  1000
 73
     1
 74
     3
 75
     0
 76
     0
 77
     0
 78
     0
281
     0
 65
     1
110
0.0
120
0.0
130
0.0
111
1.0
121
0.0
131
0.0
112
0.0
122
1.0
132
0.0
 79
     0
146
0.0
  0
ENDTAB
  0
TABLE
  2
LTYPE
  5
5
330
0
100
AcDbSymbolTable
 70
     1
  0
LTYPE
  5
14
330
5
100
AcDbSymbolTableRecord
100
AcDbLinetypeTableRecord
  2
ByBlock
 70
     0
  3

 72
    65
 73
     0
 40
0.0
  0
LTYPE
  5
15
330
5
100
AcDbSymbolTableRecord
100
AcDbLinetypeTableRecord
  2
ByLayer
 70
     0
  3

 72
    65
 73
     0
 40
0.0
  0
LTYPE
  5
16
330
5
100
AcDbSymbolTableRecord
100
AcDbLinetypeTableRecord
  2
Continuous
 70
     0
  3
Solid line
 72
    65
 73
     0
 40
0.0
  0
ENDTAB
  0
TABLE
  2
LAYER
  5
2
102
{ACAD_XDICTIONARY
360
164
102
}
330
0
100
AcDbSymbolTable
 70
     1
  0
LAYER
  5
10
330
2
100
AcDbSymbolTableRecord
100
AcDbLayerTableRecord
  2
0
 70
     0
 62
     7
  6
Continuous
370
    -3
390
F
  0
ENDTAB
  0
TABLE
  2
STYLE
  5
3
330
0
100
AcDbSymbolTable
 70
    15
  0
STYLE
  5
11
330
3
100
AcDbSymbolTableRecord
100
AcDbTextStyleTableRecord
  2
Standard
 70
     0
 40
0.0
 41
1.0
 50
0.0
 71
     0
 42
2.5
  3
txt
  4

  0
ENDTAB
  0
TABLE
  2
VIEW
  5
6
330
0
100
AcDbSymbolTable
 70
     0
  0
ENDTAB
  0
TABLE
  2
UCS
  5
7
330
0
100
AcDbSymbolTable
 70
     0
  0
ENDTAB
  0
TABLE
  2
APPID
  5
9
330
0
100
AcDbSymbolTable
 70
     2
  0
APPID
  5
12
330
9
100
AcDbSymbolTableRecord
100
AcDbRegAppTableRecord
  2
ACAD
 70
     0
  0
APPID
  5
8D
330
9
100
AcDbSymbolTableRecord
100
AcDbRegAppTableRecord
  2
ACAD_PSEXT
 70
     0
  0
ENDTAB
  0
TABLE
  2
DIMSTYLE
  5
A
330
0
100
AcDbSymbolTable
 70
     2
100
AcDbDimStyleTable
 71
     1
340
27
  0
DIMSTYLE
105
27
330
A
100
AcDbSymbolTableRecord
100
AcDbDimStyleTableRecord
  2
ISO-25
 70
     0
 41
2.5
 42
0.625
 43
3.75
 44
1.25
 73
     0
 74
     0
 77
     1
 78
     8
140
2.5
141
2.5
143
0.03937007874016
147
0.625
171
     3
172
     1
271
     2
272
     2
274
     3
278
    44
283
     0
284
     8
340
11
  0
DIMSTYLE
105
8C
330
A
100
AcDbSymbolTableRecord
100
AcDbDimStyleTableRecord
  2
STANDARD
 70
     0
340
11
  0
ENDTAB
  0
TABLE
  2
BLOCK_RECORD
  5
1
330
0
100
AcDbSymbolTable
 70
    42
  0
BLOCK_RECORD
  5
1F
330
1
100
AcDbSymbolTableRecord
100
AcDbBlockTableRecord
  2
*Model_Space
340
22
  0
BLOCK_RECORD
  5
50
330
1
100
AcDbSymbolTableRecord
100
AcDbBlockTableRecord
  2
*Paper_Space
340
51
  0
BLOCK_RECORD
  5
55
330
1
100
AcDbSymbolTableRecord
100
AcDbBlockTableRecord
  2
*Paper_Space0
340
56
  0
BLOCK_RECORD
  5
745
330
1
100
AcDbSymbolTableRecord
100
AcDbBlockTableRecord
  2
10810-P
340
0
310
2800000020000000200000000100080000000000000400000000000000000000000000000000000000000000000080000080000000808000800000008000800080800000C0C0C000C0DCC000F0CAA6000020400000206000002080000020A0000020C0000020E00000400000004020000040400000406000004080000040A0
310
000040C0000040E00000600000006020000060400000606000006080000060A0000060C0000060E00000800000008020000080400000806000008080000080A0000080C0000080E00000A0000000A0200000A0400000A0600000A0800000A0A00000A0C00000A0E00000C0000000C0200000C0400000C0600000C0800000C0
310
A00000C0C00000C0E00000E0000000E0200000E0400000E0600000E0800000E0A00000E0C00000E0E00040000000400020004000400040006000400080004000A0004000C0004000E00040200000402020004020400040206000402080004020A0004020C0004020E000404000004040200040404000404060004040800040
310
40A0004040C0004040E00040600000406020004060400040606000406080004060A0004060C0004060E00040800000408020004080400040806000408080004080A0004080C0004080E00040A0000040A0200040A0400040A0600040A0800040A0A00040A0C00040A0E00040C0000040C0200040C0400040C0600040C08000
310
40C0A00040C0C00040C0E00040E0000040E0200040E0400040E0600040E0800040E0A00040E0C00040E0E00080000000800020008000400080006000800080008000A0008000C0008000E00080200000802020008020400080206000802080008020A0008020C0008020E00080400000804020008040400080406000804080
310
008040A0008040C0008040E00080600000806020008060400080606000806080008060A0008060C0008060E00080800000808020008080400080806000808080008080A0008080C0008080E00080A0000080A0200080A0400080A0600080A0800080A0A00080A0C00080A0E00080C0000080C0200080C0400080C0600080C0
310
800080C0A00080C0C00080C0E00080E0000080E0200080E0400080E0600080E0800080E0A00080E0C00080E0E000C0000000C0002000C0004000C0006000C0008000C000A000C000C000C000E000C0200000C0202000C0204000C0206000C0208000C020A000C020C000C020E000C0400000C0402000C0404000C0406000C0
310
408000C040A000C040C000C040E000C0600000C0602000C0604000C0606000C0608000C060A000C060C000C060E000C0800000C0802000C0804000C0806000C0808000C080A000C080C000C080E000C0A00000C0A02000C0A04000C0A06000C0A08000C0A0A000C0A0C000C0A0E000C0C00000C0C02000C0C04000C0C06000
310
C0C08000C0C0A000F0FBFF00A4A0A000808080000000FF0000FF000000FFFF00FF000000FF00FF00FFFF0000FFFFFF0000000000000000000000000000000000000000000000000000000000000000000000FFFFFFFFFFFFFFFFFFFFFFFFFFFFFFFFFFFFFFFFFFFFFFFFFFFFFFFF000000FF00000000000000000000000000
310
000000000000000000000000000000FF0000FF00000000FFFFFFFFFFFFFFFFFFFFFFFFFFFFFFFFFFFFFFFFFFFFFF00FF0000FF0000FFFF00FFFFFFFFFFFFFFFFFFFFFFFFFFFFFFFFFFFFFFFFFF0000FF0000FF0000FFFFFF000000000000000000000000FFFF0000000000FFFF0000FF0000FF00FF00FF0000000000000000
310
0000000000FFFF0000000000FFFF0000FF0000FF00FFFF000000000000000000000000FFFFFFFFFFFF000000FFFF0000FF0000FF00FFFF000000000000000000000000FFFFFF00FFFF000000FFFF0000FF0000FF00FFFF0000000000000000000000FFFF00FFFF00FFFFFF00FFFF0000FF0000FF00FFFF0000000000000000
310
00FFFFFFFFFFFFFFFFFFFFFFFFFFFF0000FF0000FF00FFFF000000000000000000FFFF00FFFFFF00FFFF00FFFFFFFF0000FF0000FF00FFFF000000000000000000FFFFFFFFFFFFFFFFFFFFFFFFFFFF0000FF0000FF00FFFF0000000000000000000000FFFF00FFFF00FFFFFF00FFFF0000FF0000FF00FFFF0000000000FFFF
310
FF000000FFFFFFFFFFFFFFFF0000FFFF0000FF0000FF00FFFF0000000000FFFFFF00000000FFFFFFFFFFFF000000FFFF0000FF0000FF00FFFF00000000FFFF00FFFFFF00000000FFFF0000000000FFFF00FF000000FF00FFFF0000FFFFFFFFFFFFFFFFFF000000FFFF0000000000FFFF00FF000000FF00FFFF0000FFFFFFFF
310
FFFF00FFFF000000000000000000FFFF0000FF000000FF00FFFFFFFFFFFFFFFFFFFFFFFFFFFFFF00FFFFFF000000FFFF0000FF000000FF00FFFFFFFFFF00FFFF00FFFFFFFFFFFF00FF00FF000000FFFF00FF00000000FF00FFFF0000FFFFFFFFFFFF00FFFF000000FFFFFF0000FFFF0000FF00000000FF00FFFF0000FFFFFF
310
FFFFFFFFFFFF0000000000000000FF0000FF0000000000FF00FFFF00000000FFFF00FFFFFF0000000000000000FF000000FF0000000000FF00FFFF00000000FFFFFFFFFF00000000000000FFFF000000FF000000000000FF00FFFF0000000000FFFFFF0000000000FFFFFFFF000000FF00000000000000FF00FFFFFFFFFFFF
310
FFFFFFFFFFFFFFFFFFFFFFFF000000FF0000000000000000FF00FFFFFFFFFFFFFFFFFFFFFFFFFFFFFF00000000FFFF000000000000000000FF00FF00000000000000000000000000000000FFFF0000000000000000000000FF0000000000000000000000000000FFFFFFFF0000000000000000000000000000FFFFFFFFFFFF
310
FFFFFFFFFFFFFFFF000000000000000000000000000000000000000000000000000000000000000000000000000000000000000000000000
102
{BLKREFS
331
7C1
331
7C8
102
}
1001
ACAD
1000
DesignCenter Data
1002
{
1070
     1
1070
     4
1002
}
  0
ENDTAB
  0
ENDSEC
  0
SECTION
  2
BLOCKS
  0
BLOCK
  5
20
330
1F
100
AcDbEntity
  8
0
100
AcDbBlockBegin
  2
*Model_Space
 70
     0
 10
0.0
 20
0.0
 30
0.0
  3
*Model_Space
  1

  0
ENDBLK
  5
21
330
1F
100
AcDbEntity
  8
0
100
AcDbBlockEnd
  0
BLOCK
  5
52
330
50
100
AcDbEntity
 67
     1
  8
0
100
AcDbBlockBegin
  2
*Paper_Space
 70
     0
 10
0.0
 20
0.0
 30
0.0
  3
*Paper_Space
  1

  0
ENDBLK
  5
53
330
50
100
AcDbEntity
 67
     1
  8
0
100
AcDbBlockEnd
  0
BLOCK
  5
57
330
55
100
AcDbEntity
  8
0
100
AcDbBlockBegin
  2
*Paper_Space0
 70
     0
 10
0.0
 20
0.0
 30
0.0
  3
*Paper_Space0
  1

  0
ENDBLK
  5
58
330
55
100
AcDbEntity
  8
0
100
AcDbBlockEnd
  0
BLOCK
  5
746
330
745
100
AcDbEntity
  8
0
100
AcDbBlockBegin
  2
10810-P
 70
     0
 10
0.0
 20
0.0
 30
0.0
  3
10810-P
  1

  0
LINE
  5
747
330
745
100
AcDbEntity
  8
0
100
AcDbLine
 10
900.0
 20
17.00000000000477
 30
0.0
 11
900.0
 21
395.0000000000048
 31
0.0
  0
LINE
  5
748
330
745
100
AcDbEntity
  8
0
100
AcDbLine
 10
0.0
 20
17.00000000000659
 30
0.0
 11
0.0
 21
883.0000000000048
 31
0.0
  0
CIRCLE
  5
749
330
745
100
AcDbEntity
  8
0
100
AcDbCircle
 10
310.4381457933596
 20
747.9584549498255
 30
0.0
 40
25.00000000000003
  0
CIRCLE
  5
74A
330
745
100
AcDbEntity
  8
0
100
AcDbCircle
 10
310.4381457933596
 20
747.9584549498255
 30
0.0
 40
15.00000000000001
  0
LINE
  5
74B
330
745
100
AcDbEntity
  8
0
100
AcDbLine
 10
59.99999999999818
 20
840.0000000000048
 30
0.0
 11
60.0
 21
180.0000000000084
 31
0.0
  0
LINE
  5
74C
330
745
100
AcDbEntity
  8
0
100
AcDbLine
 10
77.77821112181846
 20
179.9523157838168
 30
0.0
 11
77.77821112181846
 21
792.0000000000084
 31
0.0
  0
LINE
  5
74D
330
745
100
AcDbEntity
  8
0
100
AcDbLine
 10
17.0
 20
900.0000000000047
 30
0.0
 11
395.0
 21
900.0000000000047
 31
0.0
  0
LINE
  5
74E
330
745
100
AcDbEntity
  8
0
100
AcDbLine
 10
395.0
 20
800.0000000000083
 30
0.0
 11
85.77821112181846
 21
800.0000000000083
 31
0.0
  0
LINE
  5
74F
330
745
100
AcDbEntity
  8
0
100
AcDbLine
 10
394.9999999999964
 20
815.0000000000083
 30
0.0
 11
59.99999999999818
 21
815.0000000000048
 31
0.0
  0
ARC
  5
750
330
745
100
AcDbEntity
  8
0
100
AcDbCircle
 10
85.77821112181846
 20
792.0000000000078
 30
0.0
 40
8.0
100
AcDbArc
 50
90.0
 51
180.0
  0
ARC
  5
751
330
745
100
AcDbEntity
  8
0
100
AcDbCircle
 10
16.99999999999818
 20
883.0000000000042
 30
0.0
 40
17.0
100
AcDbArc
 50
90.0
 51
180.0
  0
CIRCLE
  5
752
330
745
100
AcDbEntity
  8
0
100
AcDbCircle
 10
364.885367944722
 20
475.7223441930042
 30
0.0
 40
25.00000000000003
  0
CIRCLE
  5
753
330
745
100
AcDbEntity
  8
0
100
AcDbCircle
 10
364.885367944722
 20
584.6167884957327
 30
0.0
 40
25.00000000000003
  0
CIRCLE
  5
754
330
745
100
AcDbEntity
  8
0
100
AcDbCircle
 10
364.885367944722
 20
693.5112327984612
 30
0.0
 40
25.00000000000003
  0
CIRCLE
  5
755
330
745
100
AcDbEntity
  8
0
100
AcDbCircle
 10
473.7798122474505
 20
584.6167884957309
 30
0.0
 40
25.00000000000003
  0
CIRCLE
  5
756
330
745
100
AcDbEntity
  8
0
100
AcDbCircle
 10
419.3325900960862
 20
639.064010647097
 30
0.0
 40
15.00000000000001
  0
CIRCLE
  5
757
330
745
100
AcDbEntity
  8
0
100
AcDbCircle
 10
419.3325900960862
 20
639.064010647097
 30
0.0
 40
25.00000000000003
  0
CIRCLE
  5
758
330
745
100
AcDbEntity
  8
0
100
AcDbCircle
 10
473.7798122474505
 20
584.6167884957309
 30
0.0
 40
15.00000000000001
  0
CIRCLE
  5
759
330
745
100
AcDbEntity
  8
0
100
AcDbCircle
 10
419.3325900960862
 20
530.1695663443685
 30
0.0
 40
25.00000000000003
  0
CIRCLE
  5
75A
330
745
100
AcDbEntity
  8
0
100
AcDbCircle
 10
419.3325900960862
 20
530.1695663443685
 30
0.0
 40
15.00000000000001
  0
CIRCLE
  5
75B
330
745
100
AcDbEntity
  8
0
100
AcDbCircle
 10
147.096479339265
 20
584.6167884957327
 30
0.0
 40
25.00000000000003
  0
CIRCLE
  5
75C
330
745
100
AcDbEntity
  8
0
100
AcDbCircle
 10
255.9909236419935
 20
584.6167884957327
 30
0.0
 40
25.00000000000003
  0
CIRCLE
  5
75D
330
745
100
AcDbEntity
  8
0
100
AcDbCircle
 10
201.5437014906311
 20
639.064010647097
 30
0.0
 40
15.00000000000001
  0
CIRCLE
  5
75E
330
745
100
AcDbEntity
  8
0
100
AcDbCircle
 10
201.5437014906311
 20
639.064010647097
 30
0.0
 40
25.00000000000003
  0
CIRCLE
  5
75F
330
745
100
AcDbEntity
  8
0
100
AcDbCircle
 10
310.4381457933578
 20
639.064010647097
 30
0.0
 40
15.00000000000001
  0
CIRCLE
  5
760
330
745
100
AcDbEntity
  8
0
100
AcDbCircle
 10
310.4381457933578
 20
639.064010647097
 30
0.0
 40
25.00000000000003
  0
CIRCLE
  5
761
330
745
100
AcDbEntity
  8
0
100
AcDbCircle
 10
364.885367944722
 20
693.5112327984612
 30
0.0
 40
15.00000000000001
  0
CIRCLE
  5
762
330
745
100
AcDbEntity
  8
0
100
AcDbCircle
 10
255.9909236419935
 20
693.5112327984612
 30
0.0
 40
25.00000000000003
  0
CIRCLE
  5
763
330
745
100
AcDbEntity
  8
0
100
AcDbCircle
 10
255.9909236419935
 20
693.5112327984612
 30
0.0
 40
15.00000000000001
  0
CIRCLE
  5
764
330
745
100
AcDbEntity
  8
0
100
AcDbCircle
 10
364.885367944722
 20
584.6167884957327
 30
0.0
 40
15.00000000000001
  0
CIRCLE
  5
765
330
745
100
AcDbEntity
  8
0
100
AcDbCircle
 10
255.9909236419935
 20
584.6167884957327
 30
0.0
 40
15.00000000000001
  0
CIRCLE
  5
766
330
745
100
AcDbEntity
  8
0
100
AcDbCircle
 10
147.096479339265
 20
584.6167884957327
 30
0.0
 40
15.00000000000001
  0
CIRCLE
  5
767
330
745
100
AcDbEntity
  8
0
100
AcDbCircle
 10
201.5437014906293
 20
530.1695663443685
 30
0.0
 40
25.00000000000003
  0
CIRCLE
  5
768
330
745
100
AcDbEntity
  8
0
100
AcDbCircle
 10
201.5437014906293
 20
530.1695663443685
 30
0.0
 40
15.00000000000001
  0
CIRCLE
  5
769
330
745
100
AcDbEntity
  8
0
100
AcDbCircle
 10
255.9909236419935
 20
475.7223441930042
 30
0.0
 40
15.00000000000001
  0
CIRCLE
  5
76A
330
745
100
AcDbEntity
  8
0
100
AcDbCircle
 10
255.9909236419935
 20
475.7223441930042
 30
0.0
 40
25.00000000000003
  0
CIRCLE
  5
76B
330
745
100
AcDbEntity
  8
0
100
AcDbCircle
 10
364.885367944722
 20
475.7223441930042
 30
0.0
 40
15.00000000000001
  0
CIRCLE
  5
76C
330
745
100
AcDbEntity
  8
0
100
AcDbCircle
 10
310.4381457933578
 20
530.1695663443685
 30
0.0
 40
25.00000000000003
  0
CIRCLE
  5
76D
330
745
100
AcDbEntity
  8
0
100
AcDbCircle
 10
310.4381457933578
 20
530.1695663443685
 30
0.0
 40
15.00000000000001
  0
CIRCLE
  5
76E
330
745
100
AcDbEntity
  8
0
100
AcDbCircle
 10
310.4381457933578
 20
421.2751220416399
 30
0.0
 40
15.00000000000001
  0
CIRCLE
  5
76F
330
745
100
AcDbEntity
  8
0
100
AcDbCircle
 10
310.4381457933578
 20
421.2751220416399
 30
0.0
 40
25.00000000000003
  0
ARC
  5
770
330
745
100
AcDbEntity
  8
0
100
AcDbCircle
 10
180.0
 20
180.0000000000077
 30
0.0
 40
120.0
100
AcDbArc
 50
180.0
 51
225.0
  0
ARC
  5
771
330
745
100
AcDbEntity
  8
0
100
AcDbCircle
 10
180.0
 20
180.0000000000077
 30
0.0
 40
102.2218
100
AcDbArc
 50
180.0
 51
225.0
  0
ARC
  5
772
330
745
100
AcDbEntity
  8
0
100
AcDbCircle
 10
883.0
 20
17.00000000000591
 30
0.0
 40
17.0
100
AcDbArc
 50
270.0
 51
0.0
  0
ARC
  5
773
330
745
100
AcDbEntity
  8
0
100
AcDbCircle
 10
16.99999999999818
 20
17.00000000000591
 30
0.0
 40
17.0
100
AcDbArc
 50
180.0
 51
270.0
  0
LINE
  5
774
330
745
100
AcDbEntity
  8
0
100
AcDbLine
 10
17.00000000000727
 20
-0.0000000000006821
 30
0.0
 11
883.0000000000055
 21
-0.0000000000334239
 31
0.0
  0
CIRCLE
  5
775
330
745
100
AcDbEntity
  8
0
100
AcDbCircle
 10
747.9584549498376
 20
310.438145793331
 30
0.0
 40
25.00000000000003
  0
CIRCLE
  5
776
330
745
100
AcDbEntity
  8
0
100
AcDbCircle
 10
747.9584549498376
 20
310.438145793331
 30
0.0
 40
15.00000000000001
  0
LINE
  5
777
330
745
100
AcDbEntity
  8
0
100
AcDbLine
 10
840.0000000000073
 20
59.99999999996839
 30
0.0
 11
180.0000000000091
 21
59.99999999999386
 31
0.0
  0
LINE
  5
778
330
745
100
AcDbEntity
  8
0
100
AcDbLine
 10
179.9523157838193
 20
77.77821112181232
 30
0.0
 11
792.0000000000109
 21
77.77821112178867
 31
0.0
  0
LINE
  5
779
330
745
100
AcDbEntity
  8
0
100
AcDbLine
 10
800.0000000000218
 20
394.9999999999903
 30
0.0
 11
800.000000000011
 21
85.77821112178867
 31
0.0
  0
LINE
  5
77A
330
745
100
AcDbEntity
  8
0
100
AcDbLine
 10
815.0000000000218
 20
394.9999999999884
 30
0.0
 11
815.0000000000073
 21
59.99999999996839
 31
0.0
  0
ARC
  5
77B
330
745
100
AcDbEntity
  8
0
100
AcDbCircle
 10
792.0000000000109
 20
85.7782111217898
 30
0.0
 40
8.0
100
AcDbArc
 50
270.0
 51
0.0
  0
CIRCLE
  5
77C
330
745
100
AcDbEntity
  8
0
100
AcDbCircle
 10
475.7223441930181
 20
364.8853679447026
 30
0.0
 40
25.00000000000003
  0
CIRCLE
  5
77D
330
745
100
AcDbEntity
  8
0
100
AcDbCircle
 10
584.6167884957467
 20
364.8853679447026
 30
0.0
 40
25.00000000000003
  0
CIRCLE
  5
77E
330
745
100
AcDbEntity
  8
0
100
AcDbCircle
 10
693.5112327984734
 20
364.8853679446971
 30
0.0
 40
25.00000000000003
  0
CIRCLE
  5
77F
330
745
100
AcDbEntity
  8
0
100
AcDbCircle
 10
639.0640106471128
 20
419.3325900960632
 30
0.0
 40
15.00000000000001
  0
CIRCLE
  5
780
330
745
100
AcDbEntity
  8
0
100
AcDbCircle
 10
639.0640106471128
 20
419.3325900960632
 30
0.0
 40
25.00000000000003
  0
CIRCLE
  5
781
330
745
100
AcDbEntity
  8
0
100
AcDbCircle
 10
530.1695663443843
 20
419.3325900960668
 30
0.0
 40
25.00000000000003
  0
CIRCLE
  5
782
330
745
100
AcDbEntity
  8
0
100
AcDbCircle
 10
530.1695663443843
 20
419.3325900960668
 30
0.0
 40
15.00000000000001
  0
CIRCLE
  5
783
330
745
100
AcDbEntity
  8
0
100
AcDbCircle
 10
584.6167884957394
 20
147.0964793392454
 30
0.0
 40
25.00000000000003
  0
CIRCLE
  5
784
330
745
100
AcDbEntity
  8
0
100
AcDbCircle
 10
584.6167884957412
 20
255.9909236419741
 30
0.0
 40
25.00000000000003
  0
CIRCLE
  5
785
330
745
100
AcDbEntity
  8
0
100
AcDbCircle
 10
639.0640106471055
 20
201.5437014906061
 30
0.0
 40
15.00000000000001
  0
CIRCLE
  5
786
330
745
100
AcDbEntity
  8
0
100
AcDbCircle
 10
639.0640106471055
 20
201.5437014906061
 30
0.0
 40
25.00000000000003
  0
CIRCLE
  5
787
330
745
100
AcDbEntity
  8
0
100
AcDbCircle
 10
639.0640106471091
 20
310.4381457933347
 30
0.0
 40
15.00000000000001
  0
CIRCLE
  5
788
330
745
100
AcDbEntity
  8
0
100
AcDbCircle
 10
639.0640106471091
 20
310.4381457933347
 30
0.0
 40
25.00000000000003
  0
CIRCLE
  5
789
330
745
100
AcDbEntity
  8
0
100
AcDbCircle
 10
693.5112327984734
 20
364.8853679446971
 30
0.0
 40
15.00000000000001
  0
CIRCLE
  5
78A
330
745
100
AcDbEntity
  8
0
100
AcDbCircle
 10
693.5112327984715
 20
255.9909236419704
 30
0.0
 40
25.00000000000003
  0
CIRCLE
  5
78B
330
745
100
AcDbEntity
  8
0
100
AcDbCircle
 10
693.5112327984715
 20
255.9909236419704
 30
0.0
 40
15.00000000000001
  0
CIRCLE
  5
78C
330
745
100
AcDbEntity
  8
0
100
AcDbCircle
 10
584.6167884957467
 20
364.8853679447026
 30
0.0
 40
15.00000000000001
  0
CIRCLE
  5
78D
330
745
100
AcDbEntity
  8
0
100
AcDbCircle
 10
584.6167884957412
 20
255.9909236419741
 30
0.0
 40
15.00000000000001
  0
CIRCLE
  5
78E
330
745
100
AcDbEntity
  8
0
100
AcDbCircle
 10
584.6167884957394
 20
147.0964793392454
 30
0.0
 40
15.00000000000001
  0
CIRCLE
  5
78F
330
745
100
AcDbEntity
  8
0
100
AcDbCircle
 10
530.169566344377
 20
201.5437014906097
 30
0.0
 40
25.00000000000003
  0
CIRCLE
  5
790
330
745
100
AcDbEntity
  8
0
100
AcDbCircle
 10
530.169566344377
 20
201.5437014906097
 30
0.0
 40
15.00000000000001
  0
CIRCLE
  5
791
330
745
100
AcDbEntity
  8
0
100
AcDbCircle
 10
475.7223441930145
 20
255.9909236419741
 30
0.0
 40
15.00000000000001
  0
CIRCLE
  5
792
330
745
100
AcDbEntity
  8
0
100
AcDbCircle
 10
475.7223441930145
 20
255.9909236419741
 30
0.0
 40
25.00000000000003
  0
CIRCLE
  5
793
330
745
100
AcDbEntity
  8
0
100
AcDbCircle
 10
475.7223441930181
 20
364.8853679447026
 30
0.0
 40
15.00000000000001
  0
CIRCLE
  5
794
330
745
100
AcDbEntity
  8
0
100
AcDbCircle
 10
530.1695663443807
 20
310.4381457933383
 30
0.0
 40
25.00000000000003
  0
CIRCLE
  5
795
330
745
100
AcDbEntity
  8
0
100
AcDbCircle
 10
530.1695663443807
 20
310.4381457933383
 30
0.0
 40
15.00000000000001
  0
CIRCLE
  5
796
330
745
100
AcDbEntity
  8
0
100
AcDbCircle
 10
421.2751220416521
 20
310.438145793342
 30
0.0
 40
15.00000000000001
  0
CIRCLE
  5
797
330
745
100
AcDbEntity
  8
0
100
AcDbCircle
 10
421.2751220416521
 20
310.438145793342
 30
0.0
 40
25.00000000000003
  0
ARC
  5
798
330
745
100
AcDbEntity
  8
0
100
AcDbCircle
 10
180.0000000000127
 20
179.9999999999932
 30
0.0
 40
120.0
100
AcDbArc
 50
224.9999999999908
 51
270.0
  0
ARC
  5
799
330
745
100
AcDbEntity
  8
0
100
AcDbCircle
 10
180.0000000000127
 20
179.9999999999932
 30
0.0
 40
102.2218
100
AcDbArc
 50
224.9999999999908
 51
270.0
  0
CIRCLE
  5
79A
330
745
100
AcDbEntity
  8
0
100
AcDbCircle
 10
584.6167884957231
 20
473.7798122474638
 30
0.0
 40
25.00000000000003
  0
CIRCLE
  5
79B
330
745
100
AcDbEntity
  8
0
100
AcDbCircle
 10
584.6167884957231
 20
473.7798122474638
 30
0.0
 40
15.00000000000001
  0
ARC
  5
79C
330
745
100
AcDbEntity
  8
0
100
AcDbCircle
 10
592.4873734153207
 20
592.4873734152612
 30
0.0
 40
45.99999999999997
100
AcDbArc
 50
0.0
 51
180.0
  0
ARC
  5
79D
330
745
100
AcDbEntity
  8
0
100
AcDbCircle
 10
592.4873734153207
 20
592.4873734152612
 30
0.0
 40
31.5
100
AcDbArc
 50
0.0
 51
180.0
  0
ARC
  5
79E
330
745
100
AcDbEntity
  8
0
100
AcDbCircle
 10
592.4873734153207
 20
592.4873734152612
 30
0.0
 40
45.99999999999997
100
AcDbArc
 50
180.0
 51
0.0
  0
ARC
  5
79F
330
745
100
AcDbEntity
  8
0
100
AcDbCircle
 10
592.4873734153207
 20
592.4873734152612
 30
0.0
 40
31.5
100
AcDbArc
 50
180.0
 51
0.0
  0
ARC
  5
7A0
330
745
100
AcDbEntity
  8
0
100
AcDbCircle
 10
394.9999999999982
 20
395.0000000000042
 30
0.0
 40
505.0
100
AcDbArc
 50
0.0
 51
90.0
  0
ARC
  5
7A1
330
745
100
AcDbEntity
  8
0
100
AcDbCircle
 10
394.9999999999982
 20
395.0000000000042
 30
0.0
 40
420.0
100
AcDbArc
 50
0.0
 51
90.0
  0
ARC
  5
7A2
330
745
100
AcDbEntity
  8
0
100
AcDbCircle
 10
394.9999999999982
 20
395.0000000000042
 30
0.0
 40
405.0
100
AcDbArc
 50
0.0
 51
90.0
  0
ENDBLK
  5
7A3
330
745
100
AcDbEntity
  8
0
100
AcDbBlockEnd
  0
ENDSEC
  0
SECTION
  2
ENTITIES
  0
MTEXT
  5
16C
330
1F
100
AcDbEntity
  8
0
100
AcDbMText
 10
169.205461982827
 20
37.78343114735776
 30
0.0
 40
30.0
 41
1220.924241397021
 71
     1
 72
     5
  1
{\fTimes New Roman|b0|i0|c0|p18;\C0;PLATO DE DUCHA ATLAS DE 90 CM. X 90 CM. ANGULAR}
 73
     1
 44
1.0
1001
ACAD
1000
MTEXTBEGIN
1070
    73
1070
     1
1070
    44
1040
1.0
1070
    74
1070
     0
1000
MTEXTEND
  0
INSERT
  5
7C8
330
1F
100
AcDbEntity
  8
0
100
AcDbBlockReference
  2
10810-P
 10
177.9222484459387
 20
124.9696514562754
 30
0.0
  0
ENDSEC
  0
SECTION
  2
OBJECTS
  0
DICTIONARY
  5
C
330
0
100
AcDbDictionary
281
     1
  3
ACAD_COLOR
350
6B
  3
ACAD_GROUP
350
D
  3
ACAD_LAYOUT
350
1A
  3
ACAD_MATERIAL
350
6A
  3
ACAD_MLINESTYLE
350
17
  3
ACAD_PLOTSETTINGS
350
19
  3
ACAD_PLOTSTYLENAME
350
E
  3
ACAD_TABLESTYLE
350
1E5
  3
ACDBHEADERROUNDTRIPXREC
350
7D5
  3
AcDbVariableDictionary
350
5E
  3
DWGPROPS
350
7D4
  0
DICTIONARY
  5
164
330
2
100
AcDbDictionary
280
     1
281
     1
  3
ACAD_LAYERSTATES
360
165
  0
DICTIONARY
  5
6B
102
{ACAD_REACTORS
330
C
102
}
330
C
100
AcDbDictionary
281
     1
  0
DICTIONARY
  5
D
102
{ACAD_REACTORS
330
C
102
}
330
C
100
AcDbDictionary
281
     1
  0
DICTIONARY
  5
1A
102
{ACAD_REACTORS
330
C
102
}
330
C
100
AcDbDictionary
281
     1
  3
Model
350
22
  3
Presentación1
350
51
  3
Presentación2
350
56
  0
DICTIONARY
  5
6A
102
{ACAD_REACTORS
330
C
102
}
330
C
100
AcDbDictionary
281
     1
  0
DICTIONARY
  5
17
102
{ACAD_REACTORS
330
C
102
}
330
C
100
AcDbDictionary
281
     1
  3
Standard
350
18
  0
DICTIONARY
  5
19
102
{ACAD_REACTORS
330
C
102
}
330
C
100
AcDbDictionary
281
     1
  0
ACDBDICTIONARYWDFLT
  5
E
102
{ACAD_REACTORS
330
C
102
}
330
C
100
AcDbDictionary
281
     1
  3
Normal
350
F
100
AcDbDictionaryWithDefault
340
F
  0
DICTIONARY
  5
1E5
102
{ACAD_REACTORS
330
C
102
}
330
C
100
AcDbDictionary
281
     1
  3
Standard
350
1E6
  0
DICTIONARY
  5
7D5
102
{ACAD_REACTORS
330
C
102
}
330
C
100
AcDbDictionary
281
     1
  0
DICTIONARY
  5
5E
102
{ACAD_REACTORS
330
C
102
}
330
C
100
AcDbDictionary
281
     1
  3
CTABLESTYLE
350
218
  3
DIMASSOC
350
5F
  3
HIDETEXT
350
63
  3
PROJECTNAME
350
219
  0
XRECORD
  5
7D4
102
{ACAD_REACTORS
330
C
102
}
330
C
100
AcDbXrecord
280
     1
  1
DWGPROPS COOKIE
  2

  3

  4

  6

  7

  8

  9

300
=
301
=
302
=
303
=
304
=
305
=
306
=
307
=
308
=
309
=
 40
0.0216809490740741
 41
2454481.986048901
 42
2454579.396170428
  1

 90
        0
  0
DICTIONARY
  5
165
102
{ACAD_REACTORS
330
164
102
}
330
164
100
AcDbDictionary
281
     1
  0
LAYOUT
  5
22
102
{ACAD_XDICTIONARY
360
7D6
102
}
102
{ACAD_REACTORS
330
1A
102
}
330
1A
100
AcDbPlotSettings
  1

  2
none_device
  4
ANSI_A_(8.50_x_11.00_Inches)
  6

 40
6.349999904632567
 41
19.04999923706055
 42
6.350006103515625
 43
19.04998779296875
 44
215.8999938964844
 45
279.3999938964844
 46
0.0
 47
0.0
 48
0.0
 49
0.0
140
0.0
141
0.0
142
1.0
143
78.436453180766
 70
 11952
 72
     0
 73
     1
 74
     0
  7

 75
     0
147
0.0127491741332998
148
0.0
149
0.0
100
AcDbLayout
  1
Model
 70
     1
 71
     0
 10
0.0
 20
0.0
 11
12.0
 21
9.0
 12
0.0
 22
0.0
 32
0.0
 14
0.0
 24
0.0
 34
0.0
 15
0.0
 25
0.0
 35
0.0
146
0.0
 13
0.0
 23
0.0
 33
0.0
 16
1.0
 26
0.0
 36
0.0
 17
0.0
 27
1.0
 37
0.0
 76
     0
330
1F
  0
LAYOUT
  5
51
102
{ACAD_XDICTIONARY
360
7D8
102
}
102
{ACAD_REACTORS
330
1A
102
}
330
1A
100
AcDbPlotSettings
  1

  2
None
  4

  6

 40
0.0
 41
0.0
 42
0.0
 43
0.0
 44
0.0
 45
0.0
 46
0.0
 47
0.0
 48
0.0
 49
0.0
140
0.0
141
0.0
142
1.0
143
1.0
 70
   688
 72
     0
 73
     0
 74
     5
  7

 75
    16
147
1.0
148
0.0
149
0.0
100
AcDbLayout
  1
Presentación1
 70
     1
 71
     1
 10
0.0
 20
0.0
 11
12.0
 21
9.0
 12
0.0
 22
0.0
 32
0.0
 14
0.0
 24
0.0
 34
0.0
 15
0.0
 25
0.0
 35
0.0
146
0.0
 13
0.0
 23
0.0
 33
0.0
 16
1.0
 26
0.0
 36
0.0
 17
0.0
 27
1.0
 37
0.0
 76
     0
330
50
  0
LAYOUT
  5
56
102
{ACAD_XDICTIONARY
360
7DA
102
}
102
{ACAD_REACTORS
330
1A
102
}
330
1A
100
AcDbPlotSettings
  1

  2
None
  4

  6

 40
0.0
 41
0.0
 42
0.0
 43
0.0
 44
0.0
 45
0.0
 46
0.0
 47
0.0
 48
0.0
 49
0.0
140
0.0
141
0.0
142
1.0
143
1.0
 70
   688
 72
     0
 73
     0
 74
     5
  7

 75
    16
147
1.0
148
0.0
149
0.0
100
AcDbLayout
  1
Presentación2
 70
     1
 71
     2
 10
0.0
 20
0.0
 11
12.0
 21
9.0
 12
0.0
 22
0.0
 32
0.0
 14
0.0
 24
0.0
 34
0.0
 15
0.0
 25
0.0
 35
0.0
146
0.0
 13
0.0
 23
0.0
 33
0.0
 16
1.0
 26
0.0
 36
0.0
 17
0.0
 27
1.0
 37
0.0
 76
     0
330
55
  0
MLINESTYLE
  5
18
102
{ACAD_REACTORS
330
17
102
}
330
17
100
AcDbMlineStyle
  2
STANDARD
 70
     0
  3

 62
   256
 51
90.0
 52
90.0
 71
     2
 49
0.5
 62
   256
  6
BYLAYER
 49
-0.5
 62
   256
  6
BYLAYER
  0
ACDBPLACEHOLDER
  5
F
102
{ACAD_REACTORS
330
E
102
}
330
E
  0
TABLESTYLE
  5
1E6
102
{ACAD_REACTORS
330
1E5
102
}
330
1E5
100
AcDbTableStyle
  3
Standard
 70
     0
 71
     0
 40
1.5
 41
1.5
280
     0
281
     0
  7
Standard
140
4.5
170
     2
 62
     0
 63
     7
283
     0
274
    -2
284
     1
 64
     0
275
    -2
285
     1
 65
     0
276
    -2
286
     1
 66
     0
277
    -2
287
     1
 67
     0
278
    -2
288
     1
 68
     0
279
    -2
289
     1
 69
     0
  7
Standard
140
6.0
170
     5
 62
     0
 63
     7
283
     0
274
    -2
284
     1
 64
     0
275
    -2
285
     1
 65
     0
276
    -2
286
     1
 66
     0
277
    -2
287
     1
 67
     0
278
    -2
288
     1
 68
     0
279
    -2
289
     1
 69
     0
  7
Standard
140
4.5
170
     5
 62
     0
 63
     7
283
     0
274
    -2
284
     1
 64
     0
275
    -2
285
     1
 65
     0
276
    -2
286
     1
 66
     0
277
    -2
287
     1
 67
     0
278
    -2
288
     1
 68
     0
279
    -2
289
     1
 69
     0
  0
DICTIONARYVAR
  5
218
102
{ACAD_REACTORS
330
5E
102
}
330
5E
100
DictionaryVariables
280
     0
  1
STANDARD
  0
DICTIONARYVAR
  5
5F
102
{ACAD_REACTORS
330
5E
102
}
330
5E
100
DictionaryVariables
280
     0
  1
2
  0
DICTIONARYVAR
  5
63
102
{ACAD_REACTORS
330
5E
102
}
330
5E
100
DictionaryVariables
280
     0
  1
1
  0
DICTIONARYVAR
  5
219
102
{ACAD_REACTORS
330
5E
102
}
330
5E
100
DictionaryVariables
280
     0
  1

  0
DICTIONARY
  5
7D6
330
22
100
AcDbDictionary
280
     1
281
     1
  3
ACAD_XREC_ROUNDTRIP
360
7D7
  0
DICTIONARY
  5
7D8
330
51
100
AcDbDictionary
280
     1
281
     1
  3
ACAD_XREC_ROUNDTRIP
360
7D9
  0
DICTIONARY
  5
7DA
330
56
100
AcDbDictionary
280
     1
281
     1
  3
ACAD_XREC_ROUNDTRIP
360
7DB
  0
XRECORD
  5
7D7
102
{ACAD_REACTORS
330
7D6
102
}
330
7D6
100
AcDbXrecord
280
     1
102
SHADEPLOT
 70
     0
102
SHADEPLOTRESLEVEL
 70
     2
102
SHADEPLOTCUSTOMDPI
 70
   300
  0
XRECORD
  5
7D9
102
{ACAD_REACTORS
330
7D8
102
}
330
7D8
100
AcDbXrecord
280
     1
102
SHADEPLOT
 70
     0
102
SHADEPLOTRESLEVEL
 70
     2
102
SHADEPLOTCUSTOMDPI
 70
   300
  0
XRECORD
  5
7DB
102
{ACAD_REACTORS
330
7DA
102
}
330
7DA
100
AcDbXrecord
280
     1
102
SHADEPLOT
 70
     0
102
SHADEPLOTRESLEVEL
 70
     2
102
SHADEPLOTCUSTOMDPI
 70
   300
  0
ENDSEC
  0
EOF
