  0
SECTION
  2
HEADER
  9
$ACADVER
  1
AC1018
  9
$ACADMAINTVER
 70
     0
  9
$DWGCODEPAGE
  3
ANSI_1252
  9
$INSBASE
 10
0.0
 20
0.0
 30
0.0
  9
$EXTMIN
 10
15.90079850574114
 20
11.59867620363783
 30
0.0
  9
$EXTMAX
 10
516.8092339779833
 20
682.6169501566498
 30
0.0
  9
$LIMMIN
 10
0.0
 20
0.0
  9
$LIMMAX
 10
12.0
 20
9.0
  9
$ORTHOMODE
 70
     0
  9
$REGENMODE
 70
     1
  9
$FILLMODE
 70
     1
  9
$QTEXTMODE
 70
     0
  9
$MIRRTEXT
 70
     0
  9
$LTSCALE
 40
1.0
  9
$ATTMODE
 70
     1
  9
$TEXTSIZE
 40
0.2
  9
$TRACEWID
 40
0.05
  9
$TEXTSTYLE
  7
Standard
  9
$CLAYER
  8
0
  9
$CELTYPE
  6
ByLayer
  9
$CECOLOR
 62
   256
  9
$CELTSCALE
 40
1.0
  9
$DISPSILH
 70
     0
  9
$DIMSCALE
 40
1.0
  9
$DIMASZ
 40
0.18
  9
$DIMEXO
 40
0.0625
  9
$DIMDLI
 40
0.38
  9
$DIMRND
 40
0.0
  9
$DIMDLE
 40
0.0
  9
$DIMEXE
 40
0.18
  9
$DIMTP
 40
0.0
  9
$DIMTM
 40
0.0
  9
$DIMTXT
 40
0.18
  9
$DIMCEN
 40
0.09
  9
$DIMTSZ
 40
0.0
  9
$DIMTOL
 70
     0
  9
$DIMLIM
 70
     0
  9
$DIMTIH
 70
     1
  9
$DIMTOH
 70
     1
  9
$DIMSE1
 70
     0
  9
$DIMSE2
 70
     0
  9
$DIMTAD
 70
     0
  9
$DIMZIN
 70
     0
  9
$DIMBLK
  1

  9
$DIMASO
 70
     1
  9
$DIMSHO
 70
     1
  9
$DIMPOST
  1

  9
$DIMAPOST
  1

  9
$DIMALT
 70
     0
  9
$DIMALTD
 70
     2
  9
$DIMALTF
 40
25.4
  9
$DIMLFAC
 40
1.0
  9
$DIMTOFL
 70
     0
  9
$DIMTVP
 40
0.0
  9
$DIMTIX
 70
     0
  9
$DIMSOXD
 70
     0
  9
$DIMSAH
 70
     0
  9
$DIMBLK1
  1

  9
$DIMBLK2
  1

  9
$DIMSTYLE
  2
Standard
  9
$DIMCLRD
 70
     0
  9
$DIMCLRE
 70
     0
  9
$DIMCLRT
 70
     0
  9
$DIMTFAC
 40
1.0
  9
$DIMGAP
 40
0.09
  9
$DIMJUST
 70
     0
  9
$DIMSD1
 70
     0
  9
$DIMSD2
 70
     0
  9
$DIMTOLJ
 70
     1
  9
$DIMTZIN
 70
     0
  9
$DIMALTZ
 70
     0
  9
$DIMALTTZ
 70
     0
  9
$DIMUPT
 70
     0
  9
$DIMDEC
 70
     4
  9
$DIMTDEC
 70
     4
  9
$DIMALTU
 70
     2
  9
$DIMALTTD
 70
     2
  9
$DIMTXSTY
  7
Standard
  9
$DIMAUNIT
 70
     0
  9
$DIMADEC
 70
     0
  9
$DIMALTRND
 40
0.0
  9
$DIMAZIN
 70
     0
  9
$DIMDSEP
 70
    46
  9
$DIMATFIT
 70
     3
  9
$DIMFRAC
 70
     0
  9
$DIMLDRBLK
  1

  9
$DIMLUNIT
 70
     2
  9
$DIMLWD
 70
    -2
  9
$DIMLWE
 70
    -2
  9
$DIMTMOVE
 70
     0
  9
$LUNITS
 70
     2
  9
$LUPREC
 70
     4
  9
$SKETCHINC
 40
0.1
  9
$FILLETRAD
 40
0.0
  9
$AUNITS
 70
     0
  9
$AUPREC
 70
     0
  9
$MENU
  1
.
  9
$ELEVATION
 40
0.0
  9
$PELEVATION
 40
0.0
  9
$THICKNESS
 40
0.0
  9
$LIMCHECK
 70
     0
  9
$CHAMFERA
 40
0.0
  9
$CHAMFERB
 40
0.0
  9
$CHAMFERC
 40
0.0
  9
$CHAMFERD
 40
0.0
  9
$SKPOLY
 70
     0
  9
$TDCREATE
 40
2454473.971755614
  9
$TDUCREATE
 40
2454473.930088947
  9
$TDUPDATE
 40
2454473.972188739
  9
$TDUUPDATE
 40
2454473.930522072
  9
$TDINDWG
 40
0.0004333102
  9
$TDUSRTIMER
 40
0.0004333102
  9
$USRTIMER
 70
     1
  9
$ANGBASE
 50
0.0
  9
$ANGDIR
 70
     0
  9
$PDMODE
 70
     0
  9
$PDSIZE
 40
0.0
  9
$PLINEWID
 40
0.0
  9
$SPLFRAME
 70
     0
  9
$SPLINETYPE
 70
     6
  9
$SPLINESEGS
 70
     8
  9
$HANDSEED
  5
115
  9
$SURFTAB1
 70
     6
  9
$SURFTAB2
 70
     6
  9
$SURFTYPE
 70
     6
  9
$SURFU
 70
     6
  9
$SURFV
 70
     6
  9
$UCSBASE
  2

  9
$UCSNAME
  2

  9
$UCSORG
 10
0.0
 20
0.0
 30
0.0
  9
$UCSXDIR
 10
1.0
 20
0.0
 30
0.0
  9
$UCSYDIR
 10
0.0
 20
1.0
 30
0.0
  9
$UCSORTHOREF
  2

  9
$UCSORTHOVIEW
 70
     0
  9
$UCSORGTOP
 10
0.0
 20
0.0
 30
0.0
  9
$UCSORGBOTTOM
 10
0.0
 20
0.0
 30
0.0
  9
$UCSORGLEFT
 10
0.0
 20
0.0
 30
0.0
  9
$UCSORGRIGHT
 10
0.0
 20
0.0
 30
0.0
  9
$UCSORGFRONT
 10
0.0
 20
0.0
 30
0.0
  9
$UCSORGBACK
 10
0.0
 20
0.0
 30
0.0
  9
$PUCSBASE
  2

  9
$PUCSNAME
  2

  9
$PUCSORG
 10
0.0
 20
0.0
 30
0.0
  9
$PUCSXDIR
 10
1.0
 20
0.0
 30
0.0
  9
$PUCSYDIR
 10
0.0
 20
1.0
 30
0.0
  9
$PUCSORTHOREF
  2

  9
$PUCSORTHOVIEW
 70
     0
  9
$PUCSORGTOP
 10
0.0
 20
0.0
 30
0.0
  9
$PUCSORGBOTTOM
 10
0.0
 20
0.0
 30
0.0
  9
$PUCSORGLEFT
 10
0.0
 20
0.0
 30
0.0
  9
$PUCSORGRIGHT
 10
0.0
 20
0.0
 30
0.0
  9
$PUCSORGFRONT
 10
0.0
 20
0.0
 30
0.0
  9
$PUCSORGBACK
 10
0.0
 20
0.0
 30
0.0
  9
$USERI1
 70
     0
  9
$USERI2
 70
     0
  9
$USERI3
 70
     0
  9
$USERI4
 70
     0
  9
$USERI5
 70
     0
  9
$USERR1
 40
0.0
  9
$USERR2
 40
0.0
  9
$USERR3
 40
0.0
  9
$USERR4
 40
0.0
  9
$USERR5
 40
0.0
  9
$WORLDVIEW
 70
     1
  9
$SHADEDGE
 70
     3
  9
$SHADEDIF
 70
    70
  9
$TILEMODE
 70
     1
  9
$MAXACTVP
 70
    64
  9
$PINSBASE
 10
0.0
 20
0.0
 30
0.0
  9
$PLIMCHECK
 70
     0
  9
$PEXTMIN
 10
0.0
 20
0.0
 30
0.0
  9
$PEXTMAX
 10
0.0
 20
0.0
 30
0.0
  9
$PLIMMIN
 10
0.0
 20
0.0
  9
$PLIMMAX
 10
12.0
 20
9.0
  9
$UNITMODE
 70
     0
  9
$VISRETAIN
 70
     1
  9
$PLINEGEN
 70
     0
  9
$PSLTSCALE
 70
     1
  9
$TREEDEPTH
 70
  3020
  9
$CMLSTYLE
  2
Standard
  9
$CMLJUST
 70
     0
  9
$CMLSCALE
 40
1.0
  9
$PROXYGRAPHICS
 70
     1
  9
$MEASUREMENT
 70
     0
  9
$CELWEIGHT
370
    -1
  9
$ENDCAPS
280
     0
  9
$JOINSTYLE
280
     0
  9
$LWDISPLAY
290
     0
  9
$INSUNITS
 70
     1
  9
$HYPERLINKBASE
  1

  9
$STYLESHEET
  1

  9
$XEDIT
290
     1
  9
$CEPSNTYPE
380
     0
  9
$PSTYLEMODE
290
     1
  9
$FINGERPRINTGUID
  2
{FDEAD576-A652-11D2-9A35-0060089B3A3F}
  9
$VERSIONGUID
  2
{BB373981-0578-415D-8A68-90D149BDE0FD}
  9
$EXTNAMES
290
     1
  9
$PSVPSCALE
 40
0.0
  9
$OLESTARTUP
290
     0
  9
$SORTENTS
280
   127
  9
$INDEXCTL
280
     0
  9
$HIDETEXT
280
     1
  9
$XCLIPFRAME
290
     0
  9
$HALOGAP
280
     0
  9
$OBSCOLOR
 70
   257
  9
$OBSLTYPE
280
     0
  9
$INTERSECTIONDISPLAY
280
     0
  9
$INTERSECTIONCOLOR
 70
   257
  9
$DIMASSOC
280
     2
  9
$PROJECTNAME
  1

  0
ENDSEC
  0
SECTION
  2
CLASSES
  0
CLASS
  1
ACDBDICTIONARYWDFLT
  2
AcDbDictionaryWithDefault
  3
ObjectDBX Classes
 90
        0
 91
        1
280
     0
281
     0
  0
CLASS
  1
DICTIONARYVAR
  2
AcDbDictionaryVar
  3
ObjectDBX Classes
 90
        0
 91
        2
280
     0
281
     0
  0
ENDSEC
  0
SECTION
  2
TABLES
  0
TABLE
  2
VPORT
  5
8
330
0
100
AcDbSymbolTable
 70
     3
  0
VPORT
  5
114
330
8
100
AcDbSymbolTableRecord
100
AcDbViewportTableRecord
  2
*Active
 70
     0
 10
0.0
 20
0.0
 11
1.0
 21
1.0
 12
334.1395136221692
 22
338.6729799528873
 13
0.0
 23
0.0
 14
0.5
 24
0.5
 15
0.5
 25
0.5
 16
0.0
 26
0.0
 36
1.0
 17
0.0
 27
0.0
 37
0.0
 40
1100.508946636301
 41
1.809523809523809
 42
50.0
 43
0.0
 44
0.0
 50
0.0
 51
0.0
 71
     0
 72
  1000
 73
     1
 74
     3
 75
     0
 76
     0
 77
     0
 78
     0
281
     0
 65
     1
110
0.0
120
0.0
130
0.0
111
1.0
121
0.0
131
0.0
112
0.0
122
1.0
132
0.0
 79
     0
146
0.0
  0
ENDTAB
  0
TABLE
  2
LTYPE
  5
5
330
0
100
AcDbSymbolTable
 70
     1
  0
LTYPE
  5
14
330
5
100
AcDbSymbolTableRecord
100
AcDbLinetypeTableRecord
  2
ByBlock
 70
     0
  3

 72
    65
 73
     0
 40
0.0
  0
LTYPE
  5
15
330
5
100
AcDbSymbolTableRecord
100
AcDbLinetypeTableRecord
  2
ByLayer
 70
     0
  3

 72
    65
 73
     0
 40
0.0
  0
LTYPE
  5
16
330
5
100
AcDbSymbolTableRecord
100
AcDbLinetypeTableRecord
  2
Continuous
 70
     0
  3
Solid line
 72
    65
 73
     0
 40
0.0
  0
ENDTAB
  0
TABLE
  2
LAYER
  5
2
330
0
100
AcDbSymbolTable
 70
     1
  0
LAYER
  5
10
330
2
100
AcDbSymbolTableRecord
100
AcDbLayerTableRecord
  2
0
 70
     0
 62
     7
  6
Continuous
370
    -3
390
F
  0
ENDTAB
  0
TABLE
  2
STYLE
  5
3
330
0
100
AcDbSymbolTable
 70
     1
  0
STYLE
  5
11
330
3
100
AcDbSymbolTableRecord
100
AcDbTextStyleTableRecord
  2
Standard
 70
     0
 40
0.0
 41
1.0
 50
0.0
 71
     0
 42
0.2
  3
txt
  4

  0
ENDTAB
  0
TABLE
  2
VIEW
  5
6
330
0
100
AcDbSymbolTable
 70
     0
  0
ENDTAB
  0
TABLE
  2
UCS
  5
7
330
0
100
AcDbSymbolTable
 70
     0
  0
ENDTAB
  0
TABLE
  2
APPID
  5
9
330
0
100
AcDbSymbolTable
 70
     2
  0
APPID
  5
12
330
9
100
AcDbSymbolTableRecord
100
AcDbRegAppTableRecord
  2
ACAD
 70
     0
  0
APPID
  5
94
330
9
100
AcDbSymbolTableRecord
100
AcDbRegAppTableRecord
  2
ACAD_PSEXT
 70
     0
  0
ENDTAB
  0
TABLE
  2
DIMSTYLE
  5
A
330
0
100
AcDbSymbolTable
 70
     2
100
AcDbDimStyleTable
 71
     0
  0
DIMSTYLE
105
27
330
A
100
AcDbSymbolTableRecord
100
AcDbDimStyleTableRecord
  2
Standard
 70
     0
340
11
  0
DIMSTYLE
105
93
330
A
100
AcDbSymbolTableRecord
100
AcDbDimStyleTableRecord
  2
ISO-25
 70
     0
 41
2.5
 42
0.625
 43
3.75
 44
1.25
 73
     0
 74
     0
 77
     1
 78
     8
140
2.5
141
2.5
143
0.03937007874016
147
0.625
171
     3
172
     1
271
     2
272
     2
274
     3
278
    44
283
     0
284
     8
340
11
  0
ENDTAB
  0
TABLE
  2
BLOCK_RECORD
  5
1
330
0
100
AcDbSymbolTable
 70
     3
  0
BLOCK_RECORD
  5
1F
330
1
100
AcDbSymbolTableRecord
100
AcDbBlockTableRecord
  2
*Model_Space
340
22
  0
BLOCK_RECORD
  5
58
330
1
100
AcDbSymbolTableRecord
100
AcDbBlockTableRecord
  2
*Paper_Space
340
59
  0
BLOCK_RECORD
  5
5D
330
1
100
AcDbSymbolTableRecord
100
AcDbBlockTableRecord
  2
*Paper_Space0
340
5E
  0
BLOCK_RECORD
  5
E9
330
1
100
AcDbSymbolTableRecord
100
AcDbBlockTableRecord
  2
29701_A
340
0
102
{BLKREFS
331
112
102
}
1001
ACAD
1000
DesignCenter Data
1002
{
1070
     1
1070
     4
1002
}
  0
ENDTAB
  0
ENDSEC
  0
SECTION
  2
BLOCKS
  0
BLOCK
  5
20
330
1F
100
AcDbEntity
  8
0
100
AcDbBlockBegin
  2
*Model_Space
 70
     0
 10
0.0
 20
0.0
 30
0.0
  3
*Model_Space
  1

  0
ENDBLK
  5
21
330
1F
100
AcDbEntity
  8
0
100
AcDbBlockEnd
  0
BLOCK
  5
5A
330
58
100
AcDbEntity
 67
     1
  8
0
100
AcDbBlockBegin
  2
*Paper_Space
 70
     0
 10
0.0
 20
0.0
 30
0.0
  3
*Paper_Space
  1

  0
ENDBLK
  5
5B
330
58
100
AcDbEntity
 67
     1
  8
0
100
AcDbBlockEnd
  0
BLOCK
  5
5F
330
5D
100
AcDbEntity
  8
0
100
AcDbBlockBegin
  2
*Paper_Space0
 70
     0
 10
0.0
 20
0.0
 30
0.0
  3
*Paper_Space0
  1

  0
ENDBLK
  5
60
330
5D
100
AcDbEntity
  8
0
100
AcDbBlockEnd
  0
BLOCK
  5
EA
330
E9
100
AcDbEntity
  8
0
100
AcDbBlockBegin
  2
29701_A
 70
     0
 10
0.0
 20
0.0
 30
0.0
  3
29701_A
  1

  0
ARC
  5
EC
330
E9
100
AcDbEntity
  8
0
100
AcDbCircle
 10
145.7584411542284
 20
-45.08617430479716
 30
0.0
 40
4.0
100
AcDbArc
 50
270.0
 51
346.8355483047187
  0
ARC
  5
ED
330
E9
100
AcDbEntity
  8
0
100
AcDbCircle
 10
149.3124529181004
 20
-8.0
 30
0.0
 40
8.0
100
AcDbArc
 50
349.8939604416332
 51
90.0
  0
LINE
  5
EE
330
E9
100
AcDbEntity
  8
0
100
AcDbLine
 10
145.7584411542284
 20
-49.08617430479717
 30
0.0
 11
0.0
 21
-49.08617430479717
 31
0.0
  0
ARC
  5
EF
330
E9
100
AcDbEntity
  8
0
100
AcDbCircle
 10
138.8674763546259
 20
-72.09701595662955
 30
0.0
 40
4.0
100
AcDbArc
 50
344.5406007500023
 51
90.0
  0
ARC
  5
F0
330
E9
100
AcDbEntity
  8
0
100
AcDbCircle
 10
-497.8145886906004
 20
54.68807240104161
 30
0.0
 40
619.9823590865218
100
AcDbArc
 50
344.2022183764172
 51
347.4814943365306
  0
ARC
  5
F1
330
E9
100
AcDbEntity
  8
0
100
AcDbCircle
 10
-509.9887531049389
 20
11.28135557554196
 30
0.0
 40
619.9823590865557
100
AcDbArc
 50
346.8602627783829
 51
347.8391914229669
  0
LINE
  5
F2
330
E9
100
AcDbEntity
  8
0
100
AcDbLine
 10
97.53959052258323
 20
-68.09701595662954
 30
0.0
 11
96.49800264569421
 21
-68.09701595662954
 31
0.0
  0
LINE
  5
F3
330
E9
100
AcDbEntity
  8
0
100
AcDbLine
 10
0.0
 20
-107.7226118321914
 30
0.0
 11
78.13377416098228
 21
-107.7226118321905
 31
0.0
  0
ELLIPSE
  5
F4
330
E9
100
AcDbEntity
  8
0
100
AcDbEllipse
 10
78.13377416098228
 20
-118.0309332483202
 30
0.0
 11
-18.0899510580371
 21
0.0000000000003425
 31
0.0
210
0.0
220
0.0
230
1.0
 40
0.5698368880633006
 41
3.016041524047194
 42
4.7123889803847
  0
ELLIPSE
  5
F5
330
E9
100
AcDbEntity
  8
0
100
AcDbEllipse
 10
89.48077896232826
 20
-78.40533737275928
 30
0.0
 11
-18.0899510580371
 21
0.0000000000003425
 31
0.0
210
0.0
220
0.0
230
1.0
 40
0.5698368880633006
 41
3.016041524047194
 42
4.7123889803847
  0
LINE
  5
F6
330
E9
100
AcDbEntity
  8
0
100
AcDbLine
 10
138.8674763546259
 20
-68.09701595662954
 30
0.0
 11
89.48077896232826
 21
-68.09701595662954
 31
0.0
  0
ARC
  5
F7
330
E9
100
AcDbEntity
  8
0
100
AcDbCircle
 10
-531.9509519162111
 20
113.4255872275726
 30
0.0
 40
700.0
100
AcDbArc
 50
339.3758691360537
 51
349.8939604416332
  0
ARC
  5
F8
330
E9
100
AcDbEntity
  8
0
100
AcDbCircle
 10
-149.3124529181004
 20
-8.0
 30
0.0
 40
8.0
100
AcDbArc
 50
90.0
 51
183.1476287097499
  0
ARC
  5
F9
330
E9
100
AcDbEntity
  8
0
100
AcDbCircle
 10
-145.7584411542284
 20
-45.08617430479716
 30
0.0
 40
4.0
100
AcDbArc
 50
193.1644516952813
 51
270.0
  0
ARC
  5
FA
330
E9
100
AcDbEntity
  8
0
100
AcDbCircle
 10
497.8145886906022
 20
54.68807240104161
 30
0.0
 40
619.9823590865245
100
AcDbArc
 50
192.5732019909373
 51
195.7977816235828
  0
ARC
  5
FB
330
E9
100
AcDbEntity
  8
0
100
AcDbCircle
 10
509.988745891189
 20
11.28138228063108
 30
0.0
 40
619.9823590865557
100
AcDbArc
 50
192.1608115773301
 51
193.1397402218836
  0
ELLIPSE
  5
FC
330
E9
100
AcDbEntity
  8
0
100
AcDbEllipse
 10
-78.13377460341141
 20
-118.0309373397231
 30
0.0
 11
18.08995105803715
 21
0.0000009472640425
 31
0.0
210
0.0
220
0.0
230
-1.0
 40
0.5698368880632989
 41
3.016041524047208
 42
4.712388980384688
  0
ELLIPSE
  5
FD
330
E9
100
AcDbEntity
  8
0
100
AcDbEllipse
 10
-89.48077896232822
 20
-78.40533737275928
 30
0.0
 11
18.0899510580371
 21
0.0000000000003425
 31
0.0
210
0.0
220
0.0
230
-1.0
 40
0.5698368880633006
 41
3.016041524047194
 42
4.7123889803847
  0
ARC
  5
FE
330
E9
100
AcDbEntity
  8
0
100
AcDbCircle
 10
-136.2660524315288
 20
-72.09701595662955
 30
0.0
 40
4.0
100
AcDbArc
 50
90.0
 51
192.6729695918445
  0
LINE
  5
FF
330
E9
100
AcDbEntity
  8
0
100
AcDbLine
 10
-89.48077896232822
 20
-68.09701595662954
 30
0.0
 11
-136.2660524315288
 21
-68.09701595662954
 31
0.0
  0
ARC
  5
100
330
E9
100
AcDbEntity
  8
0
100
AcDbCircle
 10
531.9509519162111
 20
113.4255872275726
 30
0.0
 40
700.0
100
AcDbArc
 50
190.0661342848267
 51
200.6241308639463
  0
LINE
  5
101
330
E9
100
AcDbEntity
  8
0
100
AcDbLine
 10
0.0
 20
-49.08617430479717
 30
0.0
 11
-145.7584411542284
 21
-49.08617430479717
 31
0.0
  0
LINE
  5
102
330
E9
100
AcDbEntity
  8
0
100
AcDbLine
 10
0.0
 20
-107.7226118321914
 30
0.0
 11
-78.13377514319651
 21
-107.7226118321914
 31
0.0
  0
LINE
  5
103
330
E9
100
AcDbEntity
  8
0
100
AcDbLine
 10
149.3124529181004
 20
0.0
 30
0.0
 11
-149.3124529181004
 21
0.0
 31
0.0
  0
ARC
  5
104
330
E9
100
AcDbEntity
  8
0
100
AcDbCircle
 10
0.0
 20
-123.1810174761585
 30
0.0
 40
85.0000000000192
100
AcDbArc
 50
270.0
 51
321.348614676739
  0
ARC
  5
105
330
E9
100
AcDbEntity
  8
0
100
AcDbCircle
 10
0.0
 20
-109.1201059380582
 30
0.0
 40
120.0000000000017
100
AcDbArc
 50
270.0
 51
320.1749480106066
  0
ARC
  5
106
330
E9
100
AcDbEntity
  8
0
100
AcDbCircle
 10
0.0
 20
-109.1201059380582
 30
0.0
 40
120.0
100
AcDbArc
 50
219.8250519895622
 51
270.0
  0
ARC
  5
107
330
E9
100
AcDbEntity
  8
0
100
AcDbCircle
 10
0.0
 20
-123.1810174761585
 30
0.0
 40
85.00000000001948
100
AcDbArc
 50
218.651385323261
 51
270.0
  0
ARC
  5
108
330
E9
100
AcDbEntity
  8
0
100
AcDbCircle
 10
-55.90611227989936
 20
-73.09232626585799
 30
0.0
 40
159.9999999999996
100
AcDbArc
 50
319.8446273086775
 51
345.1503134660455
  0
ARC
  5
109
330
E9
100
AcDbEntity
  8
0
100
AcDbCircle
 10
-45.27709149979997
 20
-69.73705521725787
 30
0.0
 40
180.0000000000919
100
AcDbArc
 50
319.7774358781308
 51
339.3758691360537
  0
ARC
  5
10A
330
E9
100
AcDbEntity
  8
0
100
AcDbCircle
 10
55.90611227989938
 20
-73.09232626585799
 30
0.0
 40
160.0
100
AcDbArc
 50
194.8496865339544
 51
220.1553726913225
  0
ARC
  5
10B
330
E9
100
AcDbEntity
  8
0
100
AcDbCircle
 10
45.2770914998
 20
-69.73705521725787
 30
0.0
 40
180.0000000000139
100
AcDbArc
 50
200.6241308639463
 51
220.2225641218692
  0
ARC
  5
10C
330
E9
100
AcDbEntity
  8
0
100
AcDbCircle
 10
3836.665099350529
 20
211.1961514502263
 30
0.0
 40
4000.0
100
AcDbArc
 50
183.1476287097499
 51
188.0175459935705
  0
ARC
  5
10D
330
E9
100
AcDbEntity
  8
0
100
AcDbCircle
 10
86.69304764789194
 20
-515.0
 30
0.0
 40
10.0
100
AcDbArc
 50
270.0
 51
349.5134882572132
  0
ARC
  5
10E
330
E9
100
AcDbEntity
  8
0
100
AcDbCircle
 10
-86.69304764789192
 20
-515.0
 30
0.0
 40
10.0
100
AcDbArc
 50
190.4865117426807
 51
270.0
  0
LINE
  5
10F
330
E9
100
AcDbEntity
  8
0
100
AcDbLine
 10
86.69304764789377
 20
-525.0
 30
0.0
 11
-85.20384430320879
 21
-525.0
 31
0.0
  0
ARC
  5
110
330
E9
100
AcDbEntity
  8
0
100
AcDbCircle
 10
-3836.665099350528
 20
211.1961514502263
 30
0.0
 40
4000.0
100
AcDbArc
 50
349.5134882572132
 51
356.85237129025
  0
ARC
  5
111
330
E9
100
AcDbEntity
  8
0
100
AcDbCircle
 10
3836.665099350529
 20
211.1961514502263
 30
0.0
 40
4000.0
100
AcDbArc
 50
188.0272274207253
 51
190.4865117427867
  0
ENDBLK
  5
EB
330
E9
100
AcDbEntity
  8
0
100
AcDbBlockEnd
  0
ENDSEC
  0
SECTION
  2
ENTITIES
  0
MTEXT
  5
E8
330
1F
100
AcDbEntity
  8
0
100
AcDbMText
 10
16.21802994049241
 20
64.37445125771137
 30
0.0
 40
40.0
 41
553.2660026333596
 71
     1
 72
     5
  1
{\fTimes New Roman|b0|i0|c0|p18;\C0;URINARIO MINOR}
 73
     1
 44
1.0
  0
INSERT
  5
112
330
1F
100
AcDbEntity
  8
0
100
AcDbBlockReference
  2
29701_A
 10
265.9324581931325
 20
680.778440467579
 30
0.0
  0
ENDSEC
  0
SECTION
  2
OBJECTS
  0
DICTIONARY
  5
C
330
0
100
AcDbDictionary
281
     1
  3
ACAD_COLOR
350
73
  3
ACAD_GROUP
350
D
  3
ACAD_LAYOUT
350
1A
  3
ACAD_MATERIAL
350
72
  3
ACAD_MLINESTYLE
350
17
  3
ACAD_PLOTSETTINGS
350
19
  3
ACAD_PLOTSTYLENAME
350
E
  3
AcDbVariableDictionary
350
66
  0
DICTIONARY
  5
73
102
{ACAD_REACTORS
330
C
102
}
330
C
100
AcDbDictionary
281
     1
  0
DICTIONARY
  5
D
102
{ACAD_REACTORS
330
C
102
}
330
C
100
AcDbDictionary
281
     1
  0
DICTIONARY
  5
1A
102
{ACAD_REACTORS
330
C
102
}
330
C
100
AcDbDictionary
281
     1
  3
Model
350
22
  3
Presentación1
350
59
  3
Presentación2
350
5E
  0
DICTIONARY
  5
72
102
{ACAD_REACTORS
330
C
102
}
330
C
100
AcDbDictionary
281
     1
  0
DICTIONARY
  5
17
102
{ACAD_REACTORS
330
C
102
}
330
C
100
AcDbDictionary
281
     1
  3
Standard
350
18
  0
DICTIONARY
  5
19
102
{ACAD_REACTORS
330
C
102
}
330
C
100
AcDbDictionary
281
     1
  0
ACDBDICTIONARYWDFLT
  5
E
102
{ACAD_REACTORS
330
C
102
}
330
C
100
AcDbDictionary
281
     1
  3
Normal
350
F
100
AcDbDictionaryWithDefault
340
F
  0
DICTIONARY
  5
66
102
{ACAD_REACTORS
330
C
102
}
330
C
100
AcDbDictionary
281
     1
  3
DIMASSOC
350
67
  3
HIDETEXT
350
6B
  0
LAYOUT
  5
22
102
{ACAD_REACTORS
330
1A
102
}
330
1A
100
AcDbPlotSettings
  1

  2
none_device
  4
ANSI_A_(8.50_x_11.00_Inches)
  6

 40
6.349999904632567
 41
19.04999923706055
 42
6.350006103515625
 43
19.04998779296875
 44
215.8999938964844
 45
279.3999938964844
 46
0.0
 47
0.0
 48
0.0
 49
0.0
140
0.0
141
0.0
142
1.0
143
2.584895464708373
 70
 11952
 72
     0
 73
     1
 74
     0
  7

 75
     0
147
0.3868628397755418
 76
     0
 77
     2
 78
   300
148
0.0
149
0.0
100
AcDbLayout
  1
Model
 70
     1
 71
     0
 10
0.0
 20
0.0
 11
12.0
 21
9.0
 12
0.0
 22
0.0
 32
0.0
 14
0.0
 24
0.0
 34
0.0
 15
0.0
 25
0.0
 35
0.0
146
0.0
 13
0.0
 23
0.0
 33
0.0
 16
1.0
 26
0.0
 36
0.0
 17
0.0
 27
1.0
 37
0.0
 76
     0
330
1F
  0
LAYOUT
  5
59
102
{ACAD_REACTORS
330
1A
102
}
330
1A
100
AcDbPlotSettings
  1

  2
None
  4

  6

 40
0.0
 41
0.0
 42
0.0
 43
0.0
 44
0.0
 45
0.0
 46
0.0
 47
0.0
 48
0.0
 49
0.0
140
0.0
141
0.0
142
1.0
143
1.0
 70
   688
 72
     0
 73
     0
 74
     5
  7

 75
    16
147
1.0
 76
     0
 77
     2
 78
   300
148
0.0
149
0.0
100
AcDbLayout
  1
Presentación1
 70
     1
 71
     1
 10
0.0
 20
0.0
 11
12.0
 21
9.0
 12
0.0
 22
0.0
 32
0.0
 14
0.0
 24
0.0
 34
0.0
 15
0.0
 25
0.0
 35
0.0
146
0.0
 13
0.0
 23
0.0
 33
0.0
 16
1.0
 26
0.0
 36
0.0
 17
0.0
 27
1.0
 37
0.0
 76
     0
330
58
  0
LAYOUT
  5
5E
102
{ACAD_REACTORS
330
1A
102
}
330
1A
100
AcDbPlotSettings
  1

  2
None
  4

  6

 40
0.0
 41
0.0
 42
0.0
 43
0.0
 44
0.0
 45
0.0
 46
0.0
 47
0.0
 48
0.0
 49
0.0
140
0.0
141
0.0
142
1.0
143
1.0
 70
   688
 72
     0
 73
     0
 74
     5
  7

 75
    16
147
1.0
 76
     0
 77
     2
 78
   300
148
0.0
149
0.0
100
AcDbLayout
  1
Presentación2
 70
     1
 71
     2
 10
0.0
 20
0.0
 11
12.0
 21
9.0
 12
0.0
 22
0.0
 32
0.0
 14
0.0
 24
0.0
 34
0.0
 15
0.0
 25
0.0
 35
0.0
146
0.0
 13
0.0
 23
0.0
 33
0.0
 16
1.0
 26
0.0
 36
0.0
 17
0.0
 27
1.0
 37
0.0
 76
     0
330
5D
  0
MLINESTYLE
  5
18
102
{ACAD_REACTORS
330
17
102
}
330
17
100
AcDbMlineStyle
  2
STANDARD
 70
     0
  3

 62
   256
 51
90.0
 52
90.0
 71
     2
 49
0.5
 62
   256
  6
BYLAYER
 49
-0.5
 62
   256
  6
BYLAYER
  0
ACDBPLACEHOLDER
  5
F
102
{ACAD_REACTORS
330
E
102
}
330
E
  0
DICTIONARYVAR
  5
67
102
{ACAD_REACTORS
330
66
102
}
330
66
100
DictionaryVariables
280
     0
  1
2
  0
DICTIONARYVAR
  5
6B
102
{ACAD_REACTORS
330
66
102
}
330
66
100
DictionaryVariables
280
     0
  1
1
  0
ENDSEC
  0
EOF
