  0
SECTION
  2
HEADER
  9
$ACADVER
  1
AC1018
  9
$ACADMAINTVER
 70
     0
  9
$DWGCODEPAGE
  3
ANSI_1252
  9
$INSBASE
 10
0.0
 20
0.0
 30
0.0
  9
$EXTMIN
 10
16.96575536854776
 20
11.26278033758794
 30
0.0
  9
$EXTMAX
 10
966.9103498974148
 20
663.4871662245918
 30
0.0
  9
$LIMMIN
 10
0.0
 20
0.0
  9
$LIMMAX
 10
12.0
 20
9.0
  9
$ORTHOMODE
 70
     0
  9
$REGENMODE
 70
     1
  9
$FILLMODE
 70
     1
  9
$QTEXTMODE
 70
     0
  9
$MIRRTEXT
 70
     0
  9
$LTSCALE
 40
1.0
  9
$ATTMODE
 70
     1
  9
$TEXTSIZE
 40
0.2
  9
$TRACEWID
 40
0.05
  9
$TEXTSTYLE
  7
Standard
  9
$CLAYER
  8
0
  9
$CELTYPE
  6
ByLayer
  9
$CECOLOR
 62
   256
  9
$CELTSCALE
 40
1.0
  9
$DISPSILH
 70
     0
  9
$DIMSCALE
 40
1.0
  9
$DIMASZ
 40
0.18
  9
$DIMEXO
 40
0.0625
  9
$DIMDLI
 40
0.38
  9
$DIMRND
 40
0.0
  9
$DIMDLE
 40
0.0
  9
$DIMEXE
 40
0.18
  9
$DIMTP
 40
0.0
  9
$DIMTM
 40
0.0
  9
$DIMTXT
 40
0.18
  9
$DIMCEN
 40
0.09
  9
$DIMTSZ
 40
0.0
  9
$DIMTOL
 70
     0
  9
$DIMLIM
 70
     0
  9
$DIMTIH
 70
     1
  9
$DIMTOH
 70
     1
  9
$DIMSE1
 70
     0
  9
$DIMSE2
 70
     0
  9
$DIMTAD
 70
     0
  9
$DIMZIN
 70
     0
  9
$DIMBLK
  1

  9
$DIMASO
 70
     1
  9
$DIMSHO
 70
     1
  9
$DIMPOST
  1

  9
$DIMAPOST
  1

  9
$DIMALT
 70
     0
  9
$DIMALTD
 70
     2
  9
$DIMALTF
 40
25.4
  9
$DIMLFAC
 40
1.0
  9
$DIMTOFL
 70
     0
  9
$DIMTVP
 40
0.0
  9
$DIMTIX
 70
     0
  9
$DIMSOXD
 70
     0
  9
$DIMSAH
 70
     0
  9
$DIMBLK1
  1

  9
$DIMBLK2
  1

  9
$DIMSTYLE
  2
Standard
  9
$DIMCLRD
 70
     0
  9
$DIMCLRE
 70
     0
  9
$DIMCLRT
 70
     0
  9
$DIMTFAC
 40
1.0
  9
$DIMGAP
 40
0.09
  9
$DIMJUST
 70
     0
  9
$DIMSD1
 70
     0
  9
$DIMSD2
 70
     0
  9
$DIMTOLJ
 70
     1
  9
$DIMTZIN
 70
     0
  9
$DIMALTZ
 70
     0
  9
$DIMALTTZ
 70
     0
  9
$DIMUPT
 70
     0
  9
$DIMDEC
 70
     4
  9
$DIMTDEC
 70
     4
  9
$DIMALTU
 70
     2
  9
$DIMALTTD
 70
     2
  9
$DIMTXSTY
  7
Standard
  9
$DIMAUNIT
 70
     0
  9
$DIMADEC
 70
     0
  9
$DIMALTRND
 40
0.0
  9
$DIMAZIN
 70
     0
  9
$DIMDSEP
 70
    46
  9
$DIMATFIT
 70
     3
  9
$DIMFRAC
 70
     0
  9
$DIMLDRBLK
  1

  9
$DIMLUNIT
 70
     2
  9
$DIMLWD
 70
    -2
  9
$DIMLWE
 70
    -2
  9
$DIMTMOVE
 70
     0
  9
$LUNITS
 70
     2
  9
$LUPREC
 70
     4
  9
$SKETCHINC
 40
0.1
  9
$FILLETRAD
 40
0.0
  9
$AUNITS
 70
     0
  9
$AUPREC
 70
     0
  9
$MENU
  1
.
  9
$ELEVATION
 40
0.0
  9
$PELEVATION
 40
0.0
  9
$THICKNESS
 40
0.0
  9
$LIMCHECK
 70
     0
  9
$CHAMFERA
 40
0.0
  9
$CHAMFERB
 40
0.0
  9
$CHAMFERC
 40
0.0
  9
$CHAMFERD
 40
0.0
  9
$SKPOLY
 70
     0
  9
$TDCREATE
 40
2454471.825721933
  9
$TDUCREATE
 40
2454471.784055266
  9
$TDUPDATE
 40
2454500.611386516
  9
$TDUUPDATE
 40
2454500.569719850
  9
$TDINDWG
 40
0.0029738079
  9
$TDUSRTIMER
 40
0.0029736227
  9
$USRTIMER
 70
     1
  9
$ANGBASE
 50
0.0
  9
$ANGDIR
 70
     0
  9
$PDMODE
 70
     0
  9
$PDSIZE
 40
0.0
  9
$PLINEWID
 40
0.0
  9
$SPLFRAME
 70
     0
  9
$SPLINETYPE
 70
     6
  9
$SPLINESEGS
 70
     8
  9
$HANDSEED
  5
212
  9
$SURFTAB1
 70
     6
  9
$SURFTAB2
 70
     6
  9
$SURFTYPE
 70
     6
  9
$SURFU
 70
     6
  9
$SURFV
 70
     6
  9
$UCSBASE
  2

  9
$UCSNAME
  2

  9
$UCSORG
 10
0.0
 20
0.0
 30
0.0
  9
$UCSXDIR
 10
1.0
 20
0.0
 30
0.0
  9
$UCSYDIR
 10
0.0
 20
1.0
 30
0.0
  9
$UCSORTHOREF
  2

  9
$UCSORTHOVIEW
 70
     0
  9
$UCSORGTOP
 10
0.0
 20
0.0
 30
0.0
  9
$UCSORGBOTTOM
 10
0.0
 20
0.0
 30
0.0
  9
$UCSORGLEFT
 10
0.0
 20
0.0
 30
0.0
  9
$UCSORGRIGHT
 10
0.0
 20
0.0
 30
0.0
  9
$UCSORGFRONT
 10
0.0
 20
0.0
 30
0.0
  9
$UCSORGBACK
 10
0.0
 20
0.0
 30
0.0
  9
$PUCSBASE
  2

  9
$PUCSNAME
  2

  9
$PUCSORG
 10
0.0
 20
0.0
 30
0.0
  9
$PUCSXDIR
 10
1.0
 20
0.0
 30
0.0
  9
$PUCSYDIR
 10
0.0
 20
1.0
 30
0.0
  9
$PUCSORTHOREF
  2

  9
$PUCSORTHOVIEW
 70
     0
  9
$PUCSORGTOP
 10
0.0
 20
0.0
 30
0.0
  9
$PUCSORGBOTTOM
 10
0.0
 20
0.0
 30
0.0
  9
$PUCSORGLEFT
 10
0.0
 20
0.0
 30
0.0
  9
$PUCSORGRIGHT
 10
0.0
 20
0.0
 30
0.0
  9
$PUCSORGFRONT
 10
0.0
 20
0.0
 30
0.0
  9
$PUCSORGBACK
 10
0.0
 20
0.0
 30
0.0
  9
$USERI1
 70
     0
  9
$USERI2
 70
     0
  9
$USERI3
 70
     0
  9
$USERI4
 70
     0
  9
$USERI5
 70
     0
  9
$USERR1
 40
0.0
  9
$USERR2
 40
0.0
  9
$USERR3
 40
0.0
  9
$USERR4
 40
0.0
  9
$USERR5
 40
0.0
  9
$WORLDVIEW
 70
     1
  9
$SHADEDGE
 70
     3
  9
$SHADEDIF
 70
    70
  9
$TILEMODE
 70
     1
  9
$MAXACTVP
 70
    64
  9
$PINSBASE
 10
0.0
 20
0.0
 30
0.0
  9
$PLIMCHECK
 70
     0
  9
$PEXTMIN
 10
0.0
 20
0.0
 30
0.0
  9
$PEXTMAX
 10
0.0
 20
0.0
 30
0.0
  9
$PLIMMIN
 10
0.0
 20
0.0
  9
$PLIMMAX
 10
12.0
 20
9.0
  9
$UNITMODE
 70
     0
  9
$VISRETAIN
 70
     1
  9
$PLINEGEN
 70
     0
  9
$PSLTSCALE
 70
     1
  9
$TREEDEPTH
 70
  3020
  9
$CMLSTYLE
  2
Standard
  9
$CMLJUST
 70
     0
  9
$CMLSCALE
 40
1.0
  9
$PROXYGRAPHICS
 70
     1
  9
$MEASUREMENT
 70
     0
  9
$CELWEIGHT
370
    -1
  9
$ENDCAPS
280
     0
  9
$JOINSTYLE
280
     0
  9
$LWDISPLAY
290
     0
  9
$INSUNITS
 70
     1
  9
$HYPERLINKBASE
  1

  9
$STYLESHEET
  1

  9
$XEDIT
290
     1
  9
$CEPSNTYPE
380
     0
  9
$PSTYLEMODE
290
     1
  9
$FINGERPRINTGUID
  2
{FDEAD576-A652-11D2-9A35-0060089B3A3F}
  9
$VERSIONGUID
  2
{915BBAEF-D2F5-48E8-83E4-2C863C122937}
  9
$EXTNAMES
290
     1
  9
$PSVPSCALE
 40
0.0
  9
$OLESTARTUP
290
     0
  9
$SORTENTS
280
   127
  9
$INDEXCTL
280
     0
  9
$HIDETEXT
280
     1
  9
$XCLIPFRAME
290
     0
  9
$HALOGAP
280
     0
  9
$OBSCOLOR
 70
   257
  9
$OBSLTYPE
280
     0
  9
$INTERSECTIONDISPLAY
280
     0
  9
$INTERSECTIONCOLOR
 70
   257
  9
$DIMASSOC
280
     2
  9
$PROJECTNAME
  1

  0
ENDSEC
  0
SECTION
  2
CLASSES
  0
CLASS
  1
ACDBDICTIONARYWDFLT
  2
AcDbDictionaryWithDefault
  3
ObjectDBX Classes
 90
        0
 91
        1
280
     0
281
     0
  0
CLASS
  1
DICTIONARYVAR
  2
AcDbDictionaryVar
  3
ObjectDBX Classes
 90
        0
 91
        2
280
     0
281
     0
  0
CLASS
  1
SORTENTSTABLE
  2
AcDbSortentsTable
  3
ObjectDBX Classes
 90
        0
 91
        1
280
     0
281
     0
  0
ENDSEC
  0
SECTION
  2
TABLES
  0
TABLE
  2
VPORT
  5
8
330
0
100
AcDbSymbolTable
 70
     6
  0
VPORT
  5
211
330
8
100
AcDbSymbolTableRecord
100
AcDbViewportTableRecord
  2
*Active
 70
     0
 10
0.0
 20
0.0
 11
1.0
 21
1.0
 12
497.0648962469698
 22
318.0376363221762
 13
0.0
 23
0.0
 14
0.5
 24
0.5
 15
0.5
 25
0.5
 16
0.0
 26
0.0
 36
1.0
 17
0.0
 27
0.0
 37
0.0
 40
904.2283156457205
 41
1.8
 42
50.0
 43
0.0
 44
0.0
 50
0.0
 51
0.0
 71
     0
 72
  1000
 73
     1
 74
     3
 75
     0
 76
     0
 77
     0
 78
     0
281
     0
 65
     1
110
0.0
120
0.0
130
0.0
111
1.0
121
0.0
131
0.0
112
0.0
122
1.0
132
0.0
 79
     0
146
0.0
  0
ENDTAB
  0
TABLE
  2
LTYPE
  5
5
330
0
100
AcDbSymbolTable
 70
     2
  0
LTYPE
  5
14
330
5
100
AcDbSymbolTableRecord
100
AcDbLinetypeTableRecord
  2
ByBlock
 70
     0
  3

 72
    65
 73
     0
 40
0.0
  0
LTYPE
  5
15
330
5
100
AcDbSymbolTableRecord
100
AcDbLinetypeTableRecord
  2
ByLayer
 70
     0
  3

 72
    65
 73
     0
 40
0.0
  0
LTYPE
  5
16
330
5
100
AcDbSymbolTableRecord
100
AcDbLinetypeTableRecord
  2
Continuous
 70
     0
  3
Solid line
 72
    65
 73
     0
 40
0.0
  0
LTYPE
  5
11C
330
5
100
AcDbSymbolTableRecord
100
AcDbLinetypeTableRecord
  2
RAYITAS
 70
     0
  3
__ __ __ __ __ __ __ __ __ __ __ __ __ __ __ __
 72
    65
 73
     2
 40
0.375
 49
0.25
 74
     0
 49
-0.125
 74
     0
  0
ENDTAB
  0
TABLE
  2
LAYER
  5
2
102
{ACAD_XDICTIONARY
360
D2
102
}
330
0
100
AcDbSymbolTable
 70
     1
  0
LAYER
  5
10
330
2
100
AcDbSymbolTableRecord
100
AcDbLayerTableRecord
  2
0
 70
     0
 62
     7
  6
Continuous
370
    -3
390
F
  0
ENDTAB
  0
TABLE
  2
STYLE
  5
3
330
0
100
AcDbSymbolTable
 70
     3
  0
STYLE
  5
11
330
3
100
AcDbSymbolTableRecord
100
AcDbTextStyleTableRecord
  2
Standard
 70
     0
 40
0.0
 41
1.0
 50
0.0
 71
     0
 42
0.2
  3
txt
  4

  0
STYLE
  5
11F
330
3
100
AcDbSymbolTableRecord
100
AcDbTextStyleTableRecord
  2
ROMANS
 70
     0
 40
0.0
 41
1.0
 50
0.0
 71
     0
 42
27.74395699028537
  3
romans
  4

  0
STYLE
  5
120
330
3
100
AcDbSymbolTableRecord
100
AcDbTextStyleTableRecord
  2
ISO
 70
     0
 40
0.0
 41
1.0
 50
0.0
 71
     0
 42
2.0
  3
ISOCP.SHX
  4

  0
ENDTAB
  0
TABLE
  2
VIEW
  5
6
330
0
100
AcDbSymbolTable
 70
     0
  0
ENDTAB
  0
TABLE
  2
UCS
  5
7
330
0
100
AcDbSymbolTable
 70
     0
  0
ENDTAB
  0
TABLE
  2
APPID
  5
9
330
0
100
AcDbSymbolTable
 70
     2
  0
APPID
  5
12
330
9
100
AcDbSymbolTableRecord
100
AcDbRegAppTableRecord
  2
ACAD
 70
     0
  0
APPID
  5
198
330
9
100
AcDbSymbolTableRecord
100
AcDbRegAppTableRecord
  2
DCO15
 70
     0
  0
ENDTAB
  0
TABLE
  2
DIMSTYLE
  5
A
330
0
100
AcDbSymbolTable
 70
     1
100
AcDbDimStyleTable
 71
     0
  0
DIMSTYLE
105
27
330
A
100
AcDbSymbolTableRecord
100
AcDbDimStyleTableRecord
  2
Standard
 70
     0
340
11
  0
ENDTAB
  0
TABLE
  2
BLOCK_RECORD
  5
1
330
0
100
AcDbSymbolTable
 70
     7
  0
BLOCK_RECORD
  5
1F
330
1
100
AcDbSymbolTableRecord
100
AcDbBlockTableRecord
  2
*Model_Space
340
22
  0
BLOCK_RECORD
  5
58
330
1
100
AcDbSymbolTableRecord
100
AcDbBlockTableRecord
  2
*Paper_Space
340
59
  0
BLOCK_RECORD
  5
5D
330
1
100
AcDbSymbolTableRecord
100
AcDbBlockTableRecord
  2
*Paper_Space0
340
5E
  0
BLOCK_RECORD
  5
93
330
1
100
AcDbSymbolTableRecord
100
AcDbBlockTableRecord
  2
_Oblique
340
0
  0
BLOCK_RECORD
  5
97
102
{ACAD_XDICTIONARY
360
1AD
102
}
330
1
100
AcDbSymbolTableRecord
100
AcDbBlockTableRecord
  2
TDGH
340
0
310
2800000020000000200000000100080000000000000400000000000000000000000000000000000000000000000080000080000000808000800000008000800080800000C0C0C000C0DCC000F0CAA6000020400000206000002080000020A0000020C0000020E00000400000004020000040400000406000004080000040A0
310
000040C0000040E00000600000006020000060400000606000006080000060A0000060C0000060E00000800000008020000080400000806000008080000080A0000080C0000080E00000A0000000A0200000A0400000A0600000A0800000A0A00000A0C00000A0E00000C0000000C0200000C0400000C0600000C0800000C0
310
A00000C0C00000C0E00000E0000000E0200000E0400000E0600000E0800000E0A00000E0C00000E0E00040000000400020004000400040006000400080004000A0004000C0004000E00040200000402020004020400040206000402080004020A0004020C0004020E000404000004040200040404000404060004040800040
310
40A0004040C0004040E00040600000406020004060400040606000406080004060A0004060C0004060E00040800000408020004080400040806000408080004080A0004080C0004080E00040A0000040A0200040A0400040A0600040A0800040A0A00040A0C00040A0E00040C0000040C0200040C0400040C0600040C08000
310
40C0A00040C0C00040C0E00040E0000040E0200040E0400040E0600040E0800040E0A00040E0C00040E0E00080000000800020008000400080006000800080008000A0008000C0008000E00080200000802020008020400080206000802080008020A0008020C0008020E00080400000804020008040400080406000804080
310
008040A0008040C0008040E00080600000806020008060400080606000806080008060A0008060C0008060E00080800000808020008080400080806000808080008080A0008080C0008080E00080A0000080A0200080A0400080A0600080A0800080A0A00080A0C00080A0E00080C0000080C0200080C0400080C0600080C0
310
800080C0A00080C0C00080C0E00080E0000080E0200080E0400080E0600080E0800080E0A00080E0C00080E0E000C0000000C0002000C0004000C0006000C0008000C000A000C000C000C000E000C0200000C0202000C0204000C0206000C0208000C020A000C020C000C020E000C0400000C0402000C0404000C0406000C0
310
408000C040A000C040C000C040E000C0600000C0602000C0604000C0606000C0608000C060A000C060C000C060E000C0800000C0802000C0804000C0806000C0808000C080A000C080C000C080E000C0A00000C0A02000C0A04000C0A06000C0A08000C0A0A000C0A0C000C0A0E000C0C00000C0C02000C0C04000C0C06000
310
C0C08000C0C0A000F0FBFF00A4A0A000808080000000FF0000FF000000FFFF00FF000000FF00FF00FFFF0000FFFFFF000000000000000000000000000000000000000000000000000000000000000000000000000000000000000000FFFF0000000000000000000000000000000000000000000000000000000000FF0000FF
310
00000000000000000000000000000000000000000000000000000000FF000000FF00000000000000000000000000000000000000000000000000000000FF0000FF00000000000000000000000000000000000000000000000000000000FF000000FF00000000000000000000000000000000000000000000000000FFFFFF00
310
0000FF00000000000000000000000000000000000000000000000000FF000000000000FF000000000000000000000000000000000000000000000000FF00000000000000FF0000000000000000000000000000000000000000000000FFFFFF0000000000FF00000000000000000000000000000000000000000000000000FF
310
000000000000FF00000000000000000000000000000000000000000000FFFF00000000000000FF000000000000000000000000000000000000000000FF00000000000000000000FF0000000000000000000000000000000000000000FF0000000000000000000000FF000000000000000000000000000000000000FF000000
310
000000000000000000FF000000000000000000000000000000000000FF00000000000000000000000000FF0000000000000000000000000000000000FF00000000000000000000000000FF0000000000000000000000000000000000FF0000000000000000000000000000FF00000000000000000000000000000000FF0000
310
000000000000000000000000FF00000000000000000000000000000000FF000000000000000000000000FFFF0000000000000000000000000000000000FF0000000000000000000000FF00000000000000000000000000000000000000FF00000000000000000000FF0000000000000000000000000000000000000000FF00
310
00000000000000FFFF000000000000000000000000000000000000000000FF00000000000000FF0000000000000000000000000000000000000000000000FF000000000000FF000000000000000000000000000000000000000000000000FF00000000FFFF00000000000000000000000000000000000000000000000000FF
310
000000FF000000000000000000000000000000000000000000000000000000FF000000FF000000000000000000000000000000000000000000000000000000FF00FFFF00000000000000000000000000000000000000000000000000000000FFFF000000000000000000000000000000000000000000000000000000000000
310
FF00000000000000000000000000000000000000000000000000000000000000000000000000000000000000000000000000000000000000
102
{BLKREFS
331
1AB
102
}
1001
ACAD
1000
DesignCenter Data
1002
{
1070
     1
1070
     1
1002
}
  0
BLOCK_RECORD
  5
17D
330
1
100
AcDbSymbolTableRecord
100
AcDbBlockTableRecord
  2
22700_L
340
0
102
{BLKREFS
331
20D
102
}
1001
ACAD
1000
DesignCenter Data
1002
{
1070
     1
1070
     4
1002
}
  0
BLOCK_RECORD
  5
1D0
330
1
100
AcDbSymbolTableRecord
100
AcDbBlockTableRecord
  2
A$C2F770EAA
340
0
  0
ENDTAB
  0
ENDSEC
  0
SECTION
  2
BLOCKS
  0
BLOCK
  5
20
330
1F
100
AcDbEntity
  8
0
100
AcDbBlockBegin
  2
*Model_Space
 70
     0
 10
0.0
 20
0.0
 30
0.0
  3
*Model_Space
  1

  0
ENDBLK
  5
21
330
1F
100
AcDbEntity
  8
0
100
AcDbBlockEnd
  0
BLOCK
  5
5A
330
58
100
AcDbEntity
 67
     1
  8
0
100
AcDbBlockBegin
  2
*Paper_Space
 70
     0
 10
0.0
 20
0.0
 30
0.0
  3
*Paper_Space
  1

  0
ENDBLK
  5
5B
330
58
100
AcDbEntity
 67
     1
  8
0
100
AcDbBlockEnd
  0
BLOCK
  5
5F
330
5D
100
AcDbEntity
  8
0
100
AcDbBlockBegin
  2
*Paper_Space0
 70
     0
 10
0.0
 20
0.0
 30
0.0
  3
*Paper_Space0
  1

  0
ENDBLK
  5
60
330
5D
100
AcDbEntity
  8
0
100
AcDbBlockEnd
  0
BLOCK
  5
94
330
93
100
AcDbEntity
  8
0
100
AcDbBlockBegin
  2
_Oblique
 70
     0
 10
0.0
 20
0.0
 30
0.0
  3
_Oblique
  1

  0
LINE
  5
95
330
93
100
AcDbEntity
  8
0
  6
ByBlock
 62
     0
370
    -2
100
AcDbLine
 10
-0.5
 20
-0.5
 30
0.0
 11
0.5
 21
0.5
 31
0.0
  0
ENDBLK
  5
96
330
93
100
AcDbEntity
  8
0
100
AcDbBlockEnd
  0
BLOCK
  5
98
330
97
100
AcDbEntity
  8
0
100
AcDbBlockBegin
  2
TDGH
 70
     0
 10
0.0
 20
0.0
 30
0.0
  3
TDGH
  1

  0
LINE
  5
99
330
97
100
AcDbEntity
  8
0
  6
Continuous
100
AcDbLine
 10
281.3960965651286
 20
-200.5961856324807
 30
0.0
 11
285.0106554369631
 21
-203.2221928812496
 31
0.0
  0
LINE
  5
9A
330
97
100
AcDbEntity
  8
0
  6
Continuous
100
AcDbLine
 10
46.0
 20
-414.2308626716458
 30
0.0
 11
46.0
 21
-409.1947339638381
 31
0.0
  0
ARC
  5
9B
330
97
100
AcDbEntity
  8
0
  6
Continuous
100
AcDbCircle
 10
48.0
 20
-414.2308626716458
 30
0.0
 40
2.000000000000011
100
AcDbArc
 50
180.0
 51
269.0000000000243
  0
LINE
  5
9C
330
97
100
AcDbEntity
  8
0
  6
Continuous
100
AcDbLine
 10
80.03490614199291
 20
-416.5920381892842
 30
0.0
 11
47.96509518712627
 21
-416.2305580619586
 31
0.0
  0
ARC
  5
9D
330
97
100
AcDbEntity
  8
0
  6
Continuous
100
AcDbCircle
 10
80.0000000000017
 20
-420.5918858815391
 30
0.0
 40
3.999999999998294
100
AcDbArc
 50
359.999999999974
 51
89.50000000003447
  0
LINE
  5
9E
330
97
100
AcDbEntity
  8
0
  6
Continuous
100
AcDbLine
 10
84.0
 20
-452.2451158924796
 30
0.0
 11
84.0
 21
-420.5918858815409
 31
0.0
  0
ARC
  5
9F
330
97
100
AcDbEntity
  8
0
  6
Continuous
100
AcDbCircle
 10
79.0000000000001
 20
-452.2451158924797
 30
0.0
 40
4.999999999999891
100
AcDbArc
 50
327.999999999995
 51
0.0
  0
LINE
  5
A0
330
97
100
AcDbEntity
  8
0
  6
Continuous
100
AcDbLine
 10
66.79985787314035
 20
-481.2048241712998
 30
0.0
 11
83.24024048078172
 21
-454.8947122136464
 31
0.0
  0
ARC
  5
A1
330
97
100
AcDbEntity
  8
0
  6
Continuous
100
AcDbCircle
 10
71.04009835392037
 20
-483.8544204924661
 30
0.0
 40
4.999999999998292
100
AcDbArc
 50
147.9999999999805
 51
180.0
  0
LINE
  5
A2
330
97
100
AcDbEntity
  8
0
  6
Continuous
100
AcDbLine
 10
66.04009835392208
 20
-497.4559837008394
 30
0.0
 11
66.04009835392208
 21
-483.854420492466
 31
0.0
  0
ARC
  5
A3
330
97
100
AcDbEntity
  8
0
  6
Continuous
100
AcDbCircle
 10
71.04009835392208
 20
-497.4559837008394
 30
0.0
 40
5.000000000000028
100
AcDbArc
 50
180.0
 51
270.9999999999757
  0
LINE
  5
A4
330
97
100
AcDbEntity
  8
0
  6
Continuous
100
AcDbLine
 10
101.875744277343
 20
-501.918507139362
 30
0.0
 11
71.12736038610638
 21
-502.4552221766214
 31
0.0
  0
ARC
  5
A5
330
97
100
AcDbEntity
  8
0
  6
Continuous
100
AcDbCircle
 10
101.7012202129675
 20
-491.9200301877928
 30
0.0
 40
10.00000000000517
100
AcDbArc
 50
271.0000000000148
 51
325.6168962254971
  0
ARC
  5
A6
330
97
100
AcDbEntity
  8
0
  6
Continuous
100
AcDbCircle
 10
-3191.166251951637
 20
1761.327362079983
 30
0.0
 40
4000.000000000161
100
AcDbArc
 50
325.6168962255585
 51
330.4131078466619
  0
ARC
  5
A7
330
97
100
AcDbEntity
  8
0
  6
Continuous
100
AcDbCircle
 10
280.3085181476408
 20
-209.6944339855633
 30
0.0
 40
8.000000000000241
100
AcDbArc
 50
330.4131078466473
 51
54.00128122996196
  0
LINE
  5
A8
330
97
100
AcDbEntity
  8
0
  6
Continuous
100
AcDbLine
 10
-1.999999999992724
 20
-16.67002470628404
 30
0.0
 11
-1.99999999999636
 21
-22.73116732773406
 31
0.0
  0
LINE
  5
A9
330
97
100
AcDbEntity
  8
0
  6
Continuous
100
AcDbLine
 10
3.000000000001818
 20
-68.7311673277336
 30
0.0
 11
3.000000000001818
 21
-74.75780687445695
 31
0.0
  0
LINE
  5
AA
330
97
100
AcDbEntity
  8
0
  6
Continuous
100
AcDbLine
 10
3.000000000002728
 20
-33.73116732773315
 30
0.0
 11
3.000000000001818
 21
-68.7311673277336
 31
0.0
  0
LINE
  5
AB
330
97
100
AcDbEntity
  8
0
  6
Continuous
100
AcDbLine
 10
-1.99999999999636
 20
-79.75780687445695
 30
0.0
 11
-1.99999999999636
 21
-85.70452778100753
 31
0.0
  0
LINE
  5
AC
330
97
100
AcDbEntity
  8
0
  6
Continuous
100
AcDbLine
 10
46.0
 20
-373.2676006916283
 30
0.0
 11
46.0
 21
-409.1947339638381
 31
0.0
  0
ARC
  5
AD
330
97
100
AcDbEntity
  8
0
  6
Continuous
100
AcDbCircle
 10
0.000000000003638
 20
19.25207927407018
 30
0.0
 40
2.0
100
AcDbArc
 50
86.98303869017548
 51
180.0
  0
LINE
  5
AE
330
97
100
AcDbEntity
  8
0
  6
Continuous
100
AcDbLine
 10
-1.99999999999636
 20
19.25207927407018
 30
0.0
 11
-1.99999999999636
 21
0.0
 31
0.0
  0
ARC
  5
AF
330
97
100
AcDbEntity
  8
0
  6
Continuous
100
AcDbCircle
 10
-1.99999999999636
 20
-3.464101615139951
 30
0.0
 40
2.0
100
AcDbArc
 50
0.0
 51
60.00000000006087
  0
ARC
  5
B0
330
97
100
AcDbEntity
  8
0
  6
Continuous
100
AcDbCircle
 10
0.0
 20
0.0
 30
0.0
 40
2.0
100
AcDbArc
 50
180.0
 51
240.0000000000609
  0
ARC
  5
B1
330
97
100
AcDbEntity
  8
0
  6
Continuous
100
AcDbCircle
 10
-1.99999999999636
 20
-18.69525264795038
 30
0.0
 40
40.0
100
AcDbArc
 50
53.99999999998812
 51
86.98303869017548
  0
LINE
  5
B2
330
97
100
AcDbEntity
  8
0
  6
Continuous
100
AcDbLine
 10
73.20840087652505
 20
-32.23107132089581
 30
0.0
 11
71.0123394274334
 21
-39.41406466200965
 31
0.0
  0
ARC
  5
B3
330
97
100
AcDbEntity
  8
0
  6
Continuous
100
AcDbCircle
 10
63.6453533168942
 20
-29.30735427366926
 30
0.0
 40
10.0
100
AcDbArc
 50
343.0000000000193
 51
53.99999999998812
  0
ARC
  5
B4
330
97
100
AcDbEntity
  8
0
  6
Continuous
100
AcDbCircle
 10
80.57538698706412
 20
-42.33778170923685
 30
0.0
 40
10.0
100
AcDbArc
 50
163.0000000000192
 51
234.0012812299749
  0
LINE
  5
B5
330
97
100
AcDbEntity
  8
0
  6
Continuous
100
AcDbLine
 10
3.000000000002728
 20
-27.73116732773406
 30
0.0
 11
3.000000000002728
 21
-33.73116732773315
 31
0.0
  0
ARC
  5
B6
330
97
100
AcDbEntity
  8
0
  6
Continuous
100
AcDbCircle
 10
0.000000000003638
 20
-79.75780687445695
 30
0.0
 40
2.0
100
AcDbArc
 50
90.0
 51
180.0
  0
ARC
  5
B7
330
97
100
AcDbEntity
  8
0
  6
Continuous
100
AcDbCircle
 10
0.0000000000027285
 20
-74.75780687445695
 30
0.0
 40
3.0
100
AcDbArc
 50
270.0
 51
0.0
  0
ARC
  5
B8
330
97
100
AcDbEntity
  8
0
  6
Continuous
100
AcDbCircle
 10
-2.999999999994543
 20
-89.70452778100979
 30
0.0
 40
3.0
100
AcDbArc
 50
359.999999999974
 51
53.13010235418984
  0
ARC
  5
B9
330
97
100
AcDbEntity
  8
0
  6
Continuous
100
AcDbCircle
 10
0.000000000003638
 20
-85.70452778100753
 30
0.0
 40
2.0
100
AcDbArc
 50
180.0
 51
233.1301023541899
  0
ARC
  5
BA
330
97
100
AcDbEntity
  8
0
  6
Continuous
100
AcDbCircle
 10
0.000000000003638
 20
-22.73116732773406
 30
0.0
 40
2.0
100
AcDbArc
 50
180.0
 51
270.0
  0
ARC
  5
BB
330
97
100
AcDbEntity
  8
0
  6
Continuous
100
AcDbCircle
 10
0.000000000001819
 20
-27.73116732773406
 30
0.0
 40
3.0
100
AcDbArc
 50
0.0
 51
90.0
  0
ARC
  5
BC
330
97
100
AcDbEntity
  8
0
  6
Continuous
100
AcDbCircle
 10
0.000000000007276
 20
-16.67002470628313
 30
0.0
 40
2.0
100
AcDbArc
 50
120.0000000000563
 51
180.0
  0
ARC
  5
BD
330
97
100
AcDbEntity
  8
0
  6
Continuous
100
AcDbCircle
 10
-1.99999999999636
 20
-13.20592309114772
 30
0.0
 40
2.0
100
AcDbArc
 50
300.0000000000563
 51
359.999999999974
  0
LINE
  5
BE
330
97
100
AcDbEntity
  8
0
  6
Continuous
100
AcDbLine
 10
-1.999999999997271
 20
-107.5266025611422
 30
0.0
 11
-1.999999999997271
 21
-115.5266025611422
 31
0.0
  0
LINE
  5
BF
330
97
100
AcDbEntity
  8
0
  6
Continuous
100
AcDbLine
 10
0.0000000000045475
 20
-117.5266025611422
 30
0.0
 11
0.000000000003638
 21
-137.4063773886305
 31
0.0
  0
ARC
  5
C0
330
97
100
AcDbEntity
  8
0
  6
Continuous
100
AcDbCircle
 10
-0.9999999999954523
 20
-117.5266025611422
 30
0.0
 40
1.0
100
AcDbArc
 50
359.999999999974
 51
90.00000000005213
  0
ARC
  5
C1
330
97
100
AcDbEntity
  8
0
  6
Continuous
100
AcDbCircle
 10
-0.9999999999972716
 20
-107.5266025611422
 30
0.0
 40
1.0
100
AcDbArc
 50
89.99999999994789
 51
180.0
  0
ARC
  5
C2
330
97
100
AcDbEntity
  8
0
  6
Continuous
100
AcDbCircle
 10
-0.9999999999981808
 20
-115.5266025611422
 30
0.0
 40
1.0
100
AcDbArc
 50
180.0
 51
270.0000000001042
  0
ARC
  5
C3
330
97
100
AcDbEntity
  8
0
  6
Continuous
100
AcDbCircle
 10
-0.9999999999954523
 20
-105.5266025611422
 30
0.0
 40
1.0
100
AcDbArc
 50
269.9999999999479
 51
0.0
  0
LINE
  5
C4
330
97
100
AcDbEntity
  8
0
  6
Continuous
100
AcDbLine
 10
0.000000000005457
 20
-89.70452778101025
 30
0.0
 11
0.000000000003638
 21
-105.5266025611422
 31
0.0
  0
LINE
  5
C5
330
97
100
AcDbEntity
  8
0
  6
Continuous
100
AcDbLine
 10
21.51141009172534
 20
13.66542712702994
 30
0.0
 11
69.52320583982509
 21
-21.21718432992384
 31
0.0
  0
LINE
  5
C6
330
97
100
AcDbEntity
  8
0
  6
Continuous
100
AcDbLine
 10
0.000000000003638
 20
-3.464101615139951
 30
0.0
 11
0.000000000003638
 21
-13.20592309114818
 31
0.0
  0
LINE
  5
C7
330
97
100
AcDbEntity
  8
0
  6
Continuous
100
AcDbLine
 10
47.96509518712627
 20
-366.2317765935072
 30
0.0
 11
81.02617960649515
 21
-365.8616457537123
 31
0.0
  0
ARC
  5
C8
330
97
100
AcDbEntity
  8
0
  6
Continuous
100
AcDbCircle
 10
81.0
 20
-340.963232729348
 30
0.0
 40
3.0
100
AcDbArc
 50
0.0
 51
60.00000000000272
  0
ARC
  5
C9
330
97
100
AcDbEntity
  8
0
  6
Continuous
100
AcDbCircle
 10
81.0
 20
-362.8617599845197
 30
0.0
 40
3.0
100
AcDbArc
 50
270.5000000000175
 51
0.0
  0
LINE
  5
CA
330
97
100
AcDbEntity
  8
0
  6
Continuous
100
AcDbLine
 10
84.0
 20
-340.963232729348
 30
0.0
 11
84.0
 21
-362.8617599845197
 31
0.0
  0
LINE
  5
CB
330
97
100
AcDbEntity
  8
0
  6
Continuous
100
AcDbLine
 10
82.5
 20
-338.3651565179948
 30
0.0
 11
24.99999999997817
 21
-305.1675160395772
 31
0.0
  0
ARC
  5
CC
330
97
100
AcDbEntity
  8
0
  6
Continuous
100
AcDbCircle
 10
49.99999999997999
 20
-261.8662458503556
 30
0.0
 40
50.0
100
AcDbArc
 50
179.9999999999739
 51
240.0000000000027
  0
LINE
  5
CD
330
97
100
AcDbEntity
  8
0
  6
Continuous
100
AcDbLine
 10
46.0
 20
-368.23147198382
 30
0.0
 11
46.0
 21
-373.2674483867845
 31
0.0
  0
ARC
  5
CE
330
97
100
AcDbEntity
  8
0
  6
Continuous
100
AcDbCircle
 10
48.0
 20
-368.23147198382
 30
0.0
 40
2.0
100
AcDbArc
 50
90.99999999997569
 51
180.0
  0
LINE
  5
CF
330
97
100
AcDbEntity
  8
0
  6
Continuous
100
AcDbLine
 10
74.69771537541145
 20
-50.42808308962912
 30
0.0
 11
281.3960965651295
 21
-200.5961856324816
 31
0.0
  0
LINE
  5
D0
330
97
100
AcDbEntity
  8
0
  6
Continuous
100
AcDbLine
 10
0.000000000003638
 20
-117.5266025611422
 30
0.0
 11
-0.0000000000163709
 21
-261.8662458503493
 31
0.0
  0
ENDBLK
  5
D1
330
97
100
AcDbEntity
  8
0
100
AcDbBlockEnd
  0
BLOCK
  5
17E
330
17D
100
AcDbEntity
  8
0
100
AcDbBlockBegin
  2
22700_L
 70
     0
 10
0.0
 20
0.0
 30
0.0
  3
22700_L
  1

  0
LINE
  5
1F0
330
17D
100
AcDbEntity
  8
0
  6
Continuous
100
AcDbLine
 10
283.3960965651249
 20
41.64360723057939
 30
0.0
 11
287.0106554369595
 21
39.01759998181046
 31
0.0
  0
LINE
  5
1F1
330
17D
100
AcDbEntity
  8
0
  6
Continuous
100
AcDbLine
 10
103.8757442773394
 20
-259.678714276302
 30
0.0
 11
-0.0000000000000568
 21
-261.4918721371302
 31
0.0
  0
ARC
  5
1F2
330
17D
100
AcDbEntity
  8
0
  6
Continuous
100
AcDbCircle
 10
103.7012202129639
 20
-249.6802373247327
 30
0.0
 40
10.00000000000517
100
AcDbArc
 50
271.0000000000148
 51
325.6168962254953
  0
ARC
  5
1F3
330
17D
100
AcDbEntity
  8
0
  6
Continuous
100
AcDbCircle
 10
-3189.166251951641
 20
2003.567154943043
 30
0.0
 40
4000.000000000161
100
AcDbArc
 50
325.6168962255585
 51
330.4131078466635
  0
ARC
  5
1F4
330
17D
100
AcDbEntity
  8
0
  6
Continuous
100
AcDbCircle
 10
282.3085181476372
 20
32.54535887749677
 30
0.0
 40
8.000000000000241
100
AcDbArc
 50
330.4131078466481
 51
54.00128122996065
  0
ARC
  5
1F5
330
17D
100
AcDbEntity
  8
0
  6
Continuous
100
AcDbCircle
 10
2.000000000000056
 20
261.4918721371302
 30
0.0
 40
2.0
100
AcDbArc
 50
86.98303869017584
 51
180.0
  0
LINE
  5
1F6
330
17D
100
AcDbEntity
  8
0
  6
Continuous
100
AcDbLine
 10
0.0000000000000568
 20
261.4918721371302
 30
0.0
 11
-0.0000000000000568
 21
-261.4918721371302
 31
0.0
  0
ARC
  5
1F7
330
17D
100
AcDbEntity
  8
0
  6
Continuous
100
AcDbCircle
 10
0.0000000000000568
 20
223.5445402151097
 30
0.0
 40
40.0
100
AcDbArc
 50
53.99999999998812
 51
86.98303869017584
  0
LINE
  5
1F8
330
17D
100
AcDbEntity
  8
0
  6
Continuous
100
AcDbLine
 10
75.20840087652143
 20
210.0087215421643
 30
0.0
 11
73.01233942742979
 21
202.8257282010504
 31
0.0
  0
ARC
  5
1F9
330
17D
100
AcDbEntity
  8
0
  6
Continuous
100
AcDbCircle
 10
65.64535331689061
 20
212.9324385893908
 30
0.0
 40
10.0
100
AcDbArc
 50
343.0000000000188
 51
53.99999999998812
  0
ARC
  5
1FA
330
17D
100
AcDbEntity
  8
0
  6
Continuous
100
AcDbCircle
 10
82.57538698706051
 20
199.9020111538232
 30
0.0
 40
10.0
100
AcDbArc
 50
163.0000000000183
 51
234.0012812299743
  0
LINE
  5
1FB
330
17D
100
AcDbEntity
  8
0
  6
Continuous
100
AcDbLine
 10
23.51141009172176
 20
255.90521999009
 30
0.0
 11
71.52320583982149
 21
221.0226085331362
 31
0.0
  0
LINE
  5
1FC
330
17D
100
AcDbEntity
  8
0
  6
Continuous
100
AcDbLine
 10
76.69771537540785
 20
191.8117097734309
 30
0.0
 11
283.3960965651258
 21
41.64360723057848
 31
0.0
  0
ARC
  5
1FD
330
17D
100
AcDbEntity
  8
0
100
AcDbCircle
 10
35.99999999999912
 20
-17.28753448860624
 30
0.0
 40
8.0
100
AcDbArc
 50
90.0
 51
180.0
  0
ARC
  5
1FE
330
17D
100
AcDbEntity
  8
0
100
AcDbCircle
 10
47.65594543343562
 20
-57.57890440594377
 30
0.0
 40
20.0
100
AcDbArc
 50
270.0
 51
334.9999999999788
  0
ARC
  5
1FF
330
17D
100
AcDbEntity
  8
0
100
AcDbCircle
 10
35.99999999999548
 20
-69.57890440594446
 30
0.0
 40
8.0
100
AcDbArc
 50
180.0
 51
270.0
  0
LINE
  5
200
330
17D
100
AcDbEntity
  8
0
100
AcDbLine
 10
35.9999999999973
 20
-77.57890440594445
 30
0.0
 11
47.65594543343744
 21
-77.57890440594377
 31
0.0
  0
LINE
  5
201
330
17D
100
AcDbEntity
  8
0
100
AcDbLine
 10
27.99999999999912
 20
-17.28753448860601
 30
0.0
 11
27.99999999999548
 21
-69.57890440594423
 31
0.0
  0
LINE
  5
202
330
17D
100
AcDbEntity
  8
0
100
AcDbLine
 10
35.99999999999912
 20
-9.28753448860624
 30
0.0
 11
52.9999999999973
 21
-9.287534488606468
 31
0.0
  0
ARC
  5
203
330
17D
100
AcDbEntity
  8
0
100
AcDbCircle
 10
52.9999999999973
 20
-34.28753448860601
 30
0.0
 40
25.0
100
AcDbArc
 50
334.9999999999788
 51
90.0
  0
LINE
  5
204
330
17D
100
AcDbEntity
  8
0
100
AcDbLine
 10
75.65769467591511
 20
-44.8529910321235
 30
0.0
 11
65.78210117416805
 21
-66.0312696407579
 31
0.0
  0
ARC
  5
205
330
17D
100
AcDbEntity
  8
0
 62
     0
100
AcDbCircle
 10
293.9293331160412
 20
40.79731389720143
 30
0.0
 40
1.5
100
AcDbArc
 50
234.0025624599362
 51
330.4434811677826
  0
ARC
  5
206
330
17D
100
AcDbEntity
  8
0
 62
     0
100
AcDbCircle
 10
293.4647613952135
 20
51.12787706303186
 30
0.0
 40
7.0
100
AcDbArc
 50
330.5020823789637
 51
54.001281229958
  0
LINE
  5
207
330
17D
100
AcDbEntity
  8
0
 62
     0
100
AcDbLine
 10
299.5573765405358
 20
47.68113357229355
 30
0.0
 11
295.2341374056528
 21
40.05739108649175
 31
0.0
  0
ARC
  5
208
330
17D
100
AcDbEntity
  8
0
 62
     0
100
AcDbCircle
 10
81.7979528157654
 20
200.4674136570842
 30
0.0
 40
6.0
100
AcDbArc
 50
163.0012812299453
 51
234.00256245992
  0
ARC
  5
209
330
17D
100
AcDbEntity
  8
0
 62
     0
100
AcDbCircle
 10
80.92225561286856
 20
211.9692340562518
 30
0.0
 40
1.8
100
AcDbArc
 50
54.001281229958
 51
163.0012812299453
  0
LINE
  5
20A
330
17D
100
AcDbEntity
  8
0
 62
     0
100
AcDbLine
 10
79.20089528430494
 20
212.4954646323739
 30
0.0
 11
76.06008505387823
 21
202.2215155774883
 31
0.0
  0
LINE
  5
20B
330
17D
100
AcDbEntity
  8
0
 62
     0
100
AcDbLine
 10
78.27145839729806
 20
195.6131539692918
 30
0.0
 11
293.0477095114225
 21
39.58374897525244
 31
0.0
  0
LINE
  5
20C
330
17D
100
AcDbEntity
  8
0
 62
     0
100
AcDbLine
 10
297.5791315233679
 20
56.79108802930784
 30
0.0
 11
81.98023650296514
 21
213.4254883047228
 31
0.0
  0
ENDBLK
  5
17F
330
17D
100
AcDbEntity
  8
0
100
AcDbBlockEnd
  0
BLOCK
  5
1D9
330
1D0
100
AcDbEntity
  8
0
100
AcDbBlockBegin
  2
A$C2F770EAA
 70
     0
 10
0.0
 20
0.0
 30
0.0
  3
A$C2F770EAA
  1

  0
LINE
  5
1D1
330
1D0
100
AcDbEntity
  8
0
 62
     1
100
AcDbLine
 10
117.532225553101
 20
-59.93657047269687
 30
0.0
 11
-98.06666946730173
 21
96.69782980271804
 31
0.0
  0
LINE
  5
1D2
330
1D0
100
AcDbEntity
  8
0
 62
     1
100
AcDbLine
 10
-101.7754475729688
 20
78.88549546728711
 30
0.0
 11
113.0008035411557
 21
-77.14390952675228
 31
0.0
  0
LINE
  5
1D3
330
1D0
100
AcDbEntity
  8
0
 62
     1
100
AcDbLine
 10
-100.8460106859619
 20
95.7678061303692
 30
0.0
 11
-103.9868209163886
 21
85.49385707548356
 31
0.0
  0
ARC
  5
1D4
330
1D0
100
AcDbEntity
  8
0
 62
     1
100
AcDbCircle
 10
-99.12465035739831
 20
95.24157555424711
 30
0.0
 40
1.8
100
AcDbArc
 50
54.0012812299567
 51
163.0012812299458
  0
ARC
  5
1D5
330
1D0
100
AcDbEntity
  8
0
 62
     1
100
AcDbCircle
 10
-98.24895315450147
 20
83.73975515507948
 30
0.0
 40
6.0
100
AcDbArc
 50
163.0012812299458
 51
234.0025624599218
  0
LINE
  5
1D6
330
1D0
100
AcDbEntity
  8
0
 62
     1
100
AcDbLine
 10
119.5104705702689
 20
-69.04652492971115
 30
0.0
 11
115.187231435386
 21
-76.67026741551296
 31
0.0
  0
ARC
  5
1D7
330
1D0
100
AcDbEntity
  8
0
 62
     1
100
AcDbCircle
 10
113.4178554249466
 20
-65.59978143897286
 30
0.0
 40
7.0
100
AcDbArc
 50
330.5020823789622
 51
54.0012812299567
  0
ARC
  5
1D8
330
1D0
100
AcDbEntity
  8
0
 62
     1
100
AcDbCircle
 10
113.8824271457744
 20
-75.93034460480328
 30
0.0
 40
1.5
100
AcDbArc
 50
234.0025624599362
 51
330.4434811677818
  0
ENDBLK
  5
1DA
330
1D0
100
AcDbEntity
  8
0
100
AcDbBlockEnd
  0
ENDSEC
  0
SECTION
  2
ENTITIES
  0
MTEXT
  5
DC
330
1F
100
AcDbEntity
  8
0
100
AcDbMText
 10
17.2036789446112
 20
50.8446116281431
 30
0.0
 40
30.0
 41
688.0214198609437
 71
     1
 72
     5
  1
{\fTimes New Roman|b0|i0|c0|p18;\C0;URINARIO MURAL. SERIE ARQ}
 73
     1
 44
1.0
  0
INSERT
  5
20D
330
1F
100
AcDbEntity
  8
0
100
AcDbBlockReference
  2
22700_L
 10
225.351329757426
 20
387.0369049771038
 30
0.0
  0
ENDSEC
  0
SECTION
  2
OBJECTS
  0
DICTIONARY
  5
C
330
0
100
AcDbDictionary
281
     1
  3
ACAD_COLOR
350
73
  3
ACAD_GROUP
350
D
  3
ACAD_LAYOUT
350
1A
  3
ACAD_MATERIAL
350
72
  3
ACAD_MLINESTYLE
350
17
  3
ACAD_PLOTSETTINGS
350
19
  3
ACAD_PLOTSTYLENAME
350
E
  3
AcDbVariableDictionary
350
66
  3
ASE_INDEX_DICTIONARY
350
197
  0
DICTIONARY
  5
D2
330
2
100
AcDbDictionary
280
     1
281
     1
  3
ACAD_LAYERFILTERS
360
17C
  3
ACAD_LAYERSTATES
360
D3
  0
DICTIONARY
  5
1AD
330
97
100
AcDbDictionary
280
     1
281
     1
  3
ACAD_SORTENTS
360
1AE
  0
DICTIONARY
  5
73
102
{ACAD_REACTORS
330
C
102
}
330
C
100
AcDbDictionary
281
     1
  0
DICTIONARY
  5
D
102
{ACAD_REACTORS
330
C
102
}
330
C
100
AcDbDictionary
281
     1
  0
DICTIONARY
  5
1A
102
{ACAD_REACTORS
330
C
102
}
330
C
100
AcDbDictionary
281
     1
  3
Model
350
22
  3
Presentación1
350
59
  3
Presentación2
350
5E
  0
DICTIONARY
  5
72
102
{ACAD_REACTORS
330
C
102
}
330
C
100
AcDbDictionary
281
     1
  0
DICTIONARY
  5
17
102
{ACAD_REACTORS
330
C
102
}
330
C
100
AcDbDictionary
281
     1
  3
Standard
350
18
  0
DICTIONARY
  5
19
102
{ACAD_REACTORS
330
C
102
}
330
C
100
AcDbDictionary
281
     1
  0
ACDBDICTIONARYWDFLT
  5
E
102
{ACAD_REACTORS
330
C
102
}
330
C
100
AcDbDictionary
281
     1
  3
Normal
350
F
100
AcDbDictionaryWithDefault
340
F
  0
DICTIONARY
  5
66
102
{ACAD_REACTORS
330
C
102
}
330
C
100
AcDbDictionary
281
     1
  3
DIMASSOC
350
67
  3
HIDETEXT
350
6B
  0
DICTIONARY
  5
197
102
{ACAD_REACTORS
330
C
102
}
330
C
100
AcDbDictionary
281
     1
  3
ASEBlockHierarchyIndexRecord
350
199
1001
DCO15
1040
1613753593.999
  0
DICTIONARY
  5
17C
102
{ACAD_REACTORS
330
D2
102
}
330
D2
100
AcDbDictionary
281
     1
  0
DICTIONARY
  5
D3
102
{ACAD_REACTORS
330
D2
102
}
330
D2
100
AcDbDictionary
281
     1
  0
SORTENTSTABLE
  5
1AE
102
{ACAD_REACTORS
330
1AD
102
}
330
1AD
100
AcDbSortentsTable
330
97
  0
LAYOUT
  5
22
102
{ACAD_REACTORS
330
1A
102
}
330
1A
100
AcDbPlotSettings
  1

  2
none_device
  4
ANSI_A_(8.50_x_11.00_Inches)
  6

 40
6.349999904632567
 41
19.04999923706055
 42
6.350006103515625
 43
19.04998779296875
 44
215.8999938964844
 45
279.3999938964844
 46
0.0
 47
0.0
 48
0.0
 49
0.0
140
0.0
141
0.0
142
1.0
143
2.584895464708373
 70
 11952
 72
     0
 73
     1
 74
     0
  7

 75
     0
147
0.3868628397755418
 76
     0
 77
     2
 78
   300
148
0.0
149
0.0
100
AcDbLayout
  1
Model
 70
     1
 71
     0
 10
0.0
 20
0.0
 11
12.0
 21
9.0
 12
0.0
 22
0.0
 32
0.0
 14
0.0
 24
0.0
 34
0.0
 15
0.0
 25
0.0
 35
0.0
146
0.0
 13
0.0
 23
0.0
 33
0.0
 16
1.0
 26
0.0
 36
0.0
 17
0.0
 27
1.0
 37
0.0
 76
     0
330
1F
  0
LAYOUT
  5
59
102
{ACAD_REACTORS
330
1A
102
}
330
1A
100
AcDbPlotSettings
  1

  2
None
  4

  6

 40
0.0
 41
0.0
 42
0.0
 43
0.0
 44
0.0
 45
0.0
 46
0.0
 47
0.0
 48
0.0
 49
0.0
140
0.0
141
0.0
142
1.0
143
1.0
 70
   688
 72
     0
 73
     0
 74
     5
  7

 75
    16
147
1.0
 76
     0
 77
     2
 78
   300
148
0.0
149
0.0
100
AcDbLayout
  1
Presentación1
 70
     1
 71
     1
 10
0.0
 20
0.0
 11
12.0
 21
9.0
 12
0.0
 22
0.0
 32
0.0
 14
0.0
 24
0.0
 34
0.0
 15
0.0
 25
0.0
 35
0.0
146
0.0
 13
0.0
 23
0.0
 33
0.0
 16
1.0
 26
0.0
 36
0.0
 17
0.0
 27
1.0
 37
0.0
 76
     0
330
58
  0
LAYOUT
  5
5E
102
{ACAD_REACTORS
330
1A
102
}
330
1A
100
AcDbPlotSettings
  1

  2
None
  4

  6

 40
0.0
 41
0.0
 42
0.0
 43
0.0
 44
0.0
 45
0.0
 46
0.0
 47
0.0
 48
0.0
 49
0.0
140
0.0
141
0.0
142
1.0
143
1.0
 70
   688
 72
     0
 73
     0
 74
     5
  7

 75
    16
147
1.0
 76
     0
 77
     2
 78
   300
148
0.0
149
0.0
100
AcDbLayout
  1
Presentación2
 70
     1
 71
     2
 10
0.0
 20
0.0
 11
12.0
 21
9.0
 12
0.0
 22
0.0
 32
0.0
 14
0.0
 24
0.0
 34
0.0
 15
0.0
 25
0.0
 35
0.0
146
0.0
 13
0.0
 23
0.0
 33
0.0
 16
1.0
 26
0.0
 36
0.0
 17
0.0
 27
1.0
 37
0.0
 76
     0
330
5D
  0
MLINESTYLE
  5
18
102
{ACAD_REACTORS
330
17
102
}
330
17
100
AcDbMlineStyle
  2
STANDARD
 70
     0
  3

 62
   256
 51
90.0
 52
90.0
 71
     2
 49
0.5
 62
   256
  6
BYLAYER
 49
-0.5
 62
   256
  6
BYLAYER
  0
ACDBPLACEHOLDER
  5
F
102
{ACAD_REACTORS
330
E
102
}
330
E
  0
DICTIONARYVAR
  5
67
102
{ACAD_REACTORS
330
66
102
}
330
66
100
DictionaryVariables
280
     0
  1
2
  0
DICTIONARYVAR
  5
6B
102
{ACAD_REACTORS
330
66
102
}
330
66
100
DictionaryVariables
280
     0
  1
1
  0
XRECORD
  5
199
102
{ACAD_REACTORS
330
197
102
}
330
197
100
AcDbXrecord
280
     1
330
195
  0
ENDSEC
  0
EOF
