  0
SECTION
  2
HEADER
  9
$ACADVER
  1
AC1018
  9
$ACADMAINTVER
 70
     0
  9
$DWGCODEPAGE
  3
ANSI_1252
  9
$INSBASE
 10
0.0
 20
0.0
 30
0.0
  9
$EXTMIN
 10
15.79522965253655
 20
12.19582552386096
 30
0.0
  9
$EXTMAX
 10
906.7293360553435
 20
672.8063012595125
 30
0.0
  9
$LIMMIN
 10
0.0
 20
0.0
  9
$LIMMAX
 10
12.0
 20
9.0
  9
$ORTHOMODE
 70
     0
  9
$REGENMODE
 70
     1
  9
$FILLMODE
 70
     1
  9
$QTEXTMODE
 70
     0
  9
$MIRRTEXT
 70
     0
  9
$LTSCALE
 40
1.0
  9
$ATTMODE
 70
     1
  9
$TEXTSIZE
 40
0.2
  9
$TRACEWID
 40
0.05
  9
$TEXTSTYLE
  7
Standard
  9
$CLAYER
  8
0
  9
$CELTYPE
  6
ByLayer
  9
$CECOLOR
 62
   256
  9
$CELTSCALE
 40
1.0
  9
$DISPSILH
 70
     0
  9
$DIMSCALE
 40
1.0
  9
$DIMASZ
 40
0.18
  9
$DIMEXO
 40
0.0625
  9
$DIMDLI
 40
0.38
  9
$DIMRND
 40
0.0
  9
$DIMDLE
 40
0.0
  9
$DIMEXE
 40
0.18
  9
$DIMTP
 40
0.0
  9
$DIMTM
 40
0.0
  9
$DIMTXT
 40
0.18
  9
$DIMCEN
 40
0.09
  9
$DIMTSZ
 40
0.0
  9
$DIMTOL
 70
     0
  9
$DIMLIM
 70
     0
  9
$DIMTIH
 70
     1
  9
$DIMTOH
 70
     1
  9
$DIMSE1
 70
     0
  9
$DIMSE2
 70
     0
  9
$DIMTAD
 70
     0
  9
$DIMZIN
 70
     0
  9
$DIMBLK
  1

  9
$DIMASO
 70
     1
  9
$DIMSHO
 70
     1
  9
$DIMPOST
  1

  9
$DIMAPOST
  1

  9
$DIMALT
 70
     0
  9
$DIMALTD
 70
     2
  9
$DIMALTF
 40
25.4
  9
$DIMLFAC
 40
1.0
  9
$DIMTOFL
 70
     0
  9
$DIMTVP
 40
0.0
  9
$DIMTIX
 70
     0
  9
$DIMSOXD
 70
     0
  9
$DIMSAH
 70
     0
  9
$DIMBLK1
  1

  9
$DIMBLK2
  1

  9
$DIMSTYLE
  2
Standard
  9
$DIMCLRD
 70
     0
  9
$DIMCLRE
 70
     0
  9
$DIMCLRT
 70
     0
  9
$DIMTFAC
 40
1.0
  9
$DIMGAP
 40
0.09
  9
$DIMJUST
 70
     0
  9
$DIMSD1
 70
     0
  9
$DIMSD2
 70
     0
  9
$DIMTOLJ
 70
     1
  9
$DIMTZIN
 70
     0
  9
$DIMALTZ
 70
     0
  9
$DIMALTTZ
 70
     0
  9
$DIMUPT
 70
     0
  9
$DIMDEC
 70
     4
  9
$DIMTDEC
 70
     4
  9
$DIMALTU
 70
     2
  9
$DIMALTTD
 70
     2
  9
$DIMTXSTY
  7
Standard
  9
$DIMAUNIT
 70
     0
  9
$DIMADEC
 70
     0
  9
$DIMALTRND
 40
0.0
  9
$DIMAZIN
 70
     0
  9
$DIMDSEP
 70
    46
  9
$DIMATFIT
 70
     3
  9
$DIMFRAC
 70
     0
  9
$DIMLDRBLK
  1

  9
$DIMLUNIT
 70
     2
  9
$DIMLWD
 70
    -2
  9
$DIMLWE
 70
    -2
  9
$DIMTMOVE
 70
     0
  9
$LUNITS
 70
     2
  9
$LUPREC
 70
     4
  9
$SKETCHINC
 40
0.1
  9
$FILLETRAD
 40
0.0
  9
$AUNITS
 70
     0
  9
$AUPREC
 70
     0
  9
$MENU
  1
.
  9
$ELEVATION
 40
0.0
  9
$PELEVATION
 40
0.0
  9
$THICKNESS
 40
0.0
  9
$LIMCHECK
 70
     0
  9
$CHAMFERA
 40
0.0
  9
$CHAMFERB
 40
0.0
  9
$CHAMFERC
 40
0.0
  9
$CHAMFERD
 40
0.0
  9
$SKPOLY
 70
     0
  9
$TDCREATE
 40
2454471.825130741
  9
$TDUCREATE
 40
2454471.783464074
  9
$TDUPDATE
 40
2454500.610503635
  9
$TDUUPDATE
 40
2454500.568836968
  9
$TDINDWG
 40
0.0015192708
  9
$TDUSRTIMER
 40
0.0015190972
  9
$USRTIMER
 70
     1
  9
$ANGBASE
 50
0.0
  9
$ANGDIR
 70
     0
  9
$PDMODE
 70
     0
  9
$PDSIZE
 40
0.0
  9
$PLINEWID
 40
0.0
  9
$SPLFRAME
 70
     0
  9
$SPLINETYPE
 70
     6
  9
$SPLINESEGS
 70
     8
  9
$HANDSEED
  5
13B
  9
$SURFTAB1
 70
     6
  9
$SURFTAB2
 70
     6
  9
$SURFTYPE
 70
     6
  9
$SURFU
 70
     6
  9
$SURFV
 70
     6
  9
$UCSBASE
  2

  9
$UCSNAME
  2

  9
$UCSORG
 10
0.0
 20
0.0
 30
0.0
  9
$UCSXDIR
 10
1.0
 20
0.0
 30
0.0
  9
$UCSYDIR
 10
0.0
 20
1.0
 30
0.0
  9
$UCSORTHOREF
  2

  9
$UCSORTHOVIEW
 70
     0
  9
$UCSORGTOP
 10
0.0
 20
0.0
 30
0.0
  9
$UCSORGBOTTOM
 10
0.0
 20
0.0
 30
0.0
  9
$UCSORGLEFT
 10
0.0
 20
0.0
 30
0.0
  9
$UCSORGRIGHT
 10
0.0
 20
0.0
 30
0.0
  9
$UCSORGFRONT
 10
0.0
 20
0.0
 30
0.0
  9
$UCSORGBACK
 10
0.0
 20
0.0
 30
0.0
  9
$PUCSBASE
  2

  9
$PUCSNAME
  2

  9
$PUCSORG
 10
0.0
 20
0.0
 30
0.0
  9
$PUCSXDIR
 10
1.0
 20
0.0
 30
0.0
  9
$PUCSYDIR
 10
0.0
 20
1.0
 30
0.0
  9
$PUCSORTHOREF
  2

  9
$PUCSORTHOVIEW
 70
     0
  9
$PUCSORGTOP
 10
0.0
 20
0.0
 30
0.0
  9
$PUCSORGBOTTOM
 10
0.0
 20
0.0
 30
0.0
  9
$PUCSORGLEFT
 10
0.0
 20
0.0
 30
0.0
  9
$PUCSORGRIGHT
 10
0.0
 20
0.0
 30
0.0
  9
$PUCSORGFRONT
 10
0.0
 20
0.0
 30
0.0
  9
$PUCSORGBACK
 10
0.0
 20
0.0
 30
0.0
  9
$USERI1
 70
     0
  9
$USERI2
 70
     0
  9
$USERI3
 70
     0
  9
$USERI4
 70
     0
  9
$USERI5
 70
     0
  9
$USERR1
 40
0.0
  9
$USERR2
 40
0.0
  9
$USERR3
 40
0.0
  9
$USERR4
 40
0.0
  9
$USERR5
 40
0.0
  9
$WORLDVIEW
 70
     1
  9
$SHADEDGE
 70
     3
  9
$SHADEDIF
 70
    70
  9
$TILEMODE
 70
     1
  9
$MAXACTVP
 70
    64
  9
$PINSBASE
 10
0.0
 20
0.0
 30
0.0
  9
$PLIMCHECK
 70
     0
  9
$PEXTMIN
 10
0.0
 20
0.0
 30
0.0
  9
$PEXTMAX
 10
0.0
 20
0.0
 30
0.0
  9
$PLIMMIN
 10
0.0
 20
0.0
  9
$PLIMMAX
 10
12.0
 20
9.0
  9
$UNITMODE
 70
     0
  9
$VISRETAIN
 70
     1
  9
$PLINEGEN
 70
     0
  9
$PSLTSCALE
 70
     1
  9
$TREEDEPTH
 70
  3020
  9
$CMLSTYLE
  2
Standard
  9
$CMLJUST
 70
     0
  9
$CMLSCALE
 40
1.0
  9
$PROXYGRAPHICS
 70
     1
  9
$MEASUREMENT
 70
     0
  9
$CELWEIGHT
370
    -1
  9
$ENDCAPS
280
     0
  9
$JOINSTYLE
280
     0
  9
$LWDISPLAY
290
     0
  9
$INSUNITS
 70
     1
  9
$HYPERLINKBASE
  1

  9
$STYLESHEET
  1

  9
$XEDIT
290
     1
  9
$CEPSNTYPE
380
     0
  9
$PSTYLEMODE
290
     1
  9
$FINGERPRINTGUID
  2
{FDEAD576-A652-11D2-9A35-0060089B3A3F}
  9
$VERSIONGUID
  2
{6C36B876-38D4-4FEA-AD1C-8D0CC21FB99C}
  9
$EXTNAMES
290
     1
  9
$PSVPSCALE
 40
0.0
  9
$OLESTARTUP
290
     0
  9
$SORTENTS
280
   127
  9
$INDEXCTL
280
     0
  9
$HIDETEXT
280
     1
  9
$XCLIPFRAME
290
     0
  9
$HALOGAP
280
     0
  9
$OBSCOLOR
 70
   257
  9
$OBSLTYPE
280
     0
  9
$INTERSECTIONDISPLAY
280
     0
  9
$INTERSECTIONCOLOR
 70
   257
  9
$DIMASSOC
280
     2
  9
$PROJECTNAME
  1

  0
ENDSEC
  0
SECTION
  2
CLASSES
  0
CLASS
  1
ACDBDICTIONARYWDFLT
  2
AcDbDictionaryWithDefault
  3
ObjectDBX Classes
 90
        0
 91
        1
280
     0
281
     0
  0
CLASS
  1
DICTIONARYVAR
  2
AcDbDictionaryVar
  3
ObjectDBX Classes
 90
        0
 91
        2
280
     0
281
     0
  0
CLASS
  1
SORTENTSTABLE
  2
AcDbSortentsTable
  3
ObjectDBX Classes
 90
        0
 91
        2
280
     0
281
     0
  0
ENDSEC
  0
SECTION
  2
TABLES
  0
TABLE
  2
VPORT
  5
8
330
0
100
AcDbSymbolTable
 70
     4
  0
VPORT
  5
13A
330
8
100
AcDbSymbolTableRecord
100
AcDbViewportTableRecord
  2
*Active
 70
     0
 10
0.0
 20
0.0
 11
1.0
 21
1.0
 12
406.9041123937138
 22
408.3971820424206
 13
0.0
 23
0.0
 14
0.5
 24
0.5
 15
0.5
 25
0.5
 16
0.0
 26
0.0
 36
1.0
 17
0.0
 27
0.0
 37
0.0
 40
879.5023317304455
 41
1.809523809523809
 42
50.0
 43
0.0
 44
0.0
 50
0.0
 51
0.0
 71
     0
 72
  1000
 73
     1
 74
     3
 75
     0
 76
     0
 77
     0
 78
     0
281
     0
 65
     1
110
0.0
120
0.0
130
0.0
111
1.0
121
0.0
131
0.0
112
0.0
122
1.0
132
0.0
 79
     0
146
0.0
  0
ENDTAB
  0
TABLE
  2
LTYPE
  5
5
330
0
100
AcDbSymbolTable
 70
     1
  0
LTYPE
  5
14
330
5
100
AcDbSymbolTableRecord
100
AcDbLinetypeTableRecord
  2
ByBlock
 70
     0
  3

 72
    65
 73
     0
 40
0.0
  0
LTYPE
  5
15
330
5
100
AcDbSymbolTableRecord
100
AcDbLinetypeTableRecord
  2
ByLayer
 70
     0
  3

 72
    65
 73
     0
 40
0.0
  0
LTYPE
  5
16
330
5
100
AcDbSymbolTableRecord
100
AcDbLinetypeTableRecord
  2
Continuous
 70
     0
  3
Solid line
 72
    65
 73
     0
 40
0.0
  0
ENDTAB
  0
TABLE
  2
LAYER
  5
2
102
{ACAD_XDICTIONARY
360
C2
102
}
330
0
100
AcDbSymbolTable
 70
     1
  0
LAYER
  5
10
330
2
100
AcDbSymbolTableRecord
100
AcDbLayerTableRecord
  2
0
 70
     0
 62
     7
  6
Continuous
370
    -3
390
F
  0
ENDTAB
  0
TABLE
  2
STYLE
  5
3
330
0
100
AcDbSymbolTable
 70
     1
  0
STYLE
  5
11
330
3
100
AcDbSymbolTableRecord
100
AcDbTextStyleTableRecord
  2
Standard
 70
     0
 40
0.0
 41
1.0
 50
0.0
 71
     0
 42
0.2
  3
txt
  4

  0
ENDTAB
  0
TABLE
  2
VIEW
  5
6
330
0
100
AcDbSymbolTable
 70
     0
  0
ENDTAB
  0
TABLE
  2
UCS
  5
7
330
0
100
AcDbSymbolTable
 70
     0
  0
ENDTAB
  0
TABLE
  2
APPID
  5
9
330
0
100
AcDbSymbolTable
 70
     1
  0
APPID
  5
12
330
9
100
AcDbSymbolTableRecord
100
AcDbRegAppTableRecord
  2
ACAD
 70
     0
  0
ENDTAB
  0
TABLE
  2
DIMSTYLE
  5
A
330
0
100
AcDbSymbolTable
 70
     1
100
AcDbDimStyleTable
 71
     0
  0
DIMSTYLE
105
27
330
A
100
AcDbSymbolTableRecord
100
AcDbDimStyleTableRecord
  2
Standard
 70
     0
340
11
  0
ENDTAB
  0
TABLE
  2
BLOCK_RECORD
  5
1
330
0
100
AcDbSymbolTable
 70
     5
  0
BLOCK_RECORD
  5
1F
330
1
100
AcDbSymbolTableRecord
100
AcDbBlockTableRecord
  2
*Model_Space
340
22
  0
BLOCK_RECORD
  5
58
330
1
100
AcDbSymbolTableRecord
100
AcDbBlockTableRecord
  2
*Paper_Space
340
59
  0
BLOCK_RECORD
  5
5D
330
1
100
AcDbSymbolTableRecord
100
AcDbBlockTableRecord
  2
*Paper_Space0
340
5E
  0
BLOCK_RECORD
  5
93
330
1
100
AcDbSymbolTableRecord
100
AcDbBlockTableRecord
  2
_Oblique
340
0
  0
BLOCK_RECORD
  5
97
102
{ACAD_XDICTIONARY
360
DF
102
}
330
1
100
AcDbSymbolTableRecord
100
AcDbBlockTableRecord
  2
OJKL
340
0
310
2800000020000000200000000100080000000000000400000000000000000000000000000000000000000000000080000080000000808000800000008000800080800000C0C0C000C0DCC000F0CAA6000020400000206000002080000020A0000020C0000020E00000400000004020000040400000406000004080000040A0
310
000040C0000040E00000600000006020000060400000606000006080000060A0000060C0000060E00000800000008020000080400000806000008080000080A0000080C0000080E00000A0000000A0200000A0400000A0600000A0800000A0A00000A0C00000A0E00000C0000000C0200000C0400000C0600000C0800000C0
310
A00000C0C00000C0E00000E0000000E0200000E0400000E0600000E0800000E0A00000E0C00000E0E00040000000400020004000400040006000400080004000A0004000C0004000E00040200000402020004020400040206000402080004020A0004020C0004020E000404000004040200040404000404060004040800040
310
40A0004040C0004040E00040600000406020004060400040606000406080004060A0004060C0004060E00040800000408020004080400040806000408080004080A0004080C0004080E00040A0000040A0200040A0400040A0600040A0800040A0A00040A0C00040A0E00040C0000040C0200040C0400040C0600040C08000
310
40C0A00040C0C00040C0E00040E0000040E0200040E0400040E0600040E0800040E0A00040E0C00040E0E00080000000800020008000400080006000800080008000A0008000C0008000E00080200000802020008020400080206000802080008020A0008020C0008020E00080400000804020008040400080406000804080
310
008040A0008040C0008040E00080600000806020008060400080606000806080008060A0008060C0008060E00080800000808020008080400080806000808080008080A0008080C0008080E00080A0000080A0200080A0400080A0600080A0800080A0A00080A0C00080A0E00080C0000080C0200080C0400080C0600080C0
310
800080C0A00080C0C00080C0E00080E0000080E0200080E0400080E0600080E0800080E0A00080E0C00080E0E000C0000000C0002000C0004000C0006000C0008000C000A000C000C000C000E000C0200000C0202000C0204000C0206000C0208000C020A000C020C000C020E000C0400000C0402000C0404000C0406000C0
310
408000C040A000C040C000C040E000C0600000C0602000C0604000C0606000C0608000C060A000C060C000C060E000C0800000C0802000C0804000C0806000C0808000C080A000C080C000C080E000C0A00000C0A02000C0A04000C0A06000C0A08000C0A0A000C0A0C000C0A0E000C0C00000C0C02000C0C04000C0C06000
310
C0C08000C0C0A000F0FBFF00A4A0A000808080000000FF0000FF000000FFFF00FF000000FF00FF00FFFF0000FFFFFF0000000000000000000000000000000000000000000000000000000000000000000000000000000000000000FFFFFFFFFFFFFFFFFFFF000000000000000000000000000000000000000000FF00000000
310
000000000000FF0000000000000000000000000000000000000000FF00000000000000000000FF0000000000000000000000000000000000000000FF00000000000000000000FF0000000000000000000000000000000000000000FF00000000000000000000FF0000000000000000000000000000000000000000FF000000
310
00000000000000FF00000000000000000000000000000000000000FF000000000000000000000000FF000000000000000000000000000000000000FF000000000000000000000000FF000000000000000000000000000000000000FF000000000000000000000000FF000000000000000000000000000000000000FF000000
310
000000000000000000FF000000000000000000000000000000000000FF000000000000000000000000FF000000000000000000000000000000000000FF000000000000000000000000FF000000000000000000000000000000000000FF000000000000000000000000FF000000000000000000000000000000000000FF0000
310
00000000000000000000FF000000000000000000000000000000000000FF000000000000000000000000FF0000000000000000000000000000000000FF0000000000000000000000000000FF00000000000000000000000000000000FF0000000000FFFFFFFF0000000000FF00000000000000000000000000000000FF0000
310
00FFFF0000FF00FFFF000000FF00000000000000000000000000000000FF000000FF00FFFF00FF0000FF0000FF00000000000000000000000000000000FF0000FFFFFF00000000FFFFFF0000FF00000000000000000000000000000000FF00FFFF0000000000000000FFFF00FF00000000000000000000000000000000FFFF
310
00FF0000000000000000FF00FFFF00000000000000000000000000000000FFFFFF00000000000000000000FFFFFF00000000000000000000000000000000FFFFFFFFFFFFFFFFFFFFFFFFFFFF00FF000000000000000000000000000000FFFF00FF00000000000000000000FF00FFFF0000000000000000000000000000FFFF
310
FFFFFF0000000000000000FFFFFFFFFF0000000000000000000000000000FFFFFFFFFFFFFFFFFFFFFFFFFFFFFFFFFFFF0000000000000000000000000000FFFF000000000000000000000000000000FF0000000000000000000000000000FF00000000000000000000000000000000FF0000000000000000000000000000FF
310
FFFFFFFFFFFFFFFFFFFFFFFFFFFFFFFFFF000000000000000000000000000000000000000000000000000000000000000000000000000000
102
{BLKREFS
331
D5
102
}
1001
ACAD
1000
DesignCenter Data
1002
{
1070
     1
1070
     1
1002
}
  0
BLOCK_RECORD
  5
116
330
1
100
AcDbSymbolTableRecord
100
AcDbBlockTableRecord
  2
22700_A
340
0
102
{BLKREFS
331
137
102
}
1001
ACAD
1000
DesignCenter Data
1002
{
1070
     1
1070
     4
1002
}
  0
ENDTAB
  0
ENDSEC
  0
SECTION
  2
BLOCKS
  0
BLOCK
  5
20
330
1F
100
AcDbEntity
  8
0
100
AcDbBlockBegin
  2
*Model_Space
 70
     0
 10
0.0
 20
0.0
 30
0.0
  3
*Model_Space
  1

  0
ENDBLK
  5
21
330
1F
100
AcDbEntity
  8
0
100
AcDbBlockEnd
  0
BLOCK
  5
5A
330
58
100
AcDbEntity
 67
     1
  8
0
100
AcDbBlockBegin
  2
*Paper_Space
 70
     0
 10
0.0
 20
0.0
 30
0.0
  3
*Paper_Space
  1

  0
ENDBLK
  5
5B
330
58
100
AcDbEntity
 67
     1
  8
0
100
AcDbBlockEnd
  0
BLOCK
  5
5F
330
5D
100
AcDbEntity
  8
0
100
AcDbBlockBegin
  2
*Paper_Space0
 70
     0
 10
0.0
 20
0.0
 30
0.0
  3
*Paper_Space0
  1

  0
ENDBLK
  5
60
330
5D
100
AcDbEntity
  8
0
100
AcDbBlockEnd
  0
BLOCK
  5
94
330
93
100
AcDbEntity
  8
0
100
AcDbBlockBegin
  2
_Oblique
 70
     0
 10
0.0
 20
0.0
 30
0.0
  3
_Oblique
  1

  0
LINE
  5
95
330
93
100
AcDbEntity
  8
0
  6
ByBlock
 62
     0
370
    -2
100
AcDbLine
 10
-0.5
 20
-0.5
 30
0.0
 11
0.5
 21
0.5
 31
0.0
  0
ENDBLK
  5
96
330
93
100
AcDbEntity
  8
0
100
AcDbBlockEnd
  0
BLOCK
  5
98
330
97
100
AcDbEntity
  8
0
100
AcDbBlockBegin
  2
OJKL
 70
     0
 10
0.0
 20
0.0
 30
0.0
  3
OJKL
  1

  0
LINE
  5
99
330
97
100
AcDbEntity
  8
0
  6
Continuous
100
AcDbLine
 10
0.0
 20
0.0
 30
0.0
 11
-173.3860952958402
 21
0.0
 31
0.0
  0
ARC
  5
9A
330
97
100
AcDbEntity
  8
0
  6
Continuous
100
AcDbCircle
 10
-236.0055005660206
 20
516.9999999999999
 30
0.0
 40
8.0
100
AcDbArc
 50
90.0
 51
190.1060395583603
  0
ARC
  5
9B
330
97
100
AcDbEntity
  8
0
  6
Continuous
100
AcDbCircle
 10
-225.560524002548
 20
452.9029840433702
 30
0.0
 40
4.0
100
AcDbArc
 50
90.0
 51
195.4593992500178
  0
ARC
  5
9C
330
97
100
AcDbEntity
  8
0
  6
Continuous
100
AcDbCircle
 10
-230.6268266401939
 20
479.9138256952026
 30
0.0
 40
4.0
100
AcDbArc
 50
198.3822114052033
 51
270.0
  0
LINE
  5
9D
330
97
100
AcDbEntity
  8
0
  6
Continuous
100
AcDbLine
 10
-233.778202056129
 20
477.4503255454471
 30
0.0
 11
-229.7220302288979
 21
452.9475884617597
 31
0.0
  0
ARC
  5
9E
330
97
100
AcDbEntity
  8
0
  6
Continuous
100
AcDbCircle
 10
411.1215410426803
 20
579.6880724010409
 30
0.0
 40
619.9823590865218
100
AcDbArc
 50
192.5185056634698
 51
195.7977816235219
  0
ELLIPSE
  5
9F
330
97
100
AcDbEntity
  8
0
  6
Continuous
100
AcDbEllipse
 10
-176.1738266102484
 20
446.5946626272405
 30
0.0
 11
18.0899510580373
 21
0.0
 31
0.0
210
0.0
220
0.0
230
-1.0
 40
0.5698368880632944
 41
3.016041524047161
 42
4.712388980384688
  0
LINE
  5
A0
330
97
100
AcDbEntity
  8
0
  6
Continuous
100
AcDbLine
 10
-184.2326381705033
 20
456.9029840433702
 30
0.0
 11
-183.1910502936143
 21
456.9029840433702
 31
0.0
  0
LINE
  5
A1
330
97
100
AcDbEntity
  8
0
  6
Continuous
100
AcDbLine
 10
-225.560524002548
 20
456.9029840433702
 30
0.0
 11
-176.1738266102484
 21
456.9029840433698
 31
0.0
  0
ARC
  5
A2
330
97
100
AcDbEntity
  8
0
  6
Continuous
100
AcDbCircle
 10
423.2957054570188
 20
536.2813555755413
 30
0.0
 40
619.9823590865557
100
AcDbArc
 50
192.1608085770863
 51
193.1397372216502
  0
ARC
  5
A3
330
97
100
AcDbEntity
  8
0
  6
Continuous
100
AcDbCircle
 10
-41.41595614812013
 20
455.2629447827412
 30
0.0
 40
180.0000000000919
100
AcDbArc
 50
200.6241308639245
 51
220.2225641218968
  0
ARC
  5
A4
330
97
100
AcDbEntity
  8
0
  6
Continuous
100
AcDbCircle
 10
-30.78693536802075
 20
451.9076737341413
 30
0.0
 40
159.9999999999996
100
AcDbArc
 50
194.8496865340085
 51
220.1553726912911
  0
ELLIPSE
  5
A5
330
97
100
AcDbEntity
  8
0
  6
Continuous
100
AcDbEllipse
 10
-164.8268218089024
 20
406.9690667516795
 30
0.0
 11
18.0899510580373
 21
0.0
 31
0.0
210
0.0
220
0.0
230
-1.0
 40
0.5698368880632944
 41
3.016041524047161
 42
4.712388980384688
  0
ARC
  5
A6
330
97
100
AcDbEntity
  8
0
  6
Continuous
100
AcDbCircle
 10
445.2579042682907
 20
638.4255872275722
 30
0.0
 40
700.0
100
AcDbArc
 50
195.4593992500178
 51
200.6241308639245
  0
ARC
  5
A7
330
97
100
AcDbEntity
  8
0
  6
Continuous
100
AcDbCircle
 10
23.6278541626225
 20
564.4054361126275
 30
0.0
 40
271.9258758333505
100
AcDbArc
 50
190.3547060000474
 51
198.3822114052033
  0
LINE
  5
A8
330
97
100
AcDbEntity
  8
0
  6
Continuous
100
AcDbLine
 10
-173.3860952958121
 20
0.0
 30
0.0
 11
-164.3606550094982
 21
0.0167738552306673
 31
0.0
  0
ARC
  5
A9
330
97
100
AcDbEntity
  8
0
  6
Continuous
100
AcDbCircle
 10
-173.3860952958121
 20
10.0
 30
0.0
 40
10.0
100
AcDbArc
 50
190.4865117427273
 51
270.0
  0
ARC
  5
AA
330
97
100
AcDbEntity
  8
0
  6
Continuous
100
AcDbCircle
 10
3749.972051702608
 20
736.1961514502256
 30
0.0
 40
4000.0
100
AcDbArc
 50
183.1476287097238
 51
190.4865117427273
  0
ARC
  5
AB
330
97
100
AcDbEntity
  8
0
  6
Continuous
100
AcDbCircle
 10
62.61940527018032
 20
516.9999999999999
 30
0.0
 40
8.0
100
AcDbArc
 50
349.8939604416396
 51
90.0
  0
LINE
  5
AC
330
97
100
AcDbEntity
  8
0
  6
Continuous
100
AcDbLine
 10
62.61940527018032
 20
524.9999999999999
 30
0.0
 11
-236.0055005660206
 21
524.9999999999999
 31
0.0
  0
ARC
  5
AD
330
97
100
AcDbEntity
  8
0
  6
Continuous
100
AcDbCircle
 10
52.17442870670765
 20
452.9029840433702
 30
0.0
 40
4.0
100
AcDbArc
 50
344.5406007499823
 51
90.0
  0
ARC
  5
AE
330
97
100
AcDbEntity
  8
0
  6
Continuous
100
AcDbCircle
 10
57.24073134435364
 20
479.9138256952026
 30
0.0
 40
4.0
100
AcDbArc
 50
270.0
 51
341.6177885947967
  0
LINE
  5
AF
330
97
100
AcDbEntity
  8
0
  6
Continuous
100
AcDbLine
 10
60.39210676028869
 20
477.4503255454471
 30
0.0
 11
56.33593493305761
 21
452.9475884617597
 31
0.0
  0
LINE
  5
B0
330
97
100
AcDbEntity
  8
0
  6
Continuous
100
AcDbLine
 10
-164.8268218089024
 20
417.2773881678078
 30
0.0
 11
-8.559273486937852
 21
417.2773881678088
 31
0.0
  0
ARC
  5
B1
330
97
100
AcDbEntity
  8
0
  6
Continuous
100
AcDbCircle
 10
-584.5076363385206
 20
579.6880724010409
 30
0.0
 40
619.9823590865218
100
AcDbArc
 50
344.2022183764781
 51
347.4814943365302
  0
ELLIPSE
  5
B2
330
97
100
AcDbEntity
  8
0
  6
Continuous
100
AcDbEllipse
 10
2.787731314408119
 20
446.5946626272405
 30
0.0
 11
-18.0899510580373
 21
0.0
 31
0.0
210
0.0
220
0.0
230
1.0
 40
0.5698368880632944
 41
3.016041524047161
 42
4.712388980384688
  0
LINE
  5
B3
330
97
100
AcDbEntity
  8
0
  6
Continuous
100
AcDbLine
 10
10.8465428746631
 20
456.9029840433702
 30
0.0
 11
9.804954997774077
 21
456.9029840433702
 31
0.0
  0
LINE
  5
B4
330
97
100
AcDbEntity
  8
0
  6
Continuous
100
AcDbLine
 10
57.24073134435364
 20
475.9138256952025
 30
0.0
 11
-230.6268266401939
 21
475.9138256952025
 31
0.0
  0
LINE
  5
B5
330
97
100
AcDbEntity
  8
0
  6
Continuous
100
AcDbLine
 10
52.17442870670765
 20
456.9029840433702
 30
0.0
 11
2.787731314408119
 21
456.9029840433698
 31
0.0
  0
ARC
  5
B6
330
97
100
AcDbEntity
  8
0
  6
Continuous
100
AcDbCircle
 10
-596.6818007528591
 20
536.2813555755413
 30
0.0
 40
619.9823590865557
100
AcDbArc
 50
346.8602627783497
 51
347.8391914229137
  0
ARC
  5
B7
330
97
100
AcDbEntity
  8
0
  6
Continuous
100
AcDbCircle
 10
-131.9701391477201
 20
455.2629447827412
 30
0.0
 40
180.0000000000919
100
AcDbArc
 50
319.7774358781032
 51
339.3758691360754
  0
ARC
  5
B8
330
97
100
AcDbEntity
  8
0
  6
Continuous
100
AcDbCircle
 10
-142.5991599278195
 20
451.9076737341413
 30
0.0
 40
159.9999999999996
100
AcDbArc
 50
319.844627308709
 51
345.1503134659852
  0
ELLIPSE
  5
B9
330
97
100
AcDbEntity
  8
0
  6
Continuous
100
AcDbEllipse
 10
-8.559273486937852
 20
406.9690667516795
 30
0.0
 11
-18.0899510580373
 21
0.0
 31
0.0
210
0.0
220
0.0
230
1.0
 40
0.5698368880632944
 41
3.016041524047161
 42
4.712388980384688
  0
ARC
  5
BA
330
97
100
AcDbEntity
  8
0
  6
Continuous
100
AcDbCircle
 10
-618.6439995641312
 20
638.4255872275722
 30
0.0
 40
700.0
100
AcDbArc
 50
339.3758691360754
 51
344.5406007499823
  0
ARC
  5
BB
330
97
100
AcDbEntity
  8
0
  6
Continuous
100
AcDbCircle
 10
-197.0139494584628
 20
564.4054361126275
 30
0.0
 40
271.9258758333505
100
AcDbArc
 50
341.6177885947967
 51
349.6452939999526
  0
LINE
  5
BC
330
97
100
AcDbEntity
  8
0
  6
Continuous
100
AcDbLine
 10
-0.0000000000281943
 20
0.0
 30
0.0
 11
-9.025440286342018
 21
0.0167738552306673
 31
0.0
  0
ARC
  5
BD
330
97
100
AcDbEntity
  8
0
  6
Continuous
100
AcDbCircle
 10
-0.0000000000281943
 20
10.0
 30
0.0
 40
10.0
100
AcDbArc
 50
270.0
 51
349.5134882572727
  0
ARC
  5
BE
330
97
100
AcDbEntity
  8
0
  6
Continuous
100
AcDbCircle
 10
-86.69304764792013
 20
415.8798940619408
 30
0.0
 40
120.0000000000017
100
AcDbArc
 50
219.8250519895033
 51
320.1749480104967
  0
ARC
  5
BF
330
97
100
AcDbEntity
  8
0
  6
Continuous
100
AcDbCircle
 10
-86.69304764792013
 20
401.8189825238411
 30
0.0
 40
85.00000000001922
100
AcDbArc
 50
218.6513853232355
 51
321.3486146767644
  0
ARC
  5
C0
330
97
100
AcDbEntity
  8
0
  6
Continuous
100
AcDbCircle
 10
-3923.358146998449
 20
736.1961514502256
 30
0.0
 40
4000.0
100
AcDbArc
 50
349.5134882572727
 51
356.8523712902761
  0
ENDBLK
  5
C1
330
97
100
AcDbEntity
  8
0
100
AcDbBlockEnd
  0
BLOCK
  5
117
330
116
100
AcDbEntity
  8
0
100
AcDbBlockBegin
  2
22700_A
 70
     0
 10
0.0
 20
0.0
 30
0.0
  3
22700_A
  1

  0
ARC
  5
119
330
116
100
AcDbEntity
  8
0
  6
ByBlock
 62
     0
100
AcDbCircle
 10
-3836.665099350529
 20
736.1961514502256
 30
0.0
 40
4000.0
100
AcDbArc
 50
349.5134882572727
 51
356.8523712902762
  0
ARC
  5
11A
330
116
100
AcDbEntity
  8
0
  6
ByBlock
 62
     0
100
AcDbCircle
 10
0.0
 20
415.8798940619408
 30
0.0
 40
120.0000000000017
100
AcDbArc
 50
219.8250519895043
 51
320.1749480104957
  0
ARC
  5
11B
330
116
100
AcDbEntity
  8
0
  6
ByBlock
 62
     0
100
AcDbCircle
 10
86.69304764789194
 20
10.0
 30
0.0
 40
10.0
100
AcDbArc
 50
270.0
 51
349.5134882572727
  0
LINE
  5
11C
330
116
100
AcDbEntity
  8
0
  6
ByBlock
 62
     0
100
AcDbLine
 10
86.69304764789194
 20
0.0
 30
0.0
 11
77.66760736157812
 21
0.0167738552306673
 31
0.0
  0
ARC
  5
11D
330
116
100
AcDbEntity
  8
0
  6
ByBlock
 62
     0
100
AcDbCircle
 10
-110.3209018105426
 20
564.4054361126275
 30
0.0
 40
271.9258758333505
100
AcDbArc
 50
341.6177885947962
 51
349.6452939999526
  0
ARC
  5
11E
330
116
100
AcDbEntity
  8
0
  6
ByBlock
 62
     0
100
AcDbCircle
 10
-531.9509519162111
 20
638.4255872275722
 30
0.0
 40
700.0
100
AcDbArc
 50
339.3758691360744
 51
344.5406007499818
  0
ARC
  5
11F
330
116
100
AcDbEntity
  8
0
  6
ByBlock
 62
     0
100
AcDbCircle
 10
-45.2770914998
 20
455.2629447827412
 30
0.0
 40
180.0000000000919
100
AcDbArc
 50
319.777435878102
 51
339.3758691360744
  0
LINE
  5
120
330
116
100
AcDbEntity
  8
0
  6
ByBlock
 62
     0
100
AcDbLine
 10
143.9337789922738
 20
475.9138256952025
 30
0.0
 11
-143.9337789922738
 21
475.9138256952025
 31
0.0
  0
LINE
  5
121
330
116
100
AcDbEntity
  8
0
  6
ByBlock
 62
     0
100
AcDbLine
 10
147.0851544082088
 20
477.4503255454471
 30
0.0
 11
143.0289825809777
 21
452.9475884617596
 31
0.0
  0
ARC
  5
122
330
116
100
AcDbEntity
  8
0
  6
ByBlock
 62
     0
100
AcDbCircle
 10
143.9337789922738
 20
479.9138256952026
 30
0.0
 40
4.0
100
AcDbArc
 50
270.0
 51
341.6177885947962
  0
LINE
  5
123
330
116
100
AcDbEntity
  8
0
  6
ByBlock
 62
     0
100
AcDbLine
 10
149.3124529181004
 20
524.9999999999999
 30
0.0
 11
-149.3124529181004
 21
524.9999999999999
 31
0.0
  0
ARC
  5
124
330
116
100
AcDbEntity
  8
0
  6
ByBlock
 62
     0
100
AcDbCircle
 10
149.3124529181004
 20
516.9999999999999
 30
0.0
 40
8.0
100
AcDbArc
 50
349.8939604416402
 51
90.0
  0
ARC
  5
125
330
116
100
AcDbEntity
  8
0
  6
ByBlock
 62
     0
100
AcDbCircle
 10
3836.665099350528
 20
736.1961514502256
 30
0.0
 40
4000.0
100
AcDbArc
 50
183.1476287097237
 51
190.4865117427273
  0
ARC
  5
126
330
116
100
AcDbEntity
  8
0
  6
ByBlock
 62
     0
100
AcDbCircle
 10
-86.69304764789194
 20
10.0
 30
0.0
 40
10.0
100
AcDbArc
 50
190.4865117427273
 51
270.0
  0
LINE
  5
127
330
116
100
AcDbEntity
  8
0
  6
ByBlock
 62
     0
100
AcDbLine
 10
-86.69304764789194
 20
0.0
 30
0.0
 11
-77.66760736157812
 21
0.0167738552306673
 31
0.0
  0
ARC
  5
128
330
116
100
AcDbEntity
  8
0
  6
ByBlock
 62
     0
100
AcDbCircle
 10
110.3209018105426
 20
564.4054361126275
 30
0.0
 40
271.9258758333505
100
AcDbArc
 50
190.3547060000474
 51
198.3822114052038
  0
ARC
  5
129
330
116
100
AcDbEntity
  8
0
  6
ByBlock
 62
     0
100
AcDbCircle
 10
531.9509519162108
 20
638.4255872275722
 30
0.0
 40
700.0
100
AcDbArc
 50
195.4593992500182
 51
200.6241308639256
  0
ARC
  5
12A
330
116
100
AcDbEntity
  8
0
  6
ByBlock
 62
     0
100
AcDbCircle
 10
45.2770914998
 20
455.2629447827412
 30
0.0
 40
180.0000000000919
100
AcDbArc
 50
200.6241308639256
 51
220.222564121898
  0
LINE
  5
12B
330
116
100
AcDbEntity
  8
0
  6
ByBlock
 62
     0
100
AcDbLine
 10
-147.0851544082088
 20
477.4503255454471
 30
0.0
 11
-143.0289825809777
 21
452.9475884617596
 31
0.0
  0
ARC
  5
12C
330
116
100
AcDbEntity
  8
0
  6
ByBlock
 62
     0
100
AcDbCircle
 10
-143.9337789922738
 20
479.9138256952026
 30
0.0
 40
4.0
100
AcDbArc
 50
198.3822114052038
 51
270.0
  0
ARC
  5
12D
330
116
100
AcDbEntity
  8
0
  6
ByBlock
 62
     0
100
AcDbCircle
 10
-149.3124529181004
 20
516.9999999999999
 30
0.0
 40
8.0
100
AcDbArc
 50
90.0
 51
190.1060395583598
  0
LINE
  5
12E
330
116
100
AcDbEntity
  8
0
  6
ByBlock
 62
     0
100
AcDbLine
 10
86.69304764792014
 20
0.0
 30
0.0
 11
-86.69304764792002
 21
0.0
 31
0.0
  0
LINE
  5
12F
330
116
100
AcDbEntity
  8
0
  6
ByBlock
 62
     0
100
AcDbLine
 10
-143.4719776217586
 20
474.1603106730728
 30
0.0
 11
143.4436054006399
 21
474.1603106730728
 31
0.0
  0
ARC
  5
130
330
116
100
AcDbEntity
  8
0
  6
ByBlock
 62
     0
100
AcDbCircle
 10
143.4436054006399
 20
473.9603106730728
 30
0.0
 40
0.2
100
AcDbArc
 50
352.4142636805253
 51
162.1170775500937
  0
ARC
  5
131
330
116
100
AcDbEntity
  8
0
  6
ByBlock
 62
     0
100
AcDbCircle
 10
-143.4719776217586
 20
473.9603106730728
 30
0.0
 40
0.2
100
AcDbArc
 50
18.98336776549411
 51
187.5822108770918
  0
LINE
  5
132
330
116
100
AcDbEntity
  8
0
  6
ByBlock
 62
     0
100
AcDbLine
 10
-140.803872112068
 20
452.4005792645612
 30
0.0
 11
-143.6702289328137
 21
473.9339209465708
 31
0.0
  0
LINE
  5
133
330
116
100
AcDbEntity
  8
0
  6
ByBlock
 62
     0
100
AcDbLine
 10
140.8011587287185
 20
452.391261065726
 30
0.0
 11
143.6418550875448
 21
473.9339087481032
 31
0.0
  0
SPLINE
  5
134
330
116
100
AcDbEntity
  8
0
  6
ByBlock
 62
     0
100
AcDbSpline
210
0.0
220
0.0
230
1.0
 70
     8
 71
     3
 72
    54
 73
    50
 74
     0
 42
0.0000000001
 43
0.0000000001
 40
1.088241546676779
 40
1.088241546676779
 40
1.088241546676779
 40
1.088241546676779
 40
25.88554814300292
 40
25.88554814300292
 40
46.03656753620787
 40
46.03656753620787
 40
63.47986971989256
 40
63.47986971989256
 40
107.653405687337
 40
107.653405687337
 40
121.5582407180889
 40
121.5582407180889
 40
132.8479506388074
 40
132.8479506388074
 40
144.1376605595259
 40
144.1376605595259
 40
166.7170804009629
 40
166.7170804009629
 40
199.3404443806442
 40
199.3404443806442
 40
216.549161340932
 40
216.549161340932
 40
228.2197278079105
 40
228.2197278079105
 40
239.8902942748889
 40
239.8902942748889
 40
263.2314272088457
 40
263.2314272088457
 40
306.1986442356404
 40
306.1986442356404
 40
319.2831909842283
 40
319.2831909842283
 40
328.9967720692188
 40
328.9967720692188
 40
338.7103531542094
 40
338.7103531542094
 40
358.1375153241904
 40
358.1375153241904
 40
377.782894688672
 40
377.782894688672
 40
393.6871764958494
 40
393.6871764958494
 40
409.5914583030269
 40
409.5914583030269
 40
427.685782670096
 40
427.685782670096
 40
445.7801070371653
 40
445.7801070371653
 40
452.0522998853949
 40
452.0522998853949
 40
452.0522998853949
 40
452.0522998853949
 10
143.2532682062076
 20
474.021725267557
 30
0.0
 10
138.207019252855
 20
458.1701880333922
 30
0.0
 10
135.9120751478061
 20
450.2389088796767
 30
0.0
 10
131.5234564081886
 20
435.9548187544937
 30
0.0
 10
129.4726667526999
 20
429.584702594579
 30
0.0
 10
125.3683335014909
 20
417.8019826545297
 30
0.0
 10
123.3521583266576
 20
412.3756011621824
 30
0.0
 10
115.6853226492312
 20
393.3991977481472
 30
0.0
 10
109.2032945822111
 20
380.1663771134396
 30
0.0
 10
98.2911018775302
 20
364.3866316326805
 30
0.0
 10
95.4985270844187
 20
360.7303689334659
 30
0.0
 10
90.06477773287906
 20
354.372396550163
 30
0.0
 10
87.48911722631556
 20
351.6198978010947
 30
0.0
 10
82.07245305378695
 20
346.3275714444228
 30
0.0
 10
79.23369330714888
 20
343.788694700568
 30
0.0
 10
70.37394831644633
 20
336.5333320021469
 30
0.0
 10
64.00943834850773
 20
332.1782470157345
 30
0.0
 10
47.64391163019047
 20
322.9622437395488
 30
0.0
 10
37.2849317763696
 20
318.7386444811729
 30
0.0
 10
21.00553033822962
 20
314.6190501547241
 30
0.0
 10
15.30061448723552
 20
313.6209987406036
 30
0.0
 10
5.68153854071977
 20
312.7312842730789
 30
0.0
 10
1.783157511422132
 20
312.5876237962215
 30
0.0
 10
-6.010136174166746
 20
312.7541853324922
 30
0.0
 10
-9.906829704151732
 20
313.0611551514555
 30
0.0
 10
-21.54365644638438
 20
314.6125482723582
 30
0.0
 10
-29.23068217511082
 20
316.4876757501356
 30
0.0
 10
-50.45348197549447
 20
323.8902540000201
 30
0.0
 10
-63.47134713332218
 20
331.1648279408677
 30
0.0
 10
-78.30225147616829
 20
342.9543235064422
 30
0.0
 10
-81.61146548483078
 20
345.8696818266974
 30
0.0
 10
-87.06647555903362
 20
351.1976850719992
 30
0.0
 10
-89.29166569736436
 20
353.5458442174157
 30
0.0
 10
-93.52771844412075
 20
358.384379292158
 30
0.0
 10
-95.54188363304048
 20
360.8762450163303
 30
0.0
 10
-101.3060894658006
 20
368.5435211523833
 30
0.0
 10
-104.7778809456715
 20
373.9107956163713
 30
0.0
 10
-111.1898762421508
 20
385.0754810385801
 30
0.0
 10
-114.1225498180012
 20
390.8731075545276
 30
0.0
 10
-118.991927954178
 20
401.5835021854046
 30
0.0
 10
-121.0108237864082
 20
406.4533291677961
 30
0.0
 10
-124.7906041787564
 20
416.2914255706292
 30
0.0
 10
-126.5542329242272
 20
421.2621802139276
 30
0.0
 10
-130.1513573806146
 20
431.9606270316011
 30
0.0
 10
-131.964030702613
 20
437.6980989586599
 30
0.0
 10
-135.4981726932304
 20
449.2070857997914
 30
0.0
 10
-137.2153289222185
 20
454.98112192151
 30
0.0
 10
-139.5107438034704
 20
462.7678534034114
 30
0.0
 10
-140.1000940667393
 20
464.7732364699778
 30
0.0
 10
-143.2828550129495
 20
474.0253694068237
 30
0.0
  0
LINE
  5
135
330
116
100
AcDbEntity
  8
0
  6
ByBlock
 62
     0
100
AcDbLine
 10
-143.9337789922738
 20
475.9138256952025
 30
0.0
 11
-101.870361137122
 21
475.9138256952025
 31
0.0
  0
SPLINE
  5
136
330
116
100
AcDbEntity
  8
0
  6
ByBlock
 62
     0
100
AcDbSpline
210
0.0
220
0.0
230
1.0
 70
     8
 71
     3
 72
    54
 73
    50
 74
     0
 42
0.0000000001
 43
0.0000000001
 40
0.0
 40
0.0
 40
0.0
 40
0.0
 40
25.88554814300292
 40
25.88554814300292
 40
46.03656753620787
 40
46.03656753620787
 40
63.47986971989256
 40
63.47986971989256
 40
107.653405687337
 40
107.653405687337
 40
121.5582407180889
 40
121.5582407180889
 40
132.8479506388074
 40
132.8479506388074
 40
144.1376605595259
 40
144.1376605595259
 40
166.7170804009629
 40
166.7170804009629
 40
199.3404443806442
 40
199.3404443806442
 40
216.549161340932
 40
216.549161340932
 40
228.2197278079105
 40
228.2197278079105
 40
239.8902942748889
 40
239.8902942748889
 40
263.2314272088457
 40
263.2314272088457
 40
306.1986442356404
 40
306.1986442356404
 40
319.2831909842283
 40
319.2831909842283
 40
328.9967720692188
 40
328.9967720692188
 40
338.7103531542094
 40
338.7103531542094
 40
358.1375153241904
 40
358.1375153241904
 40
377.782894688672
 40
377.782894688672
 40
393.6871764958494
 40
393.6871764958494
 40
409.5914583030269
 40
409.5914583030269
 40
427.685782670096
 40
427.685782670096
 40
445.7801070371653
 40
445.7801070371653
 40
452.4580387956822
 40
452.4580387956822
 40
452.4580387956822
 40
452.4580387956822
 10
140.8011587287185
 20
452.391261065726
 30
0.0
 10
138.4082056375374
 20
444.0985680834009
 30
0.0
 10
136.0183277643349
 20
435.8168862419071
 30
0.0
 10
131.5234564081886
 20
421.1869647650888
 30
0.0
 10
129.4726667526999
 20
414.8168486051742
 30
0.0
 10
125.3683335014909
 20
403.0341286651249
 30
0.0
 10
123.3521583266576
 20
397.6077471727776
 30
0.0
 10
115.6853226492312
 20
378.6313437587424
 30
0.0
 10
109.2032945822111
 20
365.3985231240348
 30
0.0
 10
98.2911018775302
 20
349.6187776432757
 30
0.0
 10
95.4985270844187
 20
345.9625149440611
 30
0.0
 10
90.06477773287906
 20
339.6045425607582
 30
0.0
 10
87.48911722631556
 20
336.8520438116899
 30
0.0
 10
82.07245305378695
 20
331.5597174550181
 30
0.0
 10
79.23369330714888
 20
329.0208407111632
 30
0.0
 10
70.37394831644633
 20
321.7654780127421
 30
0.0
 10
64.00943834850773
 20
317.4103930263297
 30
0.0
 10
47.64391163019047
 20
308.194389750144
 30
0.0
 10
37.2849317763696
 20
303.9707904917681
 30
0.0
 10
21.00553033822962
 20
299.8511961653193
 30
0.0
 10
15.30061448723552
 20
298.8531447511988
 30
0.0
 10
5.68153854071977
 20
297.9634302836741
 30
0.0
 10
1.783157511422132
 20
297.8197698068168
 30
0.0
 10
-6.010136174166746
 20
297.9863313430874
 30
0.0
 10
-9.906829704151732
 20
298.2933011620507
 30
0.0
 10
-21.54365644638438
 20
299.8446942829534
 30
0.0
 10
-29.23068217511082
 20
301.7198217607309
 30
0.0
 10
-50.45348197549447
 20
309.1224000106153
 30
0.0
 10
-63.47134713332218
 20
316.3969739514629
 30
0.0
 10
-78.30225147616829
 20
328.1864695170374
 30
0.0
 10
-81.61146548483078
 20
331.1018278372927
 30
0.0
 10
-87.06647555903362
 20
336.4298310825944
 30
0.0
 10
-89.29166569736436
 20
338.7779902280109
 30
0.0
 10
-93.52771844412075
 20
343.6165253027532
 30
0.0
 10
-95.54188363304048
 20
346.1083910269254
 30
0.0
 10
-101.3060894658006
 20
353.7756671629785
 30
0.0
 10
-104.7778809456715
 20
359.1429416269665
 30
0.0
 10
-111.1898762421508
 20
370.3076270491753
 30
0.0
 10
-114.1225498180012
 20
376.1052535651228
 30
0.0
 10
-118.991927954178
 20
386.8156481959999
 30
0.0
 10
-121.0108237864082
 20
391.6854751783914
 30
0.0
 10
-124.7906041787564
 20
401.5235715812244
 30
0.0
 10
-126.5542329242272
 20
406.4943262245228
 30
0.0
 10
-130.1513573806146
 20
417.1927730421963
 30
0.0
 10
-131.964030702613
 20
422.9302449692552
 30
0.0
 10
-135.4981726932304
 20
434.4392318103866
 30
0.0
 10
-137.2153289222185
 20
440.2132679321052
 30
0.0
 10
-139.5489658901292
 20
448.1296601249835
 30
0.0
 10
-140.1763361342703
 20
450.2648372064819
 30
0.0
 10
-140.803872112068
 20
452.4005792645612
 30
0.0
  0
ENDBLK
  5
118
330
116
100
AcDbEntity
  8
0
100
AcDbBlockEnd
  0
ENDSEC
  0
SECTION
  2
ENTITIES
  0
MTEXT
  5
CC
330
1F
100
AcDbEntity
  8
0
100
AcDbMText
 10
16.0331532286
 20
51.77765681441611
 30
0.0
 40
30.0
 41
688.0214198609437
 71
     1
 72
     5
  1
{\fTimes New Roman|b0|i0|c0|p18;\C0;URINARIO MURAL. SERIE ARQ}
 73
     1
 44
1.0
  0
INSERT
  5
137
330
1F
100
AcDbEntity
  8
0
100
AcDbBlockReference
  2
22700_A
 10
320.1242653283616
 20
145.9677915704419
 30
0.0
  0
ENDSEC
  0
SECTION
  2
OBJECTS
  0
DICTIONARY
  5
C
330
0
100
AcDbDictionary
281
     1
  3
ACAD_COLOR
350
73
  3
ACAD_GROUP
350
D
  3
ACAD_LAYOUT
350
1A
  3
ACAD_MATERIAL
350
72
  3
ACAD_MLINESTYLE
350
17
  3
ACAD_PLOTSETTINGS
350
19
  3
ACAD_PLOTSTYLENAME
350
E
  3
AcDbVariableDictionary
350
66
  0
DICTIONARY
  5
C2
330
2
100
AcDbDictionary
280
     1
281
     1
  3
ACAD_LAYERSTATES
360
C3
  0
DICTIONARY
  5
DF
330
97
100
AcDbDictionary
280
     1
281
     1
  3
ACAD_SORTENTS
360
E0
  0
DICTIONARY
  5
73
102
{ACAD_REACTORS
330
C
102
}
330
C
100
AcDbDictionary
281
     1
  0
DICTIONARY
  5
D
102
{ACAD_REACTORS
330
C
102
}
330
C
100
AcDbDictionary
281
     1
  0
DICTIONARY
  5
1A
102
{ACAD_REACTORS
330
C
102
}
330
C
100
AcDbDictionary
281
     1
  3
Model
350
22
  3
Presentación1
350
59
  3
Presentación2
350
5E
  0
DICTIONARY
  5
72
102
{ACAD_REACTORS
330
C
102
}
330
C
100
AcDbDictionary
281
     1
  0
DICTIONARY
  5
17
102
{ACAD_REACTORS
330
C
102
}
330
C
100
AcDbDictionary
281
     1
  3
Standard
350
18
  0
DICTIONARY
  5
19
102
{ACAD_REACTORS
330
C
102
}
330
C
100
AcDbDictionary
281
     1
  0
ACDBDICTIONARYWDFLT
  5
E
102
{ACAD_REACTORS
330
C
102
}
330
C
100
AcDbDictionary
281
     1
  3
Normal
350
F
100
AcDbDictionaryWithDefault
340
F
  0
DICTIONARY
  5
66
102
{ACAD_REACTORS
330
C
102
}
330
C
100
AcDbDictionary
281
     1
  3
DIMASSOC
350
67
  3
HIDETEXT
350
6B
  0
DICTIONARY
  5
C3
102
{ACAD_REACTORS
330
C2
102
}
330
C2
100
AcDbDictionary
281
     1
  0
SORTENTSTABLE
  5
E0
102
{ACAD_REACTORS
330
DF
102
}
330
DF
100
AcDbSortentsTable
330
97
  0
LAYOUT
  5
22
102
{ACAD_REACTORS
330
1A
102
}
330
1A
100
AcDbPlotSettings
  1

  2
none_device
  4
ANSI_A_(8.50_x_11.00_Inches)
  6

 40
6.349999904632567
 41
19.04999923706055
 42
6.350006103515625
 43
19.04998779296875
 44
215.8999938964844
 45
279.3999938964844
 46
0.0
 47
0.0
 48
0.0
 49
0.0
140
0.0
141
0.0
142
1.0
143
2.584895464708373
 70
 11952
 72
     0
 73
     1
 74
     0
  7

 75
     0
147
0.3868628397755418
 76
     0
 77
     2
 78
   300
148
0.0
149
0.0
100
AcDbLayout
  1
Model
 70
     1
 71
     0
 10
0.0
 20
0.0
 11
12.0
 21
9.0
 12
0.0
 22
0.0
 32
0.0
 14
0.0
 24
0.0
 34
0.0
 15
0.0
 25
0.0
 35
0.0
146
0.0
 13
0.0
 23
0.0
 33
0.0
 16
1.0
 26
0.0
 36
0.0
 17
0.0
 27
1.0
 37
0.0
 76
     0
330
1F
  0
LAYOUT
  5
59
102
{ACAD_REACTORS
330
1A
102
}
330
1A
100
AcDbPlotSettings
  1

  2
None
  4

  6

 40
0.0
 41
0.0
 42
0.0
 43
0.0
 44
0.0
 45
0.0
 46
0.0
 47
0.0
 48
0.0
 49
0.0
140
0.0
141
0.0
142
1.0
143
1.0
 70
   688
 72
     0
 73
     0
 74
     5
  7

 75
    16
147
1.0
 76
     0
 77
     2
 78
   300
148
0.0
149
0.0
100
AcDbLayout
  1
Presentación1
 70
     1
 71
     1
 10
0.0
 20
0.0
 11
12.0
 21
9.0
 12
0.0
 22
0.0
 32
0.0
 14
0.0
 24
0.0
 34
0.0
 15
0.0
 25
0.0
 35
0.0
146
0.0
 13
0.0
 23
0.0
 33
0.0
 16
1.0
 26
0.0
 36
0.0
 17
0.0
 27
1.0
 37
0.0
 76
     0
330
58
  0
LAYOUT
  5
5E
102
{ACAD_REACTORS
330
1A
102
}
330
1A
100
AcDbPlotSettings
  1

  2
None
  4

  6

 40
0.0
 41
0.0
 42
0.0
 43
0.0
 44
0.0
 45
0.0
 46
0.0
 47
0.0
 48
0.0
 49
0.0
140
0.0
141
0.0
142
1.0
143
1.0
 70
   688
 72
     0
 73
     0
 74
     5
  7

 75
    16
147
1.0
 76
     0
 77
     2
 78
   300
148
0.0
149
0.0
100
AcDbLayout
  1
Presentación2
 70
     1
 71
     2
 10
0.0
 20
0.0
 11
12.0
 21
9.0
 12
0.0
 22
0.0
 32
0.0
 14
0.0
 24
0.0
 34
0.0
 15
0.0
 25
0.0
 35
0.0
146
0.0
 13
0.0
 23
0.0
 33
0.0
 16
1.0
 26
0.0
 36
0.0
 17
0.0
 27
1.0
 37
0.0
 76
     0
330
5D
  0
MLINESTYLE
  5
18
102
{ACAD_REACTORS
330
17
102
}
330
17
100
AcDbMlineStyle
  2
STANDARD
 70
     0
  3

 62
   256
 51
90.0
 52
90.0
 71
     2
 49
0.5
 62
   256
  6
BYLAYER
 49
-0.5
 62
   256
  6
BYLAYER
  0
ACDBPLACEHOLDER
  5
F
102
{ACAD_REACTORS
330
E
102
}
330
E
  0
DICTIONARYVAR
  5
67
102
{ACAD_REACTORS
330
66
102
}
330
66
100
DictionaryVariables
280
     0
  1
2
  0
DICTIONARYVAR
  5
6B
102
{ACAD_REACTORS
330
66
102
}
330
66
100
DictionaryVariables
280
     0
  1
1
  0
ENDSEC
  0
EOF
