  0
SECTION
  2
HEADER
  9
$ACADVER
  1
AC1018
  9
$ACADMAINTVER
 70
     0
  9
$DWGCODEPAGE
  3
ANSI_1252
  9
$INSBASE
 10
0.0
 20
0.0
 30
0.0
  9
$EXTMIN
 10
-52.62394575650193
 20
205.5505137029117
 30
0.0
  9
$EXTMAX
 10
728.7590153278367
 20
962.8165593122442
 30
0.0
  9
$LIMMIN
 10
0.0
 20
0.0
  9
$LIMMAX
 10
12.0
 20
9.0
  9
$ORTHOMODE
 70
     0
  9
$REGENMODE
 70
     1
  9
$FILLMODE
 70
     1
  9
$QTEXTMODE
 70
     0
  9
$MIRRTEXT
 70
     0
  9
$LTSCALE
 40
1.0
  9
$ATTMODE
 70
     1
  9
$TEXTSIZE
 40
0.2
  9
$TRACEWID
 40
0.05
  9
$TEXTSTYLE
  7
Standard
  9
$CLAYER
  8
0
  9
$CELTYPE
  6
ByLayer
  9
$CECOLOR
 62
   256
  9
$CELTSCALE
 40
1.0
  9
$DISPSILH
 70
     0
  9
$DIMSCALE
 40
1.0
  9
$DIMASZ
 40
0.18
  9
$DIMEXO
 40
0.0625
  9
$DIMDLI
 40
0.38
  9
$DIMRND
 40
0.0
  9
$DIMDLE
 40
0.0
  9
$DIMEXE
 40
0.18
  9
$DIMTP
 40
0.0
  9
$DIMTM
 40
0.0
  9
$DIMTXT
 40
0.18
  9
$DIMCEN
 40
0.09
  9
$DIMTSZ
 40
0.0
  9
$DIMTOL
 70
     0
  9
$DIMLIM
 70
     0
  9
$DIMTIH
 70
     1
  9
$DIMTOH
 70
     1
  9
$DIMSE1
 70
     0
  9
$DIMSE2
 70
     0
  9
$DIMTAD
 70
     0
  9
$DIMZIN
 70
     0
  9
$DIMBLK
  1

  9
$DIMASO
 70
     1
  9
$DIMSHO
 70
     1
  9
$DIMPOST
  1

  9
$DIMAPOST
  1

  9
$DIMALT
 70
     0
  9
$DIMALTD
 70
     2
  9
$DIMALTF
 40
25.4
  9
$DIMLFAC
 40
1.0
  9
$DIMTOFL
 70
     0
  9
$DIMTVP
 40
0.0
  9
$DIMTIX
 70
     0
  9
$DIMSOXD
 70
     0
  9
$DIMSAH
 70
     0
  9
$DIMBLK1
  1

  9
$DIMBLK2
  1

  9
$DIMSTYLE
  2
Standard
  9
$DIMCLRD
 70
     0
  9
$DIMCLRE
 70
     0
  9
$DIMCLRT
 70
     0
  9
$DIMTFAC
 40
1.0
  9
$DIMGAP
 40
0.09
  9
$DIMJUST
 70
     0
  9
$DIMSD1
 70
     0
  9
$DIMSD2
 70
     0
  9
$DIMTOLJ
 70
     1
  9
$DIMTZIN
 70
     0
  9
$DIMALTZ
 70
     0
  9
$DIMALTTZ
 70
     0
  9
$DIMUPT
 70
     0
  9
$DIMDEC
 70
     4
  9
$DIMTDEC
 70
     4
  9
$DIMALTU
 70
     2
  9
$DIMALTTD
 70
     2
  9
$DIMTXSTY
  7
Standard
  9
$DIMAUNIT
 70
     0
  9
$DIMADEC
 70
     0
  9
$DIMALTRND
 40
0.0
  9
$DIMAZIN
 70
     0
  9
$DIMDSEP
 70
    46
  9
$DIMATFIT
 70
     3
  9
$DIMFRAC
 70
     0
  9
$DIMLDRBLK
  1

  9
$DIMLUNIT
 70
     2
  9
$DIMLWD
 70
    -2
  9
$DIMLWE
 70
    -2
  9
$DIMTMOVE
 70
     0
  9
$LUNITS
 70
     2
  9
$LUPREC
 70
     4
  9
$SKETCHINC
 40
0.1
  9
$FILLETRAD
 40
0.0
  9
$AUNITS
 70
     0
  9
$AUPREC
 70
     0
  9
$MENU
  1
.
  9
$ELEVATION
 40
0.0
  9
$PELEVATION
 40
0.0
  9
$THICKNESS
 40
0.0
  9
$LIMCHECK
 70
     0
  9
$CHAMFERA
 40
0.0
  9
$CHAMFERB
 40
0.0
  9
$CHAMFERC
 40
0.0
  9
$CHAMFERD
 40
0.0
  9
$SKPOLY
 70
     0
  9
$TDCREATE
 40
2454484.928536216
  9
$TDUCREATE
 40
2454484.886869549
  9
$TDUPDATE
 40
2454550.553882535
  9
$TDUUPDATE
 40
2454550.512215868
  9
$TDINDWG
 40
0.0029933449
  9
$TDUSRTIMER
 40
0.0029931713
  9
$USRTIMER
 70
     1
  9
$ANGBASE
 50
0.0
  9
$ANGDIR
 70
     0
  9
$PDMODE
 70
     0
  9
$PDSIZE
 40
0.0
  9
$PLINEWID
 40
0.0
  9
$SPLFRAME
 70
     0
  9
$SPLINETYPE
 70
     6
  9
$SPLINESEGS
 70
     8
  9
$HANDSEED
  5
1AD
  9
$SURFTAB1
 70
     6
  9
$SURFTAB2
 70
     6
  9
$SURFTYPE
 70
     6
  9
$SURFU
 70
     6
  9
$SURFV
 70
     6
  9
$UCSBASE
  2

  9
$UCSNAME
  2

  9
$UCSORG
 10
0.0
 20
0.0
 30
0.0
  9
$UCSXDIR
 10
1.0
 20
0.0
 30
0.0
  9
$UCSYDIR
 10
0.0
 20
1.0
 30
0.0
  9
$UCSORTHOREF
  2

  9
$UCSORTHOVIEW
 70
     0
  9
$UCSORGTOP
 10
0.0
 20
0.0
 30
0.0
  9
$UCSORGBOTTOM
 10
0.0
 20
0.0
 30
0.0
  9
$UCSORGLEFT
 10
0.0
 20
0.0
 30
0.0
  9
$UCSORGRIGHT
 10
0.0
 20
0.0
 30
0.0
  9
$UCSORGFRONT
 10
0.0
 20
0.0
 30
0.0
  9
$UCSORGBACK
 10
0.0
 20
0.0
 30
0.0
  9
$PUCSBASE
  2

  9
$PUCSNAME
  2

  9
$PUCSORG
 10
0.0
 20
0.0
 30
0.0
  9
$PUCSXDIR
 10
1.0
 20
0.0
 30
0.0
  9
$PUCSYDIR
 10
0.0
 20
1.0
 30
0.0
  9
$PUCSORTHOREF
  2

  9
$PUCSORTHOVIEW
 70
     0
  9
$PUCSORGTOP
 10
0.0
 20
0.0
 30
0.0
  9
$PUCSORGBOTTOM
 10
0.0
 20
0.0
 30
0.0
  9
$PUCSORGLEFT
 10
0.0
 20
0.0
 30
0.0
  9
$PUCSORGRIGHT
 10
0.0
 20
0.0
 30
0.0
  9
$PUCSORGFRONT
 10
0.0
 20
0.0
 30
0.0
  9
$PUCSORGBACK
 10
0.0
 20
0.0
 30
0.0
  9
$USERI1
 70
     0
  9
$USERI2
 70
     0
  9
$USERI3
 70
     0
  9
$USERI4
 70
     0
  9
$USERI5
 70
     0
  9
$USERR1
 40
0.0
  9
$USERR2
 40
0.0
  9
$USERR3
 40
0.0
  9
$USERR4
 40
0.0
  9
$USERR5
 40
0.0
  9
$WORLDVIEW
 70
     1
  9
$SHADEDGE
 70
     3
  9
$SHADEDIF
 70
    70
  9
$TILEMODE
 70
     1
  9
$MAXACTVP
 70
    64
  9
$PINSBASE
 10
0.0
 20
0.0
 30
0.0
  9
$PLIMCHECK
 70
     0
  9
$PEXTMIN
 10
0.0
 20
0.0
 30
0.0
  9
$PEXTMAX
 10
0.0
 20
0.0
 30
0.0
  9
$PLIMMIN
 10
0.0
 20
0.0
  9
$PLIMMAX
 10
12.0
 20
9.0
  9
$UNITMODE
 70
     0
  9
$VISRETAIN
 70
     1
  9
$PLINEGEN
 70
     0
  9
$PSLTSCALE
 70
     1
  9
$TREEDEPTH
 70
  3020
  9
$CMLSTYLE
  2
Standard
  9
$CMLJUST
 70
     0
  9
$CMLSCALE
 40
1.0
  9
$PROXYGRAPHICS
 70
     1
  9
$MEASUREMENT
 70
     0
  9
$CELWEIGHT
370
    -1
  9
$ENDCAPS
280
     0
  9
$JOINSTYLE
280
     0
  9
$LWDISPLAY
290
     0
  9
$INSUNITS
 70
     1
  9
$HYPERLINKBASE
  1

  9
$STYLESHEET
  1

  9
$XEDIT
290
     1
  9
$CEPSNTYPE
380
     0
  9
$PSTYLEMODE
290
     1
  9
$FINGERPRINTGUID
  2
{FDEAD576-A652-11D2-9A35-0060089B3A3F}
  9
$VERSIONGUID
  2
{810DBAAB-77C5-4F31-BD35-7445FD6F5BE8}
  9
$EXTNAMES
290
     1
  9
$PSVPSCALE
 40
0.0
  9
$OLESTARTUP
290
     0
  9
$SORTENTS
280
   127
  9
$INDEXCTL
280
     0
  9
$HIDETEXT
280
     1
  9
$XCLIPFRAME
290
     0
  9
$HALOGAP
280
     0
  9
$OBSCOLOR
 70
   257
  9
$OBSLTYPE
280
     0
  9
$INTERSECTIONDISPLAY
280
     0
  9
$INTERSECTIONCOLOR
 70
   257
  9
$DIMASSOC
280
     2
  9
$PROJECTNAME
  1

  0
ENDSEC
  0
SECTION
  2
CLASSES
  0
CLASS
  1
ACDBDICTIONARYWDFLT
  2
AcDbDictionaryWithDefault
  3
ObjectDBX Classes
 90
        0
 91
        1
280
     0
281
     0
  0
CLASS
  1
DICTIONARYVAR
  2
AcDbDictionaryVar
  3
ObjectDBX Classes
 90
        0
 91
        2
280
     0
281
     0
  0
CLASS
  1
SORTENTSTABLE
  2
AcDbSortentsTable
  3
ObjectDBX Classes
 90
        0
 91
        5
280
     0
281
     0
  0
ENDSEC
  0
SECTION
  2
TABLES
  0
TABLE
  2
VPORT
  5
8
330
0
100
AcDbSymbolTable
 70
     4
  0
VPORT
  5
1AC
330
8
100
AcDbSymbolTableRecord
100
AcDbViewportTableRecord
  2
*Active
 70
     0
 10
0.0
 20
0.0
 11
1.0
 21
1.0
 12
351.6111867805039
 22
704.8419219844443
 13
0.0
 23
0.0
 14
0.5
 24
0.5
 15
0.5
 25
0.5
 16
0.0
 26
0.0
 36
1.0
 17
0.0
 27
0.0
 37
0.0
 40
1133.046323677948
 41
1.647509578544061
 42
50.0
 43
0.0
 44
0.0
 50
0.0
 51
0.0
 71
     0
 72
  1000
 73
     1
 74
     3
 75
     0
 76
     0
 77
     0
 78
     0
281
     0
 65
     1
110
0.0
120
0.0
130
0.0
111
1.0
121
0.0
131
0.0
112
0.0
122
1.0
132
0.0
 79
     0
146
0.0
  0
ENDTAB
  0
TABLE
  2
LTYPE
  5
5
330
0
100
AcDbSymbolTable
 70
     1
  0
LTYPE
  5
14
330
5
100
AcDbSymbolTableRecord
100
AcDbLinetypeTableRecord
  2
ByBlock
 70
     0
  3

 72
    65
 73
     0
 40
0.0
  0
LTYPE
  5
15
330
5
100
AcDbSymbolTableRecord
100
AcDbLinetypeTableRecord
  2
ByLayer
 70
     0
  3

 72
    65
 73
     0
 40
0.0
  0
LTYPE
  5
16
330
5
100
AcDbSymbolTableRecord
100
AcDbLinetypeTableRecord
  2
Continuous
 70
     0
  3
Solid line
 72
    65
 73
     0
 40
0.0
  0
ENDTAB
  0
TABLE
  2
LAYER
  5
2
330
0
100
AcDbSymbolTable
 70
     1
  0
LAYER
  5
10
330
2
100
AcDbSymbolTableRecord
100
AcDbLayerTableRecord
  2
0
 70
     0
 62
     7
  6
Continuous
370
    -3
390
F
  0
ENDTAB
  0
TABLE
  2
STYLE
  5
3
330
0
100
AcDbSymbolTable
 70
     1
  0
STYLE
  5
11
330
3
100
AcDbSymbolTableRecord
100
AcDbTextStyleTableRecord
  2
Standard
 70
     0
 40
0.0
 41
1.0
 50
0.0
 71
     0
 42
0.2
  3
txt
  4

  0
ENDTAB
  0
TABLE
  2
VIEW
  5
6
330
0
100
AcDbSymbolTable
 70
     0
  0
ENDTAB
  0
TABLE
  2
UCS
  5
7
330
0
100
AcDbSymbolTable
 70
     0
  0
ENDTAB
  0
TABLE
  2
APPID
  5
9
330
0
100
AcDbSymbolTable
 70
     1
  0
APPID
  5
12
330
9
100
AcDbSymbolTableRecord
100
AcDbRegAppTableRecord
  2
ACAD
 70
     0
  0
ENDTAB
  0
TABLE
  2
DIMSTYLE
  5
A
330
0
100
AcDbSymbolTable
 70
     1
100
AcDbDimStyleTable
 71
     0
  0
DIMSTYLE
105
27
330
A
100
AcDbSymbolTableRecord
100
AcDbDimStyleTableRecord
  2
Standard
 70
     0
340
11
  0
ENDTAB
  0
TABLE
  2
BLOCK_RECORD
  5
1
330
0
100
AcDbSymbolTable
 70
     7
  0
BLOCK_RECORD
  5
1F
330
1
100
AcDbSymbolTableRecord
100
AcDbBlockTableRecord
  2
*Model_Space
340
22
  0
BLOCK_RECORD
  5
58
330
1
100
AcDbSymbolTableRecord
100
AcDbBlockTableRecord
  2
*Paper_Space
340
59
  0
BLOCK_RECORD
  5
5D
330
1
100
AcDbSymbolTableRecord
100
AcDbBlockTableRecord
  2
*Paper_Space0
340
5E
  0
BLOCK_RECORD
  5
C6
330
1
100
AcDbSymbolTableRecord
100
AcDbBlockTableRecord
  2
29700_L
340
0
310
2800000020000000200000000100080000000000000400000000000000000000000000000000000000000000000080000080000000808000800000008000800080800000C0C0C000C0DCC000F0CAA6000020400000206000002080000020A0000020C0000020E00000400000004020000040400000406000004080000040A0
310
000040C0000040E00000600000006020000060400000606000006080000060A0000060C0000060E00000800000008020000080400000806000008080000080A0000080C0000080E00000A0000000A0200000A0400000A0600000A0800000A0A00000A0C00000A0E00000C0000000C0200000C0400000C0600000C0800000C0
310
A00000C0C00000C0E00000E0000000E0200000E0400000E0600000E0800000E0A00000E0C00000E0E00040000000400020004000400040006000400080004000A0004000C0004000E00040200000402020004020400040206000402080004020A0004020C0004020E000404000004040200040404000404060004040800040
310
40A0004040C0004040E00040600000406020004060400040606000406080004060A0004060C0004060E00040800000408020004080400040806000408080004080A0004080C0004080E00040A0000040A0200040A0400040A0600040A0800040A0A00040A0C00040A0E00040C0000040C0200040C0400040C0600040C08000
310
40C0A00040C0C00040C0E00040E0000040E0200040E0400040E0600040E0800040E0A00040E0C00040E0E00080000000800020008000400080006000800080008000A0008000C0008000E00080200000802020008020400080206000802080008020A0008020C0008020E00080400000804020008040400080406000804080
310
008040A0008040C0008040E00080600000806020008060400080606000806080008060A0008060C0008060E00080800000808020008080400080806000808080008080A0008080C0008080E00080A0000080A0200080A0400080A0600080A0800080A0A00080A0C00080A0E00080C0000080C0200080C0400080C0600080C0
310
800080C0A00080C0C00080C0E00080E0000080E0200080E0400080E0600080E0800080E0A00080E0C00080E0E000C0000000C0002000C0004000C0006000C0008000C000A000C000C000C000E000C0200000C0202000C0204000C0206000C0208000C020A000C020C000C020E000C0400000C0402000C0404000C0406000C0
310
408000C040A000C040C000C040E000C0600000C0602000C0604000C0606000C0608000C060A000C060C000C060E000C0800000C0802000C0804000C0806000C0808000C080A000C080C000C080E000C0A00000C0A02000C0A04000C0A06000C0A08000C0A0A000C0A0C000C0A0E000C0C00000C0C02000C0C04000C0C06000
310
C0C08000C0C0A000F0FBFF00A4A0A000808080000000FF0000FF000000FFFF00FF000000FF00FF00FFFF0000FFFFFF000000000000000000000000000000000000000000000000000000000000000000000000000000000000FFFFFFFFFFFFFFFFFFFF000000000000000000000000000000000000000000FF000000000000
310
00000000FF0000000000000000000000000000000000000000FF00000000000000000000FF0000000000000000000000000000000000000000FF0000000000000000000000FF00000000000000000000000000000000000000FF0000000000000000000000FF00000000000000000000000000000000000000FF0000000000
310
000000000000FF00000000000000000000000000000000000000FF0000000000000000000000FF00000000000000000000000000000000000000FF000000000000000000000000FF000000000000000000000000000000000000FF000000000000000000000000FF000000000000000000000000000000000000FF00000000
310
0000000000000000FF000000000000000000000000000000000000FF00000000000000000000000000FF0000000000000000000000000000000000FF0000000000000000000000FFFFFFFF00000000000000000000000000000000FF0000000000000000000000FFFF000000000000000000000000000000000000FF000000
310
0000000000000000FF00000000000000000000000000000000000000FF0000000000000000000000FF00000000000000000000000000000000000000FF0000000000000000000000FF00000000000000000000000000000000000000FF0000000000000000000000FF00000000000000000000000000000000000000FF0000
310
000000000000000000FF00000000000000000000000000000000000000FF0000000000000000000000FF00000000000000000000000000000000000000FF0000000000000000000000FF00000000000000000000000000000000000000FF0000000000000000000000FF00000000000000000000000000000000000000FF00
310
00000000000000000000FF00000000000000000000000000000000000000FF0000000000000000000000FF00000000000000000000000000000000000000FF0000000000000000000000FF00000000000000000000000000000000000000FF0000000000000000000000FF00000000000000000000000000000000000000FF
310
0000000000000000000000FF00000000000000000000000000000000000000FF0000000000000000000000FF00000000000000000000000000000000000000FF00000000000000000000FF0000000000000000000000000000000000000000FF000000000000FFFFFFFF000000000000000000000000000000000000000000
310
00FFFFFFFFFFFF00000000000000000000000000000000000000000000000000000000000000000000000000000000000000000000000000
102
{BLKREFS
331
1AA
102
}
1001
ACAD
1000
DesignCenter Data
1002
{
1070
     1
1070
     4
1002
}
  0
BLOCK_RECORD
  5
FF
102
{ACAD_XDICTIONARY
360
123
102
}
330
1
100
AcDbSymbolTableRecord
100
AcDbBlockTableRecord
  2
29700
340
0
102
{BLKREFS
331
121
331
12B
102
}
1001
ACAD
1000
DesignCenter Data
1002
{
1070
     1
1070
     4
1002
}
  0
BLOCK_RECORD
  5
12A
102
{ACAD_XDICTIONARY
360
12C
102
}
330
1
100
AcDbSymbolTableRecord
100
AcDbBlockTableRecord
  2
A$C0C6F6648
340
0
  0
ENDTAB
  0
ENDSEC
  0
SECTION
  2
BLOCKS
  0
BLOCK
  5
20
330
1F
100
AcDbEntity
  8
0
100
AcDbBlockBegin
  2
*Model_Space
 70
     0
 10
0.0
 20
0.0
 30
0.0
  3
*Model_Space
  1

  0
ENDBLK
  5
21
330
1F
100
AcDbEntity
  8
0
100
AcDbBlockEnd
  0
BLOCK
  5
5A
330
58
100
AcDbEntity
 67
     1
  8
0
100
AcDbBlockBegin
  2
*Paper_Space
 70
     0
 10
0.0
 20
0.0
 30
0.0
  3
*Paper_Space
  1

  0
ENDBLK
  5
5B
330
58
100
AcDbEntity
 67
     1
  8
0
100
AcDbBlockEnd
  0
BLOCK
  5
5F
330
5D
100
AcDbEntity
  8
0
100
AcDbBlockBegin
  2
*Paper_Space0
 70
     0
 10
0.0
 20
0.0
 30
0.0
  3
*Paper_Space0
  1

  0
ENDBLK
  5
60
330
5D
100
AcDbEntity
  8
0
100
AcDbBlockEnd
  0
BLOCK
  5
C7
330
C6
100
AcDbEntity
  8
0
100
AcDbBlockBegin
  2
29700_L
 70
     0
 10
0.0
 20
0.0
 30
0.0
  3
29700_L
  1

  0
ARC
  5
194
330
C6
100
AcDbEntity
  8
0
100
AcDbCircle
 10
6.999999999997541
 20
-303.6953249628724
 30
0.0
 40
7.0
100
AcDbArc
 50
180.0000653090982
 51
270.0
  0
ARC
  5
195
330
C6
100
AcDbEntity
  8
0
100
AcDbCircle
 10
6.999999999997541
 20
332.3046750368948
 30
0.0
 40
7.0
100
AcDbArc
 50
89.99997074402653
 51
180.0000134914891
  0
ARC
  5
196
330
C6
100
AcDbEntity
  8
0
100
AcDbCircle
 10
102.9999999999466
 20
332.3046750368948
 30
0.0
 40
7.0
100
AcDbArc
 50
64.63715315667885
 51
90.0
  0
ARC
  5
197
330
C6
100
AcDbEntity
  8
0
100
AcDbCircle
 10
-191.4261501141761
 20
-60.69532496298882
 30
0.0
 40
490.0
100
AcDbArc
 50
329.6583818065808
 51
352.7761395562524
  0
ARC
  5
198
330
C6
100
AcDbEntity
  8
0
100
AcDbCircle
 10
227.1428406149692
 20
-305.6953249629888
 30
0.0
 40
5.0
100
AcDbArc
 50
270.0
 51
329.6583818065808
  0
ARC
  5
199
330
C6
100
AcDbEntity
  8
0
100
AcDbCircle
 10
339.3272451750357
 20
-127.9696394447538
 30
0.0
 40
45.0
100
AcDbArc
 50
120.4680122403449
 51
172.7761395562524
  0
ARC
  5
19A
330
C6
100
AcDbEntity
  8
0
100
AcDbCircle
 10
308.9038105676348
 20
-76.25489660797859
 30
0.0
 40
15.0
100
AcDbArc
 50
300.468012240345
 51
0.0
  0
LINE
  5
19B
330
C6
100
AcDbEntity
  8
0
100
AcDbLine
 10
6.999999999997541
 20
-310.6953249628724
 30
0.0
 11
227.1428406149692
 21
-310.6953249629888
 31
0.0
  0
LINE
  5
19C
330
C6
100
AcDbEntity
  8
0
100
AcDbLine
 10
102.9999999999466
 20
339.3046750370112
 30
0.0
 11
7.000003574288982
 21
339.3046750368938
 31
0.0
  0
ARC
  5
19D
330
C6
100
AcDbEntity
  8
0
100
AcDbCircle
 10
239.9999999999539
 20
284.3046750370112
 30
0.0
 40
20.0
100
AcDbArc
 50
2.58563716764865
 51
81.41583391176387
  0
LINE
  5
19E
330
C6
100
AcDbEntity
  8
0
100
AcDbLine
 10
323.9038105676348
 20
-76.25489660797859
 30
0.0
 11
323.9038105675984
 21
-65.69532496298882
 31
0.0
  0
ARC
  5
19F
330
C6
100
AcDbEntity
  8
0
100
AcDbCircle
 10
318.9038105675984
 20
-65.69532496298882
 30
0.0
 40
5.0
100
AcDbArc
 50
0.0
 51
64.08124293365069
  0
LINE
  5
1A0
330
C6
100
AcDbEntity
  8
0
100
AcDbLine
 10
273.9374018116302
 20
-23.87665220582494
 30
0.0
 11
259.9796381987374
 21
285.2069263579604
 31
0.0
  0
LINE
  5
1A1
330
C6
100
AcDbEntity
  8
0
100
AcDbLine
 10
263.6592162238955
 20
-33.28846722822698
 30
0.0
 11
321.0892918450821
 21
-61.19825129394405
 31
0.0
  0
ARC
  5
1A2
330
C6
100
AcDbEntity
  8
0
100
AcDbCircle
 10
172.6771440591158
 20
260.0145382868058
 30
0.0
 40
60.03250344298966
100
AcDbArc
 50
70.58723578377845
 51
85.81174362880334
  0
ARC
  5
1A3
330
C6
100
AcDbEntity
  8
0
100
AcDbCircle
 10
284.0323168629669
 20
575.9999870864256
 30
0.0
 40
275.0
100
AcDbArc
 50
250.5872357837784
 51
261.4158339117639
  0
ARC
  5
1A4
330
C6
100
AcDbEntity
  8
0
100
AcDbCircle
 10
191.6683009788078
 20
519.3526164893691
 30
0.0
 40
200.0
100
AcDbArc
 50
244.6371531566285
 51
265.8117436288033
  0
LINE
  5
1A5
330
C6
100
AcDbEntity
  8
0
100
AcDbLine
 10
267.0612627019909
 20
-57.03931919413332
 30
0.0
 11
321.9247145258442
 21
-83.70177918467391
 31
0.0
  0
ARC
  5
1A6
330
C6
100
AcDbEntity
  8
0
100
AcDbCircle
 10
268.9424922619374
 20
-24.10221503606772
 30
0.0
 40
5.0
100
AcDbArc
 50
283.5185823462061
 51
2.585637167661691
  0
ARC
  5
1A7
330
C6
100
AcDbEntity
  8
0
100
AcDbCircle
 10
274.5866226112465
 20
-10.80309888244073
 30
0.0
 40
25.0
100
AcDbArc
 50
242.3833710393271
 51
244.0812429336507
  0
ARC
  5
1A8
330
C6
100
AcDbEntity
  8
0
100
AcDbCircle
 10
273.6177065344015
 20
-43.54809818666149
 30
0.0
 40
15.0
100
AcDbArc
 50
103.5185823462104
 51
244.0812429336507
  0
LINE
  5
1A9
330
C6
100
AcDbEntity
  8
0
100
AcDbLine
 10
0.000000000002089
 20
-303.695332941884
 30
0.0
 11
-0.0000000000022879
 21
332.3046733885984
 31
0.0
  0
ENDBLK
  5
C8
330
C6
100
AcDbEntity
  8
0
100
AcDbBlockEnd
  0
BLOCK
  5
100
330
FF
100
AcDbEntity
  8
0
100
AcDbBlockBegin
  2
29700
 70
     0
 10
0.0
 20
0.0
 30
0.0
  3
29700
  1

  0
ARC
  5
102
330
FF
100
AcDbEntity
  8
0
100
AcDbCircle
 10
-940.8569904966551
 20
-269.6828140874475
 30
0.0
 40
1021.231817607427
100
AcDbArc
 50
359.6235520748434
 51
15.17768060153404
  0
ARC
  5
103
330
FF
100
AcDbEntity
  8
0
100
AcDbCircle
 10
293.6878276813748
 20
-22.12957268440925
 30
0.0
 40
80.23204886229475
100
AcDbArc
 50
237.3912728819585
 51
284.8088126848083
  0
ARC
  5
104
330
FF
100
AcDbEntity
  8
0
100
AcDbCircle
 10
102.32749311524
 20
320.2500039894417
 30
0.0
 40
10.0
100
AcDbArc
 50
64.82196284542519
 51
90.00000000006677
  0
ARC
  5
105
330
FF
100
AcDbEntity
  8
0
100
AcDbCircle
 10
172.6771440591378
 20
250.9598672392422
 30
0.0
 40
60.03250344298966
100
AcDbArc
 50
70.58723578378383
 51
85.8117436288035
  0
LINE
  5
106
330
FF
100
AcDbEntity
  8
0
100
AcDbLine
 10
102.3274931152283
 20
330.2500039894417
 30
0.0
 11
7.000003574310995
 21
330.2500039893303
 31
0.0
  0
ARC
  5
107
330
FF
100
AcDbEntity
  8
0
100
AcDbCircle
 10
7.000000000019555
 20
323.2500039893312
 30
0.0
 40
7.0
100
AcDbArc
 50
89.99997074402653
 51
180.0000134914891
  0
LINE
  5
108
330
FF
100
AcDbEntity
  8
0
100
AcDbLine
 10
-0.0000000000241016
 20
312.7500039894476
 30
0.0
 11
-0.0000000000241016
 21
323.2500023411812
 31
0.0
  0
ARC
  5
109
330
FF
100
AcDbEntity
  8
0
100
AcDbCircle
 10
191.6683009788298
 20
510.2979454418054
 30
0.0
 40
200.0
100
AcDbArc
 50
244.8219628454235
 51
265.8117436288035
  0
ARC
  5
10A
330
FF
100
AcDbEntity
  8
0
100
AcDbCircle
 10
284.0323168629888
 20
566.945316038862
 30
0.0
 40
275.0
100
AcDbArc
 50
250.5872357837837
 51
261.4158339117608
  0
ARC
  5
10B
330
FF
100
AcDbEntity
  8
0
100
AcDbCircle
 10
239.9999999999759
 20
275.2500039894476
 30
0.0
 40
20.0
100
AcDbArc
 50
2.585637167661689
 51
81.41583391176091
  0
LINE
  5
10C
330
FF
100
AcDbEntity
  8
0
100
AcDbLine
 10
-0.0000000000241016
 20
312.7500039894476
 30
0.0
 11
0.0000000000241016
 21
-312.7500039894476
 31
0.0
  0
ARC
  5
10D
330
FF
100
AcDbEntity
  8
0
100
AcDbCircle
 10
276.0283870821999
 20
-57.36068381292352
 30
0.0
 40
20.21970915621367
100
AcDbArc
 50
95.38296234571104
 51
130.4641029246172
  0
ARC
  5
10E
330
FF
100
AcDbEntity
  8
0
100
AcDbCircle
 10
274.1100454882812
 20
-14.88053432728702
 30
0.0
 40
20.21970915621367
100
AcDbArc
 50
95.38296234571104
 51
114.4849128854484
  0
ARC
  5
10F
330
FF
100
AcDbEntity
  8
0
100
AcDbCircle
 10
274.5866226113262
 20
-19.8577699298512
 30
0.0
 40
25.0
100
AcDbArc
 50
110.7486098539418
 51
244.0812429336546
  0
LINE
  5
110
330
FF
100
AcDbEntity
  8
0
100
AcDbLine
 10
323.9038105676568
 20
-85.3095676555422
 30
0.0
 11
323.9038105676097
 21
-71.62071802947048
 31
0.0
  0
ARC
  5
111
330
FF
100
AcDbEntity
  8
0
100
AcDbCircle
 10
308.9038105676568
 20
-85.3095676555422
 30
0.0
 40
15.0
100
AcDbArc
 50
300.4680122403346
 51
0.0
  0
LINE
  5
112
330
FF
100
AcDbEntity
  8
0
100
AcDbLine
 10
262.9063719051678
 20
-41.97727209602089
 30
0.0
 11
323.9038105676097
 21
-71.62071802947048
 31
0.0
  0
ARC
  5
113
330
FF
100
AcDbEntity
  8
0
100
AcDbCircle
 10
339.3272451750576
 20
-137.0243104923174
 30
0.0
 40
45.0
100
AcDbArc
 50
120.4680122403345
 51
172.7761395562392
  0
LINE
  5
114
330
FF
100
AcDbEntity
  8
0
100
AcDbLine
 10
227.1428406149912
 20
-319.7499960105524
 30
0.0
 11
7.00000000001954
 21
-319.749996010436
 31
0.0
  0
ARC
  5
115
330
FF
100
AcDbEntity
  8
0
100
AcDbCircle
 10
227.1428406149912
 20
-314.7499960105524
 30
0.0
 40
5.0
100
AcDbArc
 50
270.0
 51
329.6583818065657
  0
ARC
  5
116
330
FF
100
AcDbEntity
  8
0
100
AcDbCircle
 10
7.000000000019555
 20
-312.749996010436
 30
0.0
 40
7.0
100
AcDbArc
 50
180.0000653090982
 51
270.0
  0
ARC
  5
117
330
FF
100
AcDbEntity
  8
0
100
AcDbCircle
 10
-191.4261501141541
 20
-69.74999601055242
 30
0.0
 40
490.0
100
AcDbArc
 50
329.6583818065657
 51
352.7761395562327
  0
LINE
  5
118
330
FF
100
AcDbEntity
  8
0
100
AcDbLine
 10
274.1315303543647
 20
-37.23014549647996
 30
0.0
 11
259.9796381987593
 21
276.1522553103969
 31
0.0
  0
ENDBLK
  5
101
330
FF
100
AcDbEntity
  8
0
100
AcDbBlockEnd
  0
BLOCK
  5
12F
330
12A
100
AcDbEntity
  8
0
100
AcDbBlockBegin
  2
A$C0C6F6648
 70
     0
 10
0.0
 20
0.0
 30
0.0
  3
A$C0C6F6648
  1

  0
INSERT
  5
12B
330
12A
100
AcDbEntity
  8
0
100
AcDbBlockReference
  2
29700
 10
0.0000013448307987
 20
319.7499955211324
 30
0.0
  0
ENDBLK
  5
130
330
12A
100
AcDbEntity
  8
0
100
AcDbBlockEnd
  0
ENDSEC
  0
SECTION
  2
ENTITIES
  0
MTEXT
  5
E7
330
1F
100
AcDbEntity
  8
0
100
AcDbMText
 10
-52.38602218043848
 20
245.1323449934668
 30
0.0
 40
30.0
 41
553.2660026333596
 71
     1
 72
     5
  1
{\fTimes New Roman|b0|i0|c0|p18;\C0;URINARIO ARGOS}
 73
     1
 44
1.0
  0
INSERT
  5
1AA
330
1F
100
AcDbEntity
  8
0
100
AcDbBlockReference
  2
29700_L
 10
18.03756339242166
 20
596.520093067326
 30
0.0
  0
ENDSEC
  0
SECTION
  2
OBJECTS
  0
DICTIONARY
  5
C
330
0
100
AcDbDictionary
281
     1
  3
ACAD_COLOR
350
73
  3
ACAD_GROUP
350
D
  3
ACAD_LAYOUT
350
1A
  3
ACAD_MATERIAL
350
72
  3
ACAD_MLINESTYLE
350
17
  3
ACAD_PLOTSETTINGS
350
19
  3
ACAD_PLOTSTYLENAME
350
E
  3
AcDbVariableDictionary
350
66
  0
DICTIONARY
  5
123
330
FF
100
AcDbDictionary
280
     1
281
     1
  3
ACAD_SORTENTS
360
12D
  0
DICTIONARY
  5
12C
330
12A
100
AcDbDictionary
280
     1
281
     1
  3
ACAD_SORTENTS
360
12E
  0
DICTIONARY
  5
73
102
{ACAD_REACTORS
330
C
102
}
330
C
100
AcDbDictionary
281
     1
  0
DICTIONARY
  5
D
102
{ACAD_REACTORS
330
C
102
}
330
C
100
AcDbDictionary
281
     1
  0
DICTIONARY
  5
1A
102
{ACAD_REACTORS
330
C
102
}
330
C
100
AcDbDictionary
281
     1
  3
Model
350
22
  3
Presentación1
350
59
  3
Presentación2
350
5E
  0
DICTIONARY
  5
72
102
{ACAD_REACTORS
330
C
102
}
330
C
100
AcDbDictionary
281
     1
  0
DICTIONARY
  5
17
102
{ACAD_REACTORS
330
C
102
}
330
C
100
AcDbDictionary
281
     1
  3
Standard
350
18
  0
DICTIONARY
  5
19
102
{ACAD_REACTORS
330
C
102
}
330
C
100
AcDbDictionary
281
     1
  0
ACDBDICTIONARYWDFLT
  5
E
102
{ACAD_REACTORS
330
C
102
}
330
C
100
AcDbDictionary
281
     1
  3
Normal
350
F
100
AcDbDictionaryWithDefault
340
F
  0
DICTIONARY
  5
66
102
{ACAD_REACTORS
330
C
102
}
330
C
100
AcDbDictionary
281
     1
  3
DIMASSOC
350
67
  3
HIDETEXT
350
6B
  0
SORTENTSTABLE
  5
12D
102
{ACAD_REACTORS
330
123
102
}
330
123
100
AcDbSortentsTable
330
FF
  0
SORTENTSTABLE
  5
12E
102
{ACAD_REACTORS
330
12C
102
}
330
12C
100
AcDbSortentsTable
330
12A
  0
LAYOUT
  5
22
102
{ACAD_REACTORS
330
1A
102
}
330
1A
100
AcDbPlotSettings
  1

  2
none_device
  4
ANSI_A_(8.50_x_11.00_Inches)
  6

 40
6.349999904632567
 41
19.04999923706055
 42
6.350006103515625
 43
19.04998779296875
 44
215.8999938964844
 45
279.3999938964844
 46
0.0
 47
0.0
 48
0.0
 49
0.0
140
0.0
141
0.0
142
1.0
143
2.584895464708373
 70
 11952
 72
     0
 73
     1
 74
     0
  7

 75
     0
147
0.3868628397755418
 76
     0
 77
     2
 78
   300
148
0.0
149
0.0
100
AcDbLayout
  1
Model
 70
     1
 71
     0
 10
0.0
 20
0.0
 11
12.0
 21
9.0
 12
0.0
 22
0.0
 32
0.0
 14
0.0
 24
0.0
 34
0.0
 15
0.0
 25
0.0
 35
0.0
146
0.0
 13
0.0
 23
0.0
 33
0.0
 16
1.0
 26
0.0
 36
0.0
 17
0.0
 27
1.0
 37
0.0
 76
     0
330
1F
  0
LAYOUT
  5
59
102
{ACAD_REACTORS
330
1A
102
}
330
1A
100
AcDbPlotSettings
  1

  2
None
  4

  6

 40
0.0
 41
0.0
 42
0.0
 43
0.0
 44
0.0
 45
0.0
 46
0.0
 47
0.0
 48
0.0
 49
0.0
140
0.0
141
0.0
142
1.0
143
1.0
 70
   688
 72
     0
 73
     0
 74
     5
  7

 75
    16
147
1.0
 76
     0
 77
     2
 78
   300
148
0.0
149
0.0
100
AcDbLayout
  1
Presentación1
 70
     1
 71
     1
 10
0.0
 20
0.0
 11
12.0
 21
9.0
 12
0.0
 22
0.0
 32
0.0
 14
0.0
 24
0.0
 34
0.0
 15
0.0
 25
0.0
 35
0.0
146
0.0
 13
0.0
 23
0.0
 33
0.0
 16
1.0
 26
0.0
 36
0.0
 17
0.0
 27
1.0
 37
0.0
 76
     0
330
58
  0
LAYOUT
  5
5E
102
{ACAD_REACTORS
330
1A
102
}
330
1A
100
AcDbPlotSettings
  1

  2
None
  4

  6

 40
0.0
 41
0.0
 42
0.0
 43
0.0
 44
0.0
 45
0.0
 46
0.0
 47
0.0
 48
0.0
 49
0.0
140
0.0
141
0.0
142
1.0
143
1.0
 70
   688
 72
     0
 73
     0
 74
     5
  7

 75
    16
147
1.0
 76
     0
 77
     2
 78
   300
148
0.0
149
0.0
100
AcDbLayout
  1
Presentación2
 70
     1
 71
     2
 10
0.0
 20
0.0
 11
12.0
 21
9.0
 12
0.0
 22
0.0
 32
0.0
 14
0.0
 24
0.0
 34
0.0
 15
0.0
 25
0.0
 35
0.0
146
0.0
 13
0.0
 23
0.0
 33
0.0
 16
1.0
 26
0.0
 36
0.0
 17
0.0
 27
1.0
 37
0.0
 76
     0
330
5D
  0
MLINESTYLE
  5
18
102
{ACAD_REACTORS
330
17
102
}
330
17
100
AcDbMlineStyle
  2
STANDARD
 70
     0
  3

 62
   256
 51
90.0
 52
90.0
 71
     2
 49
0.5
 62
   256
  6
BYLAYER
 49
-0.5
 62
   256
  6
BYLAYER
  0
ACDBPLACEHOLDER
  5
F
102
{ACAD_REACTORS
330
E
102
}
330
E
  0
DICTIONARYVAR
  5
67
102
{ACAD_REACTORS
330
66
102
}
330
66
100
DictionaryVariables
280
     0
  1
2
  0
DICTIONARYVAR
  5
6B
102
{ACAD_REACTORS
330
66
102
}
330
66
100
DictionaryVariables
280
     0
  1
1
  0
ENDSEC
  0
EOF
