  0
SECTION
  2
HEADER
  9
$ACADVER
  1
AC1024
  9
$ACADMAINTVER
 70
   226
  9
$DWGCODEPAGE
  3
ANSI_1252
  9
$INSBASE
 10
0.0
 20
0.0
 30
0.0
  9
$EXTMIN
 10
1.000000000000000E+20
 20
1.000000000000000E+20
 30
1.000000000000000E+20
  9
$EXTMAX
 10
-1.000000000000000E+20
 20
-1.000000000000000E+20
 30
-1.000000000000000E+20
  9
$LIMMIN
 10
0.0
 20
0.0
  9
$LIMMAX
 10
12.0
 20
9.0
  9
$ORTHOMODE
 70
     0
  9
$REGENMODE
 70
     1
  9
$FILLMODE
 70
     1
  9
$QTEXTMODE
 70
     0
  9
$MIRRTEXT
 70
     0
  9
$LTSCALE
 40
1.0
  9
$ATTMODE
 70
     1
  9
$TEXTSIZE
 40
0.2
  9
$TRACEWID
 40
0.05
  9
$TEXTSTYLE
  7
Standard
  9
$CLAYER
  8
0
  9
$CELTYPE
  6
ByLayer
  9
$CECOLOR
 62
   256
  9
$CELTSCALE
 40
1.0
  9
$DISPSILH
 70
     0
  9
$DIMSCALE
 40
1.0
  9
$DIMASZ
 40
0.18
  9
$DIMEXO
 40
0.0625
  9
$DIMDLI
 40
0.38
  9
$DIMRND
 40
0.0
  9
$DIMDLE
 40
0.0
  9
$DIMEXE
 40
0.18
  9
$DIMTP
 40
0.0
  9
$DIMTM
 40
0.0
  9
$DIMTXT
 40
0.18
  9
$DIMCEN
 40
0.09
  9
$DIMTSZ
 40
0.0
  9
$DIMTOL
 70
     0
  9
$DIMLIM
 70
     0
  9
$DIMTIH
 70
     1
  9
$DIMTOH
 70
     1
  9
$DIMSE1
 70
     0
  9
$DIMSE2
 70
     0
  9
$DIMTAD
 70
     0
  9
$DIMZIN
 70
     0
  9
$DIMBLK
  1

  9
$DIMASO
 70
     1
  9
$DIMSHO
 70
     1
  9
$DIMPOST
  1

  9
$DIMAPOST
  1

  9
$DIMALT
 70
     0
  9
$DIMALTD
 70
     2
  9
$DIMALTF
 40
25.4
  9
$DIMLFAC
 40
1.0
  9
$DIMTOFL
 70
     0
  9
$DIMTVP
 40
0.0
  9
$DIMTIX
 70
     0
  9
$DIMSOXD
 70
     0
  9
$DIMSAH
 70
     0
  9
$DIMBLK1
  1

  9
$DIMBLK2
  1

  9
$DIMSTYLE
  2
Standard
  9
$DIMCLRD
 70
     0
  9
$DIMCLRE
 70
     0
  9
$DIMCLRT
 70
     0
  9
$DIMTFAC
 40
1.0
  9
$DIMGAP
 40
0.09
  9
$DIMJUST
 70
     0
  9
$DIMSD1
 70
     0
  9
$DIMSD2
 70
     0
  9
$DIMTOLJ
 70
     1
  9
$DIMTZIN
 70
     0
  9
$DIMALTZ
 70
     0
  9
$DIMALTTZ
 70
     0
  9
$DIMUPT
 70
     0
  9
$DIMDEC
 70
     4
  9
$DIMTDEC
 70
     4
  9
$DIMALTU
 70
     2
  9
$DIMALTTD
 70
     2
  9
$DIMTXSTY
  7
Standard
  9
$DIMAUNIT
 70
     0
  9
$DIMADEC
 70
     0
  9
$DIMALTRND
 40
0.0
  9
$DIMAZIN
 70
     0
  9
$DIMDSEP
 70
    46
  9
$DIMATFIT
 70
     3
  9
$DIMFRAC
 70
     0
  9
$DIMLDRBLK
  1

  9
$DIMLUNIT
 70
     2
  9
$DIMLWD
 70
    -2
  9
$DIMLWE
 70
    -2
  9
$DIMTMOVE
 70
     0
  9
$DIMFXL
 40
1.0
  9
$DIMFXLON
 70
     0
  9
$DIMJOGANG
 40
0.7853981633974483
  9
$DIMTFILL
 70
     0
  9
$DIMTFILLCLR
 70
     0
  9
$DIMARCSYM
 70
     0
  9
$DIMLTYPE
  6

  9
$DIMLTEX1
  6

  9
$DIMLTEX2
  6

  9
$DIMTXTDIRECTION
 70
     0
  9
$LUNITS
 70
     2
  9
$LUPREC
 70
     4
  9
$SKETCHINC
 40
0.1
  9
$FILLETRAD
 40
0.0
  9
$AUNITS
 70
     0
  9
$AUPREC
 70
     0
  9
$MENU
  1
.
  9
$ELEVATION
 40
0.0
  9
$PELEVATION
 40
0.0
  9
$THICKNESS
 40
0.0
  9
$LIMCHECK
 70
     0
  9
$CHAMFERA
 40
0.0
  9
$CHAMFERB
 40
0.0
  9
$CHAMFERC
 40
0.0
  9
$CHAMFERD
 40
0.0
  9
$SKPOLY
 70
     0
  9
$TDCREATE
 40
2459653.769236112
  9
$TDUCREATE
 40
2459653.727569445
  9
$TDUPDATE
 40
2459653.769236112
  9
$TDUUPDATE
 40
2459653.727569445
  9
$TDINDWG
 40
0.0000115741
  9
$TDUSRTIMER
 40
0.0000115741
  9
$USRTIMER
 70
     1
  9
$ANGBASE
 50
0.0
  9
$ANGDIR
 70
     0
  9
$PDMODE
 70
     0
  9
$PDSIZE
 40
0.0
  9
$PLINEWID
 40
0.0
  9
$SPLFRAME
 70
     0
  9
$SPLINETYPE
 70
     6
  9
$SPLINESEGS
 70
     8
  9
$HANDSEED
  5
1A9
  9
$SURFTAB1
 70
     6
  9
$SURFTAB2
 70
     6
  9
$SURFTYPE
 70
     6
  9
$SURFU
 70
     6
  9
$SURFV
 70
     6
  9
$UCSBASE
  2

  9
$UCSNAME
  2

  9
$UCSORG
 10
0.0
 20
0.0
 30
0.0
  9
$UCSXDIR
 10
1.0
 20
0.0
 30
0.0
  9
$UCSYDIR
 10
0.0
 20
1.0
 30
0.0
  9
$UCSORTHOREF
  2

  9
$UCSORTHOVIEW
 70
     0
  9
$UCSORGTOP
 10
0.0
 20
0.0
 30
0.0
  9
$UCSORGBOTTOM
 10
0.0
 20
0.0
 30
0.0
  9
$UCSORGLEFT
 10
0.0
 20
0.0
 30
0.0
  9
$UCSORGRIGHT
 10
0.0
 20
0.0
 30
0.0
  9
$UCSORGFRONT
 10
0.0
 20
0.0
 30
0.0
  9
$UCSORGBACK
 10
0.0
 20
0.0
 30
0.0
  9
$PUCSBASE
  2

  9
$PUCSNAME
  2

  9
$PUCSORG
 10
0.0
 20
0.0
 30
0.0
  9
$PUCSXDIR
 10
1.0
 20
0.0
 30
0.0
  9
$PUCSYDIR
 10
0.0
 20
1.0
 30
0.0
  9
$PUCSORTHOREF
  2

  9
$PUCSORTHOVIEW
 70
     0
  9
$PUCSORGTOP
 10
0.0
 20
0.0
 30
0.0
  9
$PUCSORGBOTTOM
 10
0.0
 20
0.0
 30
0.0
  9
$PUCSORGLEFT
 10
0.0
 20
0.0
 30
0.0
  9
$PUCSORGRIGHT
 10
0.0
 20
0.0
 30
0.0
  9
$PUCSORGFRONT
 10
0.0
 20
0.0
 30
0.0
  9
$PUCSORGBACK
 10
0.0
 20
0.0
 30
0.0
  9
$USERI1
 70
     0
  9
$USERI2
 70
     0
  9
$USERI3
 70
     0
  9
$USERI4
 70
     0
  9
$USERI5
 70
     0
  9
$USERR1
 40
0.0
  9
$USERR2
 40
0.0
  9
$USERR3
 40
0.0
  9
$USERR4
 40
0.0
  9
$USERR5
 40
0.0
  9
$WORLDVIEW
 70
     1
  9
$SHADEDGE
 70
     3
  9
$SHADEDIF
 70
    70
  9
$TILEMODE
 70
     1
  9
$MAXACTVP
 70
    64
  9
$PINSBASE
 10
0.0
 20
0.0
 30
0.0
  9
$PLIMCHECK
 70
     0
  9
$PEXTMIN
 10
1.000000000000000E+20
 20
1.000000000000000E+20
 30
1.000000000000000E+20
  9
$PEXTMAX
 10
-1.000000000000000E+20
 20
-1.000000000000000E+20
 30
-1.000000000000000E+20
  9
$PLIMMIN
 10
0.0
 20
0.0
  9
$PLIMMAX
 10
12.0
 20
9.0
  9
$UNITMODE
 70
     0
  9
$VISRETAIN
 70
     1
  9
$PLINEGEN
 70
     0
  9
$PSLTSCALE
 70
     1
  9
$TREEDEPTH
 70
  3020
  9
$CMLSTYLE
  2
Standard
  9
$CMLJUST
 70
     0
  9
$CMLSCALE
 40
1.0
  9
$PROXYGRAPHICS
 70
     1
  9
$MEASUREMENT
 70
     0
  9
$CELWEIGHT
370
    -1
  9
$ENDCAPS
280
     0
  9
$JOINSTYLE
280
     0
  9
$LWDISPLAY
290
     1
  9
$INSUNITS
 70
     4
  9
$HYPERLINKBASE
  1

  9
$STYLESHEET
  1

  9
$XEDIT
290
     1
  9
$CEPSNTYPE
380
     0
  9
$PSTYLEMODE
290
     1
  9
$FINGERPRINTGUID
  2
{2D9E4517-3AE0-214A-8258-B6D0BC65E3CC}
  9
$VERSIONGUID
  2
{26AE4BAA-4CEB-A74C-8862-85A75D1D9B24}
  9
$EXTNAMES
290
     1
  9
$PSVPSCALE
 40
0.0
  9
$OLESTARTUP
290
     0
  9
$SORTENTS
280
   127
  9
$INDEXCTL
280
     0
  9
$HIDETEXT
280
     1
  9
$XCLIPFRAME
280
     2
  9
$HALOGAP
280
     0
  9
$OBSCOLOR
 70
   257
  9
$OBSLTYPE
280
     0
  9
$INTERSECTIONDISPLAY
280
     0
  9
$INTERSECTIONCOLOR
 70
   257
  9
$DIMASSOC
280
     2
  9
$PROJECTNAME
  1

  9
$CAMERADISPLAY
290
     0
  9
$LENSLENGTH
 40
50.0
  9
$CAMERAHEIGHT
 40
0.0
  9
$STEPSPERSEC
 40
2.0
  9
$STEPSIZE
 40
6.0
  9
$3DDWFPREC
 40
2.0
  9
$PSOLWIDTH
 40
0.25
  9
$PSOLHEIGHT
 40
4.0
  9
$LOFTANG1
 40
1.570796326794896
  9
$LOFTANG2
 40
1.570796326794896
  9
$LOFTMAG1
 40
0.0
  9
$LOFTMAG2
 40
0.0
  9
$LOFTPARAM
 70
     7
  9
$LOFTNORMALS
280
     1
  9
$LATITUDE
 40
37.795
  9
$LONGITUDE
 40
-122.394
  9
$NORTHDIRECTION
 40
0.0
  9
$TIMEZONE
 70
 -8000
  9
$LIGHTGLYPHDISPLAY
280
     1
  9
$TILEMODELIGHTSYNCH
280
     1
  9
$CMATERIAL
347
11
  9
$SOLIDHIST
280
     0
  9
$SHOWHIST
280
     1
  9
$DWFFRAME
280
     2
  9
$DGNFRAME
280
     0
  9
$REALWORLDSCALE
290
     1
  9
$INTERFERECOLOR
 62
     1
  9
$INTERFEREOBJVS
345
33
  9
$INTERFEREVPVS
346
30
  9
$CSHADOW
280
     0
  9
$SHADOWPLANELOCATION
 40
0.0
  0
ENDSEC
  0
SECTION
  2
CLASSES
  0
CLASS
  1
ACDBDICTIONARYWDFLT
  2
AcDbDictionaryWithDefault
  3
ObjectDBX Classes
 90
        0
 91
        1
280
     0
281
     0
  0
CLASS
  1
MATERIAL
  2
AcDbMaterial
  3
ObjectDBX Classes
 90
     1153
 91
        3
280
     0
281
     0
  0
CLASS
  1
VISUALSTYLE
  2
AcDbVisualStyle
  3
ObjectDBX Classes
 90
     4095
 91
       24
280
     0
281
     0
  0
CLASS
  1
SCALE
  2
AcDbScale
  3
ObjectDBX Classes
 90
     1153
 91
       17
280
     0
281
     0
  0
CLASS
  1
TABLESTYLE
  2
AcDbTableStyle
  3
ObjectDBX Classes
 90
     4095
 91
        1
280
     0
281
     0
  0
CLASS
  1
MLEADERSTYLE
  2
AcDbMLeaderStyle
  3
ACDB_MLEADERSTYLE_CLASS
 90
     4095
 91
        1
280
     0
281
     0
  0
CLASS
  1
ACDBSECTIONVIEWSTYLE
  2
AcDbSectionViewStyle
  3
ObjectDBX Classes
 90
     1025
 91
        1
280
     0
281
     0
  0
CLASS
  1
ACDBDETAILVIEWSTYLE
  2
AcDbDetailViewStyle
  3
ObjectDBX Classes
 90
     1025
 91
        1
280
     0
281
     0
  0
CLASS
  1
DICTIONARYVAR
  2
AcDbDictionaryVar
  3
ObjectDBX Classes
 90
        0
 91
        5
280
     0
281
     0
  0
CLASS
  1
CELLSTYLEMAP
  2
AcDbCellStyleMap
  3
ObjectDBX Classes
 90
     1152
 91
        1
280
     0
281
     0
  0
ENDSEC
  0
SECTION
  2
TABLES
  0
TABLE
  2
VPORT
  5
8
330
0
100
AcDbSymbolTable
 70
     1
  0
VPORT
  5
57
330
8
100
AcDbSymbolTableRecord
100
AcDbViewportTableRecord
  2
*Active
 70
     0
 10
0.0
 20
0.0
 11
1.0
 21
1.0
 12
0.0
 22
0.0
 13
0.0
 23
0.0
 14
1.0
 24
1.0
 15
0.0
 25
0.0
 16
0.0
 26
0.0
 36
1.0
 17
104.9999999737534
 27
-148.4999999628701
 37
0.0
 40
302.939999924255
 41
0.7070707070707534
 42
50.0
 43
0.0
 44
0.0
 50
0.0
 51
0.0
 71
     0
 72
   100
 73
     1
 74
     1
 75
     0
 76
     0
 77
     0
 78
     0
281
     0
 65
     1
110
0.0
120
0.0
130
0.0
111
1.0
121
0.0
131
0.0
112
0.0
122
1.0
132
0.0
 79
     0
146
0.0
 60
     3
 61
     5
292
     1
282
     1
141
0.0
142
0.0
 63
   250
421
  3355443
  0
ENDTAB
  0
TABLE
  2
LTYPE
  5
5
330
0
100
AcDbSymbolTable
 70
     1
  0
LTYPE
  5
5B
330
5
100
AcDbSymbolTableRecord
100
AcDbLinetypeTableRecord
  2
ByBlock
 70
     0
  3

 72
    65
 73
     0
 40
0.0
  0
LTYPE
  5
5C
330
5
100
AcDbSymbolTableRecord
100
AcDbLinetypeTableRecord
  2
ByLayer
 70
     0
  3

 72
    65
 73
     0
 40
0.0
  0
LTYPE
  5
5D
330
5
100
AcDbSymbolTableRecord
100
AcDbLinetypeTableRecord
  2
Continuous
 70
     0
  3
Solid line
 72
    65
 73
     0
 40
0.0
  0
ENDTAB
  0
TABLE
  2
LAYER
  5
2
330
0
100
AcDbSymbolTable
 70
     2
  0
LAYER
  5
54
330
2
100
AcDbSymbolTableRecord
100
AcDbLayerTableRecord
  2
0
 70
     0
 62
     7
  6
Continuous
370
    -3
390
F
347
21
  0
LAYER
  5
78
330
2
100
AcDbSymbolTableRecord
100
AcDbLayerTableRecord
  2
Capa 1
 70
     0
 62
     7
  6
Continuous
370
     0
390
F
347
21
  0
ENDTAB
  0
TABLE
  2
STYLE
  5
3
330
0
100
AcDbSymbolTable
 70
     2
  0
STYLE
  5
55
330
3
100
AcDbSymbolTableRecord
100
AcDbTextStyleTableRecord
  2
Standard
 70
     0
 40
0.0
 41
1.0
 50
0.0
 71
     0
 42
0.2
  3
txt
  4

  0
STYLE
  5
5A
330
3
100
AcDbSymbolTableRecord
100
AcDbTextStyleTableRecord
  2
Annotative
 70
     0
 40
0.0
 41
1.0
 50
0.0
 71
     0
 42
0.2
  3
txt
  4

1001
AcadAnnotative
1000
AnnotativeData
1002
{
1070
     1
1070
     1
1002
}
  0
ENDTAB
  0
TABLE
  2
VIEW
  5
6
330
0
100
AcDbSymbolTable
 70
     0
  0
ENDTAB
  0
TABLE
  2
UCS
  5
7
330
0
100
AcDbSymbolTable
 70
     0
  0
ENDTAB
  0
TABLE
  2
APPID
  5
9
330
0
100
AcDbSymbolTable
 70
     2
  0
APPID
  5
56
330
9
100
AcDbSymbolTableRecord
100
AcDbRegAppTableRecord
  2
ACAD
 70
     0
  0
APPID
  5
5E
330
9
100
AcDbSymbolTableRecord
100
AcDbRegAppTableRecord
  2
AcadAnnotative
 70
     0
  0
ENDTAB
  0
TABLE
  2
DIMSTYLE
  5
A
330
0
100
AcDbSymbolTable
 70
     2
100
AcDbDimStyleTable
 71
     0
  0
DIMSTYLE
105
58
330
A
100
AcDbSymbolTableRecord
100
AcDbDimStyleTableRecord
  2
Standard
 70
     0
340
55
  0
DIMSTYLE
105
59
330
A
100
AcDbSymbolTableRecord
100
AcDbDimStyleTableRecord
  2
Annotative
 70
     0
340
55
1001
AcadAnnotative
1000
AnnotativeData
1002
{
1070
     1
1070
     1
1002
}
  0
ENDTAB
  0
TABLE
  2
BLOCK_RECORD
  5
1
330
0
100
AcDbSymbolTable
 70
     5
  0
BLOCK_RECORD
  5
70
330
1
100
AcDbSymbolTableRecord
100
AcDbBlockTableRecord
  2
*Model_Space
340
73
 70
     0
280
     1
281
     0
  0
BLOCK_RECORD
  5
6C
330
1
100
AcDbSymbolTableRecord
100
AcDbBlockTableRecord
  2
*Paper_Space
340
6F
 70
     0
280
     1
281
     0
  0
BLOCK_RECORD
  5
74
330
1
100
AcDbSymbolTableRecord
100
AcDbBlockTableRecord
  2
*Paper_Space0
340
77
 70
     0
280
     1
281
     0
  0
BLOCK_RECORD
  5
A6
330
1
100
AcDbSymbolTableRecord
100
AcDbBlockTableRecord
  2
Block_0
340
0
102
{BLKREFS
331
A7
102
}
 70
     0
280
     1
281
     0
  0
BLOCK_RECORD
  5
FF
330
1
100
AcDbSymbolTableRecord
100
AcDbBlockTableRecord
  2
Block_1
340
0
102
{BLKREFS
331
100
102
}
 70
     0
280
     1
281
     0
  0
BLOCK_RECORD
  5
106
330
1
100
AcDbSymbolTableRecord
100
AcDbBlockTableRecord
  2
Block_2
340
0
102
{BLKREFS
331
107
102
}
 70
     0
280
     1
281
     0
  0
BLOCK_RECORD
  5
10D
330
1
100
AcDbSymbolTableRecord
100
AcDbBlockTableRecord
  2
Block_3
340
0
102
{BLKREFS
331
10E
102
}
 70
     0
280
     1
281
     0
  0
ENDTAB
  0
ENDSEC
  0
SECTION
  2
BLOCKS
  0
BLOCK
  5
71
330
70
100
AcDbEntity
  8
0
100
AcDbBlockBegin
  2
*Model_Space
 70
     0
 10
0.0
 20
0.0
 30
0.0
  3
*Model_Space
  1

  0
ENDBLK
  5
72
330
70
100
AcDbEntity
  8
0
100
AcDbBlockEnd
  0
BLOCK
  5
6D
330
6C
100
AcDbEntity
 67
     1
  8
0
100
AcDbBlockBegin
  2
*Paper_Space
 70
     0
 10
0.0
 20
0.0
 30
0.0
  3
*Paper_Space
  1

  0
ENDBLK
  5
6E
330
6C
100
AcDbEntity
 67
     1
  8
0
100
AcDbBlockEnd
  0
BLOCK
  5
75
330
74
100
AcDbEntity
 67
     1
  8
0
100
AcDbBlockBegin
  2
*Paper_Space0
 70
     0
 10
0.0
 20
0.0
 30
0.0
  3
*Paper_Space0
  1

  0
ENDBLK
  5
76
330
74
100
AcDbEntity
 67
     1
  8
0
100
AcDbBlockEnd
  0
BLOCK
  5
A8
330
A6
100
AcDbEntity
  8
0
100
AcDbBlockBegin
  2
Block_0
 70
     0
 10
0.0
 20
0.0
 30
0.0
  3
Block_0
  1

  0
LINE
  5
AA
330
A6
100
AcDbEntity
  8
Capa 1
 62
    18
420
        0
370
     9
100
AcDbLine
 10
148.9587607778562
 20
-121.3844347488792
 30
0.0
 11
147.1341311196501
 21
-121.3844347488792
 31
0.0
  0
LINE
  5
AB
330
A6
100
AcDbEntity
  8
Capa 1
 62
    18
420
        0
370
     9
100
AcDbLine
 10
148.9587607778562
 20
-163.2593714229624
 30
0.0
 11
147.1341311196501
 21
-163.2593714229624
 31
0.0
  0
LINE
  5
AC
330
A6
100
AcDbEntity
  8
Capa 1
 62
    18
420
        0
370
     9
100
AcDbLine
 10
148.0464459487532
 20
-121.3844347488792
 30
0.0
 11
148.0464459487532
 21
-163.2593714229624
 31
0.0
  0
MTEXT
  5
AD
330
A6
100
AcDbEntity
  8
Capa 1
100
AcDbMText
 10
147.1344039893538
 20
-142.3216294833523
 30
0.0
 40
0.2
 41
0.0
 46
0.0
 71
     7
 72
     1
  1
\C18;\c0;\FArial Bold|b1|i0|c1;\H0.089916;\W1.000000;45.8997
 11
0.0000000000000001
 21
1.0
 31
0.0
 73
     1
 44
1.0
  0
ENDBLK
  5
A9
330
A6
100
AcDbEntity
  8
0
100
AcDbBlockEnd
  0
BLOCK
  5
101
330
FF
100
AcDbEntity
  8
0
100
AcDbBlockBegin
  2
Block_1
 70
     0
 10
0.0
 20
0.0
 30
0.0
  3
Block_1
  1

  0
LINE
  5
103
330
FF
100
AcDbEntity
  8
Capa 1
 62
    18
420
        0
370
     9
100
AcDbLine
 10
68.71856323495548
 20
-269.6454409817852
 30
0.0
 11
68.71856323495548
 21
-271.4751390557065
 31
0.0
  0
LINE
  5
104
330
FF
100
AcDbEntity
  8
Capa 1
 62
    18
420
        0
370
     9
100
AcDbLine
 10
141.4490616734023
 20
-269.6454409817852
 30
0.0
 11
141.4490616734023
 21
-271.4751390557065
 31
0.0
  0
LINE
  5
105
330
FF
100
AcDbEntity
  8
Capa 1
 62
    18
420
        0
370
     9
100
AcDbLine
 10
68.71856323495548
 20
-270.5602900187446
 30
0.0
 11
141.4490616734023
 21
-270.5602900187446
 31
0.0
  0
ENDBLK
  5
102
330
FF
100
AcDbEntity
  8
0
100
AcDbBlockEnd
  0
BLOCK
  5
108
330
106
100
AcDbEntity
  8
0
100
AcDbBlockBegin
  2
Block_2
 70
     0
 10
0.0
 20
0.0
 30
0.0
  3
Block_2
  1

  0
LINE
  5
10A
330
106
100
AcDbEntity
  8
Capa 1
 62
    18
420
        0
370
     9
100
AcDbLine
 10
149.0078746178555
 20
-179.9607530501974
 30
0.0
 11
147.1781765439316
 21
-179.9607530501974
 31
0.0
  0
LINE
  5
10B
330
106
100
AcDbEntity
  8
Capa 1
 62
    18
420
        0
370
     9
100
AcDbLine
 10
149.0078746178555
 20
-247.659581785358
 30
0.0
 11
147.1781765439316
 21
-247.659581785358
 31
0.0
  0
LINE
  5
10C
330
106
100
AcDbEntity
  8
Capa 1
 62
    18
420
        0
370
     9
100
AcDbLine
 10
148.0930255808942
 20
-179.9607530501974
 30
0.0
 11
148.0930255808942
 21
-247.659581785358
 31
0.0
  0
ENDBLK
  5
109
330
106
100
AcDbEntity
  8
0
100
AcDbBlockEnd
  0
BLOCK
  5
10F
330
10D
100
AcDbEntity
  8
0
100
AcDbBlockBegin
  2
Block_3
 70
     0
 10
0.0
 20
0.0
 30
0.0
  3
Block_3
  1

  0
LINE
  5
111
330
10D
100
AcDbEntity
  8
Capa 1
 62
    18
420
        0
370
     9
100
AcDbLine
 10
149.0078746178555
 20
-257.6314362882385
 30
0.0
 11
147.1781765439316
 21
-257.6314362882385
 31
0.0
  0
LINE
  5
112
330
10D
100
AcDbEntity
  8
Capa 1
 62
    18
420
        0
370
     9
100
AcDbLine
 10
149.0078746178555
 20
-247.659581785358
 30
0.0
 11
147.1781765439316
 21
-247.659581785358
 31
0.0
  0
LINE
  5
113
330
10D
100
AcDbEntity
  8
Capa 1
 62
    18
420
        0
370
     9
100
AcDbLine
 10
148.0930255808942
 20
-257.6314362882385
 30
0.0
 11
148.0930255808942
 21
-247.659581785358
 31
0.0
  0
ENDBLK
  5
110
330
10D
100
AcDbEntity
  8
0
100
AcDbBlockEnd
  0
ENDSEC
  0
SECTION
  2
ENTITIES
  0
LINE
  5
79
330
70
100
AcDbEntity
  8
Capa 1
 62
    18
420
        0
370
     9
100
AcDbLine
 10
140.4162636145281
 20
-162.5296307198249
 30
0.0
 11
68.00098285800053
 21
-162.5296307198249
 31
0.0
  0
LINE
  5
7A
330
70
100
AcDbEntity
  8
Capa 1
 62
    18
420
        0
370
     9
100
AcDbLine
 10
68.00098285815003
 20
-162.5296307196734
 30
0.0
 11
68.00098285815003
 21
-122.9832030956678
 31
0.0
  0
LINE
  5
7B
330
70
100
AcDbEntity
  8
Capa 1
 62
    18
420
        0
370
     9
100
AcDbLine
 10
140.4162636146795
 20
-122.9832030956678
 30
0.0
 11
140.4162636146795
 21
-162.5296307196734
 31
0.0
  0
SPLINE
  5
7C
330
70
100
AcDbEntity
  8
Capa 1
 62
    18
420
        0
370
     9
100
AcDbSpline
210
0.0
220
0.0
230
1.0
 70
     8
 71
     3
 72
    14
 73
    10
 74
     0
 42
0.0000000001
 43
0.0000000001
 40
0.0
 40
0.0
 40
0.0
 40
0.0
 40
1.0
 40
1.0
 40
1.0
 40
2.0
 40
2.0
 40
2.0
 40
3.0
 40
3.0
 40
3.0
 40
3.0
 10
104.2086232356085
 20
-127.4623838777881
 30
0.0
 10
104.7789326778676
 20
-127.4623838780249
 30
0.0
 10
105.3061221967234
 20
-127.1580108676388
 30
0.0
 10
105.5912769179868
 20
-126.6641084027027
 30
0.0
 10
105.8764316392514
 20
-126.1702059377668
 30
0.0
 10
105.8764316393772
 20
-125.5614599166369
 30
0.0
 10
105.5912769183141
 20
-125.0675574515837
 30
0.0
 10
105.3061221972535
 20
-124.5736549865294
 30
0.0
 10
104.7789326785221
 20
-124.269281975931
 30
0.0
 10
104.2086232362624
 20
-124.269281975931
 30
0.0
  0
SPLINE
  5
7D
330
70
100
AcDbEntity
  8
Capa 1
 62
    18
420
        0
370
     9
100
AcDbSpline
210
0.0
220
0.0
230
1.0
 70
     8
 71
     3
 72
    17
 73
    13
 74
     0
 42
0.0000000001
 43
0.0000000001
 40
0.0
 40
0.0
 40
0.0
 40
0.0
 40
1.0
 40
1.0
 40
1.0
 40
2.0
 40
2.0
 40
2.0
 40
3.0
 40
3.0
 40
3.0
 40
4.0
 40
4.0
 40
4.0
 40
4.0
 10
104.2086232359762
 20
-124.269281975931
 30
0.0
 10
103.7852035804581
 20
-124.2692819760064
 30
0.0
 10
103.3790941420124
 20
-124.4374980132702
 30
0.0
 10
103.0796912323154
 20
-124.7369009229843
 30
0.0
 10
102.78028832262
 20
-125.0363038326979
 30
0.0
 10
102.6120722853837
 20
-125.442413271159
 30
0.0
 10
102.6120722853336
 20
-125.8658329266746
 30
0.0
 10
102.6120722852842
 20
-126.2892525821946
 30
0.0
 10
102.7802883224291
 20
-126.6953620206923
 30
0.0
 10
103.0796912320545
 20
-126.9947649304762
 30
0.0
 10
103.3790941416813
 20
-127.2941678402602
 30
0.0
 10
103.7852035800884
 20
-127.4623838776161
 30
0.0
 10
104.2086232356085
 20
-127.4623838777881
 30
0.0
  0
SPLINE
  5
7E
330
70
100
AcDbEntity
  8
Capa 1
 62
    18
420
        0
370
     9
100
AcDbSpline
210
0.0
220
0.0
230
1.0
 70
     8
 71
     3
 72
    89
 73
    85
 74
     0
 42
0.0000000001
 43
0.0000000001
 40
0.0
 40
0.0
 40
0.0
 40
0.0
 40
1.0
 40
1.0
 40
1.0
 40
2.0
 40
2.0
 40
2.0
 40
3.0
 40
3.0
 40
3.0
 40
4.0
 40
4.0
 40
4.0
 40
5.0
 40
5.0
 40
5.0
 40
6.0
 40
6.0
 40
6.0
 40
7.0
 40
7.0
 40
7.0
 40
8.0
 40
8.0
 40
8.0
 40
9.0
 40
9.0
 40
9.0
 40
10.0
 40
10.0
 40
10.0
 40
11.0
 40
11.0
 40
11.0
 40
12.0
 40
12.0
 40
12.0
 40
13.0
 40
13.0
 40
13.0
 40
14.0
 40
14.0
 40
14.0
 40
15.0
 40
15.0
 40
15.0
 40
16.0
 40
16.0
 40
16.0
 40
17.0
 40
17.0
 40
17.0
 40
18.0
 40
18.0
 40
18.0
 40
19.0
 40
19.0
 40
19.0
 40
20.0
 40
20.0
 40
20.0
 40
21.0
 40
21.0
 40
21.0
 40
22.0
 40
22.0
 40
22.0
 40
23.0
 40
23.0
 40
23.0
 40
24.0
 40
24.0
 40
24.0
 40
25.0
 40
25.0
 40
25.0
 40
26.0
 40
26.0
 40
26.0
 40
27.0
 40
27.0
 40
27.0
 40
28.0
 40
28.0
 40
28.0
 40
28.0
 10
104.2086232354423
 20
-131.1696041242032
 30
0.0
 10
102.7630014951557
 20
-131.1696041267575
 30
0.0
 10
101.3174152867059
 20
-131.1759890759457
 30
0.0
 10
99.87184696866005
 20
-131.1856221429048
 30
0.0
 10
98.42627865061004
 20
-131.1952552098636
 30
0.0
 10
96.9807262717064
 20
-131.2078494219037
 30
0.0
 10
95.53517581988531
 20
-131.2205807865659
 30
0.0
 10
94.0896253680623
 20
-131.2333121512245
 30
0.0
 10
92.6440777905344
 20
-131.2462150327167
 30
0.0
 10
91.19851829356655
 20
-131.2584086881419
 30
0.0
 10
90.47573854508263
 20
-131.2645055158542
 30
0.0
 10
89.75295611188519
 20
-131.270450248963
 30
0.0
 10
89.03017096263306
 20
-131.2762411041662
 30
0.0
 10
88.8494746753226
 20
-131.2776888179689
 30
0.0
 10
88.66878266494136
 20
-131.2793788359892
 30
0.0
 10
88.488079850746
 20
-131.2804567768316
 30
0.0
 10
88.30737703655033
 20
-131.2815347176744
 30
0.0
 10
88.12666629978208
 20
-131.2821638136083
 30
0.0
 10
87.94604402315918
 20
-131.2878045216613
 30
0.0
 10
87.76542174653469
 20
-131.2934452297127
 30
0.0
 10
87.58489782267954
 20
-131.3046580091495
 30
0.0
 10
87.4044708654843
 20
-131.321364325354
 30
0.0
 10
87.22404390828906
 20
-131.3380706415621
 30
0.0
 10
87.04333507723026
 20
-131.3603321433776
 30
0.0
 10
86.86478041004301
 20
-131.38782032836
 30
0.0
 10
86.50767107566434
 20
-131.442796698327
 30
0.0
 10
86.15741305163789
 20
-131.5187430761303
 30
0.0
 10
85.81354847024982
 20
-131.6142580522547
 30
0.0
 10
85.469683888864
 20
-131.7097730283788
 30
0.0
 10
85.13222951801756
 20
-131.8249079249928
 30
0.0
 10
84.80107179063431
 20
-131.9593151440686
 30
0.0
 10
84.46991406324817
 20
-132.0937223631431
 30
0.0
 10
84.14505414353923
 20
-132.247405468173
 30
0.0
 10
83.82646174911831
 20
-132.4202717724923
 30
0.0
 10
83.74681365051332
 20
-132.4634883485705
 30
0.0
 10
83.66764420515179
 20
-132.507858769052
 30
0.0
 10
83.58937042281493
 20
-132.5531352454375
 30
0.0
 10
83.51109664047998
 20
-132.598411721823
 30
0.0
 10
83.43359737073482
 20
-132.6446591619248
 30
0.0
 10
83.3568538839442
 20
-132.6918540853189
 30
0.0
 10
83.20336691036482
 20
-132.7862439320996
 30
0.0
 10
83.05290096479764
 20
-132.8844210748102
 30
0.0
 10
82.90533585984242
 20
-132.9862348412289
 30
0.0
 10
82.61020564993616
 20
-133.1898623740647
 30
0.0
 10
82.32665794437108
 20
-133.4080102527491
 30
0.0
 10
82.05406780311033
 20
-133.6398950247291
 30
0.0
 10
81.78147766185118
 20
-133.8717797967108
 30
0.0
 10
81.51982550666575
 20
-134.1173769174789
 30
0.0
 10
81.26888500793622
 20
-134.3764026505596
 30
0.0
 10
81.20614988325344
 20
-134.4411590838291
 30
0.0
 10
81.14408446790566
 20
-134.5067550946184
 30
0.0
 10
81.08268356199637
 20
-134.5731841642824
 30
0.0
 10
81.02128265609064
 20
-134.6396132339486
 30
0.0
 10
80.96051942248582
 20
-134.7069106459455
 30
0.0
 10
80.90074792716285
 20
-134.7746531483631
 30
0.0
 10
80.78120493651882
 20
-134.9101381531983
 30
0.0
 10
80.66528323963863
 20
-135.047763817397
 30
0.0
 10
80.5528039756974
 20
-135.1874244108184
 30
0.0
 10
80.3278454478133
 20
-135.4667455976589
 30
0.0
 10
80.11662509621393
 20
-135.7541878479625
 30
0.0
 10
79.91821444277085
 20
-136.0492023091114
 30
0.0
 10
79.52139313588695
 20
-136.6392312314102
 30
0.0
 10
79.17595887881178
 20
-137.2596366377026
 30
0.0
 10
78.87782751831487
 20
-137.908004257709
 30
0.0
 10
78.72876183806948
 20
-138.2321880677112
 30
0.0
 10
78.59151305723667
 20
-138.5633572143869
 30
0.0
 10
78.46607905178844
 20
-138.9015104423916
 30
0.0
 10
78.43472055042536
 20
-138.9860487493935
 30
0.0
 10
78.40407315878895
 20
-139.0711130019717
 30
0.0
 10
78.37429039900219
 20
-139.1562691928619
 30
0.0
 10
78.34450763921705
 20
-139.241425383754
 30
0.0
 10
78.31556802762896
 20
-139.326726200904
 30
0.0
 10
78.28746116461172
 20
-139.4121698604035
 30
0.0
 10
78.23124743857178
 20
-139.5830571794017
 30
0.0
 10
78.17836296173209
 20
-139.7545155687421
 30
0.0
 10
78.1287472778419
 20
-139.9265346580183
 30
0.0
 10
77.93028454229357
 20
-140.6146110151177
 30
0.0
 10
77.78425743563708
 20
-141.3116817208174
 30
0.0
 10
77.68595802896448
 20
-142.0169392171954
 30
0.0
 10
77.6368083256293
 20
-142.3695679653842
 30
0.0
 10
77.59969352818668
 20
-142.724261075942
 30
0.0
 10
77.57474252281948
 20
-143.0810406566239
 30
0.0
 10
77.54979151745226
 20
-143.4378202373084
 30
0.0
 10
77.5370014583786
 20
-143.7966886414334
 30
0.0
 10
77.53700146494638
 20
-144.157745258675
 30
0.0
  0
SPLINE
  5
7F
330
70
100
AcDbEntity
  8
Capa 1
 62
    18
420
        0
370
     9
100
AcDbSpline
210
0.0
220
0.0
230
1.0
 70
     8
 71
     3
 72
    89
 73
    85
 74
     0
 42
0.0000000001
 43
0.0000000001
 40
0.0
 40
0.0
 40
0.0
 40
0.0
 40
1.0
 40
1.0
 40
1.0
 40
2.0
 40
2.0
 40
2.0
 40
3.0
 40
3.0
 40
3.0
 40
4.0
 40
4.0
 40
4.0
 40
5.0
 40
5.0
 40
5.0
 40
6.0
 40
6.0
 40
6.0
 40
7.0
 40
7.0
 40
7.0
 40
8.0
 40
8.0
 40
8.0
 40
9.0
 40
9.0
 40
9.0
 40
10.0
 40
10.0
 40
10.0
 40
11.0
 40
11.0
 40
11.0
 40
12.0
 40
12.0
 40
12.0
 40
13.0
 40
13.0
 40
13.0
 40
14.0
 40
14.0
 40
14.0
 40
15.0
 40
15.0
 40
15.0
 40
16.0
 40
16.0
 40
16.0
 40
17.0
 40
17.0
 40
17.0
 40
18.0
 40
18.0
 40
18.0
 40
19.0
 40
19.0
 40
19.0
 40
20.0
 40
20.0
 40
20.0
 40
21.0
 40
21.0
 40
21.0
 40
22.0
 40
22.0
 40
22.0
 40
23.0
 40
23.0
 40
23.0
 40
24.0
 40
24.0
 40
24.0
 40
25.0
 40
25.0
 40
25.0
 40
26.0
 40
26.0
 40
26.0
 40
27.0
 40
27.0
 40
27.0
 40
28.0
 40
28.0
 40
28.0
 40
28.0
 10
77.53700146494638
 20
-144.1577452420716
 30
0.0
 10
77.5370014583786
 20
-144.5188018593162
 30
0.0
 10
77.54979151745226
 20
-144.8776702634421
 30
0.0
 10
77.57474252281948
 20
-145.2344498441253
 30
0.0
 10
77.59969352818668
 20
-145.5912294248066
 30
0.0
 10
77.6368083256293
 20
-145.9459225353628
 30
0.0
 10
77.68595802896448
 20
-146.2985512835539
 30
0.0
 10
77.78425743563708
 20
-147.0038087799309
 30
0.0
 10
77.93028454229357
 20
-147.7008794856292
 30
0.0
 10
78.1287472778419
 20
-148.3889558427303
 30
0.0
 10
78.17836296173209
 20
-148.5609749320049
 30
0.0
 10
78.23124743857178
 20
-148.7324333212561
 30
0.0
 10
78.28746116461172
 20
-148.9033206403139
 30
0.0
 10
78.31556802762896
 20
-148.9887642998446
 30
0.0
 10
78.34450763921705
 20
-149.0740651169952
 30
0.0
 10
78.37429039900219
 20
-149.1592213078873
 30
0.0
 10
78.40407315878895
 20
-149.2443774987795
 30
0.0
 10
78.43472055042536
 20
-149.3294417513557
 30
0.0
 10
78.46607905178844
 20
-149.4139800583589
 30
0.0
 10
78.59151305723667
 20
-149.7521332863643
 30
0.0
 10
78.72876183815995
 20
-150.0833024331304
 30
0.0
 10
78.87782751834632
 20
-150.407486243071
 30
0.0
 10
79.17595887872161
 20
-151.0558538629536
 30
0.0
 10
79.52139313588695
 20
-151.6762592693413
 30
0.0
 10
79.91821444277085
 20
-152.2662881916391
 30
0.0
 10
80.11662509621393
 20
-152.5613026527867
 30
0.0
 10
80.3278454478133
 20
-152.84874490309
 30
0.0
 10
80.5528039756974
 20
-153.1280660899309
 30
0.0
 10
80.66528323963863
 20
-153.26772668335
 30
0.0
 10
80.78120493651882
 20
-153.4053523475509
 30
0.0
 10
80.90074792716285
 20
-153.5408373523874
 30
0.0
 10
80.96051942248582
 20
-153.6085798548031
 30
0.0
 10
81.02128265609064
 20
-153.6758772668003
 30
0.0
 10
81.08268356199637
 20
-153.7423063364662
 30
0.0
 10
81.14408446790566
 20
-153.8087354061309
 30
0.0
 10
81.20614988334585
 20
-153.8743314169195
 30
0.0
 10
81.26888500798051
 20
-153.939087850189
 30
0.0
 10
81.51982550652874
 20
-154.1981135832674
 30
0.0
 10
81.78147766185118
 20
-154.4437107040401
 30
0.0
 10
82.05406780311033
 20
-154.6755954760201
 30
0.0
 10
82.32665794437108
 20
-154.9074802480002
 30
0.0
 10
82.61020564993616
 20
-155.1256281266845
 30
0.0
 10
82.90533585984242
 20
-155.3292556595219
 30
0.0
 10
83.05290096479764
 20
-155.4310694259403
 30
0.0
 10
83.20336691036482
 20
-155.5292465686493
 30
0.0
 10
83.3568538839442
 20
-155.6236364154316
 30
0.0
 10
83.43359737073482
 20
-155.6708313388234
 30
0.0
 10
83.51109664047998
 20
-155.7170787789259
 30
0.0
 10
83.58937042281493
 20
-155.7623552553114
 30
0.0
 10
83.66764420515179
 20
-155.8076317316988
 30
0.0
 10
83.74681365051332
 20
-155.8520021521758
 30
0.0
 10
83.82646174911831
 20
-155.895218728257
 30
0.0
 10
84.14505414353923
 20
-156.0680850325778
 30
0.0
 10
84.46991406324817
 20
-156.2217681376061
 30
0.0
 10
84.80107179057304
 20
-156.3561753566806
 30
0.0
 10
85.13222951789597
 20
-156.4905825757539
 30
0.0
 10
85.469683888864
 20
-156.6057174723717
 30
0.0
 10
85.81354847024982
 20
-156.7012324484958
 30
0.0
 10
86.15741305163789
 20
-156.7967474246199
 30
0.0
 10
86.50767107566434
 20
-156.8726938023314
 30
0.0
 10
86.86478041004301
 20
-156.9276701723683
 30
0.0
 10
87.04333507723026
 20
-156.95515835739
 30
0.0
 10
87.22404390828906
 20
-156.9774198591868
 30
0.0
 10
87.4044708654843
 20
-156.9941261753955
 30
0.0
 10
87.58489782267954
 20
-157.0108324915991
 30
0.0
 10
87.76542174653469
 20
-157.0220452710362
 30
0.0
 10
87.94604402315918
 20
-157.0276859790895
 30
0.0
 10
88.12666629978208
 20
-157.0333266871403
 30
0.0
 10
88.30737703655033
 20
-157.0339557830765
 30
0.0
 10
88.488079850746
 20
-157.0350337239186
 30
0.0
 10
88.66878266494136
 20
-157.0361116647613
 30
0.0
 10
88.8494746753226
 20
-157.0378016827813
 30
0.0
 10
89.03017096263306
 20
-157.0392493965827
 30
0.0
 10
89.75295611188519
 20
-157.0450402517882
 30
0.0
 10
90.47573854508263
 20
-157.0509849848948
 30
0.0
 10
91.19851829356655
 20
-157.0570818126054
 30
0.0
 10
92.6440777905344
 20
-157.0692754680325
 30
0.0
 10
94.0896253680623
 20
-157.0821783498885
 30
0.0
 10
95.53517581988531
 20
-157.094909714185
 30
0.0
 10
96.9807262717064
 20
-157.1076410784807
 30
0.0
 10
98.42627865061004
 20
-157.120235290841
 30
0.0
 10
99.87184696866005
 20
-157.1298683578897
 30
0.0
 10
101.3174152867059
 20
-157.1395014249396
 30
0.0
 10
102.7630014951557
 20
-157.145886373993
 30
0.0
 10
104.2086232354423
 20
-157.1458863765457
 30
0.0
  0
SPLINE
  5
80
330
70
100
AcDbEntity
  8
Capa 1
 62
    18
420
        0
370
     9
100
AcDbSpline
210
0.0
220
0.0
230
1.0
 70
     8
 71
     3
 72
    89
 73
    85
 74
     0
 42
0.0000000001
 43
0.0000000001
 40
0.0
 40
0.0
 40
0.0
 40
0.0
 40
1.0
 40
1.0
 40
1.0
 40
2.0
 40
2.0
 40
2.0
 40
3.0
 40
3.0
 40
3.0
 40
4.0
 40
4.0
 40
4.0
 40
5.0
 40
5.0
 40
5.0
 40
6.0
 40
6.0
 40
6.0
 40
7.0
 40
7.0
 40
7.0
 40
8.0
 40
8.0
 40
8.0
 40
9.0
 40
9.0
 40
9.0
 40
10.0
 40
10.0
 40
10.0
 40
11.0
 40
11.0
 40
11.0
 40
12.0
 40
12.0
 40
12.0
 40
13.0
 40
13.0
 40
13.0
 40
14.0
 40
14.0
 40
14.0
 40
15.0
 40
15.0
 40
15.0
 40
16.0
 40
16.0
 40
16.0
 40
17.0
 40
17.0
 40
17.0
 40
18.0
 40
18.0
 40
18.0
 40
19.0
 40
19.0
 40
19.0
 40
20.0
 40
20.0
 40
20.0
 40
21.0
 40
21.0
 40
21.0
 40
22.0
 40
22.0
 40
22.0
 40
23.0
 40
23.0
 40
23.0
 40
24.0
 40
24.0
 40
24.0
 40
25.0
 40
25.0
 40
25.0
 40
26.0
 40
26.0
 40
26.0
 40
27.0
 40
27.0
 40
27.0
 40
28.0
 40
28.0
 40
28.0
 40
28.0
 10
104.208623237085
 20
-157.1458863765457
 30
0.0
 10
105.654244977371
 20
-157.1458863738107
 30
0.0
 10
107.0998311858224
 20
-157.1395014248029
 30
0.0
 10
108.5453995038702
 20
-157.129868357846
 30
0.0
 10
109.990967821918
 20
-157.1202352908853
 30
0.0
 10
111.4365202008219
 20
-157.1076410788478
 30
0.0
 10
112.8820706526407
 20
-157.094909714185
 30
0.0
 10
114.327621104466
 20
-157.0821783495221
 30
0.0
 10
115.7731686819942
 20
-157.0692754678496
 30
0.0
 10
117.2187281789621
 20
-157.0570818126054
 30
0.0
 10
117.9415079274454
 20
-157.0509849849871
 30
0.0
 10
118.6642903606415
 20
-157.0450402518786
 30
0.0
 10
119.387075509893
 20
-157.0392493965943
 30
0.0
 10
119.5677717972038
 20
-157.0378016827711
 30
0.0
 10
119.7484638075879
 20
-157.0361116647613
 30
0.0
 10
119.9291666217826
 20
-157.0350337239186
 30
0.0
 10
120.1098694359805
 20
-157.0339557830765
 30
0.0
 10
120.2905801727462
 20
-157.0333266871403
 30
0.0
 10
120.4712024493698
 20
-157.0276859790895
 30
0.0
 10
120.6518247259946
 20
-157.0220452710362
 30
0.0
 10
120.8323486498465
 20
-157.0108324915991
 30
0.0
 10
121.0127756070443
 20
-156.9941261753955
 30
0.0
 10
121.193202564237
 20
-156.9774198591868
 30
0.0
 10
121.3739113952984
 20
-156.95515835739
 30
0.0
 10
121.5524660624834
 20
-156.9276701723683
 30
0.0
 10
121.9095753968624
 20
-156.8726938023314
 30
0.0
 10
122.2598334209812
 20
-156.7967474246199
 30
0.0
 10
122.6036980022974
 20
-156.7012324484958
 30
0.0
 10
122.9475625836111
 20
-156.6057174723717
 30
0.0
 10
123.2850169544812
 20
-156.4905825756043
 30
0.0
 10
123.6161746819261
 20
-156.3561753566492
 30
0.0
 10
123.9473324093684
 20
-156.2217681376986
 30
0.0
 10
124.2721923289891
 20
-156.0680850325778
 30
0.0
 10
124.5907847234065
 20
-155.895218728257
 30
0.0
 10
124.6704328220153
 20
-155.8520021521803
 30
0.0
 10
124.7496022673784
 20
-155.8076317316988
 30
0.0
 10
124.8278760497118
 20
-155.7623552553114
 30
0.0
 10
124.9061498320503
 20
-155.7170787789259
 30
0.0
 10
124.9836491017916
 20
-155.6708313388234
 30
0.0
 10
125.0603925885828
 20
-155.6236364154316
 30
0.0
 10
125.2138795621628
 20
-155.5292465686493
 30
0.0
 10
125.3643455077332
 20
-155.4310694259403
 30
0.0
 10
125.5119106126846
 20
-155.3292556595219
 30
0.0
 10
125.8070408225912
 20
-155.1256281266845
 30
0.0
 10
126.0905885282942
 20
-154.9074802480002
 30
0.0
 10
126.3631786694619
 20
-154.6755954760201
 30
0.0
 10
126.6357688106316
 20
-154.4437107040401
 30
0.0
 10
126.8974209660002
 20
-154.1981135832674
 30
0.0
 10
127.1483614645478
 20
-153.939087850189
 30
0.0
 10
127.2110965891828
 20
-153.8743314169195
 30
0.0
 10
127.2731620046243
 20
-153.8087354061309
 30
0.0
 10
127.3345629105326
 20
-153.7423063364662
 30
0.0
 10
127.3959638164377
 20
-153.6758772668003
 30
0.0
 10
127.4567270500406
 20
-153.6085798548031
 30
0.0
 10
127.5164985453635
 20
-153.5408373523874
 30
0.0
 10
127.6360415360095
 20
-153.4053523475509
 30
0.0
 10
127.7519632328884
 20
-153.26772668335
 30
0.0
 10
127.8644424968287
 20
-153.1280660899309
 30
0.0
 10
128.0894010247156
 20
-152.84874490309
 30
0.0
 10
128.300621376315
 20
-152.5613026527867
 30
0.0
 10
128.4990320297575
 20
-152.2662881916391
 30
0.0
 10
128.8958533366391
 20
-151.6762592693413
 30
0.0
 10
129.2412875938089
 20
-151.0558538629536
 30
0.0
 10
129.5394189541804
 20
-150.407486243071
 30
0.0
 10
129.6884846343706
 20
-150.0833024331304
 30
0.0
 10
129.8257334152916
 20
-149.7521332863643
 30
0.0
 10
129.9511674207383
 20
-149.4139800583589
 30
0.0
 10
129.9825259221029
 20
-149.3294417513557
 30
0.0
 10
130.01317331374
 20
-149.2443774987795
 30
0.0
 10
130.0429560735268
 20
-149.1592213078873
 30
0.0
 10
130.0727388333116
 20
-149.0740651169952
 30
0.0
 10
130.1016784448974
 20
-148.9887642998446
 30
0.0
 10
130.1297853079182
 20
-148.9033206403435
 30
0.0
 10
130.1859990339572
 20
-148.732433321345
 30
0.0
 10
130.2388835107978
 20
-148.5609749320049
 30
0.0
 10
130.2884991946848
 20
-148.3889558427303
 30
0.0
 10
130.486961930236
 20
-147.7008794856292
 30
0.0
 10
130.6329890368896
 20
-147.0038087799338
 30
0.0
 10
130.7312884435619
 20
-146.2985512835539
 30
0.0
 10
130.7804381469
 20
-145.9459225353628
 30
0.0
 10
130.8175529443404
 20
-145.5912294248066
 30
0.0
 10
130.8425039497069
 20
-145.2344498441253
 30
0.0
 10
130.8674549550761
 20
-144.8776702634421
 30
0.0
 10
130.8802450140576
 20
-144.5188018594089
 30
0.0
 10
130.8802450075823
 20
-144.1577452420716
 30
0.0
  0
SPLINE
  5
81
330
70
100
AcDbEntity
  8
Capa 1
 62
    18
420
        0
370
     9
100
AcDbSpline
210
0.0
220
0.0
230
1.0
 70
     8
 71
     3
 72
    89
 73
    85
 74
     0
 42
0.0000000001
 43
0.0000000001
 40
0.0
 40
0.0
 40
0.0
 40
0.0
 40
1.0
 40
1.0
 40
1.0
 40
2.0
 40
2.0
 40
2.0
 40
3.0
 40
3.0
 40
3.0
 40
4.0
 40
4.0
 40
4.0
 40
5.0
 40
5.0
 40
5.0
 40
6.0
 40
6.0
 40
6.0
 40
7.0
 40
7.0
 40
7.0
 40
8.0
 40
8.0
 40
8.0
 40
9.0
 40
9.0
 40
9.0
 40
10.0
 40
10.0
 40
10.0
 40
11.0
 40
11.0
 40
11.0
 40
12.0
 40
12.0
 40
12.0
 40
13.0
 40
13.0
 40
13.0
 40
14.0
 40
14.0
 40
14.0
 40
15.0
 40
15.0
 40
15.0
 40
16.0
 40
16.0
 40
16.0
 40
17.0
 40
17.0
 40
17.0
 40
18.0
 40
18.0
 40
18.0
 40
19.0
 40
19.0
 40
19.0
 40
20.0
 40
20.0
 40
20.0
 40
21.0
 40
21.0
 40
21.0
 40
22.0
 40
22.0
 40
22.0
 40
23.0
 40
23.0
 40
23.0
 40
24.0
 40
24.0
 40
24.0
 40
25.0
 40
25.0
 40
25.0
 40
26.0
 40
26.0
 40
26.0
 40
27.0
 40
27.0
 40
27.0
 40
28.0
 40
28.0
 40
28.0
 40
28.0
 10
130.8802450075823
 20
-144.157745258675
 30
0.0
 10
130.88024501415
 20
-143.796688641342
 30
0.0
 10
130.8674549550761
 20
-143.4378202373084
 30
0.0
 10
130.8425039497069
 20
-143.0810406566239
 30
0.0
 10
130.8175529443404
 20
-142.724261075942
 30
0.0
 10
130.7804381469924
 20
-142.3695679654767
 30
0.0
 10
130.7312884436081
 20
-142.0169392171954
 30
0.0
 10
130.632989036846
 20
-141.3116817206342
 30
0.0
 10
130.486961930236
 20
-140.6146110151177
 30
0.0
 10
130.2884991946848
 20
-139.9265346580183
 30
0.0
 10
130.2388835107978
 20
-139.7545155687421
 30
0.0
 10
130.1859990339572
 20
-139.5830571794017
 30
0.0
 10
130.1297853079182
 20
-139.4121698604035
 30
0.0
 10
130.1016784448974
 20
-139.326726200904
 30
0.0
 10
130.0727388333116
 20
-139.241425383754
 30
0.0
 10
130.0429560735268
 20
-139.1562691928619
 30
0.0
 10
130.01317331374
 20
-139.0711130019717
 30
0.0
 10
129.9825259221029
 20
-138.9860487493935
 30
0.0
 10
129.9511674207383
 20
-138.9015104423916
 30
0.0
 10
129.8257334152916
 20
-138.5633572143869
 30
0.0
 10
129.6884846343706
 20
-138.2321880676188
 30
0.0
 10
129.5394189541804
 20
-137.9080042576791
 30
0.0
 10
129.2412875938089
 20
-137.259636637795
 30
0.0
 10
128.8958533366391
 20
-136.639231231637
 30
0.0
 10
128.4990320297575
 20
-136.049202309156
 30
0.0
 10
128.300621376315
 20
-135.7541878479179
 30
0.0
 10
128.0894010247156
 20
-135.4667455976589
 30
0.0
 10
127.8644424968287
 20
-135.1874244108184
 30
0.0
 10
127.7519632328884
 20
-135.047763817397
 30
0.0
 10
127.6360415360095
 20
-134.9101381531983
 30
0.0
 10
127.5164985453635
 20
-134.7746531483631
 30
0.0
 10
127.4567270500406
 20
-134.7069106459455
 30
0.0
 10
127.3959638164678
 20
-134.6396132339486
 30
0.0
 10
127.3345629104992
 20
-134.5731841642824
 30
0.0
 10
127.2731620045318
 20
-134.5067550946184
 30
0.0
 10
127.2110965891828
 20
-134.4411590838291
 30
0.0
 10
127.1483614645478
 20
-134.3764026505596
 30
0.0
 10
126.8974209660002
 20
-134.1173769174789
 30
0.0
 10
126.6357688106752
 20
-133.8717797967108
 30
0.0
 10
126.3631786694183
 20
-133.6398950247291
 30
0.0
 10
126.0905885281575
 20
-133.4080102527491
 30
0.0
 10
125.8070408225912
 20
-133.1898623740647
 30
0.0
 10
125.5119106126846
 20
-132.9862348412289
 30
0.0
 10
125.3643455077332
 20
-132.8844210748102
 30
0.0
 10
125.2138795621628
 20
-132.7862439320996
 30
0.0
 10
125.0603925885828
 20
-132.6918540853189
 30
0.0
 10
124.9836491017916
 20
-132.6446591619248
 30
0.0
 10
124.9061498320503
 20
-132.598411721823
 30
0.0
 10
124.8278760497118
 20
-132.5531352454375
 30
0.0
 10
124.7496022673784
 20
-132.507858769052
 30
0.0
 10
124.6704328220153
 20
-132.4634883485705
 30
0.0
 10
124.5907847234103
 20
-132.4202717724923
 30
0.0
 10
124.2721923289891
 20
-132.247405468173
 30
0.0
 10
123.9473324093684
 20
-132.0937223631431
 30
0.0
 10
123.6161746819261
 20
-131.9593151440686
 30
0.0
 10
123.2850169544812
 20
-131.8249079249928
 30
0.0
 10
122.947562583665
 20
-131.7097730283788
 30
0.0
 10
122.6036980022788
 20
-131.6142580522547
 30
0.0
 10
122.2598334208888
 20
-131.5187430761303
 30
0.0
 10
121.9095753968624
 20
-131.442796698327
 30
0.0
 10
121.5524660624834
 20
-131.38782032836
 30
0.0
 10
121.3739113952984
 20
-131.3603321433776
 30
0.0
 10
121.193202564237
 20
-131.3380706415621
 30
0.0
 10
121.0127756070443
 20
-131.321364325354
 30
0.0
 10
120.8323486498465
 20
-131.3046580091495
 30
0.0
 10
120.6518247259946
 20
-131.2934452297127
 30
0.0
 10
120.4712024493698
 20
-131.2878045216613
 30
0.0
 10
120.2905801727462
 20
-131.2821638136083
 30
0.0
 10
120.1098694359805
 20
-131.2815347176744
 30
0.0
 10
119.9291666217826
 20
-131.2804567768316
 30
0.0
 10
119.7484638075879
 20
-131.2793788359892
 30
0.0
 10
119.5677717972038
 20
-131.2776888179689
 30
0.0
 10
119.387075509893
 20
-131.2762411041662
 30
0.0
 10
118.6642903606415
 20
-131.270450248963
 30
0.0
 10
117.9415079274454
 20
-131.2645055158542
 30
0.0
 10
117.2187281789621
 20
-131.2584086881419
 30
0.0
 10
115.7731686819942
 20
-131.2462150327167
 30
0.0
 10
114.327621104466
 20
-131.2333121512245
 30
0.0
 10
112.8820706526407
 20
-131.2205807865659
 30
0.0
 10
111.4365202008219
 20
-131.2078494219037
 30
0.0
 10
109.990967821918
 20
-131.1952552098636
 30
0.0
 10
108.5453995038702
 20
-131.1856221429048
 30
0.0
 10
107.0998311858224
 20
-131.1759890759457
 30
0.0
 10
105.654244977371
 20
-131.1696041269407
 30
0.0
 10
104.208623237085
 20
-131.1696041242032
 30
0.0
  0
SPLINE
  5
82
330
70
100
AcDbEntity
  8
Capa 1
 62
    18
420
        0
370
     9
100
AcDbSpline
210
0.0
220
0.0
230
1.0
 70
     8
 71
     3
 72
    29
 73
    25
 74
     0
 42
0.0000000001
 43
0.0000000001
 40
0.0
 40
0.0
 40
0.0
 40
0.0
 40
1.0
 40
1.0
 40
1.0
 40
2.0
 40
2.0
 40
2.0
 40
3.0
 40
3.0
 40
3.0
 40
4.0
 40
4.0
 40
4.0
 40
5.0
 40
5.0
 40
5.0
 40
6.0
 40
6.0
 40
6.0
 40
7.0
 40
7.0
 40
7.0
 40
8.0
 40
8.0
 40
8.0
 40
8.0
 10
68.00875237193624
 20
-122.6270039984652
 30
0.0
 10
67.96598449355811
 20
-122.6266398442754
 30
0.0
 10
67.92163863879848
 20
-122.623309445428
 30
0.0
 10
67.87673724410094
 20
-122.6164775333146
 30
0.0
 10
67.83183584940339
 20
-122.6096456212016
 30
0.0
 10
67.78638789573709
 20
-122.599301266417
 30
0.0
 10
67.74174644396187
 20
-122.5852158334603
 30
0.0
 10
67.69710499218376
 20
-122.5711304005032
 30
0.0
 10
67.65328762702162
 20
-122.5532977696656
 30
0.0
 10
67.61177628284904
 20
-122.5319289490261
 30
0.0
 10
67.57026493867485
 20
-122.5105601283846
 30
0.0
 10
67.53108047873154
 20
-122.4856580885916
 30
0.0
 10
67.49553783140441
 20
-122.4578997161557
 30
0.0
 10
67.45999518407919
 20
-122.4301413437198
 30
0.0
 10
67.42810987019424
 20
-122.3995387602149
 30
0.0
 10
67.40074859540721
 20
-122.3671189086138
 30
0.0
 10
67.37338732062082
 20
-122.3346990570092
 30
0.0
 10
67.35055388864541
 20
-122.300478231245
 30
0.0
 10
67.33251848050937
 20
-122.2656138039244
 30
0.0
 10
67.314483072373
 20
-122.2307493766027
 30
0.0
 10
67.30123785222327
 20
-122.1952550811795
 30
0.0
 10
67.29249006834546
 20
-122.160187641619
 30
0.0
 10
67.28374228446927
 20
-122.12512020206
 30
0.0
 10
67.27947794252874
 20
-122.090486632388
 30
0.0
 10
67.27901166865051
 20
-122.057085442953
 30
0.0
  0
SPLINE
  5
83
330
70
100
AcDbEntity
  8
Capa 1
 62
    18
420
        0
370
     9
100
AcDbSpline
210
0.0
220
0.0
230
1.0
 70
     8
 71
     3
 72
    29
 73
    25
 74
     0
 42
0.0000000001
 43
0.0000000001
 40
0.0
 40
0.0
 40
0.0
 40
0.0
 40
1.0
 40
1.0
 40
1.0
 40
2.0
 40
2.0
 40
2.0
 40
3.0
 40
3.0
 40
3.0
 40
4.0
 40
4.0
 40
4.0
 40
5.0
 40
5.0
 40
5.0
 40
6.0
 40
6.0
 40
6.0
 40
7.0
 40
7.0
 40
7.0
 40
8.0
 40
8.0
 40
8.0
 40
8.0
 10
141.1382348038691
 20
-122.0570854426517
 30
0.0
 10
141.1377685299944
 20
-122.0904866320957
 30
0.0
 10
141.1335041880536
 20
-122.1251202017773
 30
0.0
 10
141.1247564041761
 20
-122.1601876413491
 30
0.0
 10
141.1160086202974
 20
-122.1952550809228
 30
0.0
 10
141.1027634001482
 20
-122.2307493763573
 30
0.0
 10
141.0847279920154
 20
-122.2656138036892
 30
0.0
 10
141.0666925838775
 20
-122.3004782310233
 30
0.0
 10
141.0438591519027
 20
-122.3346990567965
 30
0.0
 10
141.0164978771163
 20
-122.3671189084104
 30
0.0
 10
140.9891366023293
 20
-122.3995387600224
 30
0.0
 10
140.9572512884453
 20
-122.4301413435385
 30
0.0
 10
140.9217086411191
 20
-122.4578997159856
 30
0.0
 10
140.8861659937917
 20
-122.4856580884286
 30
0.0
 10
140.8469815338461
 20
-122.5105601282312
 30
0.0
 10
140.8054701896716
 20
-122.5319289488782
 30
0.0
 10
140.7639588455015
 20
-122.5532977695267
 30
0.0
 10
140.7201414803387
 20
-122.5711304003684
 30
0.0
 10
140.6755000285623
 20
-122.585215833329
 30
0.0
 10
140.6308585767858
 20
-122.5993012662916
 30
0.0
 10
140.5854106231195
 20
-122.6096456210797
 30
0.0
 10
140.5405092284219
 20
-122.616477533195
 30
0.0
 10
140.4956078337244
 20
-122.6233094453099
 30
0.0
 10
140.4512619789632
 20
-122.626639844157
 30
0.0
 10
140.4084941005866
 20
-122.6270039983468
 30
0.0
  0
LINE
  5
84
330
70
100
AcDbEntity
  8
Capa 1
 62
    18
420
        0
370
     9
100
AcDbLine
 10
140.4084940721658
 20
-122.6270039984357
 30
0.0
 11
68.00875240036191
 21
-122.6270039984357
 31
0.0
  0
SPLINE
  5
85
330
70
100
AcDbEntity
  8
Capa 1
 62
    18
420
        0
370
     9
100
AcDbSpline
210
0.0
220
0.0
230
1.0
 70
     8
 71
     3
 72
    68
 73
    64
 74
     0
 42
0.0000000001
 43
0.0000000001
 40
0.0
 40
0.0
 40
0.0
 40
0.0
 40
1.0
 40
1.0
 40
1.0
 40
2.0
 40
2.0
 40
2.0
 40
3.0
 40
3.0
 40
3.0
 40
4.0
 40
4.0
 40
4.0
 40
5.0
 40
5.0
 40
5.0
 40
6.0
 40
6.0
 40
6.0
 40
7.0
 40
7.0
 40
7.0
 40
8.0
 40
8.0
 40
8.0
 40
9.0
 40
9.0
 40
9.0
 40
10.0
 40
10.0
 40
10.0
 40
11.0
 40
11.0
 40
11.0
 40
12.0
 40
12.0
 40
12.0
 40
13.0
 40
13.0
 40
13.0
 40
14.0
 40
14.0
 40
14.0
 40
15.0
 40
15.0
 40
15.0
 40
16.0
 40
16.0
 40
16.0
 40
17.0
 40
17.0
 40
17.0
 40
18.0
 40
18.0
 40
18.0
 40
19.0
 40
19.0
 40
19.0
 40
20.0
 40
20.0
 40
20.0
 40
21.0
 40
21.0
 40
21.0
 40
21.0
 10
67.25987265754032
 20
-121.5779115451184
 30
0.0
 10
67.25996413969707
 20
-121.5725334807164
 30
0.0
 10
67.26005562185157
 20
-121.5671554163166
 30
0.0
 10
67.26034801898869
 20
-121.5617866991987
 30
0.0
 10
67.26063823454449
 20
-121.5564580382066
 30
0.0
 10
67.26112637820361
 20
-121.5511385855344
 30
0.0
 10
67.26175834540192
 20
-121.5458374413604
 30
0.0
 10
67.26238556283026
 20
-121.5405761398015
 30
0.0
 10
67.26315445000939
 20
-121.5353328725645
 30
0.0
 10
67.26407783027946
 20
-121.5301164785696
 30
0.0
 10
67.26499421920545
 20
-121.5249395803507
 30
0.0
 10
67.26606277059777
 20
-121.5197891499705
 30
0.0
 10
67.26727797584846
 20
-121.5146737392015
 30
0.0
 10
67.26848391163652
 20
-121.50959734826
 30
0.0
 10
67.26983427249535
 20
-121.5045554447153
 30
0.0
 10
67.27132784499291
 20
-121.4995562739544
 30
0.0
 10
67.27280993916465
 20
-121.4945955225604
 30
0.0
 10
67.27443305222729
 20
-121.4896768496585
 30
0.0
 10
67.27619431205171
 20
-121.484808176662
 30
0.0
 10
67.27794193402004
 20
-121.4799772029695
 30
0.0
 10
67.27982557162528
 20
-121.4751954578582
 30
0.0
 10
67.2818423111043
 20
-121.4704705242328
 30
0.0
 10
67.28384331559221
 20
-121.4657824554529
 30
0.0
 10
67.28597535308409
 20
-121.4611503151098
 30
0.0
 10
67.28823508053236
 20
-121.456581334911
 30
0.0
 10
67.29047704194788
 20
-121.4520482761466
 30
0.0
 10
67.29284469340985
 20
-121.4475773882996
 30
0.0
 10
67.29533440275476
 20
-121.4431755439254
 30
0.0
 10
67.29780438674445
 20
-121.438808574281
 30
0.0
 10
67.3003945022093
 20
-121.4345095584152
 30
0.0
 10
67.3031008380742
 20
-121.4302849956484
 30
0.0
 10
67.30578556546703
 20
-121.4260941634845
 30
0.0
 10
67.30858466476914
 20
-121.4219766002353
 30
0.0
 10
67.31149395176784
 20
-121.4179384512621
 30
0.0
 10
67.31437982777213
 20
-121.4139327972199
 30
0.0
 10
67.31737412525221
 20
-121.4100052845011
 30
0.0
 10
67.32047253356944
 20
-121.4061616109481
 30
0.0
 10
67.32354581215114
 20
-121.4023491116285
 30
0.0
 10
67.32672151963317
 20
-121.3986190970272
 30
0.0
 10
67.32999480885489
 20
-121.3949771495647
 30
0.0
 10
67.33324133875854
 20
-121.3913649752244
 30
0.0
 10
67.33658386145046
 20
-121.387839433998
 30
0.0
 10
67.34001864090527
 20
-121.3844047648233
 30
0.0
 10
67.34691404547352
 20
-121.3775095816431
 30
0.0
 10
67.35418125911948
 20
-121.3709806269492
 30
0.0
 10
67.36177548706312
 20
-121.3648586574307
 30
0.0
 10
67.36949432713808
 20
-121.3586362337675
 30
0.0
 10
67.37755100137855
 20
-121.3528342611323
 30
0.0
 10
67.38589887178943
 20
-121.3474869618959
 30
0.0
 10
67.3943815615479
 20
-121.3420533029778
 30
0.0
 10
67.40316492914896
 20
-121.3370891221362
 30
0.0
 10
67.41219521106486
 20
-121.3326212043304
 30
0.0
 10
67.42136906801817
 20
-121.3280822498216
 30
0.0
 10
67.43079775322425
 20
-121.324055464252
 30
0.0
 10
67.44042205281044
 20
-121.3205804358385
 30
0.0
 10
67.45019702919556
 20
-121.3170510028277
 30
0.0
 10
67.4601737929336
 20
-121.3140907386869
 30
0.0
 10
67.47028761532587
 20
-121.3116640996279
 30
0.0
 10
67.48055738868159
 20
-121.3092000428004
 30
0.0
 10
67.49096848005297
 20
-121.3072861944854
 30
0.0
 10
67.5014513174386
 20
-121.3061444691739
 30
0.0
 10
67.51209339051223
 20
-121.3049854009029
 30
0.0
 10
67.52280940582052
 20
-121.3046220910975
 30
0.0
 10
67.53352542112593
 20
-121.3042587812905
 30
0.0
  0
SPLINE
  5
86
330
70
100
AcDbEntity
  8
Capa 1
 62
    18
420
        0
370
     9
100
AcDbSpline
210
0.0
220
0.0
230
1.0
 70
     8
 71
     3
 72
    68
 73
    64
 74
     0
 42
0.0000000001
 43
0.0000000001
 40
0.0
 40
0.0
 40
0.0
 40
0.0
 40
1.0
 40
1.0
 40
1.0
 40
2.0
 40
2.0
 40
2.0
 40
3.0
 40
3.0
 40
3.0
 40
4.0
 40
4.0
 40
4.0
 40
5.0
 40
5.0
 40
5.0
 40
6.0
 40
6.0
 40
6.0
 40
7.0
 40
7.0
 40
7.0
 40
8.0
 40
8.0
 40
8.0
 40
9.0
 40
9.0
 40
9.0
 40
10.0
 40
10.0
 40
10.0
 40
11.0
 40
11.0
 40
11.0
 40
12.0
 40
12.0
 40
12.0
 40
13.0
 40
13.0
 40
13.0
 40
14.0
 40
14.0
 40
14.0
 40
15.0
 40
15.0
 40
15.0
 40
16.0
 40
16.0
 40
16.0
 40
17.0
 40
17.0
 40
17.0
 40
18.0
 40
18.0
 40
18.0
 40
19.0
 40
19.0
 40
19.0
 40
20.0
 40
20.0
 40
20.0
 40
21.0
 40
21.0
 40
21.0
 40
21.0
 10
140.883721051173
 20
-121.304258781296
 30
0.0
 10
140.889099115575
 20
-121.3043502634524
 30
0.0
 10
140.8944771799751
 20
-121.3044417456069
 30
0.0
 10
140.8998458970943
 20
-121.304734142746
 30
0.0
 10
140.9051745580889
 20
-121.3050243582998
 30
0.0
 10
140.9104940107601
 20
-121.3055125019593
 30
0.0
 10
140.9157951549364
 20
-121.3061444691592
 30
0.0
 10
140.9210564564953
 20
-121.3067716865878
 30
0.0
 10
140.9262997237343
 20
-121.3075405737666
 30
0.0
 10
140.9315161177346
 20
-121.3084639540406
 30
0.0
 10
140.9366930159548
 20
-121.3093803429649
 30
0.0
 10
140.9418434463394
 20
-121.3104488943589
 30
0.0
 10
140.9469588571104
 20
-121.3116640996096
 30
0.0
 10
140.9520352480551
 20
-121.3128700354028
 30
0.0
 10
140.9570771516049
 20
-121.3142203962622
 30
0.0
 10
140.9620763223681
 20
-121.3157139687614
 30
0.0
 10
140.9670370737691
 20
-121.317196062937
 30
0.0
 10
140.9719557466752
 20
-121.3188191760012
 30
0.0
 10
140.9768244196755
 20
-121.3205804358295
 30
0.0
 10
140.9816553933719
 20
-121.3223280578013
 30
0.0
 10
140.9864371384887
 20
-121.3242116954085
 30
0.0
 10
140.9911620721157
 20
-121.3262284348914
 30
0.0
 10
140.9958501409029
 20
-121.3282294393851
 30
0.0
 10
141.0004822812515
 20
-121.3303614768802
 30
0.0
 10
141.0050512614583
 20
-121.332621204332
 30
0.0
 10
141.0095843202282
 20
-121.3348631657533
 30
0.0
 10
141.0140552080803
 20
-121.3372308172188
 30
0.0
 10
141.0184570524642
 20
-121.339720526571
 30
0.0
 10
141.0228240221121
 20
-121.3421905105668
 30
0.0
 10
141.0271230379852
 20
-121.3447806260368
 30
0.0
 10
141.0313476007575
 20
-121.3474869619107
 30
0.0
 10
141.0355384329265
 20
-121.350171689309
 30
0.0
 10
141.0396559961815
 20
-121.3529707886227
 30
0.0
 10
141.0436941451621
 20
-121.3558800756287
 30
0.0
 10
141.0476997992104
 20
-121.3587659516439
 30
0.0
 10
141.0516273119356
 20
-121.3617602491317
 30
0.0
 10
141.0554709854947
 20
-121.3648586574586
 30
0.0
 10
141.0592834848217
 20
-121.3679319360528
 30
0.0
 10
141.0630134994303
 20
-121.3711076435438
 30
0.0
 10
141.066655446897
 20
-121.3743809327767
 30
0.0
 10
141.0702676212441
 20
-121.3776274626913
 30
0.0
 10
141.073793162474
 20
-121.3809699853964
 30
0.0
 10
141.0772278316551
 20
-121.3844047648602
 30
0.0
 10
141.0841230148144
 20
-121.3913001694194
 30
0.0
 10
141.090651969484
 20
-121.3985673830558
 30
0.0
 10
141.0967739389849
 20
-121.4061616109872
 30
0.0
 10
141.1029963626304
 20
-121.4138804510545
 30
0.0
 10
141.1087983352518
 20
-121.4219371252892
 30
0.0
 10
141.1141456344785
 20
-121.4302849956908
 30
0.0
 10
141.1195792933835
 20
-121.4387676854437
 30
0.0
 10
141.1245434742161
 20
-121.4475510530445
 30
0.0
 10
141.1290113920123
 20
-121.4565813349572
 30
0.0
 10
141.133550346514
 20
-121.4657551919102
 30
0.0
 10
141.1375771320782
 20
-121.4751838771201
 30
0.0
 10
141.1410521604878
 20
-121.4848081767063
 30
0.0
 10
141.1445815934986
 20
-121.4945831531007
 30
0.0
 10
141.1475418576356
 20
-121.5045599168478
 30
0.0
 10
141.1499684966869
 20
-121.5146737392496
 30
0.0
 10
141.1524325535153
 20
-121.5249435126217
 30
0.0
 10
141.1543464018246
 20
-121.5353546040079
 30
0.0
 10
141.1554881271283
 20
-121.5458374414082
 30
0.0
 10
141.156647195392
 20
-121.5564795145079
 30
0.0
 10
141.1570105051887
 20
-121.5671955298361
 30
0.0
 10
141.1573738149822
 20
-121.5779115451662
 30
0.0
  0
LINE
  5
87
330
70
100
AcDbEntity
  8
Capa 1
 62
    18
420
        0
370
     9
100
AcDbLine
 10
141.1460043178696
 20
-162.5296307311239
 30
0.0
 11
141.1573738149347
 21
-162.5410002066253
 31
0.0
  0
LINE
  5
88
330
70
100
AcDbEntity
  8
Capa 1
 62
    18
420
        0
370
     9
100
AcDbLine
 10
141.1573738149347
 20
-162.5410002066253
 30
0.0
 11
141.1573738149347
 21
-121.5779115552129
 31
0.0
  0
LINE
  5
89
330
70
100
AcDbEntity
  8
Capa 1
 62
    18
420
        0
370
     9
100
AcDbLine
 10
67.25987265759425
 20
-121.5779115552129
 30
0.0
 11
67.25987265759425
 21
-162.5410002066253
 31
0.0
  0
LINE
  5
8A
330
70
100
AcDbEntity
  8
Capa 1
 62
    18
420
        0
370
     9
100
AcDbLine
 10
67.25987265759425
 20
-162.5410002066253
 30
0.0
 11
67.27124215465735
 21
-162.5296307311239
 31
0.0
  0
LINE
  5
8B
330
70
100
AcDbEntity
  8
Capa 1
 62
    18
420
        0
370
     9
100
AcDbLine
 10
140.8837210330495
 20
-121.3042587813441
 30
0.0
 11
67.5335254394798
 21
-121.3042587813441
 31
0.0
  0
SPLINE
  5
8C
330
70
100
AcDbEntity
  8
Capa 1
 62
    18
420
        0
370
     9
100
AcDbSpline
210
0.0
220
0.0
230
1.0
 70
     8
 71
     3
 72
    11
 73
     7
 74
     0
 42
0.0000000001
 43
0.0000000001
 40
0.0
 40
0.0
 40
0.0
 40
0.0
 40
1.0
 40
1.0
 40
1.0
 40
2.0
 40
2.0
 40
2.0
 40
2.0
 10
140.4084941005905
 20
-122.6270039984691
 30
0.0
 10
140.4109083361512
 20
-122.6695613725063
 30
0.0
 10
140.4128811303907
 20
-122.7242007169833
 30
0.0
 10
140.4142204071015
 20
-122.7856008443522
 30
0.0
 10
140.4155596838097
 20
-122.8470009717189
 30
0.0
 10
140.4162636145281
 20
-122.9150780695311
 30
0.0
 10
140.4162636145281
 20
-122.9832030956678
 30
0.0
  0
SPLINE
  5
8D
330
70
100
AcDbEntity
  8
Capa 1
 62
    18
420
        0
370
     9
100
AcDbSpline
210
0.0
220
0.0
230
1.0
 70
     8
 71
     3
 72
    11
 73
     7
 74
     0
 42
0.0000000001
 43
0.0000000001
 40
0.0
 40
0.0
 40
0.0
 40
0.0
 40
1.0
 40
1.0
 40
1.0
 40
2.0
 40
2.0
 40
2.0
 40
2.0
 10
68.00098285800053
 20
-122.9832030956678
 30
0.0
 10
68.00098285800053
 20
-122.9150780695311
 30
0.0
 10
68.00168678871824
 20
-122.8470009717189
 30
0.0
 10
68.00302606542743
 20
-122.7856008443522
 30
0.0
 10
68.00436534213628
 20
-122.7242007169833
 30
0.0
 10
68.0063381363755
 20
-122.6695613725063
 30
0.0
 10
68.00875237193624
 20
-122.6270039984691
 30
0.0
  0
SPLINE
  5
8E
330
70
100
AcDbEntity
  8
Capa 1
 62
    18
420
        0
370
     9
100
AcDbSpline
210
0.0
220
0.0
230
1.0
 70
     8
 71
     3
 72
   110
 73
   106
 74
     0
 42
0.0000000001
 43
0.0000000001
 40
0.0
 40
0.0
 40
0.0
 40
0.0
 40
1.0
 40
1.0
 40
1.0
 40
2.0
 40
2.0
 40
2.0
 40
3.0
 40
3.0
 40
3.0
 40
4.0
 40
4.0
 40
4.0
 40
5.0
 40
5.0
 40
5.0
 40
6.0
 40
6.0
 40
6.0
 40
7.0
 40
7.0
 40
7.0
 40
8.0
 40
8.0
 40
8.0
 40
9.0
 40
9.0
 40
9.0
 40
10.0
 40
10.0
 40
10.0
 40
11.0
 40
11.0
 40
11.0
 40
12.0
 40
12.0
 40
12.0
 40
13.0
 40
13.0
 40
13.0
 40
14.0
 40
14.0
 40
14.0
 40
15.0
 40
15.0
 40
15.0
 40
16.0
 40
16.0
 40
16.0
 40
17.0
 40
17.0
 40
17.0
 40
18.0
 40
18.0
 40
18.0
 40
19.0
 40
19.0
 40
19.0
 40
20.0
 40
20.0
 40
20.0
 40
21.0
 40
21.0
 40
21.0
 40
22.0
 40
22.0
 40
22.0
 40
23.0
 40
23.0
 40
23.0
 40
24.0
 40
24.0
 40
24.0
 40
25.0
 40
25.0
 40
25.0
 40
26.0
 40
26.0
 40
26.0
 40
27.0
 40
27.0
 40
27.0
 40
28.0
 40
28.0
 40
28.0
 40
29.0
 40
29.0
 40
29.0
 40
30.0
 40
30.0
 40
30.0
 40
31.0
 40
31.0
 40
31.0
 40
32.0
 40
32.0
 40
32.0
 40
33.0
 40
33.0
 40
33.0
 40
34.0
 40
34.0
 40
34.0
 40
35.0
 40
35.0
 40
35.0
 40
35.0
 10
104.2086232362649
 20
-156.6903859745497
 30
0.0
 10
102.7642922092588
 20
-156.6903859650609
 30
0.0
 10
101.3197966097776
 20
-156.6842562370426
 30
0.0
 10
99.87487542619922
 20
-156.6754084999936
 30
0.0
 10
98.42995424261722
 20
-156.6665607629472
 30
0.0
 10
96.98464572441729
 20
-156.6553394226506
 30
0.0
 10
95.53914018174976
 20
-156.6447863192134
 30
0.0
 10
94.09363463908196
 20
-156.634233215775
 30
0.0
 10
92.64795182146208
 20
-156.6242807588891
 30
0.0
 10
91.20224112427676
 20
-156.6157397225653
 30
0.0
 10
90.47938577568604
 20
-156.6114692044001
 30
0.0
 10
89.75652170417642
 20
-156.6075244639173
 30
0.0
 10
89.03365894562027
 20
-156.6038960964599
 30
0.0
 10
88.94330110080177
 20
-156.6034425505271
 30
0.0
 10
88.85294327649649
 20
-156.6029939479242
 30
0.0
 10
88.76258547679363
 20
-156.6025501650246
 30
0.0
 10
88.71740657694203
 20
-156.6023282735738
 30
0.0
 10
88.67222768324273
 20
-156.6021075870497
 30
0.0
 10
88.62704879834209
 20
-156.6018881047547
 30
0.0
 10
88.60445935589208
 20
-156.6017783636091
 30
0.0
 10
88.58186820374472
 20
-156.6016613647434
 30
0.0
 10
88.55901015431591
 20
-156.6015701434774
 30
0.0
 10
88.53615210488484
 20
-156.6014789222114
 30
0.0
 10
88.51337119543327
 20
-156.6014084527346
 30
0.0
 10
88.49066691327314
 20
-156.6013462022994
 30
0.0
 10
88.3090326559995
 20
-156.6008481988296
 30
0.0
 10
88.13243859060769
 20
-156.6006858662715
 30
0.0
 10
87.95953748326203
 20
-156.5956091024714
 30
0.0
 10
87.9163122064266
 20
-156.5943399115195
 30
0.0
 10
87.87331114430783
 20
-156.5927757359764
 30
0.0
 10
87.83050367174785
 20
-156.5908592534867
 30
0.0
 10
87.80909993546917
 20
-156.5899010122425
 30
0.0
 10
87.78774457094243
 20
-156.5888548476907
 30
0.0
 10
87.76643365266014
 20
-156.5877144851722
 30
0.0
 10
87.74512273438007
 20
-156.5865741226544
 30
0.0
 10
87.72359984896349
 20
-156.5853339001128
 30
0.0
 10
87.70210376306646
 20
-156.5840173312027
 30
0.0
 10
87.61611941948601
 20
-156.5787510555655
 30
0.0
 10
87.53017761093891
 20
-156.5721780938002
 30
0.0
 10
87.44427146569023
 20
-156.5642826890548
 30
0.0
 10
87.27245917519672
 20
-156.548491879564
 30
0.0
 10
87.10042894226932
 20
-156.5273292626019
 30
0.0
 10
86.93044785174215
 20
-156.5011149740137
 30
0.0
 10
86.5904856706904
 20
-156.4486863968425
 30
0.0
 10
86.25703037818636
 20
-156.3759991497289
 30
0.0
 10
85.9293359544338
 20
-156.2843845739263
 30
0.0
 10
85.60164153068379
 20
-156.1927699981204
 30
0.0
 10
85.2802175578172
 20
-156.082287021282
 30
0.0
 10
84.96461309376106
 20
-155.9532359411388
 30
0.0
 10
84.64900862970621
 20
-155.8241848609981
 30
0.0
 10
84.33928327950996
 20
-155.6765755162119
 30
0.0
 10
84.03524596925343
 20
-155.5104296575194
 30
0.0
 10
83.95923664168753
 20
-155.4688931928457
 30
0.0
 10
83.88366548950918
 20
-155.4262408464987
 30
0.0
 10
83.80896201056762
 20
-155.3827262400545
 30
0.0
 10
83.73425853162572
 20
-155.3392116336103
 30
0.0
 10
83.66027816253966
 20
-155.2947582619851
 30
0.0
 10
83.58700468758371
 20
-155.2493890624819
 30
0.0
 10
83.44045773767341
 20
-155.1586506634769
 30
0.0
 10
83.2967367263101
 20
-155.0642516967388
 30
0.0
 10
83.15573438882553
 20
-154.9663372987385
 30
0.0
 10
82.8737297138548
 20
-154.7705085027411
 30
0.0
 10
82.6025818569006
 20
-154.5606458223089
 30
0.0
 10
82.34170328830886
 20
-154.3374680653671
 30
0.0
 10
82.08082471971682
 20
-154.1142903084285
 30
0.0
 10
81.83020368116377
 20
-153.8778274845269
 30
0.0
 10
81.58965932192218
 20
-153.6283261920013
 30
0.0
 10
81.52952323211394
 20
-153.5659508688699
 30
0.0
 10
81.47000822863148
 20
-153.502752057436
 30
0.0
 10
81.41111224304586
 20
-153.4387371511371
 30
0.0
 10
81.35221625746053
 20
-153.3747222448357
 30
0.0
 10
81.29391347651312
 20
-153.3098571913745
 30
0.0
 10
81.23654634838606
 20
-153.2445510765063
 30
0.0
 10
81.12181209213547
 20
-153.113938846769
 30
0.0
 10
81.01048936746582
 20
-152.9812154208188
 30
0.0
 10
80.90242421607205
 20
-152.8464904046868
 30
0.0
 10
80.68629391328617
 20
-152.5770403724292
 30
0.0
 10
80.48316666082779
 20
-152.2996039947708
 30
0.0
 10
80.29223601162236
 20
-152.0147416620109
 30
0.0
 10
79.91037471321085
 20
-151.4450169964915
 30
0.0
 10
79.57751671564283
 20
-150.8456688824467
 30
0.0
 10
79.28963879971785
 20
-150.2181278393482
 30
0.0
 10
79.14569984175439
 20
-149.9043573177992
 30
0.0
 10
79.01305483227409
 20
-149.583637375132
 30
0.0
 10
78.89178324758316
 20
-149.2560700401142
 30
0.0
 10
78.86146535141001
 20
-149.1741782063586
 30
0.0
 10
78.83183166475055
 20
-149.0917716441513
 30
0.0
 10
78.80303154065652
 20
-149.0092722050913
 30
0.0
 10
78.77423141656058
 20
-148.9267727660306
 30
0.0
 10
78.74624408968478
 20
-148.8441294220806
 30
0.0
 10
78.71906029342721
 20
-148.761345241929
 30
0.0
 10
78.66469270091558
 20
-148.5957768816256
 30
0.0
 10
78.61353766107116
 20
-148.4296455669058
 30
0.0
 10
78.56554143228539
 20
-148.2629707513008
 30
0.0
 10
78.46954897471317
 20
-147.9296211200895
 30
0.0
 10
78.38629184897204
 20
-147.5941122277072
 30
0.0
 10
78.31501943757814
 20
-147.2561732662664
 30
0.0
 10
78.24374702618491
 20
-146.9182343048251
 30
0.0
 10
78.18443684668685
 20
-146.5780140846443
 30
0.0
 10
78.13678156572056
 20
-146.2357151046765
 30
0.0
 10
78.08912628475268
 20
-145.893416124708
 30
0.0
 10
78.05312816640787
 20
-145.549037127049
 30
0.0
 10
78.02893139009462
 20
-145.2026866225649
 30
0.0
 10
78.00473461378074
 20
-144.8563361180822
 30
0.0
 10
77.99233639793874
 20
-144.5080113201051
 30
0.0
 10
77.99233640806635
 20
-144.1577452503759
 30
0.0
  0
SPLINE
  5
8F
330
70
100
AcDbEntity
  8
Capa 1
 62
    18
420
        0
370
     9
100
AcDbSpline
210
0.0
220
0.0
230
1.0
 70
     8
 71
     3
 72
   110
 73
   106
 74
     0
 42
0.0000000001
 43
0.0000000001
 40
0.0
 40
0.0
 40
0.0
 40
0.0
 40
1.0
 40
1.0
 40
1.0
 40
2.0
 40
2.0
 40
2.0
 40
3.0
 40
3.0
 40
3.0
 40
4.0
 40
4.0
 40
4.0
 40
5.0
 40
5.0
 40
5.0
 40
6.0
 40
6.0
 40
6.0
 40
7.0
 40
7.0
 40
7.0
 40
8.0
 40
8.0
 40
8.0
 40
9.0
 40
9.0
 40
9.0
 40
10.0
 40
10.0
 40
10.0
 40
11.0
 40
11.0
 40
11.0
 40
12.0
 40
12.0
 40
12.0
 40
13.0
 40
13.0
 40
13.0
 40
14.0
 40
14.0
 40
14.0
 40
15.0
 40
15.0
 40
15.0
 40
16.0
 40
16.0
 40
16.0
 40
17.0
 40
17.0
 40
17.0
 40
18.0
 40
18.0
 40
18.0
 40
19.0
 40
19.0
 40
19.0
 40
20.0
 40
20.0
 40
20.0
 40
21.0
 40
21.0
 40
21.0
 40
22.0
 40
22.0
 40
22.0
 40
23.0
 40
23.0
 40
23.0
 40
24.0
 40
24.0
 40
24.0
 40
25.0
 40
25.0
 40
25.0
 40
26.0
 40
26.0
 40
26.0
 40
27.0
 40
27.0
 40
27.0
 40
28.0
 40
28.0
 40
28.0
 40
29.0
 40
29.0
 40
29.0
 40
30.0
 40
30.0
 40
30.0
 40
31.0
 40
31.0
 40
31.0
 40
32.0
 40
32.0
 40
32.0
 40
33.0
 40
33.0
 40
33.0
 40
34.0
 40
34.0
 40
34.0
 40
35.0
 40
35.0
 40
35.0
 40
35.0
 10
130.4249100644623
 20
-144.1577452503759
 30
0.0
 10
130.4249100745883
 20
-144.5080113201051
 30
0.0
 10
130.4125118587476
 20
-144.8563361179898
 30
0.0
 10
130.3883150824343
 20
-145.2026866225175
 30
0.0
 10
130.3641183061204
 20
-145.549037127049
 30
0.0
 10
130.328120187774
 20
-145.8934161246156
 30
0.0
 10
130.2804649068077
 20
-146.2357151046303
 30
0.0
 10
130.2328096258414
 20
-146.5780140846443
 30
0.0
 10
130.173499446346
 20
-146.9182343048251
 30
0.0
 10
130.1022270349502
 20
-147.2561732662036
 30
0.0
 10
130.0309546235544
 20
-147.5941122275853
 30
0.0
 10
129.9476974978139
 20
-147.9296211200895
 30
0.0
 10
129.8517050402436
 20
-148.2629707513008
 30
0.0
 10
129.8037088114549
 20
-148.4296455669058
 30
0.0
 10
129.7525537716108
 20
-148.5957768816256
 30
0.0
 10
129.6981861791014
 20
-148.761345241929
 30
0.0
 10
129.6710023828435
 20
-148.8441294220806
 30
0.0
 10
129.6430150559658
 20
-148.9267727660306
 30
0.0
 10
129.6142149318727
 20
-149.0092722050913
 30
0.0
 10
129.5854148077778
 20
-149.0917716441513
 30
0.0
 10
129.5557811211186
 20
-149.1741782063676
 30
0.0
 10
129.5254632249455
 20
-149.256070040102
 30
0.0
 10
129.404191640253
 20
-149.5836373750396
 30
0.0
 10
129.2715466307717
 20
-149.9043573177992
 30
0.0
 10
129.1276076728105
 20
-150.2181278393482
 30
0.0
 10
128.8397297568861
 20
-150.8456688824467
 30
0.0
 10
128.5068717593197
 20
-151.4450169964915
 30
0.0
 10
128.1250104609069
 20
-152.0147416620109
 30
0.0
 10
127.9340798117005
 20
-152.2996039947708
 30
0.0
 10
127.7309525592421
 20
-152.5770403724292
 30
0.0
 10
127.5148222564546
 20
-152.8464904046868
 30
0.0
 10
127.4067571050609
 20
-152.9812154208188
 30
0.0
 10
127.2954343803932
 20
-153.113938846769
 30
0.0
 10
127.1807001241423
 20
-153.2445510765781
 30
0.0
 10
127.1233329960133
 20
-153.3098571914855
 30
0.0
 10
127.0650302150681
 20
-153.3747222448357
 30
0.0
 10
127.0061342294825
 20
-153.4387371511371
 30
0.0
 10
126.9472382438968
 20
-153.502752057436
 30
0.0
 10
126.8877232404163
 20
-153.5659508688699
 30
0.0
 10
126.8275871506049
 20
-153.6283261920013
 30
0.0
 10
126.5870427913662
 20
-153.8778274845269
 30
0.0
 10
126.3364217528109
 20
-154.1142903084285
 30
0.0
 10
126.0755431842185
 20
-154.3374680653671
 30
0.0
 10
125.8146646156261
 20
-154.5606458223089
 30
0.0
 10
125.5435167586742
 20
-154.7705085027411
 30
0.0
 10
125.2615120837037
 20
-154.9663372987385
 30
0.0
 10
125.1205097462185
 20
-155.0642516967388
 30
0.0
 10
124.9767887348549
 20
-155.1586506634769
 30
0.0
 10
124.830241784943
 20
-155.2493890624819
 30
0.0
 10
124.7569683099867
 20
-155.2947582619851
 30
0.0
 10
124.6829879409029
 20
-155.3392116336103
 30
0.0
 10
124.6082844619613
 20
-155.3827262400545
 30
0.0
 10
124.5335809830191
 20
-155.4262408464987
 30
0.0
 10
124.4580098308388
 20
-155.4688931928457
 30
0.0
 10
124.3820005032749
 20
-155.5104296575194
 30
0.0
 10
124.077963193019
 20
-155.6765755162119
 30
0.0
 10
123.7682378429123
 20
-155.8241848610905
 30
0.0
 10
123.4526333787968
 20
-155.9532359411683
 30
0.0
 10
123.1370289146774
 20
-156.08228702125
 30
0.0
 10
122.8156049418471
 20
-156.1927699981204
 30
0.0
 10
122.4879105180926
 20
-156.2843845739263
 30
0.0
 10
122.1602160943426
 20
-156.3759991497289
 30
0.0
 10
121.8267608018389
 20
-156.4486863968425
 30
0.0
 10
121.4867986207839
 20
-156.5011149740137
 30
0.0
 10
121.316817530259
 20
-156.5273292626019
 30
0.0
 10
121.14478729733
 20
-156.548491879564
 30
0.0
 10
120.9729750068378
 20
-156.5642826890548
 30
0.0
 10
120.8870688615904
 20
-156.5721780938002
 30
0.0
 10
120.8011270530449
 20
-156.5787510555655
 30
0.0
 10
120.7151427094619
 20
-156.5840173312027
 30
0.0
 10
120.6936466235655
 20
-156.5853339001128
 30
0.0
 10
120.6721237381463
 20
-156.5865741226544
 30
0.0
 10
120.6508128198666
 20
-156.5877144851722
 30
0.0
 10
120.6295019015849
 20
-156.5888548476907
 30
0.0
 10
120.6081465370576
 20
-156.5899010122425
 30
0.0
 10
120.5867428007804
 20
-156.5908592534867
 30
0.0
 10
120.5439353282192
 20
-156.5927757359764
 30
0.0
 10
120.500934266104
 20
-156.5943399115195
 30
0.0
 10
120.4577089892967
 20
-156.5956091024381
 30
0.0
 10
120.2848078820743
 20
-156.600685866122
 30
0.0
 10
120.1082138165269
 20
-156.6008481988296
 30
0.0
 10
119.9265795592555
 20
-156.6013462022994
 30
0.0
 10
119.903875277095
 20
-156.6014084527346
 30
0.0
 10
119.8810943676418
 20
-156.6014789222114
 30
0.0
 10
119.858236318215
 20
-156.6015701434774
 30
0.0
 10
119.8353782687823
 20
-156.6016613647434
 30
0.0
 10
119.8127871166391
 20
-156.6017783636091
 30
0.0
 10
119.7901976741869
 20
-156.6018881047547
 30
0.0
 10
119.7450187892875
 20
-156.6021075870497
 30
0.0
 10
119.6998398955847
 20
-156.6023282735738
 30
0.0
 10
119.654660995735
 20
-156.6025501650246
 30
0.0
 10
119.5643031960318
 20
-156.6029939479242
 30
0.0
 10
119.4739453717272
 20
-156.6034425505271
 30
0.0
 10
119.3835875269061
 20
-156.6038960964599
 30
0.0
 10
118.6607247683513
 20
-156.6075244639173
 30
0.0
 10
117.9378606968448
 20
-156.6114692044001
 30
0.0
 10
117.2150053482499
 20
-156.6157397225653
 30
0.0
 10
115.7692946510666
 20
-156.6242807588891
 30
0.0
 10
114.3236118334483
 20
-156.634233215775
 30
0.0
 10
112.8781062907814
 20
-156.6447863192134
 30
0.0
 10
111.4326007481114
 20
-156.6553394226506
 30
0.0
 10
109.9872922299089
 20
-156.6665607628105
 30
0.0
 10
108.5423710463275
 20
-156.6754084999493
 30
0.0
 10
107.0974498627494
 20
-156.6842562370888
 30
0.0
 10
105.6529542632698
 20
-156.6903859648806
 30
0.0
 10
104.2086232362624
 20
-156.6903859745497
 30
0.0
  0
SPLINE
  5
90
330
70
100
AcDbEntity
  8
Capa 1
 62
    18
420
        0
370
     9
100
AcDbSpline
210
0.0
220
0.0
230
1.0
 70
     8
 71
     3
 72
   110
 73
   106
 74
     0
 42
0.0000000001
 43
0.0000000001
 40
0.0
 40
0.0
 40
0.0
 40
0.0
 40
1.0
 40
1.0
 40
1.0
 40
2.0
 40
2.0
 40
2.0
 40
3.0
 40
3.0
 40
3.0
 40
4.0
 40
4.0
 40
4.0
 40
5.0
 40
5.0
 40
5.0
 40
6.0
 40
6.0
 40
6.0
 40
7.0
 40
7.0
 40
7.0
 40
8.0
 40
8.0
 40
8.0
 40
9.0
 40
9.0
 40
9.0
 40
10.0
 40
10.0
 40
10.0
 40
11.0
 40
11.0
 40
11.0
 40
12.0
 40
12.0
 40
12.0
 40
13.0
 40
13.0
 40
13.0
 40
14.0
 40
14.0
 40
14.0
 40
15.0
 40
15.0
 40
15.0
 40
16.0
 40
16.0
 40
16.0
 40
17.0
 40
17.0
 40
17.0
 40
18.0
 40
18.0
 40
18.0
 40
19.0
 40
19.0
 40
19.0
 40
20.0
 40
20.0
 40
20.0
 40
21.0
 40
21.0
 40
21.0
 40
22.0
 40
22.0
 40
22.0
 40
23.0
 40
23.0
 40
23.0
 40
24.0
 40
24.0
 40
24.0
 40
25.0
 40
25.0
 40
25.0
 40
26.0
 40
26.0
 40
26.0
 40
27.0
 40
27.0
 40
27.0
 40
28.0
 40
28.0
 40
28.0
 40
29.0
 40
29.0
 40
29.0
 40
30.0
 40
30.0
 40
30.0
 40
31.0
 40
31.0
 40
31.0
 40
32.0
 40
32.0
 40
32.0
 40
33.0
 40
33.0
 40
33.0
 40
34.0
 40
34.0
 40
34.0
 40
35.0
 40
35.0
 40
35.0
 40
35.0
 10
77.99233640806635
 20
-144.1577452503759
 30
0.0
 10
77.99233639793874
 20
-143.8074791806435
 30
0.0
 10
78.00473461378074
 20
-143.4591543827595
 30
0.0
 10
78.02893139009462
 20
-143.1128038782292
 30
0.0
 10
78.05312816640787
 20
-142.7664533737015
 30
0.0
 10
78.08912628475268
 20
-142.4220743761337
 30
0.0
 10
78.13678156572056
 20
-142.0797753961189
 30
0.0
 10
78.18443684668685
 20
-141.7374764161039
 30
0.0
 10
78.24374702618491
 20
-141.3972561959238
 30
0.0
 10
78.31501943757814
 20
-141.059317234485
 30
0.0
 10
78.38629184897204
 20
-140.7213782730436
 30
0.0
 10
78.46954897471317
 20
-140.3858693806597
 30
0.0
 10
78.56554143228539
 20
-140.0525197494487
 30
0.0
 10
78.61353766107116
 20
-139.8858449338431
 30
0.0
 10
78.66469270091558
 20
-139.7197136191236
 30
0.0
 10
78.71906029342721
 20
-139.5541452588222
 30
0.0
 10
78.74624408968478
 20
-139.4713610786686
 30
0.0
 10
78.77423141656058
 20
-139.388717734716
 30
0.0
 10
78.80303154065652
 20
-139.3062182956579
 30
0.0
 10
78.83183166475055
 20
-139.2237188565976
 30
0.0
 10
78.86146535141001
 20
-139.1413122943807
 30
0.0
 10
78.89178324758316
 20
-139.0594204606466
 30
0.0
 10
79.01305483227409
 20
-138.7318531257071
 30
0.0
 10
79.14569984175439
 20
-138.4111331830383
 30
0.0
 10
79.28963879971785
 20
-138.0973626614303
 30
0.0
 10
79.57751671564283
 20
-137.4698216182101
 30
0.0
 10
79.91037471321085
 20
-136.870473504258
 30
0.0
 10
80.29223601162236
 20
-136.300748838738
 30
0.0
 10
80.48316666082779
 20
-136.0158865059787
 30
0.0
 10
80.68629391328617
 20
-135.7384501283216
 30
0.0
 10
80.90242421607205
 20
-135.4690000960621
 30
0.0
 10
81.01048936746582
 20
-135.3342750799318
 30
0.0
 10
81.12181209213547
 20
-135.2015516539796
 30
0.0
 10
81.23654634838606
 20
-135.0709394242443
 30
0.0
 10
81.29391347651312
 20
-135.0056333093744
 30
0.0
 10
81.35221625746053
 20
-134.9407682559132
 30
0.0
 10
81.41111224304586
 20
-134.8767533496121
 30
0.0
 10
81.47000822863148
 20
-134.8127384433129
 30
0.0
 10
81.52952323211394
 20
-134.7495396318802
 30
0.0
 10
81.58965932192218
 20
-134.6871643087492
 30
0.0
 10
81.83020368116377
 20
-134.4376630162217
 30
0.0
 10
82.08082471971682
 20
-134.2012001923223
 30
0.0
 10
82.34170328830886
 20
-133.9780224353793
 30
0.0
 10
82.6025818569006
 20
-133.75484467844
 30
0.0
 10
82.8737297138548
 20
-133.5449819980078
 30
0.0
 10
83.15573438882553
 20
-133.3491532020081
 30
0.0
 10
83.2967367263101
 20
-133.2512388040101
 30
0.0
 10
83.44045773767341
 20
-133.156839837272
 30
0.0
 10
83.58700468758371
 20
-133.0661014382673
 30
0.0
 10
83.66027816253966
 20
-133.0207322387638
 30
0.0
 10
83.73425853162572
 20
-132.9762788671408
 30
0.0
 10
83.80896201050633
 20
-132.9327642606944
 30
0.0
 10
83.88366548938725
 20
-132.8892496542502
 30
0.0
 10
83.95923664168753
 20
-132.846597307901
 30
0.0
 10
84.03524596925343
 20
-132.8050608432279
 30
0.0
 10
84.33928327950996
 20
-132.6389149845393
 30
0.0
 10
84.64900862961378
 20
-132.4913056397508
 30
0.0
 10
84.96461309373154
 20
-132.3622545596079
 30
0.0
 10
85.28021755784898
 20
-132.2332034794669
 30
0.0
 10
85.60164153068379
 20
-132.1227205026285
 30
0.0
 10
85.9293359544338
 20
-132.0311059268239
 30
0.0
 10
86.25703037818636
 20
-131.93949135102
 30
0.0
 10
86.5904856706904
 20
-131.8668041039084
 30
0.0
 10
86.93044785174215
 20
-131.814375526733
 30
0.0
 10
87.10042894226932
 20
-131.7881612381493
 30
0.0
 10
87.27245917519672
 20
-131.7669986211843
 30
0.0
 10
87.44427146569023
 20
-131.7512078116944
 30
0.0
 10
87.53017761093891
 20
-131.743312406949
 30
0.0
 10
87.61611941948601
 20
-131.7367394451834
 30
0.0
 10
87.70210376306646
 20
-131.7314731695466
 30
0.0
 10
87.72359984896349
 20
-131.7301566006362
 30
0.0
 10
87.74512273438007
 20
-131.7289163780945
 30
0.0
 10
87.76643365266014
 20
-131.7277760155764
 30
0.0
 10
87.78774457094243
 20
-131.7266356530582
 30
0.0
 10
87.80909993546917
 20
-131.7255894885064
 30
0.0
 10
87.83050367174785
 20
-131.7246312472638
 30
0.0
 10
87.87331114430783
 20
-131.7227147647725
 30
0.0
 10
87.9163122064266
 20
-131.721150589231
 30
0.0
 10
87.95953748323189
 20
-131.7198813982791
 30
0.0
 10
88.13243859045464
 20
-131.7148046344754
 30
0.0
 10
88.3090326559995
 20
-131.714642301919
 30
0.0
 10
88.49066691327314
 20
-131.7141442984492
 30
0.0
 10
88.51337119543327
 20
-131.714082048016
 30
0.0
 10
88.53615210488484
 20
-131.7140115785375
 30
0.0
 10
88.55901015431591
 20
-131.7139203572709
 30
0.0
 10
88.58186820374472
 20
-131.7138291360061
 30
0.0
 10
88.60445935589208
 20
-131.7137121371395
 30
0.0
 10
88.62704879834209
 20
-131.713602395992
 30
0.0
 10
88.67222768324273
 20
-131.7133829137008
 30
0.0
 10
88.71740657694203
 20
-131.7131622271747
 30
0.0
 10
88.76258547679491
 20
-131.7129403357262
 30
0.0
 10
88.85294327650226
 20
-131.7124965528263
 30
0.0
 10
88.94330110081813
 20
-131.7120479502215
 30
0.0
 10
89.03365894564432
 20
-131.7115944042887
 30
0.0
 10
89.75652170426657
 20
-131.7079660368312
 30
0.0
 10
90.47938577568604
 20
-131.7040212963504
 30
0.0
 10
91.20224112432296
 20
-131.6997507781856
 30
0.0
 10
92.64795182159877
 20
-131.6912097418598
 30
0.0
 10
94.09363463908196
 20
-131.6812572849742
 30
0.0
 10
95.53914018174976
 20
-131.6707041815371
 30
0.0
 10
96.98464572441729
 20
-131.6601510780983
 30
0.0
 10
98.42995424261722
 20
-131.6489297378018
 30
0.0
 10
99.87487542619922
 20
-131.6400820007531
 30
0.0
 10
101.3197966097776
 20
-131.6312342637043
 30
0.0
 10
102.7642922092588
 20
-131.6251045356854
 30
0.0
 10
104.2086232362649
 20
-131.6251045261976
 30
0.0
  0
SPLINE
  5
91
330
70
100
AcDbEntity
  8
Capa 1
 62
    18
420
        0
370
     9
100
AcDbSpline
210
0.0
220
0.0
230
1.0
 70
     8
 71
     3
 72
   110
 73
   106
 74
     0
 42
0.0000000001
 43
0.0000000001
 40
0.0
 40
0.0
 40
0.0
 40
0.0
 40
1.0
 40
1.0
 40
1.0
 40
2.0
 40
2.0
 40
2.0
 40
3.0
 40
3.0
 40
3.0
 40
4.0
 40
4.0
 40
4.0
 40
5.0
 40
5.0
 40
5.0
 40
6.0
 40
6.0
 40
6.0
 40
7.0
 40
7.0
 40
7.0
 40
8.0
 40
8.0
 40
8.0
 40
9.0
 40
9.0
 40
9.0
 40
10.0
 40
10.0
 40
10.0
 40
11.0
 40
11.0
 40
11.0
 40
12.0
 40
12.0
 40
12.0
 40
13.0
 40
13.0
 40
13.0
 40
14.0
 40
14.0
 40
14.0
 40
15.0
 40
15.0
 40
15.0
 40
16.0
 40
16.0
 40
16.0
 40
17.0
 40
17.0
 40
17.0
 40
18.0
 40
18.0
 40
18.0
 40
19.0
 40
19.0
 40
19.0
 40
20.0
 40
20.0
 40
20.0
 40
21.0
 40
21.0
 40
21.0
 40
22.0
 40
22.0
 40
22.0
 40
23.0
 40
23.0
 40
23.0
 40
24.0
 40
24.0
 40
24.0
 40
25.0
 40
25.0
 40
25.0
 40
26.0
 40
26.0
 40
26.0
 40
27.0
 40
27.0
 40
27.0
 40
28.0
 40
28.0
 40
28.0
 40
29.0
 40
29.0
 40
29.0
 40
30.0
 40
30.0
 40
30.0
 40
31.0
 40
31.0
 40
31.0
 40
32.0
 40
32.0
 40
32.0
 40
33.0
 40
33.0
 40
33.0
 40
34.0
 40
34.0
 40
34.0
 40
35.0
 40
35.0
 40
35.0
 40
35.0
 10
104.2086232362624
 20
-131.6251045261976
 30
0.0
 10
105.6529542632698
 20
-131.625104535869
 30
0.0
 10
107.0974498627494
 20
-131.6312342637043
 30
0.0
 10
108.5423710463275
 20
-131.6400820007531
 30
0.0
 10
109.9872922299089
 20
-131.6489297378018
 30
0.0
 10
111.4326007481114
 20
-131.6601510780983
 30
0.0
 10
112.8781062907814
 20
-131.6707041815371
 30
0.0
 10
114.3236118334483
 20
-131.6812572849742
 30
0.0
 10
115.7692946509292
 20
-131.6912097418598
 30
0.0
 10
117.2150053482076
 20
-131.6997507781856
 30
0.0
 10
117.9378606968448
 20
-131.7040212963504
 30
0.0
 10
118.6607247683513
 20
-131.7079660368312
 30
0.0
 10
119.3835875269061
 20
-131.7115944042887
 30
0.0
 10
119.4739453717272
 20
-131.7120479502215
 30
0.0
 10
119.5643031960318
 20
-131.7124965528263
 30
0.0
 10
119.654660995735
 20
-131.7129403357262
 30
0.0
 10
119.6998398955847
 20
-131.7131622271747
 30
0.0
 10
119.7450187892875
 20
-131.7133829137008
 30
0.0
 10
119.7901976741869
 20
-131.713602395992
 30
0.0
 10
119.8127871166391
 20
-131.7137121371395
 30
0.0
 10
119.8353782687823
 20
-131.7138291360061
 30
0.0
 10
119.858236318215
 20
-131.7139203572709
 30
0.0
 10
119.8810943676418
 20
-131.7140115785375
 30
0.0
 10
119.903875277095
 20
-131.714082048016
 30
0.0
 10
119.9265795592555
 20
-131.7141442984492
 30
0.0
 10
120.1082138165269
 20
-131.714642301919
 30
0.0
 10
120.2848078820743
 20
-131.7148046344754
 30
0.0
 10
120.4577089892967
 20
-131.7198813982791
 30
0.0
 10
120.500934266104
 20
-131.721150589231
 30
0.0
 10
120.5439353282192
 20
-131.7227147647725
 30
0.0
 10
120.5867428007804
 20
-131.7246312472638
 30
0.0
 10
120.6081465370576
 20
-131.7255894885064
 30
0.0
 10
120.6295019015849
 20
-131.7266356530582
 30
0.0
 10
120.6508128198666
 20
-131.7277760155764
 30
0.0
 10
120.6721237381463
 20
-131.7289163780945
 30
0.0
 10
120.6936466235655
 20
-131.7301566006362
 30
0.0
 10
120.7151427094619
 20
-131.7314731695466
 30
0.0
 10
120.8011270530449
 20
-131.7367394451834
 30
0.0
 10
120.8870688615904
 20
-131.743312406949
 30
0.0
 10
120.9729750068378
 20
-131.7512078116944
 30
0.0
 10
121.14478729733
 20
-131.7669986211843
 30
0.0
 10
121.316817530259
 20
-131.7881612381493
 30
0.0
 10
121.4867986207839
 20
-131.814375526733
 30
0.0
 10
121.8267608018389
 20
-131.8668041039084
 30
0.0
 10
122.1602160943426
 20
-131.93949135102
 30
0.0
 10
122.4879105180926
 20
-132.0311059268239
 30
0.0
 10
122.8156049418471
 20
-132.1227205026285
 30
0.0
 10
123.1370289146774
 20
-132.2332034794669
 30
0.0
 10
123.4526333787968
 20
-132.3622545596079
 30
0.0
 10
123.7682378429123
 20
-132.4913056397508
 30
0.0
 10
124.077963193019
 20
-132.6389149845393
 30
0.0
 10
124.3820005032749
 20
-132.8050608432279
 30
0.0
 10
124.4580098308388
 20
-132.846597307901
 30
0.0
 10
124.5335809830191
 20
-132.8892496542502
 30
0.0
 10
124.6082844619613
 20
-132.9327642606944
 30
0.0
 10
124.6829879409029
 20
-132.9762788671408
 30
0.0
 10
124.7569683099867
 20
-133.0207322387638
 30
0.0
 10
124.830241784943
 20
-133.0661014382673
 30
0.0
 10
124.9767887348549
 20
-133.156839837272
 30
0.0
 10
125.1205097462185
 20
-133.2512388040101
 30
0.0
 10
125.2615120837037
 20
-133.3491532020081
 30
0.0
 10
125.5435167586742
 20
-133.5449819980078
 30
0.0
 10
125.8146646156261
 20
-133.75484467844
 30
0.0
 10
126.0755431842185
 20
-133.9780224353793
 30
0.0
 10
126.3364217528109
 20
-134.2012001923223
 30
0.0
 10
126.5870427913662
 20
-134.4376630162217
 30
0.0
 10
126.8275871506049
 20
-134.6871643087472
 30
0.0
 10
126.8877232404163
 20
-134.7495396318802
 30
0.0
 10
126.9472382438968
 20
-134.8127384433129
 30
0.0
 10
127.0061342294825
 20
-134.8767533496121
 30
0.0
 10
127.0650302150681
 20
-134.9407682559132
 30
0.0
 10
127.1233329960133
 20
-135.0056333092637
 30
0.0
 10
127.1807001241423
 20
-135.0709394241705
 30
0.0
 10
127.2954343803932
 20
-135.2015516539796
 30
0.0
 10
127.4067571050609
 20
-135.3342750799318
 30
0.0
 10
127.5148222564546
 20
-135.4690000960621
 30
0.0
 10
127.7309525592421
 20
-135.7384501283216
 30
0.0
 10
127.9340798117005
 20
-136.0158865059787
 30
0.0
 10
128.1250104609069
 20
-136.300748838738
 30
0.0
 10
128.5068717593197
 20
-136.870473504258
 30
0.0
 10
128.8397297568861
 20
-137.4698216183025
 30
0.0
 10
129.1276076728105
 20
-138.0973626614004
 30
0.0
 10
129.2715466307717
 20
-138.4111331829475
 30
0.0
 10
129.404191640253
 20
-138.7318531257071
 30
0.0
 10
129.5254632249455
 20
-139.0594204606466
 30
0.0
 10
129.5557811211186
 20
-139.1413122943807
 30
0.0
 10
129.5854148077778
 20
-139.2237188565976
 30
0.0
 10
129.6142149318727
 20
-139.3062182956579
 30
0.0
 10
129.6430150559658
 20
-139.388717734716
 30
0.0
 10
129.6710023828435
 20
-139.4713610786686
 30
0.0
 10
129.6981861791014
 20
-139.5541452588222
 30
0.0
 10
129.7525537716108
 20
-139.7197136191236
 30
0.0
 10
129.8037088114549
 20
-139.8858449338431
 30
0.0
 10
129.8517050402436
 20
-140.0525197494487
 30
0.0
 10
129.9476974978139
 20
-140.3858693806597
 30
0.0
 10
130.0309546235544
 20
-140.7213782730436
 30
0.0
 10
130.1022270349502
 20
-141.059317234485
 30
0.0
 10
130.173499446346
 20
-141.3972561959238
 30
0.0
 10
130.2328096257491
 20
-141.7374764160138
 30
0.0
 10
130.2804649067635
 20
-142.0797753960727
 30
0.0
 10
130.328120187774
 20
-142.4220743761337
 30
0.0
 10
130.3641183061204
 20
-142.7664533737015
 30
0.0
 10
130.3883150824343
 20
-143.1128038782292
 30
0.0
 10
130.4125118587476
 20
-143.4591543827595
 30
0.0
 10
130.4249100745883
 20
-143.8074791806435
 30
0.0
 10
130.4249100644623
 20
-144.1577452503759
 30
0.0
  0
SPLINE
  5
92
330
70
100
AcDbEntity
  8
Capa 1
 62
    18
420
        0
370
     9
100
AcDbSpline
210
0.0
220
0.0
230
1.0
 70
    24
 71
     3
 72
    11
 73
     7
 74
     0
 42
0.0000000001
 43
0.0000000001
 40
0.0
 40
0.0
 40
0.0
 40
0.0
 40
1.0
 40
1.0
 40
1.0
 40
2.0
 40
2.0
 40
2.0
 40
2.0
 10
140.416263614514
 20
-163.2593714228834
 30
0.0
 10
140.4162636144704
 20
-163.2560317795243
 30
0.0
 10
140.4162636144338
 20
-163.177676167483
 30
0.0
 10
140.4162636144062
 20
-163.0411906470756
 30
0.0
 10
140.4162636143779
 20
-162.904705126663
 30
0.0
 10
140.4162636143658
 20
-162.7209877866943
 30
0.0
 10
140.4162636143658
 20
-162.5296307125544
 30
0.0
  0
SPLINE
  5
93
330
70
100
AcDbEntity
  8
Capa 1
 62
    18
420
        0
370
     9
100
AcDbSpline
210
0.0
220
0.0
230
1.0
 70
    24
 71
     3
 72
    11
 73
     7
 74
     0
 42
0.0000000001
 43
0.0000000001
 40
0.0
 40
0.0
 40
0.0
 40
0.0
 40
1.0
 40
1.0
 40
1.0
 40
2.0
 40
2.0
 40
2.0
 40
2.0
 10
140.4162636143658
 20
-162.5296307125544
 30
0.0
 10
140.6076206885089
 20
-162.5296307125544
 30
0.0
 10
140.7913380277602
 20
-162.5296307125544
 30
0.0
 10
140.92782354689
 20
-162.5296307125544
 30
0.0
 10
141.0643090660198
 20
-162.5296307125544
 30
0.0
 10
141.1426646763163
 20
-162.5296307125544
 30
0.0
 10
141.146004317844
 20
-162.5296307125544
 30
0.0
  0
SPLINE
  5
94
330
70
100
AcDbEntity
  8
Capa 1
 62
    18
420
        0
370
     9
100
AcDbSpline
210
0.0
220
0.0
230
1.0
 70
     8
 71
     3
 72
    98
 73
    94
 74
     0
 42
0.0000000001
 43
0.0000000001
 40
0.0
 40
0.0
 40
0.0
 40
0.0
 40
1.0
 40
1.0
 40
1.0
 40
2.0
 40
2.0
 40
2.0
 40
3.0
 40
3.0
 40
3.0
 40
4.0
 40
4.0
 40
4.0
 40
5.0
 40
5.0
 40
5.0
 40
6.0
 40
6.0
 40
6.0
 40
7.0
 40
7.0
 40
7.0
 40
8.0
 40
8.0
 40
8.0
 40
9.0
 40
9.0
 40
9.0
 40
10.0
 40
10.0
 40
10.0
 40
11.0
 40
11.0
 40
11.0
 40
12.0
 40
12.0
 40
12.0
 40
13.0
 40
13.0
 40
13.0
 40
14.0
 40
14.0
 40
14.0
 40
15.0
 40
15.0
 40
15.0
 40
16.0
 40
16.0
 40
16.0
 40
17.0
 40
17.0
 40
17.0
 40
18.0
 40
18.0
 40
18.0
 40
19.0
 40
19.0
 40
19.0
 40
20.0
 40
20.0
 40
20.0
 40
21.0
 40
21.0
 40
21.0
 40
22.0
 40
22.0
 40
22.0
 40
23.0
 40
23.0
 40
23.0
 40
24.0
 40
24.0
 40
24.0
 40
25.0
 40
25.0
 40
25.0
 40
26.0
 40
26.0
 40
26.0
 40
27.0
 40
27.0
 40
27.0
 40
28.0
 40
28.0
 40
28.0
 40
29.0
 40
29.0
 40
29.0
 40
30.0
 40
30.0
 40
30.0
 40
31.0
 40
31.0
 40
31.0
 40
31.0
 10
141.146004317844
 20
-162.5296307125544
 30
0.0
 10
141.145915925575
 20
-162.5381449365921
 30
0.0
 10
141.1458275333034
 20
-162.5466591606298
 30
0.0
 10
141.1455495403028
 20
-162.5551681433525
 30
0.0
 10
141.1452815617825
 20
-162.5633705966009
 30
0.0
 10
141.1448373969173
 20
-162.5715681793587
 30
0.0
 10
141.1442654020927
 20
-162.5797562351471
 30
0.0
 10
141.1437147833752
 20
-162.5876382938571
 30
0.0
 10
141.1430457104789
 20
-162.5955115243611
 30
0.0
 10
141.1422463675184
 20
-162.6033717741174
 30
0.0
 10
141.1414780571369
 20
-162.6109268684806
 30
0.0
 10
141.1405893951957
 20
-162.6184699704275
 30
0.0
 10
141.1395838917045
 20
-162.6259974064602
 30
0.0
 10
141.1386190017589
 20
-162.6332207998943
 30
0.0
 10
141.1375465183945
 20
-162.6404297673912
 30
0.0
 10
141.1363661514262
 20
-162.6476210754421
 30
0.0
 10
141.1352354683441
 20
-162.6545096876597
 30
0.0
 10
141.1340057925664
 20
-162.661382095783
 30
0.0
 10
141.1326778271635
 20
-162.6682354712816
 30
0.0
 10
141.131408215153
 20
-162.6747876960939
 30
0.0
 10
141.1300487618055
 20
-162.6813225241905
 30
0.0
 10
141.1285999317494
 20
-162.6878374970408
 30
0.0
 10
141.1272176928355
 20
-162.6940530286526
 30
0.0
 10
141.12575410427
 20
-162.7002504882496
 30
0.0
 10
141.1242096810242
 20
-162.7064277531595
 30
0.0
 10
141.122739662927
 20
-162.7123074181169
 30
0.0
 10
141.1211964112221
 20
-162.7181687873453
 30
0.0
 10
141.1195804020784
 20
-162.7240100427677
 30
0.0
 10
141.1180461879447
 20
-162.729555640495
 30
0.0
 10
141.1164463952698
 20
-162.7350831090322
 30
0.0
 10
141.1147814746793
 20
-162.7405908994449
 30
0.0
 10
141.1132053180222
 20
-162.745805046341
 30
0.0
 10
141.1115707928112
 20
-162.7510015574275
 30
0.0
 10
141.1098783017446
 20
-162.7561791386638
 30
0.0
 10
141.1082811265518
 20
-162.7610651345055
 30
0.0
 10
141.1066323305735
 20
-162.7659342726003
 30
0.0
 10
141.1049323048359
 20
-162.770785433879
 30
0.0
 10
141.1033337331558
 20
-162.7753470877777
 30
0.0
 10
141.1016898638443
 20
-162.7798928464742
 30
0.0
 10
141.1000009408798
 20
-162.7844219177776
 30
0.0
 10
141.0984192063642
 20
-162.7886635490263
 30
0.0
 10
141.096797955439
 20
-162.7928905438109
 30
0.0
 10
141.0951377365151
 20
-162.7971018090704
 30
0.0
 10
141.0935900247586
 20
-162.8010276917799
 30
0.0
 10
141.0920084474939
 20
-162.8049399045929
 30
0.0
 10
141.0903923367243
 20
-162.8088390648625
 30
0.0
 10
141.0700677994199
 20
-162.8578756964098
 30
0.0
 10
141.0442814121151
 20
-162.9048479265209
 30
0.0
 10
141.0137564253842
 20
-162.9484040325866
 30
0.0
 10
140.9894373688226
 20
-162.9831048963805
 30
0.0
 10
140.9621106263943
 20
-163.0156374764512
 30
0.0
 10
140.9321896536747
 20
-163.0455567480709
 30
0.0
 10
140.9140656166957
 20
-163.0636797546416
 30
0.0
 10
140.8949897330593
 20
-163.0808439146067
 30
0.0
 10
140.8750722513462
 20
-163.0969555939174
 30
0.0
 10
140.8578656831915
 20
-163.1108743569459
 30
0.0
 10
140.8400310213941
 20
-163.1240076424103
 30
0.0
 10
140.8216165457329
 20
-163.1363107735172
 30
0.0
 10
140.7819339565484
 20
-163.1628236162605
 30
0.0
 10
140.7395587795108
 20
-163.1854813191432
 30
0.0
 10
140.6954719727283
 20
-163.2037594364845
 30
0.0
 10
140.6734019955935
 20
-163.2129095124674
 30
0.0
 10
140.6509030786989
 20
-163.220962050636
 30
0.0
 10
140.6280562946888
 20
-163.2278966185936
 30
0.0
 10
140.6052095105863
 20
-163.2348311865814
 30
0.0
 10
140.5820148593696
 20
-163.2406477843466
 30
0.0
 10
140.5586017273928
 20
-163.2453117240808
 30
0.0
 10
140.546891635708
 20
-163.2476443962721
 30
0.0
 10
140.5351268909313
 20
-163.2496887303572
 30
0.0
 10
140.5233182137365
 20
-163.251443530602
 30
0.0
 10
140.5115095368382
 20
-163.2531983308019
 30
0.0
 10
140.4996569275257
 20
-163.2546635971787
 30
0.0
 10
140.4877768970336
 20
-163.2558371008582
 30
0.0
 10
140.4818364345933
 20
-163.2564238968708
 30
0.0
 10
140.475889115831
 20
-163.2569377412275
 30
0.0
 10
140.4699362899549
 20
-163.2573785768137
 30
0.0
 10
140.4639834639134
 20
-163.2578194124134
 30
0.0
 10
140.4580251307625
 20
-163.2581872392413
 30
0.0
 10
140.4520633644902
 20
-163.2584818546707
 30
0.0
 10
140.4490824253884
 20
-163.2586291651511
 30
0.0
 10
140.4461006279723
 20
-163.2587581720956
 30
0.0
 10
140.4431181454135
 20
-163.2588689513563
 30
0.0
 10
140.440135662507
 20
-163.2589797306233
 30
0.0
 10
140.4371524944532
 20
-163.2590722822059
 30
0.0
 10
140.4341688826685
 20
-163.2591462700563
 30
0.0
 10
140.4316114967281
 20
-163.2592096883241
 30
0.0
 10
140.4290537847803
 20
-163.2592594678883
 30
0.0
 10
140.4264958891372
 20
-163.2592965653492
 30
0.0
 10
140.4247906206915
 20
-163.2593212970603
 30
0.0
 10
140.4230852706089
 20
-163.2593403922462
 30
0.0
 10
140.4213798780645
 20
-163.259351929085
 30
0.0
 10
140.4196744851876
 20
-163.2593634659231
 30
0.0
 10
140.4179690498489
 20
-163.2593674444026
 30
0.0
 10
140.416263614514
 20
-163.2593714228834
 30
0.0
  0
SPLINE
  5
95
330
70
100
AcDbEntity
  8
Capa 1
 62
    18
420
        0
370
     9
100
AcDbSpline
210
0.0
220
0.0
230
1.0
 70
    24
 71
     3
 72
    11
 73
     7
 74
     0
 42
0.0000000001
 43
0.0000000001
 40
0.0
 40
0.0
 40
0.0
 40
0.0
 40
1.0
 40
1.0
 40
1.0
 40
2.0
 40
2.0
 40
2.0
 40
2.0
 10
68.00098285783786
 20
-162.5296307125268
 30
0.0
 10
68.00098285783786
 20
-162.7209877866661
 30
0.0
 10
68.00098285785262
 20
-162.9047051266354
 30
0.0
 10
68.00098285788021
 20
-163.0411906470474
 30
0.0
 10
68.0009828579078
 20
-163.1776761674555
 30
0.0
 10
68.00098285794502
 20
-163.2560317794967
 30
0.0
 10
68.00098285798352
 20
-163.2593714228558
 30
0.0
  0
LINE
  5
96
330
70
100
AcDbEntity
  8
Capa 1
 62
    18
420
        0
370
     9
100
AcDbLine
 10
140.4162636483033
 20
-163.2593714229624
 30
0.0
 11
68.00098282422277
 21
-163.2593714229624
 31
0.0
  0
SPLINE
  5
97
330
70
100
AcDbEntity
  8
Capa 1
 62
    18
420
        0
370
     9
100
AcDbSpline
210
0.0
220
0.0
230
1.0
 70
    24
 71
     3
 72
    11
 73
     7
 74
     0
 42
0.0000000001
 43
0.0000000001
 40
0.0
 40
0.0
 40
0.0
 40
0.0
 40
1.0
 40
1.0
 40
1.0
 40
2.0
 40
2.0
 40
2.0
 40
2.0
 10
68.00098285815003
 20
-162.5296307196734
 30
0.0
 10
67.80962578401075
 20
-162.5296307196734
 30
0.0
 10
67.62590844476204
 20
-162.5296307196734
 30
0.0
 10
67.4894229256364
 20
-162.5296307196734
 30
0.0
 10
67.35293740651238
 20
-162.5296307196734
 30
0.0
 10
67.27458179622231
 20
-162.5296307196734
 30
0.0
 10
67.27124215469811
 20
-162.5296307196734
 30
0.0
  0
SPLINE
  5
98
330
70
100
AcDbEntity
  8
Capa 1
 62
    18
420
        0
370
     9
100
AcDbSpline
210
0.0
220
0.0
230
1.0
 70
     8
 71
     3
 72
    74
 73
    70
 74
     0
 42
0.0000000001
 43
0.0000000001
 40
0.0
 40
0.0
 40
0.0
 40
0.0
 40
1.0
 40
1.0
 40
1.0
 40
2.0
 40
2.0
 40
2.0
 40
3.0
 40
3.0
 40
3.0
 40
4.0
 40
4.0
 40
4.0
 40
5.0
 40
5.0
 40
5.0
 40
6.0
 40
6.0
 40
6.0
 40
7.0
 40
7.0
 40
7.0
 40
8.0
 40
8.0
 40
8.0
 40
9.0
 40
9.0
 40
9.0
 40
10.0
 40
10.0
 40
10.0
 40
11.0
 40
11.0
 40
11.0
 40
12.0
 40
12.0
 40
12.0
 40
13.0
 40
13.0
 40
13.0
 40
14.0
 40
14.0
 40
14.0
 40
15.0
 40
15.0
 40
15.0
 40
16.0
 40
16.0
 40
16.0
 40
17.0
 40
17.0
 40
17.0
 40
18.0
 40
18.0
 40
18.0
 40
19.0
 40
19.0
 40
19.0
 40
20.0
 40
20.0
 40
20.0
 40
21.0
 40
21.0
 40
21.0
 40
22.0
 40
22.0
 40
22.0
 40
23.0
 40
23.0
 40
23.0
 40
23.0
 10
68.00098285798352
 20
-163.2593714228558
 30
0.0
 10
67.99919215100953
 20
-163.2593670660017
 30
0.0
 10
67.99740144403521
 20
-163.2593627091502
 30
0.0
 10
67.99561078589292
 20
-163.2593500127695
 30
0.0
 10
67.99382012809265
 20
-163.2593373163908
 30
0.0
 10
67.99202951912471
 20
-163.2593162804921
 30
0.0
 10
67.99023900595635
 20
-163.259289056196
 30
0.0
 10
67.98785165962565
 20
-163.2592527571987
 30
0.0
 10
67.98546448360378
 20
-163.2592054566539
 30
0.0
 10
67.98307758985827
 20
-163.2591462700281
 30
0.0
 10
67.98009397963312
 20
-163.2590722869185
 30
0.0
 10
67.97711081046121
 20
-163.2589797318971
 30
0.0
 10
67.9741283271353
 20
-163.2588689513287
 30
0.0
 10
67.97114584414692
 20
-163.2587581707712
 30
0.0
 10
67.96816404700519
 20
-163.2586291646705
 30
0.0
 10
67.9651831080493
 20
-163.2584818546438
 30
0.0
 10
67.95922134207646
 20
-163.2581872401217
 30
0.0
 10
67.95326300871862
 20
-163.2578194126354
 30
0.0
 10
67.94731018260129
 20
-163.2573785767867
 30
0.0
 10
67.94135735664631
 20
-163.2569377409503
 30
0.0
 10
67.93541003793409
 20
-163.2564238967566
 30
0.0
 10
67.92946957552648
 20
-163.2558371008306
 30
0.0
 10
67.91758954509183
 20
-163.2546635973308
 30
0.0
 10
67.9057369357495
 20
-163.2531983308443
 30
0.0
 10
67.89392825882135
 20
-163.2514435305725
 30
0.0
 10
67.88211958160123
 20
-163.249688730261
 30
0.0
 10
67.87035483679495
 20
-163.2476443961501
 30
0.0
 10
67.85864474516732
 20
-163.2453117240513
 30
0.0
 10
67.83523161330858
 20
-163.2406477845109
 30
0.0
 10
67.81203696254808
 20
-163.2348311874297
 30
0.0
 10
67.78919017787382
 20
-163.227896618568
 30
0.0
 10
67.76634339329582
 20
-163.2209620497325
 30
0.0
 10
67.74384447480247
 20
-163.2129095091222
 30
0.0
 10
67.72177449983534
 20
-163.2037594364582
 30
0.0
 10
67.67768769738878
 20
-163.1854813257386
 30
0.0
 10
67.63531253972243
 20
-163.1628236524484
 30
0.0
 10
67.59562992683196
 20
-163.1363107734897
 30
0.0
 10
67.57721544016978
 20
-163.1240076255772
 30
0.0
 10
67.55938075809311
 20
-163.1108743091419
 30
0.0
 10
67.54217422121934
 20
-163.0969555938898
 30
0.0
 10
67.52225677571759
 20
-163.0808439698846
 30
0.0
 10
67.50318099737504
 20
-163.0636799707505
 30
0.0
 10
67.48505681889117
 20
-163.0455567480414
 30
0.0
 10
67.45513561256136
 20
-163.0156371195972
 30
0.0
 10
67.42780796387916
 20
-162.9831031552829
 30
0.0
 10
67.40349004717046
 20
-162.9484040325584
 30
0.0
 10
67.3729664911643
 20
-162.9048501118694
 30
0.0
 10
67.34718475821596
 20
-162.8578849910623
 30
0.0
 10
67.32685413582484
 20
-162.808839064833
 30
0.0
 10
67.32324628531769
 20
-162.8001354272216
 30
0.0
 10
67.31981009939976
 20
-162.7913662615683
 30
0.0
 10
67.31654401799288
 20
-162.7825327333782
 30
0.0
 10
67.31278952960632
 20
-162.7723782470481
 30
0.0
 10
67.30925982416447
 20
-162.762138709477
 30
0.0
 10
67.30596028290768
 20
-162.7518260518037
 30
0.0
 10
67.30223154104717
 20
-162.7401719352624
 30
0.0
 10
67.29879673686193
 20
-162.7284244386314
 30
0.0
 10
67.29565736592907
 20
-162.7165978383185
 30
0.0
 10
67.29215665891462
 20
-162.7034100170781
 30
0.0
 10
67.28902330663395
 20
-162.6901238348319
 30
0.0
 10
67.28627320280598
 20
-162.6767603471986
 30
0.0
 10
67.28323926136425
 20
-162.6620176169278
 30
0.0
 10
67.28067176081481
 20
-162.6471808004442
 30
0.0
 10
67.27852904597004
 20
-162.6322782427224
 30
0.0
 10
67.27618589015609
 20
-162.6159816203217
 30
0.0
 10
67.27435071067167
 20
-162.5996063818239
 30
0.0
 10
67.27322667733067
 20
-162.5831898931677
 30
0.0
 10
67.2720065010618
 20
-162.5653692386292
 30
0.0
 10
67.27162432788365
 20
-162.5474999755789
 30
0.0
 10
67.27124215470742
 20
-162.5296307125268
 30
0.0
  0
SPLINE
  5
99
330
70
100
AcDbEntity
  8
Capa 1
 62
    18
420
        0
370
     9
100
AcDbSpline
210
0.0
220
0.0
230
1.0
 70
     8
 71
     3
 72
     8
 73
     4
 74
     0
 42
0.0000000001
 43
0.0000000001
 40
0.0
 40
0.0
 40
0.0
 40
0.0
 40
1.0
 40
1.0
 40
1.0
 40
1.0
 10
107.1844362339856
 20
-145.5474872353941
 30
0.0
 10
107.3876368495459
 20
-145.1123798273621
 30
0.0
 10
107.4929566211322
 20
-144.6379628531771
 30
0.0
 10
107.4929566210347
 20
-144.1577452497008
 30
0.0
  0
SPLINE
  5
9A
330
70
100
AcDbEntity
  8
Capa 1
 62
    18
420
        0
370
     9
100
AcDbSpline
210
0.0
220
0.0
230
1.0
 70
     8
 71
     3
 72
     8
 73
     4
 74
     0
 42
0.0000000001
 43
0.0000000001
 40
0.0
 40
0.0
 40
0.0
 40
0.0
 40
1.0
 40
1.0
 40
1.0
 40
1.0
 10
104.2086232362624
 20
-147.4420786351456
 30
0.0
 10
104.7978236864187
 20
-147.4420786351456
 30
0.0
 10
105.3762354993156
 20
-147.2835546744995
 30
0.0
 10
105.8831066453751
 20
-146.9831569185951
 30
0.0
  0
SPLINE
  5
9B
330
70
100
AcDbEntity
  8
Capa 1
 62
    18
420
        0
370
     9
100
AcDbSpline
210
0.0
220
0.0
230
1.0
 70
     8
 71
     3
 72
     8
 73
     4
 74
     0
 42
0.0000000001
 43
0.0000000001
 40
0.0
 40
0.0
 40
0.0
 40
0.0
 40
1.0
 40
1.0
 40
1.0
 40
1.0
 10
105.8831066453751
 20
-146.9831569185951
 30
0.0
 10
106.4513773760358
 20
-146.6463706296909
 30
0.0
 10
106.9049195525249
 20
-146.1460079555898
 30
0.0
 10
107.1844362339856
 20
-145.5474872353941
 30
0.0
  0
SPLINE
  5
9C
330
70
100
AcDbEntity
  8
Capa 1
 62
    18
420
        0
370
     9
100
AcDbSpline
210
0.0
220
0.0
230
1.0
 70
     8
 71
     3
 72
     8
 73
     4
 74
     0
 42
0.0000000001
 43
0.0000000001
 40
0.0
 40
0.0
 40
0.0
 40
0.0
 40
1.0
 40
1.0
 40
1.0
 40
1.0
 10
107.4929566210347
 20
-144.1577452497008
 30
0.0
 10
107.4929566209121
 20
-143.568543750955
 30
0.0
 10
107.3344320960386
 20
-142.9901309473653
 30
0.0
 10
107.0340333284527
 20
-142.4832591819709
 30
0.0
  0
SPLINE
  5
9D
330
70
100
AcDbEntity
  8
Capa 1
 62
    18
420
        0
370
     9
100
AcDbSpline
210
0.0
220
0.0
230
1.0
 70
     8
 71
     3
 72
     8
 73
     4
 74
     0
 42
0.0000000001
 43
0.0000000001
 40
0.0
 40
0.0
 40
0.0
 40
0.0
 40
1.0
 40
1.0
 40
1.0
 40
1.0
 10
107.0340333284527
 20
-142.4832591819709
 30
0.0
 10
106.6972423198598
 20
-141.9149817071123
 30
0.0
 10
106.1968710795841
 20
-141.4614359640061
 30
0.0
 10
105.5983406106542
 20
-141.181920759307
 30
0.0
  0
SPLINE
  5
9E
330
70
100
AcDbEntity
  8
Capa 1
 62
    18
420
        0
370
     9
100
AcDbSpline
210
0.0
220
0.0
230
1.0
 70
     8
 71
     3
 72
     8
 73
     4
 74
     0
 42
0.0000000001
 43
0.0000000001
 40
0.0
 40
0.0
 40
0.0
 40
0.0
 40
1.0
 40
1.0
 40
1.0
 40
1.0
 10
105.5983406106542
 20
-141.181920759307
 30
0.0
 10
105.1632398238372
 20
-140.978727619099
 30
0.0
 10
104.6888316760293
 20
-140.8734118654056
 30
0.0
 10
104.2086232349167
 20
-140.8734118656049
 30
0.0
  0
SPLINE
  5
9F
330
70
100
AcDbEntity
  8
Capa 1
 62
    18
420
        0
370
     9
100
AcDbSpline
210
0.0
220
0.0
230
1.0
 70
     8
 71
     3
 72
    11
 73
     7
 74
     0
 42
0.0000000001
 43
0.0000000001
 40
0.0
 40
0.0
 40
0.0
 40
0.0
 40
1.0
 40
1.0
 40
1.0
 40
2.0
 40
2.0
 40
2.0
 40
2.0
 10
104.2086232349167
 20
-140.8734118656049
 30
0.0
 10
103.3375885152765
 20
-140.8734118659598
 30
0.0
 10
102.502163385082
 20
-141.2194562854423
 30
0.0
 10
101.8862488281833
 20
-141.8353708423558
 30
0.0
 10
101.2703342712868
 20
-142.451285399269
 30
0.0
 10
100.9242898518286
 20
-143.2867105294706
 30
0.0
 10
100.9242898514943
 20
-144.1577452491111
 30
0.0
  0
SPLINE
  5
A0
330
70
100
AcDbEntity
  8
Capa 1
 62
    18
420
        0
370
     9
100
AcDbSpline
210
0.0
220
0.0
230
1.0
 70
     8
 71
     3
 72
    11
 73
     7
 74
     0
 42
0.0000000001
 43
0.0000000001
 40
0.0
 40
0.0
 40
0.0
 40
0.0
 40
1.0
 40
1.0
 40
1.0
 40
2.0
 40
2.0
 40
2.0
 40
2.0
 10
100.9242898514943
 20
-144.1577452491111
 30
0.0
 10
100.9242898511574
 20
-145.0287799693208
 30
0.0
 10
101.2703342704256
 20
-145.8642051002844
 30
0.0
 10
101.8862488275602
 20
-146.4801196577665
 30
0.0
 10
102.5021633846938
 20
-147.0960342152511
 30
0.0
 10
103.3375885154649
 20
-147.4420786349903
 30
0.0
 10
104.2086232356746
 20
-147.4420786351456
 30
0.0
  0
LINE
  5
A1
330
70
100
AcDbEntity
  8
Capa 1
 62
    18
420
        0
370
     9
100
AcDbLine
 10
140.4276330936609
 20
-163.2707409200832
 30
0.0
 11
140.4162636483033
 21
-163.2593714229624
 31
0.0
  0
LINE
  5
A2
330
70
100
AcDbEntity
  8
Capa 1
 62
    18
420
        0
370
     9
100
AcDbLine
 10
68.00098282422277
 20
-163.2593714229624
 30
0.0
 11
67.98961337886743
 21
-163.2707409200832
 31
0.0
  0
LINE
  5
A3
330
70
100
AcDbEntity
  8
Capa 1
 62
    18
420
        0
370
     9
100
AcDbLine
 10
67.98961337886743
 20
-163.2707409200832
 30
0.0
 11
140.4276330936609
 21
-163.2707409200832
 31
0.0
  0
SPLINE
  5
A4
330
70
100
AcDbEntity
  8
Capa 1
 62
    18
420
        0
370
     9
100
AcDbSpline
210
0.0
220
0.0
230
1.0
 70
     8
 71
     3
 72
    14
 73
    10
 74
     0
 42
0.0000000001
 43
0.0000000001
 40
0.0
 40
0.0
 40
0.0
 40
0.0
 40
1.0
 40
1.0
 40
1.0
 40
2.0
 40
2.0
 40
2.0
 40
3.0
 40
3.0
 40
3.0
 40
3.0
 10
104.2086232362624
 20
-146.2562166557397
 30
0.0
 10
104.958225405923
 20
-146.2562166557397
 30
0.0
 10
105.6511516978285
 20
-145.8561554745182
 30
0.0
 10
106.0259527825696
 20
-145.2069809528094
 30
0.0
 10
106.4007538673095
 20
-144.557806431102
 30
0.0
 10
106.4007538671491
 20
-143.7576840687489
 30
0.0
 10
106.0259527821371
 20
-143.1085095471928
 30
0.0
 10
105.6511516971329
 20
-142.4593350256413
 30
0.0
 10
104.9582254050619
 20
-142.0592738447003
 30
0.0
 10
104.2086232354025
 20
-142.059273845007
 30
0.0
  0
SPLINE
  5
A5
330
70
100
AcDbEntity
  8
Capa 1
 62
    18
420
        0
370
     9
100
AcDbSpline
210
0.0
220
0.0
230
1.0
 70
     8
 71
     3
 72
    17
 73
    13
 74
     0
 42
0.0000000001
 43
0.0000000001
 40
0.0
 40
0.0
 40
0.0
 40
0.0
 40
1.0
 40
1.0
 40
1.0
 40
2.0
 40
2.0
 40
2.0
 40
3.0
 40
3.0
 40
3.0
 40
4.0
 40
4.0
 40
4.0
 40
4.0
 10
104.2086232354025
 20
-142.059273845007
 30
0.0
 10
103.652089766141
 20
-142.0592738452364
 30
0.0
 10
103.1183084649843
 20
-142.2803732997277
 30
0.0
 10
102.7247798750121
 20
-142.6739018899027
 30
0.0
 10
102.3312512850437
 20
-143.0674304800822
 30
0.0
 10
102.1101518308332
 20
-143.6012117813537
 30
0.0
 10
102.110151830896
 20
-144.1577452506159
 30
0.0
 10
102.1101518309628
 20
-144.7142787198781
 30
0.0
 10
102.3312512852952
 20
-145.2480600211008
 30
0.0
 10
102.724779875356
 20
-145.6415886111873
 30
0.0
 10
103.1183084654168
 20
-146.0351172012724
 30
0.0
 10
103.6520897666229
 20
-146.2562166556421
 30
0.0
 10
104.2086232358889
 20
-146.2562166557397
 30
0.0
  0
INSERT
  5
A7
330
70
100
AcDbEntity
  8
Capa 1
100
AcDbBlockReference
  2
Block_0
 10
0.0
 20
0.0
 30
0.0
  0
MTEXT
  5
AE
330
70
100
AcDbEntity
  8
Capa 1
100
AcDbMText
 10
146.8339916630401
 20
-144.6512030504783
 30
0.0
 40
0.2
 41
0.0
 46
0.0
 71
     7
 72
     1
  1
\C18;\c0;\FArial Bold|b1|i0|c1;\H2.497667;\W1.000000;460
 11
0.0000000000000001
 21
1.0
 31
0.0
 73
     1
 44
1.0
  0
LWPOLYLINE
  5
AF
330
70
100
AcDbEntity
  8
Capa 1
 62
   250
420
  1907995
370
     9
100
AcDbPolyline
 90
        4
 70
     1
 43
0.0
 10
67.70719140371527
 20
-106.1925722294859
 10
67.70719140371527
 20
-43.03107766506165
 10
139.8917566201938
 20
-43.03107766506165
 10
139.8917566201938
 20
-106.1925722294859
  0
LINE
  5
B0
330
70
100
AcDbEntity
  8
Capa 1
 62
   250
420
  1907995
370
     9
100
AcDbLine
 10
146.4297279058442
 20
-106.3942532501856
 30
0.0
 11
146.4297279058442
 21
-43.23275868576207
 31
0.0
  0
LINE
  5
B1
330
70
100
AcDbEntity
  8
Capa 1
 62
   250
420
  1907995
370
     9
100
AcDbLine
 10
145.0681222596377
 20
-106.3942532501856
 30
0.0
 11
148.324572742773
 21
-106.3942532501856
 31
0.0
  0
LINE
  5
B2
330
70
100
AcDbEntity
  8
Capa 1
 62
   250
420
  1907995
370
     9
100
AcDbLine
 10
145.0681222596377
 20
-43.23275868576207
 30
0.0
 11
148.324572742773
 21
-43.23275868576207
 31
0.0
  0
MTEXT
  5
B3
330
70
100
AcDbEntity
  8
Capa 1
100
AcDbMText
 10
145.6438110941127
 20
-75.99961923182746
 30
0.0
 40
0.2
 41
0.0
 46
0.0
 71
     7
 72
     1
  1
\C18;\c0;\FArial Bold|b1|i0|c1;\H2.497667;\W1.000000;700
 11
0.0000000000000001
 21
1.0
 31
0.0
 73
     1
 44
1.0
  0
LINE
  5
B4
330
70
100
AcDbEntity
  8
Capa 1
 62
    18
420
        0
370
     9
100
AcDbLine
 10
68.81004813865117
 20
-202.5575242631524
 30
0.0
 11
141.3575767697063
 21
-202.5575242631524
 31
0.0
  0
LINE
  5
B5
330
70
100
AcDbEntity
  8
Capa 1
 62
    18
420
        0
370
     9
100
AcDbLine
 10
68.81004813865117
 20
-180.4181775686794
 30
0.0
 11
68.81004813865117
 21
-202.5575242631524
 31
0.0
  0
LINE
  5
B6
330
70
100
AcDbEntity
  8
Capa 1
 62
    18
420
        0
370
     9
100
AcDbLine
 10
141.3575767697063
 20
-202.5575242631524
 30
0.0
 11
141.3575767697063
 21
-180.4181775686794
 31
0.0
  0
LINE
  5
B7
330
70
100
AcDbEntity
  8
Capa 1
 62
    18
420
        0
370
     9
100
AcDbLine
 10
68.81004813865117
 20
-202.9234638779338
 30
0.0
 11
68.81004813865117
 21
-225.0628105724056
 31
0.0
  0
LINE
  5
B8
330
70
100
AcDbEntity
  8
Capa 1
 62
    18
420
        0
370
     9
100
AcDbLine
 10
141.3575767697063
 20
-225.0628105724056
 30
0.0
 11
141.3575767697063
 21
-202.9234638779338
 31
0.0
  0
LINE
  5
B9
330
70
100
AcDbEntity
  8
Capa 1
 62
    18
420
        0
370
     9
100
AcDbLine
 10
68.81004813865117
 20
-225.0628105724056
 30
0.0
 11
141.3575767697063
 21
-225.0628105724056
 31
0.0
  0
LINE
  5
BA
330
70
100
AcDbEntity
  8
Capa 1
 62
    18
420
        0
370
     9
100
AcDbLine
 10
68.81004813865117
 20
-247.56809688166
 30
0.0
 11
141.3575767697063
 21
-247.56809688166
 31
0.0
  0
LINE
  5
BB
330
70
100
AcDbEntity
  8
Capa 1
 62
    18
420
        0
370
     9
100
AcDbLine
 10
68.81004813865117
 20
-225.4287501871902
 30
0.0
 11
68.81004813865117
 21
-247.56809688166
 31
0.0
  0
LINE
  5
BC
330
70
100
AcDbEntity
  8
Capa 1
 62
    18
420
        0
370
     9
100
AcDbLine
 10
141.3575767697063
 20
-247.56809688166
 30
0.0
 11
141.3575767697063
 21
-225.4287501871902
 31
0.0
  0
LINE
  5
BD
330
70
100
AcDbEntity
  8
Capa 1
 62
    18
420
        0
370
     9
100
AcDbLine
 10
70.18232169409412
 20
-247.6138393335083
 30
0.0
 11
71.09717073105546
 21
-247.6138393335083
 31
0.0
  0
LINE
  5
BE
330
70
100
AcDbEntity
  8
Capa 1
 62
    18
420
        0
370
     9
100
AcDbLine
 10
74.29914236042077
 20
-247.6138393335083
 30
0.0
 11
135.8684825479377
 21
-247.6138393335083
 31
0.0
  0
LINE
  5
BF
330
70
100
AcDbEntity
  8
Capa 1
 62
    18
420
        0
370
     9
100
AcDbLine
 10
139.0704541773023
 20
-247.6138393335083
 30
0.0
 11
139.9853032142643
 21
-247.6138393335083
 31
0.0
  0
LINE
  5
C0
330
70
100
AcDbEntity
  8
Capa 1
 62
    18
420
        0
370
     9
100
AcDbLine
 10
71.09717073105546
 20
-247.56809688166
 30
0.0
 11
71.09717073105546
 21
-257.6314362882385
 31
0.0
  0
LINE
  5
C1
330
70
100
AcDbEntity
  8
Capa 1
 62
    18
420
        0
370
     9
100
AcDbLine
 10
71.09717073105546
 20
-257.6314362882385
 30
0.0
 11
74.29914236042077
 21
-257.6314362882385
 31
0.0
  0
LINE
  5
C2
330
70
100
AcDbEntity
  8
Capa 1
 62
    18
420
        0
370
     9
100
AcDbLine
 10
74.29914236042077
 20
-247.56809688166
 30
0.0
 11
74.29914236042077
 21
-257.6314362882385
 31
0.0
  0
LINE
  5
C3
330
70
100
AcDbEntity
  8
Capa 1
 62
    18
420
        0
370
     9
100
AcDbLine
 10
135.8684825479377
 20
-247.56809688166
 30
0.0
 11
135.8684825479377
 21
-257.6314362882385
 31
0.0
  0
LINE
  5
C4
330
70
100
AcDbEntity
  8
Capa 1
 62
    18
420
        0
370
     9
100
AcDbLine
 10
139.0704541773023
 20
-247.56809688166
 30
0.0
 11
139.0704541773023
 21
-257.6314362882385
 31
0.0
  0
LINE
  5
C5
330
70
100
AcDbEntity
  8
Capa 1
 62
    18
420
        0
370
     9
100
AcDbLine
 10
135.8684825479377
 20
-257.6314362882385
 30
0.0
 11
139.0704541773023
 21
-257.6314362882385
 31
0.0
  0
LINE
  5
C6
330
70
100
AcDbEntity
  8
Capa 1
 62
    18
420
        0
370
     9
100
AcDbLine
 10
68.71856323495548
 20
-247.659581785358
 30
0.0
 11
68.71856323495548
 21
-179.9607530501974
 31
0.0
  0
LINE
  5
C7
330
70
100
AcDbEntity
  8
Capa 1
 62
    18
420
        0
370
     9
100
AcDbLine
 10
70.18232169409412
 20
-247.659581785358
 30
0.0
 11
70.18232169409412
 21
-247.56809688166
 31
0.0
  0
LINE
  5
C8
330
70
100
AcDbEntity
  8
Capa 1
 62
    18
420
        0
370
     9
100
AcDbLine
 10
70.18232169409412
 20
-225.3189683027551
 30
0.0
 11
70.18232169409412
 21
-225.0628105724056
 31
0.0
  0
LINE
  5
C9
330
70
100
AcDbEntity
  8
Capa 1
 62
    18
420
        0
370
     9
100
AcDbLine
 10
70.18232169409412
 20
-202.8136819934994
 30
0.0
 11
70.18232169409412
 21
-202.5575242631524
 31
0.0
  0
LINE
  5
CA
330
70
100
AcDbEntity
  8
Capa 1
 62
    18
420
        0
370
     9
100
AcDbLine
 10
70.18232169409412
 20
-180.3083956842436
 30
0.0
 11
70.18232169409412
 21
-179.9607530501974
 31
0.0
  0
LINE
  5
CB
330
70
100
AcDbEntity
  8
Capa 1
 62
    18
420
        0
370
     9
100
AcDbLine
 10
68.71856323495548
 20
-179.9607530501974
 30
0.0
 11
70.18232169409412
 21
-179.9607530501974
 31
0.0
  0
LINE
  5
CC
330
70
100
AcDbEntity
  8
Capa 1
 62
    18
420
        0
370
     9
100
AcDbLine
 10
68.71856323495548
 20
-247.659581785358
 30
0.0
 11
70.18232169409412
 21
-247.659581785358
 31
0.0
  0
LINE
  5
CD
330
70
100
AcDbEntity
  8
Capa 1
 62
    18
420
        0
370
     9
100
AcDbLine
 10
139.9853032142643
 20
-247.659581785358
 30
0.0
 11
141.4490616734023
 21
-247.659581785358
 31
0.0
  0
LINE
  5
CE
330
70
100
AcDbEntity
  8
Capa 1
 62
    18
420
        0
370
     9
100
AcDbLine
 10
139.9853032142643
 20
-247.659581785358
 30
0.0
 11
139.9853032142643
 21
-247.56809688166
 31
0.0
  0
LINE
  5
CF
330
70
100
AcDbEntity
  8
Capa 1
 62
    18
420
        0
370
     9
100
AcDbLine
 10
139.9853032142643
 20
-225.3189683027551
 30
0.0
 11
139.9853032142643
 21
-225.0628105724056
 31
0.0
  0
LINE
  5
D0
330
70
100
AcDbEntity
  8
Capa 1
 62
    18
420
        0
370
     9
100
AcDbLine
 10
139.9853032142643
 20
-202.8136819934994
 30
0.0
 11
139.9853032142643
 21
-202.5575242631524
 31
0.0
  0
LINE
  5
D1
330
70
100
AcDbEntity
  8
Capa 1
 62
    18
420
        0
370
     9
100
AcDbLine
 10
139.9853032142643
 20
-180.3083956842436
 30
0.0
 11
139.9853032142643
 21
-179.9607530501974
 31
0.0
  0
LINE
  5
D2
330
70
100
AcDbEntity
  8
Capa 1
 62
    18
420
        0
370
     9
100
AcDbLine
 10
141.4490616734023
 20
-247.659581785358
 30
0.0
 11
141.4490616734023
 21
-179.9607530501974
 31
0.0
  0
LINE
  5
D3
330
70
100
AcDbEntity
  8
Capa 1
 62
    18
420
        0
370
     9
100
AcDbLine
 10
139.9853032142643
 20
-179.9607530501974
 30
0.0
 11
141.4490616734023
 21
-179.9607530501974
 31
0.0
  0
LINE
  5
D4
330
70
100
AcDbEntity
  8
Capa 1
 62
    18
420
        0
370
     9
100
AcDbLine
 10
139.9853032142643
 20
-180.0522379538953
 30
0.0
 11
70.18232169409412
 21
-180.0522379538953
 31
0.0
  0
LINE
  5
D5
330
70
100
AcDbEntity
  8
Capa 1
 62
    18
420
        0
370
     9
100
AcDbLine
 10
140.0316834159276
 20
-180.6743352990296
 30
0.0
 11
139.6376605802187
 21
-180.6743352990296
 31
0.0
  0
LINE
  5
D6
330
70
100
AcDbEntity
  8
Capa 1
 62
    18
420
        0
370
     9
100
AcDbLine
 10
139.6376605802187
 20
-180.6743352990296
 30
0.0
 11
139.6376605802187
 21
-180.3083956842436
 31
0.0
  0
LINE
  5
D7
330
70
100
AcDbEntity
  8
Capa 1
 62
    18
420
        0
370
     9
100
AcDbLine
 10
141.3575767697063
 20
-180.4181775686794
 30
0.0
 11
141.3575767697063
 21
-180.3083956842436
 31
0.0
  0
LINE
  5
D8
330
70
100
AcDbEntity
  8
Capa 1
 62
    18
420
        0
370
     9
100
AcDbLine
 10
141.3575767697063
 20
-180.4181775686794
 30
0.0
 11
140.569729683519
 21
-180.4181775686794
 31
0.0
  0
SPLINE
  5
D9
330
70
100
AcDbEntity
  8
Capa 1
 62
    18
420
        0
370
     9
100
AcDbSpline
210
0.0
220
0.0
230
1.0
 70
     8
 71
     3
 72
     8
 73
     4
 74
     0
 42
0.0000000001
 43
0.0000000001
 40
0.0
 40
0.0
 40
0.0
 40
0.0
 40
1.0
 40
1.0
 40
1.0
 40
1.0
 10
140.0316834159276
 20
-180.6743352990296
 30
0.0
 10
140.2227702932688
 20
-180.6239655538974
 30
0.0
 10
140.4047475708387
 20
-180.5373282343852
 30
0.0
 10
140.569729683519
 20
-180.4181775686794
 30
0.0
  0
LINE
  5
DA
330
70
100
AcDbEntity
  8
Capa 1
 62
    18
420
        0
370
     9
100
AcDbLine
 10
141.3575767697063
 20
-180.3083956842436
 30
0.0
 11
139.6376605802187
 21
-180.3083956842436
 31
0.0
  0
LINE
  5
DB
330
70
100
AcDbEntity
  8
Capa 1
 62
    18
420
        0
370
     9
100
AcDbLine
 10
70.52996432813971
 20
-180.6743352990296
 30
0.0
 11
70.52996432813971
 21
-180.3083956842436
 31
0.0
  0
LINE
  5
DC
330
70
100
AcDbEntity
  8
Capa 1
 62
    18
420
        0
370
     9
100
AcDbLine
 10
139.6376605802187
 20
-180.6743352990296
 30
0.0
 11
70.52996432813971
 21
-180.6743352990296
 31
0.0
  0
LINE
  5
DD
330
70
100
AcDbEntity
  8
Capa 1
 62
    18
420
        0
370
     9
100
AcDbLine
 10
139.6376605802187
 20
-180.3083956842436
 30
0.0
 11
70.52996432813971
 21
-180.3083956842436
 31
0.0
  0
SPLINE
  5
DE
330
70
100
AcDbEntity
  8
Capa 1
 62
    18
420
        0
370
     9
100
AcDbSpline
210
0.0
220
0.0
230
1.0
 70
     8
 71
     3
 72
     8
 73
     4
 74
     0
 42
0.0000000001
 43
0.0000000001
 40
0.0
 40
0.0
 40
0.0
 40
0.0
 40
1.0
 40
1.0
 40
1.0
 40
1.0
 10
69.5978952248395
 20
-180.4181775686794
 30
0.0
 10
69.76287733751814
 20
-180.5373282343852
 30
0.0
 10
69.94485461508837
 20
-180.6239655538974
 30
0.0
 10
70.13594149243082
 20
-180.6743352990296
 30
0.0
  0
LINE
  5
DF
330
70
100
AcDbEntity
  8
Capa 1
 62
    18
420
        0
370
     9
100
AcDbLine
 10
68.81004813865117
 20
-180.4181775686794
 30
0.0
 11
69.5978952248395
 21
-180.4181775686794
 31
0.0
  0
LINE
  5
E0
330
70
100
AcDbEntity
  8
Capa 1
 62
    18
420
        0
370
     9
100
AcDbLine
 10
68.81004813865117
 20
-180.4181775686794
 30
0.0
 11
68.81004813865117
 21
-180.3083956842436
 31
0.0
  0
LINE
  5
E1
330
70
100
AcDbEntity
  8
Capa 1
 62
    18
420
        0
370
     9
100
AcDbLine
 10
70.13594149243082
 20
-180.6743352990296
 30
0.0
 11
70.52996432813971
 21
-180.6743352990296
 31
0.0
  0
LINE
  5
E2
330
70
100
AcDbEntity
  8
Capa 1
 62
    18
420
        0
370
     9
100
AcDbLine
 10
68.81004813865117
 20
-180.3083956842436
 30
0.0
 11
70.52996432813971
 21
-180.3083956842436
 31
0.0
  0
LINE
  5
E3
330
70
100
AcDbEntity
  8
Capa 1
 62
    18
420
        0
370
     9
100
AcDbLine
 10
139.6376605802187
 20
-225.6849079175404
 30
0.0
 11
139.6376605802187
 21
-225.3189683027551
 31
0.0
  0
LINE
  5
E4
330
70
100
AcDbEntity
  8
Capa 1
 62
    18
420
        0
370
     9
100
AcDbLine
 10
141.3575767697063
 20
-225.4287501871902
 30
0.0
 11
141.3575767697063
 21
-225.3189683027551
 31
0.0
  0
LINE
  5
E5
330
70
100
AcDbEntity
  8
Capa 1
 62
    18
420
        0
370
     9
100
AcDbLine
 10
141.3575767697063
 20
-225.4287501871902
 30
0.0
 11
140.569729683519
 21
-225.4287501871902
 31
0.0
  0
SPLINE
  5
E6
330
70
100
AcDbEntity
  8
Capa 1
 62
    18
420
        0
370
     9
100
AcDbSpline
210
0.0
220
0.0
230
1.0
 70
     8
 71
     3
 72
     8
 73
     4
 74
     0
 42
0.0000000001
 43
0.0000000001
 40
0.0
 40
0.0
 40
0.0
 40
0.0
 40
1.0
 40
1.0
 40
1.0
 40
1.0
 10
140.0316834159276
 20
-225.6849079175404
 30
0.0
 10
140.2227702932688
 20
-225.6345381724083
 30
0.0
 10
140.4047475708387
 20
-225.547900852898
 30
0.0
 10
140.569729683519
 20
-225.4287501871902
 30
0.0
  0
LINE
  5
E7
330
70
100
AcDbEntity
  8
Capa 1
 62
    18
420
        0
370
     9
100
AcDbLine
 10
140.0316834159276
 20
-225.6849079175404
 30
0.0
 11
139.6376605802187
 21
-225.6849079175404
 31
0.0
  0
LINE
  5
E8
330
70
100
AcDbEntity
  8
Capa 1
 62
    18
420
        0
370
     9
100
AcDbLine
 10
141.3575767697063
 20
-225.3189683027551
 30
0.0
 11
139.6376605802187
 21
-225.3189683027551
 31
0.0
  0
LINE
  5
E9
330
70
100
AcDbEntity
  8
Capa 1
 62
    18
420
        0
370
     9
100
AcDbLine
 10
70.52996432813971
 20
-225.6849079175404
 30
0.0
 11
70.52996432813971
 21
-225.3189683027551
 31
0.0
  0
LINE
  5
EA
330
70
100
AcDbEntity
  8
Capa 1
 62
    18
420
        0
370
     9
100
AcDbLine
 10
139.6376605802187
 20
-225.6849079175404
 30
0.0
 11
70.52996432813971
 21
-225.6849079175404
 31
0.0
  0
LINE
  5
EB
330
70
100
AcDbEntity
  8
Capa 1
 62
    18
420
        0
370
     9
100
AcDbLine
 10
139.6376605802187
 20
-225.3189683027551
 30
0.0
 11
70.52996432813971
 21
-225.3189683027551
 31
0.0
  0
SPLINE
  5
EC
330
70
100
AcDbEntity
  8
Capa 1
 62
    18
420
        0
370
     9
100
AcDbSpline
210
0.0
220
0.0
230
1.0
 70
     8
 71
     3
 72
     8
 73
     4
 74
     0
 42
0.0000000001
 43
0.0000000001
 40
0.0
 40
0.0
 40
0.0
 40
0.0
 40
1.0
 40
1.0
 40
1.0
 40
1.0
 10
69.5978952248395
 20
-225.4287501871902
 30
0.0
 10
69.76287733751814
 20
-225.547900852898
 30
0.0
 10
69.94485461508837
 20
-225.6345381724083
 30
0.0
 10
70.13594149243082
 20
-225.6849079175404
 30
0.0
  0
LINE
  5
ED
330
70
100
AcDbEntity
  8
Capa 1
 62
    18
420
        0
370
     9
100
AcDbLine
 10
68.81004813865117
 20
-225.4287501871902
 30
0.0
 11
69.5978952248395
 21
-225.4287501871902
 31
0.0
  0
LINE
  5
EE
330
70
100
AcDbEntity
  8
Capa 1
 62
    18
420
        0
370
     9
100
AcDbLine
 10
68.81004813865117
 20
-225.4287501871902
 30
0.0
 11
68.81004813865117
 21
-225.3189683027551
 31
0.0
  0
LINE
  5
EF
330
70
100
AcDbEntity
  8
Capa 1
 62
    18
420
        0
370
     9
100
AcDbLine
 10
70.13594149243082
 20
-225.6849079175404
 30
0.0
 11
70.52996432813971
 21
-225.6849079175404
 31
0.0
  0
LINE
  5
F0
330
70
100
AcDbEntity
  8
Capa 1
 62
    18
420
        0
370
     9
100
AcDbLine
 10
68.81004813865117
 20
-225.3189683027551
 30
0.0
 11
70.52996432813971
 21
-225.3189683027551
 31
0.0
  0
LINE
  5
F1
330
70
100
AcDbEntity
  8
Capa 1
 62
    18
420
        0
370
     9
100
AcDbLine
 10
140.0316834159276
 20
-203.1796216082841
 30
0.0
 11
139.6376605802187
 21
-203.1796216082841
 31
0.0
  0
LINE
  5
F2
330
70
100
AcDbEntity
  8
Capa 1
 62
    18
420
        0
370
     9
100
AcDbLine
 10
139.6376605802187
 20
-203.1796216082841
 30
0.0
 11
139.6376605802187
 21
-202.8136819934994
 31
0.0
  0
LINE
  5
F3
330
70
100
AcDbEntity
  8
Capa 1
 62
    18
420
        0
370
     9
100
AcDbLine
 10
141.3575767697063
 20
-202.9234638779338
 30
0.0
 11
141.3575767697063
 21
-202.8136819934994
 31
0.0
  0
LINE
  5
F4
330
70
100
AcDbEntity
  8
Capa 1
 62
    18
420
        0
370
     9
100
AcDbLine
 10
141.3575767697063
 20
-202.9234638779338
 30
0.0
 11
140.569729683519
 21
-202.9234638779338
 31
0.0
  0
SPLINE
  5
F5
330
70
100
AcDbEntity
  8
Capa 1
 62
    18
420
        0
370
     9
100
AcDbSpline
210
0.0
220
0.0
230
1.0
 70
     8
 71
     3
 72
     8
 73
     4
 74
     0
 42
0.0000000001
 43
0.0000000001
 40
0.0
 40
0.0
 40
0.0
 40
0.0
 40
1.0
 40
1.0
 40
1.0
 40
1.0
 10
140.0316834159276
 20
-203.1796216082841
 30
0.0
 10
140.2227702932688
 20
-203.1292518631538
 30
0.0
 10
140.4047475708387
 20
-203.042614543641
 30
0.0
 10
140.569729683519
 20
-202.9234638779338
 30
0.0
  0
LINE
  5
F6
330
70
100
AcDbEntity
  8
Capa 1
 62
    18
420
        0
370
     9
100
AcDbLine
 10
141.3575767697063
 20
-202.8136819934994
 30
0.0
 11
139.6376605802187
 21
-202.8136819934994
 31
0.0
  0
LINE
  5
F7
330
70
100
AcDbEntity
  8
Capa 1
 62
    18
420
        0
370
     9
100
AcDbLine
 10
70.52996432813971
 20
-203.1796216082841
 30
0.0
 11
70.52996432813971
 21
-202.8136819934994
 31
0.0
  0
LINE
  5
F8
330
70
100
AcDbEntity
  8
Capa 1
 62
    18
420
        0
370
     9
100
AcDbLine
 10
139.6376605802187
 20
-203.1796216082841
 30
0.0
 11
70.52996432813971
 21
-203.1796216082841
 31
0.0
  0
LINE
  5
F9
330
70
100
AcDbEntity
  8
Capa 1
 62
    18
420
        0
370
     9
100
AcDbLine
 10
139.6376605802187
 20
-202.8136819934994
 30
0.0
 11
70.52996432813971
 21
-202.8136819934994
 31
0.0
  0
SPLINE
  5
FA
330
70
100
AcDbEntity
  8
Capa 1
 62
    18
420
        0
370
     9
100
AcDbSpline
210
0.0
220
0.0
230
1.0
 70
     8
 71
     3
 72
     8
 73
     4
 74
     0
 42
0.0000000001
 43
0.0000000001
 40
0.0
 40
0.0
 40
0.0
 40
0.0
 40
1.0
 40
1.0
 40
1.0
 40
1.0
 10
69.5978952248395
 20
-202.9234638779338
 30
0.0
 10
69.76287733751814
 20
-203.042614543641
 30
0.0
 10
69.94485461508837
 20
-203.1292518631538
 30
0.0
 10
70.13594149243082
 20
-203.179621608286
 30
0.0
  0
LINE
  5
FB
330
70
100
AcDbEntity
  8
Capa 1
 62
    18
420
        0
370
     9
100
AcDbLine
 10
68.81004813865117
 20
-202.9234638779338
 30
0.0
 11
69.5978952248395
 21
-202.9234638779338
 31
0.0
  0
LINE
  5
FC
330
70
100
AcDbEntity
  8
Capa 1
 62
    18
420
        0
370
     9
100
AcDbLine
 10
68.81004813865117
 20
-202.9234638779338
 30
0.0
 11
68.81004813865117
 21
-202.8136819934994
 31
0.0
  0
LINE
  5
FD
330
70
100
AcDbEntity
  8
Capa 1
 62
    18
420
        0
370
     9
100
AcDbLine
 10
70.13594149243082
 20
-203.1796216082841
 30
0.0
 11
70.52996432813971
 21
-203.1796216082841
 31
0.0
  0
LINE
  5
FE
330
70
100
AcDbEntity
  8
Capa 1
 62
    18
420
        0
370
     9
100
AcDbLine
 10
68.81004813865117
 20
-202.8136819934994
 30
0.0
 11
70.52996432813971
 21
-202.8136819934994
 31
0.0
  0
INSERT
  5
100
330
70
100
AcDbEntity
  8
Capa 1
100
AcDbBlockReference
  2
Block_1
 10
0.0
 20
0.0
 30
0.0
  0
INSERT
  5
107
330
70
100
AcDbEntity
  8
Capa 1
100
AcDbBlockReference
  2
Block_2
 10
0.0
 20
0.0
 30
0.0
  0
INSERT
  5
10E
330
70
100
AcDbEntity
  8
Capa 1
100
AcDbBlockReference
  2
Block_3
 10
0.0
 20
0.0
 30
0.0
  0
MTEXT
  5
114
330
70
100
AcDbEntity
  8
Capa 1
100
AcDbMText
 10
146.820823929427
 20
-216.0232838991311
 30
0.0
 40
0.2
 41
0.0
 46
0.0
 71
     7
 72
     1
  1
\C18;\c0;\FArial Bold|b1|i0|c1;\H2.497667;\W1.000000;740
 11
0.0000000000000001
 21
1.0
 31
0.0
 73
     1
 44
1.0
  0
MTEXT
  5
115
330
70
100
AcDbEntity
  8
Capa 1
100
AcDbMText
 10
146.820823929427
 20
-255.3759206080429
 30
0.0
 40
0.2
 41
0.0
 46
0.0
 71
     7
 72
     1
  1
\C18;\c0;\FArial Bold|b1|i0|c1;\H2.497667;\W1.000000;110
 11
0.0000000000000001
 21
1.0
 31
0.0
 73
     1
 44
1.0
  0
MTEXT
  5
116
330
70
100
AcDbEntity
  8
Capa 1
100
AcDbMText
 10
93.15278312817945
 20
-268.8138600578084
 30
0.0
 40
0.2
 41
0.0
 46
0.0
 71
     7
 72
     1
  1
\C18;\c0;\FArial Bold|b1|i0|c1;\H2.497667;\W1.000000;600/800/1000
 73
     1
 44
1.0
  0
LINE
  5
117
330
70
100
AcDbEntity
  8
Capa 1
 62
    18
420
        0
370
     9
100
AcDbLine
 10
86.40200677663669
 20
-39.80939556935734
 30
0.0
 11
123.4081449409532
 21
-39.80939556935734
 31
0.0
  0
LINE
  5
118
330
70
100
AcDbEntity
  8
Capa 1
 62
    18
420
        0
370
     9
100
AcDbLine
 10
86.40200677663669
 20
-39.80939556935734
 30
0.0
 11
86.40200677663669
 21
-39.0573468727173
 31
0.0
  0
LINE
  5
119
330
70
100
AcDbEntity
  8
Capa 1
 62
    18
420
        0
370
     9
100
AcDbLine
 10
123.4081449409532
 20
-39.0573468727173
 30
0.0
 11
123.4081449409532
 21
-39.80939556935734
 31
0.0
  0
LINE
  5
11A
330
70
100
AcDbEntity
  8
Capa 1
 62
    18
420
        0
370
     9
100
AcDbLine
 10
86.40200677663669
 20
-38.96834694419625
 30
0.0
 11
123.4081449409532
 21
-38.96834694419625
 31
0.0
  0
LINE
  5
11B
330
70
100
AcDbEntity
  8
Capa 1
 62
    18
420
        0
370
     9
100
AcDbLine
 10
86.40200677663669
 20
-38.96834694419625
 30
0.0
 11
86.40200677663669
 21
-39.0573468727173
 31
0.0
  0
LINE
  5
11C
330
70
100
AcDbEntity
  8
Capa 1
 62
    18
420
        0
370
     9
100
AcDbLine
 10
123.4081449409532
 20
-39.0573468727173
 30
0.0
 11
123.4081449409532
 21
-38.96834694419625
 31
0.0
  0
LINE
  5
11D
330
70
100
AcDbEntity
  8
Capa 1
 62
    18
420
        0
370
     9
100
AcDbLine
 10
123.2279207710743
 20
-40.77059398612408
 30
0.0
 11
123.2279207710743
 21
-40.73910644218324
 31
0.0
  0
LINE
  5
11E
330
70
100
AcDbEntity
  8
Capa 1
 62
    18
420
        0
370
     9
100
AcDbLine
 10
123.2279207710743
 20
-39.88148543872551
 30
0.0
 11
123.2279207710743
 21
-40.73910644218324
 31
0.0
  0
LINE
  5
11F
330
70
100
AcDbEntity
  8
Capa 1
 62
    18
420
        0
370
     9
100
AcDbLine
 10
123.2279207710743
 20
-39.88148543872551
 30
0.0
 11
123.2279207710743
 21
-39.820846561902
 31
0.0
  0
LINE
  5
120
330
70
100
AcDbEntity
  8
Capa 1
 62
    18
420
        0
370
     9
100
AcDbLine
 10
86.58223094651523
 20
-39.820846561902
 30
0.0
 11
123.2279207710743
 21
-39.820846561902
 31
0.0
  0
LINE
  5
121
330
70
100
AcDbEntity
  8
Capa 1
 62
    18
420
        0
370
     9
100
AcDbLine
 10
86.58223094651523
 20
-39.820846561902
 30
0.0
 11
86.58223094651523
 21
-39.88148543872551
 31
0.0
  0
LINE
  5
122
330
70
100
AcDbEntity
  8
Capa 1
 62
    18
420
        0
370
     9
100
AcDbLine
 10
86.58223094651523
 20
-40.73910644218324
 30
0.0
 11
86.58223094651523
 21
-39.88148543872551
 31
0.0
  0
LINE
  5
123
330
70
100
AcDbEntity
  8
Capa 1
 62
    18
420
        0
370
     9
100
AcDbLine
 10
86.58223094651523
 20
-40.73910644218324
 30
0.0
 11
86.58223094651523
 21
-40.77059398612408
 31
0.0
  0
LINE
  5
124
330
70
100
AcDbEntity
  8
Capa 1
 62
    18
420
        0
370
     9
100
AcDbLine
 10
123.2279207710743
 20
-40.77059398612408
 30
0.0
 11
86.58223094651523
 21
-40.77059398612408
 31
0.0
  0
SPLINE
  5
125
330
70
100
AcDbEntity
  8
Capa 1
 62
    18
420
        0
370
     9
100
AcDbSpline
210
0.0
220
0.0
230
1.0
 70
     8
 71
     3
 72
    11
 73
     7
 74
     0
 42
0.0000000001
 43
0.0000000001
 40
0.0
 40
0.0
 40
0.0
 40
0.0
 40
1.0
 40
1.0
 40
1.0
 40
2.0
 40
2.0
 40
2.0
 40
2.0
 10
104.4244766592514
 20
-41.91201707362542
 30
0.0
 10
104.4244766592514
 20
-42.17744468231422
 30
0.0
 10
104.6396482501066
 20
-42.39261627316874
 30
0.0
 10
104.9050758587948
 20
-42.39261627316874
 30
0.0
 10
105.1705034674842
 20
-42.39261627316874
 30
0.0
 10
105.3856750583381
 20
-42.17744468231422
 30
0.0
 10
105.3856750583381
 20
-41.91201707362542
 30
0.0
  0
LINE
  5
126
330
70
100
AcDbEntity
  8
Capa 1
 62
    18
420
        0
370
     9
100
AcDbLine
 10
105.3856750811653
 20
-41.91201707631157
 30
0.0
 11
105.3856750811653
 21
-40.77059398612408
 31
0.0
  0
LINE
  5
127
330
70
100
AcDbEntity
  8
Capa 1
 62
    18
420
        0
370
     9
100
AcDbLine
 10
104.4244766364243
 20
-40.77059398612408
 30
0.0
 11
104.4244766364243
 21
-41.91201707631157
 31
0.0
  0
LINE
  5
128
330
70
100
AcDbEntity
  8
Capa 1
 62
    18
420
        0
370
     9
100
AcDbLine
 10
107.1278471853296
 20
-42.87321552105255
 30
0.0
 11
107.18792198322
 21
-42.87321552105255
 31
0.0
  0
LINE
  5
129
330
70
100
AcDbEntity
  8
Capa 1
 62
    18
420
        0
370
     9
100
AcDbLine
 10
107.0677721636401
 20
-42.87321552105255
 30
0.0
 11
107.0677721636401
 21
-40.78090121100319
 31
0.0
  0
SPLINE
  5
12A
330
70
100
AcDbEntity
  8
Capa 1
 62
    18
420
        0
370
     9
100
AcDbSpline
210
0.0
220
0.0
230
1.0
 70
     8
 71
     3
 72
    20
 73
    16
 74
     0
 42
0.0000000001
 43
0.0000000001
 40
0.0
 40
0.0
 40
0.0
 40
0.0
 40
1.0
 40
1.0
 40
1.0
 40
2.0
 40
2.0
 40
2.0
 40
3.0
 40
3.0
 40
3.0
 40
4.0
 40
4.0
 40
4.0
 40
5.0
 40
5.0
 40
5.0
 40
5.0
 10
107.0677721636401
 20
-40.78090121100319
 30
0.0
 10
107.0683583782645
 20
-40.77887004822971
 30
0.0
 10
107.0689445928889
 20
-40.77683888545624
 30
0.0
 10
107.0708710729719
 20
-40.77532652555762
 30
0.0
 10
107.0728004910291
 20
-40.77381185923865
 30
0.0
 10
107.0760742655995
 20
-40.77281757939805
 30
0.0
 10
107.08019398515
 20
-40.77213185932389
 30
0.0
 10
107.0841992849388
 20
-40.77146518421819
 30
0.0
 10
107.089004192244
 20
-40.77109016721478
 30
0.0
 10
107.094434600344
 20
-40.77087997000261
 30
0.0
 10
107.0999227974172
 20
-40.77066753592641
 30
0.0
 10
107.1060498789506
 20
-40.77062344824416
 30
0.0
 10
107.1124432762298
 20
-40.77060517594616
 30
0.0
 10
107.1174682375929
 20
-40.77059081463118
 30
0.0
 10
107.1226577114606
 20
-40.7705924003773
 30
0.0
 10
107.1278471853296
 20
-40.77059398612408
 30
0.0
  0
LINE
  5
12B
330
70
100
AcDbEntity
  8
Capa 1
 62
    18
420
        0
370
     9
100
AcDbLine
 10
107.1278471853296
 20
-42.87321552105255
 30
0.0
 11
107.0677721636401
 21
-42.87321552105255
 31
0.0
  0
LINE
  5
12C
330
70
100
AcDbEntity
  8
Capa 1
 62
    18
420
        0
370
     9
100
AcDbLine
 10
103.2830535182626
 20
-42.87321552105255
 30
0.0
 11
103.2229786084723
 21
-42.87321552105255
 31
0.0
  0
LINE
  5
12D
330
70
100
AcDbEntity
  8
Capa 1
 62
    18
420
        0
370
     9
100
AcDbLine
 10
103.2830535182626
 20
-42.87321552105255
 30
0.0
 11
103.331113468474
 21
-42.87321552105255
 31
0.0
  0
LINE
  5
12E
330
70
100
AcDbEntity
  8
Capa 1
 62
    18
420
        0
370
     9
100
AcDbLine
 10
103.331113468474
 20
-42.87321552105255
 30
0.0
 11
103.3911883782639
 21
-42.87321552105255
 31
0.0
  0
LINE
  5
12F
330
70
100
AcDbEntity
  8
Capa 1
 62
    18
420
        0
370
     9
100
AcDbLine
 10
104.2562669225818
 20
-42.87321552105255
 30
0.0
 11
103.3911883782639
 21
-42.87321552105255
 31
0.0
  0
LINE
  5
130
330
70
100
AcDbEntity
  8
Capa 1
 62
    18
420
        0
370
     9
100
AcDbLine
 10
104.2562669225818
 20
-42.87321552105255
 30
0.0
 11
104.3163418323717
 21
-42.87321552105255
 31
0.0
  0
LINE
  5
131
330
70
100
AcDbEntity
  8
Capa 1
 62
    18
420
        0
370
     9
100
AcDbLine
 10
104.3644017825834
 20
-42.87321552105255
 30
0.0
 11
104.3163418323717
 21
-42.87321552105255
 31
0.0
  0
LINE
  5
132
330
70
100
AcDbEntity
  8
Capa 1
 62
    18
420
        0
370
     9
100
AcDbLine
 10
104.3644017825834
 20
-42.87321552105255
 30
0.0
 11
104.4244766364243
 21
-42.87321552105255
 31
0.0
  0
LINE
  5
133
330
70
100
AcDbEntity
  8
Capa 1
 62
    18
420
        0
370
     9
100
AcDbLine
 10
105.3856750811653
 20
-42.87321552105255
 30
0.0
 11
104.4244766364243
 21
-42.87321552105255
 31
0.0
  0
LINE
  5
134
330
70
100
AcDbEntity
  8
Capa 1
 62
    18
420
        0
370
     9
100
AcDbLine
 10
105.3856750811653
 20
-42.87321552105255
 30
0.0
 11
105.4457499350061
 21
-42.87321552105255
 31
0.0
  0
LINE
  5
135
330
70
100
AcDbEntity
  8
Capa 1
 62
    18
420
        0
370
     9
100
AcDbLine
 10
105.4938098852179
 20
-42.87321552105255
 30
0.0
 11
105.4457499350061
 21
-42.87321552105255
 31
0.0
  0
LINE
  5
136
330
70
100
AcDbEntity
  8
Capa 1
 62
    18
420
        0
370
     9
100
AcDbLine
 10
105.4938098852179
 20
-42.87321552105255
 30
0.0
 11
105.5538847950078
 21
-42.87321552105255
 31
0.0
  0
LINE
  5
137
330
70
100
AcDbEntity
  8
Capa 1
 62
    18
420
        0
370
     9
100
AcDbLine
 10
106.418963339326
 20
-42.87321552105255
 30
0.0
 11
105.5538847950078
 21
-42.87321552105255
 31
0.0
  0
LINE
  5
138
330
70
100
AcDbEntity
  8
Capa 1
 62
    18
420
        0
370
     9
100
AcDbLine
 10
106.418963339326
 20
-42.87321552105255
 30
0.0
 11
106.4790382491159
 21
-42.87321552105255
 31
0.0
  0
LINE
  5
139
330
70
100
AcDbEntity
  8
Capa 1
 62
    18
420
        0
370
     9
100
AcDbLine
 10
106.4790382491159
 20
-42.87321552105255
 30
0.0
 11
106.527098199327
 21
-42.87321552105255
 31
0.0
  0
LINE
  5
13A
330
70
100
AcDbEntity
  8
Capa 1
 62
    18
420
        0
370
     9
100
AcDbLine
 10
106.5871731091169
 20
-42.87321552105255
 30
0.0
 11
106.527098199327
 21
-42.87321552105255
 31
0.0
  0
LINE
  5
13B
330
70
100
AcDbEntity
  8
Capa 1
 62
    18
420
        0
370
     9
100
AcDbLine
 10
107.0677721636401
 20
-42.87321552105255
 30
0.0
 11
106.5871731091169
 21
-42.87321552105255
 31
0.0
  0
LINE
  5
13C
330
70
100
AcDbEntity
  8
Capa 1
 62
    18
420
        0
370
     9
100
AcDbLine
 10
107.18792198322
 20
-42.87321552105255
 30
0.0
 11
107.2479970049088
 21
-42.87321552105255
 31
0.0
  0
LINE
  5
13D
330
70
100
AcDbEntity
  8
Capa 1
 62
    18
420
        0
370
     9
100
AcDbLine
 10
102.6222297343692
 20
-42.87321552105255
 30
0.0
 11
102.5621547126811
 21
-42.87321552105255
 31
0.0
  0
LINE
  5
13E
330
70
100
AcDbEntity
  8
Capa 1
 62
    18
420
        0
370
     9
100
AcDbLine
 10
102.6222297343692
 20
-42.87321552105255
 30
0.0
 11
102.682304532261
 21
-42.87321552105255
 31
0.0
  0
LINE
  5
13F
330
70
100
AcDbEntity
  8
Capa 1
 62
    18
420
        0
370
     9
100
AcDbLine
 10
102.7423795539494
 20
-42.87321552105255
 30
0.0
 11
102.682304532261
 21
-42.87321552105255
 31
0.0
  0
LINE
  5
140
330
70
100
AcDbEntity
  8
Capa 1
 62
    18
420
        0
370
     9
100
AcDbLine
 10
103.2229786084723
 20
-42.87321552105255
 30
0.0
 11
102.7423795539494
 21
-42.87321552105255
 31
0.0
  0
LINE
  5
141
330
70
100
AcDbEntity
  8
Capa 1
 62
    18
420
        0
370
     9
100
AcDbLine
 10
107.2479970049088
 20
-40.77059398612408
 30
0.0
 11
107.2479970049088
 21
-42.87321552105255
 31
0.0
  0
LINE
  5
142
330
70
100
AcDbEntity
  8
Capa 1
 62
    18
420
        0
370
     9
100
AcDbLine
 10
106.5871731091169
 20
-40.78090121100319
 30
0.0
 11
106.5871731091169
 21
-42.87321552105255
 31
0.0
  0
SPLINE
  5
143
330
70
100
AcDbEntity
  8
Capa 1
 62
    18
420
        0
370
     9
100
AcDbSpline
210
0.0
220
0.0
230
1.0
 70
     8
 71
     3
 72
    20
 73
    16
 74
     0
 42
0.0000000001
 43
0.0000000001
 40
0.0
 40
0.0
 40
0.0
 40
0.0
 40
1.0
 40
1.0
 40
1.0
 40
2.0
 40
2.0
 40
2.0
 40
3.0
 40
3.0
 40
3.0
 40
4.0
 40
4.0
 40
4.0
 40
5.0
 40
5.0
 40
5.0
 40
5.0
 10
106.527098199327
 20
-40.77059398612408
 30
0.0
 10
106.533845186689
 20
-40.77058814863091
 30
0.0
 10
106.5405921740497
 20
-40.7705823111371
 30
0.0
 10
106.546964161885
 20
-40.77062568129457
 30
0.0
 10
106.553336768766
 20
-40.77066905566673
 30
0.0
 10
106.5593343032528
 20
-40.77076164725021
 30
0.0
 10
106.5645928314129
 20
-40.77107341405134
 30
0.0
 10
106.56982564849
 20
-40.77138365649833
 30
0.0
 10
106.5743266681778
 20
-40.77191093612831
 30
0.0
 10
106.5779130837392
 20
-40.77278713530581
 30
0.0
 10
106.5814319844512
 20
-40.77364683989315
 30
0.0
 10
106.5840703920528
 20
-40.77484245074816
 30
0.0
 10
106.5854569261022
 20
-40.77651550010491
 30
0.0
 10
106.586514894643
 20
-40.77779208872253
 30
0.0
 10
106.5868440018803
 20
-40.77934664986286
 30
0.0
 10
106.5871731091169
 20
-40.78090121100319
 30
0.0
  0
LINE
  5
144
330
70
100
AcDbEntity
  8
Capa 1
 62
    18
420
        0
370
     9
100
AcDbLine
 10
106.418963339326
 20
-42.87321552105255
 30
0.0
 11
106.418963339326
 21
-40.78090121100319
 31
0.0
  0
SPLINE
  5
145
330
70
100
AcDbEntity
  8
Capa 1
 62
    18
420
        0
370
     9
100
AcDbSpline
210
0.0
220
0.0
230
1.0
 70
     8
 71
     3
 72
    20
 73
    16
 74
     0
 42
0.0000000001
 43
0.0000000001
 40
0.0
 40
0.0
 40
0.0
 40
0.0
 40
1.0
 40
1.0
 40
1.0
 40
2.0
 40
2.0
 40
2.0
 40
3.0
 40
3.0
 40
3.0
 40
4.0
 40
4.0
 40
4.0
 40
5.0
 40
5.0
 40
5.0
 40
5.0
 10
106.418963339326
 20
-40.78090121100319
 30
0.0
 10
106.4195495089403
 20
-40.77887004812383
 30
0.0
 10
106.4201356785553
 20
-40.77683888524448
 30
0.0
 10
106.4220621367589
 20
-40.77532652555762
 30
0.0
 10
106.4239915345621
 20
-40.77381185814841
 30
0.0
 10
106.4272653143907
 20
-40.77281757843101
 30
0.0
 10
106.4313850489377
 20
-40.77213185932389
 30
0.0
 10
106.4353903799939
 20
-40.77146518237973
 30
0.0
 10
106.4401953344351
 20
-40.77109016676624
 30
0.0
 10
106.4456257760286
 20
-40.77087997000197
 30
0.0
 10
106.4511139840864
 20
-40.77066753726435
 30
0.0
 10
106.457241057347
 20
-40.77062344855539
 30
0.0
 10
106.4636344519157
 20
-40.77060517594616
 30
0.0
 10
106.4686593752555
 20
-40.77059081448871
 30
0.0
 10
106.4738488121857
 20
-40.77059240030608
 30
0.0
 10
106.4790382491159
 20
-40.77059398612408
 30
0.0
  0
SPLINE
  5
146
330
70
100
AcDbEntity
  8
Capa 1
 62
    18
420
        0
370
     9
100
AcDbSpline
210
0.0
220
0.0
230
1.0
 70
     8
 71
     3
 72
    20
 73
    16
 74
     0
 42
0.0000000001
 43
0.0000000001
 40
0.0
 40
0.0
 40
0.0
 40
0.0
 40
1.0
 40
1.0
 40
1.0
 40
2.0
 40
2.0
 40
2.0
 40
3.0
 40
3.0
 40
3.0
 40
4.0
 40
4.0
 40
4.0
 40
5.0
 40
5.0
 40
5.0
 40
5.0
 10
105.5538847950078
 20
-40.78090121100319
 30
0.0
 10
105.5532986199794
 20
-40.77887004852361
 30
0.0
 10
105.5527124449517
 20
-40.77683888604403
 30
0.0
 10
105.5507859975742
 20
-40.77532652555762
 30
0.0
 10
105.5488566131016
 20
-40.77381185930025
 30
0.0
 10
105.5455828663585
 20
-40.7728175781923
 30
0.0
 10
105.5414631413452
 20
-40.77213185932389
 30
0.0
 10
105.5374578060512
 20
-40.77146518036415
 30
0.0
 10
105.5326528197175
 20
-40.77109016624389
 30
0.0
 10
105.5272223583045
 20
-40.77087997000261
 30
0.0
 10
105.5217341416505
 20
-40.77066753823459
 30
0.0
 10
105.5156070747877
 20
-40.77062344880437
 30
0.0
 10
105.5092136824181
 20
-40.77060517594616
 30
0.0
 10
105.504188760807
 20
-40.77059081429363
 30
0.0
 10
105.4989993230124
 20
-40.77059240020918
 30
0.0
 10
105.4938098852179
 20
-40.77059398612408
 30
0.0
  0
LINE
  5
147
330
70
100
AcDbEntity
  8
Capa 1
 62
    18
420
        0
370
     9
100
AcDbLine
 10
105.5538847950078
 20
-42.87321552105255
 30
0.0
 11
105.5538847950078
 21
-40.78090121100319
 31
0.0
  0
LINE
  5
148
330
70
100
AcDbEntity
  8
Capa 1
 62
    18
420
        0
370
     9
100
AcDbLine
 10
105.3856750811653
 20
-42.3478811243609
 30
0.0
 11
105.3856750811653
 21
-42.87321552105255
 31
0.0
  0
SPLINE
  5
149
330
70
100
AcDbEntity
  8
Capa 1
 62
    18
420
        0
370
     9
100
AcDbSpline
210
0.0
220
0.0
230
1.0
 70
     8
 71
     3
 72
    11
 73
     7
 74
     0
 42
0.0000000001
 43
0.0000000001
 40
0.0
 40
0.0
 40
0.0
 40
0.0
 40
1.0
 40
1.0
 40
1.0
 40
2.0
 40
2.0
 40
2.0
 40
2.0
 10
104.4244766592514
 20
-42.34788106992493
 30
0.0
 10
104.6651976974077
 20
-42.61330867861373
 30
0.0
 10
105.0755122464055
 20
-42.63333731132504
 30
0.0
 10
105.3409398550936
 20
-42.39261627316939
 30
0.0
 10
105.3565701690991
 20
-42.37844086228216
 30
0.0
 10
105.3714996474509
 20
-42.36351138392977
 30
0.0
 10
105.3856750583388
 20
-42.34788106992493
 30
0.0
  0
LINE
  5
14A
330
70
100
AcDbEntity
  8
Capa 1
 62
    18
420
        0
370
     9
100
AcDbLine
 10
104.2562669225818
 20
-40.78090121100319
 30
0.0
 11
104.2562669225818
 21
-42.87321552105255
 31
0.0
  0
SPLINE
  5
14B
330
70
100
AcDbEntity
  8
Capa 1
 62
    18
420
        0
370
     9
100
AcDbSpline
210
0.0
220
0.0
230
1.0
 70
     8
 71
     3
 72
    20
 73
    16
 74
     0
 42
0.0000000001
 43
0.0000000001
 40
0.0
 40
0.0
 40
0.0
 40
0.0
 40
1.0
 40
1.0
 40
1.0
 40
2.0
 40
2.0
 40
2.0
 40
3.0
 40
3.0
 40
3.0
 40
4.0
 40
4.0
 40
4.0
 40
5.0
 40
5.0
 40
5.0
 40
5.0
 10
104.3163418323717
 20
-40.77059398612408
 30
0.0
 10
104.3095948446767
 20
-40.77058814856032
 30
0.0
 10
104.3028478569816
 20
-40.77058231099657
 30
0.0
 10
104.2964758698138
 20
-40.77062568129522
 30
0.0
 10
104.2901032636007
 20
-40.77066905580662
 30
0.0
 10
104.284105730781
 20
-40.77076164774303
 30
0.0
 10
104.2788472002858
 20
-40.77107341405134
 30
0.0
 10
104.2736143711891
 20
-40.77138365658304
 30
0.0
 10
104.2691133382296
 20
-40.77191093626563
 30
0.0
 10
104.265526892011
 20
-40.77278713530581
 30
0.0
 10
104.2620079639036
 20
-40.77364683910257
 30
0.0
 10
104.2593695108261
 20
-40.7748424484714
 30
0.0
 10
104.2579829936983
 20
-40.77651550010491
 30
0.0
 10
104.2569250401251
 20
-40.77779208798137
 30
0.0
 10
104.2565959813534
 20
-40.7793466494926
 30
0.0
 10
104.2562669225818
 20
-40.78090121100319
 30
0.0
  0
LINE
  5
14C
330
70
100
AcDbEntity
  8
Capa 1
 62
    18
420
        0
370
     9
100
AcDbLine
 10
104.4244766364243
 20
-42.87321552105255
 30
0.0
 11
104.4244766364243
 21
-42.3478811243609
 31
0.0
  0
LINE
  5
14D
330
70
100
AcDbEntity
  8
Capa 1
 62
    18
420
        0
370
     9
100
AcDbLine
 10
103.2229786084723
 20
-42.87321552105255
 30
0.0
 11
103.2229786084723
 21
-40.78090121100319
 31
0.0
  0
SPLINE
  5
14E
330
70
100
AcDbEntity
  8
Capa 1
 62
    18
420
        0
370
     9
100
AcDbSpline
210
0.0
220
0.0
230
1.0
 70
     8
 71
     3
 72
    20
 73
    16
 74
     0
 42
0.0000000001
 43
0.0000000001
 40
0.0
 40
0.0
 40
0.0
 40
0.0
 40
1.0
 40
1.0
 40
1.0
 40
2.0
 40
2.0
 40
2.0
 40
3.0
 40
3.0
 40
3.0
 40
4.0
 40
4.0
 40
4.0
 40
5.0
 40
5.0
 40
5.0
 40
5.0
 10
103.2229786084723
 20
-40.78090121100319
 30
0.0
 10
103.2235647779692
 20
-40.77887004812255
 30
0.0
 10
103.2241509474664
 20
-40.77683888524255
 30
0.0
 10
103.2260774059056
 20
-40.77532652555762
 30
0.0
 10
103.2280068039446
 20
-40.77381185815162
 30
0.0
 10
103.2312805843635
 20
-40.77281757844128
 30
0.0
 10
103.235400318084
 20
-40.77213185932389
 30
0.0
 10
103.2394056483365
 20
-40.7714651823701
 30
0.0
 10
103.2442106006351
 20
-40.77109016673158
 30
0.0
 10
103.2496410451755
 20
-40.77087997000261
 30
0.0
 10
103.255129284522
 20
-40.77066753620361
 30
0.0
 10
103.2612564008614
 20
-40.77062344823197
 30
0.0
 10
103.2676498329602
 20
-40.77060517594616
 30
0.0
 10
103.2726747239837
 20
-40.77059081491994
 30
0.0
 10
103.2778641211228
 20
-40.77059240052233
 30
0.0
 10
103.2830535182626
 20
-40.77059398612408
 30
0.0
  0
LINE
  5
14F
330
70
100
AcDbEntity
  8
Capa 1
 62
    18
420
        0
370
     9
100
AcDbLine
 10
103.3911883782639
 20
-40.78090121100319
 30
0.0
 11
103.3911883782639
 21
-42.87321552105255
 31
0.0
  0
SPLINE
  5
150
330
70
100
AcDbEntity
  8
Capa 1
 62
    18
420
        0
370
     9
100
AcDbSpline
210
0.0
220
0.0
230
1.0
 70
     8
 71
     3
 72
    20
 73
    16
 74
     0
 42
0.0000000001
 43
0.0000000001
 40
0.0
 40
0.0
 40
0.0
 40
0.0
 40
1.0
 40
1.0
 40
1.0
 40
2.0
 40
2.0
 40
2.0
 40
3.0
 40
3.0
 40
3.0
 40
4.0
 40
4.0
 40
4.0
 40
5.0
 40
5.0
 40
5.0
 40
5.0
 10
103.331113468474
 20
-40.77059398612408
 30
0.0
 10
103.3378604576273
 20
-40.77058814839861
 30
0.0
 10
103.3446074467802
 20
-40.7705823106725
 30
0.0
 10
103.3509794310319
 20
-40.77062568129522
 30
0.0
 10
103.3573520343281
 20
-40.77066905613132
 30
0.0
 10
103.3633495598546
 20
-40.77076164887627
 30
0.0
 10
103.3686081005599
 20
-40.77107341405198
 30
0.0
 10
103.3738409495127
 20
-40.77138365603054
 30
0.0
 10
103.3783420169487
 20
-40.77191093404087
 30
0.0
 10
103.3819284647841
 20
-40.77278713530581
 30
0.0
 10
103.3854473841214
 20
-40.77364683875477
 30
0.0
 10
103.3880858019773
 20
-40.77484244954947
 30
0.0
 10
103.389472307147
 20
-40.77651550010491
 30
0.0
 10
103.3905302527504
 20
-40.77779208854991
 30
0.0
 10
103.390859315507
 20
-40.77934664977624
 30
0.0
 10
103.3911883782639
 20
-40.78090121100319
 30
0.0
  0
LINE
  5
151
330
70
100
AcDbEntity
  8
Capa 1
 62
    18
420
        0
370
     9
100
AcDbLine
 10
102.5621547126811
 20
-42.87321552105255
 30
0.0
 11
102.5621547126811
 21
-40.77059398612408
 31
0.0
  0
SPLINE
  5
152
330
70
100
AcDbEntity
  8
Capa 1
 62
    18
420
        0
370
     9
100
AcDbSpline
210
0.0
220
0.0
230
1.0
 70
     8
 71
     3
 72
    20
 73
    16
 74
     0
 42
0.0000000001
 43
0.0000000001
 40
0.0
 40
0.0
 40
0.0
 40
0.0
 40
1.0
 40
1.0
 40
1.0
 40
2.0
 40
2.0
 40
2.0
 40
3.0
 40
3.0
 40
3.0
 40
4.0
 40
4.0
 40
4.0
 40
5.0
 40
5.0
 40
5.0
 40
5.0
 10
102.7423795539494
 20
-40.78090121100319
 30
0.0
 10
102.7417933393247
 20
-40.77887004822971
 30
0.0
 10
102.7412071247006
 20
-40.77683888545624
 30
0.0
 10
102.7392806446176
 20
-40.77532652555762
 30
0.0
 10
102.7373512265605
 20
-40.77381185923865
 30
0.0
 10
102.73407745199
 20
-40.77281757939805
 30
0.0
 10
102.7299577324392
 20
-40.77213185932389
 30
0.0
 10
102.725952432651
 20
-40.77146518421819
 30
0.0
 10
102.7211475253459
 20
-40.77109016721478
 30
0.0
 10
102.7157171172458
 20
-40.77087997000261
 30
0.0
 10
102.7102289201726
 20
-40.77066753592641
 30
0.0
 10
102.7041018386393
 20
-40.77062344824416
 30
0.0
 10
102.6977084413594
 20
-40.77060517594616
 30
0.0
 10
102.6926834799967
 20
-40.77059081463118
 30
0.0
 10
102.6874940061287
 20
-40.7705924003773
 30
0.0
 10
102.682304532261
 20
-40.77059398612408
 30
0.0
  0
LINE
  5
153
330
70
100
AcDbEntity
  8
Capa 1
 62
    18
420
        0
370
     9
100
AcDbLine
 10
102.7423795539494
 20
-40.78090121100319
 30
0.0
 11
102.7423795539494
 21
-42.87321552105255
 31
0.0
  0
SPLINE
  5
154
330
70
100
AcDbEntity
  8
Capa 1
 62
    18
420
        0
370
     9
100
AcDbSpline
210
0.0
220
0.0
230
1.0
 70
     8
 71
     3
 72
    11
 73
     7
 74
     0
 42
0.0000000001
 43
0.0000000001
 40
0.0
 40
0.0
 40
0.0
 40
0.0
 40
1.0
 40
1.0
 40
1.0
 40
2.0
 40
2.0
 40
2.0
 40
2.0
 10
106.5871730571971
 20
-42.39261627316874
 30
0.0
 10
106.5871730571971
 20
-42.52533007751379
 30
0.0
 10
106.6947588526243
 20
-42.63291587294105
 30
0.0
 10
106.8274726569681
 20
-42.63291587294105
 30
0.0
 10
106.9601864613125
 20
-42.63291587294105
 30
0.0
 10
107.0677722567404
 20
-42.52533007751379
 30
0.0
 10
107.0677722567404
 20
-42.39261627316874
 30
0.0
  0
SPLINE
  5
155
330
70
100
AcDbEntity
  8
Capa 1
 62
    18
420
        0
370
     9
100
AcDbSpline
210
0.0
220
0.0
230
1.0
 70
     8
 71
     3
 72
    11
 73
     7
 74
     0
 42
0.0000000001
 43
0.0000000001
 40
0.0
 40
0.0
 40
0.0
 40
0.0
 40
1.0
 40
1.0
 40
1.0
 40
2.0
 40
2.0
 40
2.0
 40
2.0
 10
102.7423794608498
 20
-42.39261627316874
 30
0.0
 10
102.7423794608498
 20
-42.52533007751379
 30
0.0
 10
102.8499652562771
 20
-42.63291587294105
 30
0.0
 10
102.9826790606218
 20
-42.63291587294105
 30
0.0
 10
103.1153928649659
 20
-42.63291587294105
 30
0.0
 10
103.2229786603931
 20
-42.52533007751379
 30
0.0
 10
103.2229786603931
 20
-42.39261627316874
 30
0.0
  0
SPLINE
  5
156
330
70
100
AcDbEntity
  8
Capa 1
 62
    18
420
        0
370
     9
100
AcDbSpline
210
0.0
220
0.0
230
1.0
 70
     8
 71
     3
 72
    11
 73
     7
 74
     0
 42
0.0000000001
 43
0.0000000001
 40
0.0
 40
0.0
 40
0.0
 40
0.0
 40
1.0
 40
1.0
 40
1.0
 40
2.0
 40
2.0
 40
2.0
 40
2.0
 10
107.0677722567404
 20
-41.91201707362542
 30
0.0
 10
107.0677722567404
 20
-41.77930326928166
 30
0.0
 10
106.9601864613125
 20
-41.6717174738544
 30
0.0
 10
106.8274726569681
 20
-41.6717174738544
 30
0.0
 10
106.6947588526243
 20
-41.6717174738544
 30
0.0
 10
106.5871730571971
 20
-41.77930326928166
 30
0.0
 10
106.5871730571971
 20
-41.91201707362542
 30
0.0
  0
SPLINE
  5
157
330
70
100
AcDbEntity
  8
Capa 1
 62
    18
420
        0
370
     9
100
AcDbSpline
210
0.0
220
0.0
230
1.0
 70
     8
 71
     3
 72
    11
 73
     7
 74
     0
 42
0.0000000001
 43
0.0000000001
 40
0.0
 40
0.0
 40
0.0
 40
0.0
 40
1.0
 40
1.0
 40
1.0
 40
2.0
 40
2.0
 40
2.0
 40
2.0
 10
103.2229786603931
 20
-41.91201707362542
 30
0.0
 10
103.2229786603931
 20
-41.77930326928166
 30
0.0
 10
103.1153928649659
 20
-41.6717174738544
 30
0.0
 10
102.9826790606218
 20
-41.6717174738544
 30
0.0
 10
102.8499652562771
 20
-41.6717174738544
 30
0.0
 10
102.7423794608498
 20
-41.77930326928166
 30
0.0
 10
102.7423794608498
 20
-41.91201707362542
 30
0.0
  0
LINE
  5
158
330
70
100
AcDbEntity
  8
Capa 1
 62
    18
420
        0
370
     9
100
AcDbLine
 10
86.40200677663669
 20
-39.88148543872551
 30
0.0
 11
86.40200677663669
 21
-40.73910644218324
 31
0.0
  0
LINE
  5
159
330
70
100
AcDbEntity
  8
Capa 1
 62
    18
420
        0
370
     9
100
AcDbLine
 10
86.40200677663669
 20
-39.820846561902
 30
0.0
 11
86.58223094651523
 21
-39.820846561902
 31
0.0
  0
LINE
  5
15A
330
70
100
AcDbEntity
  8
Capa 1
 62
    18
420
        0
370
     9
100
AcDbLine
 10
86.40200677663669
 20
-39.88148543872551
 30
0.0
 11
86.40200677663669
 21
-39.820846561902
 31
0.0
  0
LINE
  5
15B
330
70
100
AcDbEntity
  8
Capa 1
 62
    18
420
        0
370
     9
100
AcDbLine
 10
86.58223094651523
 20
-40.77059398612408
 30
0.0
 11
86.40200677663669
 21
-40.77059398612408
 31
0.0
  0
LINE
  5
15C
330
70
100
AcDbEntity
  8
Capa 1
 62
    18
420
        0
370
     9
100
AcDbLine
 10
86.40200677663669
 20
-40.77059398612408
 30
0.0
 11
86.40200677663669
 21
-40.73910644218324
 31
0.0
  0
LINE
  5
15D
330
70
100
AcDbEntity
  8
Capa 1
 62
    18
420
        0
370
     9
100
AcDbLine
 10
123.4081449409532
 20
-40.73910644218324
 30
0.0
 11
123.4081449409532
 21
-39.88148543872551
 31
0.0
  0
LINE
  5
15E
330
70
100
AcDbEntity
  8
Capa 1
 62
    18
420
        0
370
     9
100
AcDbLine
 10
123.2279207710743
 20
-39.820846561902
 30
0.0
 11
123.4081449409532
 21
-39.820846561902
 31
0.0
  0
LINE
  5
15F
330
70
100
AcDbEntity
  8
Capa 1
 62
    18
420
        0
370
     9
100
AcDbLine
 10
123.4081449409532
 20
-39.820846561902
 30
0.0
 11
123.4081449409532
 21
-39.88148543872551
 31
0.0
  0
LINE
  5
160
330
70
100
AcDbEntity
  8
Capa 1
 62
    18
420
        0
370
     9
100
AcDbLine
 10
123.4081449409532
 20
-40.77059398612408
 30
0.0
 11
123.2279207710743
 21
-40.77059398612408
 31
0.0
  0
LINE
  5
161
330
70
100
AcDbEntity
  8
Capa 1
 62
    18
420
        0
370
     9
100
AcDbLine
 10
123.4081449409532
 20
-40.73910644218324
 30
0.0
 11
123.4081449409532
 21
-40.77059398612408
 31
0.0
  0
LINE
  5
162
330
70
100
AcDbEntity
  8
Capa 1
 62
    18
420
        0
370
     9
100
AcDbLine
 10
86.40200677663669
 20
-37.16609994590845
 30
0.0
 11
86.40200677663669
 21
-29.62765565117307
 31
0.0
  0
LINE
  5
163
330
70
100
AcDbEntity
  8
Capa 1
 62
    18
420
        0
370
     9
100
AcDbLine
 10
123.4081449409532
 20
-37.16609994590845
 30
0.0
 11
123.4081449409532
 21
-29.62765565117307
 31
0.0
  0
LINE
  5
164
330
70
100
AcDbEntity
  8
Capa 1
 62
    18
420
        0
370
     9
100
AcDbLine
 10
86.37391644036613
 20
-31.42990264946055
 30
0.0
 11
123.4362352772238
 21
-31.42990264946055
 31
0.0
  0
MTEXT
  5
165
330
70
100
AcDbEntity
  8
Capa 1
100
AcDbMText
 10
102.1103908707397
 20
-30.18177099532999
 30
0.0
 40
0.2
 41
0.0
 46
0.0
 71
     7
 72
     1
  1
\C18;\c0;\FArial Bold|b1|i0|c1;\H2.497667;\W1.000000;308
 73
     1
 44
1.0
  0
LINE
  5
166
330
70
100
AcDbEntity
  8
Capa 1
 62
    18
420
        0
370
     9
100
AcDbLine
 10
86.40200677663669
 20
-38.96834694419625
 30
0.0
 11
86.40200677663669
 21
-38.96834694419625
 31
0.0
  0
LINE
  5
167
330
70
100
AcDbEntity
  8
Capa 1
 62
    18
420
        0
370
     9
100
AcDbLine
 10
123.4081449409532
 20
-38.96834694419625
 30
0.0
 11
123.4081449409532
 21
-38.96834694419625
 31
0.0
  0
LINE
  5
168
330
70
100
AcDbEntity
  8
Capa 1
 62
    18
420
        0
370
     9
100
AcDbLine
 10
123.4081449409532
 20
-31.42990264946055
 30
0.0
 11
123.4081449409532
 21
-31.42990264946055
 31
0.0
  0
ENDSEC
  0
SECTION
  2
OBJECTS
  0
DICTIONARY
  5
C
330
0
100
AcDbDictionary
281
     1
  3
ACAD_COLOR
350
63
  3
ACAD_DETAILVIEWSTYLE
350
6A
  3
ACAD_GROUP
350
D
  3
ACAD_LAYOUT
350
62
  3
ACAD_MATERIAL
350
10
  3
ACAD_MLEADERSTYLE
350
66
  3
ACAD_MLINESTYLE
350
5F
  3
ACAD_PLOTSETTINGS
350
61
  3
ACAD_PLOTSTYLENAME
350
E
  3
ACAD_SCALELIST
350
42
  3
ACAD_SECTIONVIEWSTYLE
350
68
  3
ACAD_TABLESTYLE
350
64
  3
ACAD_VISUALSTYLE
350
29
  3
ACDB_RECOMPOSE_DATA
350
172
  3
AcDbVariableDictionary
350
169
  0
DICTIONARY
  5
63
102
{ACAD_REACTORS
330
C
102
}
330
C
100
AcDbDictionary
281
     1
  0
DICTIONARY
  5
6A
102
{ACAD_REACTORS
330
C
102
}
330
C
100
AcDbDictionary
281
     1
  3
Imperial24
350
6B
  0
DICTIONARY
  5
D
102
{ACAD_REACTORS
330
C
102
}
330
C
100
AcDbDictionary
281
     1
  0
DICTIONARY
  5
62
102
{ACAD_REACTORS
330
C
102
}
330
C
100
AcDbDictionary
281
     1
  3
Layout1
350
6F
  3
Layout2
350
77
  3
Model
350
73
  0
DICTIONARY
  5
10
102
{ACAD_REACTORS
330
C
102
}
330
C
100
AcDbDictionary
281
     1
  3
ByBlock
350
19
  3
ByLayer
350
11
  3
Global
350
21
  0
DICTIONARY
  5
66
102
{ACAD_REACTORS
330
C
102
}
330
C
100
AcDbDictionary
281
     1
  3
Standard
350
67
  0
DICTIONARY
  5
5F
102
{ACAD_REACTORS
330
C
102
}
330
C
100
AcDbDictionary
281
     1
  3
Standard
350
60
  0
DICTIONARY
  5
61
102
{ACAD_REACTORS
330
C
102
}
330
C
100
AcDbDictionary
281
     1
  0
ACDBDICTIONARYWDFLT
  5
E
102
{ACAD_REACTORS
330
C
102
}
330
C
100
AcDbDictionary
281
     1
  3
Normal
350
F
100
AcDbDictionaryWithDefault
340
F
  0
DICTIONARY
  5
42
102
{ACAD_REACTORS
330
C
102
}
330
C
100
AcDbDictionary
281
     1
  3
A0
350
43
  3
A1
350
44
  3
A2
350
45
  3
A3
350
46
  3
A4
350
47
  3
A5
350
48
  3
A6
350
49
  3
A7
350
4A
  3
A8
350
4B
  3
A9
350
4C
  3
B0
350
4D
  3
B1
350
4E
  3
B2
350
4F
  3
B3
350
50
  3
B4
350
51
  3
B5
350
52
  3
B6
350
53
  0
DICTIONARY
  5
68
102
{ACAD_REACTORS
330
C
102
}
330
C
100
AcDbDictionary
281
     1
  3
Imperial24
350
69
  0
DICTIONARY
  5
64
102
{ACAD_REACTORS
330
C
102
}
330
C
100
AcDbDictionary
281
     1
  3
Standard
350
65
  0
DICTIONARY
  5
29
102
{ACAD_REACTORS
330
C
102
}
330
C
100
AcDbDictionary
281
     1
  3
2dWireframe
350
2F
  3
Basic
350
2E
  3
Brighten
350
35
  3
ColorChange
350
39
  3
Conceptual
350
32
  3
Dim
350
34
  3
EdgeColorOff
350
41
  3
Facepattern
350
38
  3
Flat
350
2A
  3
FlatWithEdges
350
2B
  3
Gouraud
350
2C
  3
GouraudWithEdges
350
2D
  3
Hidden
350
31
  3
JitterOff
350
3F
  3
Linepattern
350
37
  3
OverhangOff
350
40
  3
Realistic
350
33
  3
Shaded
350
3E
  3
Shaded with edges
350
3D
  3
Shades of Gray
350
3A
  3
Sketchy
350
3B
  3
Thicken
350
36
  3
Wireframe
350
30
  3
X-Ray
350
3C
  0
XRECORD
  5
172
102
{ACAD_REACTORS
330
C
102
}
330
C
100
AcDbXrecord
280
     1
 90
        1
330
65
  0
DICTIONARY
  5
169
102
{ACAD_REACTORS
330
C
102
}
330
C
100
AcDbDictionary
281
     1
  3
CANNOSCALE
350
16E
  3
CMLEADERSTYLE
350
16B
  3
CTABLESTYLE
350
16A
  3
CVIEWDETAILSTYLE
350
16C
  3
CVIEWSECTIONSTYLE
350
16D
  0
ACDBDETAILVIEWSTYLE
  5
6B
102
{ACAD_XDICTIONARY
360
1A7
102
}
102
{ACAD_REACTORS
330
6A
102
}
330
6A
100
AcDbModelDocViewStyle
 70
     0
  3
Imperial24
290
     0
100
AcDbDetailViewStyle
 70
     0
 71
     0
 90
        3
 71
     1
340
55
 62
   256
 40
0.24
340
0
 62
   256
 40
0.24
300

 40
0.36
280
     3
 71
     2
340
5D
 90
       25
 62
   256
 71
     3
340
55
 62
   256
 40
0.24
 90
        1
 40
0.75
 90
        1
300
%<\AcVar ViewType \f "%tc1">% %<\AcVar ViewDetailId>%\PSCALE %<\AcVar ViewScale \f "%sn">%
 71
     4
340
5D
 90
       25
 62
   256
340
5D
 90
       25
 62
   256
280
     0
  0
LAYOUT
  5
6F
102
{ACAD_REACTORS
330
62
102
}
330
62
100
AcDbPlotSettings
  1

  2

  4

  6

 40
0.0
 41
0.0
 42
0.0
 43
0.0
 44
0.0
 45
0.0
 46
0.0
 47
0.0
 48
0.0
 49
0.0
140
0.0
141
0.0
142
1.0
143
1.0
 70
   688
 72
     0
 73
     0
 74
     5
  7

 75
    16
147
1.0
 76
     0
 77
     2
 78
   300
148
0.0
149
0.0
100
AcDbLayout
  1
Layout1
 70
     1
 71
     1
 10
0.0
 20
0.0
 11
12.0
 21
9.0
 12
0.0
 22
0.0
 32
0.0
 14
0.0
 24
0.0
 34
0.0
 15
0.0
 25
0.0
 35
0.0
146
0.0
 13
0.0
 23
0.0
 33
0.0
 16
1.0
 26
0.0
 36
0.0
 17
0.0
 27
1.0
 37
0.0
 76
     0
330
6C
  0
LAYOUT
  5
77
102
{ACAD_REACTORS
330
62
102
}
330
62
100
AcDbPlotSettings
  1

  2

  4

  6

 40
0.0
 41
0.0
 42
0.0
 43
0.0
 44
0.0
 45
0.0
 46
0.0
 47
0.0
 48
0.0
 49
0.0
140
0.0
141
0.0
142
1.0
143
1.0
 70
   688
 72
     0
 73
     0
 74
     5
  7

 75
    16
147
1.0
 76
     0
 77
     2
 78
   300
148
0.0
149
0.0
100
AcDbLayout
  1
Layout2
 70
     1
 71
     2
 10
0.0
 20
0.0
 11
12.0
 21
9.0
 12
0.0
 22
0.0
 32
0.0
 14
0.0
 24
0.0
 34
0.0
 15
0.0
 25
0.0
 35
0.0
146
0.0
 13
0.0
 23
0.0
 33
0.0
 16
1.0
 26
0.0
 36
0.0
 17
0.0
 27
1.0
 37
0.0
 76
     0
330
74
  0
LAYOUT
  5
73
102
{ACAD_REACTORS
330
62
102
}
330
62
100
AcDbPlotSettings
  1

  2

  4

  6

 40
0.0
 41
0.0
 42
0.0
 43
0.0
 44
0.0
 45
0.0
 46
0.0
 47
0.0
 48
0.0
 49
0.0
140
0.0
141
0.0
142
1.0
143
1.0
 70
  1712
 72
     0
 73
     0
 74
     0
  7

 75
     0
147
1.0
 76
     0
 77
     2
 78
   300
148
0.0
149
0.0
100
AcDbLayout
  1
Model
 70
     1
 71
     0
 10
0.0
 20
0.0
 11
12.0
 21
9.0
 12
0.0
 22
0.0
 32
0.0
 14
0.0
 24
0.0
 34
0.0
 15
0.0
 25
0.0
 35
0.0
146
0.0
 13
0.0
 23
0.0
 33
0.0
 16
1.0
 26
0.0
 36
0.0
 17
0.0
 27
1.0
 37
0.0
 76
     0
330
70
  0
MATERIAL
  5
19
102
{ACAD_XDICTIONARY
360
1A
102
}
102
{ACAD_REACTORS
330
10
102
}
330
10
100
AcDbMaterial
  1
ByBlock
 72
     0
 43
0.0208333333333333
 43
0.0
 43
0.0
 43
0.0
 43
0.0
 43
0.0208333333333333
 43
0.0
 43
0.0
 43
0.0
 43
0.0
 43
1.0
 43
0.0
 43
0.0
 43
0.0
 43
0.0
 43
1.0
 77
     0
 47
0.0208333333333333
 47
0.0
 47
0.0
 47
0.0
 47
0.0
 47
0.0208333333333333
 47
0.0
 47
0.0
 47
0.0
 47
0.0
 47
1.0
 47
0.0
 47
0.0
 47
0.0
 47
0.0
 47
1.0
171
     0
 49
0.0208333333333333
 49
0.0
 49
0.0
 49
0.0
 49
0.0
 49
0.0208333333333333
 49
0.0
 49
0.0
 49
0.0
 49
0.0
 49
1.0
 49
0.0
 49
0.0
 49
0.0
 49
0.0
 49
1.0
175
     0
142
0.0208333333333333
142
0.0
142
0.0
142
0.0
142
0.0
142
0.0208333333333333
142
0.0
142
0.0
142
0.0
142
0.0
142
1.0
142
0.0
142
0.0
142
0.0
142
0.0
142
1.0
179
     0
144
0.0208333333333333
144
0.0
144
0.0
144
0.0
144
0.0
144
0.0208333333333333
144
0.0
144
0.0
144
0.0
144
0.0
144
1.0
144
0.0
144
0.0
144
0.0
144
0.0
144
1.0
147
0.0208333333333333
147
0.0
147
0.0
147
0.0
147
0.0
147
0.0208333333333333
147
0.0
147
0.0
147
0.0
147
0.0
147
1.0
147
0.0
147
0.0
147
0.0
147
0.0
147
1.0
  0
MATERIAL
  5
11
102
{ACAD_XDICTIONARY
360
12
102
}
102
{ACAD_REACTORS
330
10
102
}
330
10
100
AcDbMaterial
  1
ByLayer
 72
     0
 43
0.0208333333333333
 43
0.0
 43
0.0
 43
0.0
 43
0.0
 43
0.0208333333333333
 43
0.0
 43
0.0
 43
0.0
 43
0.0
 43
1.0
 43
0.0
 43
0.0
 43
0.0
 43
0.0
 43
1.0
 77
     0
 47
0.0208333333333333
 47
0.0
 47
0.0
 47
0.0
 47
0.0
 47
0.0208333333333333
 47
0.0
 47
0.0
 47
0.0
 47
0.0
 47
1.0
 47
0.0
 47
0.0
 47
0.0
 47
0.0
 47
1.0
171
     0
 49
0.0208333333333333
 49
0.0
 49
0.0
 49
0.0
 49
0.0
 49
0.0208333333333333
 49
0.0
 49
0.0
 49
0.0
 49
0.0
 49
1.0
 49
0.0
 49
0.0
 49
0.0
 49
0.0
 49
1.0
175
     0
142
0.0208333333333333
142
0.0
142
0.0
142
0.0
142
0.0
142
0.0208333333333333
142
0.0
142
0.0
142
0.0
142
0.0
142
1.0
142
0.0
142
0.0
142
0.0
142
0.0
142
1.0
179
     0
144
0.0208333333333333
144
0.0
144
0.0
144
0.0
144
0.0
144
0.0208333333333333
144
0.0
144
0.0
144
0.0
144
0.0
144
1.0
144
0.0
144
0.0
144
0.0
144
0.0
144
1.0
147
0.0208333333333333
147
0.0
147
0.0
147
0.0
147
0.0
147
0.0208333333333333
147
0.0
147
0.0
147
0.0
147
0.0
147
1.0
147
0.0
147
0.0
147
0.0
147
0.0
147
1.0
  0
MATERIAL
  5
21
102
{ACAD_XDICTIONARY
360
22
102
}
102
{ACAD_REACTORS
330
10
102
}
330
10
100
AcDbMaterial
  1
Global
 72
     0
 43
0.0208333333333333
 43
0.0
 43
0.0
 43
0.0
 43
0.0
 43
0.0208333333333333
 43
0.0
 43
0.0
 43
0.0
 43
0.0
 43
1.0
 43
0.0
 43
0.0
 43
0.0
 43
0.0
 43
1.0
 77
     0
 47
0.0208333333333333
 47
0.0
 47
0.0
 47
0.0
 47
0.0
 47
0.0208333333333333
 47
0.0
 47
0.0
 47
0.0
 47
0.0
 47
1.0
 47
0.0
 47
0.0
 47
0.0
 47
0.0
 47
1.0
171
     0
 49
0.0208333333333333
 49
0.0
 49
0.0
 49
0.0
 49
0.0
 49
0.0208333333333333
 49
0.0
 49
0.0
 49
0.0
 49
0.0
 49
1.0
 49
0.0
 49
0.0
 49
0.0
 49
0.0
 49
1.0
175
     0
142
0.0208333333333333
142
0.0
142
0.0
142
0.0
142
0.0
142
0.0208333333333333
142
0.0
142
0.0
142
0.0
142
0.0
142
1.0
142
0.0
142
0.0
142
0.0
142
0.0
142
1.0
179
     0
144
0.0208333333333333
144
0.0
144
0.0
144
0.0
144
0.0
144
0.0208333333333333
144
0.0
144
0.0
144
0.0
144
0.0
144
1.0
144
0.0
144
0.0
144
0.0
144
0.0
144
1.0
147
0.0208333333333333
147
0.0
147
0.0
147
0.0
147
0.0
147
0.0208333333333333
147
0.0
147
0.0
147
0.0
147
0.0
147
1.0
147
0.0
147
0.0
147
0.0
147
0.0
147
1.0
  0
MLEADERSTYLE
  5
67
102
{ACAD_XDICTIONARY
360
1A3
102
}
102
{ACAD_REACTORS
330
66
102
}
330
66
100
AcDbMLeaderStyle
179
     2
170
     2
171
     1
172
     0
 90
        2
 40
0.0
 41
0.0
173
     1
 91
-1056964608
340
5B
 92
       -2
290
     1
 42
0.09
291
     1
 43
0.36
  3
Standard
 44
0.18
300

342
55
174
     1
178
     6
175
     1
176
     0
 93
-1056964608
 45
0.18
292
     0
297
     0
 46
0.18
 94
-1056964608
 47
1.0
 49
1.0
140
1.0
293
     1
141
0.0
294
     1
177
     0
142
1.0
295
     0
296
     0
143
0.125
271
     0
272
     9
273
     9
  0
MLINESTYLE
  5
60
102
{ACAD_REACTORS
330
5F
102
}
330
5F
100
AcDbMlineStyle
  2
STANDARD
 70
     0
  3

 62
   256
 51
90.0
 52
90.0
 71
     2
 49
0.5
 62
   256
  6
BYLAYER
 49
-0.5
 62
   256
  6
BYLAYER
  0
ACDBPLACEHOLDER
  5
F
102
{ACAD_REACTORS
330
E
102
}
330
E
  0
SCALE
  5
43
102
{ACAD_REACTORS
330
42
102
}
330
42
100
AcDbScale
 70
     0
300
1:1
140
1.0
141
1.0
290
     1
  0
SCALE
  5
44
102
{ACAD_REACTORS
330
42
102
}
330
42
100
AcDbScale
 70
     0
300
1/128" = 1'-0"
140
0.0078125
141
12.0
290
     0
  0
SCALE
  5
45
102
{ACAD_REACTORS
330
42
102
}
330
42
100
AcDbScale
 70
     0
300
1/64" = 1'-0"
140
0.015625
141
12.0
290
     0
  0
SCALE
  5
46
102
{ACAD_REACTORS
330
42
102
}
330
42
100
AcDbScale
 70
     0
300
1/32" = 1'-0"
140
0.03125
141
12.0
290
     0
  0
SCALE
  5
47
102
{ACAD_REACTORS
330
42
102
}
330
42
100
AcDbScale
 70
     0
300
1/16" = 1'-0"
140
0.0625
141
12.0
290
     0
  0
SCALE
  5
48
102
{ACAD_REACTORS
330
42
102
}
330
42
100
AcDbScale
 70
     0
300
3/32" = 1'-0"
140
0.09375
141
12.0
290
     0
  0
SCALE
  5
49
102
{ACAD_REACTORS
330
42
102
}
330
42
100
AcDbScale
 70
     0
300
1/8" = 1'-0"
140
0.125
141
12.0
290
     0
  0
SCALE
  5
4A
102
{ACAD_REACTORS
330
42
102
}
330
42
100
AcDbScale
 70
     0
300
3/16" = 1'-0"
140
0.1875
141
12.0
290
     0
  0
SCALE
  5
4B
102
{ACAD_REACTORS
330
42
102
}
330
42
100
AcDbScale
 70
     0
300
1/4" = 1'-0"
140
0.25
141
12.0
290
     0
  0
SCALE
  5
4C
102
{ACAD_REACTORS
330
42
102
}
330
42
100
AcDbScale
 70
     0
300
3/8" = 1'-0"
140
0.375
141
12.0
290
     0
  0
SCALE
  5
4D
102
{ACAD_REACTORS
330
42
102
}
330
42
100
AcDbScale
 70
     0
300
1/2" = 1'-0"
140
0.5
141
12.0
290
     0
  0
SCALE
  5
4E
102
{ACAD_REACTORS
330
42
102
}
330
42
100
AcDbScale
 70
     0
300
3/4" = 1'-0"
140
0.75
141
12.0
290
     0
  0
SCALE
  5
4F
102
{ACAD_REACTORS
330
42
102
}
330
42
100
AcDbScale
 70
     0
300
1" = 1'-0"
140
1.0
141
12.0
290
     0
  0
SCALE
  5
50
102
{ACAD_REACTORS
330
42
102
}
330
42
100
AcDbScale
 70
     0
300
1-1/2" = 1'-0"
140
1.5
141
12.0
290
     0
  0
SCALE
  5
51
102
{ACAD_REACTORS
330
42
102
}
330
42
100
AcDbScale
 70
     0
300
3" = 1'-0"
140
3.0
141
12.0
290
     0
  0
SCALE
  5
52
102
{ACAD_REACTORS
330
42
102
}
330
42
100
AcDbScale
 70
     0
300
6" = 1'-0"
140
6.0
141
12.0
290
     0
  0
SCALE
  5
53
102
{ACAD_REACTORS
330
42
102
}
330
42
100
AcDbScale
 70
     0
300
1'-0" = 1'-0"
140
12.0
141
12.0
290
     0
  0
ACDBSECTIONVIEWSTYLE
  5
69
102
{ACAD_XDICTIONARY
360
1A5
102
}
102
{ACAD_REACTORS
330
68
102
}
330
68
100
AcDbModelDocViewStyle
 70
     0
  3
Imperial24
290
     0
100
AcDbSectionViewStyle
 70
     0
 71
     0
 90
       78
 71
     1
340
55
 62
   256
 40
0.24
340
0
340
0
 62
   256
 40
0.24
300
I, O, Q, S, X, Z
 40
0.48
 90
        3
 40
0.18
 90
        1
 71
     2
340
5D
 90
       25
 62
   256
340
5D
 90
       50
 62
   256
 40
0.24
 40
0.0
 40
0.24
 71
     3
340
55
 62
   256
 40
0.24
 90
        1
 40
0.75
 90
        1
300
%<\AcVar ViewType \f "%tc1">% %<\AcVar ViewSectionStartId>%-%<\AcVar ViewSectionEndId>%\PSCALE %<\AcVar ViewScale \f "%sn">%
 71
     4
 62
   256
 62
   257
300
ANSI31
 40
1.0
 90
        0
290
     0
290
     0
 90
        6
 40
0.0
 40
1.570796326794896
 40
0.2617993877991494
 40
1.308996938995747
 40
-0.2617993877991494
 40
1.832595714594046
  0
TABLESTYLE
  5
65
102
{ACAD_XDICTIONARY
360
16F
102
}
102
{ACAD_REACTORS
330
64
102
}
330
64
100
AcDbTableStyle
280
     0
  3
Standard
 70
     0
 71
     0
 40
0.06
 41
0.06
280
     0
281
     0
  7
Standard
140
0.18
170
     2
 62
     0
 63
     7
283
     0
 90
      512
 91
        0
  1

274
    -2
284
     1
 64
     0
275
    -2
285
     1
 65
     0
276
    -2
286
     1
 66
     0
277
    -2
287
     1
 67
     0
278
    -2
288
     1
 68
     0
279
    -2
289
     1
 69
     0
  7
Standard
140
0.25
170
     5
 62
     0
 63
     7
283
     0
 90
      512
 91
        0
  1

274
    -2
284
     1
 64
     0
275
    -2
285
     1
 65
     0
276
    -2
286
     1
 66
     0
277
    -2
287
     1
 67
     0
278
    -2
288
     1
 68
     0
279
    -2
289
     1
 69
     0
  7
Standard
140
0.18
170
     5
 62
     0
 63
     7
283
     0
 90
      512
 91
        0
  1

274
    -2
284
     1
 64
     0
275
    -2
285
     1
 65
     0
276
    -2
286
     1
 66
     0
277
    -2
287
     1
 67
     0
278
    -2
288
     1
 68
     0
279
    -2
289
     1
 69
     0
  0
VISUALSTYLE
  5
2F
102
{ACAD_XDICTIONARY
360
17D
102
}
102
{ACAD_REACTORS
330
29
102
}
330
29
100
AcDbVisualStyle
  2
2dWireframe
 70
     4
177
     2
291
     0
 71
     0
176
     1
 72
     2
176
     1
 73
     0
176
     1
 90
        0
176
     1
 40
0.6
176
     1
 41
30.0
176
     1
 63
     7
421
 16777215
176
     1
 74
     1
176
     1
 91
        4
176
     1
 64
     7
176
     1
 65
   257
176
     1
 75
     1
176
     1
175
     1
176
     1
 42
1.0
176
     1
 92
        0
176
     1
 66
   257
176
     1
 43
1.0
176
     1
 76
     1
176
     1
 77
     6
176
     1
 78
     2
176
     1
 67
     7
176
     1
 79
     5
176
     1
170
     0
176
     1
171
     0
176
     1
290
     0
176
     1
 93
        1
176
     1
 44
0.0
176
     1
173
     0
176
     1
1001
ACAD
1000
AcDbSavedByObjectVersion
1070
     0
  0
VISUALSTYLE
  5
2E
102
{ACAD_XDICTIONARY
360
17B
102
}
102
{ACAD_REACTORS
330
29
102
}
330
29
100
AcDbVisualStyle
  2
Basic
 70
     7
177
     2
291
     1
 71
     1
176
     1
 72
     0
176
     1
 73
     1
176
     1
 90
        0
176
     1
 40
0.6
176
     1
 41
30.0
176
     1
 63
     7
421
 16777215
176
     1
 74
     0
176
     1
 91
        4
176
     1
 64
     7
176
     1
 65
   257
176
     1
 75
     1
176
     1
175
     1
176
     1
 42
1.0
176
     1
 92
        8
176
     1
 66
     7
176
     1
 43
1.0
176
     1
 76
     1
176
     1
 77
     6
176
     1
 78
     2
176
     1
 67
     7
176
     1
 79
     5
176
     1
170
     0
176
     1
171
     0
176
     1
290
     0
176
     1
 93
        1
176
     1
 44
0.0
176
     1
173
     0
176
     1
1001
ACAD
1000
AcDbSavedByObjectVersion
1070
     0
  0
VISUALSTYLE
  5
35
102
{ACAD_XDICTIONARY
360
189
102
}
102
{ACAD_REACTORS
330
29
102
}
330
29
100
AcDbVisualStyle
  2
Brighten
 70
    12
177
     2
291
     1
 71
     2
176
     1
 72
     2
176
     1
 73
     0
176
     1
 90
        0
176
     1
 40
0.6
176
     1
 41
30.0
176
     1
 63
     7
421
 16777215
176
     1
 74
     1
176
     1
 91
        4
176
     1
 64
     7
176
     1
 65
   257
176
     1
 75
     1
176
     1
175
     1
176
     1
 42
1.0
176
     1
 92
        8
176
     1
 66
     7
176
     1
 43
1.0
176
     1
 76
     1
176
     1
 77
     6
176
     1
 78
     2
176
     1
 67
     7
176
     1
 79
     5
176
     1
170
     0
176
     1
171
     0
176
     1
290
     0
176
     1
 93
        1
176
     1
 44
50.0
176
     1
173
     0
176
     1
1001
ACAD
1000
AcDbSavedByObjectVersion
1070
     0
  0
VISUALSTYLE
  5
39
102
{ACAD_XDICTIONARY
360
191
102
}
102
{ACAD_REACTORS
330
29
102
}
330
29
100
AcDbVisualStyle
  2
ColorChange
 70
    16
177
     2
291
     1
 71
     2
176
     1
 72
     2
176
     1
 73
     3
176
     1
 90
        0
176
     1
 40
0.6
176
     1
 41
30.0
176
     1
 63
     8
421
  8421504
176
     1
 74
     1
176
     1
 91
        4
176
     1
 64
     7
176
     1
 65
   257
176
     1
 75
     1
176
     1
175
     1
176
     1
 42
1.0
176
     1
 92
        8
176
     1
 66
     8
424
  8421504
176
     1
 43
1.0
176
     1
 76
     1
176
     1
 77
     6
176
     1
 78
     2
176
     1
 67
     7
176
     1
 79
     5
176
     1
170
     0
176
     1
171
     0
176
     1
290
     0
176
     1
 93
        1
176
     1
 44
0.0
176
     1
173
     0
176
     1
1001
ACAD
1000
AcDbSavedByObjectVersion
1070
     0
  0
VISUALSTYLE
  5
32
102
{ACAD_XDICTIONARY
360
183
102
}
102
{ACAD_REACTORS
330
29
102
}
330
29
100
AcDbVisualStyle
  2
Conceptual
 70
     9
177
     2
291
     0
 71
     3
176
     1
 72
     2
176
     1
 73
     0
176
     1
 90
        0
176
     1
 40
0.6
176
     1
 41
30.0
176
     1
 63
     7
421
 16777215
176
     1
 74
     2
176
     1
 91
        2
176
     1
 64
     7
176
     1
 65
   257
176
     1
 75
     1
176
     1
175
     1
176
     1
 42
179.0
176
     1
 92
        8
176
     1
 66
     7
176
     1
 43
1.0
176
     1
 76
     1
176
     1
 77
     6
176
     1
 78
     2
176
     1
 67
     7
176
     1
 79
     3
176
     1
170
     0
176
     1
171
     0
176
     1
290
     0
176
     1
 93
        1
176
     1
 44
0.0
176
     1
173
     0
176
     1
1001
ACAD
1000
AcDbSavedByObjectVersion
1070
     0
  0
VISUALSTYLE
  5
34
102
{ACAD_XDICTIONARY
360
187
102
}
102
{ACAD_REACTORS
330
29
102
}
330
29
100
AcDbVisualStyle
  2
Dim
 70
    11
177
     2
291
     1
 71
     2
176
     1
 72
     2
176
     1
 73
     0
176
     1
 90
        0
176
     1
 40
0.6
176
     1
 41
30.0
176
     1
 63
     7
421
 16777215
176
     1
 74
     1
176
     1
 91
        4
176
     1
 64
     7
176
     1
 65
   257
176
     1
 75
     1
176
     1
175
     1
176
     1
 42
1.0
176
     1
 92
        8
176
     1
 66
     7
176
     1
 43
1.0
176
     1
 76
     1
176
     1
 77
     6
176
     1
 78
     2
176
     1
 67
     7
176
     1
 79
     5
176
     1
170
     0
176
     1
171
     0
176
     1
290
     0
176
     1
 93
        1
176
     1
 44
-50.0
176
     1
173
     0
176
     1
1001
ACAD
1000
AcDbSavedByObjectVersion
1070
     0
  0
VISUALSTYLE
  5
41
102
{ACAD_XDICTIONARY
360
1A1
102
}
102
{ACAD_REACTORS
330
29
102
}
330
29
100
AcDbVisualStyle
  2
EdgeColorOff
 70
    22
177
     2
291
     1
 71
     2
176
     0
 72
     2
176
     0
 73
     0
176
     0
 90
        0
176
     0
 40
0.6
176
     0
 41
30.0
176
     0
 63
     7
421
 16777215
176
     0
 74
     1
176
     0
 91
        4
176
     0
 64
     7
176
     0
 65
   257
176
     0
 75
     1
176
     0
175
     1
176
     0
 42
1.0
176
     0
 92
        8
176
     2
 66
     7
176
     0
 43
1.0
176
     0
 76
     1
176
     0
 77
     6
176
     0
 78
     2
176
     0
 67
     7
176
     0
 79
     5
176
     0
170
     0
176
     0
171
     0
176
     0
290
     0
176
     0
 93
        1
176
     0
 44
0.0
176
     0
173
     0
176
     0
1001
ACAD
1000
AcDbSavedByObjectVersion
1070
     0
  0
VISUALSTYLE
  5
38
102
{ACAD_XDICTIONARY
360
18F
102
}
102
{ACAD_REACTORS
330
29
102
}
330
29
100
AcDbVisualStyle
  2
Facepattern
 70
    15
177
     2
291
     1
 71
     2
176
     1
 72
     2
176
     1
 73
     0
176
     1
 90
        0
176
     1
 40
0.6
176
     1
 41
30.0
176
     1
 63
     7
421
 16777215
176
     1
 74
     1
176
     1
 91
        4
176
     1
 64
     7
176
     1
 65
   257
176
     1
 75
     1
176
     1
175
     1
176
     1
 42
1.0
176
     1
 92
        8
176
     1
 66
     7
176
     1
 43
1.0
176
     1
 76
     1
176
     1
 77
     6
176
     1
 78
     2
176
     1
 67
     7
176
     1
 79
     5
176
     1
170
     0
176
     1
171
     0
176
     1
290
     0
176
     1
 93
        1
176
     1
 44
0.0
176
     1
173
     0
176
     1
1001
ACAD
1000
AcDbSavedByObjectVersion
1070
     0
  0
VISUALSTYLE
  5
2A
102
{ACAD_XDICTIONARY
360
173
102
}
102
{ACAD_REACTORS
330
29
102
}
330
29
100
AcDbVisualStyle
  2
Flat
 70
     0
177
     2
291
     1
 71
     2
176
     1
 72
     1
176
     1
 73
     1
176
     1
 90
        2
176
     1
 40
0.6
176
     1
 41
30.0
176
     1
 63
     7
421
 16777215
176
     1
 74
     0
176
     1
 91
        0
176
     1
 64
     7
176
     1
 65
   257
176
     1
 75
     1
176
     1
175
     1
176
     1
 42
1.0
176
     1
 92
        8
176
     1
 66
     7
176
     1
 43
1.0
176
     1
 76
     1
176
     1
 77
     6
176
     1
 78
     2
176
     1
 67
     7
176
     1
 79
     5
176
     1
170
     0
176
     1
171
     0
176
     1
290
     0
176
     1
 93
       13
176
     1
 44
0.0
176
     1
173
     0
176
     1
1001
ACAD
1000
AcDbSavedByObjectVersion
1070
     0
  0
VISUALSTYLE
  5
2B
102
{ACAD_XDICTIONARY
360
175
102
}
102
{ACAD_REACTORS
330
29
102
}
330
29
100
AcDbVisualStyle
  2
FlatWithEdges
 70
     1
177
     2
291
     1
 71
     2
176
     1
 72
     1
176
     1
 73
     1
176
     1
 90
        2
176
     1
 40
0.6
176
     1
 41
30.0
176
     1
 63
     7
421
 16777215
176
     1
 74
     1
176
     1
 91
        0
176
     1
 64
     7
176
     1
 65
   257
176
     1
 75
     1
176
     1
175
     1
176
     1
 42
1.0
176
     1
 92
        0
176
     1
 66
   257
176
     1
 43
1.0
176
     1
 76
     1
176
     1
 77
     6
176
     1
 78
     2
176
     1
 67
     7
176
     1
 79
     5
176
     1
170
     0
176
     1
171
     0
176
     1
290
     0
176
     1
 93
       13
176
     1
 44
0.0
176
     1
173
     0
176
     1
1001
ACAD
1000
AcDbSavedByObjectVersion
1070
     0
  0
VISUALSTYLE
  5
2C
102
{ACAD_XDICTIONARY
360
177
102
}
102
{ACAD_REACTORS
330
29
102
}
330
29
100
AcDbVisualStyle
  2
Gouraud
 70
     2
177
     2
291
     1
 71
     2
176
     1
 72
     2
176
     1
 73
     1
176
     1
 90
        2
176
     1
 40
0.6
176
     1
 41
30.0
176
     1
 63
     7
421
 16777215
176
     1
 74
     0
176
     1
 91
        0
176
     1
 64
     7
176
     1
 65
   257
176
     1
 75
     1
176
     1
175
     1
176
     1
 42
1.0
176
     1
 92
        0
176
     1
 66
     7
176
     1
 43
1.0
176
     1
 76
     1
176
     1
 77
     6
176
     1
 78
     2
176
     1
 67
     7
176
     1
 79
     5
176
     1
170
     0
176
     1
171
     0
176
     1
290
     0
176
     1
 93
       13
176
     1
 44
0.0
176
     1
173
     0
176
     1
1001
ACAD
1000
AcDbSavedByObjectVersion
1070
     0
  0
VISUALSTYLE
  5
2D
102
{ACAD_XDICTIONARY
360
179
102
}
102
{ACAD_REACTORS
330
29
102
}
330
29
100
AcDbVisualStyle
  2
GouraudWithEdges
 70
     3
177
     2
291
     1
 71
     2
176
     1
 72
     2
176
     1
 73
     1
176
     1
 90
        2
176
     1
 40
0.6
176
     1
 41
30.0
176
     1
 63
     7
421
 16777215
176
     1
 74
     1
176
     1
 91
        0
176
     1
 64
     7
176
     1
 65
   257
176
     1
 75
     1
176
     1
175
     1
176
     1
 42
1.0
176
     1
 92
        0
176
     1
 66
   257
176
     1
 43
1.0
176
     1
 76
     1
176
     1
 77
     6
176
     1
 78
     2
176
     1
 67
     7
176
     1
 79
     5
176
     1
170
     0
176
     1
171
     0
176
     1
290
     0
176
     1
 93
       13
176
     1
 44
0.0
176
     1
173
     0
176
     1
1001
ACAD
1000
AcDbSavedByObjectVersion
1070
     0
  0
VISUALSTYLE
  5
31
102
{ACAD_XDICTIONARY
360
181
102
}
102
{ACAD_REACTORS
330
29
102
}
330
29
100
AcDbVisualStyle
  2
Hidden
 70
     6
177
     2
291
     0
 71
     1
176
     1
 72
     2
176
     1
 73
     2
176
     1
 90
        0
176
     1
 40
0.6
176
     1
 41
30.0
176
     1
 63
     7
421
 16777215
176
     1
 74
     2
176
     1
 91
        2
176
     1
 64
     7
176
     1
 65
   257
176
     1
 75
     2
176
     1
175
     1
176
     1
 42
40.0
176
     1
 92
        0
176
     1
 66
   257
176
     1
 43
1.0
176
     1
 76
     1
176
     1
 77
     6
176
     1
 78
     2
176
     1
 67
     7
176
     1
 79
     3
176
     1
170
     0
176
     1
171
     0
176
     1
290
     0
176
     1
 93
        1
176
     1
 44
0.0
176
     1
173
     0
176
     1
1001
ACAD
1000
AcDbSavedByObjectVersion
1070
     0
  0
VISUALSTYLE
  5
3F
102
{ACAD_XDICTIONARY
360
19D
102
}
102
{ACAD_REACTORS
330
29
102
}
330
29
100
AcDbVisualStyle
  2
JitterOff
 70
    20
177
     2
291
     1
 71
     2
176
     0
 72
     2
176
     0
 73
     0
176
     0
 90
        0
176
     0
 40
0.6
176
     0
 41
30.0
176
     0
 63
     7
421
 16777215
176
     0
 74
     1
176
     0
 91
        4
176
     0
 64
     7
176
     0
 65
   257
176
     0
 75
     1
176
     0
175
     1
176
     0
 42
1.0
176
     0
 92
       10
176
     2
 66
     7
176
     0
 43
1.0
176
     0
 76
     1
176
     0
 77
     6
176
     0
 78
     2
176
     0
 67
     7
176
     0
 79
     5
176
     0
170
     0
176
     0
171
     0
176
     0
290
     0
176
     0
 93
        1
176
     0
 44
0.0
176
     0
173
     0
176
     0
1001
ACAD
1000
AcDbSavedByObjectVersion
1070
     0
  0
VISUALSTYLE
  5
37
102
{ACAD_XDICTIONARY
360
18D
102
}
102
{ACAD_REACTORS
330
29
102
}
330
29
100
AcDbVisualStyle
  2
Linepattern
 70
    14
177
     2
291
     1
 71
     2
176
     1
 72
     2
176
     1
 73
     0
176
     1
 90
        0
176
     1
 40
0.6
176
     1
 41
30.0
176
     1
 63
     7
421
 16777215
176
     1
 74
     1
176
     1
 91
        4
176
     1
 64
     7
176
     1
 65
   257
176
     1
 75
     7
176
     1
175
     7
176
     1
 42
1.0
176
     1
 92
        8
176
     1
 66
     7
176
     1
 43
1.0
176
     1
 76
     1
176
     1
 77
     6
176
     1
 78
     2
176
     1
 67
     7
176
     1
 79
     5
176
     1
170
     0
176
     1
171
     0
176
     1
290
     0
176
     1
 93
        1
176
     1
 44
0.0
176
     1
173
     0
176
     1
1001
ACAD
1000
AcDbSavedByObjectVersion
1070
     0
  0
VISUALSTYLE
  5
40
102
{ACAD_XDICTIONARY
360
19F
102
}
102
{ACAD_REACTORS
330
29
102
}
330
29
100
AcDbVisualStyle
  2
OverhangOff
 70
    21
177
     2
291
     1
 71
     2
176
     0
 72
     2
176
     0
 73
     0
176
     0
 90
        0
176
     0
 40
0.6
176
     0
 41
30.0
176
     0
 63
     7
421
 16777215
176
     0
 74
     1
176
     0
 91
        4
176
     0
 64
     7
176
     0
 65
   257
176
     0
 75
     1
176
     0
175
     1
176
     0
 42
1.0
176
     0
 92
        9
176
     2
 66
     7
176
     0
 43
1.0
176
     0
 76
     1
176
     0
 77
     6
176
     0
 78
     2
176
     0
 67
     7
176
     0
 79
     5
176
     0
170
     0
176
     0
171
     0
176
     0
290
     0
176
     0
 93
        1
176
     0
 44
0.0
176
     0
173
     0
176
     0
1001
ACAD
1000
AcDbSavedByObjectVersion
1070
     0
  0
VISUALSTYLE
  5
33
102
{ACAD_XDICTIONARY
360
185
102
}
102
{ACAD_REACTORS
330
29
102
}
330
29
100
AcDbVisualStyle
  2
Realistic
 70
     8
177
     2
291
     0
 71
     2
176
     1
 72
     3
176
     1
 73
     0
176
     1
 90
        2
176
     1
 40
0.6
176
     1
 41
30.0
176
     1
 63
     7
421
 16777215
176
     1
 74
     0
176
     1
 91
        0
176
     1
 64
     7
176
     1
 65
   257
176
     1
 75
     1
176
     1
175
     1
176
     1
 42
1.0
176
     1
 92
        8
176
     1
 66
   257
176
     1
 43
1.0
176
     1
 76
     1
176
     1
 77
     6
176
     1
 78
     2
176
     1
 67
     7
176
     1
 79
     3
176
     1
170
     0
176
     1
171
     0
176
     1
290
     0
176
     1
 93
       13
176
     1
 44
0.0
176
     1
173
     0
176
     1
1001
ACAD
1000
AcDbSavedByObjectVersion
1070
     0
  0
VISUALSTYLE
  5
3E
102
{ACAD_XDICTIONARY
360
19B
102
}
102
{ACAD_REACTORS
330
29
102
}
330
29
100
AcDbVisualStyle
  2
Shaded
 70
    27
177
     2
291
     0
 71
     2
176
     1
 72
     2
176
     1
 73
     1
176
     1
 90
        2
176
     1
 40
0.6
176
     1
 41
30.0
176
     1
 63
     7
421
 16777215
176
     1
 74
     0
176
     1
 91
        4
176
     1
 64
     7
176
     1
 65
   257
176
     1
 75
     1
176
     1
175
     1
176
     1
 42
1.0
176
     1
 92
        8
176
     1
 66
   257
176
     1
 43
1.0
176
     1
 76
     1
176
     1
 77
     6
176
     1
 78
     2
176
     1
 67
     8
425
  7895160
176
     1
 79
     3
176
     1
170
     0
176
     1
171
     0
176
     1
290
     0
176
     1
 93
        5
176
     1
 44
0.0
176
     1
173
     0
176
     1
1001
ACAD
1000
AcDbSavedByObjectVersion
1070
     0
  0
VISUALSTYLE
  5
3D
102
{ACAD_XDICTIONARY
360
199
102
}
102
{ACAD_REACTORS
330
29
102
}
330
29
100
AcDbVisualStyle
  2
Shaded with edges
 70
    26
177
     2
291
     0
 71
     2
176
     1
 72
     2
176
     1
 73
     1
176
     1
 90
        2
176
     1
 40
0.6
176
     1
 41
30.0
176
     1
 63
     7
421
 16777215
176
     1
 74
     1
176
     1
 91
        2
176
     1
 64
     7
176
     1
 65
   257
176
     1
 75
     2
176
     1
175
     1
176
     1
 42
1.0
176
     1
 92
        8
176
     1
 66
   257
176
     1
 43
1.0
176
     1
 76
     1
176
     1
 77
     6
176
     1
 78
     2
176
     1
 67
     7
176
     1
 79
     3
176
     1
170
     0
176
     1
171
     0
176
     1
290
     0
176
     1
 93
        5
176
     1
 44
0.0
176
     1
173
     0
176
     1
1001
ACAD
1000
AcDbSavedByObjectVersion
1070
     0
  0
VISUALSTYLE
  5
3A
102
{ACAD_XDICTIONARY
360
193
102
}
102
{ACAD_REACTORS
330
29
102
}
330
29
100
AcDbVisualStyle
  2
Shades of Gray
 70
    23
177
     2
291
     0
 71
     2
176
     1
 72
     2
176
     1
 73
     3
176
     1
 90
        0
176
     1
 40
0.6
176
     1
 41
30.0
176
     1
 63
     7
421
 16777215
176
     1
 74
     2
176
     1
 91
        2
176
     1
 64
     7
176
     1
 65
     7
176
     1
 75
     1
176
     1
175
     1
176
     1
 42
40.0
176
     1
 92
        8
176
     1
 66
     7
176
     1
 43
1.0
176
     1
 76
     1
176
     1
 77
     6
176
     1
 78
     2
176
     1
 67
     7
176
     1
 79
     3
176
     1
170
     0
176
     1
171
     0
176
     1
290
     0
176
     1
 93
        1
176
     1
 44
0.0
176
     1
173
     0
176
     1
1001
ACAD
1000
AcDbSavedByObjectVersion
1070
     0
  0
VISUALSTYLE
  5
3B
102
{ACAD_XDICTIONARY
360
195
102
}
102
{ACAD_REACTORS
330
29
102
}
330
29
100
AcDbVisualStyle
  2
Sketchy
 70
    24
177
     2
291
     0
 71
     1
176
     1
 72
     2
176
     1
 73
     2
176
     1
 90
        0
176
     1
 40
0.6
176
     1
 41
30.0
176
     1
 63
     7
421
 16777215
176
     1
 74
     2
176
     1
 91
        2
176
     1
 64
     7
176
     1
 65
     7
176
     1
 75
     1
176
     1
175
     1
176
     1
 42
40.0
176
     1
 92
       11
176
     1
 66
     7
176
     1
 43
1.0
176
     1
 76
     1
176
     1
 77
     6
176
     1
 78
     2
176
     1
 67
     7
176
     1
 79
     6
176
     1
170
     0
176
     1
171
     0
176
     1
290
     0
176
     1
 93
        1
176
     1
 44
0.0
176
     1
173
     0
176
     1
1001
ACAD
1000
AcDbSavedByObjectVersion
1070
     0
  0
VISUALSTYLE
  5
36
102
{ACAD_XDICTIONARY
360
18B
102
}
102
{ACAD_REACTORS
330
29
102
}
330
29
100
AcDbVisualStyle
  2
Thicken
 70
    13
177
     2
291
     1
 71
     2
176
     1
 72
     2
176
     1
 73
     0
176
     1
 90
        0
176
     1
 40
0.6
176
     1
 41
30.0
176
     1
 63
     7
421
 16777215
176
     1
 74
     1
176
     1
 91
        4
176
     1
 64
     7
176
     1
 65
   257
176
     1
 75
     1
176
     1
175
     1
176
     1
 42
1.0
176
     1
 92
       12
176
     1
 66
     7
176
     1
 43
1.0
176
     1
 76
     1
176
     1
 77
     6
176
     1
 78
     2
176
     1
 67
     7
176
     1
 79
     5
176
     1
170
     0
176
     1
171
     0
176
     1
290
     0
176
     1
 93
        1
176
     1
 44
0.0
176
     1
173
     0
176
     1
1001
ACAD
1000
AcDbSavedByObjectVersion
1070
     0
  0
VISUALSTYLE
  5
30
102
{ACAD_XDICTIONARY
360
17F
102
}
102
{ACAD_REACTORS
330
29
102
}
330
29
100
AcDbVisualStyle
  2
Wireframe
 70
     5
177
     2
291
     0
 71
     0
176
     1
 72
     2
176
     1
 73
     0
176
     1
 90
        0
176
     1
 40
0.6
176
     1
 41
30.0
176
     1
 63
     7
421
 16777215
176
     1
 74
     1
176
     1
 91
        4
176
     1
 64
     7
176
     1
 65
   257
176
     1
 75
     1
176
     1
175
     1
176
     1
 42
1.0
176
     1
 92
        0
176
     1
 66
   257
176
     1
 43
1.0
176
     1
 76
     1
176
     1
 77
     6
176
     1
 78
     2
176
     1
 67
     7
176
     1
 79
     3
176
     1
170
     0
176
     1
171
     0
176
     1
290
     0
176
     1
 93
        1
176
     1
 44
0.0
176
     1
173
     0
176
     1
1001
ACAD
1000
AcDbSavedByObjectVersion
1070
     0
  0
VISUALSTYLE
  5
3C
102
{ACAD_XDICTIONARY
360
197
102
}
102
{ACAD_REACTORS
330
29
102
}
330
29
100
AcDbVisualStyle
  2
X-Ray
 70
    25
177
     2
291
     0
 71
     2
176
     1
 72
     2
176
     1
 73
     1
176
     1
 90
        1
176
     1
 40
0.5
176
     1
 41
30.0
176
     1
 63
     7
421
 16777215
176
     1
 74
     1
176
     1
 91
        0
176
     1
 64
     7
176
     1
 65
   257
176
     1
 75
     1
176
     1
175
     1
176
     1
 42
1.0
176
     1
 92
        8
176
     1
 66
     7
176
     1
 43
1.0
176
     1
 76
     1
176
     1
 77
     6
176
     1
 78
     2
176
     1
 67
     7
176
     1
 79
     3
176
     1
170
     0
176
     1
171
     0
176
     1
290
     0
176
     1
 93
       13
176
     1
 44
0.0
176
     1
173
     0
176
     1
1001
ACAD
1000
AcDbSavedByObjectVersion
1070
     0
  0
DICTIONARYVAR
  5
16E
102
{ACAD_REACTORS
330
169
102
}
330
169
100
DictionaryVariables
280
     0
  1
1:1
  0
DICTIONARYVAR
  5
16B
102
{ACAD_REACTORS
330
169
102
}
330
169
100
DictionaryVariables
280
     0
  1
STANDARD
  0
DICTIONARYVAR
  5
16A
102
{ACAD_REACTORS
330
169
102
}
330
169
100
DictionaryVariables
280
     0
  1
STANDARD
  0
DICTIONARYVAR
  5
16C
102
{ACAD_REACTORS
330
169
102
}
330
169
100
DictionaryVariables
280
     0
  1
Imperial24
  0
DICTIONARYVAR
  5
16D
102
{ACAD_REACTORS
330
169
102
}
330
169
100
DictionaryVariables
280
     0
  1
Imperial24
  0
DICTIONARY
  5
1A7
330
6B
100
AcDbDictionary
280
     1
281
     1
  3
ACAD_XREC_ROUNDTRIP
360
1A8
  0
DICTIONARY
  5
1A
330
19
100
AcDbDictionary
280
     1
281
     1
  3
BUMPTILE
360
1C
  3
DIFFUSETILE
360
1B
  3
OPACITYTILE
360
1F
  3
REFLECTIONTILE
360
1E
  3
REFRACTIONTILE
360
20
  3
SPECULARTILE
360
1D
  0
DICTIONARY
  5
12
330
11
100
AcDbDictionary
280
     1
281
     1
  3
BUMPTILE
360
14
  3
DIFFUSETILE
360
13
  3
OPACITYTILE
360
17
  3
REFLECTIONTILE
360
16
  3
REFRACTIONTILE
360
18
  3
SPECULARTILE
360
15
  0
DICTIONARY
  5
22
330
21
100
AcDbDictionary
280
     1
281
     1
  3
BUMPTILE
360
24
  3
DIFFUSETILE
360
23
  3
OPACITYTILE
360
27
  3
REFLECTIONTILE
360
26
  3
REFRACTIONTILE
360
28
  3
SPECULARTILE
360
25
  0
DICTIONARY
  5
1A3
330
67
100
AcDbDictionary
280
     1
281
     1
  3
ACAD_XREC_ROUNDTRIP
360
1A4
  0
DICTIONARY
  5
1A5
330
69
100
AcDbDictionary
280
     1
281
     1
  3
ACAD_XREC_ROUNDTRIP
360
1A6
  0
DICTIONARY
  5
16F
330
65
100
AcDbDictionary
280
     1
281
     1
  3
ACAD_ROUNDTRIP_2008_TABLESTYLE_CELLSTYLEMAP
360
170
  0
DICTIONARY
  5
17D
330
2F
100
AcDbDictionary
280
     1
281
     1
  3
ACAD_XREC_ROUNDTRIP
360
17E
  0
DICTIONARY
  5
17B
330
2E
100
AcDbDictionary
280
     1
281
     1
  3
ACAD_XREC_ROUNDTRIP
360
17C
  0
DICTIONARY
  5
189
330
35
100
AcDbDictionary
280
     1
281
     1
  3
ACAD_XREC_ROUNDTRIP
360
18A
  0
DICTIONARY
  5
191
330
39
100
AcDbDictionary
280
     1
281
     1
  3
ACAD_XREC_ROUNDTRIP
360
192
  0
DICTIONARY
  5
183
330
32
100
AcDbDictionary
280
     1
281
     1
  3
ACAD_XREC_ROUNDTRIP
360
184
  0
DICTIONARY
  5
187
330
34
100
AcDbDictionary
280
     1
281
     1
  3
ACAD_XREC_ROUNDTRIP
360
188
  0
DICTIONARY
  5
1A1
330
41
100
AcDbDictionary
280
     1
281
     1
  3
ACAD_XREC_ROUNDTRIP
360
1A2
  0
DICTIONARY
  5
18F
330
38
100
AcDbDictionary
280
     1
281
     1
  3
ACAD_XREC_ROUNDTRIP
360
190
  0
DICTIONARY
  5
173
330
2A
100
AcDbDictionary
280
     1
281
     1
  3
ACAD_XREC_ROUNDTRIP
360
174
  0
DICTIONARY
  5
175
330
2B
100
AcDbDictionary
280
     1
281
     1
  3
ACAD_XREC_ROUNDTRIP
360
176
  0
DICTIONARY
  5
177
330
2C
100
AcDbDictionary
280
     1
281
     1
  3
ACAD_XREC_ROUNDTRIP
360
178
  0
DICTIONARY
  5
179
330
2D
100
AcDbDictionary
280
     1
281
     1
  3
ACAD_XREC_ROUNDTRIP
360
17A
  0
DICTIONARY
  5
181
330
31
100
AcDbDictionary
280
     1
281
     1
  3
ACAD_XREC_ROUNDTRIP
360
182
  0
DICTIONARY
  5
19D
330
3F
100
AcDbDictionary
280
     1
281
     1
  3
ACAD_XREC_ROUNDTRIP
360
19E
  0
DICTIONARY
  5
18D
330
37
100
AcDbDictionary
280
     1
281
     1
  3
ACAD_XREC_ROUNDTRIP
360
18E
  0
DICTIONARY
  5
19F
330
40
100
AcDbDictionary
280
     1
281
     1
  3
ACAD_XREC_ROUNDTRIP
360
1A0
  0
DICTIONARY
  5
185
330
33
100
AcDbDictionary
280
     1
281
     1
  3
ACAD_XREC_ROUNDTRIP
360
186
  0
DICTIONARY
  5
19B
330
3E
100
AcDbDictionary
280
     1
281
     1
  3
ACAD_XREC_ROUNDTRIP
360
19C
  0
DICTIONARY
  5
199
330
3D
100
AcDbDictionary
280
     1
281
     1
  3
ACAD_XREC_ROUNDTRIP
360
19A
  0
DICTIONARY
  5
193
330
3A
100
AcDbDictionary
280
     1
281
     1
  3
ACAD_XREC_ROUNDTRIP
360
194
  0
DICTIONARY
  5
195
330
3B
100
AcDbDictionary
280
     1
281
     1
  3
ACAD_XREC_ROUNDTRIP
360
196
  0
DICTIONARY
  5
18B
330
36
100
AcDbDictionary
280
     1
281
     1
  3
ACAD_XREC_ROUNDTRIP
360
18C
  0
DICTIONARY
  5
17F
330
30
100
AcDbDictionary
280
     1
281
     1
  3
ACAD_XREC_ROUNDTRIP
360
180
  0
DICTIONARY
  5
197
330
3C
100
AcDbDictionary
280
     1
281
     1
  3
ACAD_XREC_ROUNDTRIP
360
198
  0
XRECORD
  5
1A8
102
{ACAD_REACTORS
330
1A7
102
}
330
1A7
100
AcDbXrecord
280
     1
102
DISPLAYNAME
  1
Imperial24
102
FLAGS
 90
        0
  0
XRECORD
  5
1C
102
{ACAD_REACTORS
330
1A
102
}
330
1A
100
AcDbXrecord
280
     1
270
     1
271
     1
  0
XRECORD
  5
1B
102
{ACAD_REACTORS
330
1A
102
}
330
1A
100
AcDbXrecord
280
     1
270
     1
271
     1
  0
XRECORD
  5
1F
102
{ACAD_REACTORS
330
1A
102
}
330
1A
100
AcDbXrecord
280
     1
270
     1
271
     1
  0
XRECORD
  5
1E
102
{ACAD_REACTORS
330
1A
102
}
330
1A
100
AcDbXrecord
280
     1
270
     1
271
     1
  0
XRECORD
  5
20
102
{ACAD_REACTORS
330
1A
102
}
330
1A
100
AcDbXrecord
280
     1
270
     1
271
     1
  0
XRECORD
  5
1D
102
{ACAD_REACTORS
330
1A
102
}
330
1A
100
AcDbXrecord
280
     1
270
     1
271
     1
  0
XRECORD
  5
14
102
{ACAD_REACTORS
330
12
102
}
330
12
100
AcDbXrecord
280
     1
270
     1
271
     1
  0
XRECORD
  5
13
102
{ACAD_REACTORS
330
12
102
}
330
12
100
AcDbXrecord
280
     1
270
     1
271
     1
  0
XRECORD
  5
17
102
{ACAD_REACTORS
330
12
102
}
330
12
100
AcDbXrecord
280
     1
270
     1
271
     1
  0
XRECORD
  5
16
102
{ACAD_REACTORS
330
12
102
}
330
12
100
AcDbXrecord
280
     1
270
     1
271
     1
  0
XRECORD
  5
18
102
{ACAD_REACTORS
330
12
102
}
330
12
100
AcDbXrecord
280
     1
270
     1
271
     1
  0
XRECORD
  5
15
102
{ACAD_REACTORS
330
12
102
}
330
12
100
AcDbXrecord
280
     1
270
     1
271
     1
  0
XRECORD
  5
24
102
{ACAD_REACTORS
330
22
102
}
330
22
100
AcDbXrecord
280
     1
270
     1
271
     1
  0
XRECORD
  5
23
102
{ACAD_REACTORS
330
22
102
}
330
22
100
AcDbXrecord
280
     1
270
     1
271
     1
  0
XRECORD
  5
27
102
{ACAD_REACTORS
330
22
102
}
330
22
100
AcDbXrecord
280
     1
270
     1
271
     1
  0
XRECORD
  5
26
102
{ACAD_REACTORS
330
22
102
}
330
22
100
AcDbXrecord
280
     1
270
     1
271
     1
  0
XRECORD
  5
28
102
{ACAD_REACTORS
330
22
102
}
330
22
100
AcDbXrecord
280
     1
270
     1
271
     1
  0
XRECORD
  5
25
102
{ACAD_REACTORS
330
22
102
}
330
22
100
AcDbXrecord
280
     1
270
     1
271
     1
  0
XRECORD
  5
1A4
102
{ACAD_REACTORS
330
1A3
102
}
330
1A3
100
AcDbXrecord
280
     1
102
ACAD_ROUNDTRIP_2012_MLEADER_STYLE
298
     1
  0
XRECORD
  5
1A6
102
{ACAD_REACTORS
330
1A5
102
}
330
1A5
100
AcDbXrecord
280
     1
102
DISPLAYNAME
  1
Imperial24
102
FLAGS
 90
        0
  0
CELLSTYLEMAP
  5
170
102
{ACAD_REACTORS
330
16F
102
}
330
16F
100
AcDbCellStyleMap
 90
        3
300
CELLSTYLE
  1
TABLEFORMAT_BEGIN
 90
        5
170
     1
 91
        0
 92
    32768
 62
   257
 93
        1
300
CONTENTFORMAT
  1
CONTENTFORMAT_BEGIN
 90
        0
 91
        0
 92
      512
 93
        0
300

 40
0.0
140
1.0
 94
        5
 62
     0
340
55
144
0.25
309
CONTENTFORMAT_END
171
     0
 94
        0
309
TABLEFORMAT_END
  1
CELLSTYLE_BEGIN
 90
        1
 91
        1
300
_TITLE
309
CELLSTYLE_END
300
CELLSTYLE
  1
TABLEFORMAT_BEGIN
 90
        5
170
     1
 91
        0
 92
        0
 62
   257
 93
        1
300
CONTENTFORMAT
  1
CONTENTFORMAT_BEGIN
 90
        0
 91
        0
 92
      512
 93
        0
300

 40
0.0
140
1.0
 94
        5
 62
     0
340
55
144
0.18
309
CONTENTFORMAT_END
171
     0
 94
        0
309
TABLEFORMAT_END
  1
CELLSTYLE_BEGIN
 90
        2
 91
        1
300
_HEADER
309
CELLSTYLE_END
300
CELLSTYLE
  1
TABLEFORMAT_BEGIN
 90
        5
170
     1
 91
        0
 92
        0
 62
   257
 93
        1
300
CONTENTFORMAT
  1
CONTENTFORMAT_BEGIN
 90
        0
 91
        0
 92
      512
 93
        0
300

 40
0.0
140
1.0
 94
        2
 62
     0
340
55
144
0.18
309
CONTENTFORMAT_END
171
     0
 94
        0
309
TABLEFORMAT_END
  1
CELLSTYLE_BEGIN
 90
        3
 91
        2
300
_DATA
309
CELLSTYLE_END
  0
XRECORD
  5
17E
102
{ACAD_REACTORS
330
17D
102
}
330
17D
100
AcDbXrecord
280
     1
102
RTVSPost2010Prop28
280
     1
102
RTVSPost2010PropOp28
 70
     1
102
RTVSPost2010Prop29
280
     1
102
RTVSPost2010PropOp29
 70
     1
102
RTVSPost2010Prop30
280
     0
102
RTVSPost2010PropOp30
 70
     1
102
RTVSPost2010Prop31
280
     0
102
RTVSPost2010PropOp31
 70
     1
102
RTVSPost2010Prop32
280
     0
102
RTVSPost2010PropOp32
 70
     1
102
RTVSPost2010Prop33
280
     0
102
RTVSPost2010PropOp33
 70
     1
102
RTVSPost2010Prop34
280
     0
102
RTVSPost2010PropOp34
 70
     1
102
RTVSPost2010Prop35
280
     0
102
RTVSPost2010PropOp35
 70
     1
102
RTVSPost2010Prop36
280
     0
102
RTVSPost2010PropOp36
 70
     1
102
RTVSPost2010Prop37
 90
       50
102
RTVSPost2010PropOp37
 70
     1
102
RTVSPost2010Prop38
140
0.0
102
RTVSPost2010PropOp38
 70
     1
102
RTVSPost2010Prop39
140
1.0
102
RTVSPost2010PropOp39
 70
     1
102
RTVSPost2010Prop40
 90
        0
102
RTVSPost2010PropOp40
 70
     1
102
RTVSPost2010Prop41ColorIndex
 90
       18
102
RTVSPost2010Prop41ColorRGB
 90
        0
102
RTVSPost2010PropOp41
 70
     1
102
RTVSPost2010Prop42
 90
       50
102
RTVSPost2010PropOp42
 70
     1
102
RTVSPost2010Prop43
 90
        3
102
RTVSPost2010PropOp43
 70
     1
102
RTVSPost2010Prop44ColorIndex
 90
        5
102
RTVSPost2010Prop44ColorRGB
 90
      255
102
RTVSPost2010PropOp44
 70
     1
102
RTVSPost2010Prop45
280
     0
102
RTVSPost2010PropOp45
 70
     1
102
RTVSPost2010Prop46
 90
       50
102
RTVSPost2010PropOp46
 70
     1
102
RTVSPost2010Prop47
 90
       50
102
RTVSPost2010PropOp47
 70
     1
102
RTVSPost2010Prop48
 90
       50
102
RTVSPost2010PropOp48
 70
     1
102
RTVSPost2010Prop49
280
     0
102
RTVSPost2010PropOp49
 70
     1
102
RTVSPost2010Prop50
 90
       50
102
RTVSPost2010PropOp50
 70
     1
102
RTVSPost2010Prop51ColorIndex
 90
      256
102
RTVSPost2010Prop51ColorRGB
 90
-16777216
102
RTVSPost2010PropOp51
 70
     0
102
RTVSPost2010Prop52
140
1.0
102
RTVSPost2010PropOp52
 70
     0
102
RTVSPost2010Prop53
 90
        2
102
RTVSPost2010PropOp53
 70
     1
102
RTVSPost2010Prop54
  1
strokes_ogs.tif
102
RTVSPost2010PropOp54
 70
     1
102
RTVSPost2010Prop55
280
     0
102
RTVSPost2010PropOp55
 70
     1
102
RTVSPost2010Prop56
140
1.0
102
RTVSPost2010PropOp56
 70
     1
102
RTVSPost2010Prop57
140
1.0
102
RTVSPost2010PropOp57
 70
     1
  0
XRECORD
  5
17C
102
{ACAD_REACTORS
330
17B
102
}
330
17B
100
AcDbXrecord
280
     1
102
RTVSPost2010Prop28
280
     0
102
RTVSPost2010PropOp28
 70
     1
102
RTVSPost2010Prop29
280
     1
102
RTVSPost2010PropOp29
 70
     1
102
RTVSPost2010Prop30
280
     1
102
RTVSPost2010PropOp30
 70
     1
102
RTVSPost2010Prop31
280
     0
102
RTVSPost2010PropOp31
 70
     1
102
RTVSPost2010Prop32
280
     0
102
RTVSPost2010PropOp32
 70
     1
102
RTVSPost2010Prop33
280
     0
102
RTVSPost2010PropOp33
 70
     1
102
RTVSPost2010Prop34
280
     0
102
RTVSPost2010PropOp34
 70
     1
102
RTVSPost2010Prop35
280
     0
102
RTVSPost2010PropOp35
 70
     1
102
RTVSPost2010Prop36
280
     0
102
RTVSPost2010PropOp36
 70
     1
102
RTVSPost2010Prop37
 90
       50
102
RTVSPost2010PropOp37
 70
     1
102
RTVSPost2010Prop38
140
0.0
102
RTVSPost2010PropOp38
 70
     1
102
RTVSPost2010Prop39
140
1.0
102
RTVSPost2010PropOp39
 70
     1
102
RTVSPost2010Prop40
 90
        0
102
RTVSPost2010PropOp40
 70
     1
102
RTVSPost2010Prop41ColorIndex
 90
       18
102
RTVSPost2010Prop41ColorRGB
 90
        0
102
RTVSPost2010PropOp41
 70
     1
102
RTVSPost2010Prop42
 90
       50
102
RTVSPost2010PropOp42
 70
     1
102
RTVSPost2010Prop43
 90
        3
102
RTVSPost2010PropOp43
 70
     1
102
RTVSPost2010Prop44ColorIndex
 90
        5
102
RTVSPost2010Prop44ColorRGB
 90
      255
102
RTVSPost2010PropOp44
 70
     1
102
RTVSPost2010Prop45
280
     0
102
RTVSPost2010PropOp45
 70
     1
102
RTVSPost2010Prop46
 90
       50
102
RTVSPost2010PropOp46
 70
     1
102
RTVSPost2010Prop47
 90
       50
102
RTVSPost2010PropOp47
 70
     1
102
RTVSPost2010Prop48
 90
       50
102
RTVSPost2010PropOp48
 70
     1
102
RTVSPost2010Prop49
280
     0
102
RTVSPost2010PropOp49
 70
     1
102
RTVSPost2010Prop50
 90
       50
102
RTVSPost2010PropOp50
 70
     1
102
RTVSPost2010Prop51ColorIndex
 90
      256
102
RTVSPost2010Prop51ColorRGB
 90
-16777216
102
RTVSPost2010PropOp51
 70
     0
102
RTVSPost2010Prop52
140
1.0
102
RTVSPost2010PropOp52
 70
     0
102
RTVSPost2010Prop53
 90
        2
102
RTVSPost2010PropOp53
 70
     1
102
RTVSPost2010Prop54
  1
strokes_ogs.tif
102
RTVSPost2010PropOp54
 70
     1
102
RTVSPost2010Prop55
280
     0
102
RTVSPost2010PropOp55
 70
     1
102
RTVSPost2010Prop56
140
1.0
102
RTVSPost2010PropOp56
 70
     1
102
RTVSPost2010Prop57
140
1.0
102
RTVSPost2010PropOp57
 70
     1
  0
XRECORD
  5
18A
102
{ACAD_REACTORS
330
189
102
}
330
189
100
AcDbXrecord
280
     1
102
RTVSPost2010Prop28
280
     0
102
RTVSPost2010PropOp28
 70
     1
102
RTVSPost2010Prop29
280
     1
102
RTVSPost2010PropOp29
 70
     1
102
RTVSPost2010Prop30
280
     1
102
RTVSPost2010PropOp30
 70
     1
102
RTVSPost2010Prop31
280
     0
102
RTVSPost2010PropOp31
 70
     1
102
RTVSPost2010Prop32
280
     0
102
RTVSPost2010PropOp32
 70
     1
102
RTVSPost2010Prop33
280
     0
102
RTVSPost2010PropOp33
 70
     1
102
RTVSPost2010Prop34
280
     0
102
RTVSPost2010PropOp34
 70
     1
102
RTVSPost2010Prop35
280
     0
102
RTVSPost2010PropOp35
 70
     1
102
RTVSPost2010Prop36
280
     0
102
RTVSPost2010PropOp36
 70
     1
102
RTVSPost2010Prop37
 90
       50
102
RTVSPost2010PropOp37
 70
     1
102
RTVSPost2010Prop38
140
0.0
102
RTVSPost2010PropOp38
 70
     1
102
RTVSPost2010Prop39
140
1.0
102
RTVSPost2010PropOp39
 70
     1
102
RTVSPost2010Prop40
 90
        0
102
RTVSPost2010PropOp40
 70
     1
102
RTVSPost2010Prop41ColorIndex
 90
       18
102
RTVSPost2010Prop41ColorRGB
 90
        0
102
RTVSPost2010PropOp41
 70
     1
102
RTVSPost2010Prop42
 90
       50
102
RTVSPost2010PropOp42
 70
     1
102
RTVSPost2010Prop43
 90
        3
102
RTVSPost2010PropOp43
 70
     1
102
RTVSPost2010Prop44ColorIndex
 90
        5
102
RTVSPost2010Prop44ColorRGB
 90
      255
102
RTVSPost2010PropOp44
 70
     1
102
RTVSPost2010Prop45
280
     0
102
RTVSPost2010PropOp45
 70
     1
102
RTVSPost2010Prop46
 90
       50
102
RTVSPost2010PropOp46
 70
     1
102
RTVSPost2010Prop47
 90
       50
102
RTVSPost2010PropOp47
 70
     1
102
RTVSPost2010Prop48
 90
       50
102
RTVSPost2010PropOp48
 70
     1
102
RTVSPost2010Prop49
280
     0
102
RTVSPost2010PropOp49
 70
     1
102
RTVSPost2010Prop50
 90
       50
102
RTVSPost2010PropOp50
 70
     1
102
RTVSPost2010Prop51ColorIndex
 90
      256
102
RTVSPost2010Prop51ColorRGB
 90
-16777216
102
RTVSPost2010PropOp51
 70
     0
102
RTVSPost2010Prop52
140
1.0
102
RTVSPost2010PropOp52
 70
     0
102
RTVSPost2010Prop53
 90
        2
102
RTVSPost2010PropOp53
 70
     1
102
RTVSPost2010Prop54
  1
strokes_ogs.tif
102
RTVSPost2010PropOp54
 70
     1
102
RTVSPost2010Prop55
280
     0
102
RTVSPost2010PropOp55
 70
     1
102
RTVSPost2010Prop56
140
1.0
102
RTVSPost2010PropOp56
 70
     1
102
RTVSPost2010Prop57
140
1.0
102
RTVSPost2010PropOp57
 70
     1
  0
XRECORD
  5
192
102
{ACAD_REACTORS
330
191
102
}
330
191
100
AcDbXrecord
280
     1
102
RTVSPost2010Prop28
280
     0
102
RTVSPost2010PropOp28
 70
     1
102
RTVSPost2010Prop29
280
     1
102
RTVSPost2010PropOp29
 70
     1
102
RTVSPost2010Prop30
280
     1
102
RTVSPost2010PropOp30
 70
     1
102
RTVSPost2010Prop31
280
     0
102
RTVSPost2010PropOp31
 70
     1
102
RTVSPost2010Prop32
280
     0
102
RTVSPost2010PropOp32
 70
     1
102
RTVSPost2010Prop33
280
     0
102
RTVSPost2010PropOp33
 70
     1
102
RTVSPost2010Prop34
280
     0
102
RTVSPost2010PropOp34
 70
     1
102
RTVSPost2010Prop35
280
     0
102
RTVSPost2010PropOp35
 70
     1
102
RTVSPost2010Prop36
280
     0
102
RTVSPost2010PropOp36
 70
     1
102
RTVSPost2010Prop37
 90
       50
102
RTVSPost2010PropOp37
 70
     1
102
RTVSPost2010Prop38
140
0.0
102
RTVSPost2010PropOp38
 70
     1
102
RTVSPost2010Prop39
140
1.0
102
RTVSPost2010PropOp39
 70
     1
102
RTVSPost2010Prop40
 90
        0
102
RTVSPost2010PropOp40
 70
     1
102
RTVSPost2010Prop41ColorIndex
 90
       18
102
RTVSPost2010Prop41ColorRGB
 90
        0
102
RTVSPost2010PropOp41
 70
     1
102
RTVSPost2010Prop42
 90
       50
102
RTVSPost2010PropOp42
 70
     1
102
RTVSPost2010Prop43
 90
        3
102
RTVSPost2010PropOp43
 70
     1
102
RTVSPost2010Prop44ColorIndex
 90
        5
102
RTVSPost2010Prop44ColorRGB
 90
      255
102
RTVSPost2010PropOp44
 70
     1
102
RTVSPost2010Prop45
280
     0
102
RTVSPost2010PropOp45
 70
     1
102
RTVSPost2010Prop46
 90
       50
102
RTVSPost2010PropOp46
 70
     1
102
RTVSPost2010Prop47
 90
       50
102
RTVSPost2010PropOp47
 70
     1
102
RTVSPost2010Prop48
 90
       50
102
RTVSPost2010PropOp48
 70
     1
102
RTVSPost2010Prop49
280
     0
102
RTVSPost2010PropOp49
 70
     1
102
RTVSPost2010Prop50
 90
       50
102
RTVSPost2010PropOp50
 70
     1
102
RTVSPost2010Prop51ColorIndex
 90
      256
102
RTVSPost2010Prop51ColorRGB
 90
-16777216
102
RTVSPost2010PropOp51
 70
     0
102
RTVSPost2010Prop52
140
1.0
102
RTVSPost2010PropOp52
 70
     0
102
RTVSPost2010Prop53
 90
        2
102
RTVSPost2010PropOp53
 70
     1
102
RTVSPost2010Prop54
  1
strokes_ogs.tif
102
RTVSPost2010PropOp54
 70
     1
102
RTVSPost2010Prop55
280
     0
102
RTVSPost2010PropOp55
 70
     1
102
RTVSPost2010Prop56
140
1.0
102
RTVSPost2010PropOp56
 70
     1
102
RTVSPost2010Prop57
140
1.0
102
RTVSPost2010PropOp57
 70
     1
  0
XRECORD
  5
184
102
{ACAD_REACTORS
330
183
102
}
330
183
100
AcDbXrecord
280
     1
102
RTVSPost2010Prop28
280
     0
102
RTVSPost2010PropOp28
 70
     1
102
RTVSPost2010Prop29
280
     1
102
RTVSPost2010PropOp29
 70
     1
102
RTVSPost2010Prop30
280
     1
102
RTVSPost2010PropOp30
 70
     1
102
RTVSPost2010Prop31
280
     0
102
RTVSPost2010PropOp31
 70
     1
102
RTVSPost2010Prop32
280
     0
102
RTVSPost2010PropOp32
 70
     1
102
RTVSPost2010Prop33
280
     0
102
RTVSPost2010PropOp33
 70
     1
102
RTVSPost2010Prop34
280
     0
102
RTVSPost2010PropOp34
 70
     1
102
RTVSPost2010Prop35
280
     0
102
RTVSPost2010PropOp35
 70
     1
102
RTVSPost2010Prop36
280
     0
102
RTVSPost2010PropOp36
 70
     1
102
RTVSPost2010Prop37
 90
       50
102
RTVSPost2010PropOp37
 70
     1
102
RTVSPost2010Prop38
140
0.0
102
RTVSPost2010PropOp38
 70
     1
102
RTVSPost2010Prop39
140
1.0
102
RTVSPost2010PropOp39
 70
     1
102
RTVSPost2010Prop40
 90
        0
102
RTVSPost2010PropOp40
 70
     1
102
RTVSPost2010Prop41ColorIndex
 90
       18
102
RTVSPost2010Prop41ColorRGB
 90
        0
102
RTVSPost2010PropOp41
 70
     1
102
RTVSPost2010Prop42
 90
       50
102
RTVSPost2010PropOp42
 70
     1
102
RTVSPost2010Prop43
 90
        3
102
RTVSPost2010PropOp43
 70
     1
102
RTVSPost2010Prop44ColorIndex
 90
        5
102
RTVSPost2010Prop44ColorRGB
 90
      255
102
RTVSPost2010PropOp44
 70
     1
102
RTVSPost2010Prop45
280
     0
102
RTVSPost2010PropOp45
 70
     1
102
RTVSPost2010Prop46
 90
       50
102
RTVSPost2010PropOp46
 70
     1
102
RTVSPost2010Prop47
 90
       50
102
RTVSPost2010PropOp47
 70
     1
102
RTVSPost2010Prop48
 90
       50
102
RTVSPost2010PropOp48
 70
     1
102
RTVSPost2010Prop49
280
     0
102
RTVSPost2010PropOp49
 70
     1
102
RTVSPost2010Prop50
 90
       50
102
RTVSPost2010PropOp50
 70
     1
102
RTVSPost2010Prop51ColorIndex
 90
      256
102
RTVSPost2010Prop51ColorRGB
 90
-16777216
102
RTVSPost2010PropOp51
 70
     0
102
RTVSPost2010Prop52
140
1.0
102
RTVSPost2010PropOp52
 70
     0
102
RTVSPost2010Prop53
 90
        2
102
RTVSPost2010PropOp53
 70
     1
102
RTVSPost2010Prop54
  1
strokes_ogs.tif
102
RTVSPost2010PropOp54
 70
     1
102
RTVSPost2010Prop55
280
     0
102
RTVSPost2010PropOp55
 70
     1
102
RTVSPost2010Prop56
140
1.0
102
RTVSPost2010PropOp56
 70
     1
102
RTVSPost2010Prop57
140
1.0
102
RTVSPost2010PropOp57
 70
     1
  0
XRECORD
  5
188
102
{ACAD_REACTORS
330
187
102
}
330
187
100
AcDbXrecord
280
     1
102
RTVSPost2010Prop28
280
     0
102
RTVSPost2010PropOp28
 70
     1
102
RTVSPost2010Prop29
280
     1
102
RTVSPost2010PropOp29
 70
     1
102
RTVSPost2010Prop30
280
     1
102
RTVSPost2010PropOp30
 70
     1
102
RTVSPost2010Prop31
280
     0
102
RTVSPost2010PropOp31
 70
     1
102
RTVSPost2010Prop32
280
     0
102
RTVSPost2010PropOp32
 70
     1
102
RTVSPost2010Prop33
280
     0
102
RTVSPost2010PropOp33
 70
     1
102
RTVSPost2010Prop34
280
     0
102
RTVSPost2010PropOp34
 70
     1
102
RTVSPost2010Prop35
280
     0
102
RTVSPost2010PropOp35
 70
     1
102
RTVSPost2010Prop36
280
     0
102
RTVSPost2010PropOp36
 70
     1
102
RTVSPost2010Prop37
 90
       50
102
RTVSPost2010PropOp37
 70
     1
102
RTVSPost2010Prop38
140
0.0
102
RTVSPost2010PropOp38
 70
     1
102
RTVSPost2010Prop39
140
1.0
102
RTVSPost2010PropOp39
 70
     1
102
RTVSPost2010Prop40
 90
        0
102
RTVSPost2010PropOp40
 70
     1
102
RTVSPost2010Prop41ColorIndex
 90
       18
102
RTVSPost2010Prop41ColorRGB
 90
        0
102
RTVSPost2010PropOp41
 70
     1
102
RTVSPost2010Prop42
 90
       50
102
RTVSPost2010PropOp42
 70
     1
102
RTVSPost2010Prop43
 90
        3
102
RTVSPost2010PropOp43
 70
     1
102
RTVSPost2010Prop44ColorIndex
 90
        5
102
RTVSPost2010Prop44ColorRGB
 90
      255
102
RTVSPost2010PropOp44
 70
     1
102
RTVSPost2010Prop45
280
     0
102
RTVSPost2010PropOp45
 70
     1
102
RTVSPost2010Prop46
 90
       50
102
RTVSPost2010PropOp46
 70
     1
102
RTVSPost2010Prop47
 90
       50
102
RTVSPost2010PropOp47
 70
     1
102
RTVSPost2010Prop48
 90
       50
102
RTVSPost2010PropOp48
 70
     1
102
RTVSPost2010Prop49
280
     0
102
RTVSPost2010PropOp49
 70
     1
102
RTVSPost2010Prop50
 90
       50
102
RTVSPost2010PropOp50
 70
     1
102
RTVSPost2010Prop51ColorIndex
 90
      256
102
RTVSPost2010Prop51ColorRGB
 90
-16777216
102
RTVSPost2010PropOp51
 70
     0
102
RTVSPost2010Prop52
140
1.0
102
RTVSPost2010PropOp52
 70
     0
102
RTVSPost2010Prop53
 90
        2
102
RTVSPost2010PropOp53
 70
     1
102
RTVSPost2010Prop54
  1
strokes_ogs.tif
102
RTVSPost2010PropOp54
 70
     1
102
RTVSPost2010Prop55
280
     0
102
RTVSPost2010PropOp55
 70
     1
102
RTVSPost2010Prop56
140
1.0
102
RTVSPost2010PropOp56
 70
     1
102
RTVSPost2010Prop57
140
1.0
102
RTVSPost2010PropOp57
 70
     1
  0
XRECORD
  5
1A2
102
{ACAD_REACTORS
330
1A1
102
}
330
1A1
100
AcDbXrecord
280
     1
102
RTVSPost2010Prop28
280
     0
102
RTVSPost2010PropOp28
 70
     0
102
RTVSPost2010Prop29
280
     1
102
RTVSPost2010PropOp29
 70
     0
102
RTVSPost2010Prop30
280
     1
102
RTVSPost2010PropOp30
 70
     0
102
RTVSPost2010Prop31
280
     0
102
RTVSPost2010PropOp31
 70
     0
102
RTVSPost2010Prop32
280
     0
102
RTVSPost2010PropOp32
 70
     0
102
RTVSPost2010Prop33
280
     0
102
RTVSPost2010PropOp33
 70
     0
102
RTVSPost2010Prop34
280
     0
102
RTVSPost2010PropOp34
 70
     0
102
RTVSPost2010Prop35
280
     0
102
RTVSPost2010PropOp35
 70
     0
102
RTVSPost2010Prop36
280
     0
102
RTVSPost2010PropOp36
 70
     0
102
RTVSPost2010Prop37
 90
       50
102
RTVSPost2010PropOp37
 70
     0
102
RTVSPost2010Prop38
140
0.0
102
RTVSPost2010PropOp38
 70
     0
102
RTVSPost2010Prop39
140
1.0
102
RTVSPost2010PropOp39
 70
     0
102
RTVSPost2010Prop40
 90
        0
102
RTVSPost2010PropOp40
 70
     0
102
RTVSPost2010Prop41ColorIndex
 90
       18
102
RTVSPost2010Prop41ColorRGB
 90
        0
102
RTVSPost2010PropOp41
 70
     0
102
RTVSPost2010Prop42
 90
       50
102
RTVSPost2010PropOp42
 70
     0
102
RTVSPost2010Prop43
 90
        3
102
RTVSPost2010PropOp43
 70
     0
102
RTVSPost2010Prop44ColorIndex
 90
        5
102
RTVSPost2010Prop44ColorRGB
 90
      255
102
RTVSPost2010PropOp44
 70
     0
102
RTVSPost2010Prop45
280
     0
102
RTVSPost2010PropOp45
 70
     0
102
RTVSPost2010Prop46
 90
       50
102
RTVSPost2010PropOp46
 70
     0
102
RTVSPost2010Prop47
 90
       50
102
RTVSPost2010PropOp47
 70
     0
102
RTVSPost2010Prop48
 90
       50
102
RTVSPost2010PropOp48
 70
     0
102
RTVSPost2010Prop49
280
     0
102
RTVSPost2010PropOp49
 70
     0
102
RTVSPost2010Prop50
 90
       50
102
RTVSPost2010PropOp50
 70
     0
102
RTVSPost2010Prop51ColorIndex
 90
      256
102
RTVSPost2010Prop51ColorRGB
 90
-16777216
102
RTVSPost2010PropOp51
 70
     0
102
RTVSPost2010Prop52
140
1.0
102
RTVSPost2010PropOp52
 70
     0
102
RTVSPost2010Prop53
 90
        2
102
RTVSPost2010PropOp53
 70
     0
102
RTVSPost2010Prop54
  1
strokes_ogs.tif
102
RTVSPost2010PropOp54
 70
     0
102
RTVSPost2010Prop55
280
     0
102
RTVSPost2010PropOp55
 70
     0
102
RTVSPost2010Prop56
140
1.0
102
RTVSPost2010PropOp56
 70
     0
102
RTVSPost2010Prop57
140
1.0
102
RTVSPost2010PropOp57
 70
     0
  0
XRECORD
  5
190
102
{ACAD_REACTORS
330
18F
102
}
330
18F
100
AcDbXrecord
280
     1
102
RTVSPost2010Prop28
280
     0
102
RTVSPost2010PropOp28
 70
     1
102
RTVSPost2010Prop29
280
     1
102
RTVSPost2010PropOp29
 70
     1
102
RTVSPost2010Prop30
280
     1
102
RTVSPost2010PropOp30
 70
     1
102
RTVSPost2010Prop31
280
     0
102
RTVSPost2010PropOp31
 70
     1
102
RTVSPost2010Prop32
280
     0
102
RTVSPost2010PropOp32
 70
     1
102
RTVSPost2010Prop33
280
     0
102
RTVSPost2010PropOp33
 70
     1
102
RTVSPost2010Prop34
280
     0
102
RTVSPost2010PropOp34
 70
     1
102
RTVSPost2010Prop35
280
     0
102
RTVSPost2010PropOp35
 70
     1
102
RTVSPost2010Prop36
280
     0
102
RTVSPost2010PropOp36
 70
     1
102
RTVSPost2010Prop37
 90
       50
102
RTVSPost2010PropOp37
 70
     1
102
RTVSPost2010Prop38
140
0.0
102
RTVSPost2010PropOp38
 70
     1
102
RTVSPost2010Prop39
140
1.0
102
RTVSPost2010PropOp39
 70
     1
102
RTVSPost2010Prop40
 90
        0
102
RTVSPost2010PropOp40
 70
     1
102
RTVSPost2010Prop41ColorIndex
 90
       18
102
RTVSPost2010Prop41ColorRGB
 90
        0
102
RTVSPost2010PropOp41
 70
     1
102
RTVSPost2010Prop42
 90
       50
102
RTVSPost2010PropOp42
 70
     1
102
RTVSPost2010Prop43
 90
        3
102
RTVSPost2010PropOp43
 70
     1
102
RTVSPost2010Prop44ColorIndex
 90
        5
102
RTVSPost2010Prop44ColorRGB
 90
      255
102
RTVSPost2010PropOp44
 70
     1
102
RTVSPost2010Prop45
280
     0
102
RTVSPost2010PropOp45
 70
     1
102
RTVSPost2010Prop46
 90
       50
102
RTVSPost2010PropOp46
 70
     1
102
RTVSPost2010Prop47
 90
       50
102
RTVSPost2010PropOp47
 70
     1
102
RTVSPost2010Prop48
 90
       50
102
RTVSPost2010PropOp48
 70
     1
102
RTVSPost2010Prop49
280
     0
102
RTVSPost2010PropOp49
 70
     1
102
RTVSPost2010Prop50
 90
       50
102
RTVSPost2010PropOp50
 70
     1
102
RTVSPost2010Prop51ColorIndex
 90
      256
102
RTVSPost2010Prop51ColorRGB
 90
-16777216
102
RTVSPost2010PropOp51
 70
     0
102
RTVSPost2010Prop52
140
1.0
102
RTVSPost2010PropOp52
 70
     0
102
RTVSPost2010Prop53
 90
        2
102
RTVSPost2010PropOp53
 70
     1
102
RTVSPost2010Prop54
  1
strokes_ogs.tif
102
RTVSPost2010PropOp54
 70
     1
102
RTVSPost2010Prop55
280
     0
102
RTVSPost2010PropOp55
 70
     1
102
RTVSPost2010Prop56
140
1.0
102
RTVSPost2010PropOp56
 70
     1
102
RTVSPost2010Prop57
140
1.0
102
RTVSPost2010PropOp57
 70
     1
  0
XRECORD
  5
174
102
{ACAD_REACTORS
330
173
102
}
330
173
100
AcDbXrecord
280
     1
102
RTVSPost2010Prop28
280
     0
102
RTVSPost2010PropOp28
 70
     1
102
RTVSPost2010Prop29
280
     1
102
RTVSPost2010PropOp29
 70
     1
102
RTVSPost2010Prop30
280
     1
102
RTVSPost2010PropOp30
 70
     1
102
RTVSPost2010Prop31
280
     0
102
RTVSPost2010PropOp31
 70
     1
102
RTVSPost2010Prop32
280
     0
102
RTVSPost2010PropOp32
 70
     1
102
RTVSPost2010Prop33
280
     0
102
RTVSPost2010PropOp33
 70
     1
102
RTVSPost2010Prop34
280
     0
102
RTVSPost2010PropOp34
 70
     1
102
RTVSPost2010Prop35
280
     0
102
RTVSPost2010PropOp35
 70
     1
102
RTVSPost2010Prop36
280
     0
102
RTVSPost2010PropOp36
 70
     1
102
RTVSPost2010Prop37
 90
       50
102
RTVSPost2010PropOp37
 70
     1
102
RTVSPost2010Prop38
140
0.0
102
RTVSPost2010PropOp38
 70
     1
102
RTVSPost2010Prop39
140
1.0
102
RTVSPost2010PropOp39
 70
     1
102
RTVSPost2010Prop40
 90
        0
102
RTVSPost2010PropOp40
 70
     1
102
RTVSPost2010Prop41ColorIndex
 90
       18
102
RTVSPost2010Prop41ColorRGB
 90
        0
102
RTVSPost2010PropOp41
 70
     1
102
RTVSPost2010Prop42
 90
       50
102
RTVSPost2010PropOp42
 70
     1
102
RTVSPost2010Prop43
 90
        3
102
RTVSPost2010PropOp43
 70
     1
102
RTVSPost2010Prop44ColorIndex
 90
        5
102
RTVSPost2010Prop44ColorRGB
 90
      255
102
RTVSPost2010PropOp44
 70
     1
102
RTVSPost2010Prop45
280
     0
102
RTVSPost2010PropOp45
 70
     1
102
RTVSPost2010Prop46
 90
       50
102
RTVSPost2010PropOp46
 70
     1
102
RTVSPost2010Prop47
 90
       50
102
RTVSPost2010PropOp47
 70
     1
102
RTVSPost2010Prop48
 90
       50
102
RTVSPost2010PropOp48
 70
     1
102
RTVSPost2010Prop49
280
     0
102
RTVSPost2010PropOp49
 70
     1
102
RTVSPost2010Prop50
 90
       50
102
RTVSPost2010PropOp50
 70
     1
102
RTVSPost2010Prop51ColorIndex
 90
      256
102
RTVSPost2010Prop51ColorRGB
 90
-16777216
102
RTVSPost2010PropOp51
 70
     0
102
RTVSPost2010Prop52
140
1.0
102
RTVSPost2010PropOp52
 70
     0
102
RTVSPost2010Prop53
 90
        2
102
RTVSPost2010PropOp53
 70
     1
102
RTVSPost2010Prop54
  1
strokes_ogs.tif
102
RTVSPost2010PropOp54
 70
     1
102
RTVSPost2010Prop55
280
     0
102
RTVSPost2010PropOp55
 70
     1
102
RTVSPost2010Prop56
140
1.0
102
RTVSPost2010PropOp56
 70
     1
102
RTVSPost2010Prop57
140
1.0
102
RTVSPost2010PropOp57
 70
     1
  0
XRECORD
  5
176
102
{ACAD_REACTORS
330
175
102
}
330
175
100
AcDbXrecord
280
     1
102
RTVSPost2010Prop28
280
     0
102
RTVSPost2010PropOp28
 70
     1
102
RTVSPost2010Prop29
280
     1
102
RTVSPost2010PropOp29
 70
     1
102
RTVSPost2010Prop30
280
     1
102
RTVSPost2010PropOp30
 70
     1
102
RTVSPost2010Prop31
280
     0
102
RTVSPost2010PropOp31
 70
     1
102
RTVSPost2010Prop32
280
     0
102
RTVSPost2010PropOp32
 70
     1
102
RTVSPost2010Prop33
280
     0
102
RTVSPost2010PropOp33
 70
     1
102
RTVSPost2010Prop34
280
     0
102
RTVSPost2010PropOp34
 70
     1
102
RTVSPost2010Prop35
280
     0
102
RTVSPost2010PropOp35
 70
     1
102
RTVSPost2010Prop36
280
     0
102
RTVSPost2010PropOp36
 70
     1
102
RTVSPost2010Prop37
 90
       50
102
RTVSPost2010PropOp37
 70
     1
102
RTVSPost2010Prop38
140
0.0
102
RTVSPost2010PropOp38
 70
     1
102
RTVSPost2010Prop39
140
1.0
102
RTVSPost2010PropOp39
 70
     1
102
RTVSPost2010Prop40
 90
        0
102
RTVSPost2010PropOp40
 70
     1
102
RTVSPost2010Prop41ColorIndex
 90
       18
102
RTVSPost2010Prop41ColorRGB
 90
        0
102
RTVSPost2010PropOp41
 70
     1
102
RTVSPost2010Prop42
 90
       50
102
RTVSPost2010PropOp42
 70
     1
102
RTVSPost2010Prop43
 90
        3
102
RTVSPost2010PropOp43
 70
     1
102
RTVSPost2010Prop44ColorIndex
 90
        5
102
RTVSPost2010Prop44ColorRGB
 90
      255
102
RTVSPost2010PropOp44
 70
     1
102
RTVSPost2010Prop45
280
     0
102
RTVSPost2010PropOp45
 70
     1
102
RTVSPost2010Prop46
 90
       50
102
RTVSPost2010PropOp46
 70
     1
102
RTVSPost2010Prop47
 90
       50
102
RTVSPost2010PropOp47
 70
     1
102
RTVSPost2010Prop48
 90
       50
102
RTVSPost2010PropOp48
 70
     1
102
RTVSPost2010Prop49
280
     0
102
RTVSPost2010PropOp49
 70
     1
102
RTVSPost2010Prop50
 90
       50
102
RTVSPost2010PropOp50
 70
     1
102
RTVSPost2010Prop51ColorIndex
 90
      256
102
RTVSPost2010Prop51ColorRGB
 90
-16777216
102
RTVSPost2010PropOp51
 70
     0
102
RTVSPost2010Prop52
140
1.0
102
RTVSPost2010PropOp52
 70
     0
102
RTVSPost2010Prop53
 90
        2
102
RTVSPost2010PropOp53
 70
     1
102
RTVSPost2010Prop54
  1
strokes_ogs.tif
102
RTVSPost2010PropOp54
 70
     1
102
RTVSPost2010Prop55
280
     0
102
RTVSPost2010PropOp55
 70
     1
102
RTVSPost2010Prop56
140
1.0
102
RTVSPost2010PropOp56
 70
     1
102
RTVSPost2010Prop57
140
1.0
102
RTVSPost2010PropOp57
 70
     1
  0
XRECORD
  5
178
102
{ACAD_REACTORS
330
177
102
}
330
177
100
AcDbXrecord
280
     1
102
RTVSPost2010Prop28
280
     0
102
RTVSPost2010PropOp28
 70
     1
102
RTVSPost2010Prop29
280
     1
102
RTVSPost2010PropOp29
 70
     1
102
RTVSPost2010Prop30
280
     1
102
RTVSPost2010PropOp30
 70
     1
102
RTVSPost2010Prop31
280
     0
102
RTVSPost2010PropOp31
 70
     1
102
RTVSPost2010Prop32
280
     0
102
RTVSPost2010PropOp32
 70
     1
102
RTVSPost2010Prop33
280
     0
102
RTVSPost2010PropOp33
 70
     1
102
RTVSPost2010Prop34
280
     0
102
RTVSPost2010PropOp34
 70
     1
102
RTVSPost2010Prop35
280
     0
102
RTVSPost2010PropOp35
 70
     1
102
RTVSPost2010Prop36
280
     0
102
RTVSPost2010PropOp36
 70
     1
102
RTVSPost2010Prop37
 90
       50
102
RTVSPost2010PropOp37
 70
     1
102
RTVSPost2010Prop38
140
0.0
102
RTVSPost2010PropOp38
 70
     1
102
RTVSPost2010Prop39
140
1.0
102
RTVSPost2010PropOp39
 70
     1
102
RTVSPost2010Prop40
 90
        0
102
RTVSPost2010PropOp40
 70
     1
102
RTVSPost2010Prop41ColorIndex
 90
       18
102
RTVSPost2010Prop41ColorRGB
 90
        0
102
RTVSPost2010PropOp41
 70
     1
102
RTVSPost2010Prop42
 90
       50
102
RTVSPost2010PropOp42
 70
     1
102
RTVSPost2010Prop43
 90
        3
102
RTVSPost2010PropOp43
 70
     1
102
RTVSPost2010Prop44ColorIndex
 90
        5
102
RTVSPost2010Prop44ColorRGB
 90
      255
102
RTVSPost2010PropOp44
 70
     1
102
RTVSPost2010Prop45
280
     0
102
RTVSPost2010PropOp45
 70
     1
102
RTVSPost2010Prop46
 90
       50
102
RTVSPost2010PropOp46
 70
     1
102
RTVSPost2010Prop47
 90
       50
102
RTVSPost2010PropOp47
 70
     1
102
RTVSPost2010Prop48
 90
       50
102
RTVSPost2010PropOp48
 70
     1
102
RTVSPost2010Prop49
280
     0
102
RTVSPost2010PropOp49
 70
     1
102
RTVSPost2010Prop50
 90
       50
102
RTVSPost2010PropOp50
 70
     1
102
RTVSPost2010Prop51ColorIndex
 90
      256
102
RTVSPost2010Prop51ColorRGB
 90
-16777216
102
RTVSPost2010PropOp51
 70
     0
102
RTVSPost2010Prop52
140
1.0
102
RTVSPost2010PropOp52
 70
     0
102
RTVSPost2010Prop53
 90
        2
102
RTVSPost2010PropOp53
 70
     1
102
RTVSPost2010Prop54
  1
strokes_ogs.tif
102
RTVSPost2010PropOp54
 70
     1
102
RTVSPost2010Prop55
280
     0
102
RTVSPost2010PropOp55
 70
     1
102
RTVSPost2010Prop56
140
1.0
102
RTVSPost2010PropOp56
 70
     1
102
RTVSPost2010Prop57
140
1.0
102
RTVSPost2010PropOp57
 70
     1
  0
XRECORD
  5
17A
102
{ACAD_REACTORS
330
179
102
}
330
179
100
AcDbXrecord
280
     1
102
RTVSPost2010Prop28
280
     0
102
RTVSPost2010PropOp28
 70
     1
102
RTVSPost2010Prop29
280
     1
102
RTVSPost2010PropOp29
 70
     1
102
RTVSPost2010Prop30
280
     1
102
RTVSPost2010PropOp30
 70
     1
102
RTVSPost2010Prop31
280
     0
102
RTVSPost2010PropOp31
 70
     1
102
RTVSPost2010Prop32
280
     0
102
RTVSPost2010PropOp32
 70
     1
102
RTVSPost2010Prop33
280
     0
102
RTVSPost2010PropOp33
 70
     1
102
RTVSPost2010Prop34
280
     0
102
RTVSPost2010PropOp34
 70
     1
102
RTVSPost2010Prop35
280
     0
102
RTVSPost2010PropOp35
 70
     1
102
RTVSPost2010Prop36
280
     0
102
RTVSPost2010PropOp36
 70
     1
102
RTVSPost2010Prop37
 90
       50
102
RTVSPost2010PropOp37
 70
     1
102
RTVSPost2010Prop38
140
0.0
102
RTVSPost2010PropOp38
 70
     1
102
RTVSPost2010Prop39
140
1.0
102
RTVSPost2010PropOp39
 70
     1
102
RTVSPost2010Prop40
 90
        0
102
RTVSPost2010PropOp40
 70
     1
102
RTVSPost2010Prop41ColorIndex
 90
       18
102
RTVSPost2010Prop41ColorRGB
 90
        0
102
RTVSPost2010PropOp41
 70
     1
102
RTVSPost2010Prop42
 90
       50
102
RTVSPost2010PropOp42
 70
     1
102
RTVSPost2010Prop43
 90
        3
102
RTVSPost2010PropOp43
 70
     1
102
RTVSPost2010Prop44ColorIndex
 90
        5
102
RTVSPost2010Prop44ColorRGB
 90
      255
102
RTVSPost2010PropOp44
 70
     1
102
RTVSPost2010Prop45
280
     0
102
RTVSPost2010PropOp45
 70
     1
102
RTVSPost2010Prop46
 90
       50
102
RTVSPost2010PropOp46
 70
     1
102
RTVSPost2010Prop47
 90
       50
102
RTVSPost2010PropOp47
 70
     1
102
RTVSPost2010Prop48
 90
       50
102
RTVSPost2010PropOp48
 70
     1
102
RTVSPost2010Prop49
280
     0
102
RTVSPost2010PropOp49
 70
     1
102
RTVSPost2010Prop50
 90
       50
102
RTVSPost2010PropOp50
 70
     1
102
RTVSPost2010Prop51ColorIndex
 90
      256
102
RTVSPost2010Prop51ColorRGB
 90
-16777216
102
RTVSPost2010PropOp51
 70
     0
102
RTVSPost2010Prop52
140
1.0
102
RTVSPost2010PropOp52
 70
     0
102
RTVSPost2010Prop53
 90
        2
102
RTVSPost2010PropOp53
 70
     1
102
RTVSPost2010Prop54
  1
strokes_ogs.tif
102
RTVSPost2010PropOp54
 70
     1
102
RTVSPost2010Prop55
280
     0
102
RTVSPost2010PropOp55
 70
     1
102
RTVSPost2010Prop56
140
1.0
102
RTVSPost2010PropOp56
 70
     1
102
RTVSPost2010Prop57
140
1.0
102
RTVSPost2010PropOp57
 70
     1
  0
XRECORD
  5
182
102
{ACAD_REACTORS
330
181
102
}
330
181
100
AcDbXrecord
280
     1
102
RTVSPost2010Prop28
280
     0
102
RTVSPost2010PropOp28
 70
     1
102
RTVSPost2010Prop29
280
     1
102
RTVSPost2010PropOp29
 70
     1
102
RTVSPost2010Prop30
280
     1
102
RTVSPost2010PropOp30
 70
     1
102
RTVSPost2010Prop31
280
     0
102
RTVSPost2010PropOp31
 70
     1
102
RTVSPost2010Prop32
280
     0
102
RTVSPost2010PropOp32
 70
     1
102
RTVSPost2010Prop33
280
     0
102
RTVSPost2010PropOp33
 70
     1
102
RTVSPost2010Prop34
280
     0
102
RTVSPost2010PropOp34
 70
     1
102
RTVSPost2010Prop35
280
     0
102
RTVSPost2010PropOp35
 70
     1
102
RTVSPost2010Prop36
280
     0
102
RTVSPost2010PropOp36
 70
     1
102
RTVSPost2010Prop37
 90
       50
102
RTVSPost2010PropOp37
 70
     1
102
RTVSPost2010Prop38
140
0.0
102
RTVSPost2010PropOp38
 70
     1
102
RTVSPost2010Prop39
140
1.0
102
RTVSPost2010PropOp39
 70
     1
102
RTVSPost2010Prop40
 90
        0
102
RTVSPost2010PropOp40
 70
     1
102
RTVSPost2010Prop41ColorIndex
 90
       18
102
RTVSPost2010Prop41ColorRGB
 90
        0
102
RTVSPost2010PropOp41
 70
     1
102
RTVSPost2010Prop42
 90
       50
102
RTVSPost2010PropOp42
 70
     1
102
RTVSPost2010Prop43
 90
        3
102
RTVSPost2010PropOp43
 70
     1
102
RTVSPost2010Prop44ColorIndex
 90
        5
102
RTVSPost2010Prop44ColorRGB
 90
      255
102
RTVSPost2010PropOp44
 70
     1
102
RTVSPost2010Prop45
280
     0
102
RTVSPost2010PropOp45
 70
     1
102
RTVSPost2010Prop46
 90
       50
102
RTVSPost2010PropOp46
 70
     1
102
RTVSPost2010Prop47
 90
       50
102
RTVSPost2010PropOp47
 70
     1
102
RTVSPost2010Prop48
 90
       50
102
RTVSPost2010PropOp48
 70
     1
102
RTVSPost2010Prop49
280
     0
102
RTVSPost2010PropOp49
 70
     1
102
RTVSPost2010Prop50
 90
       50
102
RTVSPost2010PropOp50
 70
     1
102
RTVSPost2010Prop51ColorIndex
 90
      256
102
RTVSPost2010Prop51ColorRGB
 90
-16777216
102
RTVSPost2010PropOp51
 70
     0
102
RTVSPost2010Prop52
140
1.0
102
RTVSPost2010PropOp52
 70
     0
102
RTVSPost2010Prop53
 90
        2
102
RTVSPost2010PropOp53
 70
     1
102
RTVSPost2010Prop54
  1
strokes_ogs.tif
102
RTVSPost2010PropOp54
 70
     1
102
RTVSPost2010Prop55
280
     0
102
RTVSPost2010PropOp55
 70
     1
102
RTVSPost2010Prop56
140
1.0
102
RTVSPost2010PropOp56
 70
     1
102
RTVSPost2010Prop57
140
1.0
102
RTVSPost2010PropOp57
 70
     1
  0
XRECORD
  5
19E
102
{ACAD_REACTORS
330
19D
102
}
330
19D
100
AcDbXrecord
280
     1
102
RTVSPost2010Prop28
280
     0
102
RTVSPost2010PropOp28
 70
     0
102
RTVSPost2010Prop29
280
     1
102
RTVSPost2010PropOp29
 70
     0
102
RTVSPost2010Prop30
280
     1
102
RTVSPost2010PropOp30
 70
     0
102
RTVSPost2010Prop31
280
     0
102
RTVSPost2010PropOp31
 70
     0
102
RTVSPost2010Prop32
280
     0
102
RTVSPost2010PropOp32
 70
     0
102
RTVSPost2010Prop33
280
     0
102
RTVSPost2010PropOp33
 70
     0
102
RTVSPost2010Prop34
280
     0
102
RTVSPost2010PropOp34
 70
     0
102
RTVSPost2010Prop35
280
     0
102
RTVSPost2010PropOp35
 70
     0
102
RTVSPost2010Prop36
280
     0
102
RTVSPost2010PropOp36
 70
     0
102
RTVSPost2010Prop37
 90
       50
102
RTVSPost2010PropOp37
 70
     0
102
RTVSPost2010Prop38
140
0.0
102
RTVSPost2010PropOp38
 70
     0
102
RTVSPost2010Prop39
140
1.0
102
RTVSPost2010PropOp39
 70
     0
102
RTVSPost2010Prop40
 90
        0
102
RTVSPost2010PropOp40
 70
     0
102
RTVSPost2010Prop41ColorIndex
 90
       18
102
RTVSPost2010Prop41ColorRGB
 90
        0
102
RTVSPost2010PropOp41
 70
     0
102
RTVSPost2010Prop42
 90
       50
102
RTVSPost2010PropOp42
 70
     0
102
RTVSPost2010Prop43
 90
        3
102
RTVSPost2010PropOp43
 70
     0
102
RTVSPost2010Prop44ColorIndex
 90
        5
102
RTVSPost2010Prop44ColorRGB
 90
      255
102
RTVSPost2010PropOp44
 70
     0
102
RTVSPost2010Prop45
280
     0
102
RTVSPost2010PropOp45
 70
     0
102
RTVSPost2010Prop46
 90
       50
102
RTVSPost2010PropOp46
 70
     0
102
RTVSPost2010Prop47
 90
       50
102
RTVSPost2010PropOp47
 70
     0
102
RTVSPost2010Prop48
 90
       50
102
RTVSPost2010PropOp48
 70
     0
102
RTVSPost2010Prop49
280
     0
102
RTVSPost2010PropOp49
 70
     0
102
RTVSPost2010Prop50
 90
       50
102
RTVSPost2010PropOp50
 70
     0
102
RTVSPost2010Prop51ColorIndex
 90
      256
102
RTVSPost2010Prop51ColorRGB
 90
-16777216
102
RTVSPost2010PropOp51
 70
     0
102
RTVSPost2010Prop52
140
1.0
102
RTVSPost2010PropOp52
 70
     0
102
RTVSPost2010Prop53
 90
        2
102
RTVSPost2010PropOp53
 70
     0
102
RTVSPost2010Prop54
  1
strokes_ogs.tif
102
RTVSPost2010PropOp54
 70
     0
102
RTVSPost2010Prop55
280
     0
102
RTVSPost2010PropOp55
 70
     0
102
RTVSPost2010Prop56
140
1.0
102
RTVSPost2010PropOp56
 70
     0
102
RTVSPost2010Prop57
140
1.0
102
RTVSPost2010PropOp57
 70
     0
  0
XRECORD
  5
18E
102
{ACAD_REACTORS
330
18D
102
}
330
18D
100
AcDbXrecord
280
     1
102
RTVSPost2010Prop28
280
     0
102
RTVSPost2010PropOp28
 70
     1
102
RTVSPost2010Prop29
280
     1
102
RTVSPost2010PropOp29
 70
     1
102
RTVSPost2010Prop30
280
     1
102
RTVSPost2010PropOp30
 70
     1
102
RTVSPost2010Prop31
280
     0
102
RTVSPost2010PropOp31
 70
     1
102
RTVSPost2010Prop32
280
     0
102
RTVSPost2010PropOp32
 70
     1
102
RTVSPost2010Prop33
280
     0
102
RTVSPost2010PropOp33
 70
     1
102
RTVSPost2010Prop34
280
     0
102
RTVSPost2010PropOp34
 70
     1
102
RTVSPost2010Prop35
280
     0
102
RTVSPost2010PropOp35
 70
     1
102
RTVSPost2010Prop36
280
     0
102
RTVSPost2010PropOp36
 70
     1
102
RTVSPost2010Prop37
 90
       50
102
RTVSPost2010PropOp37
 70
     1
102
RTVSPost2010Prop38
140
0.0
102
RTVSPost2010PropOp38
 70
     1
102
RTVSPost2010Prop39
140
1.0
102
RTVSPost2010PropOp39
 70
     1
102
RTVSPost2010Prop40
 90
        0
102
RTVSPost2010PropOp40
 70
     1
102
RTVSPost2010Prop41ColorIndex
 90
       18
102
RTVSPost2010Prop41ColorRGB
 90
        0
102
RTVSPost2010PropOp41
 70
     1
102
RTVSPost2010Prop42
 90
       50
102
RTVSPost2010PropOp42
 70
     1
102
RTVSPost2010Prop43
 90
        3
102
RTVSPost2010PropOp43
 70
     1
102
RTVSPost2010Prop44ColorIndex
 90
        5
102
RTVSPost2010Prop44ColorRGB
 90
      255
102
RTVSPost2010PropOp44
 70
     1
102
RTVSPost2010Prop45
280
     0
102
RTVSPost2010PropOp45
 70
     1
102
RTVSPost2010Prop46
 90
       50
102
RTVSPost2010PropOp46
 70
     1
102
RTVSPost2010Prop47
 90
       50
102
RTVSPost2010PropOp47
 70
     1
102
RTVSPost2010Prop48
 90
       50
102
RTVSPost2010PropOp48
 70
     1
102
RTVSPost2010Prop49
280
     0
102
RTVSPost2010PropOp49
 70
     1
102
RTVSPost2010Prop50
 90
       50
102
RTVSPost2010PropOp50
 70
     1
102
RTVSPost2010Prop51ColorIndex
 90
      256
102
RTVSPost2010Prop51ColorRGB
 90
-16777216
102
RTVSPost2010PropOp51
 70
     0
102
RTVSPost2010Prop52
140
1.0
102
RTVSPost2010PropOp52
 70
     0
102
RTVSPost2010Prop53
 90
        2
102
RTVSPost2010PropOp53
 70
     1
102
RTVSPost2010Prop54
  1
strokes_ogs.tif
102
RTVSPost2010PropOp54
 70
     1
102
RTVSPost2010Prop55
280
     0
102
RTVSPost2010PropOp55
 70
     1
102
RTVSPost2010Prop56
140
1.0
102
RTVSPost2010PropOp56
 70
     1
102
RTVSPost2010Prop57
140
1.0
102
RTVSPost2010PropOp57
 70
     1
  0
XRECORD
  5
1A0
102
{ACAD_REACTORS
330
19F
102
}
330
19F
100
AcDbXrecord
280
     1
102
RTVSPost2010Prop28
280
     0
102
RTVSPost2010PropOp28
 70
     0
102
RTVSPost2010Prop29
280
     1
102
RTVSPost2010PropOp29
 70
     0
102
RTVSPost2010Prop30
280
     1
102
RTVSPost2010PropOp30
 70
     0
102
RTVSPost2010Prop31
280
     0
102
RTVSPost2010PropOp31
 70
     0
102
RTVSPost2010Prop32
280
     0
102
RTVSPost2010PropOp32
 70
     0
102
RTVSPost2010Prop33
280
     0
102
RTVSPost2010PropOp33
 70
     0
102
RTVSPost2010Prop34
280
     0
102
RTVSPost2010PropOp34
 70
     0
102
RTVSPost2010Prop35
280
     0
102
RTVSPost2010PropOp35
 70
     0
102
RTVSPost2010Prop36
280
     0
102
RTVSPost2010PropOp36
 70
     0
102
RTVSPost2010Prop37
 90
       50
102
RTVSPost2010PropOp37
 70
     0
102
RTVSPost2010Prop38
140
0.0
102
RTVSPost2010PropOp38
 70
     0
102
RTVSPost2010Prop39
140
1.0
102
RTVSPost2010PropOp39
 70
     0
102
RTVSPost2010Prop40
 90
        0
102
RTVSPost2010PropOp40
 70
     0
102
RTVSPost2010Prop41ColorIndex
 90
       18
102
RTVSPost2010Prop41ColorRGB
 90
        0
102
RTVSPost2010PropOp41
 70
     0
102
RTVSPost2010Prop42
 90
       50
102
RTVSPost2010PropOp42
 70
     0
102
RTVSPost2010Prop43
 90
        3
102
RTVSPost2010PropOp43
 70
     0
102
RTVSPost2010Prop44ColorIndex
 90
        5
102
RTVSPost2010Prop44ColorRGB
 90
      255
102
RTVSPost2010PropOp44
 70
     0
102
RTVSPost2010Prop45
280
     0
102
RTVSPost2010PropOp45
 70
     0
102
RTVSPost2010Prop46
 90
       50
102
RTVSPost2010PropOp46
 70
     0
102
RTVSPost2010Prop47
 90
       50
102
RTVSPost2010PropOp47
 70
     0
102
RTVSPost2010Prop48
 90
       50
102
RTVSPost2010PropOp48
 70
     0
102
RTVSPost2010Prop49
280
     0
102
RTVSPost2010PropOp49
 70
     0
102
RTVSPost2010Prop50
 90
       50
102
RTVSPost2010PropOp50
 70
     0
102
RTVSPost2010Prop51ColorIndex
 90
      256
102
RTVSPost2010Prop51ColorRGB
 90
-16777216
102
RTVSPost2010PropOp51
 70
     0
102
RTVSPost2010Prop52
140
1.0
102
RTVSPost2010PropOp52
 70
     0
102
RTVSPost2010Prop53
 90
        2
102
RTVSPost2010PropOp53
 70
     0
102
RTVSPost2010Prop54
  1
strokes_ogs.tif
102
RTVSPost2010PropOp54
 70
     0
102
RTVSPost2010Prop55
280
     0
102
RTVSPost2010PropOp55
 70
     0
102
RTVSPost2010Prop56
140
1.0
102
RTVSPost2010PropOp56
 70
     0
102
RTVSPost2010Prop57
140
1.0
102
RTVSPost2010PropOp57
 70
     0
  0
XRECORD
  5
186
102
{ACAD_REACTORS
330
185
102
}
330
185
100
AcDbXrecord
280
     1
102
RTVSPost2010Prop28
280
     0
102
RTVSPost2010PropOp28
 70
     1
102
RTVSPost2010Prop29
280
     1
102
RTVSPost2010PropOp29
 70
     1
102
RTVSPost2010Prop30
280
     1
102
RTVSPost2010PropOp30
 70
     1
102
RTVSPost2010Prop31
280
     0
102
RTVSPost2010PropOp31
 70
     1
102
RTVSPost2010Prop32
280
     0
102
RTVSPost2010PropOp32
 70
     1
102
RTVSPost2010Prop33
280
     0
102
RTVSPost2010PropOp33
 70
     1
102
RTVSPost2010Prop34
280
     0
102
RTVSPost2010PropOp34
 70
     1
102
RTVSPost2010Prop35
280
     0
102
RTVSPost2010PropOp35
 70
     1
102
RTVSPost2010Prop36
280
     0
102
RTVSPost2010PropOp36
 70
     1
102
RTVSPost2010Prop37
 90
       50
102
RTVSPost2010PropOp37
 70
     1
102
RTVSPost2010Prop38
140
0.0
102
RTVSPost2010PropOp38
 70
     1
102
RTVSPost2010Prop39
140
1.0
102
RTVSPost2010PropOp39
 70
     1
102
RTVSPost2010Prop40
 90
        0
102
RTVSPost2010PropOp40
 70
     1
102
RTVSPost2010Prop41ColorIndex
 90
       18
102
RTVSPost2010Prop41ColorRGB
 90
        0
102
RTVSPost2010PropOp41
 70
     1
102
RTVSPost2010Prop42
 90
       50
102
RTVSPost2010PropOp42
 70
     1
102
RTVSPost2010Prop43
 90
        3
102
RTVSPost2010PropOp43
 70
     1
102
RTVSPost2010Prop44ColorIndex
 90
        5
102
RTVSPost2010Prop44ColorRGB
 90
      255
102
RTVSPost2010PropOp44
 70
     1
102
RTVSPost2010Prop45
280
     0
102
RTVSPost2010PropOp45
 70
     1
102
RTVSPost2010Prop46
 90
       50
102
RTVSPost2010PropOp46
 70
     1
102
RTVSPost2010Prop47
 90
       50
102
RTVSPost2010PropOp47
 70
     1
102
RTVSPost2010Prop48
 90
       50
102
RTVSPost2010PropOp48
 70
     1
102
RTVSPost2010Prop49
280
     0
102
RTVSPost2010PropOp49
 70
     1
102
RTVSPost2010Prop50
 90
       50
102
RTVSPost2010PropOp50
 70
     1
102
RTVSPost2010Prop51ColorIndex
 90
      256
102
RTVSPost2010Prop51ColorRGB
 90
-16777216
102
RTVSPost2010PropOp51
 70
     0
102
RTVSPost2010Prop52
140
1.0
102
RTVSPost2010PropOp52
 70
     0
102
RTVSPost2010Prop53
 90
        2
102
RTVSPost2010PropOp53
 70
     1
102
RTVSPost2010Prop54
  1
strokes_ogs.tif
102
RTVSPost2010PropOp54
 70
     1
102
RTVSPost2010Prop55
280
     0
102
RTVSPost2010PropOp55
 70
     1
102
RTVSPost2010Prop56
140
1.0
102
RTVSPost2010PropOp56
 70
     1
102
RTVSPost2010Prop57
140
1.0
102
RTVSPost2010PropOp57
 70
     1
  0
XRECORD
  5
19C
102
{ACAD_REACTORS
330
19B
102
}
330
19B
100
AcDbXrecord
280
     1
102
RTVSPost2010Prop28
280
     0
102
RTVSPost2010PropOp28
 70
     1
102
RTVSPost2010Prop29
280
     1
102
RTVSPost2010PropOp29
 70
     1
102
RTVSPost2010Prop30
280
     1
102
RTVSPost2010PropOp30
 70
     1
102
RTVSPost2010Prop31
280
     0
102
RTVSPost2010PropOp31
 70
     1
102
RTVSPost2010Prop32
280
     0
102
RTVSPost2010PropOp32
 70
     1
102
RTVSPost2010Prop33
280
     0
102
RTVSPost2010PropOp33
 70
     1
102
RTVSPost2010Prop34
280
     0
102
RTVSPost2010PropOp34
 70
     1
102
RTVSPost2010Prop35
280
     0
102
RTVSPost2010PropOp35
 70
     1
102
RTVSPost2010Prop36
280
     0
102
RTVSPost2010PropOp36
 70
     1
102
RTVSPost2010Prop37
 90
       50
102
RTVSPost2010PropOp37
 70
     1
102
RTVSPost2010Prop38
140
0.0
102
RTVSPost2010PropOp38
 70
     1
102
RTVSPost2010Prop39
140
1.0
102
RTVSPost2010PropOp39
 70
     1
102
RTVSPost2010Prop40
 90
        0
102
RTVSPost2010PropOp40
 70
     1
102
RTVSPost2010Prop41ColorIndex
 90
       18
102
RTVSPost2010Prop41ColorRGB
 90
        0
102
RTVSPost2010PropOp41
 70
     1
102
RTVSPost2010Prop42
 90
       50
102
RTVSPost2010PropOp42
 70
     1
102
RTVSPost2010Prop43
 90
        3
102
RTVSPost2010PropOp43
 70
     1
102
RTVSPost2010Prop44ColorIndex
 90
        5
102
RTVSPost2010Prop44ColorRGB
 90
      255
102
RTVSPost2010PropOp44
 70
     1
102
RTVSPost2010Prop45
280
     0
102
RTVSPost2010PropOp45
 70
     1
102
RTVSPost2010Prop46
 90
       50
102
RTVSPost2010PropOp46
 70
     1
102
RTVSPost2010Prop47
 90
       50
102
RTVSPost2010PropOp47
 70
     1
102
RTVSPost2010Prop48
 90
       50
102
RTVSPost2010PropOp48
 70
     1
102
RTVSPost2010Prop49
280
     0
102
RTVSPost2010PropOp49
 70
     1
102
RTVSPost2010Prop50
 90
       50
102
RTVSPost2010PropOp50
 70
     1
102
RTVSPost2010Prop51ColorIndex
 90
      256
102
RTVSPost2010Prop51ColorRGB
 90
-16777216
102
RTVSPost2010PropOp51
 70
     0
102
RTVSPost2010Prop52
140
1.0
102
RTVSPost2010PropOp52
 70
     0
102
RTVSPost2010Prop53
 90
        2
102
RTVSPost2010PropOp53
 70
     1
102
RTVSPost2010Prop54
  1
strokes_ogs.tif
102
RTVSPost2010PropOp54
 70
     1
102
RTVSPost2010Prop55
280
     0
102
RTVSPost2010PropOp55
 70
     1
102
RTVSPost2010Prop56
140
1.0
102
RTVSPost2010PropOp56
 70
     1
102
RTVSPost2010Prop57
140
1.0
102
RTVSPost2010PropOp57
 70
     1
  0
XRECORD
  5
19A
102
{ACAD_REACTORS
330
199
102
}
330
199
100
AcDbXrecord
280
     1
102
RTVSPost2010Prop28
280
     0
102
RTVSPost2010PropOp28
 70
     1
102
RTVSPost2010Prop29
280
     1
102
RTVSPost2010PropOp29
 70
     1
102
RTVSPost2010Prop30
280
     1
102
RTVSPost2010PropOp30
 70
     1
102
RTVSPost2010Prop31
280
     0
102
RTVSPost2010PropOp31
 70
     1
102
RTVSPost2010Prop32
280
     0
102
RTVSPost2010PropOp32
 70
     1
102
RTVSPost2010Prop33
280
     0
102
RTVSPost2010PropOp33
 70
     1
102
RTVSPost2010Prop34
280
     0
102
RTVSPost2010PropOp34
 70
     1
102
RTVSPost2010Prop35
280
     0
102
RTVSPost2010PropOp35
 70
     1
102
RTVSPost2010Prop36
280
     0
102
RTVSPost2010PropOp36
 70
     1
102
RTVSPost2010Prop37
 90
       50
102
RTVSPost2010PropOp37
 70
     1
102
RTVSPost2010Prop38
140
0.0
102
RTVSPost2010PropOp38
 70
     1
102
RTVSPost2010Prop39
140
1.0
102
RTVSPost2010PropOp39
 70
     1
102
RTVSPost2010Prop40
 90
        0
102
RTVSPost2010PropOp40
 70
     1
102
RTVSPost2010Prop41ColorIndex
 90
       18
102
RTVSPost2010Prop41ColorRGB
 90
        0
102
RTVSPost2010PropOp41
 70
     1
102
RTVSPost2010Prop42
 90
       50
102
RTVSPost2010PropOp42
 70
     1
102
RTVSPost2010Prop43
 90
        3
102
RTVSPost2010PropOp43
 70
     1
102
RTVSPost2010Prop44ColorIndex
 90
        5
102
RTVSPost2010Prop44ColorRGB
 90
      255
102
RTVSPost2010PropOp44
 70
     1
102
RTVSPost2010Prop45
280
     0
102
RTVSPost2010PropOp45
 70
     1
102
RTVSPost2010Prop46
 90
       50
102
RTVSPost2010PropOp46
 70
     1
102
RTVSPost2010Prop47
 90
       50
102
RTVSPost2010PropOp47
 70
     1
102
RTVSPost2010Prop48
 90
       50
102
RTVSPost2010PropOp48
 70
     1
102
RTVSPost2010Prop49
280
     0
102
RTVSPost2010PropOp49
 70
     1
102
RTVSPost2010Prop50
 90
       50
102
RTVSPost2010PropOp50
 70
     1
102
RTVSPost2010Prop51ColorIndex
 90
      256
102
RTVSPost2010Prop51ColorRGB
 90
-16777216
102
RTVSPost2010PropOp51
 70
     0
102
RTVSPost2010Prop52
140
1.0
102
RTVSPost2010PropOp52
 70
     0
102
RTVSPost2010Prop53
 90
        2
102
RTVSPost2010PropOp53
 70
     1
102
RTVSPost2010Prop54
  1
strokes_ogs.tif
102
RTVSPost2010PropOp54
 70
     1
102
RTVSPost2010Prop55
280
     0
102
RTVSPost2010PropOp55
 70
     1
102
RTVSPost2010Prop56
140
1.0
102
RTVSPost2010PropOp56
 70
     1
102
RTVSPost2010Prop57
140
1.0
102
RTVSPost2010PropOp57
 70
     1
  0
XRECORD
  5
194
102
{ACAD_REACTORS
330
193
102
}
330
193
100
AcDbXrecord
280
     1
102
RTVSPost2010Prop28
280
     0
102
RTVSPost2010PropOp28
 70
     1
102
RTVSPost2010Prop29
280
     1
102
RTVSPost2010PropOp29
 70
     1
102
RTVSPost2010Prop30
280
     1
102
RTVSPost2010PropOp30
 70
     1
102
RTVSPost2010Prop31
280
     0
102
RTVSPost2010PropOp31
 70
     1
102
RTVSPost2010Prop32
280
     0
102
RTVSPost2010PropOp32
 70
     1
102
RTVSPost2010Prop33
280
     0
102
RTVSPost2010PropOp33
 70
     1
102
RTVSPost2010Prop34
280
     0
102
RTVSPost2010PropOp34
 70
     1
102
RTVSPost2010Prop35
280
     0
102
RTVSPost2010PropOp35
 70
     1
102
RTVSPost2010Prop36
280
     0
102
RTVSPost2010PropOp36
 70
     1
102
RTVSPost2010Prop37
 90
       50
102
RTVSPost2010PropOp37
 70
     1
102
RTVSPost2010Prop38
140
0.0
102
RTVSPost2010PropOp38
 70
     1
102
RTVSPost2010Prop39
140
1.0
102
RTVSPost2010PropOp39
 70
     1
102
RTVSPost2010Prop40
 90
        0
102
RTVSPost2010PropOp40
 70
     1
102
RTVSPost2010Prop41ColorIndex
 90
       18
102
RTVSPost2010Prop41ColorRGB
 90
        0
102
RTVSPost2010PropOp41
 70
     1
102
RTVSPost2010Prop42
 90
       50
102
RTVSPost2010PropOp42
 70
     1
102
RTVSPost2010Prop43
 90
        3
102
RTVSPost2010PropOp43
 70
     1
102
RTVSPost2010Prop44ColorIndex
 90
        5
102
RTVSPost2010Prop44ColorRGB
 90
      255
102
RTVSPost2010PropOp44
 70
     1
102
RTVSPost2010Prop45
280
     0
102
RTVSPost2010PropOp45
 70
     1
102
RTVSPost2010Prop46
 90
       50
102
RTVSPost2010PropOp46
 70
     1
102
RTVSPost2010Prop47
 90
       50
102
RTVSPost2010PropOp47
 70
     1
102
RTVSPost2010Prop48
 90
       50
102
RTVSPost2010PropOp48
 70
     1
102
RTVSPost2010Prop49
280
     0
102
RTVSPost2010PropOp49
 70
     1
102
RTVSPost2010Prop50
 90
       50
102
RTVSPost2010PropOp50
 70
     1
102
RTVSPost2010Prop51ColorIndex
 90
      256
102
RTVSPost2010Prop51ColorRGB
 90
-16777216
102
RTVSPost2010PropOp51
 70
     0
102
RTVSPost2010Prop52
140
1.0
102
RTVSPost2010PropOp52
 70
     0
102
RTVSPost2010Prop53
 90
        2
102
RTVSPost2010PropOp53
 70
     1
102
RTVSPost2010Prop54
  1
strokes_ogs.tif
102
RTVSPost2010PropOp54
 70
     1
102
RTVSPost2010Prop55
280
     0
102
RTVSPost2010PropOp55
 70
     1
102
RTVSPost2010Prop56
140
1.0
102
RTVSPost2010PropOp56
 70
     1
102
RTVSPost2010Prop57
140
1.0
102
RTVSPost2010PropOp57
 70
     1
  0
XRECORD
  5
196
102
{ACAD_REACTORS
330
195
102
}
330
195
100
AcDbXrecord
280
     1
102
RTVSPost2010Prop28
280
     0
102
RTVSPost2010PropOp28
 70
     1
102
RTVSPost2010Prop29
280
     1
102
RTVSPost2010PropOp29
 70
     1
102
RTVSPost2010Prop30
280
     1
102
RTVSPost2010PropOp30
 70
     1
102
RTVSPost2010Prop31
280
     0
102
RTVSPost2010PropOp31
 70
     1
102
RTVSPost2010Prop32
280
     0
102
RTVSPost2010PropOp32
 70
     1
102
RTVSPost2010Prop33
280
     0
102
RTVSPost2010PropOp33
 70
     1
102
RTVSPost2010Prop34
280
     0
102
RTVSPost2010PropOp34
 70
     1
102
RTVSPost2010Prop35
280
     0
102
RTVSPost2010PropOp35
 70
     1
102
RTVSPost2010Prop36
280
     0
102
RTVSPost2010PropOp36
 70
     1
102
RTVSPost2010Prop37
 90
       50
102
RTVSPost2010PropOp37
 70
     1
102
RTVSPost2010Prop38
140
0.0
102
RTVSPost2010PropOp38
 70
     1
102
RTVSPost2010Prop39
140
1.0
102
RTVSPost2010PropOp39
 70
     1
102
RTVSPost2010Prop40
 90
        0
102
RTVSPost2010PropOp40
 70
     1
102
RTVSPost2010Prop41ColorIndex
 90
       18
102
RTVSPost2010Prop41ColorRGB
 90
        0
102
RTVSPost2010PropOp41
 70
     1
102
RTVSPost2010Prop42
 90
       50
102
RTVSPost2010PropOp42
 70
     1
102
RTVSPost2010Prop43
 90
        3
102
RTVSPost2010PropOp43
 70
     1
102
RTVSPost2010Prop44ColorIndex
 90
        5
102
RTVSPost2010Prop44ColorRGB
 90
      255
102
RTVSPost2010PropOp44
 70
     1
102
RTVSPost2010Prop45
280
     0
102
RTVSPost2010PropOp45
 70
     1
102
RTVSPost2010Prop46
 90
       50
102
RTVSPost2010PropOp46
 70
     1
102
RTVSPost2010Prop47
 90
       50
102
RTVSPost2010PropOp47
 70
     1
102
RTVSPost2010Prop48
 90
       50
102
RTVSPost2010PropOp48
 70
     1
102
RTVSPost2010Prop49
280
     0
102
RTVSPost2010PropOp49
 70
     1
102
RTVSPost2010Prop50
 90
       50
102
RTVSPost2010PropOp50
 70
     1
102
RTVSPost2010Prop51ColorIndex
 90
      256
102
RTVSPost2010Prop51ColorRGB
 90
-16777216
102
RTVSPost2010PropOp51
 70
     0
102
RTVSPost2010Prop52
140
1.0
102
RTVSPost2010PropOp52
 70
     0
102
RTVSPost2010Prop53
 90
        2
102
RTVSPost2010PropOp53
 70
     1
102
RTVSPost2010Prop54
  1
strokes_ogs.tif
102
RTVSPost2010PropOp54
 70
     1
102
RTVSPost2010Prop55
280
     0
102
RTVSPost2010PropOp55
 70
     1
102
RTVSPost2010Prop56
140
1.0
102
RTVSPost2010PropOp56
 70
     1
102
RTVSPost2010Prop57
140
1.0
102
RTVSPost2010PropOp57
 70
     1
  0
XRECORD
  5
18C
102
{ACAD_REACTORS
330
18B
102
}
330
18B
100
AcDbXrecord
280
     1
102
RTVSPost2010Prop28
280
     0
102
RTVSPost2010PropOp28
 70
     1
102
RTVSPost2010Prop29
280
     1
102
RTVSPost2010PropOp29
 70
     1
102
RTVSPost2010Prop30
280
     1
102
RTVSPost2010PropOp30
 70
     1
102
RTVSPost2010Prop31
280
     0
102
RTVSPost2010PropOp31
 70
     1
102
RTVSPost2010Prop32
280
     0
102
RTVSPost2010PropOp32
 70
     1
102
RTVSPost2010Prop33
280
     0
102
RTVSPost2010PropOp33
 70
     1
102
RTVSPost2010Prop34
280
     0
102
RTVSPost2010PropOp34
 70
     1
102
RTVSPost2010Prop35
280
     0
102
RTVSPost2010PropOp35
 70
     1
102
RTVSPost2010Prop36
280
     0
102
RTVSPost2010PropOp36
 70
     1
102
RTVSPost2010Prop37
 90
       50
102
RTVSPost2010PropOp37
 70
     1
102
RTVSPost2010Prop38
140
0.0
102
RTVSPost2010PropOp38
 70
     1
102
RTVSPost2010Prop39
140
1.0
102
RTVSPost2010PropOp39
 70
     1
102
RTVSPost2010Prop40
 90
        0
102
RTVSPost2010PropOp40
 70
     1
102
RTVSPost2010Prop41ColorIndex
 90
       18
102
RTVSPost2010Prop41ColorRGB
 90
        0
102
RTVSPost2010PropOp41
 70
     1
102
RTVSPost2010Prop42
 90
       50
102
RTVSPost2010PropOp42
 70
     1
102
RTVSPost2010Prop43
 90
        3
102
RTVSPost2010PropOp43
 70
     1
102
RTVSPost2010Prop44ColorIndex
 90
        5
102
RTVSPost2010Prop44ColorRGB
 90
      255
102
RTVSPost2010PropOp44
 70
     1
102
RTVSPost2010Prop45
280
     0
102
RTVSPost2010PropOp45
 70
     1
102
RTVSPost2010Prop46
 90
       50
102
RTVSPost2010PropOp46
 70
     1
102
RTVSPost2010Prop47
 90
       50
102
RTVSPost2010PropOp47
 70
     1
102
RTVSPost2010Prop48
 90
       50
102
RTVSPost2010PropOp48
 70
     1
102
RTVSPost2010Prop49
280
     0
102
RTVSPost2010PropOp49
 70
     1
102
RTVSPost2010Prop50
 90
       50
102
RTVSPost2010PropOp50
 70
     1
102
RTVSPost2010Prop51ColorIndex
 90
      256
102
RTVSPost2010Prop51ColorRGB
 90
-16777216
102
RTVSPost2010PropOp51
 70
     0
102
RTVSPost2010Prop52
140
1.0
102
RTVSPost2010PropOp52
 70
     0
102
RTVSPost2010Prop53
 90
        2
102
RTVSPost2010PropOp53
 70
     1
102
RTVSPost2010Prop54
  1
strokes_ogs.tif
102
RTVSPost2010PropOp54
 70
     1
102
RTVSPost2010Prop55
280
     0
102
RTVSPost2010PropOp55
 70
     1
102
RTVSPost2010Prop56
140
1.0
102
RTVSPost2010PropOp56
 70
     1
102
RTVSPost2010Prop57
140
1.0
102
RTVSPost2010PropOp57
 70
     1
  0
XRECORD
  5
180
102
{ACAD_REACTORS
330
17F
102
}
330
17F
100
AcDbXrecord
280
     1
102
RTVSPost2010Prop28
280
     0
102
RTVSPost2010PropOp28
 70
     1
102
RTVSPost2010Prop29
280
     1
102
RTVSPost2010PropOp29
 70
     1
102
RTVSPost2010Prop30
280
     1
102
RTVSPost2010PropOp30
 70
     1
102
RTVSPost2010Prop31
280
     0
102
RTVSPost2010PropOp31
 70
     1
102
RTVSPost2010Prop32
280
     0
102
RTVSPost2010PropOp32
 70
     1
102
RTVSPost2010Prop33
280
     0
102
RTVSPost2010PropOp33
 70
     1
102
RTVSPost2010Prop34
280
     0
102
RTVSPost2010PropOp34
 70
     1
102
RTVSPost2010Prop35
280
     0
102
RTVSPost2010PropOp35
 70
     1
102
RTVSPost2010Prop36
280
     0
102
RTVSPost2010PropOp36
 70
     1
102
RTVSPost2010Prop37
 90
       50
102
RTVSPost2010PropOp37
 70
     1
102
RTVSPost2010Prop38
140
0.0
102
RTVSPost2010PropOp38
 70
     1
102
RTVSPost2010Prop39
140
1.0
102
RTVSPost2010PropOp39
 70
     1
102
RTVSPost2010Prop40
 90
        0
102
RTVSPost2010PropOp40
 70
     1
102
RTVSPost2010Prop41ColorIndex
 90
       18
102
RTVSPost2010Prop41ColorRGB
 90
        0
102
RTVSPost2010PropOp41
 70
     1
102
RTVSPost2010Prop42
 90
       50
102
RTVSPost2010PropOp42
 70
     1
102
RTVSPost2010Prop43
 90
        3
102
RTVSPost2010PropOp43
 70
     1
102
RTVSPost2010Prop44ColorIndex
 90
        5
102
RTVSPost2010Prop44ColorRGB
 90
      255
102
RTVSPost2010PropOp44
 70
     1
102
RTVSPost2010Prop45
280
     0
102
RTVSPost2010PropOp45
 70
     1
102
RTVSPost2010Prop46
 90
       50
102
RTVSPost2010PropOp46
 70
     1
102
RTVSPost2010Prop47
 90
       50
102
RTVSPost2010PropOp47
 70
     1
102
RTVSPost2010Prop48
 90
       50
102
RTVSPost2010PropOp48
 70
     1
102
RTVSPost2010Prop49
280
     0
102
RTVSPost2010PropOp49
 70
     1
102
RTVSPost2010Prop50
 90
       50
102
RTVSPost2010PropOp50
 70
     1
102
RTVSPost2010Prop51ColorIndex
 90
      256
102
RTVSPost2010Prop51ColorRGB
 90
-16777216
102
RTVSPost2010PropOp51
 70
     0
102
RTVSPost2010Prop52
140
1.0
102
RTVSPost2010PropOp52
 70
     0
102
RTVSPost2010Prop53
 90
        2
102
RTVSPost2010PropOp53
 70
     1
102
RTVSPost2010Prop54
  1
strokes_ogs.tif
102
RTVSPost2010PropOp54
 70
     1
102
RTVSPost2010Prop55
280
     0
102
RTVSPost2010PropOp55
 70
     1
102
RTVSPost2010Prop56
140
1.0
102
RTVSPost2010PropOp56
 70
     1
102
RTVSPost2010Prop57
140
1.0
102
RTVSPost2010PropOp57
 70
     1
  0
XRECORD
  5
198
102
{ACAD_REACTORS
330
197
102
}
330
197
100
AcDbXrecord
280
     1
102
RTVSPost2010Prop28
280
     0
102
RTVSPost2010PropOp28
 70
     1
102
RTVSPost2010Prop29
280
     1
102
RTVSPost2010PropOp29
 70
     1
102
RTVSPost2010Prop30
280
     1
102
RTVSPost2010PropOp30
 70
     1
102
RTVSPost2010Prop31
280
     0
102
RTVSPost2010PropOp31
 70
     1
102
RTVSPost2010Prop32
280
     0
102
RTVSPost2010PropOp32
 70
     1
102
RTVSPost2010Prop33
280
     0
102
RTVSPost2010PropOp33
 70
     1
102
RTVSPost2010Prop34
280
     0
102
RTVSPost2010PropOp34
 70
     1
102
RTVSPost2010Prop35
280
     0
102
RTVSPost2010PropOp35
 70
     1
102
RTVSPost2010Prop36
280
     0
102
RTVSPost2010PropOp36
 70
     1
102
RTVSPost2010Prop37
 90
       50
102
RTVSPost2010PropOp37
 70
     1
102
RTVSPost2010Prop38
140
0.0
102
RTVSPost2010PropOp38
 70
     1
102
RTVSPost2010Prop39
140
1.0
102
RTVSPost2010PropOp39
 70
     1
102
RTVSPost2010Prop40
 90
        0
102
RTVSPost2010PropOp40
 70
     1
102
RTVSPost2010Prop41ColorIndex
 90
       18
102
RTVSPost2010Prop41ColorRGB
 90
        0
102
RTVSPost2010PropOp41
 70
     1
102
RTVSPost2010Prop42
 90
       50
102
RTVSPost2010PropOp42
 70
     1
102
RTVSPost2010Prop43
 90
        3
102
RTVSPost2010PropOp43
 70
     1
102
RTVSPost2010Prop44ColorIndex
 90
        5
102
RTVSPost2010Prop44ColorRGB
 90
      255
102
RTVSPost2010PropOp44
 70
     1
102
RTVSPost2010Prop45
280
     0
102
RTVSPost2010PropOp45
 70
     1
102
RTVSPost2010Prop46
 90
       50
102
RTVSPost2010PropOp46
 70
     1
102
RTVSPost2010Prop47
 90
       50
102
RTVSPost2010PropOp47
 70
     1
102
RTVSPost2010Prop48
 90
       50
102
RTVSPost2010PropOp48
 70
     1
102
RTVSPost2010Prop49
280
     0
102
RTVSPost2010PropOp49
 70
     1
102
RTVSPost2010Prop50
 90
       50
102
RTVSPost2010PropOp50
 70
     1
102
RTVSPost2010Prop51ColorIndex
 90
      256
102
RTVSPost2010Prop51ColorRGB
 90
-16777216
102
RTVSPost2010PropOp51
 70
     0
102
RTVSPost2010Prop52
140
1.0
102
RTVSPost2010PropOp52
 70
     0
102
RTVSPost2010Prop53
 90
        2
102
RTVSPost2010PropOp53
 70
     1
102
RTVSPost2010Prop54
  1
strokes_ogs.tif
102
RTVSPost2010PropOp54
 70
     1
102
RTVSPost2010Prop55
280
     0
102
RTVSPost2010PropOp55
 70
     1
102
RTVSPost2010Prop56
140
1.0
102
RTVSPost2010PropOp56
 70
     1
102
RTVSPost2010Prop57
140
1.0
102
RTVSPost2010PropOp57
 70
     1
  0
ENDSEC
  0
EOF
