  0
SECTION
  2
HEADER
  9
$ACADVER
  1
AC1024
  9
$ACADMAINTVER
 70
   226
  9
$DWGCODEPAGE
  3
ANSI_1252
  9
$INSBASE
 10
0.0
 20
0.0
 30
0.0
  9
$EXTMIN
 10
1.000000000000000E+20
 20
1.000000000000000E+20
 30
1.000000000000000E+20
  9
$EXTMAX
 10
-1.000000000000000E+20
 20
-1.000000000000000E+20
 30
-1.000000000000000E+20
  9
$LIMMIN
 10
0.0
 20
0.0
  9
$LIMMAX
 10
12.0
 20
9.0
  9
$ORTHOMODE
 70
     0
  9
$REGENMODE
 70
     1
  9
$FILLMODE
 70
     1
  9
$QTEXTMODE
 70
     0
  9
$MIRRTEXT
 70
     0
  9
$LTSCALE
 40
1.0
  9
$ATTMODE
 70
     1
  9
$TEXTSIZE
 40
0.2
  9
$TRACEWID
 40
0.05
  9
$TEXTSTYLE
  7
Standard
  9
$CLAYER
  8
0
  9
$CELTYPE
  6
ByLayer
  9
$CECOLOR
 62
   256
  9
$CELTSCALE
 40
1.0
  9
$DISPSILH
 70
     0
  9
$DIMSCALE
 40
1.0
  9
$DIMASZ
 40
0.18
  9
$DIMEXO
 40
0.0625
  9
$DIMDLI
 40
0.38
  9
$DIMRND
 40
0.0
  9
$DIMDLE
 40
0.0
  9
$DIMEXE
 40
0.18
  9
$DIMTP
 40
0.0
  9
$DIMTM
 40
0.0
  9
$DIMTXT
 40
0.18
  9
$DIMCEN
 40
0.09
  9
$DIMTSZ
 40
0.0
  9
$DIMTOL
 70
     0
  9
$DIMLIM
 70
     0
  9
$DIMTIH
 70
     1
  9
$DIMTOH
 70
     1
  9
$DIMSE1
 70
     0
  9
$DIMSE2
 70
     0
  9
$DIMTAD
 70
     0
  9
$DIMZIN
 70
     0
  9
$DIMBLK
  1

  9
$DIMASO
 70
     1
  9
$DIMSHO
 70
     1
  9
$DIMPOST
  1

  9
$DIMAPOST
  1

  9
$DIMALT
 70
     0
  9
$DIMALTD
 70
     2
  9
$DIMALTF
 40
25.4
  9
$DIMLFAC
 40
1.0
  9
$DIMTOFL
 70
     0
  9
$DIMTVP
 40
0.0
  9
$DIMTIX
 70
     0
  9
$DIMSOXD
 70
     0
  9
$DIMSAH
 70
     0
  9
$DIMBLK1
  1

  9
$DIMBLK2
  1

  9
$DIMSTYLE
  2
Standard
  9
$DIMCLRD
 70
     0
  9
$DIMCLRE
 70
     0
  9
$DIMCLRT
 70
     0
  9
$DIMTFAC
 40
1.0
  9
$DIMGAP
 40
0.09
  9
$DIMJUST
 70
     0
  9
$DIMSD1
 70
     0
  9
$DIMSD2
 70
     0
  9
$DIMTOLJ
 70
     1
  9
$DIMTZIN
 70
     0
  9
$DIMALTZ
 70
     0
  9
$DIMALTTZ
 70
     0
  9
$DIMUPT
 70
     0
  9
$DIMDEC
 70
     4
  9
$DIMTDEC
 70
     4
  9
$DIMALTU
 70
     2
  9
$DIMALTTD
 70
     2
  9
$DIMTXSTY
  7
Standard
  9
$DIMAUNIT
 70
     0
  9
$DIMADEC
 70
     0
  9
$DIMALTRND
 40
0.0
  9
$DIMAZIN
 70
     0
  9
$DIMDSEP
 70
    46
  9
$DIMATFIT
 70
     3
  9
$DIMFRAC
 70
     0
  9
$DIMLDRBLK
  1

  9
$DIMLUNIT
 70
     2
  9
$DIMLWD
 70
    -2
  9
$DIMLWE
 70
    -2
  9
$DIMTMOVE
 70
     0
  9
$DIMFXL
 40
1.0
  9
$DIMFXLON
 70
     0
  9
$DIMJOGANG
 40
0.7853981633974483
  9
$DIMTFILL
 70
     0
  9
$DIMTFILLCLR
 70
     0
  9
$DIMARCSYM
 70
     0
  9
$DIMLTYPE
  6

  9
$DIMLTEX1
  6

  9
$DIMLTEX2
  6

  9
$DIMTXTDIRECTION
 70
     0
  9
$LUNITS
 70
     2
  9
$LUPREC
 70
     4
  9
$SKETCHINC
 40
0.1
  9
$FILLETRAD
 40
0.0
  9
$AUNITS
 70
     0
  9
$AUPREC
 70
     0
  9
$MENU
  1
.
  9
$ELEVATION
 40
0.0
  9
$PELEVATION
 40
0.0
  9
$THICKNESS
 40
0.0
  9
$LIMCHECK
 70
     0
  9
$CHAMFERA
 40
0.0
  9
$CHAMFERB
 40
0.0
  9
$CHAMFERC
 40
0.0
  9
$CHAMFERD
 40
0.0
  9
$SKPOLY
 70
     0
  9
$TDCREATE
 40
2459620.691122685
  9
$TDUCREATE
 40
2459620.649456019
  9
$TDUPDATE
 40
2459620.691122685
  9
$TDUUPDATE
 40
2459620.649456019
  9
$TDINDWG
 40
0.0000000000
  9
$TDUSRTIMER
 40
0.0000000000
  9
$USRTIMER
 70
     1
  9
$ANGBASE
 50
0.0
  9
$ANGDIR
 70
     0
  9
$PDMODE
 70
     0
  9
$PDSIZE
 40
0.0
  9
$PLINEWID
 40
0.0
  9
$SPLFRAME
 70
     0
  9
$SPLINETYPE
 70
     6
  9
$SPLINESEGS
 70
     8
  9
$HANDSEED
  5
152
  9
$SURFTAB1
 70
     6
  9
$SURFTAB2
 70
     6
  9
$SURFTYPE
 70
     6
  9
$SURFU
 70
     6
  9
$SURFV
 70
     6
  9
$UCSBASE
  2

  9
$UCSNAME
  2

  9
$UCSORG
 10
0.0
 20
0.0
 30
0.0
  9
$UCSXDIR
 10
1.0
 20
0.0
 30
0.0
  9
$UCSYDIR
 10
0.0
 20
1.0
 30
0.0
  9
$UCSORTHOREF
  2

  9
$UCSORTHOVIEW
 70
     0
  9
$UCSORGTOP
 10
0.0
 20
0.0
 30
0.0
  9
$UCSORGBOTTOM
 10
0.0
 20
0.0
 30
0.0
  9
$UCSORGLEFT
 10
0.0
 20
0.0
 30
0.0
  9
$UCSORGRIGHT
 10
0.0
 20
0.0
 30
0.0
  9
$UCSORGFRONT
 10
0.0
 20
0.0
 30
0.0
  9
$UCSORGBACK
 10
0.0
 20
0.0
 30
0.0
  9
$PUCSBASE
  2

  9
$PUCSNAME
  2

  9
$PUCSORG
 10
0.0
 20
0.0
 30
0.0
  9
$PUCSXDIR
 10
1.0
 20
0.0
 30
0.0
  9
$PUCSYDIR
 10
0.0
 20
1.0
 30
0.0
  9
$PUCSORTHOREF
  2

  9
$PUCSORTHOVIEW
 70
     0
  9
$PUCSORGTOP
 10
0.0
 20
0.0
 30
0.0
  9
$PUCSORGBOTTOM
 10
0.0
 20
0.0
 30
0.0
  9
$PUCSORGLEFT
 10
0.0
 20
0.0
 30
0.0
  9
$PUCSORGRIGHT
 10
0.0
 20
0.0
 30
0.0
  9
$PUCSORGFRONT
 10
0.0
 20
0.0
 30
0.0
  9
$PUCSORGBACK
 10
0.0
 20
0.0
 30
0.0
  9
$USERI1
 70
     0
  9
$USERI2
 70
     0
  9
$USERI3
 70
     0
  9
$USERI4
 70
     0
  9
$USERI5
 70
     0
  9
$USERR1
 40
0.0
  9
$USERR2
 40
0.0
  9
$USERR3
 40
0.0
  9
$USERR4
 40
0.0
  9
$USERR5
 40
0.0
  9
$WORLDVIEW
 70
     1
  9
$SHADEDGE
 70
     3
  9
$SHADEDIF
 70
    70
  9
$TILEMODE
 70
     1
  9
$MAXACTVP
 70
    64
  9
$PINSBASE
 10
0.0
 20
0.0
 30
0.0
  9
$PLIMCHECK
 70
     0
  9
$PEXTMIN
 10
1.000000000000000E+20
 20
1.000000000000000E+20
 30
1.000000000000000E+20
  9
$PEXTMAX
 10
-1.000000000000000E+20
 20
-1.000000000000000E+20
 30
-1.000000000000000E+20
  9
$PLIMMIN
 10
0.0
 20
0.0
  9
$PLIMMAX
 10
12.0
 20
9.0
  9
$UNITMODE
 70
     0
  9
$VISRETAIN
 70
     1
  9
$PLINEGEN
 70
     0
  9
$PSLTSCALE
 70
     1
  9
$TREEDEPTH
 70
  3020
  9
$CMLSTYLE
  2
Standard
  9
$CMLJUST
 70
     0
  9
$CMLSCALE
 40
1.0
  9
$PROXYGRAPHICS
 70
     1
  9
$MEASUREMENT
 70
     0
  9
$CELWEIGHT
370
    -1
  9
$ENDCAPS
280
     0
  9
$JOINSTYLE
280
     0
  9
$LWDISPLAY
290
     1
  9
$INSUNITS
 70
     4
  9
$HYPERLINKBASE
  1

  9
$STYLESHEET
  1

  9
$XEDIT
290
     1
  9
$CEPSNTYPE
380
     0
  9
$PSTYLEMODE
290
     1
  9
$FINGERPRINTGUID
  2
{EFBD4795-18A2-ED4E-886E-92CB98D935D1}
  9
$VERSIONGUID
  2
{8286501B-2A81-EA4C-981C-F8E8B1D76A6D}
  9
$EXTNAMES
290
     1
  9
$PSVPSCALE
 40
0.0
  9
$OLESTARTUP
290
     0
  9
$SORTENTS
280
   127
  9
$INDEXCTL
280
     0
  9
$HIDETEXT
280
     1
  9
$XCLIPFRAME
280
     2
  9
$HALOGAP
280
     0
  9
$OBSCOLOR
 70
   257
  9
$OBSLTYPE
280
     0
  9
$INTERSECTIONDISPLAY
280
     0
  9
$INTERSECTIONCOLOR
 70
   257
  9
$DIMASSOC
280
     2
  9
$PROJECTNAME
  1

  9
$CAMERADISPLAY
290
     0
  9
$LENSLENGTH
 40
50.0
  9
$CAMERAHEIGHT
 40
0.0
  9
$STEPSPERSEC
 40
2.0
  9
$STEPSIZE
 40
6.0
  9
$3DDWFPREC
 40
2.0
  9
$PSOLWIDTH
 40
0.25
  9
$PSOLHEIGHT
 40
4.0
  9
$LOFTANG1
 40
1.570796326794896
  9
$LOFTANG2
 40
1.570796326794896
  9
$LOFTMAG1
 40
0.0
  9
$LOFTMAG2
 40
0.0
  9
$LOFTPARAM
 70
     7
  9
$LOFTNORMALS
280
     1
  9
$LATITUDE
 40
37.795
  9
$LONGITUDE
 40
-122.394
  9
$NORTHDIRECTION
 40
0.0
  9
$TIMEZONE
 70
 -8000
  9
$LIGHTGLYPHDISPLAY
280
     1
  9
$TILEMODELIGHTSYNCH
280
     1
  9
$CMATERIAL
347
11
  9
$SOLIDHIST
280
     0
  9
$SHOWHIST
280
     1
  9
$DWFFRAME
280
     2
  9
$DGNFRAME
280
     0
  9
$REALWORLDSCALE
290
     1
  9
$INTERFERECOLOR
 62
     1
  9
$INTERFEREOBJVS
345
33
  9
$INTERFEREVPVS
346
30
  9
$CSHADOW
280
     0
  9
$SHADOWPLANELOCATION
 40
0.0
  0
ENDSEC
  0
SECTION
  2
CLASSES
  0
CLASS
  1
ACDBDICTIONARYWDFLT
  2
AcDbDictionaryWithDefault
  3
ObjectDBX Classes
 90
        0
 91
        1
280
     0
281
     0
  0
CLASS
  1
MATERIAL
  2
AcDbMaterial
  3
ObjectDBX Classes
 90
     1153
 91
        3
280
     0
281
     0
  0
CLASS
  1
VISUALSTYLE
  2
AcDbVisualStyle
  3
ObjectDBX Classes
 90
     4095
 91
       24
280
     0
281
     0
  0
CLASS
  1
SCALE
  2
AcDbScale
  3
ObjectDBX Classes
 90
     1153
 91
       17
280
     0
281
     0
  0
CLASS
  1
TABLESTYLE
  2
AcDbTableStyle
  3
ObjectDBX Classes
 90
     4095
 91
        1
280
     0
281
     0
  0
CLASS
  1
MLEADERSTYLE
  2
AcDbMLeaderStyle
  3
ACDB_MLEADERSTYLE_CLASS
 90
     4095
 91
        1
280
     0
281
     0
  0
CLASS
  1
ACDBSECTIONVIEWSTYLE
  2
AcDbSectionViewStyle
  3
ObjectDBX Classes
 90
     1025
 91
        1
280
     0
281
     0
  0
CLASS
  1
ACDBDETAILVIEWSTYLE
  2
AcDbDetailViewStyle
  3
ObjectDBX Classes
 90
     1025
 91
        1
280
     0
281
     0
  0
CLASS
  1
DICTIONARYVAR
  2
AcDbDictionaryVar
  3
ObjectDBX Classes
 90
        0
 91
        5
280
     0
281
     0
  0
CLASS
  1
CELLSTYLEMAP
  2
AcDbCellStyleMap
  3
ObjectDBX Classes
 90
     1152
 91
        1
280
     0
281
     0
  0
ENDSEC
  0
SECTION
  2
TABLES
  0
TABLE
  2
VPORT
  5
8
330
0
100
AcDbSymbolTable
 70
     1
  0
VPORT
  5
57
330
8
100
AcDbSymbolTableRecord
100
AcDbViewportTableRecord
  2
*Active
 70
     0
 10
0.0
 20
0.0
 11
1.0
 21
1.0
 12
0.0
 22
0.0
 13
0.0
 23
0.0
 14
1.0
 24
1.0
 15
0.0
 25
0.0
 16
0.0
 26
0.0
 36
1.0
 17
104.9999999737534
 27
-148.4999999628701
 37
0.0
 40
302.939999924255
 41
0.7070707070707534
 42
50.0
 43
0.0
 44
0.0
 50
0.0
 51
0.0
 71
     0
 72
   100
 73
     1
 74
     1
 75
     0
 76
     0
 77
     0
 78
     0
281
     0
 65
     1
110
0.0
120
0.0
130
0.0
111
1.0
121
0.0
131
0.0
112
0.0
122
1.0
132
0.0
 79
     0
146
0.0
 60
     3
 61
     5
292
     1
282
     1
141
0.0
142
0.0
 63
   250
421
  3355443
  0
ENDTAB
  0
TABLE
  2
LTYPE
  5
5
330
0
100
AcDbSymbolTable
 70
     1
  0
LTYPE
  5
5B
330
5
100
AcDbSymbolTableRecord
100
AcDbLinetypeTableRecord
  2
ByBlock
 70
     0
  3

 72
    65
 73
     0
 40
0.0
  0
LTYPE
  5
5C
330
5
100
AcDbSymbolTableRecord
100
AcDbLinetypeTableRecord
  2
ByLayer
 70
     0
  3

 72
    65
 73
     0
 40
0.0
  0
LTYPE
  5
5D
330
5
100
AcDbSymbolTableRecord
100
AcDbLinetypeTableRecord
  2
Continuous
 70
     0
  3
Solid line
 72
    65
 73
     0
 40
0.0
  0
ENDTAB
  0
TABLE
  2
LAYER
  5
2
330
0
100
AcDbSymbolTable
 70
     2
  0
LAYER
  5
54
330
2
100
AcDbSymbolTableRecord
100
AcDbLayerTableRecord
  2
0
 70
     0
 62
     7
  6
Continuous
370
    -3
390
F
347
21
  0
LAYER
  5
78
330
2
100
AcDbSymbolTableRecord
100
AcDbLayerTableRecord
  2
Capa 1
 70
     0
 62
     7
  6
Continuous
370
     0
390
F
347
21
  0
ENDTAB
  0
TABLE
  2
STYLE
  5
3
330
0
100
AcDbSymbolTable
 70
     2
  0
STYLE
  5
55
330
3
100
AcDbSymbolTableRecord
100
AcDbTextStyleTableRecord
  2
Standard
 70
     0
 40
0.0
 41
1.0
 50
0.0
 71
     0
 42
0.2
  3
txt
  4

  0
STYLE
  5
5A
330
3
100
AcDbSymbolTableRecord
100
AcDbTextStyleTableRecord
  2
Annotative
 70
     0
 40
0.0
 41
1.0
 50
0.0
 71
     0
 42
0.2
  3
txt
  4

1001
AcadAnnotative
1000
AnnotativeData
1002
{
1070
     1
1070
     1
1002
}
  0
ENDTAB
  0
TABLE
  2
VIEW
  5
6
330
0
100
AcDbSymbolTable
 70
     0
  0
ENDTAB
  0
TABLE
  2
UCS
  5
7
330
0
100
AcDbSymbolTable
 70
     0
  0
ENDTAB
  0
TABLE
  2
APPID
  5
9
330
0
100
AcDbSymbolTable
 70
     2
  0
APPID
  5
56
330
9
100
AcDbSymbolTableRecord
100
AcDbRegAppTableRecord
  2
ACAD
 70
     0
  0
APPID
  5
5E
330
9
100
AcDbSymbolTableRecord
100
AcDbRegAppTableRecord
  2
AcadAnnotative
 70
     0
  0
ENDTAB
  0
TABLE
  2
DIMSTYLE
  5
A
330
0
100
AcDbSymbolTable
 70
     2
100
AcDbDimStyleTable
 71
     0
  0
DIMSTYLE
105
58
330
A
100
AcDbSymbolTableRecord
100
AcDbDimStyleTableRecord
  2
Standard
 70
     0
340
55
  0
DIMSTYLE
105
59
330
A
100
AcDbSymbolTableRecord
100
AcDbDimStyleTableRecord
  2
Annotative
 70
     0
340
55
1001
AcadAnnotative
1000
AnnotativeData
1002
{
1070
     1
1070
     1
1002
}
  0
ENDTAB
  0
TABLE
  2
BLOCK_RECORD
  5
1
330
0
100
AcDbSymbolTable
 70
     5
  0
BLOCK_RECORD
  5
70
330
1
100
AcDbSymbolTableRecord
100
AcDbBlockTableRecord
  2
*Model_Space
340
73
 70
     0
280
     1
281
     0
  0
BLOCK_RECORD
  5
6C
330
1
100
AcDbSymbolTableRecord
100
AcDbBlockTableRecord
  2
*Paper_Space
340
6F
 70
     0
280
     1
281
     0
  0
BLOCK_RECORD
  5
74
330
1
100
AcDbSymbolTableRecord
100
AcDbBlockTableRecord
  2
*Paper_Space0
340
77
 70
     0
280
     1
281
     0
  0
BLOCK_RECORD
  5
A6
330
1
100
AcDbSymbolTableRecord
100
AcDbBlockTableRecord
  2
Block_0
340
0
102
{BLKREFS
331
A7
102
}
 70
     0
280
     1
281
     0
  0
BLOCK_RECORD
  5
FA
330
1
100
AcDbSymbolTableRecord
100
AcDbBlockTableRecord
  2
Block_1
340
0
102
{BLKREFS
331
FB
102
}
 70
     0
280
     1
281
     0
  0
BLOCK_RECORD
  5
101
330
1
100
AcDbSymbolTableRecord
100
AcDbBlockTableRecord
  2
Block_2
340
0
102
{BLKREFS
331
102
102
}
 70
     0
280
     1
281
     0
  0
BLOCK_RECORD
  5
108
330
1
100
AcDbSymbolTableRecord
100
AcDbBlockTableRecord
  2
Block_3
340
0
102
{BLKREFS
331
109
102
}
 70
     0
280
     1
281
     0
  0
ENDTAB
  0
ENDSEC
  0
SECTION
  2
BLOCKS
  0
BLOCK
  5
71
330
70
100
AcDbEntity
  8
0
100
AcDbBlockBegin
  2
*Model_Space
 70
     0
 10
0.0
 20
0.0
 30
0.0
  3
*Model_Space
  1

  0
ENDBLK
  5
72
330
70
100
AcDbEntity
  8
0
100
AcDbBlockEnd
  0
BLOCK
  5
6D
330
6C
100
AcDbEntity
 67
     1
  8
0
100
AcDbBlockBegin
  2
*Paper_Space
 70
     0
 10
0.0
 20
0.0
 30
0.0
  3
*Paper_Space
  1

  0
ENDBLK
  5
6E
330
6C
100
AcDbEntity
 67
     1
  8
0
100
AcDbBlockEnd
  0
BLOCK
  5
75
330
74
100
AcDbEntity
 67
     1
  8
0
100
AcDbBlockBegin
  2
*Paper_Space0
 70
     0
 10
0.0
 20
0.0
 30
0.0
  3
*Paper_Space0
  1

  0
ENDBLK
  5
76
330
74
100
AcDbEntity
 67
     1
  8
0
100
AcDbBlockEnd
  0
BLOCK
  5
A8
330
A6
100
AcDbEntity
  8
0
100
AcDbBlockBegin
  2
Block_0
 70
     0
 10
0.0
 20
0.0
 30
0.0
  3
Block_0
  1

  0
LINE
  5
AA
330
A6
100
AcDbEntity
  8
Capa 1
 62
    18
420
        0
370
     9
100
AcDbLine
 10
148.9587607779101
 20
-90.18220493897146
 30
0.0
 11
147.134131119704
 21
-90.18220493897146
 31
0.0
  0
LINE
  5
AB
330
A6
100
AcDbEntity
  8
Capa 1
 62
    18
420
        0
370
     9
100
AcDbLine
 10
148.9587607779101
 20
-132.0571416130546
 30
0.0
 11
147.134131119704
 21
-132.0571416130546
 31
0.0
  0
LINE
  5
AC
330
A6
100
AcDbEntity
  8
Capa 1
 62
    18
420
        0
370
     9
100
AcDbLine
 10
148.0464459488071
 20
-90.18220493897146
 30
0.0
 11
148.0464459488071
 21
-132.0571416130546
 31
0.0
  0
MTEXT
  5
AD
330
A6
100
AcDbEntity
  8
Capa 1
100
AcDbMText
 10
147.1344056715294
 20
-111.1194016920552
 30
0.0
 40
0.2
 41
0.0
 46
0.0
 71
     7
 72
     1
  1
\C18;\c0;\FArial Bold|b1|i0|c1;\H0.089916;\W1.000000;45.8997
 11
0.0000000000000001
 21
1.0
 31
0.0
 73
     1
 44
1.0
  0
ENDBLK
  5
A9
330
A6
100
AcDbEntity
  8
0
100
AcDbBlockEnd
  0
BLOCK
  5
FC
330
FA
100
AcDbEntity
  8
0
100
AcDbBlockBegin
  2
Block_1
 70
     0
 10
0.0
 20
0.0
 30
0.0
  3
Block_1
  1

  0
LINE
  5
FE
330
FA
100
AcDbEntity
  8
Capa 1
 62
    18
420
        0
370
     9
100
AcDbLine
 10
68.71856323500939
 20
-238.4432111718774
 30
0.0
 11
68.71856323500939
 21
-240.2729092457988
 31
0.0
  0
LINE
  5
FF
330
FA
100
AcDbEntity
  8
Capa 1
 62
    18
420
        0
370
     9
100
AcDbLine
 10
141.4490616734562
 20
-238.4432111718774
 30
0.0
 11
141.4490616734562
 21
-240.2729092457988
 31
0.0
  0
LINE
  5
100
330
FA
100
AcDbEntity
  8
Capa 1
 62
    18
420
        0
370
     9
100
AcDbLine
 10
68.71856323500939
 20
-239.3580602088368
 30
0.0
 11
141.4490616734562
 21
-239.3580602088368
 31
0.0
  0
ENDBLK
  5
FD
330
FA
100
AcDbEntity
  8
0
100
AcDbBlockEnd
  0
BLOCK
  5
103
330
101
100
AcDbEntity
  8
0
100
AcDbBlockBegin
  2
Block_2
 70
     0
 10
0.0
 20
0.0
 30
0.0
  3
Block_2
  1

  0
LINE
  5
105
330
101
100
AcDbEntity
  8
Capa 1
 62
    18
420
        0
370
     9
100
AcDbLine
 10
149.0078746179094
 20
-148.7585232402896
 30
0.0
 11
147.1781765439855
 21
-148.7585232402896
 31
0.0
  0
LINE
  5
106
330
101
100
AcDbEntity
  8
Capa 1
 62
    18
420
        0
370
     9
100
AcDbLine
 10
149.0078746179094
 20
-216.4573519754501
 30
0.0
 11
147.1781765439855
 21
-216.4573519754501
 31
0.0
  0
LINE
  5
107
330
101
100
AcDbEntity
  8
Capa 1
 62
    18
420
        0
370
     9
100
AcDbLine
 10
148.0930255809481
 20
-148.7585232402896
 30
0.0
 11
148.0930255809481
 21
-216.4573519754501
 31
0.0
  0
ENDBLK
  5
104
330
101
100
AcDbEntity
  8
0
100
AcDbBlockEnd
  0
BLOCK
  5
10A
330
108
100
AcDbEntity
  8
0
100
AcDbBlockBegin
  2
Block_3
 70
     0
 10
0.0
 20
0.0
 30
0.0
  3
Block_3
  1

  0
LINE
  5
10C
330
108
100
AcDbEntity
  8
Capa 1
 62
    18
420
        0
370
     9
100
AcDbLine
 10
149.0078746179094
 20
-226.4292064783307
 30
0.0
 11
147.1781765439855
 21
-226.4292064783307
 31
0.0
  0
LINE
  5
10D
330
108
100
AcDbEntity
  8
Capa 1
 62
    18
420
        0
370
     9
100
AcDbLine
 10
149.0078746179094
 20
-216.4573519754501
 30
0.0
 11
147.1781765439855
 21
-216.4573519754501
 31
0.0
  0
LINE
  5
10E
330
108
100
AcDbEntity
  8
Capa 1
 62
    18
420
        0
370
     9
100
AcDbLine
 10
148.0930255809481
 20
-226.4292064783307
 30
0.0
 11
148.0930255809481
 21
-216.4573519754501
 31
0.0
  0
ENDBLK
  5
10B
330
108
100
AcDbEntity
  8
0
100
AcDbBlockEnd
  0
ENDSEC
  0
SECTION
  2
ENTITIES
  0
LINE
  5
79
330
70
100
AcDbEntity
  8
Capa 1
 62
    18
420
        0
370
     9
100
AcDbLine
 10
140.416263614582
 20
-131.3274009099171
 30
0.0
 11
68.00098285805443
 21
-131.3274009099171
 31
0.0
  0
LINE
  5
7A
330
70
100
AcDbEntity
  8
Capa 1
 62
    18
420
        0
370
     9
100
AcDbLine
 10
68.00098285820394
 20
-131.3274009097656
 30
0.0
 11
68.00098285820394
 21
-91.78097328576004
 31
0.0
  0
LINE
  5
7B
330
70
100
AcDbEntity
  8
Capa 1
 62
    18
420
        0
370
     9
100
AcDbLine
 10
140.4162636147335
 20
-91.78097328576004
 30
0.0
 11
140.4162636147335
 21
-131.3274009097656
 31
0.0
  0
SPLINE
  5
7C
330
70
100
AcDbEntity
  8
Capa 1
 62
    18
420
        0
370
     9
100
AcDbSpline
210
0.0
220
0.0
230
1.0
 70
     8
 71
     3
 72
    14
 73
    10
 74
     0
 42
0.0000000001
 43
0.0000000001
 40
0.0
 40
0.0
 40
0.0
 40
0.0
 40
1.0
 40
1.0
 40
1.0
 40
2.0
 40
2.0
 40
2.0
 40
3.0
 40
3.0
 40
3.0
 40
3.0
 10
104.2086232356624
 20
-96.26015406788036
 30
0.0
 10
104.7789326779215
 20
-96.26015406811715
 30
0.0
 10
105.3061221967773
 20
-95.95578105773105
 30
0.0
 10
105.5912769180407
 20
-95.46187859279491
 30
0.0
 10
105.8764316393053
 20
-94.96797612785909
 30
0.0
 10
105.8764316394311
 20
-94.35923010672885
 30
0.0
 10
105.591276918368
 20
-93.86532764167592
 30
0.0
 10
105.3061221973074
 20
-93.37142517662169
 30
0.0
 10
104.778932678576
 20
-93.0670521660232
 30
0.0
 10
104.2086232363163
 20
-93.0670521660232
 30
0.0
  0
SPLINE
  5
7D
330
70
100
AcDbEntity
  8
Capa 1
 62
    18
420
        0
370
     9
100
AcDbSpline
210
0.0
220
0.0
230
1.0
 70
     8
 71
     3
 72
    17
 73
    13
 74
     0
 42
0.0000000001
 43
0.0000000001
 40
0.0
 40
0.0
 40
0.0
 40
0.0
 40
1.0
 40
1.0
 40
1.0
 40
2.0
 40
2.0
 40
2.0
 40
3.0
 40
3.0
 40
3.0
 40
4.0
 40
4.0
 40
4.0
 40
4.0
 10
104.2086232360301
 20
-93.0670521660232
 30
0.0
 10
103.7852035805119
 20
-93.06705216609893
 30
0.0
 10
103.3790941420663
 20
-93.23526820336249
 30
0.0
 10
103.0796912323693
 20
-93.53467111307649
 30
0.0
 10
102.7802883226736
 20
-93.83407402279017
 30
0.0
 10
102.6120722854376
 20
-94.24018346125093
 30
0.0
 10
102.6120722853876
 20
-94.66360311676714
 30
0.0
 10
102.6120722853381
 20
-95.08702277228687
 30
0.0
 10
102.780288322483
 20
-95.49313221078453
 30
0.0
 10
103.0796912321081
 20
-95.79253512056846
 30
0.0
 10
103.3790941417352
 20
-96.09193803035241
 30
0.0
 10
103.7852035801423
 20
-96.26015406770839
 30
0.0
 10
104.2086232356624
 20
-96.26015406788036
 30
0.0
  0
SPLINE
  5
7E
330
70
100
AcDbEntity
  8
Capa 1
 62
    18
420
        0
370
     9
100
AcDbSpline
210
0.0
220
0.0
230
1.0
 70
     8
 71
     3
 72
    89
 73
    85
 74
     0
 42
0.0000000001
 43
0.0000000001
 40
0.0
 40
0.0
 40
0.0
 40
0.0
 40
1.0
 40
1.0
 40
1.0
 40
2.0
 40
2.0
 40
2.0
 40
3.0
 40
3.0
 40
3.0
 40
4.0
 40
4.0
 40
4.0
 40
5.0
 40
5.0
 40
5.0
 40
6.0
 40
6.0
 40
6.0
 40
7.0
 40
7.0
 40
7.0
 40
8.0
 40
8.0
 40
8.0
 40
9.0
 40
9.0
 40
9.0
 40
10.0
 40
10.0
 40
10.0
 40
11.0
 40
11.0
 40
11.0
 40
12.0
 40
12.0
 40
12.0
 40
13.0
 40
13.0
 40
13.0
 40
14.0
 40
14.0
 40
14.0
 40
15.0
 40
15.0
 40
15.0
 40
16.0
 40
16.0
 40
16.0
 40
17.0
 40
17.0
 40
17.0
 40
18.0
 40
18.0
 40
18.0
 40
19.0
 40
19.0
 40
19.0
 40
20.0
 40
20.0
 40
20.0
 40
21.0
 40
21.0
 40
21.0
 40
22.0
 40
22.0
 40
22.0
 40
23.0
 40
23.0
 40
23.0
 40
24.0
 40
24.0
 40
24.0
 40
25.0
 40
25.0
 40
25.0
 40
26.0
 40
26.0
 40
26.0
 40
27.0
 40
27.0
 40
27.0
 40
28.0
 40
28.0
 40
28.0
 40
28.0
 10
104.2086232354962
 20
-99.96737431429551
 30
0.0
 10
102.7630014952096
 20
-99.96737431684977
 30
0.0
 10
101.3174152867598
 20
-99.97375926603794
 30
0.0
 10
99.87184696871395
 20
-99.98339233299704
 30
0.0
 10
98.42627865066393
 20
-99.99302539995582
 30
0.0
 10
96.98072627176031
 20
-100.0056196119959
 30
0.0
 10
95.5351758199392
 20
-100.0183509766581
 30
0.0
 10
94.08962536811619
 20
-100.0310823413167
 30
0.0
 10
92.64407779058833
 20
-100.0439852228089
 30
0.0
 10
91.19851829362046
 20
-100.0561788782341
 30
0.0
 10
90.47573854513684
 20
-100.0622757059464
 30
0.0
 10
89.75295611193878
 20
-100.0682204390549
 30
0.0
 10
89.03017096268696
 20
-100.0740112942584
 30
0.0
 10
88.84947467537649
 20
-100.0754590080611
 30
0.0
 10
88.66878266499526
 20
-100.0771490260815
 30
0.0
 10
88.48807985079959
 20
-100.0782269669238
 30
0.0
 10
88.30737703660423
 20
-100.0793049077666
 30
0.0
 10
88.12666629983597
 20
-100.0799340037005
 30
0.0
 10
87.9460440232131
 20
-100.0855747117535
 30
0.0
 10
87.76542174658828
 20
-100.0912154198046
 30
0.0
 10
87.58489782273343
 20
-100.1024281992417
 30
0.0
 10
87.40447086553819
 20
-100.1191345154463
 30
0.0
 10
87.22404390834297
 20
-100.1358408316543
 30
0.0
 10
87.04333507728417
 20
-100.1581023334698
 30
0.0
 10
86.8647804100969
 20
-100.1855905184523
 30
0.0
 10
86.50767107571823
 20
-100.2405668884192
 30
0.0
 10
86.15741305169178
 20
-100.3165132662225
 30
0.0
 10
85.81354847030373
 20
-100.4120282423469
 30
0.0
 10
85.46968388891789
 20
-100.5075432184711
 30
0.0
 10
85.13222951807147
 20
-100.622678115085
 30
0.0
 10
84.80107179068822
 20
-100.7570853341605
 30
0.0
 10
84.46991406330239
 20
-100.8914925532353
 30
0.0
 10
84.14505414359314
 20
-101.0451756582653
 30
0.0
 10
83.82646174917221
 20
-101.2180419625842
 30
0.0
 10
83.74681365056689
 20
-101.2612585386628
 30
0.0
 10
83.66764420520571
 20
-101.3056289591443
 30
0.0
 10
83.58937042286882
 20
-101.3509054355298
 30
0.0
 10
83.51109664053387
 20
-101.3961819119153
 30
0.0
 10
83.43359737078875
 20
-101.4424293520171
 30
0.0
 10
83.35685388399809
 20
-101.4896242754111
 30
0.0
 10
83.20336691041871
 20
-101.5840141221918
 30
0.0
 10
83.05290096485153
 20
-101.6821912649024
 30
0.0
 10
82.90533585989633
 20
-101.7840050313211
 30
0.0
 10
82.61020564999006
 20
-101.9876325641569
 30
0.0
 10
82.3266579444253
 20
-102.2057804428413
 30
0.0
 10
82.05406780316423
 20
-102.4376652148213
 30
0.0
 10
81.78147766190511
 20
-102.669549986803
 30
0.0
 10
81.51982550671965
 20
-102.9151471075711
 30
0.0
 10
81.26888500799012
 20
-103.1741728406518
 30
0.0
 10
81.20614988330734
 20
-103.2389292739213
 30
0.0
 10
81.14408446795955
 20
-103.3045252847103
 30
0.0
 10
81.08268356205028
 20
-103.3709543543746
 30
0.0
 10
81.02128265614453
 20
-103.4373834240408
 30
0.0
 10
80.96051942253971
 20
-103.5046808360377
 30
0.0
 10
80.90074792721674
 20
-103.5724233384553
 30
0.0
 10
80.78120493657271
 20
-103.7079083432905
 30
0.0
 10
80.66528323969254
 20
-103.8455340074891
 30
0.0
 10
80.55280397575129
 20
-103.9851946009106
 30
0.0
 10
80.3278454478672
 20
-104.2645157877511
 30
0.0
 10
80.11662509626782
 20
-104.5519580380547
 30
0.0
 10
79.91821444282475
 20
-104.8469724992036
 30
0.0
 10
79.52139313594085
 20
-105.4370014215024
 30
0.0
 10
79.17595887886569
 20
-106.0574068277948
 30
0.0
 10
78.87782751836877
 20
-106.7057744478012
 30
0.0
 10
78.72876183812337
 20
-107.0299582578035
 30
0.0
 10
78.59151305729056
 20
-107.3611274044791
 30
0.0
 10
78.46607905184234
 20
-107.6992806324838
 30
0.0
 10
78.43472055047925
 20
-107.7838189394855
 30
0.0
 10
78.40407315884284
 20
-107.8688831920639
 30
0.0
 10
78.37429039905609
 20
-107.9540393829541
 30
0.0
 10
78.34450763927129
 20
-108.0391955738462
 30
0.0
 10
78.31556802768286
 20
-108.1244963909962
 30
0.0
 10
78.28746116466561
 20
-108.2099400504954
 30
0.0
 10
78.23124743862568
 20
-108.3808273694939
 30
0.0
 10
78.17836296178599
 20
-108.5522857588343
 30
0.0
 10
78.1287472778958
 20
-108.7243048481108
 30
0.0
 10
77.93028454234717
 20
-109.4123812052099
 30
0.0
 10
77.78425743569099
 20
-110.1094519109096
 30
0.0
 10
77.68595802901838
 20
-110.8147094072876
 30
0.0
 10
77.6368083256832
 20
-111.1673381554765
 30
0.0
 10
77.59969352824057
 20
-111.5220312660342
 30
0.0
 10
77.57474252287337
 20
-111.8788108467161
 30
0.0
 10
77.54979151750617
 20
-112.2355904274006
 30
0.0
 10
77.5370014584325
 20
-112.5944588315253
 30
0.0
 10
77.53700146500029
 20
-112.9555154487672
 30
0.0
  0
SPLINE
  5
7F
330
70
100
AcDbEntity
  8
Capa 1
 62
    18
420
        0
370
     9
100
AcDbSpline
210
0.0
220
0.0
230
1.0
 70
     8
 71
     3
 72
    89
 73
    85
 74
     0
 42
0.0000000001
 43
0.0000000001
 40
0.0
 40
0.0
 40
0.0
 40
0.0
 40
1.0
 40
1.0
 40
1.0
 40
2.0
 40
2.0
 40
2.0
 40
3.0
 40
3.0
 40
3.0
 40
4.0
 40
4.0
 40
4.0
 40
5.0
 40
5.0
 40
5.0
 40
6.0
 40
6.0
 40
6.0
 40
7.0
 40
7.0
 40
7.0
 40
8.0
 40
8.0
 40
8.0
 40
9.0
 40
9.0
 40
9.0
 40
10.0
 40
10.0
 40
10.0
 40
11.0
 40
11.0
 40
11.0
 40
12.0
 40
12.0
 40
12.0
 40
13.0
 40
13.0
 40
13.0
 40
14.0
 40
14.0
 40
14.0
 40
15.0
 40
15.0
 40
15.0
 40
16.0
 40
16.0
 40
16.0
 40
17.0
 40
17.0
 40
17.0
 40
18.0
 40
18.0
 40
18.0
 40
19.0
 40
19.0
 40
19.0
 40
20.0
 40
20.0
 40
20.0
 40
21.0
 40
21.0
 40
21.0
 40
22.0
 40
22.0
 40
22.0
 40
23.0
 40
23.0
 40
23.0
 40
24.0
 40
24.0
 40
24.0
 40
25.0
 40
25.0
 40
25.0
 40
26.0
 40
26.0
 40
26.0
 40
27.0
 40
27.0
 40
27.0
 40
28.0
 40
28.0
 40
28.0
 40
28.0
 10
77.53700146500029
 20
-112.9555154321639
 30
0.0
 10
77.5370014584325
 20
-113.3165720494084
 30
0.0
 10
77.54979151750617
 20
-113.6754404535343
 30
0.0
 10
77.57474252287337
 20
-114.0322200342176
 30
0.0
 10
77.59969352824057
 20
-114.3889996148988
 30
0.0
 10
77.6368083256832
 20
-114.7436927254549
 30
0.0
 10
77.68595802901838
 20
-115.0963214736461
 30
0.0
 10
77.78425743569099
 20
-115.8015789700231
 30
0.0
 10
77.93028454234717
 20
-116.4986496757215
 30
0.0
 10
78.1287472778958
 20
-117.1867260328225
 30
0.0
 10
78.17836296178599
 20
-117.3587451220971
 30
0.0
 10
78.23124743862568
 20
-117.530203511348
 30
0.0
 10
78.28746116466561
 20
-117.7010908304062
 30
0.0
 10
78.31556802768286
 20
-117.7865344899368
 30
0.0
 10
78.34450763927129
 20
-117.8718353070874
 30
0.0
 10
78.37429039905609
 20
-117.9569914979796
 30
0.0
 10
78.40407315884284
 20
-118.0421476888717
 30
0.0
 10
78.43472055047925
 20
-118.1272119414479
 30
0.0
 10
78.46607905184234
 20
-118.2117502484512
 30
0.0
 10
78.59151305729056
 20
-118.5499034764565
 30
0.0
 10
78.72876183821386
 20
-118.8810726232226
 30
0.0
 10
78.87782751840022
 20
-119.2052564331633
 30
0.0
 10
79.17595887877552
 20
-119.8536240530458
 30
0.0
 10
79.52139313594085
 20
-120.4740294594335
 30
0.0
 10
79.91821444282475
 20
-121.0640583817313
 30
0.0
 10
80.11662509626782
 20
-121.359072842879
 30
0.0
 10
80.3278454478672
 20
-121.6465150931822
 30
0.0
 10
80.55280397575129
 20
-121.9258362800231
 30
0.0
 10
80.66528323969254
 20
-122.0654968734423
 30
0.0
 10
80.78120493657271
 20
-122.2031225376431
 30
0.0
 10
80.90074792721674
 20
-122.3386075424796
 30
0.0
 10
80.96051942253971
 20
-122.4063500448953
 30
0.0
 10
81.02128265614453
 20
-122.4736474568925
 30
0.0
 10
81.08268356205028
 20
-122.5400765265584
 30
0.0
 10
81.14408446795955
 20
-122.6065055962231
 30
0.0
 10
81.20614988339974
 20
-122.6721016070117
 30
0.0
 10
81.2688850080344
 20
-122.7368580402812
 30
0.0
 10
81.51982550658265
 20
-122.9958837733596
 30
0.0
 10
81.78147766190511
 20
-123.2414808941323
 30
0.0
 10
82.05406780316423
 20
-123.4733656661123
 30
0.0
 10
82.3266579444253
 20
-123.7052504380924
 30
0.0
 10
82.61020564999006
 20
-123.9233983167767
 30
0.0
 10
82.90533585989633
 20
-124.1270258496141
 30
0.0
 10
83.05290096485153
 20
-124.2288396160325
 30
0.0
 10
83.20336691041871
 20
-124.3270167587415
 30
0.0
 10
83.35685388399809
 20
-124.4214066055238
 30
0.0
 10
83.43359737078875
 20
-124.4686015289157
 30
0.0
 10
83.51109664053387
 20
-124.5148489690181
 30
0.0
 10
83.58937042286882
 20
-124.5601254454036
 30
0.0
 10
83.66764420520571
 20
-124.605401921791
 30
0.0
 10
83.74681365056689
 20
-124.649772342268
 30
0.0
 10
83.82646174917221
 20
-124.6929889183492
 30
0.0
 10
84.14505414359314
 20
-124.86585522267
 30
0.0
 10
84.46991406330239
 20
-125.0195383276984
 30
0.0
 10
84.80107179062693
 20
-125.1539455467729
 30
0.0
 10
85.13222951794986
 20
-125.2883527658461
 30
0.0
 10
85.46968388891789
 20
-125.4034876624639
 30
0.0
 10
85.81354847030373
 20
-125.499002638588
 30
0.0
 10
86.15741305169178
 20
-125.5945176147121
 30
0.0
 10
86.50767107571823
 20
-125.6704639924236
 30
0.0
 10
86.8647804100969
 20
-125.7254403624605
 30
0.0
 10
87.04333507728417
 20
-125.7529285474822
 30
0.0
 10
87.22404390834297
 20
-125.7751900492791
 30
0.0
 10
87.40447086553819
 20
-125.7918963654877
 30
0.0
 10
87.58489782273343
 20
-125.8086026816913
 30
0.0
 10
87.76542174658828
 20
-125.8198154611284
 30
0.0
 10
87.9460440232131
 20
-125.8254561691817
 30
0.0
 10
88.12666629983597
 20
-125.8310968772325
 30
0.0
 10
88.30737703660423
 20
-125.8317259731687
 30
0.0
 10
88.48807985079959
 20
-125.8328039140108
 30
0.0
 10
88.66878266499526
 20
-125.8338818548535
 30
0.0
 10
88.84947467537649
 20
-125.8355718728736
 30
0.0
 10
89.03017096268696
 20
-125.8370195866749
 30
0.0
 10
89.75295611193878
 20
-125.8428104418804
 30
0.0
 10
90.47573854513684
 20
-125.8487551749869
 30
0.0
 10
91.19851829362046
 20
-125.8548520026976
 30
0.0
 10
92.64407779058833
 20
-125.8670456581248
 30
0.0
 10
94.08962536811619
 20
-125.8799485399808
 30
0.0
 10
95.5351758199392
 20
-125.8926799042772
 30
0.0
 10
96.98072627176031
 20
-125.9054112685729
 30
0.0
 10
98.42627865066393
 20
-125.9180054809333
 30
0.0
 10
99.87184696871395
 20
-125.9276385479819
 30
0.0
 10
101.3174152867598
 20
-125.9372716150318
 30
0.0
 10
102.7630014952096
 20
-125.9436565640852
 30
0.0
 10
104.2086232354962
 20
-125.9436565666379
 30
0.0
  0
SPLINE
  5
80
330
70
100
AcDbEntity
  8
Capa 1
 62
    18
420
        0
370
     9
100
AcDbSpline
210
0.0
220
0.0
230
1.0
 70
     8
 71
     3
 72
    89
 73
    85
 74
     0
 42
0.0000000001
 43
0.0000000001
 40
0.0
 40
0.0
 40
0.0
 40
0.0
 40
1.0
 40
1.0
 40
1.0
 40
2.0
 40
2.0
 40
2.0
 40
3.0
 40
3.0
 40
3.0
 40
4.0
 40
4.0
 40
4.0
 40
5.0
 40
5.0
 40
5.0
 40
6.0
 40
6.0
 40
6.0
 40
7.0
 40
7.0
 40
7.0
 40
8.0
 40
8.0
 40
8.0
 40
9.0
 40
9.0
 40
9.0
 40
10.0
 40
10.0
 40
10.0
 40
11.0
 40
11.0
 40
11.0
 40
12.0
 40
12.0
 40
12.0
 40
13.0
 40
13.0
 40
13.0
 40
14.0
 40
14.0
 40
14.0
 40
15.0
 40
15.0
 40
15.0
 40
16.0
 40
16.0
 40
16.0
 40
17.0
 40
17.0
 40
17.0
 40
18.0
 40
18.0
 40
18.0
 40
19.0
 40
19.0
 40
19.0
 40
20.0
 40
20.0
 40
20.0
 40
21.0
 40
21.0
 40
21.0
 40
22.0
 40
22.0
 40
22.0
 40
23.0
 40
23.0
 40
23.0
 40
24.0
 40
24.0
 40
24.0
 40
25.0
 40
25.0
 40
25.0
 40
26.0
 40
26.0
 40
26.0
 40
27.0
 40
27.0
 40
27.0
 40
28.0
 40
28.0
 40
28.0
 40
28.0
 10
104.2086232371389
 20
-125.9436565666379
 30
0.0
 10
105.6542449774249
 20
-125.943656563903
 30
0.0
 10
107.0998311858763
 20
-125.9372716148951
 30
0.0
 10
108.5453995039241
 20
-125.9276385479382
 30
0.0
 10
109.9909678219719
 20
-125.9180054809776
 30
0.0
 10
111.4365202008758
 20
-125.90541126894
 30
0.0
 10
112.8820706526947
 20
-125.8926799042772
 30
0.0
 10
114.3276211045199
 20
-125.8799485396144
 30
0.0
 10
115.7731686820481
 20
-125.8670456579419
 30
0.0
 10
117.218728179016
 20
-125.8548520026976
 30
0.0
 10
117.9415079274993
 20
-125.8487551750794
 30
0.0
 10
118.6642903606954
 20
-125.8428104419708
 30
0.0
 10
119.3870755099469
 20
-125.8370195866865
 30
0.0
 10
119.5677717972577
 20
-125.8355718728633
 30
0.0
 10
119.7484638076418
 20
-125.8338818548535
 30
0.0
 10
119.9291666218365
 20
-125.8328039140108
 30
0.0
 10
120.1098694360344
 20
-125.8317259731687
 30
0.0
 10
120.2905801728001
 20
-125.8310968772325
 30
0.0
 10
120.4712024494237
 20
-125.8254561691817
 30
0.0
 10
120.6518247260485
 20
-125.8198154611284
 30
0.0
 10
120.8323486499004
 20
-125.8086026816913
 30
0.0
 10
121.0127756070982
 20
-125.7918963654877
 30
0.0
 10
121.1932025642909
 20
-125.7751900492791
 30
0.0
 10
121.3739113953523
 20
-125.7529285474822
 30
0.0
 10
121.5524660625373
 20
-125.7254403624605
 30
0.0
 10
121.9095753969163
 20
-125.6704639924236
 30
0.0
 10
122.2598334210351
 20
-125.5945176147121
 30
0.0
 10
122.6036980023513
 20
-125.499002638588
 30
0.0
 10
122.947562583665
 20
-125.4034876624639
 30
0.0
 10
123.2850169545351
 20
-125.2883527656965
 30
0.0
 10
123.61617468198
 20
-125.1539455467414
 30
0.0
 10
123.9473324094223
 20
-125.0195383277908
 30
0.0
 10
124.272192329043
 20
-124.86585522267
 30
0.0
 10
124.5907847234604
 20
-124.6929889183492
 30
0.0
 10
124.6704328220692
 20
-124.6497723422725
 30
0.0
 10
124.7496022674323
 20
-124.605401921791
 30
0.0
 10
124.8278760497657
 20
-124.5601254454036
 30
0.0
 10
124.9061498321042
 20
-124.5148489690181
 30
0.0
 10
124.9836491018455
 20
-124.4686015289157
 30
0.0
 10
125.0603925886367
 20
-124.4214066055238
 30
0.0
 10
125.2138795622167
 20
-124.3270167587415
 30
0.0
 10
125.3643455077872
 20
-124.2288396160325
 30
0.0
 10
125.5119106127385
 20
-124.1270258496141
 30
0.0
 10
125.8070408226451
 20
-123.9233983167767
 30
0.0
 10
126.0905885283481
 20
-123.7052504380924
 30
0.0
 10
126.3631786695158
 20
-123.4733656661123
 30
0.0
 10
126.6357688106855
 20
-123.2414808941323
 30
0.0
 10
126.8974209660541
 20
-122.9958837733596
 30
0.0
 10
127.1483614646017
 20
-122.7368580402812
 30
0.0
 10
127.2110965892367
 20
-122.6721016070117
 30
0.0
 10
127.2731620046782
 20
-122.6065055962231
 30
0.0
 10
127.3345629105865
 20
-122.5400765265584
 30
0.0
 10
127.3959638164916
 20
-122.4736474568925
 30
0.0
 10
127.4567270500945
 20
-122.4063500448953
 30
0.0
 10
127.5164985454175
 20
-122.3386075424796
 30
0.0
 10
127.6360415360634
 20
-122.2031225376431
 30
0.0
 10
127.7519632329423
 20
-122.0654968734423
 30
0.0
 10
127.8644424968826
 20
-121.9258362800231
 30
0.0
 10
128.0894010247696
 20
-121.6465150931822
 30
0.0
 10
128.3006213763689
 20
-121.359072842879
 30
0.0
 10
128.4990320298114
 20
-121.0640583817313
 30
0.0
 10
128.895853336693
 20
-120.4740294594335
 30
0.0
 10
129.2412875938628
 20
-119.8536240530458
 30
0.0
 10
129.5394189542343
 20
-119.2052564331633
 30
0.0
 10
129.6884846344245
 20
-118.8810726232226
 30
0.0
 10
129.8257334153456
 20
-118.5499034764565
 30
0.0
 10
129.9511674207922
 20
-118.2117502484512
 30
0.0
 10
129.9825259221569
 20
-118.1272119414479
 30
0.0
 10
130.0131733137939
 20
-118.0421476888717
 30
0.0
 10
130.0429560735807
 20
-117.9569914979796
 30
0.0
 10
130.0727388333655
 20
-117.8718353070874
 30
0.0
 10
130.1016784449513
 20
-117.7865344899368
 30
0.0
 10
130.1297853079721
 20
-117.7010908304357
 30
0.0
 10
130.1859990340111
 20
-117.5302035114372
 30
0.0
 10
130.2388835108517
 20
-117.3587451220971
 30
0.0
 10
130.2884991947387
 20
-117.1867260328225
 30
0.0
 10
130.4869619302899
 20
-116.4986496757215
 30
0.0
 10
130.6329890369435
 20
-115.8015789700257
 30
0.0
 10
130.7312884436158
 20
-115.0963214736461
 30
0.0
 10
130.7804381469539
 20
-114.7436927254549
 30
0.0
 10
130.8175529443942
 20
-114.3889996148988
 30
0.0
 10
130.8425039497608
 20
-114.0322200342176
 30
0.0
 10
130.8674549551299
 20
-113.6754404535343
 30
0.0
 10
130.8802450141115
 20
-113.3165720495008
 30
0.0
 10
130.8802450076361
 20
-112.9555154321639
 30
0.0
  0
SPLINE
  5
81
330
70
100
AcDbEntity
  8
Capa 1
 62
    18
420
        0
370
     9
100
AcDbSpline
210
0.0
220
0.0
230
1.0
 70
     8
 71
     3
 72
    89
 73
    85
 74
     0
 42
0.0000000001
 43
0.0000000001
 40
0.0
 40
0.0
 40
0.0
 40
0.0
 40
1.0
 40
1.0
 40
1.0
 40
2.0
 40
2.0
 40
2.0
 40
3.0
 40
3.0
 40
3.0
 40
4.0
 40
4.0
 40
4.0
 40
5.0
 40
5.0
 40
5.0
 40
6.0
 40
6.0
 40
6.0
 40
7.0
 40
7.0
 40
7.0
 40
8.0
 40
8.0
 40
8.0
 40
9.0
 40
9.0
 40
9.0
 40
10.0
 40
10.0
 40
10.0
 40
11.0
 40
11.0
 40
11.0
 40
12.0
 40
12.0
 40
12.0
 40
13.0
 40
13.0
 40
13.0
 40
14.0
 40
14.0
 40
14.0
 40
15.0
 40
15.0
 40
15.0
 40
16.0
 40
16.0
 40
16.0
 40
17.0
 40
17.0
 40
17.0
 40
18.0
 40
18.0
 40
18.0
 40
19.0
 40
19.0
 40
19.0
 40
20.0
 40
20.0
 40
20.0
 40
21.0
 40
21.0
 40
21.0
 40
22.0
 40
22.0
 40
22.0
 40
23.0
 40
23.0
 40
23.0
 40
24.0
 40
24.0
 40
24.0
 40
25.0
 40
25.0
 40
25.0
 40
26.0
 40
26.0
 40
26.0
 40
27.0
 40
27.0
 40
27.0
 40
28.0
 40
28.0
 40
28.0
 40
28.0
 10
130.8802450076361
 20
-112.9555154487672
 30
0.0
 10
130.880245014204
 20
-112.5944588314342
 30
0.0
 10
130.8674549551299
 20
-112.2355904274006
 30
0.0
 10
130.8425039497608
 20
-111.8788108467161
 30
0.0
 10
130.8175529443942
 20
-111.5220312660342
 30
0.0
 10
130.7804381470463
 20
-111.1673381555689
 30
0.0
 10
130.731288443662
 20
-110.8147094072876
 30
0.0
 10
130.6329890368999
 20
-110.1094519107264
 30
0.0
 10
130.4869619302899
 20
-109.4123812052099
 30
0.0
 10
130.2884991947387
 20
-108.7243048481108
 30
0.0
 10
130.2388835108517
 20
-108.5522857588343
 30
0.0
 10
130.1859990340111
 20
-108.3808273694939
 30
0.0
 10
130.1297853079721
 20
-108.2099400504954
 30
0.0
 10
130.1016784449513
 20
-108.1244963909962
 30
0.0
 10
130.0727388333655
 20
-108.0391955738462
 30
0.0
 10
130.0429560735807
 20
-107.9540393829541
 30
0.0
 10
130.0131733137939
 20
-107.8688831920639
 30
0.0
 10
129.9825259221569
 20
-107.7838189394855
 30
0.0
 10
129.9511674207922
 20
-107.6992806324838
 30
0.0
 10
129.8257334153456
 20
-107.3611274044791
 30
0.0
 10
129.6884846344245
 20
-107.0299582577111
 30
0.0
 10
129.5394189542343
 20
-106.7057744477714
 30
0.0
 10
129.2412875938628
 20
-106.0574068278872
 30
0.0
 10
128.895853336693
 20
-105.4370014217292
 30
0.0
 10
128.4990320298114
 20
-104.8469724992482
 30
0.0
 10
128.3006213763689
 20
-104.5519580380101
 30
0.0
 10
128.0894010247696
 20
-104.2645157877511
 30
0.0
 10
127.8644424968826
 20
-103.9851946009106
 30
0.0
 10
127.7519632329423
 20
-103.8455340074891
 30
0.0
 10
127.6360415360634
 20
-103.7079083432905
 30
0.0
 10
127.5164985454175
 20
-103.5724233384553
 30
0.0
 10
127.4567270500945
 20
-103.5046808360377
 30
0.0
 10
127.3959638165218
 20
-103.4373834240408
 30
0.0
 10
127.3345629105531
 20
-103.3709543543746
 30
0.0
 10
127.2731620045858
 20
-103.3045252847103
 30
0.0
 10
127.2110965892367
 20
-103.2389292739213
 30
0.0
 10
127.1483614646017
 20
-103.1741728406518
 30
0.0
 10
126.8974209660541
 20
-102.9151471075711
 30
0.0
 10
126.6357688107291
 20
-102.669549986803
 30
0.0
 10
126.3631786694722
 20
-102.4376652148213
 30
0.0
 10
126.0905885282115
 20
-102.2057804428413
 30
0.0
 10
125.8070408226451
 20
-101.9876325641569
 30
0.0
 10
125.5119106127385
 20
-101.7840050313211
 30
0.0
 10
125.3643455077872
 20
-101.6821912649024
 30
0.0
 10
125.2138795622167
 20
-101.5840141221918
 30
0.0
 10
125.0603925886367
 20
-101.4896242754111
 30
0.0
 10
124.9836491018455
 20
-101.4424293520171
 30
0.0
 10
124.9061498321042
 20
-101.3961819119153
 30
0.0
 10
124.8278760497657
 20
-101.3509054355298
 30
0.0
 10
124.7496022674323
 20
-101.3056289591443
 30
0.0
 10
124.6704328220692
 20
-101.2612585386628
 30
0.0
 10
124.5907847234642
 20
-101.2180419625842
 30
0.0
 10
124.272192329043
 20
-101.0451756582653
 30
0.0
 10
123.9473324094223
 20
-100.8914925532353
 30
0.0
 10
123.61617468198
 20
-100.7570853341605
 30
0.0
 10
123.2850169545351
 20
-100.622678115085
 30
0.0
 10
122.9475625837189
 20
-100.5075432184711
 30
0.0
 10
122.6036980023327
 20
-100.4120282423469
 30
0.0
 10
122.2598334209427
 20
-100.3165132662225
 30
0.0
 10
121.9095753969163
 20
-100.2405668884192
 30
0.0
 10
121.5524660625373
 20
-100.1855905184523
 30
0.0
 10
121.3739113953523
 20
-100.1581023334698
 30
0.0
 10
121.1932025642909
 20
-100.1358408316543
 30
0.0
 10
121.0127756070982
 20
-100.1191345154463
 30
0.0
 10
120.8323486499004
 20
-100.1024281992417
 30
0.0
 10
120.6518247260485
 20
-100.0912154198046
 30
0.0
 10
120.4712024494237
 20
-100.0855747117535
 30
0.0
 10
120.2905801728001
 20
-100.0799340037005
 30
0.0
 10
120.1098694360344
 20
-100.0793049077666
 30
0.0
 10
119.9291666218365
 20
-100.0782269669238
 30
0.0
 10
119.7484638076418
 20
-100.0771490260815
 30
0.0
 10
119.5677717972577
 20
-100.0754590080611
 30
0.0
 10
119.3870755099469
 20
-100.0740112942584
 30
0.0
 10
118.6642903606954
 20
-100.0682204390549
 30
0.0
 10
117.9415079274993
 20
-100.0622757059464
 30
0.0
 10
117.218728179016
 20
-100.0561788782341
 30
0.0
 10
115.7731686820481
 20
-100.0439852228089
 30
0.0
 10
114.3276211045199
 20
-100.0310823413167
 30
0.0
 10
112.8820706526947
 20
-100.0183509766581
 30
0.0
 10
111.4365202008758
 20
-100.0056196119959
 30
0.0
 10
109.9909678219719
 20
-99.99302539995582
 30
0.0
 10
108.5453995039241
 20
-99.98339233299704
 30
0.0
 10
107.0998311858763
 20
-99.97375926603794
 30
0.0
 10
105.6542449774249
 20
-99.96737431703298
 30
0.0
 10
104.2086232371389
 20
-99.96737431429551
 30
0.0
  0
SPLINE
  5
82
330
70
100
AcDbEntity
  8
Capa 1
 62
    18
420
        0
370
     9
100
AcDbSpline
210
0.0
220
0.0
230
1.0
 70
     8
 71
     3
 72
    29
 73
    25
 74
     0
 42
0.0000000001
 43
0.0000000001
 40
0.0
 40
0.0
 40
0.0
 40
0.0
 40
1.0
 40
1.0
 40
1.0
 40
2.0
 40
2.0
 40
2.0
 40
3.0
 40
3.0
 40
3.0
 40
4.0
 40
4.0
 40
4.0
 40
5.0
 40
5.0
 40
5.0
 40
6.0
 40
6.0
 40
6.0
 40
7.0
 40
7.0
 40
7.0
 40
8.0
 40
8.0
 40
8.0
 40
8.0
 10
68.00875237199014
 20
-91.42477418855749
 30
0.0
 10
67.96598449361201
 20
-91.42441003436761
 30
0.0
 10
67.92163863885239
 20
-91.42107963552023
 30
0.0
 10
67.87673724415483
 20
-91.41424772340688
 30
0.0
 10
67.83183584945729
 20
-91.40741581129383
 30
0.0
 10
67.78638789579132
 20
-91.39707145650929
 30
0.0
 10
67.74174644401546
 20
-91.38298602355252
 30
0.0
 10
67.69710499223767
 20
-91.36890059059542
 30
0.0
 10
67.6532876270752
 20
-91.35106795975785
 30
0.0
 10
67.61177628290294
 20
-91.32969913911832
 30
0.0
 10
67.57026493872875
 20
-91.30833031847684
 30
0.0
 10
67.53108047878544
 20
-91.28342827868381
 30
0.0
 10
67.49553783145831
 20
-91.25566990624793
 30
0.0
 10
67.4599951841331
 20
-91.22791153381204
 30
0.0
 10
67.42810987024784
 20
-91.19730895030686
 30
0.0
 10
67.40074859546112
 20
-91.16488909870607
 30
0.0
 10
67.37338732067472
 20
-91.13246924710145
 30
0.0
 10
67.3505538886993
 20
-91.09824842133724
 30
0.0
 10
67.33251848056326
 20
-91.06338399401627
 30
0.0
 10
67.31448307242691
 20
-91.02851956669496
 30
0.0
 10
67.30123785227717
 20
-90.99302527127175
 30
0.0
 10
67.29249006839904
 20
-90.95795783171119
 30
0.0
 10
67.28374228452317
 20
-90.92289039215225
 30
0.0
 10
67.27947794258264
 20
-90.88825682248026
 30
0.0
 10
67.27901166870442
 20
-90.85485563304521
 30
0.0
  0
SPLINE
  5
83
330
70
100
AcDbEntity
  8
Capa 1
 62
    18
420
        0
370
     9
100
AcDbSpline
210
0.0
220
0.0
230
1.0
 70
     8
 71
     3
 72
    29
 73
    25
 74
     0
 42
0.0000000001
 43
0.0000000001
 40
0.0
 40
0.0
 40
0.0
 40
0.0
 40
1.0
 40
1.0
 40
1.0
 40
2.0
 40
2.0
 40
2.0
 40
3.0
 40
3.0
 40
3.0
 40
4.0
 40
4.0
 40
4.0
 40
5.0
 40
5.0
 40
5.0
 40
6.0
 40
6.0
 40
6.0
 40
7.0
 40
7.0
 40
7.0
 40
8.0
 40
8.0
 40
8.0
 40
8.0
 10
141.138234803923
 20
-90.85485563274394
 30
0.0
 10
141.1377685300483
 20
-90.88825682218796
 30
0.0
 10
141.1335041881075
 20
-90.92289039186958
 30
0.0
 10
141.12475640423
 20
-90.95795783144136
 30
0.0
 10
141.1160086203512
 20
-90.99302527101507
 30
0.0
 10
141.1027634002022
 20
-91.0285195664492
 30
0.0
 10
141.0847279920693
 20
-91.0633839937814
 30
0.0
 10
141.0666925839313
 20
-91.09824842111553
 30
0.0
 10
141.0438591519566
 20
-91.13246924688871
 30
0.0
 10
141.0164978771702
 20
-91.16488909850266
 30
0.0
 10
140.9891366023832
 20
-91.19730895011466
 30
0.0
 10
140.9572512884992
 20
-91.22791153363074
 30
0.0
 10
140.921708641173
 20
-91.25566990607786
 30
0.0
 10
140.8861659938455
 20
-91.28342827852083
 30
0.0
 10
140.8469815339
 20
-91.30833031832349
 30
0.0
 10
140.8054701897255
 20
-91.3296991389704
 30
0.0
 10
140.7639588455555
 20
-91.35106795961926
 30
0.0
 10
140.7201414803927
 20
-91.36890059046065
 30
0.0
 10
140.6755000286162
 20
-91.38298602342128
 30
0.0
 10
140.6308585768397
 20
-91.39707145638384
 30
0.0
 10
140.5854106231734
 20
-91.40741581117191
 30
0.0
 10
140.5405092284758
 20
-91.41424772328688
 30
0.0
 10
140.4956078337783
 20
-91.42107963540217
 30
0.0
 10
140.451261979017
 20
-91.42441003424922
 30
0.0
 10
140.4084941006405
 20
-91.4247741884391
 30
0.0
  0
LINE
  5
84
330
70
100
AcDbEntity
  8
Capa 1
 62
    18
420
        0
370
     9
100
AcDbLine
 10
140.4084940722197
 20
-91.42477418852797
 30
0.0
 11
68.00875240041581
 21
-91.42477418852797
 31
0.0
  0
SPLINE
  5
85
330
70
100
AcDbEntity
  8
Capa 1
 62
    18
420
        0
370
     9
100
AcDbSpline
210
0.0
220
0.0
230
1.0
 70
     8
 71
     3
 72
    68
 73
    64
 74
     0
 42
0.0000000001
 43
0.0000000001
 40
0.0
 40
0.0
 40
0.0
 40
0.0
 40
1.0
 40
1.0
 40
1.0
 40
2.0
 40
2.0
 40
2.0
 40
3.0
 40
3.0
 40
3.0
 40
4.0
 40
4.0
 40
4.0
 40
5.0
 40
5.0
 40
5.0
 40
6.0
 40
6.0
 40
6.0
 40
7.0
 40
7.0
 40
7.0
 40
8.0
 40
8.0
 40
8.0
 40
9.0
 40
9.0
 40
9.0
 40
10.0
 40
10.0
 40
10.0
 40
11.0
 40
11.0
 40
11.0
 40
12.0
 40
12.0
 40
12.0
 40
13.0
 40
13.0
 40
13.0
 40
14.0
 40
14.0
 40
14.0
 40
15.0
 40
15.0
 40
15.0
 40
16.0
 40
16.0
 40
16.0
 40
17.0
 40
17.0
 40
17.0
 40
18.0
 40
18.0
 40
18.0
 40
19.0
 40
19.0
 40
19.0
 40
20.0
 40
20.0
 40
20.0
 40
21.0
 40
21.0
 40
21.0
 40
21.0
 10
67.25987265759425
 20
-90.37568173521062
 30
0.0
 10
67.25996413975098
 20
-90.37030367080863
 30
0.0
 10
67.26005562190548
 20
-90.36492560640885
 30
0.0
 10
67.26034801904261
 20
-90.35955688929091
 30
0.0
 10
67.26063823459838
 20
-90.35422822829882
 30
0.0
 10
67.26112637825751
 20
-90.34890877562666
 30
0.0
 10
67.26175834545583
 20
-90.3436076314527
 30
0.0
 10
67.26238556288416
 20
-90.33834632989371
 30
0.0
 10
67.2631544500633
 20
-90.3331030626567
 30
0.0
 10
67.26407783033336
 20
-90.3278866686618
 30
0.0
 10
67.26499421925935
 20
-90.32270977044289
 30
0.0
 10
67.26606277065167
 20
-90.31755934006278
 30
0.0
 10
67.26727797590235
 20
-90.31244392929377
 30
0.0
 10
67.26848391169042
 20
-90.30736753835224
 30
0.0
 10
67.26983427254926
 20
-90.30232563480753
 30
0.0
 10
67.27132784504681
 20
-90.29732646404662
 30
0.0
 10
67.27280993921858
 20
-90.29236571265265
 30
0.0
 10
67.2744330522812
 20
-90.28744703975075
 30
0.0
 10
67.27619431210562
 20
-90.28257836675427
 30
0.0
 10
67.27794193407394
 20
-90.27774739306172
 30
0.0
 10
67.27982557167918
 20
-90.27296564795042
 30
0.0
 10
67.28184231115822
 20
-90.26824071432502
 30
0.0
 10
67.28384331564611
 20
-90.26355264554515
 30
0.0
 10
67.285975353138
 20
-90.25892050520205
 30
0.0
 10
67.28823508058626
 20
-90.25435152500326
 30
0.0
 10
67.29047704200178
 20
-90.24981846623884
 30
0.0
 10
67.29284469346374
 20
-90.24534757839152
 30
0.0
 10
67.29533440280866
 20
-90.24094573401759
 30
0.0
 10
67.29780438679836
 20
-90.23657876437356
 30
0.0
 10
67.3003945022632
 20
-90.23227974850746
 30
0.0
 10
67.3031008381281
 20
-90.22805518574065
 30
0.0
 10
67.30578556552093
 20
-90.22386435357679
 30
0.0
 10
67.30858466482306
 20
-90.21974679032755
 30
0.0
 10
67.31149395182175
 20
-90.21570864135435
 30
0.0
 10
67.31437982782603
 20
-90.2117029873121
 30
0.0
 10
67.31737412530612
 20
-90.20777547459337
 30
0.0
 10
67.32047253362367
 20
-90.20393180104033
 30
0.0
 10
67.32354581220504
 20
-90.20011930172072
 30
0.0
 10
67.32672151968706
 20
-90.1963892871195
 30
0.0
 10
67.32999480890879
 20
-90.192747339657
 30
0.0
 10
67.33324133881244
 20
-90.18913516531627
 30
0.0
 10
67.33658386150437
 20
-90.18560962409051
 30
0.0
 10
67.34001864095886
 20
-90.18217495491553
 30
0.0
 10
67.34691404552743
 20
-90.17527977173537
 30
0.0
 10
67.35418125917338
 20
-90.1687508170414
 30
0.0
 10
67.36177548711703
 20
-90.16262884752292
 30
0.0
 10
67.36949432719232
 20
-90.15640642385971
 30
0.0
 10
67.37755100143245
 20
-90.15060445122449
 30
0.0
 10
67.38589887184334
 20
-90.1452571519882
 30
0.0
 10
67.3943815616018
 20
-90.13982349307005
 30
0.0
 10
67.40316492920285
 20
-90.13485931222849
 30
0.0
 10
67.41219521111877
 20
-90.13039139442261
 30
0.0
 10
67.42136906807208
 20
-90.12585243991384
 30
0.0
 10
67.43079775327815
 20
-90.12182565434423
 30
0.0
 10
67.44042205286433
 20
-90.11835062593073
 30
0.0
 10
67.45019702924946
 20
-90.11482119291995
 30
0.0
 10
67.4601737929875
 20
-90.11186092877911
 30
0.0
 10
67.47028761537977
 20
-90.1094342897201
 30
0.0
 10
67.48055738873549
 20
-90.10697023289267
 30
0.0
 10
67.49096848010687
 20
-90.10505638457761
 30
0.0
 10
67.50145131749251
 20
-90.10391465926618
 30
0.0
 10
67.51209339056614
 20
-90.10275559099515
 30
0.0
 10
67.52280940587411
 20
-90.10239228118976
 30
0.0
 10
67.53352542118015
 20
-90.10202897138277
 30
0.0
  0
SPLINE
  5
86
330
70
100
AcDbEntity
  8
Capa 1
 62
    18
420
        0
370
     9
100
AcDbSpline
210
0.0
220
0.0
230
1.0
 70
     8
 71
     3
 72
    68
 73
    64
 74
     0
 42
0.0000000001
 43
0.0000000001
 40
0.0
 40
0.0
 40
0.0
 40
0.0
 40
1.0
 40
1.0
 40
1.0
 40
2.0
 40
2.0
 40
2.0
 40
3.0
 40
3.0
 40
3.0
 40
4.0
 40
4.0
 40
4.0
 40
5.0
 40
5.0
 40
5.0
 40
6.0
 40
6.0
 40
6.0
 40
7.0
 40
7.0
 40
7.0
 40
8.0
 40
8.0
 40
8.0
 40
9.0
 40
9.0
 40
9.0
 40
10.0
 40
10.0
 40
10.0
 40
11.0
 40
11.0
 40
11.0
 40
12.0
 40
12.0
 40
12.0
 40
13.0
 40
13.0
 40
13.0
 40
14.0
 40
14.0
 40
14.0
 40
15.0
 40
15.0
 40
15.0
 40
16.0
 40
16.0
 40
16.0
 40
17.0
 40
17.0
 40
17.0
 40
18.0
 40
18.0
 40
18.0
 40
19.0
 40
19.0
 40
19.0
 40
20.0
 40
20.0
 40
20.0
 40
21.0
 40
21.0
 40
21.0
 40
21.0
 10
140.8837210512269
 20
-90.10202897138823
 30
0.0
 10
140.8890991156289
 20
-90.10212045354466
 30
0.0
 10
140.894477180029
 20
-90.10221193569915
 30
0.0
 10
140.8998458971482
 20
-90.1025043328382
 30
0.0
 10
140.9051745581429
 20
-90.10279454839206
 30
0.0
 10
140.910494010814
 20
-90.10328269205151
 30
0.0
 10
140.9157951549902
 20
-90.10391465925144
 30
0.0
 10
140.9210564565493
 20
-90.10454187668008
 30
0.0
 10
140.9262997237882
 20
-90.10531076385889
 30
0.0
 10
140.9315161177885
 20
-90.10623414413281
 30
0.0
 10
140.9366930160087
 20
-90.1071505330572
 30
0.0
 10
140.9418434463933
 20
-90.10821908445112
 30
0.0
 10
140.9469588571643
 20
-90.10943428970181
 30
0.0
 10
140.952035248109
 20
-90.11064022549502
 30
0.0
 10
140.9570771516588
 20
-90.11199058635416
 30
0.0
 10
140.962076322422
 20
-90.11348415885363
 30
0.0
 10
140.967037073823
 20
-90.11496625302893
 30
0.0
 10
140.9719557467291
 20
-90.11658936609348
 30
0.0
 10
140.9768244197294
 20
-90.11835062592174
 30
0.0
 10
140.9816553934258
 20
-90.12009824789359
 30
0.0
 10
140.9864371385426
 20
-90.12198188550078
 30
0.0
 10
140.9911620721696
 20
-90.12399862498364
 30
0.0
 10
140.9958501409568
 20
-90.125999629477
 30
0.0
 10
141.0004822813054
 20
-90.12813166697242
 30
0.0
 10
141.0050512615122
 20
-90.13039139442422
 30
0.0
 10
141.0095843202821
 20
-90.1326333558455
 30
0.0
 10
141.0140552081342
 20
-90.135001007311
 30
0.0
 10
141.0184570525181
 20
-90.1374907166633
 30
0.0
 10
141.022824022166
 20
-90.13996070065877
 30
0.0
 10
141.0271230380391
 20
-90.14255081612907
 30
0.0
 10
141.0313476008114
 20
-90.14525715200296
 30
0.0
 10
141.0355384329804
 20
-90.14794187940124
 30
0.0
 10
141.0396559962354
 20
-90.1507409787149
 30
0.0
 10
141.043694145216
 20
-90.15365026572096
 30
0.0
 10
141.0476997992643
 20
-90.15653614173617
 30
0.0
 10
141.0516273119895
 20
-90.15953043922396
 30
0.0
 10
141.0554709855486
 20
-90.16262884755082
 30
0.0
 10
141.0592834848756
 20
-90.16570212614501
 30
0.0
 10
141.0630134994842
 20
-90.16887783363603
 30
0.0
 10
141.0666554469508
 20
-90.17215112286898
 30
0.0
 10
141.070267621298
 20
-90.17539765278355
 30
0.0
 10
141.0737931625279
 20
-90.17874017548862
 30
0.0
 10
141.077227831709
 20
-90.18217495495242
 30
0.0
 10
141.0841230148683
 20
-90.18907035951169
 30
0.0
 10
141.0906519695379
 20
-90.19633757314803
 30
0.0
 10
141.0967739390387
 20
-90.20393180107948
 30
0.0
 10
141.1029963626843
 20
-90.21165064114674
 30
0.0
 10
141.1087983353057
 20
-90.21970731538143
 30
0.0
 10
141.1141456345324
 20
-90.228055185783
 30
0.0
 10
141.1195792934374
 20
-90.236537875536
 30
0.0
 10
141.12454347427
 20
-90.24532124313674
 30
0.0
 10
141.1290113920662
 20
-90.25435152504945
 30
0.0
 10
141.133550346568
 20
-90.26352538200244
 30
0.0
 10
141.1375771321321
 20
-90.27295406721234
 30
0.0
 10
141.1410521605417
 20
-90.28257836679854
 30
0.0
 10
141.1445815935525
 20
-90.29235334319299
 30
0.0
 10
141.1475418576895
 20
-90.30233010694001
 30
0.0
 10
141.1499684967408
 20
-90.31244392934189
 30
0.0
 10
141.1524325535692
 20
-90.32271370271397
 30
0.0
 10
141.1543464018785
 20
-90.33312479410044
 30
0.0
 10
141.1554881271822
 20
-90.34360763150051
 30
0.0
 10
141.1566471954459
 20
-90.35424970460013
 30
0.0
 10
141.1570105052426
 20
-90.36496571992833
 30
0.0
 10
141.1573738150361
 20
-90.37568173525842
 30
0.0
  0
LINE
  5
87
330
70
100
AcDbEntity
  8
Capa 1
 62
    18
420
        0
370
     9
100
AcDbLine
 10
141.1460043179236
 20
-131.3274009212161
 30
0.0
 11
141.1573738149886
 21
-131.3387703967175
 31
0.0
  0
LINE
  5
88
330
70
100
AcDbEntity
  8
Capa 1
 62
    18
420
        0
370
     9
100
AcDbLine
 10
141.1573738149886
 20
-131.3387703967175
 30
0.0
 11
141.1573738149886
 21
-90.37568174530486
 31
0.0
  0
LINE
  5
89
330
70
100
AcDbEntity
  8
Capa 1
 62
    18
420
        0
370
     9
100
AcDbLine
 10
67.25987265764814
 20
-90.37568174530486
 30
0.0
 11
67.25987265764814
 21
-131.3387703967175
 31
0.0
  0
LINE
  5
8A
330
70
100
AcDbEntity
  8
Capa 1
 62
    18
420
        0
370
     9
100
AcDbLine
 10
67.25987265764814
 20
-131.3387703967175
 30
0.0
 11
67.27124215471127
 21
-131.3274009212161
 31
0.0
  0
LINE
  5
8B
330
70
100
AcDbEntity
  8
Capa 1
 62
    18
420
        0
370
     9
100
AcDbLine
 10
140.8837210331034
 20
-90.10202897143635
 30
0.0
 11
67.53352543953372
 21
-90.10202897143635
 31
0.0
  0
SPLINE
  5
8C
330
70
100
AcDbEntity
  8
Capa 1
 62
    18
420
        0
370
     9
100
AcDbSpline
210
0.0
220
0.0
230
1.0
 70
     8
 71
     3
 72
    11
 73
     7
 74
     0
 42
0.0000000001
 43
0.0000000001
 40
0.0
 40
0.0
 40
0.0
 40
0.0
 40
1.0
 40
1.0
 40
1.0
 40
2.0
 40
2.0
 40
2.0
 40
2.0
 10
140.4084941006444
 20
-91.42477418856135
 30
0.0
 10
140.4109083362051
 20
-91.46733156259825
 30
0.0
 10
140.4128811304446
 20
-91.52197090707558
 30
0.0
 10
140.4142204071554
 20
-91.58337103444447
 30
0.0
 10
140.4155596838636
 20
-91.6447711618111
 30
0.0
 10
140.416263614582
 20
-91.71284825962334
 30
0.0
 10
140.416263614582
 20
-91.78097328576004
 30
0.0
  0
SPLINE
  5
8D
330
70
100
AcDbEntity
  8
Capa 1
 62
    18
420
        0
370
     9
100
AcDbSpline
210
0.0
220
0.0
230
1.0
 70
     8
 71
     3
 72
    11
 73
     7
 74
     0
 42
0.0000000001
 43
0.0000000001
 40
0.0
 40
0.0
 40
0.0
 40
0.0
 40
1.0
 40
1.0
 40
1.0
 40
2.0
 40
2.0
 40
2.0
 40
2.0
 10
68.00098285805443
 20
-91.78097328576004
 30
0.0
 10
68.00098285805443
 20
-91.71284825962334
 30
0.0
 10
68.00168678877216
 20
-91.6447711618111
 30
0.0
 10
68.00302606548133
 20
-91.58337103444447
 30
0.0
 10
68.0043653421902
 20
-91.52197090707558
 30
0.0
 10
68.0063381364294
 20
-91.46733156259825
 30
0.0
 10
68.00875237199014
 20
-91.42477418856135
 30
0.0
  0
SPLINE
  5
8E
330
70
100
AcDbEntity
  8
Capa 1
 62
    18
420
        0
370
     9
100
AcDbSpline
210
0.0
220
0.0
230
1.0
 70
     8
 71
     3
 72
   110
 73
   106
 74
     0
 42
0.0000000001
 43
0.0000000001
 40
0.0
 40
0.0
 40
0.0
 40
0.0
 40
1.0
 40
1.0
 40
1.0
 40
2.0
 40
2.0
 40
2.0
 40
3.0
 40
3.0
 40
3.0
 40
4.0
 40
4.0
 40
4.0
 40
5.0
 40
5.0
 40
5.0
 40
6.0
 40
6.0
 40
6.0
 40
7.0
 40
7.0
 40
7.0
 40
8.0
 40
8.0
 40
8.0
 40
9.0
 40
9.0
 40
9.0
 40
10.0
 40
10.0
 40
10.0
 40
11.0
 40
11.0
 40
11.0
 40
12.0
 40
12.0
 40
12.0
 40
13.0
 40
13.0
 40
13.0
 40
14.0
 40
14.0
 40
14.0
 40
15.0
 40
15.0
 40
15.0
 40
16.0
 40
16.0
 40
16.0
 40
17.0
 40
17.0
 40
17.0
 40
18.0
 40
18.0
 40
18.0
 40
19.0
 40
19.0
 40
19.0
 40
20.0
 40
20.0
 40
20.0
 40
21.0
 40
21.0
 40
21.0
 40
22.0
 40
22.0
 40
22.0
 40
23.0
 40
23.0
 40
23.0
 40
24.0
 40
24.0
 40
24.0
 40
25.0
 40
25.0
 40
25.0
 40
26.0
 40
26.0
 40
26.0
 40
27.0
 40
27.0
 40
27.0
 40
28.0
 40
28.0
 40
28.0
 40
29.0
 40
29.0
 40
29.0
 40
30.0
 40
30.0
 40
30.0
 40
31.0
 40
31.0
 40
31.0
 40
32.0
 40
32.0
 40
32.0
 40
33.0
 40
33.0
 40
33.0
 40
34.0
 40
34.0
 40
34.0
 40
35.0
 40
35.0
 40
35.0
 40
35.0
 10
104.2086232363188
 20
-125.4881561646419
 30
0.0
 10
102.7642922093127
 20
-125.4881561551531
 30
0.0
 10
101.3197966098315
 20
-125.4820264271348
 30
0.0
 10
99.87487542625311
 20
-125.4731786900858
 30
0.0
 10
98.42995424267114
 20
-125.4643309530394
 30
0.0
 10
96.98464572447086
 20
-125.4531096127428
 30
0.0
 10
95.53914018180368
 20
-125.4425565093057
 30
0.0
 10
94.09363463913585
 20
-125.4320034058672
 30
0.0
 10
92.64795182151599
 20
-125.4220509489813
 30
0.0
 10
91.20224112433067
 20
-125.4135099126575
 30
0.0
 10
90.47938577573994
 20
-125.4092393944923
 30
0.0
 10
89.75652170423032
 20
-125.4052946540096
 30
0.0
 10
89.03365894567416
 20
-125.4016662865521
 30
0.0
 10
88.94330110085567
 20
-125.4012127406193
 30
0.0
 10
88.85294327655039
 20
-125.4007641380164
 30
0.0
 10
88.76258547684754
 20
-125.4003203551168
 30
0.0
 10
88.71740657699595
 20
-125.4000984636661
 30
0.0
 10
88.67222768329664
 20
-125.3998777771419
 30
0.0
 10
88.62704879839599
 20
-125.3996582948469
 30
0.0
 10
88.60445935594599
 20
-125.3995485537013
 30
0.0
 10
88.58186820379861
 20
-125.3994315548356
 30
0.0
 10
88.55901015436982
 20
-125.3993403335696
 30
0.0
 10
88.53615210493876
 20
-125.3992491123037
 30
0.0
 10
88.51337119548716
 20
-125.3991786428268
 30
0.0
 10
88.49066691332705
 20
-125.3991163923916
 30
0.0
 10
88.30903265605371
 20
-125.3986183889218
 30
0.0
 10
88.1324385906616
 20
-125.3984560563638
 30
0.0
 10
87.95953748331562
 20
-125.3933792925637
 30
0.0
 10
87.91631220648049
 20
-125.3921101016117
 30
0.0
 10
87.87331114436174
 20
-125.3905459260685
 30
0.0
 10
87.83050367180177
 20
-125.3886294435789
 30
0.0
 10
87.80909993552306
 20
-125.3876712023348
 30
0.0
 10
87.78774457099634
 20
-125.3866250377829
 30
0.0
 10
87.76643365271404
 20
-125.3854846752644
 30
0.0
 10
87.74512273443397
 20
-125.3843443127466
 30
0.0
 10
87.72359984901738
 20
-125.383104090205
 30
0.0
 10
87.70210376312036
 20
-125.3817875212949
 30
0.0
 10
87.61611941953992
 20
-125.3765212456578
 30
0.0
 10
87.53017761099281
 20
-125.3699482838924
 30
0.0
 10
87.44427146574414
 20
-125.362052879147
 30
0.0
 10
87.27245917525063
 20
-125.3462620696562
 30
0.0
 10
87.10042894232291
 20
-125.3250994526941
 30
0.0
 10
86.93044785179607
 20
-125.2988851641059
 30
0.0
 10
86.59048567074432
 20
-125.2464565869347
 30
0.0
 10
86.25703037823994
 20
-125.1737693398211
 30
0.0
 10
85.92933595448769
 20
-125.0821547640185
 30
0.0
 10
85.60164153073769
 20
-124.9905401882126
 30
0.0
 10
85.28021755787143
 20
-124.8800572113742
 30
0.0
 10
84.96461309381498
 20
-124.751006131231
 30
0.0
 10
84.6490086297601
 20
-124.6219550510904
 30
0.0
 10
84.33928327956385
 20
-124.4743457063041
 30
0.0
 10
84.03524596930735
 20
-124.3081998476117
 30
0.0
 10
83.95923664174144
 20
-124.2666633829379
 30
0.0
 10
83.88366548956309
 20
-124.224011036591
 30
0.0
 10
83.80896201062151
 20
-124.1804964301467
 30
0.0
 10
83.7342585316793
 20
-124.1369818237025
 30
0.0
 10
83.66027816259359
 20
-124.0925284520773
 30
0.0
 10
83.58700468763762
 20
-124.0471592525741
 30
0.0
 10
83.44045773772732
 20
-123.9564208535691
 30
0.0
 10
83.29673672636401
 20
-123.862021886831
 30
0.0
 10
83.15573438887943
 20
-123.7641074888307
 30
0.0
 10
82.87372971390871
 20
-123.5682786928333
 30
0.0
 10
82.6025818569545
 20
-123.3584160124011
 30
0.0
 10
82.34170328836244
 20
-123.1352382554593
 30
0.0
 10
82.08082471977071
 20
-122.9120604985207
 30
0.0
 10
81.83020368121766
 20
-122.6755976746191
 30
0.0
 10
81.58965932197608
 20
-122.4260963820936
 30
0.0
 10
81.52952323216785
 20
-122.3637210589622
 30
0.0
 10
81.47000822868539
 20
-122.3005222475283
 30
0.0
 10
81.41111224309975
 20
-122.2365073412294
 30
0.0
 10
81.35221625751444
 20
-122.1724924349279
 30
0.0
 10
81.29391347656735
 20
-122.1076273814668
 30
0.0
 10
81.23654634843997
 20
-122.0423212665985
 30
0.0
 10
81.12181209218904
 20
-121.9117090368613
 30
0.0
 10
81.01048936751972
 20
-121.778985610911
 30
0.0
 10
80.90242421612597
 20
-121.644260594779
 30
0.0
 10
80.68629391334006
 20
-121.3748105625215
 30
0.0
 10
80.48316666088169
 20
-121.0973741848631
 30
0.0
 10
80.29223601167627
 20
-120.8125118521031
 30
0.0
 10
79.91037471326476
 20
-120.2427871865838
 30
0.0
 10
79.57751671569673
 20
-119.643439072539
 30
0.0
 10
79.28963879977175
 20
-119.0158980294404
 30
0.0
 10
79.14569984180829
 20
-118.7021275078914
 30
0.0
 10
79.013054832328
 20
-118.3814075652242
 30
0.0
 10
78.89178324763706
 20
-118.0538402302064
 30
0.0
 10
78.86146535146392
 20
-117.9719483964508
 30
0.0
 10
78.83183166480446
 20
-117.8895418342435
 30
0.0
 10
78.80303154071042
 20
-117.8070423951835
 30
0.0
 10
78.77423141661449
 20
-117.7245429561228
 30
0.0
 10
78.74624408973868
 20
-117.6418996121729
 30
0.0
 10
78.7190602934811
 20
-117.5591154320212
 30
0.0
 10
78.66469270096948
 20
-117.3935470717178
 30
0.0
 10
78.61353766112507
 20
-117.2274157569981
 30
0.0
 10
78.56554143233928
 20
-117.060740941393
 30
0.0
 10
78.46954897476706
 20
-116.7273913101817
 30
0.0
 10
78.38629184902593
 20
-116.3918824177994
 30
0.0
 10
78.31501943763206
 20
-116.0539434563587
 30
0.0
 10
78.24374702623881
 20
-115.7160044949173
 30
0.0
 10
78.18443684674075
 20
-115.3757842747366
 30
0.0
 10
78.13678156577447
 20
-115.0334852947687
 30
0.0
 10
78.08912628480658
 20
-114.6911863148002
 30
0.0
 10
78.05312816646178
 20
-114.3468073171412
 30
0.0
 10
78.02893139014853
 20
-114.0004568126572
 30
0.0
 10
78.00473461383464
 20
-113.6541063081744
 30
0.0
 10
77.99233639799265
 20
-113.3057815101973
 30
0.0
 10
77.99233640812025
 20
-112.9555154404681
 30
0.0
  0
SPLINE
  5
8F
330
70
100
AcDbEntity
  8
Capa 1
 62
    18
420
        0
370
     9
100
AcDbSpline
210
0.0
220
0.0
230
1.0
 70
     8
 71
     3
 72
   110
 73
   106
 74
     0
 42
0.0000000001
 43
0.0000000001
 40
0.0
 40
0.0
 40
0.0
 40
0.0
 40
1.0
 40
1.0
 40
1.0
 40
2.0
 40
2.0
 40
2.0
 40
3.0
 40
3.0
 40
3.0
 40
4.0
 40
4.0
 40
4.0
 40
5.0
 40
5.0
 40
5.0
 40
6.0
 40
6.0
 40
6.0
 40
7.0
 40
7.0
 40
7.0
 40
8.0
 40
8.0
 40
8.0
 40
9.0
 40
9.0
 40
9.0
 40
10.0
 40
10.0
 40
10.0
 40
11.0
 40
11.0
 40
11.0
 40
12.0
 40
12.0
 40
12.0
 40
13.0
 40
13.0
 40
13.0
 40
14.0
 40
14.0
 40
14.0
 40
15.0
 40
15.0
 40
15.0
 40
16.0
 40
16.0
 40
16.0
 40
17.0
 40
17.0
 40
17.0
 40
18.0
 40
18.0
 40
18.0
 40
19.0
 40
19.0
 40
19.0
 40
20.0
 40
20.0
 40
20.0
 40
21.0
 40
21.0
 40
21.0
 40
22.0
 40
22.0
 40
22.0
 40
23.0
 40
23.0
 40
23.0
 40
24.0
 40
24.0
 40
24.0
 40
25.0
 40
25.0
 40
25.0
 40
26.0
 40
26.0
 40
26.0
 40
27.0
 40
27.0
 40
27.0
 40
28.0
 40
28.0
 40
28.0
 40
29.0
 40
29.0
 40
29.0
 40
30.0
 40
30.0
 40
30.0
 40
31.0
 40
31.0
 40
31.0
 40
32.0
 40
32.0
 40
32.0
 40
33.0
 40
33.0
 40
33.0
 40
34.0
 40
34.0
 40
34.0
 40
35.0
 40
35.0
 40
35.0
 40
35.0
 10
130.4249100645162
 20
-112.9555154404681
 30
0.0
 10
130.4249100746422
 20
-113.3057815101973
 30
0.0
 10
130.4125118588015
 20
-113.654106308082
 30
0.0
 10
130.3883150824882
 20
-114.0004568126097
 30
0.0
 10
130.3641183061743
 20
-114.3468073171412
 30
0.0
 10
130.3281201878279
 20
-114.6911863147078
 30
0.0
 10
130.2804649068617
 20
-115.0334852947225
 30
0.0
 10
130.2328096258954
 20
-115.3757842747366
 30
0.0
 10
130.1734994463999
 20
-115.7160044949173
 30
0.0
 10
130.1022270350041
 20
-116.0539434562958
 30
0.0
 10
130.0309546236082
 20
-116.3918824176775
 30
0.0
 10
129.9476974978678
 20
-116.7273913101817
 30
0.0
 10
129.8517050402975
 20
-117.060740941393
 30
0.0
 10
129.8037088115088
 20
-117.2274157569981
 30
0.0
 10
129.7525537716647
 20
-117.3935470717178
 30
0.0
 10
129.6981861791553
 20
-117.5591154320212
 30
0.0
 10
129.6710023828974
 20
-117.6418996121729
 30
0.0
 10
129.6430150560197
 20
-117.7245429561228
 30
0.0
 10
129.6142149319267
 20
-117.8070423951835
 30
0.0
 10
129.5854148078317
 20
-117.8895418342435
 30
0.0
 10
129.5557811211725
 20
-117.9719483964598
 30
0.0
 10
129.5254632249994
 20
-118.0538402301942
 30
0.0
 10
129.4041916403068
 20
-118.3814075651318
 30
0.0
 10
129.2715466308256
 20
-118.7021275078914
 30
0.0
 10
129.1276076728644
 20
-119.0158980294404
 30
0.0
 10
128.83972975694
 20
-119.643439072539
 30
0.0
 10
128.5068717593736
 20
-120.2427871865838
 30
0.0
 10
128.1250104609608
 20
-120.8125118521031
 30
0.0
 10
127.9340798117544
 20
-121.0973741848631
 30
0.0
 10
127.730952559296
 20
-121.3748105625215
 30
0.0
 10
127.5148222565085
 20
-121.644260594779
 30
0.0
 10
127.4067571051148
 20
-121.778985610911
 30
0.0
 10
127.2954343804471
 20
-121.9117090368613
 30
0.0
 10
127.1807001241961
 20
-122.0423212666704
 30
0.0
 10
127.1233329960672
 20
-122.1076273815778
 30
0.0
 10
127.065030215122
 20
-122.1724924349279
 30
0.0
 10
127.0061342295364
 20
-122.2365073412294
 30
0.0
 10
126.9472382439507
 20
-122.3005222475283
 30
0.0
 10
126.8877232404702
 20
-122.3637210589622
 30
0.0
 10
126.8275871506588
 20
-122.4260963820936
 30
0.0
 10
126.5870427914201
 20
-122.6755976746191
 30
0.0
 10
126.3364217528648
 20
-122.9120604985207
 30
0.0
 10
126.0755431842724
 20
-123.1352382554593
 30
0.0
 10
125.81466461568
 20
-123.3584160124011
 30
0.0
 10
125.5435167587281
 20
-123.5682786928333
 30
0.0
 10
125.2615120837576
 20
-123.7641074888307
 30
0.0
 10
125.1205097462724
 20
-123.862021886831
 30
0.0
 10
124.9767887349088
 20
-123.9564208535691
 30
0.0
 10
124.8302417849969
 20
-124.0471592525741
 30
0.0
 10
124.7569683100406
 20
-124.0925284520773
 30
0.0
 10
124.6829879409568
 20
-124.1369818237025
 30
0.0
 10
124.6082844620153
 20
-124.1804964301467
 30
0.0
 10
124.533580983073
 20
-124.224011036591
 30
0.0
 10
124.4580098308928
 20
-124.2666633829379
 30
0.0
 10
124.3820005033288
 20
-124.3081998476117
 30
0.0
 10
124.0779631930729
 20
-124.4743457063041
 30
0.0
 10
123.7682378429662
 20
-124.6219550511828
 30
0.0
 10
123.4526333788507
 20
-124.7510061312606
 30
0.0
 10
123.1370289147313
 20
-124.8800572113422
 30
0.0
 10
122.815604941901
 20
-124.9905401882126
 30
0.0
 10
122.4879105181465
 20
-125.0821547640185
 30
0.0
 10
122.1602160943965
 20
-125.1737693398211
 30
0.0
 10
121.8267608018928
 20
-125.2464565869347
 30
0.0
 10
121.4867986208378
 20
-125.2988851641059
 30
0.0
 10
121.3168175303129
 20
-125.3250994526941
 30
0.0
 10
121.1447872973839
 20
-125.3462620696562
 30
0.0
 10
120.9729750068917
 20
-125.362052879147
 30
0.0
 10
120.8870688616443
 20
-125.3699482838924
 30
0.0
 10
120.8011270530988
 20
-125.3765212456578
 30
0.0
 10
120.7151427095158
 20
-125.3817875212949
 30
0.0
 10
120.6936466236194
 20
-125.383104090205
 30
0.0
 10
120.6721237382002
 20
-125.3843443127466
 30
0.0
 10
120.6508128199205
 20
-125.3854846752644
 30
0.0
 10
120.6295019016388
 20
-125.3866250377829
 30
0.0
 10
120.6081465371115
 20
-125.3876712023348
 30
0.0
 10
120.5867428008344
 20
-125.3886294435789
 30
0.0
 10
120.5439353282731
 20
-125.3905459260685
 30
0.0
 10
120.5009342661579
 20
-125.3921101016117
 30
0.0
 10
120.4577089893507
 20
-125.3933792925303
 30
0.0
 10
120.2848078821282
 20
-125.3984560562142
 30
0.0
 10
120.1082138165808
 20
-125.3986183889218
 30
0.0
 10
119.9265795593094
 20
-125.3991163923916
 30
0.0
 10
119.9038752771489
 20
-125.3991786428268
 30
0.0
 10
119.8810943676958
 20
-125.3992491123037
 30
0.0
 10
119.8582363182689
 20
-125.3993403335696
 30
0.0
 10
119.8353782688362
 20
-125.3994315548356
 30
0.0
 10
119.812787116693
 20
-125.3995485537013
 30
0.0
 10
119.7901976742408
 20
-125.3996582948469
 30
0.0
 10
119.7450187893414
 20
-125.3998777771419
 30
0.0
 10
119.6998398956386
 20
-125.4000984636661
 30
0.0
 10
119.6546609957889
 20
-125.4003203551168
 30
0.0
 10
119.5643031960857
 20
-125.4007641380164
 30
0.0
 10
119.4739453717811
 20
-125.4012127406193
 30
0.0
 10
119.38358752696
 20
-125.4016662865521
 30
0.0
 10
118.6607247684051
 20
-125.4052946540096
 30
0.0
 10
117.9378606968987
 20
-125.4092393944923
 30
0.0
 10
117.2150053483038
 20
-125.4135099126575
 30
0.0
 10
115.7692946511204
 20
-125.4220509489813
 30
0.0
 10
114.3236118335022
 20
-125.4320034058672
 30
0.0
 10
112.8781062908353
 20
-125.4425565093057
 30
0.0
 10
111.4326007481653
 20
-125.4531096127428
 30
0.0
 10
109.9872922299627
 20
-125.4643309529027
 30
0.0
 10
108.5423710463814
 20
-125.4731786900415
 30
0.0
 10
107.0974498628033
 20
-125.482026427181
 30
0.0
 10
105.6529542633237
 20
-125.4881561549728
 30
0.0
 10
104.2086232363163
 20
-125.4881561646419
 30
0.0
  0
SPLINE
  5
90
330
70
100
AcDbEntity
  8
Capa 1
 62
    18
420
        0
370
     9
100
AcDbSpline
210
0.0
220
0.0
230
1.0
 70
     8
 71
     3
 72
   110
 73
   106
 74
     0
 42
0.0000000001
 43
0.0000000001
 40
0.0
 40
0.0
 40
0.0
 40
0.0
 40
1.0
 40
1.0
 40
1.0
 40
2.0
 40
2.0
 40
2.0
 40
3.0
 40
3.0
 40
3.0
 40
4.0
 40
4.0
 40
4.0
 40
5.0
 40
5.0
 40
5.0
 40
6.0
 40
6.0
 40
6.0
 40
7.0
 40
7.0
 40
7.0
 40
8.0
 40
8.0
 40
8.0
 40
9.0
 40
9.0
 40
9.0
 40
10.0
 40
10.0
 40
10.0
 40
11.0
 40
11.0
 40
11.0
 40
12.0
 40
12.0
 40
12.0
 40
13.0
 40
13.0
 40
13.0
 40
14.0
 40
14.0
 40
14.0
 40
15.0
 40
15.0
 40
15.0
 40
16.0
 40
16.0
 40
16.0
 40
17.0
 40
17.0
 40
17.0
 40
18.0
 40
18.0
 40
18.0
 40
19.0
 40
19.0
 40
19.0
 40
20.0
 40
20.0
 40
20.0
 40
21.0
 40
21.0
 40
21.0
 40
22.0
 40
22.0
 40
22.0
 40
23.0
 40
23.0
 40
23.0
 40
24.0
 40
24.0
 40
24.0
 40
25.0
 40
25.0
 40
25.0
 40
26.0
 40
26.0
 40
26.0
 40
27.0
 40
27.0
 40
27.0
 40
28.0
 40
28.0
 40
28.0
 40
29.0
 40
29.0
 40
29.0
 40
30.0
 40
30.0
 40
30.0
 40
31.0
 40
31.0
 40
31.0
 40
32.0
 40
32.0
 40
32.0
 40
33.0
 40
33.0
 40
33.0
 40
34.0
 40
34.0
 40
34.0
 40
35.0
 40
35.0
 40
35.0
 40
35.0
 10
77.99233640812025
 20
-112.9555154404681
 30
0.0
 10
77.99233639799265
 20
-112.6052493707357
 30
0.0
 10
78.00473461383464
 20
-112.2569245728517
 30
0.0
 10
78.02893139014853
 20
-111.9105740683215
 30
0.0
 10
78.05312816646178
 20
-111.5642235637938
 30
0.0
 10
78.08912628480658
 20
-111.2198445662259
 30
0.0
 10
78.13678156577447
 20
-110.8775455862112
 30
0.0
 10
78.18443684674075
 20
-110.5352466061962
 30
0.0
 10
78.24374702623881
 20
-110.1950263860161
 30
0.0
 10
78.31501943763206
 20
-109.8570874245769
 30
0.0
 10
78.38629184902593
 20
-109.5191484631359
 30
0.0
 10
78.46954897476706
 20
-109.183639570752
 30
0.0
 10
78.56554143233928
 20
-108.8502899395409
 30
0.0
 10
78.61353766112507
 20
-108.6836151239353
 30
0.0
 10
78.66469270096948
 20
-108.5174838092158
 30
0.0
 10
78.7190602934811
 20
-108.3519154489144
 30
0.0
 10
78.74624408973868
 20
-108.2691312687608
 30
0.0
 10
78.77423141661449
 20
-108.1864879248083
 30
0.0
 10
78.80303154071042
 20
-108.1039884857502
 30
0.0
 10
78.83183166480446
 20
-108.0214890466898
 30
0.0
 10
78.86146535146392
 20
-107.9390824844729
 30
0.0
 10
78.89178324763706
 20
-107.8571906507388
 30
0.0
 10
79.013054832328
 20
-107.5296233157993
 30
0.0
 10
79.14569984180829
 20
-107.2089033731305
 30
0.0
 10
79.28963879977175
 20
-106.8951328515225
 30
0.0
 10
79.57751671569673
 20
-106.2675918083023
 30
0.0
 10
79.91037471326476
 20
-105.6682436943502
 30
0.0
 10
80.29223601167627
 20
-105.0985190288299
 30
0.0
 10
80.48316666088169
 20
-104.8136566960709
 30
0.0
 10
80.68629391334006
 20
-104.5362203184138
 30
0.0
 10
80.90242421612597
 20
-104.2667702861543
 30
0.0
 10
81.01048936751972
 20
-104.132045270024
 30
0.0
 10
81.12181209218904
 20
-103.9993218440718
 30
0.0
 10
81.23654634843997
 20
-103.8687096143365
 30
0.0
 10
81.29391347656735
 20
-103.8034034994666
 30
0.0
 10
81.35221625751444
 20
-103.7385384460054
 30
0.0
 10
81.41111224309975
 20
-103.6745235397043
 30
0.0
 10
81.47000822868539
 20
-103.6105086334051
 30
0.0
 10
81.52952323216785
 20
-103.5473098219725
 30
0.0
 10
81.58965932197608
 20
-103.4849344988411
 30
0.0
 10
81.83020368121766
 20
-103.2354332063139
 30
0.0
 10
82.08082471977071
 20
-102.9989703824145
 30
0.0
 10
82.34170328836244
 20
-102.7757926254715
 30
0.0
 10
82.6025818569545
 20
-102.5526148685323
 30
0.0
 10
82.87372971390871
 20
-102.3427521881
 30
0.0
 10
83.15573438887943
 20
-102.1469233921004
 30
0.0
 10
83.29673672636401
 20
-102.0490089941023
 30
0.0
 10
83.44045773772732
 20
-101.9546100273643
 30
0.0
 10
83.58700468763762
 20
-101.8638716283595
 30
0.0
 10
83.66027816259359
 20
-101.8185024288561
 30
0.0
 10
83.7342585316793
 20
-101.7740490572331
 30
0.0
 10
83.80896201056023
 20
-101.7305344507866
 30
0.0
 10
83.88366548944116
 20
-101.6870198443424
 30
0.0
 10
83.95923664174144
 20
-101.6443674979932
 30
0.0
 10
84.03524596930735
 20
-101.6028310333198
 30
0.0
 10
84.33928327956385
 20
-101.4366851746315
 30
0.0
 10
84.6490086296677
 20
-101.289075829843
 30
0.0
 10
84.96461309378544
 20
-101.1600247497001
 30
0.0
 10
85.28021755790289
 20
-101.0309736695591
 30
0.0
 10
85.60164153073769
 20
-100.9204906927207
 30
0.0
 10
85.92933595448769
 20
-100.8288761169161
 30
0.0
 10
86.25703037823994
 20
-100.7372615411122
 30
0.0
 10
86.59048567074432
 20
-100.6645742940006
 30
0.0
 10
86.93044785179607
 20
-100.6121457168252
 30
0.0
 10
87.10042894232291
 20
-100.5859314282415
 30
0.0
 10
87.27245917525063
 20
-100.5647688112765
 30
0.0
 10
87.44427146574414
 20
-100.5489780017867
 30
0.0
 10
87.53017761099281
 20
-100.5410825970412
 30
0.0
 10
87.61611941953992
 20
-100.5345096352756
 30
0.0
 10
87.70210376312036
 20
-100.5292433596385
 30
0.0
 10
87.72359984901738
 20
-100.5279267907284
 30
0.0
 10
87.74512273443397
 20
-100.5266865681867
 30
0.0
 10
87.76643365271404
 20
-100.5255462056686
 30
0.0
 10
87.78774457099634
 20
-100.5244058431504
 30
0.0
 10
87.80909993552306
 20
-100.5233596785986
 30
0.0
 10
87.83050367180177
 20
-100.522401437356
 30
0.0
 10
87.87331114436174
 20
-100.5204849548648
 30
0.0
 10
87.91631220648049
 20
-100.5189207793232
 30
0.0
 10
87.95953748328578
 20
-100.5176515883713
 30
0.0
 10
88.13243859050855
 20
-100.5125748245677
 30
0.0
 10
88.30903265605371
 20
-100.5124124920112
 30
0.0
 10
88.49066691332705
 20
-100.5119144885414
 30
0.0
 10
88.51337119548716
 20
-100.5118522381082
 30
0.0
 10
88.53615210493876
 20
-100.5117817686297
 30
0.0
 10
88.55901015436982
 20
-100.5116905473631
 30
0.0
 10
88.58186820379861
 20
-100.5115993260984
 30
0.0
 10
88.60445935594599
 20
-100.5114823272317
 30
0.0
 10
88.62704879839599
 20
-100.5113725860842
 30
0.0
 10
88.67222768329664
 20
-100.511153103793
 30
0.0
 10
88.71740657699595
 20
-100.5109324172673
 30
0.0
 10
88.76258547684914
 20
-100.5107105258185
 30
0.0
 10
88.85294327655618
 20
-100.5102667429185
 30
0.0
 10
88.94330110087205
 20
-100.5098181403137
 30
0.0
 10
89.03365894569821
 20
-100.509364594381
 30
0.0
 10
89.75652170432047
 20
-100.5057362269234
 30
0.0
 10
90.47938577573994
 20
-100.5017914864426
 30
0.0
 10
91.20224112437687
 20
-100.4975209682778
 30
0.0
 10
92.64795182165299
 20
-100.488979931952
 30
0.0
 10
94.09363463913585
 20
-100.4790274750665
 30
0.0
 10
95.53914018180368
 20
-100.4684743716293
 30
0.0
 10
96.98464572447086
 20
-100.4579212681905
 30
0.0
 10
98.42995424267114
 20
-100.446699927894
 30
0.0
 10
99.87487542625311
 20
-100.4378521908453
 30
0.0
 10
101.3197966098315
 20
-100.4290044537966
 30
0.0
 10
102.7642922093127
 20
-100.4228747257777
 30
0.0
 10
104.2086232363188
 20
-100.4228747162895
 30
0.0
  0
SPLINE
  5
91
330
70
100
AcDbEntity
  8
Capa 1
 62
    18
420
        0
370
     9
100
AcDbSpline
210
0.0
220
0.0
230
1.0
 70
     8
 71
     3
 72
   110
 73
   106
 74
     0
 42
0.0000000001
 43
0.0000000001
 40
0.0
 40
0.0
 40
0.0
 40
0.0
 40
1.0
 40
1.0
 40
1.0
 40
2.0
 40
2.0
 40
2.0
 40
3.0
 40
3.0
 40
3.0
 40
4.0
 40
4.0
 40
4.0
 40
5.0
 40
5.0
 40
5.0
 40
6.0
 40
6.0
 40
6.0
 40
7.0
 40
7.0
 40
7.0
 40
8.0
 40
8.0
 40
8.0
 40
9.0
 40
9.0
 40
9.0
 40
10.0
 40
10.0
 40
10.0
 40
11.0
 40
11.0
 40
11.0
 40
12.0
 40
12.0
 40
12.0
 40
13.0
 40
13.0
 40
13.0
 40
14.0
 40
14.0
 40
14.0
 40
15.0
 40
15.0
 40
15.0
 40
16.0
 40
16.0
 40
16.0
 40
17.0
 40
17.0
 40
17.0
 40
18.0
 40
18.0
 40
18.0
 40
19.0
 40
19.0
 40
19.0
 40
20.0
 40
20.0
 40
20.0
 40
21.0
 40
21.0
 40
21.0
 40
22.0
 40
22.0
 40
22.0
 40
23.0
 40
23.0
 40
23.0
 40
24.0
 40
24.0
 40
24.0
 40
25.0
 40
25.0
 40
25.0
 40
26.0
 40
26.0
 40
26.0
 40
27.0
 40
27.0
 40
27.0
 40
28.0
 40
28.0
 40
28.0
 40
29.0
 40
29.0
 40
29.0
 40
30.0
 40
30.0
 40
30.0
 40
31.0
 40
31.0
 40
31.0
 40
32.0
 40
32.0
 40
32.0
 40
33.0
 40
33.0
 40
33.0
 40
34.0
 40
34.0
 40
34.0
 40
35.0
 40
35.0
 40
35.0
 40
35.0
 10
104.2086232363163
 20
-100.4228747162895
 30
0.0
 10
105.6529542633237
 20
-100.4228747259609
 30
0.0
 10
107.0974498628033
 20
-100.4290044537966
 30
0.0
 10
108.5423710463814
 20
-100.4378521908453
 30
0.0
 10
109.9872922299627
 20
-100.446699927894
 30
0.0
 10
111.4326007481653
 20
-100.4579212681905
 30
0.0
 10
112.8781062908353
 20
-100.4684743716293
 30
0.0
 10
114.3236118335022
 20
-100.4790274750665
 30
0.0
 10
115.7692946509831
 20
-100.488979931952
 30
0.0
 10
117.2150053482615
 20
-100.4975209682778
 30
0.0
 10
117.9378606968987
 20
-100.5017914864426
 30
0.0
 10
118.6607247684051
 20
-100.5057362269234
 30
0.0
 10
119.38358752696
 20
-100.509364594381
 30
0.0
 10
119.4739453717811
 20
-100.5098181403137
 30
0.0
 10
119.5643031960857
 20
-100.5102667429185
 30
0.0
 10
119.6546609957889
 20
-100.5107105258185
 30
0.0
 10
119.6998398956386
 20
-100.5109324172673
 30
0.0
 10
119.7450187893414
 20
-100.511153103793
 30
0.0
 10
119.7901976742408
 20
-100.5113725860842
 30
0.0
 10
119.812787116693
 20
-100.5114823272317
 30
0.0
 10
119.8353782688362
 20
-100.5115993260984
 30
0.0
 10
119.8582363182689
 20
-100.5116905473631
 30
0.0
 10
119.8810943676958
 20
-100.5117817686297
 30
0.0
 10
119.9038752771489
 20
-100.5118522381082
 30
0.0
 10
119.9265795593094
 20
-100.5119144885414
 30
0.0
 10
120.1082138165808
 20
-100.5124124920112
 30
0.0
 10
120.2848078821282
 20
-100.5125748245677
 30
0.0
 10
120.4577089893507
 20
-100.5176515883713
 30
0.0
 10
120.5009342661579
 20
-100.5189207793232
 30
0.0
 10
120.5439353282731
 20
-100.5204849548648
 30
0.0
 10
120.5867428008344
 20
-100.522401437356
 30
0.0
 10
120.6081465371115
 20
-100.5233596785986
 30
0.0
 10
120.6295019016388
 20
-100.5244058431504
 30
0.0
 10
120.6508128199205
 20
-100.5255462056686
 30
0.0
 10
120.6721237382002
 20
-100.5266865681867
 30
0.0
 10
120.6936466236194
 20
-100.5279267907284
 30
0.0
 10
120.7151427095158
 20
-100.5292433596385
 30
0.0
 10
120.8011270530988
 20
-100.5345096352756
 30
0.0
 10
120.8870688616443
 20
-100.5410825970412
 30
0.0
 10
120.9729750068917
 20
-100.5489780017867
 30
0.0
 10
121.1447872973839
 20
-100.5647688112765
 30
0.0
 10
121.3168175303129
 20
-100.5859314282415
 30
0.0
 10
121.4867986208378
 20
-100.6121457168252
 30
0.0
 10
121.8267608018928
 20
-100.6645742940006
 30
0.0
 10
122.1602160943965
 20
-100.7372615411122
 30
0.0
 10
122.4879105181465
 20
-100.8288761169161
 30
0.0
 10
122.815604941901
 20
-100.9204906927207
 30
0.0
 10
123.1370289147313
 20
-101.0309736695591
 30
0.0
 10
123.4526333788507
 20
-101.1600247497001
 30
0.0
 10
123.7682378429662
 20
-101.289075829843
 30
0.0
 10
124.0779631930729
 20
-101.4366851746315
 30
0.0
 10
124.3820005033288
 20
-101.6028310333198
 30
0.0
 10
124.4580098308928
 20
-101.6443674979932
 30
0.0
 10
124.533580983073
 20
-101.6870198443424
 30
0.0
 10
124.6082844620153
 20
-101.7305344507866
 30
0.0
 10
124.6829879409568
 20
-101.7740490572331
 30
0.0
 10
124.7569683100406
 20
-101.8185024288561
 30
0.0
 10
124.8302417849969
 20
-101.8638716283595
 30
0.0
 10
124.9767887349088
 20
-101.9546100273643
 30
0.0
 10
125.1205097462724
 20
-102.0490089941023
 30
0.0
 10
125.2615120837576
 20
-102.1469233921004
 30
0.0
 10
125.5435167587281
 20
-102.3427521881
 30
0.0
 10
125.81466461568
 20
-102.5526148685323
 30
0.0
 10
126.0755431842724
 20
-102.7757926254715
 30
0.0
 10
126.3364217528648
 20
-102.9989703824145
 30
0.0
 10
126.5870427914201
 20
-103.2354332063139
 30
0.0
 10
126.8275871506588
 20
-103.4849344988395
 30
0.0
 10
126.8877232404702
 20
-103.5473098219725
 30
0.0
 10
126.9472382439507
 20
-103.6105086334051
 30
0.0
 10
127.0061342295364
 20
-103.6745235397043
 30
0.0
 10
127.065030215122
 20
-103.7385384460054
 30
0.0
 10
127.1233329960672
 20
-103.8034034993559
 30
0.0
 10
127.1807001241961
 20
-103.8687096142627
 30
0.0
 10
127.2954343804471
 20
-103.9993218440718
 30
0.0
 10
127.4067571051148
 20
-104.132045270024
 30
0.0
 10
127.5148222565085
 20
-104.2667702861543
 30
0.0
 10
127.730952559296
 20
-104.5362203184138
 30
0.0
 10
127.9340798117544
 20
-104.8136566960709
 30
0.0
 10
128.1250104609608
 20
-105.0985190288299
 30
0.0
 10
128.5068717593736
 20
-105.6682436943502
 30
0.0
 10
128.83972975694
 20
-106.2675918083947
 30
0.0
 10
129.1276076728644
 20
-106.8951328514923
 30
0.0
 10
129.2715466308256
 20
-107.2089033730397
 30
0.0
 10
129.4041916403068
 20
-107.5296233157993
 30
0.0
 10
129.5254632249994
 20
-107.8571906507388
 30
0.0
 10
129.5557811211725
 20
-107.9390824844729
 30
0.0
 10
129.5854148078317
 20
-108.0214890466898
 30
0.0
 10
129.6142149319267
 20
-108.1039884857502
 30
0.0
 10
129.6430150560197
 20
-108.1864879248083
 30
0.0
 10
129.6710023828974
 20
-108.2691312687608
 30
0.0
 10
129.6981861791553
 20
-108.3519154489144
 30
0.0
 10
129.7525537716647
 20
-108.5174838092158
 30
0.0
 10
129.8037088115088
 20
-108.6836151239353
 30
0.0
 10
129.8517050402975
 20
-108.8502899395409
 30
0.0
 10
129.9476974978678
 20
-109.183639570752
 30
0.0
 10
130.0309546236082
 20
-109.5191484631359
 30
0.0
 10
130.1022270350041
 20
-109.8570874245769
 30
0.0
 10
130.1734994463999
 20
-110.1950263860161
 30
0.0
 10
130.232809625803
 20
-110.535246606106
 30
0.0
 10
130.2804649068174
 20
-110.877545586165
 30
0.0
 10
130.3281201878279
 20
-111.2198445662259
 30
0.0
 10
130.3641183061743
 20
-111.5642235637938
 30
0.0
 10
130.3883150824882
 20
-111.9105740683215
 30
0.0
 10
130.4125118588015
 20
-112.2569245728517
 30
0.0
 10
130.4249100746422
 20
-112.6052493707357
 30
0.0
 10
130.4249100645162
 20
-112.9555154404681
 30
0.0
  0
SPLINE
  5
92
330
70
100
AcDbEntity
  8
Capa 1
 62
    18
420
        0
370
     9
100
AcDbSpline
210
0.0
220
0.0
230
1.0
 70
    24
 71
     3
 72
    11
 73
     7
 74
     0
 42
0.0000000001
 43
0.0000000001
 40
0.0
 40
0.0
 40
0.0
 40
0.0
 40
1.0
 40
1.0
 40
1.0
 40
2.0
 40
2.0
 40
2.0
 40
2.0
 10
140.4162636145679
 20
-132.0571416129757
 30
0.0
 10
140.4162636145243
 20
-132.0538019696165
 30
0.0
 10
140.4162636144877
 20
-131.9754463575752
 30
0.0
 10
140.4162636144601
 20
-131.8389608371678
 30
0.0
 10
140.4162636144318
 20
-131.7024753167553
 30
0.0
 10
140.4162636144197
 20
-131.5187579767866
 30
0.0
 10
140.4162636144197
 20
-131.3274009026466
 30
0.0
  0
SPLINE
  5
93
330
70
100
AcDbEntity
  8
Capa 1
 62
    18
420
        0
370
     9
100
AcDbSpline
210
0.0
220
0.0
230
1.0
 70
    24
 71
     3
 72
    11
 73
     7
 74
     0
 42
0.0000000001
 43
0.0000000001
 40
0.0
 40
0.0
 40
0.0
 40
0.0
 40
1.0
 40
1.0
 40
1.0
 40
2.0
 40
2.0
 40
2.0
 40
2.0
 10
140.4162636144197
 20
-131.3274009026466
 30
0.0
 10
140.6076206885628
 20
-131.3274009026466
 30
0.0
 10
140.7913380278141
 20
-131.3274009026466
 30
0.0
 10
140.9278235469439
 20
-131.3274009026466
 30
0.0
 10
141.0643090660737
 20
-131.3274009026466
 30
0.0
 10
141.1426646763702
 20
-131.3274009026466
 30
0.0
 10
141.1460043178979
 20
-131.3274009026466
 30
0.0
  0
SPLINE
  5
94
330
70
100
AcDbEntity
  8
Capa 1
 62
    18
420
        0
370
     9
100
AcDbSpline
210
0.0
220
0.0
230
1.0
 70
     8
 71
     3
 72
    98
 73
    94
 74
     0
 42
0.0000000001
 43
0.0000000001
 40
0.0
 40
0.0
 40
0.0
 40
0.0
 40
1.0
 40
1.0
 40
1.0
 40
2.0
 40
2.0
 40
2.0
 40
3.0
 40
3.0
 40
3.0
 40
4.0
 40
4.0
 40
4.0
 40
5.0
 40
5.0
 40
5.0
 40
6.0
 40
6.0
 40
6.0
 40
7.0
 40
7.0
 40
7.0
 40
8.0
 40
8.0
 40
8.0
 40
9.0
 40
9.0
 40
9.0
 40
10.0
 40
10.0
 40
10.0
 40
11.0
 40
11.0
 40
11.0
 40
12.0
 40
12.0
 40
12.0
 40
13.0
 40
13.0
 40
13.0
 40
14.0
 40
14.0
 40
14.0
 40
15.0
 40
15.0
 40
15.0
 40
16.0
 40
16.0
 40
16.0
 40
17.0
 40
17.0
 40
17.0
 40
18.0
 40
18.0
 40
18.0
 40
19.0
 40
19.0
 40
19.0
 40
20.0
 40
20.0
 40
20.0
 40
21.0
 40
21.0
 40
21.0
 40
22.0
 40
22.0
 40
22.0
 40
23.0
 40
23.0
 40
23.0
 40
24.0
 40
24.0
 40
24.0
 40
25.0
 40
25.0
 40
25.0
 40
26.0
 40
26.0
 40
26.0
 40
27.0
 40
27.0
 40
27.0
 40
28.0
 40
28.0
 40
28.0
 40
29.0
 40
29.0
 40
29.0
 40
30.0
 40
30.0
 40
30.0
 40
31.0
 40
31.0
 40
31.0
 40
31.0
 10
141.1460043178979
 20
-131.3274009026466
 30
0.0
 10
141.1459159256289
 20
-131.3359151266843
 30
0.0
 10
141.1458275333573
 20
-131.344429350722
 30
0.0
 10
141.1455495403567
 20
-131.3529383334447
 30
0.0
 10
141.1452815618364
 20
-131.3611407866931
 30
0.0
 10
141.1448373969712
 20
-131.3693383694509
 30
0.0
 10
141.1442654021467
 20
-131.3775264252393
 30
0.0
 10
141.1437147834291
 20
-131.3854084839493
 30
0.0
 10
141.1430457105328
 20
-131.3932817144533
 30
0.0
 10
141.1422463675723
 20
-131.4011419642097
 30
0.0
 10
141.1414780571908
 20
-131.4086970585728
 30
0.0
 10
141.1405893952496
 20
-131.4162401605197
 30
0.0
 10
141.1395838917584
 20
-131.4237675965524
 30
0.0
 10
141.1386190018128
 20
-131.4309909899865
 30
0.0
 10
141.1375465184484
 20
-131.4381999574834
 30
0.0
 10
141.1363661514801
 20
-131.4453912655343
 30
0.0
 10
141.135235468398
 20
-131.452279877752
 30
0.0
 10
141.1340057926203
 20
-131.4591522858753
 30
0.0
 10
141.1326778272174
 20
-131.4660056613738
 30
0.0
 10
141.1314082152069
 20
-131.4725578861861
 30
0.0
 10
141.1300487618593
 20
-131.4790927142827
 30
0.0
 10
141.1285999318033
 20
-131.485607687133
 30
0.0
 10
141.1272176928894
 20
-131.4918232187448
 30
0.0
 10
141.1257541043239
 20
-131.4980206783418
 30
0.0
 10
141.1242096810781
 20
-131.5041979432517
 30
0.0
 10
141.1227396629809
 20
-131.5100776082091
 30
0.0
 10
141.121196411276
 20
-131.5159389774376
 30
0.0
 10
141.1195804021323
 20
-131.5217802328599
 30
0.0
 10
141.1180461879986
 20
-131.5273258305873
 30
0.0
 10
141.1164463953237
 20
-131.5328532991244
 30
0.0
 10
141.1147814747332
 20
-131.5383610895371
 30
0.0
 10
141.113205318076
 20
-131.5435752364332
 30
0.0
 10
141.1115707928651
 20
-131.5487717475197
 30
0.0
 10
141.1098783017985
 20
-131.553949328756
 30
0.0
 10
141.1082811266057
 20
-131.5588353245977
 30
0.0
 10
141.1066323306274
 20
-131.5637044626925
 30
0.0
 10
141.1049323048898
 20
-131.5685556239712
 30
0.0
 10
141.1033337332097
 20
-131.5731172778699
 30
0.0
 10
141.1016898638982
 20
-131.5776630365664
 30
0.0
 10
141.1000009409337
 20
-131.5821921078698
 30
0.0
 10
141.0984192064181
 20
-131.5864337391185
 30
0.0
 10
141.0967979554929
 20
-131.5906607339031
 30
0.0
 10
141.095137736569
 20
-131.5948719991627
 30
0.0
 10
141.0935900248125
 20
-131.5987978818721
 30
0.0
 10
141.0920084475478
 20
-131.6027100946852
 30
0.0
 10
141.0903923367782
 20
-131.6066092549547
 30
0.0
 10
141.0700677994737
 20
-131.655645886502
 30
0.0
 10
141.044281412169
 20
-131.7026181166131
 30
0.0
 10
141.0137564254381
 20
-131.7461742226788
 30
0.0
 10
140.9894373688765
 20
-131.7808750864727
 30
0.0
 10
140.9621106264482
 20
-131.8134076665434
 30
0.0
 10
140.9321896537286
 20
-131.8433269381631
 30
0.0
 10
140.9140656167496
 20
-131.8614499447339
 30
0.0
 10
140.8949897331132
 20
-131.8786141046989
 30
0.0
 10
140.8750722514001
 20
-131.8947257840096
 30
0.0
 10
140.8578656832454
 20
-131.9086445470381
 30
0.0
 10
140.8400310214481
 20
-131.9217778325025
 30
0.0
 10
140.8216165457868
 20
-131.9340809636095
 30
0.0
 10
140.7819339566023
 20
-131.9605938063527
 30
0.0
 10
140.7395587795647
 20
-131.9832515092355
 30
0.0
 10
140.6954719727822
 20
-132.0015296265767
 30
0.0
 10
140.6734019956474
 20
-132.0106797025596
 30
0.0
 10
140.6509030787528
 20
-132.0187322407282
 30
0.0
 10
140.6280562947427
 20
-132.0256668086858
 30
0.0
 10
140.6052095106402
 20
-132.0326013766736
 30
0.0
 10
140.5820148594234
 20
-132.0384179744388
 30
0.0
 10
140.5586017274466
 20
-132.043081914173
 30
0.0
 10
140.5468916357619
 20
-132.0454145863643
 30
0.0
 10
140.5351268909852
 20
-132.0474589204495
 30
0.0
 10
140.5233182137904
 20
-132.0492137206942
 30
0.0
 10
140.5115095368921
 20
-132.0509685208941
 30
0.0
 10
140.4996569275796
 20
-132.0524337872709
 30
0.0
 10
140.4877768970875
 20
-132.0536072909504
 30
0.0
 10
140.4818364346472
 20
-132.0541940869631
 30
0.0
 10
140.4758891158849
 20
-132.0547079313197
 30
0.0
 10
140.4699362900088
 20
-132.0551487669059
 30
0.0
 10
140.4639834639672
 20
-132.0555896025056
 30
0.0
 10
140.4580251308163
 20
-132.0559574293335
 30
0.0
 10
140.4520633645442
 20
-132.0562520447629
 30
0.0
 10
140.4490824254423
 20
-132.0563993552434
 30
0.0
 10
140.4461006280262
 20
-132.0565283621879
 30
0.0
 10
140.4431181454675
 20
-132.0566391414485
 30
0.0
 10
140.4401356625609
 20
-132.0567499207156
 30
0.0
 10
140.4371524945071
 20
-132.0568424722981
 30
0.0
 10
140.4341688827223
 20
-132.0569164601486
 30
0.0
 10
140.431611496782
 20
-132.0569798784163
 30
0.0
 10
140.4290537848342
 20
-132.0570296579806
 30
0.0
 10
140.4264958891911
 20
-132.0570667554414
 30
0.0
 10
140.4247906207454
 20
-132.0570914871525
 30
0.0
 10
140.4230852706628
 20
-132.0571105823384
 30
0.0
 10
140.4213798781183
 20
-132.0571221191772
 30
0.0
 10
140.4196744852415
 20
-132.0571336560154
 30
0.0
 10
140.4179690499028
 20
-132.0571376344949
 30
0.0
 10
140.4162636145679
 20
-132.0571416129757
 30
0.0
  0
SPLINE
  5
95
330
70
100
AcDbEntity
  8
Capa 1
 62
    18
420
        0
370
     9
100
AcDbSpline
210
0.0
220
0.0
230
1.0
 70
    24
 71
     3
 72
    11
 73
     7
 74
     0
 42
0.0000000001
 43
0.0000000001
 40
0.0
 40
0.0
 40
0.0
 40
0.0
 40
1.0
 40
1.0
 40
1.0
 40
2.0
 40
2.0
 40
2.0
 40
2.0
 10
68.00098285789175
 20
-131.327400902619
 30
0.0
 10
68.00098285789175
 20
-131.5187579767583
 30
0.0
 10
68.00098285790652
 20
-131.7024753167277
 30
0.0
 10
68.0009828579341
 20
-131.8389608371396
 30
0.0
 10
68.00098285796202
 20
-131.9754463575477
 30
0.0
 10
68.00098285799892
 20
-132.0538019695889
 30
0.0
 10
68.00098285803741
 20
-132.0571416129481
 30
0.0
  0
LINE
  5
96
330
70
100
AcDbEntity
  8
Capa 1
 62
    18
420
        0
370
     9
100
AcDbLine
 10
140.4162636483572
 20
-132.0571416130546
 30
0.0
 11
68.00098282427668
 21
-132.0571416130546
 31
0.0
  0
SPLINE
  5
97
330
70
100
AcDbEntity
  8
Capa 1
 62
    18
420
        0
370
     9
100
AcDbSpline
210
0.0
220
0.0
230
1.0
 70
    24
 71
     3
 72
    11
 73
     7
 74
     0
 42
0.0000000001
 43
0.0000000001
 40
0.0
 40
0.0
 40
0.0
 40
0.0
 40
1.0
 40
1.0
 40
1.0
 40
2.0
 40
2.0
 40
2.0
 40
2.0
 10
68.00098285820394
 20
-131.3274009097656
 30
0.0
 10
67.80962578406434
 20
-131.3274009097656
 30
0.0
 10
67.62590844481595
 20
-131.3274009097656
 30
0.0
 10
67.48942292569032
 20
-131.3274009097656
 30
0.0
 10
67.35293740656628
 20
-131.3274009097656
 30
0.0
 10
67.27458179627589
 20
-131.3274009097656
 30
0.0
 10
67.27124215475202
 20
-131.3274009097656
 30
0.0
  0
SPLINE
  5
98
330
70
100
AcDbEntity
  8
Capa 1
 62
    18
420
        0
370
     9
100
AcDbSpline
210
0.0
220
0.0
230
1.0
 70
     8
 71
     3
 72
    74
 73
    70
 74
     0
 42
0.0000000001
 43
0.0000000001
 40
0.0
 40
0.0
 40
0.0
 40
0.0
 40
1.0
 40
1.0
 40
1.0
 40
2.0
 40
2.0
 40
2.0
 40
3.0
 40
3.0
 40
3.0
 40
4.0
 40
4.0
 40
4.0
 40
5.0
 40
5.0
 40
5.0
 40
6.0
 40
6.0
 40
6.0
 40
7.0
 40
7.0
 40
7.0
 40
8.0
 40
8.0
 40
8.0
 40
9.0
 40
9.0
 40
9.0
 40
10.0
 40
10.0
 40
10.0
 40
11.0
 40
11.0
 40
11.0
 40
12.0
 40
12.0
 40
12.0
 40
13.0
 40
13.0
 40
13.0
 40
14.0
 40
14.0
 40
14.0
 40
15.0
 40
15.0
 40
15.0
 40
16.0
 40
16.0
 40
16.0
 40
17.0
 40
17.0
 40
17.0
 40
18.0
 40
18.0
 40
18.0
 40
19.0
 40
19.0
 40
19.0
 40
20.0
 40
20.0
 40
20.0
 40
21.0
 40
21.0
 40
21.0
 40
22.0
 40
22.0
 40
22.0
 40
23.0
 40
23.0
 40
23.0
 40
23.0
 10
68.00098285803741
 20
-132.0571416129481
 30
0.0
 10
67.99919215106344
 20
-132.0571372560939
 30
0.0
 10
67.99740144408912
 20
-132.0571328992424
 30
0.0
 10
67.99561078594682
 20
-132.0571202028617
 30
0.0
 10
67.99382012814655
 20
-132.057107506483
 30
0.0
 10
67.99202951917862
 20
-132.0570864705843
 30
0.0
 10
67.99023900601025
 20
-132.0570592462882
 30
0.0
 10
67.98785165967955
 20
-132.0570229472909
 30
0.0
 10
67.98546448365769
 20
-132.0569756467461
 30
0.0
 10
67.98307758991218
 20
-132.0569164601203
 30
0.0
 10
67.98009397968702
 20
-132.0568424770107
 30
0.0
 10
67.97711081051511
 20
-132.0567499219893
 30
0.0
 10
67.97412832718888
 20
-132.0566391414209
 30
0.0
 10
67.97114584420114
 20
-132.0565283608634
 30
0.0
 10
67.96816404705909
 20
-132.0563993547627
 30
0.0
 10
67.9651831081032
 20
-132.056252044736
 30
0.0
 10
67.95922134213036
 20
-132.0559574302139
 30
0.0
 10
67.95326300877253
 20
-132.0555896027276
 30
0.0
 10
67.94731018265519
 20
-132.055148766879
 30
0.0
 10
67.94135735670021
 20
-132.0547079310425
 30
0.0
 10
67.93541003798766
 20
-132.0541940868489
 30
0.0
 10
67.92946957558038
 20
-132.0536072909228
 30
0.0
 10
67.91758954514573
 20
-132.052433787423
 30
0.0
 10
67.9057369358034
 20
-132.0509685209365
 30
0.0
 10
67.89392825887524
 20
-132.0492137206647
 30
0.0
 10
67.88211958165513
 20
-132.0474589203532
 30
0.0
 10
67.87035483684886
 20
-132.0454145862423
 30
0.0
 10
67.85864474522123
 20
-132.0430819141435
 30
0.0
 10
67.83523161336248
 20
-132.0384179746031
 30
0.0
 10
67.81203696260198
 20
-132.032601377522
 30
0.0
 10
67.78919017792772
 20
-132.0256668086602
 30
0.0
 10
67.76634339334973
 20
-132.0187322398247
 30
0.0
 10
67.74384447485637
 20
-132.0106796992144
 30
0.0
 10
67.72177449988925
 20
-132.0015296265504
 30
0.0
 10
67.67768769744268
 20
-131.9832515158308
 30
0.0
 10
67.63531253977633
 20
-131.9605938425407
 30
0.0
 10
67.59562992688586
 20
-131.9340809635819
 30
0.0
 10
67.57721544022368
 20
-131.9217778156695
 30
0.0
 10
67.55938075814701
 20
-131.9086444992341
 30
0.0
 10
67.54217422127324
 20
-131.894725783982
 30
0.0
 10
67.5222567757715
 20
-131.8786141599768
 30
0.0
 10
67.50318099742862
 20
-131.8614501608427
 30
0.0
 10
67.48505681894506
 20
-131.8433269381336
 30
0.0
 10
67.45513561261528
 20
-131.8134073096894
 30
0.0
 10
67.42780796393306
 20
-131.7808733453751
 30
0.0
 10
67.40349004722436
 20
-131.7461742226506
 30
0.0
 10
67.3729664912182
 20
-131.7026203019616
 30
0.0
 10
67.34718475826986
 20
-131.6556551811545
 30
0.0
 10
67.32685413587842
 20
-131.6066092549252
 30
0.0
 10
67.3232462853716
 20
-131.5979056173139
 30
0.0
 10
67.31981009945366
 20
-131.5891364516605
 30
0.0
 10
67.31654401804679
 20
-131.5803029234704
 30
0.0
 10
67.31278952966022
 20
-131.5701484371404
 30
0.0
 10
67.30925982421837
 20
-131.5599088995692
 30
0.0
 10
67.30596028296158
 20
-131.5495962418959
 30
0.0
 10
67.30223154110108
 20
-131.5379421253547
 30
0.0
 10
67.29879673691583
 20
-131.5261946287236
 30
0.0
 10
67.29565736598297
 20
-131.5143680284107
 30
0.0
 10
67.29215665896852
 20
-131.5011802071703
 30
0.0
 10
67.28902330668785
 20
-131.4878940249241
 30
0.0
 10
67.28627320285989
 20
-131.4745305372908
 30
0.0
 10
67.28323926141816
 20
-131.4597878070201
 30
0.0
 10
67.28067176086871
 20
-131.4449509905365
 30
0.0
 10
67.27852904602395
 20
-131.4300484328147
 30
0.0
 10
67.27618589021
 20
-131.4137518104139
 30
0.0
 10
67.27435071072557
 20
-131.3973765719161
 30
0.0
 10
67.27322667738457
 20
-131.3809600832599
 30
0.0
 10
67.27200650111569
 20
-131.3631394287214
 30
0.0
 10
67.27162432793754
 20
-131.3452701656712
 30
0.0
 10
67.27124215476132
 20
-131.327400902619
 30
0.0
  0
SPLINE
  5
99
330
70
100
AcDbEntity
  8
Capa 1
 62
    18
420
        0
370
     9
100
AcDbSpline
210
0.0
220
0.0
230
1.0
 70
     8
 71
     3
 72
     8
 73
     4
 74
     0
 42
0.0000000001
 43
0.0000000001
 40
0.0
 40
0.0
 40
0.0
 40
0.0
 40
1.0
 40
1.0
 40
1.0
 40
1.0
 10
107.1844362340395
 20
-114.3452574254863
 30
0.0
 10
107.3876368495998
 20
-113.9101500174543
 30
0.0
 10
107.4929566211861
 20
-113.4357330432693
 30
0.0
 10
107.4929566210885
 20
-112.955515439793
 30
0.0
  0
SPLINE
  5
9A
330
70
100
AcDbEntity
  8
Capa 1
 62
    18
420
        0
370
     9
100
AcDbSpline
210
0.0
220
0.0
230
1.0
 70
     8
 71
     3
 72
     8
 73
     4
 74
     0
 42
0.0000000001
 43
0.0000000001
 40
0.0
 40
0.0
 40
0.0
 40
0.0
 40
1.0
 40
1.0
 40
1.0
 40
1.0
 10
104.2086232363163
 20
-116.2398488252378
 30
0.0
 10
104.7978236864726
 20
-116.2398488252378
 30
0.0
 10
105.3762354993695
 20
-116.0813248645917
 30
0.0
 10
105.883106645429
 20
-115.7809271086873
 30
0.0
  0
SPLINE
  5
9B
330
70
100
AcDbEntity
  8
Capa 1
 62
    18
420
        0
370
     9
100
AcDbSpline
210
0.0
220
0.0
230
1.0
 70
     8
 71
     3
 72
     8
 73
     4
 74
     0
 42
0.0000000001
 43
0.0000000001
 40
0.0
 40
0.0
 40
0.0
 40
0.0
 40
1.0
 40
1.0
 40
1.0
 40
1.0
 10
105.883106645429
 20
-115.7809271086873
 30
0.0
 10
106.4513773760897
 20
-115.4441408197832
 30
0.0
 10
106.9049195525788
 20
-114.9437781456821
 30
0.0
 10
107.1844362340395
 20
-114.3452574254863
 30
0.0
  0
SPLINE
  5
9C
330
70
100
AcDbEntity
  8
Capa 1
 62
    18
420
        0
370
     9
100
AcDbSpline
210
0.0
220
0.0
230
1.0
 70
     8
 71
     3
 72
     8
 73
     4
 74
     0
 42
0.0000000001
 43
0.0000000001
 40
0.0
 40
0.0
 40
0.0
 40
0.0
 40
1.0
 40
1.0
 40
1.0
 40
1.0
 10
107.4929566210885
 20
-112.955515439793
 30
0.0
 10
107.492956620966
 20
-112.3663139410473
 30
0.0
 10
107.3344320960925
 20
-111.7879011374575
 30
0.0
 10
107.0340333285066
 20
-111.2810293720631
 30
0.0
  0
SPLINE
  5
9D
330
70
100
AcDbEntity
  8
Capa 1
 62
    18
420
        0
370
     9
100
AcDbSpline
210
0.0
220
0.0
230
1.0
 70
     8
 71
     3
 72
     8
 73
     4
 74
     0
 42
0.0000000001
 43
0.0000000001
 40
0.0
 40
0.0
 40
0.0
 40
0.0
 40
1.0
 40
1.0
 40
1.0
 40
1.0
 10
107.0340333285066
 20
-111.2810293720631
 30
0.0
 10
106.6972423199137
 20
-110.7127518972045
 30
0.0
 10
106.196871079638
 20
-110.2592061540983
 30
0.0
 10
105.5983406107081
 20
-109.9796909493992
 30
0.0
  0
SPLINE
  5
9E
330
70
100
AcDbEntity
  8
Capa 1
 62
    18
420
        0
370
     9
100
AcDbSpline
210
0.0
220
0.0
230
1.0
 70
     8
 71
     3
 72
     8
 73
     4
 74
     0
 42
0.0000000001
 43
0.0000000001
 40
0.0
 40
0.0
 40
0.0
 40
0.0
 40
1.0
 40
1.0
 40
1.0
 40
1.0
 10
105.5983406107081
 20
-109.9796909493992
 30
0.0
 10
105.1632398238911
 20
-109.7764978091909
 30
0.0
 10
104.6888316760832
 20
-109.6711820554979
 30
0.0
 10
104.2086232349706
 20
-109.6711820556971
 30
0.0
  0
SPLINE
  5
9F
330
70
100
AcDbEntity
  8
Capa 1
 62
    18
420
        0
370
     9
100
AcDbSpline
210
0.0
220
0.0
230
1.0
 70
     8
 71
     3
 72
    11
 73
     7
 74
     0
 42
0.0000000001
 43
0.0000000001
 40
0.0
 40
0.0
 40
0.0
 40
0.0
 40
1.0
 40
1.0
 40
1.0
 40
2.0
 40
2.0
 40
2.0
 40
2.0
 10
104.2086232349706
 20
-109.6711820556971
 30
0.0
 10
103.3375885153301
 20
-109.6711820560523
 30
0.0
 10
102.5021633851359
 20
-110.0172264755342
 30
0.0
 10
101.8862488282372
 20
-110.6331410324481
 30
0.0
 10
101.2703342713407
 20
-111.2490555893612
 30
0.0
 10
100.9242898518825
 20
-112.0844807195628
 30
0.0
 10
100.9242898515482
 20
-112.9555154392033
 30
0.0
  0
SPLINE
  5
A0
330
70
100
AcDbEntity
  8
Capa 1
 62
    18
420
        0
370
     9
100
AcDbSpline
210
0.0
220
0.0
230
1.0
 70
     8
 71
     3
 72
    11
 73
     7
 74
     0
 42
0.0000000001
 43
0.0000000001
 40
0.0
 40
0.0
 40
0.0
 40
0.0
 40
1.0
 40
1.0
 40
1.0
 40
2.0
 40
2.0
 40
2.0
 40
2.0
 10
100.9242898515482
 20
-112.9555154392033
 30
0.0
 10
100.9242898512113
 20
-113.826550159413
 30
0.0
 10
101.2703342704796
 20
-114.6619752903766
 30
0.0
 10
101.8862488276141
 20
-115.2778898478587
 30
0.0
 10
102.5021633847477
 20
-115.8938044053433
 30
0.0
 10
103.3375885155188
 20
-116.2398488250825
 30
0.0
 10
104.2086232357285
 20
-116.2398488252378
 30
0.0
  0
LINE
  5
A1
330
70
100
AcDbEntity
  8
Capa 1
 62
    18
420
        0
370
     9
100
AcDbLine
 10
140.4276330937148
 20
-132.0685111101755
 30
0.0
 11
140.4162636483572
 21
-132.0571416130546
 31
0.0
  0
LINE
  5
A2
330
70
100
AcDbEntity
  8
Capa 1
 62
    18
420
        0
370
     9
100
AcDbLine
 10
68.00098282427668
 20
-132.0571416130546
 30
0.0
 11
67.98961337892134
 21
-132.0685111101755
 31
0.0
  0
LINE
  5
A3
330
70
100
AcDbEntity
  8
Capa 1
 62
    18
420
        0
370
     9
100
AcDbLine
 10
67.98961337892134
 20
-132.0685111101755
 30
0.0
 11
140.4276330937148
 21
-132.0685111101755
 31
0.0
  0
SPLINE
  5
A4
330
70
100
AcDbEntity
  8
Capa 1
 62
    18
420
        0
370
     9
100
AcDbSpline
210
0.0
220
0.0
230
1.0
 70
     8
 71
     3
 72
    14
 73
    10
 74
     0
 42
0.0000000001
 43
0.0000000001
 40
0.0
 40
0.0
 40
0.0
 40
0.0
 40
1.0
 40
1.0
 40
1.0
 40
2.0
 40
2.0
 40
2.0
 40
3.0
 40
3.0
 40
3.0
 40
3.0
 10
104.2086232363163
 20
-115.0539868458319
 30
0.0
 10
104.9582254059769
 20
-115.0539868458319
 30
0.0
 10
105.6511516978824
 20
-114.6539256646104
 30
0.0
 10
106.0259527826235
 20
-114.0047511429017
 30
0.0
 10
106.4007538673634
 20
-113.3555766211942
 30
0.0
 10
106.400753867203
 20
-112.5554542588411
 30
0.0
 10
106.025952782191
 20
-111.9062797372851
 30
0.0
 10
105.6511516971868
 20
-111.2571052157335
 30
0.0
 10
104.9582254051158
 20
-110.8570440347925
 30
0.0
 10
104.2086232354564
 20
-110.8570440350992
 30
0.0
  0
SPLINE
  5
A5
330
70
100
AcDbEntity
  8
Capa 1
 62
    18
420
        0
370
     9
100
AcDbSpline
210
0.0
220
0.0
230
1.0
 70
     8
 71
     3
 72
    17
 73
    13
 74
     0
 42
0.0000000001
 43
0.0000000001
 40
0.0
 40
0.0
 40
0.0
 40
0.0
 40
1.0
 40
1.0
 40
1.0
 40
2.0
 40
2.0
 40
2.0
 40
3.0
 40
3.0
 40
3.0
 40
4.0
 40
4.0
 40
4.0
 40
4.0
 10
104.2086232354564
 20
-110.8570440350992
 30
0.0
 10
103.6520897661949
 20
-110.8570440353286
 30
0.0
 10
103.1183084650382
 20
-111.0781434898199
 30
0.0
 10
102.724779875066
 20
-111.4716720799952
 30
0.0
 10
102.3312512850976
 20
-111.8652006701744
 30
0.0
 10
102.110151830887
 20
-112.3989819714459
 30
0.0
 10
102.1101518309499
 20
-112.9555154407081
 30
0.0
 10
102.1101518310167
 20
-113.5120489099703
 30
0.0
 10
102.3312512853492
 20
-114.045830211193
 30
0.0
 10
102.7247798754099
 20
-114.4393588012795
 30
0.0
 10
103.1183084654707
 20
-114.8328873913647
 30
0.0
 10
103.6520897666768
 20
-115.0539868457344
 30
0.0
 10
104.2086232359428
 20
-115.0539868458319
 30
0.0
  0
INSERT
  5
A7
330
70
100
AcDbEntity
  8
Capa 1
100
AcDbBlockReference
  2
Block_0
 10
0.0
 20
0.0
 30
0.0
  0
MTEXT
  5
AE
330
70
100
AcDbEntity
  8
Capa 1
100
AcDbMText
 10
146.8339933451649
 20
-113.4489752592331
 30
0.0
 40
0.2
 41
0.0
 46
0.0
 71
     7
 72
     1
  1
\C18;\c0;\FArial Bold|b1|i0|c1;\H2.497667;\W1.000000;460
 11
0.0000000000000176
 21
1.0
 31
0.0
 73
     1
 44
1.0
  0
LINE
  5
AF
330
70
100
AcDbEntity
  8
Capa 1
 62
    18
420
        0
370
     9
100
AcDbLine
 10
68.81004813870507
 20
-171.3552944532446
 30
0.0
 11
141.3575767697602
 21
-171.3552944532446
 31
0.0
  0
LINE
  5
B0
330
70
100
AcDbEntity
  8
Capa 1
 62
    18
420
        0
370
     9
100
AcDbLine
 10
68.81004813870507
 20
-149.2159477587716
 30
0.0
 11
68.81004813870507
 21
-171.3552944532446
 31
0.0
  0
LINE
  5
B1
330
70
100
AcDbEntity
  8
Capa 1
 62
    18
420
        0
370
     9
100
AcDbLine
 10
141.3575767697602
 20
-171.3552944532446
 30
0.0
 11
141.3575767697602
 21
-149.2159477587716
 31
0.0
  0
LINE
  5
B2
330
70
100
AcDbEntity
  8
Capa 1
 62
    18
420
        0
370
     9
100
AcDbLine
 10
68.81004813870507
 20
-171.721234068026
 30
0.0
 11
68.81004813870507
 21
-193.8605807624978
 31
0.0
  0
LINE
  5
B3
330
70
100
AcDbEntity
  8
Capa 1
 62
    18
420
        0
370
     9
100
AcDbLine
 10
141.3575767697602
 20
-193.8605807624978
 30
0.0
 11
141.3575767697602
 21
-171.721234068026
 31
0.0
  0
LINE
  5
B4
330
70
100
AcDbEntity
  8
Capa 1
 62
    18
420
        0
370
     9
100
AcDbLine
 10
68.81004813870507
 20
-193.8605807624978
 30
0.0
 11
141.3575767697602
 21
-193.8605807624978
 31
0.0
  0
LINE
  5
B5
330
70
100
AcDbEntity
  8
Capa 1
 62
    18
420
        0
370
     9
100
AcDbLine
 10
68.81004813870507
 20
-216.3658670717522
 30
0.0
 11
141.3575767697602
 21
-216.3658670717522
 31
0.0
  0
LINE
  5
B6
330
70
100
AcDbEntity
  8
Capa 1
 62
    18
420
        0
370
     9
100
AcDbLine
 10
68.81004813870507
 20
-194.2265203772824
 30
0.0
 11
68.81004813870507
 21
-216.3658670717522
 31
0.0
  0
LINE
  5
B7
330
70
100
AcDbEntity
  8
Capa 1
 62
    18
420
        0
370
     9
100
AcDbLine
 10
141.3575767697602
 20
-216.3658670717522
 30
0.0
 11
141.3575767697602
 21
-194.2265203772824
 31
0.0
  0
LINE
  5
B8
330
70
100
AcDbEntity
  8
Capa 1
 62
    18
420
        0
370
     9
100
AcDbLine
 10
70.18232169414803
 20
-216.4116095236005
 30
0.0
 11
71.09717073110937
 21
-216.4116095236005
 31
0.0
  0
LINE
  5
B9
330
70
100
AcDbEntity
  8
Capa 1
 62
    18
420
        0
370
     9
100
AcDbLine
 10
74.29914236047467
 20
-216.4116095236005
 30
0.0
 11
135.8684825479916
 21
-216.4116095236005
 31
0.0
  0
LINE
  5
BA
330
70
100
AcDbEntity
  8
Capa 1
 62
    18
420
        0
370
     9
100
AcDbLine
 10
139.0704541773562
 20
-216.4116095236005
 30
0.0
 11
139.9853032143182
 21
-216.4116095236005
 31
0.0
  0
LINE
  5
BB
330
70
100
AcDbEntity
  8
Capa 1
 62
    18
420
        0
370
     9
100
AcDbLine
 10
71.09717073110937
 20
-216.3658670717522
 30
0.0
 11
71.09717073110937
 21
-226.4292064783307
 31
0.0
  0
LINE
  5
BC
330
70
100
AcDbEntity
  8
Capa 1
 62
    18
420
        0
370
     9
100
AcDbLine
 10
71.09717073110937
 20
-226.4292064783307
 30
0.0
 11
74.29914236047467
 21
-226.4292064783307
 31
0.0
  0
LINE
  5
BD
330
70
100
AcDbEntity
  8
Capa 1
 62
    18
420
        0
370
     9
100
AcDbLine
 10
74.29914236047467
 20
-216.3658670717522
 30
0.0
 11
74.29914236047467
 21
-226.4292064783307
 31
0.0
  0
LINE
  5
BE
330
70
100
AcDbEntity
  8
Capa 1
 62
    18
420
        0
370
     9
100
AcDbLine
 10
135.8684825479916
 20
-216.3658670717522
 30
0.0
 11
135.8684825479916
 21
-226.4292064783307
 31
0.0
  0
LINE
  5
BF
330
70
100
AcDbEntity
  8
Capa 1
 62
    18
420
        0
370
     9
100
AcDbLine
 10
139.0704541773562
 20
-216.3658670717522
 30
0.0
 11
139.0704541773562
 21
-226.4292064783307
 31
0.0
  0
LINE
  5
C0
330
70
100
AcDbEntity
  8
Capa 1
 62
    18
420
        0
370
     9
100
AcDbLine
 10
135.8684825479916
 20
-226.4292064783307
 30
0.0
 11
139.0704541773562
 21
-226.4292064783307
 31
0.0
  0
LINE
  5
C1
330
70
100
AcDbEntity
  8
Capa 1
 62
    18
420
        0
370
     9
100
AcDbLine
 10
68.71856323500939
 20
-216.4573519754501
 30
0.0
 11
68.71856323500939
 21
-148.7585232402896
 31
0.0
  0
LINE
  5
C2
330
70
100
AcDbEntity
  8
Capa 1
 62
    18
420
        0
370
     9
100
AcDbLine
 10
70.18232169414803
 20
-216.4573519754501
 30
0.0
 11
70.18232169414803
 21
-216.3658670717522
 31
0.0
  0
LINE
  5
C3
330
70
100
AcDbEntity
  8
Capa 1
 62
    18
420
        0
370
     9
100
AcDbLine
 10
70.18232169414803
 20
-194.1167384928473
 30
0.0
 11
70.18232169414803
 21
-193.8605807624978
 31
0.0
  0
LINE
  5
C4
330
70
100
AcDbEntity
  8
Capa 1
 62
    18
420
        0
370
     9
100
AcDbLine
 10
70.18232169414803
 20
-171.6114521835916
 30
0.0
 11
70.18232169414803
 21
-171.3552944532446
 31
0.0
  0
LINE
  5
C5
330
70
100
AcDbEntity
  8
Capa 1
 62
    18
420
        0
370
     9
100
AcDbLine
 10
70.18232169414803
 20
-149.1061658743359
 30
0.0
 11
70.18232169414803
 21
-148.7585232402896
 31
0.0
  0
LINE
  5
C6
330
70
100
AcDbEntity
  8
Capa 1
 62
    18
420
        0
370
     9
100
AcDbLine
 10
68.71856323500939
 20
-148.7585232402896
 30
0.0
 11
70.18232169414803
 21
-148.7585232402896
 31
0.0
  0
LINE
  5
C7
330
70
100
AcDbEntity
  8
Capa 1
 62
    18
420
        0
370
     9
100
AcDbLine
 10
68.71856323500939
 20
-216.4573519754501
 30
0.0
 11
70.18232169414803
 21
-216.4573519754501
 31
0.0
  0
LINE
  5
C8
330
70
100
AcDbEntity
  8
Capa 1
 62
    18
420
        0
370
     9
100
AcDbLine
 10
139.9853032143182
 20
-216.4573519754501
 30
0.0
 11
141.4490616734562
 21
-216.4573519754501
 31
0.0
  0
LINE
  5
C9
330
70
100
AcDbEntity
  8
Capa 1
 62
    18
420
        0
370
     9
100
AcDbLine
 10
139.9853032143182
 20
-216.4573519754501
 30
0.0
 11
139.9853032143182
 21
-216.3658670717522
 31
0.0
  0
LINE
  5
CA
330
70
100
AcDbEntity
  8
Capa 1
 62
    18
420
        0
370
     9
100
AcDbLine
 10
139.9853032143182
 20
-194.1167384928473
 30
0.0
 11
139.9853032143182
 21
-193.8605807624978
 31
0.0
  0
LINE
  5
CB
330
70
100
AcDbEntity
  8
Capa 1
 62
    18
420
        0
370
     9
100
AcDbLine
 10
139.9853032143182
 20
-171.6114521835916
 30
0.0
 11
139.9853032143182
 21
-171.3552944532446
 31
0.0
  0
LINE
  5
CC
330
70
100
AcDbEntity
  8
Capa 1
 62
    18
420
        0
370
     9
100
AcDbLine
 10
139.9853032143182
 20
-149.1061658743359
 30
0.0
 11
139.9853032143182
 21
-148.7585232402896
 31
0.0
  0
LINE
  5
CD
330
70
100
AcDbEntity
  8
Capa 1
 62
    18
420
        0
370
     9
100
AcDbLine
 10
141.4490616734562
 20
-216.4573519754501
 30
0.0
 11
141.4490616734562
 21
-148.7585232402896
 31
0.0
  0
LINE
  5
CE
330
70
100
AcDbEntity
  8
Capa 1
 62
    18
420
        0
370
     9
100
AcDbLine
 10
139.9853032143182
 20
-148.7585232402896
 30
0.0
 11
141.4490616734562
 21
-148.7585232402896
 31
0.0
  0
LINE
  5
CF
330
70
100
AcDbEntity
  8
Capa 1
 62
    18
420
        0
370
     9
100
AcDbLine
 10
139.9853032143182
 20
-148.8500081439876
 30
0.0
 11
70.18232169414803
 21
-148.8500081439876
 31
0.0
  0
LINE
  5
D0
330
70
100
AcDbEntity
  8
Capa 1
 62
    18
420
        0
370
     9
100
AcDbLine
 10
140.0316834159815
 20
-149.4721054891218
 30
0.0
 11
139.6376605802726
 21
-149.4721054891218
 31
0.0
  0
LINE
  5
D1
330
70
100
AcDbEntity
  8
Capa 1
 62
    18
420
        0
370
     9
100
AcDbLine
 10
139.6376605802726
 20
-149.4721054891218
 30
0.0
 11
139.6376605802726
 21
-149.1061658743359
 31
0.0
  0
LINE
  5
D2
330
70
100
AcDbEntity
  8
Capa 1
 62
    18
420
        0
370
     9
100
AcDbLine
 10
141.3575767697602
 20
-149.2159477587716
 30
0.0
 11
141.3575767697602
 21
-149.1061658743359
 31
0.0
  0
LINE
  5
D3
330
70
100
AcDbEntity
  8
Capa 1
 62
    18
420
        0
370
     9
100
AcDbLine
 10
141.3575767697602
 20
-149.2159477587716
 30
0.0
 11
140.5697296835728
 21
-149.2159477587716
 31
0.0
  0
SPLINE
  5
D4
330
70
100
AcDbEntity
  8
Capa 1
 62
    18
420
        0
370
     9
100
AcDbSpline
210
0.0
220
0.0
230
1.0
 70
     8
 71
     3
 72
     8
 73
     4
 74
     0
 42
0.0000000001
 43
0.0000000001
 40
0.0
 40
0.0
 40
0.0
 40
0.0
 40
1.0
 40
1.0
 40
1.0
 40
1.0
 10
140.0316834159815
 20
-149.4721054891218
 30
0.0
 10
140.2227702933227
 20
-149.4217357439896
 30
0.0
 10
140.4047475708926
 20
-149.3350984244775
 30
0.0
 10
140.5697296835728
 20
-149.2159477587716
 30
0.0
  0
LINE
  5
D5
330
70
100
AcDbEntity
  8
Capa 1
 62
    18
420
        0
370
     9
100
AcDbLine
 10
141.3575767697602
 20
-149.1061658743359
 30
0.0
 11
139.6376605802726
 21
-149.1061658743359
 31
0.0
  0
LINE
  5
D6
330
70
100
AcDbEntity
  8
Capa 1
 62
    18
420
        0
370
     9
100
AcDbLine
 10
70.52996432819362
 20
-149.4721054891218
 30
0.0
 11
70.52996432819362
 21
-149.1061658743359
 31
0.0
  0
LINE
  5
D7
330
70
100
AcDbEntity
  8
Capa 1
 62
    18
420
        0
370
     9
100
AcDbLine
 10
139.6376605802726
 20
-149.4721054891218
 30
0.0
 11
70.52996432819362
 21
-149.4721054891218
 31
0.0
  0
LINE
  5
D8
330
70
100
AcDbEntity
  8
Capa 1
 62
    18
420
        0
370
     9
100
AcDbLine
 10
139.6376605802726
 20
-149.1061658743359
 30
0.0
 11
70.52996432819362
 21
-149.1061658743359
 31
0.0
  0
SPLINE
  5
D9
330
70
100
AcDbEntity
  8
Capa 1
 62
    18
420
        0
370
     9
100
AcDbSpline
210
0.0
220
0.0
230
1.0
 70
     8
 71
     3
 72
     8
 73
     4
 74
     0
 42
0.0000000001
 43
0.0000000001
 40
0.0
 40
0.0
 40
0.0
 40
0.0
 40
1.0
 40
1.0
 40
1.0
 40
1.0
 10
69.59789522489341
 20
-149.2159477587716
 30
0.0
 10
69.76287733757203
 20
-149.3350984244775
 30
0.0
 10
69.94485461514227
 20
-149.4217357439896
 30
0.0
 10
70.13594149248473
 20
-149.4721054891218
 30
0.0
  0
LINE
  5
DA
330
70
100
AcDbEntity
  8
Capa 1
 62
    18
420
        0
370
     9
100
AcDbLine
 10
68.81004813870507
 20
-149.2159477587716
 30
0.0
 11
69.59789522489341
 21
-149.2159477587716
 31
0.0
  0
LINE
  5
DB
330
70
100
AcDbEntity
  8
Capa 1
 62
    18
420
        0
370
     9
100
AcDbLine
 10
68.81004813870507
 20
-149.2159477587716
 30
0.0
 11
68.81004813870507
 21
-149.1061658743359
 31
0.0
  0
LINE
  5
DC
330
70
100
AcDbEntity
  8
Capa 1
 62
    18
420
        0
370
     9
100
AcDbLine
 10
70.13594149248473
 20
-149.4721054891218
 30
0.0
 11
70.52996432819362
 21
-149.4721054891218
 31
0.0
  0
LINE
  5
DD
330
70
100
AcDbEntity
  8
Capa 1
 62
    18
420
        0
370
     9
100
AcDbLine
 10
68.81004813870507
 20
-149.1061658743359
 30
0.0
 11
70.52996432819362
 21
-149.1061658743359
 31
0.0
  0
LINE
  5
DE
330
70
100
AcDbEntity
  8
Capa 1
 62
    18
420
        0
370
     9
100
AcDbLine
 10
139.6376605802726
 20
-194.4826781076326
 30
0.0
 11
139.6376605802726
 21
-194.1167384928473
 31
0.0
  0
LINE
  5
DF
330
70
100
AcDbEntity
  8
Capa 1
 62
    18
420
        0
370
     9
100
AcDbLine
 10
141.3575767697602
 20
-194.2265203772824
 30
0.0
 11
141.3575767697602
 21
-194.1167384928473
 31
0.0
  0
LINE
  5
E0
330
70
100
AcDbEntity
  8
Capa 1
 62
    18
420
        0
370
     9
100
AcDbLine
 10
141.3575767697602
 20
-194.2265203772824
 30
0.0
 11
140.5697296835728
 21
-194.2265203772824
 31
0.0
  0
SPLINE
  5
E1
330
70
100
AcDbEntity
  8
Capa 1
 62
    18
420
        0
370
     9
100
AcDbSpline
210
0.0
220
0.0
230
1.0
 70
     8
 71
     3
 72
     8
 73
     4
 74
     0
 42
0.0000000001
 43
0.0000000001
 40
0.0
 40
0.0
 40
0.0
 40
0.0
 40
1.0
 40
1.0
 40
1.0
 40
1.0
 10
140.0316834159815
 20
-194.4826781076326
 30
0.0
 10
140.2227702933227
 20
-194.4323083625005
 30
0.0
 10
140.4047475708926
 20
-194.3456710429902
 30
0.0
 10
140.5697296835728
 20
-194.2265203772824
 30
0.0
  0
LINE
  5
E2
330
70
100
AcDbEntity
  8
Capa 1
 62
    18
420
        0
370
     9
100
AcDbLine
 10
140.0316834159815
 20
-194.4826781076326
 30
0.0
 11
139.6376605802726
 21
-194.4826781076326
 31
0.0
  0
LINE
  5
E3
330
70
100
AcDbEntity
  8
Capa 1
 62
    18
420
        0
370
     9
100
AcDbLine
 10
141.3575767697602
 20
-194.1167384928473
 30
0.0
 11
139.6376605802726
 21
-194.1167384928473
 31
0.0
  0
LINE
  5
E4
330
70
100
AcDbEntity
  8
Capa 1
 62
    18
420
        0
370
     9
100
AcDbLine
 10
70.52996432819362
 20
-194.4826781076326
 30
0.0
 11
70.52996432819362
 21
-194.1167384928473
 31
0.0
  0
LINE
  5
E5
330
70
100
AcDbEntity
  8
Capa 1
 62
    18
420
        0
370
     9
100
AcDbLine
 10
139.6376605802726
 20
-194.4826781076326
 30
0.0
 11
70.52996432819362
 21
-194.4826781076326
 31
0.0
  0
LINE
  5
E6
330
70
100
AcDbEntity
  8
Capa 1
 62
    18
420
        0
370
     9
100
AcDbLine
 10
139.6376605802726
 20
-194.1167384928473
 30
0.0
 11
70.52996432819362
 21
-194.1167384928473
 31
0.0
  0
SPLINE
  5
E7
330
70
100
AcDbEntity
  8
Capa 1
 62
    18
420
        0
370
     9
100
AcDbSpline
210
0.0
220
0.0
230
1.0
 70
     8
 71
     3
 72
     8
 73
     4
 74
     0
 42
0.0000000001
 43
0.0000000001
 40
0.0
 40
0.0
 40
0.0
 40
0.0
 40
1.0
 40
1.0
 40
1.0
 40
1.0
 10
69.59789522489341
 20
-194.2265203772824
 30
0.0
 10
69.76287733757203
 20
-194.3456710429902
 30
0.0
 10
69.94485461514227
 20
-194.4323083625005
 30
0.0
 10
70.13594149248473
 20
-194.4826781076326
 30
0.0
  0
LINE
  5
E8
330
70
100
AcDbEntity
  8
Capa 1
 62
    18
420
        0
370
     9
100
AcDbLine
 10
68.81004813870507
 20
-194.2265203772824
 30
0.0
 11
69.59789522489341
 21
-194.2265203772824
 31
0.0
  0
LINE
  5
E9
330
70
100
AcDbEntity
  8
Capa 1
 62
    18
420
        0
370
     9
100
AcDbLine
 10
68.81004813870507
 20
-194.2265203772824
 30
0.0
 11
68.81004813870507
 21
-194.1167384928473
 31
0.0
  0
LINE
  5
EA
330
70
100
AcDbEntity
  8
Capa 1
 62
    18
420
        0
370
     9
100
AcDbLine
 10
70.13594149248473
 20
-194.4826781076326
 30
0.0
 11
70.52996432819362
 21
-194.4826781076326
 31
0.0
  0
LINE
  5
EB
330
70
100
AcDbEntity
  8
Capa 1
 62
    18
420
        0
370
     9
100
AcDbLine
 10
68.81004813870507
 20
-194.1167384928473
 30
0.0
 11
70.52996432819362
 21
-194.1167384928473
 31
0.0
  0
LINE
  5
EC
330
70
100
AcDbEntity
  8
Capa 1
 62
    18
420
        0
370
     9
100
AcDbLine
 10
140.0316834159815
 20
-171.9773917983763
 30
0.0
 11
139.6376605802726
 21
-171.9773917983763
 31
0.0
  0
LINE
  5
ED
330
70
100
AcDbEntity
  8
Capa 1
 62
    18
420
        0
370
     9
100
AcDbLine
 10
139.6376605802726
 20
-171.9773917983763
 30
0.0
 11
139.6376605802726
 21
-171.6114521835916
 31
0.0
  0
LINE
  5
EE
330
70
100
AcDbEntity
  8
Capa 1
 62
    18
420
        0
370
     9
100
AcDbLine
 10
141.3575767697602
 20
-171.721234068026
 30
0.0
 11
141.3575767697602
 21
-171.6114521835916
 31
0.0
  0
LINE
  5
EF
330
70
100
AcDbEntity
  8
Capa 1
 62
    18
420
        0
370
     9
100
AcDbLine
 10
141.3575767697602
 20
-171.721234068026
 30
0.0
 11
140.5697296835728
 21
-171.721234068026
 31
0.0
  0
SPLINE
  5
F0
330
70
100
AcDbEntity
  8
Capa 1
 62
    18
420
        0
370
     9
100
AcDbSpline
210
0.0
220
0.0
230
1.0
 70
     8
 71
     3
 72
     8
 73
     4
 74
     0
 42
0.0000000001
 43
0.0000000001
 40
0.0
 40
0.0
 40
0.0
 40
0.0
 40
1.0
 40
1.0
 40
1.0
 40
1.0
 10
140.0316834159815
 20
-171.9773917983763
 30
0.0
 10
140.2227702933227
 20
-171.927022053246
 30
0.0
 10
140.4047475708926
 20
-171.8403847337332
 30
0.0
 10
140.5697296835728
 20
-171.721234068026
 30
0.0
  0
LINE
  5
F1
330
70
100
AcDbEntity
  8
Capa 1
 62
    18
420
        0
370
     9
100
AcDbLine
 10
141.3575767697602
 20
-171.6114521835916
 30
0.0
 11
139.6376605802726
 21
-171.6114521835916
 31
0.0
  0
LINE
  5
F2
330
70
100
AcDbEntity
  8
Capa 1
 62
    18
420
        0
370
     9
100
AcDbLine
 10
70.52996432819362
 20
-171.9773917983763
 30
0.0
 11
70.52996432819362
 21
-171.6114521835916
 31
0.0
  0
LINE
  5
F3
330
70
100
AcDbEntity
  8
Capa 1
 62
    18
420
        0
370
     9
100
AcDbLine
 10
139.6376605802726
 20
-171.9773917983763
 30
0.0
 11
70.52996432819362
 21
-171.9773917983763
 31
0.0
  0
LINE
  5
F4
330
70
100
AcDbEntity
  8
Capa 1
 62
    18
420
        0
370
     9
100
AcDbLine
 10
139.6376605802726
 20
-171.6114521835916
 30
0.0
 11
70.52996432819362
 21
-171.6114521835916
 31
0.0
  0
SPLINE
  5
F5
330
70
100
AcDbEntity
  8
Capa 1
 62
    18
420
        0
370
     9
100
AcDbSpline
210
0.0
220
0.0
230
1.0
 70
     8
 71
     3
 72
     8
 73
     4
 74
     0
 42
0.0000000001
 43
0.0000000001
 40
0.0
 40
0.0
 40
0.0
 40
0.0
 40
1.0
 40
1.0
 40
1.0
 40
1.0
 10
69.59789522489341
 20
-171.721234068026
 30
0.0
 10
69.76287733757203
 20
-171.8403847337332
 30
0.0
 10
69.94485461514227
 20
-171.927022053246
 30
0.0
 10
70.13594149248473
 20
-171.9773917983782
 30
0.0
  0
LINE
  5
F6
330
70
100
AcDbEntity
  8
Capa 1
 62
    18
420
        0
370
     9
100
AcDbLine
 10
68.81004813870507
 20
-171.721234068026
 30
0.0
 11
69.59789522489341
 21
-171.721234068026
 31
0.0
  0
LINE
  5
F7
330
70
100
AcDbEntity
  8
Capa 1
 62
    18
420
        0
370
     9
100
AcDbLine
 10
68.81004813870507
 20
-171.721234068026
 30
0.0
 11
68.81004813870507
 21
-171.6114521835916
 31
0.0
  0
LINE
  5
F8
330
70
100
AcDbEntity
  8
Capa 1
 62
    18
420
        0
370
     9
100
AcDbLine
 10
70.13594149248473
 20
-171.9773917983763
 30
0.0
 11
70.52996432819362
 21
-171.9773917983763
 31
0.0
  0
LINE
  5
F9
330
70
100
AcDbEntity
  8
Capa 1
 62
    18
420
        0
370
     9
100
AcDbLine
 10
68.81004813870507
 20
-171.6114521835916
 30
0.0
 11
70.52996432819362
 21
-171.6114521835916
 31
0.0
  0
INSERT
  5
FB
330
70
100
AcDbEntity
  8
Capa 1
100
AcDbBlockReference
  2
Block_1
 10
0.0
 20
0.0
 30
0.0
  0
INSERT
  5
102
330
70
100
AcDbEntity
  8
Capa 1
100
AcDbBlockReference
  2
Block_2
 10
0.0
 20
0.0
 30
0.0
  0
INSERT
  5
109
330
70
100
AcDbEntity
  8
Capa 1
100
AcDbBlockReference
  2
Block_3
 10
0.0
 20
0.0
 30
0.0
  0
MTEXT
  5
10F
330
70
100
AcDbEntity
  8
Capa 1
100
AcDbMText
 10
146.8208239293744
 20
-184.8210534164031
 30
0.0
 40
0.2
 41
0.0
 46
0.0
 71
     7
 72
     1
  1
\C18;\c0;\FArial Bold|b1|i0|c1;\H2.497667;\W1.000000;740
 11
0.0000000000000176
 21
1.0
 31
0.0
 73
     1
 44
1.0
  0
MTEXT
  5
110
330
70
100
AcDbEntity
  8
Capa 1
100
AcDbMText
 10
146.8208239293744
 20
-224.173690125315
 30
0.0
 40
0.2
 41
0.0
 46
0.0
 71
     7
 72
     1
  1
\C18;\c0;\FArial Bold|b1|i0|c1;\H2.497667;\W1.000000;110
 11
0.0000000000000176
 21
1.0
 31
0.0
 73
     1
 44
1.0
  0
MTEXT
  5
111
330
70
100
AcDbEntity
  8
Capa 1
100
AcDbMText
 10
93.15278144600391
 20
-237.6116295750304
 30
0.0
 40
0.2
 41
0.0
 46
0.0
 71
     7
 72
     1
  1
\C18;\c0;\FArial Bold|b1|i0|c1;\H2.497667;\W1.000000;600/800/1000
 73
     1
 44
1.0
  0
ENDSEC
  0
SECTION
  2
OBJECTS
  0
DICTIONARY
  5
C
330
0
100
AcDbDictionary
281
     1
  3
ACAD_COLOR
350
63
  3
ACAD_DETAILVIEWSTYLE
350
6A
  3
ACAD_GROUP
350
D
  3
ACAD_LAYOUT
350
62
  3
ACAD_MATERIAL
350
10
  3
ACAD_MLEADERSTYLE
350
66
  3
ACAD_MLINESTYLE
350
5F
  3
ACAD_PLOTSETTINGS
350
61
  3
ACAD_PLOTSTYLENAME
350
E
  3
ACAD_SCALELIST
350
42
  3
ACAD_SECTIONVIEWSTYLE
350
68
  3
ACAD_TABLESTYLE
350
64
  3
ACAD_VISUALSTYLE
350
29
  3
ACDB_RECOMPOSE_DATA
350
11B
  3
AcDbVariableDictionary
350
112
  0
DICTIONARY
  5
63
102
{ACAD_REACTORS
330
C
102
}
330
C
100
AcDbDictionary
281
     1
  0
DICTIONARY
  5
6A
102
{ACAD_REACTORS
330
C
102
}
330
C
100
AcDbDictionary
281
     1
  3
Imperial24
350
6B
  0
DICTIONARY
  5
D
102
{ACAD_REACTORS
330
C
102
}
330
C
100
AcDbDictionary
281
     1
  0
DICTIONARY
  5
62
102
{ACAD_REACTORS
330
C
102
}
330
C
100
AcDbDictionary
281
     1
  3
Layout1
350
6F
  3
Layout2
350
77
  3
Model
350
73
  0
DICTIONARY
  5
10
102
{ACAD_REACTORS
330
C
102
}
330
C
100
AcDbDictionary
281
     1
  3
ByBlock
350
19
  3
ByLayer
350
11
  3
Global
350
21
  0
DICTIONARY
  5
66
102
{ACAD_REACTORS
330
C
102
}
330
C
100
AcDbDictionary
281
     1
  3
Standard
350
67
  0
DICTIONARY
  5
5F
102
{ACAD_REACTORS
330
C
102
}
330
C
100
AcDbDictionary
281
     1
  3
Standard
350
60
  0
DICTIONARY
  5
61
102
{ACAD_REACTORS
330
C
102
}
330
C
100
AcDbDictionary
281
     1
  0
ACDBDICTIONARYWDFLT
  5
E
102
{ACAD_REACTORS
330
C
102
}
330
C
100
AcDbDictionary
281
     1
  3
Normal
350
F
100
AcDbDictionaryWithDefault
340
F
  0
DICTIONARY
  5
42
102
{ACAD_REACTORS
330
C
102
}
330
C
100
AcDbDictionary
281
     1
  3
A0
350
43
  3
A1
350
44
  3
A2
350
45
  3
A3
350
46
  3
A4
350
47
  3
A5
350
48
  3
A6
350
49
  3
A7
350
4A
  3
A8
350
4B
  3
A9
350
4C
  3
B0
350
4D
  3
B1
350
4E
  3
B2
350
4F
  3
B3
350
50
  3
B4
350
51
  3
B5
350
52
  3
B6
350
53
  0
DICTIONARY
  5
68
102
{ACAD_REACTORS
330
C
102
}
330
C
100
AcDbDictionary
281
     1
  3
Imperial24
350
69
  0
DICTIONARY
  5
64
102
{ACAD_REACTORS
330
C
102
}
330
C
100
AcDbDictionary
281
     1
  3
Standard
350
65
  0
DICTIONARY
  5
29
102
{ACAD_REACTORS
330
C
102
}
330
C
100
AcDbDictionary
281
     1
  3
2dWireframe
350
2F
  3
Basic
350
2E
  3
Brighten
350
35
  3
ColorChange
350
39
  3
Conceptual
350
32
  3
Dim
350
34
  3
EdgeColorOff
350
41
  3
Facepattern
350
38
  3
Flat
350
2A
  3
FlatWithEdges
350
2B
  3
Gouraud
350
2C
  3
GouraudWithEdges
350
2D
  3
Hidden
350
31
  3
JitterOff
350
3F
  3
Linepattern
350
37
  3
OverhangOff
350
40
  3
Realistic
350
33
  3
Shaded
350
3E
  3
Shaded with edges
350
3D
  3
Shades of Gray
350
3A
  3
Sketchy
350
3B
  3
Thicken
350
36
  3
Wireframe
350
30
  3
X-Ray
350
3C
  0
XRECORD
  5
11B
102
{ACAD_REACTORS
330
C
102
}
330
C
100
AcDbXrecord
280
     1
 90
        1
330
65
  0
DICTIONARY
  5
112
102
{ACAD_REACTORS
330
C
102
}
330
C
100
AcDbDictionary
281
     1
  3
CANNOSCALE
350
117
  3
CMLEADERSTYLE
350
114
  3
CTABLESTYLE
350
113
  3
CVIEWDETAILSTYLE
350
115
  3
CVIEWSECTIONSTYLE
350
116
  0
ACDBDETAILVIEWSTYLE
  5
6B
102
{ACAD_XDICTIONARY
360
150
102
}
102
{ACAD_REACTORS
330
6A
102
}
330
6A
100
AcDbModelDocViewStyle
 70
     0
  3
Imperial24
290
     0
100
AcDbDetailViewStyle
 70
     0
 71
     0
 90
        3
 71
     1
340
55
 62
   256
 40
0.24
340
0
 62
   256
 40
0.24
300

 40
0.36
280
     3
 71
     2
340
5D
 90
       25
 62
   256
 71
     3
340
55
 62
   256
 40
0.24
 90
        1
 40
0.75
 90
        1
300
%<\AcVar ViewType \f "%tc1">% %<\AcVar ViewDetailId>%\PSCALE %<\AcVar ViewScale \f "%sn">%
 71
     4
340
5D
 90
       25
 62
   256
340
5D
 90
       25
 62
   256
280
     0
  0
LAYOUT
  5
6F
102
{ACAD_REACTORS
330
62
102
}
330
62
100
AcDbPlotSettings
  1

  2

  4

  6

 40
0.0
 41
0.0
 42
0.0
 43
0.0
 44
0.0
 45
0.0
 46
0.0
 47
0.0
 48
0.0
 49
0.0
140
0.0
141
0.0
142
1.0
143
1.0
 70
   688
 72
     0
 73
     0
 74
     5
  7

 75
    16
147
1.0
 76
     0
 77
     2
 78
   300
148
0.0
149
0.0
100
AcDbLayout
  1
Layout1
 70
     1
 71
     1
 10
0.0
 20
0.0
 11
12.0
 21
9.0
 12
0.0
 22
0.0
 32
0.0
 14
0.0
 24
0.0
 34
0.0
 15
0.0
 25
0.0
 35
0.0
146
0.0
 13
0.0
 23
0.0
 33
0.0
 16
1.0
 26
0.0
 36
0.0
 17
0.0
 27
1.0
 37
0.0
 76
     0
330
6C
  0
LAYOUT
  5
77
102
{ACAD_REACTORS
330
62
102
}
330
62
100
AcDbPlotSettings
  1

  2

  4

  6

 40
0.0
 41
0.0
 42
0.0
 43
0.0
 44
0.0
 45
0.0
 46
0.0
 47
0.0
 48
0.0
 49
0.0
140
0.0
141
0.0
142
1.0
143
1.0
 70
   688
 72
     0
 73
     0
 74
     5
  7

 75
    16
147
1.0
 76
     0
 77
     2
 78
   300
148
0.0
149
0.0
100
AcDbLayout
  1
Layout2
 70
     1
 71
     2
 10
0.0
 20
0.0
 11
12.0
 21
9.0
 12
0.0
 22
0.0
 32
0.0
 14
0.0
 24
0.0
 34
0.0
 15
0.0
 25
0.0
 35
0.0
146
0.0
 13
0.0
 23
0.0
 33
0.0
 16
1.0
 26
0.0
 36
0.0
 17
0.0
 27
1.0
 37
0.0
 76
     0
330
74
  0
LAYOUT
  5
73
102
{ACAD_REACTORS
330
62
102
}
330
62
100
AcDbPlotSettings
  1

  2

  4

  6

 40
0.0
 41
0.0
 42
0.0
 43
0.0
 44
0.0
 45
0.0
 46
0.0
 47
0.0
 48
0.0
 49
0.0
140
0.0
141
0.0
142
1.0
143
1.0
 70
  1712
 72
     0
 73
     0
 74
     0
  7

 75
     0
147
1.0
 76
     0
 77
     2
 78
   300
148
0.0
149
0.0
100
AcDbLayout
  1
Model
 70
     1
 71
     0
 10
0.0
 20
0.0
 11
12.0
 21
9.0
 12
0.0
 22
0.0
 32
0.0
 14
0.0
 24
0.0
 34
0.0
 15
0.0
 25
0.0
 35
0.0
146
0.0
 13
0.0
 23
0.0
 33
0.0
 16
1.0
 26
0.0
 36
0.0
 17
0.0
 27
1.0
 37
0.0
 76
     0
330
70
  0
MATERIAL
  5
19
102
{ACAD_XDICTIONARY
360
1A
102
}
102
{ACAD_REACTORS
330
10
102
}
330
10
100
AcDbMaterial
  1
ByBlock
 72
     0
 43
0.0208333333333333
 43
0.0
 43
0.0
 43
0.0
 43
0.0
 43
0.0208333333333333
 43
0.0
 43
0.0
 43
0.0
 43
0.0
 43
1.0
 43
0.0
 43
0.0
 43
0.0
 43
0.0
 43
1.0
 77
     0
 47
0.0208333333333333
 47
0.0
 47
0.0
 47
0.0
 47
0.0
 47
0.0208333333333333
 47
0.0
 47
0.0
 47
0.0
 47
0.0
 47
1.0
 47
0.0
 47
0.0
 47
0.0
 47
0.0
 47
1.0
171
     0
 49
0.0208333333333333
 49
0.0
 49
0.0
 49
0.0
 49
0.0
 49
0.0208333333333333
 49
0.0
 49
0.0
 49
0.0
 49
0.0
 49
1.0
 49
0.0
 49
0.0
 49
0.0
 49
0.0
 49
1.0
175
     0
142
0.0208333333333333
142
0.0
142
0.0
142
0.0
142
0.0
142
0.0208333333333333
142
0.0
142
0.0
142
0.0
142
0.0
142
1.0
142
0.0
142
0.0
142
0.0
142
0.0
142
1.0
179
     0
144
0.0208333333333333
144
0.0
144
0.0
144
0.0
144
0.0
144
0.0208333333333333
144
0.0
144
0.0
144
0.0
144
0.0
144
1.0
144
0.0
144
0.0
144
0.0
144
0.0
144
1.0
147
0.0208333333333333
147
0.0
147
0.0
147
0.0
147
0.0
147
0.0208333333333333
147
0.0
147
0.0
147
0.0
147
0.0
147
1.0
147
0.0
147
0.0
147
0.0
147
0.0
147
1.0
  0
MATERIAL
  5
11
102
{ACAD_XDICTIONARY
360
12
102
}
102
{ACAD_REACTORS
330
10
102
}
330
10
100
AcDbMaterial
  1
ByLayer
 72
     0
 43
0.0208333333333333
 43
0.0
 43
0.0
 43
0.0
 43
0.0
 43
0.0208333333333333
 43
0.0
 43
0.0
 43
0.0
 43
0.0
 43
1.0
 43
0.0
 43
0.0
 43
0.0
 43
0.0
 43
1.0
 77
     0
 47
0.0208333333333333
 47
0.0
 47
0.0
 47
0.0
 47
0.0
 47
0.0208333333333333
 47
0.0
 47
0.0
 47
0.0
 47
0.0
 47
1.0
 47
0.0
 47
0.0
 47
0.0
 47
0.0
 47
1.0
171
     0
 49
0.0208333333333333
 49
0.0
 49
0.0
 49
0.0
 49
0.0
 49
0.0208333333333333
 49
0.0
 49
0.0
 49
0.0
 49
0.0
 49
1.0
 49
0.0
 49
0.0
 49
0.0
 49
0.0
 49
1.0
175
     0
142
0.0208333333333333
142
0.0
142
0.0
142
0.0
142
0.0
142
0.0208333333333333
142
0.0
142
0.0
142
0.0
142
0.0
142
1.0
142
0.0
142
0.0
142
0.0
142
0.0
142
1.0
179
     0
144
0.0208333333333333
144
0.0
144
0.0
144
0.0
144
0.0
144
0.0208333333333333
144
0.0
144
0.0
144
0.0
144
0.0
144
1.0
144
0.0
144
0.0
144
0.0
144
0.0
144
1.0
147
0.0208333333333333
147
0.0
147
0.0
147
0.0
147
0.0
147
0.0208333333333333
147
0.0
147
0.0
147
0.0
147
0.0
147
1.0
147
0.0
147
0.0
147
0.0
147
0.0
147
1.0
  0
MATERIAL
  5
21
102
{ACAD_XDICTIONARY
360
22
102
}
102
{ACAD_REACTORS
330
10
102
}
330
10
100
AcDbMaterial
  1
Global
 72
     0
 43
0.0208333333333333
 43
0.0
 43
0.0
 43
0.0
 43
0.0
 43
0.0208333333333333
 43
0.0
 43
0.0
 43
0.0
 43
0.0
 43
1.0
 43
0.0
 43
0.0
 43
0.0
 43
0.0
 43
1.0
 77
     0
 47
0.0208333333333333
 47
0.0
 47
0.0
 47
0.0
 47
0.0
 47
0.0208333333333333
 47
0.0
 47
0.0
 47
0.0
 47
0.0
 47
1.0
 47
0.0
 47
0.0
 47
0.0
 47
0.0
 47
1.0
171
     0
 49
0.0208333333333333
 49
0.0
 49
0.0
 49
0.0
 49
0.0
 49
0.0208333333333333
 49
0.0
 49
0.0
 49
0.0
 49
0.0
 49
1.0
 49
0.0
 49
0.0
 49
0.0
 49
0.0
 49
1.0
175
     0
142
0.0208333333333333
142
0.0
142
0.0
142
0.0
142
0.0
142
0.0208333333333333
142
0.0
142
0.0
142
0.0
142
0.0
142
1.0
142
0.0
142
0.0
142
0.0
142
0.0
142
1.0
179
     0
144
0.0208333333333333
144
0.0
144
0.0
144
0.0
144
0.0
144
0.0208333333333333
144
0.0
144
0.0
144
0.0
144
0.0
144
1.0
144
0.0
144
0.0
144
0.0
144
0.0
144
1.0
147
0.0208333333333333
147
0.0
147
0.0
147
0.0
147
0.0
147
0.0208333333333333
147
0.0
147
0.0
147
0.0
147
0.0
147
1.0
147
0.0
147
0.0
147
0.0
147
0.0
147
1.0
  0
MLEADERSTYLE
  5
67
102
{ACAD_XDICTIONARY
360
14C
102
}
102
{ACAD_REACTORS
330
66
102
}
330
66
100
AcDbMLeaderStyle
179
     2
170
     2
171
     1
172
     0
 90
        2
 40
0.0
 41
0.0
173
     1
 91
-1056964608
340
5B
 92
       -2
290
     1
 42
0.09
291
     1
 43
0.36
  3
Standard
 44
0.18
300

342
55
174
     1
178
     6
175
     1
176
     0
 93
-1056964608
 45
0.18
292
     0
297
     0
 46
0.18
 94
-1056964608
 47
1.0
 49
1.0
140
1.0
293
     1
141
0.0
294
     1
177
     0
142
1.0
295
     0
296
     0
143
0.125
271
     0
272
     9
273
     9
  0
MLINESTYLE
  5
60
102
{ACAD_REACTORS
330
5F
102
}
330
5F
100
AcDbMlineStyle
  2
STANDARD
 70
     0
  3

 62
   256
 51
90.0
 52
90.0
 71
     2
 49
0.5
 62
   256
  6
BYLAYER
 49
-0.5
 62
   256
  6
BYLAYER
  0
ACDBPLACEHOLDER
  5
F
102
{ACAD_REACTORS
330
E
102
}
330
E
  0
SCALE
  5
43
102
{ACAD_REACTORS
330
42
102
}
330
42
100
AcDbScale
 70
     0
300
1:1
140
1.0
141
1.0
290
     1
  0
SCALE
  5
44
102
{ACAD_REACTORS
330
42
102
}
330
42
100
AcDbScale
 70
     0
300
1/128" = 1'-0"
140
0.0078125
141
12.0
290
     0
  0
SCALE
  5
45
102
{ACAD_REACTORS
330
42
102
}
330
42
100
AcDbScale
 70
     0
300
1/64" = 1'-0"
140
0.015625
141
12.0
290
     0
  0
SCALE
  5
46
102
{ACAD_REACTORS
330
42
102
}
330
42
100
AcDbScale
 70
     0
300
1/32" = 1'-0"
140
0.03125
141
12.0
290
     0
  0
SCALE
  5
47
102
{ACAD_REACTORS
330
42
102
}
330
42
100
AcDbScale
 70
     0
300
1/16" = 1'-0"
140
0.0625
141
12.0
290
     0
  0
SCALE
  5
48
102
{ACAD_REACTORS
330
42
102
}
330
42
100
AcDbScale
 70
     0
300
3/32" = 1'-0"
140
0.09375
141
12.0
290
     0
  0
SCALE
  5
49
102
{ACAD_REACTORS
330
42
102
}
330
42
100
AcDbScale
 70
     0
300
1/8" = 1'-0"
140
0.125
141
12.0
290
     0
  0
SCALE
  5
4A
102
{ACAD_REACTORS
330
42
102
}
330
42
100
AcDbScale
 70
     0
300
3/16" = 1'-0"
140
0.1875
141
12.0
290
     0
  0
SCALE
  5
4B
102
{ACAD_REACTORS
330
42
102
}
330
42
100
AcDbScale
 70
     0
300
1/4" = 1'-0"
140
0.25
141
12.0
290
     0
  0
SCALE
  5
4C
102
{ACAD_REACTORS
330
42
102
}
330
42
100
AcDbScale
 70
     0
300
3/8" = 1'-0"
140
0.375
141
12.0
290
     0
  0
SCALE
  5
4D
102
{ACAD_REACTORS
330
42
102
}
330
42
100
AcDbScale
 70
     0
300
1/2" = 1'-0"
140
0.5
141
12.0
290
     0
  0
SCALE
  5
4E
102
{ACAD_REACTORS
330
42
102
}
330
42
100
AcDbScale
 70
     0
300
3/4" = 1'-0"
140
0.75
141
12.0
290
     0
  0
SCALE
  5
4F
102
{ACAD_REACTORS
330
42
102
}
330
42
100
AcDbScale
 70
     0
300
1" = 1'-0"
140
1.0
141
12.0
290
     0
  0
SCALE
  5
50
102
{ACAD_REACTORS
330
42
102
}
330
42
100
AcDbScale
 70
     0
300
1-1/2" = 1'-0"
140
1.5
141
12.0
290
     0
  0
SCALE
  5
51
102
{ACAD_REACTORS
330
42
102
}
330
42
100
AcDbScale
 70
     0
300
3" = 1'-0"
140
3.0
141
12.0
290
     0
  0
SCALE
  5
52
102
{ACAD_REACTORS
330
42
102
}
330
42
100
AcDbScale
 70
     0
300
6" = 1'-0"
140
6.0
141
12.0
290
     0
  0
SCALE
  5
53
102
{ACAD_REACTORS
330
42
102
}
330
42
100
AcDbScale
 70
     0
300
1'-0" = 1'-0"
140
12.0
141
12.0
290
     0
  0
ACDBSECTIONVIEWSTYLE
  5
69
102
{ACAD_XDICTIONARY
360
14E
102
}
102
{ACAD_REACTORS
330
68
102
}
330
68
100
AcDbModelDocViewStyle
 70
     0
  3
Imperial24
290
     0
100
AcDbSectionViewStyle
 70
     0
 71
     0
 90
       78
 71
     1
340
55
 62
   256
 40
0.24
340
0
340
0
 62
   256
 40
0.24
300
I, O, Q, S, X, Z
 40
0.48
 90
        3
 40
0.18
 90
        1
 71
     2
340
5D
 90
       25
 62
   256
340
5D
 90
       50
 62
   256
 40
0.24
 40
0.0
 40
0.24
 71
     3
340
55
 62
   256
 40
0.24
 90
        1
 40
0.75
 90
        1
300
%<\AcVar ViewType \f "%tc1">% %<\AcVar ViewSectionStartId>%-%<\AcVar ViewSectionEndId>%\PSCALE %<\AcVar ViewScale \f "%sn">%
 71
     4
 62
   256
 62
   257
300
ANSI31
 40
1.0
 90
        0
290
     0
290
     0
 90
        6
 40
0.0
 40
1.570796326794896
 40
0.2617993877991494
 40
1.308996938995747
 40
-0.2617993877991494
 40
1.832595714594046
  0
TABLESTYLE
  5
65
102
{ACAD_XDICTIONARY
360
118
102
}
102
{ACAD_REACTORS
330
64
102
}
330
64
100
AcDbTableStyle
280
     0
  3
Standard
 70
     0
 71
     0
 40
0.06
 41
0.06
280
     0
281
     0
  7
Standard
140
0.18
170
     2
 62
     0
 63
     7
283
     0
 90
      512
 91
        0
  1

274
    -2
284
     1
 64
     0
275
    -2
285
     1
 65
     0
276
    -2
286
     1
 66
     0
277
    -2
287
     1
 67
     0
278
    -2
288
     1
 68
     0
279
    -2
289
     1
 69
     0
  7
Standard
140
0.25
170
     5
 62
     0
 63
     7
283
     0
 90
      512
 91
        0
  1

274
    -2
284
     1
 64
     0
275
    -2
285
     1
 65
     0
276
    -2
286
     1
 66
     0
277
    -2
287
     1
 67
     0
278
    -2
288
     1
 68
     0
279
    -2
289
     1
 69
     0
  7
Standard
140
0.18
170
     5
 62
     0
 63
     7
283
     0
 90
      512
 91
        0
  1

274
    -2
284
     1
 64
     0
275
    -2
285
     1
 65
     0
276
    -2
286
     1
 66
     0
277
    -2
287
     1
 67
     0
278
    -2
288
     1
 68
     0
279
    -2
289
     1
 69
     0
  0
VISUALSTYLE
  5
2F
102
{ACAD_XDICTIONARY
360
126
102
}
102
{ACAD_REACTORS
330
29
102
}
330
29
100
AcDbVisualStyle
  2
2dWireframe
 70
     4
177
     2
291
     0
 71
     0
176
     1
 72
     2
176
     1
 73
     0
176
     1
 90
        0
176
     1
 40
0.6
176
     1
 41
30.0
176
     1
 63
     7
421
 16777215
176
     1
 74
     1
176
     1
 91
        4
176
     1
 64
     7
176
     1
 65
   257
176
     1
 75
     1
176
     1
175
     1
176
     1
 42
1.0
176
     1
 92
        0
176
     1
 66
   257
176
     1
 43
1.0
176
     1
 76
     1
176
     1
 77
     6
176
     1
 78
     2
176
     1
 67
     7
176
     1
 79
     5
176
     1
170
     0
176
     1
171
     0
176
     1
290
     0
176
     1
 93
        1
176
     1
 44
0.0
176
     1
173
     0
176
     1
1001
ACAD
1000
AcDbSavedByObjectVersion
1070
     0
  0
VISUALSTYLE
  5
2E
102
{ACAD_XDICTIONARY
360
124
102
}
102
{ACAD_REACTORS
330
29
102
}
330
29
100
AcDbVisualStyle
  2
Basic
 70
     7
177
     2
291
     1
 71
     1
176
     1
 72
     0
176
     1
 73
     1
176
     1
 90
        0
176
     1
 40
0.6
176
     1
 41
30.0
176
     1
 63
     7
421
 16777215
176
     1
 74
     0
176
     1
 91
        4
176
     1
 64
     7
176
     1
 65
   257
176
     1
 75
     1
176
     1
175
     1
176
     1
 42
1.0
176
     1
 92
        8
176
     1
 66
     7
176
     1
 43
1.0
176
     1
 76
     1
176
     1
 77
     6
176
     1
 78
     2
176
     1
 67
     7
176
     1
 79
     5
176
     1
170
     0
176
     1
171
     0
176
     1
290
     0
176
     1
 93
        1
176
     1
 44
0.0
176
     1
173
     0
176
     1
1001
ACAD
1000
AcDbSavedByObjectVersion
1070
     0
  0
VISUALSTYLE
  5
35
102
{ACAD_XDICTIONARY
360
132
102
}
102
{ACAD_REACTORS
330
29
102
}
330
29
100
AcDbVisualStyle
  2
Brighten
 70
    12
177
     2
291
     1
 71
     2
176
     1
 72
     2
176
     1
 73
     0
176
     1
 90
        0
176
     1
 40
0.6
176
     1
 41
30.0
176
     1
 63
     7
421
 16777215
176
     1
 74
     1
176
     1
 91
        4
176
     1
 64
     7
176
     1
 65
   257
176
     1
 75
     1
176
     1
175
     1
176
     1
 42
1.0
176
     1
 92
        8
176
     1
 66
     7
176
     1
 43
1.0
176
     1
 76
     1
176
     1
 77
     6
176
     1
 78
     2
176
     1
 67
     7
176
     1
 79
     5
176
     1
170
     0
176
     1
171
     0
176
     1
290
     0
176
     1
 93
        1
176
     1
 44
50.0
176
     1
173
     0
176
     1
1001
ACAD
1000
AcDbSavedByObjectVersion
1070
     0
  0
VISUALSTYLE
  5
39
102
{ACAD_XDICTIONARY
360
13A
102
}
102
{ACAD_REACTORS
330
29
102
}
330
29
100
AcDbVisualStyle
  2
ColorChange
 70
    16
177
     2
291
     1
 71
     2
176
     1
 72
     2
176
     1
 73
     3
176
     1
 90
        0
176
     1
 40
0.6
176
     1
 41
30.0
176
     1
 63
     8
421
  8421504
176
     1
 74
     1
176
     1
 91
        4
176
     1
 64
     7
176
     1
 65
   257
176
     1
 75
     1
176
     1
175
     1
176
     1
 42
1.0
176
     1
 92
        8
176
     1
 66
     8
424
  8421504
176
     1
 43
1.0
176
     1
 76
     1
176
     1
 77
     6
176
     1
 78
     2
176
     1
 67
     7
176
     1
 79
     5
176
     1
170
     0
176
     1
171
     0
176
     1
290
     0
176
     1
 93
        1
176
     1
 44
0.0
176
     1
173
     0
176
     1
1001
ACAD
1000
AcDbSavedByObjectVersion
1070
     0
  0
VISUALSTYLE
  5
32
102
{ACAD_XDICTIONARY
360
12C
102
}
102
{ACAD_REACTORS
330
29
102
}
330
29
100
AcDbVisualStyle
  2
Conceptual
 70
     9
177
     2
291
     0
 71
     3
176
     1
 72
     2
176
     1
 73
     0
176
     1
 90
        0
176
     1
 40
0.6
176
     1
 41
30.0
176
     1
 63
     7
421
 16777215
176
     1
 74
     2
176
     1
 91
        2
176
     1
 64
     7
176
     1
 65
   257
176
     1
 75
     1
176
     1
175
     1
176
     1
 42
179.0
176
     1
 92
        8
176
     1
 66
     7
176
     1
 43
1.0
176
     1
 76
     1
176
     1
 77
     6
176
     1
 78
     2
176
     1
 67
     7
176
     1
 79
     3
176
     1
170
     0
176
     1
171
     0
176
     1
290
     0
176
     1
 93
        1
176
     1
 44
0.0
176
     1
173
     0
176
     1
1001
ACAD
1000
AcDbSavedByObjectVersion
1070
     0
  0
VISUALSTYLE
  5
34
102
{ACAD_XDICTIONARY
360
130
102
}
102
{ACAD_REACTORS
330
29
102
}
330
29
100
AcDbVisualStyle
  2
Dim
 70
    11
177
     2
291
     1
 71
     2
176
     1
 72
     2
176
     1
 73
     0
176
     1
 90
        0
176
     1
 40
0.6
176
     1
 41
30.0
176
     1
 63
     7
421
 16777215
176
     1
 74
     1
176
     1
 91
        4
176
     1
 64
     7
176
     1
 65
   257
176
     1
 75
     1
176
     1
175
     1
176
     1
 42
1.0
176
     1
 92
        8
176
     1
 66
     7
176
     1
 43
1.0
176
     1
 76
     1
176
     1
 77
     6
176
     1
 78
     2
176
     1
 67
     7
176
     1
 79
     5
176
     1
170
     0
176
     1
171
     0
176
     1
290
     0
176
     1
 93
        1
176
     1
 44
-50.0
176
     1
173
     0
176
     1
1001
ACAD
1000
AcDbSavedByObjectVersion
1070
     0
  0
VISUALSTYLE
  5
41
102
{ACAD_XDICTIONARY
360
14A
102
}
102
{ACAD_REACTORS
330
29
102
}
330
29
100
AcDbVisualStyle
  2
EdgeColorOff
 70
    22
177
     2
291
     1
 71
     2
176
     0
 72
     2
176
     0
 73
     0
176
     0
 90
        0
176
     0
 40
0.6
176
     0
 41
30.0
176
     0
 63
     7
421
 16777215
176
     0
 74
     1
176
     0
 91
        4
176
     0
 64
     7
176
     0
 65
   257
176
     0
 75
     1
176
     0
175
     1
176
     0
 42
1.0
176
     0
 92
        8
176
     2
 66
     7
176
     0
 43
1.0
176
     0
 76
     1
176
     0
 77
     6
176
     0
 78
     2
176
     0
 67
     7
176
     0
 79
     5
176
     0
170
     0
176
     0
171
     0
176
     0
290
     0
176
     0
 93
        1
176
     0
 44
0.0
176
     0
173
     0
176
     0
1001
ACAD
1000
AcDbSavedByObjectVersion
1070
     0
  0
VISUALSTYLE
  5
38
102
{ACAD_XDICTIONARY
360
138
102
}
102
{ACAD_REACTORS
330
29
102
}
330
29
100
AcDbVisualStyle
  2
Facepattern
 70
    15
177
     2
291
     1
 71
     2
176
     1
 72
     2
176
     1
 73
     0
176
     1
 90
        0
176
     1
 40
0.6
176
     1
 41
30.0
176
     1
 63
     7
421
 16777215
176
     1
 74
     1
176
     1
 91
        4
176
     1
 64
     7
176
     1
 65
   257
176
     1
 75
     1
176
     1
175
     1
176
     1
 42
1.0
176
     1
 92
        8
176
     1
 66
     7
176
     1
 43
1.0
176
     1
 76
     1
176
     1
 77
     6
176
     1
 78
     2
176
     1
 67
     7
176
     1
 79
     5
176
     1
170
     0
176
     1
171
     0
176
     1
290
     0
176
     1
 93
        1
176
     1
 44
0.0
176
     1
173
     0
176
     1
1001
ACAD
1000
AcDbSavedByObjectVersion
1070
     0
  0
VISUALSTYLE
  5
2A
102
{ACAD_XDICTIONARY
360
11C
102
}
102
{ACAD_REACTORS
330
29
102
}
330
29
100
AcDbVisualStyle
  2
Flat
 70
     0
177
     2
291
     1
 71
     2
176
     1
 72
     1
176
     1
 73
     1
176
     1
 90
        2
176
     1
 40
0.6
176
     1
 41
30.0
176
     1
 63
     7
421
 16777215
176
     1
 74
     0
176
     1
 91
        0
176
     1
 64
     7
176
     1
 65
   257
176
     1
 75
     1
176
     1
175
     1
176
     1
 42
1.0
176
     1
 92
        8
176
     1
 66
     7
176
     1
 43
1.0
176
     1
 76
     1
176
     1
 77
     6
176
     1
 78
     2
176
     1
 67
     7
176
     1
 79
     5
176
     1
170
     0
176
     1
171
     0
176
     1
290
     0
176
     1
 93
       13
176
     1
 44
0.0
176
     1
173
     0
176
     1
1001
ACAD
1000
AcDbSavedByObjectVersion
1070
     0
  0
VISUALSTYLE
  5
2B
102
{ACAD_XDICTIONARY
360
11E
102
}
102
{ACAD_REACTORS
330
29
102
}
330
29
100
AcDbVisualStyle
  2
FlatWithEdges
 70
     1
177
     2
291
     1
 71
     2
176
     1
 72
     1
176
     1
 73
     1
176
     1
 90
        2
176
     1
 40
0.6
176
     1
 41
30.0
176
     1
 63
     7
421
 16777215
176
     1
 74
     1
176
     1
 91
        0
176
     1
 64
     7
176
     1
 65
   257
176
     1
 75
     1
176
     1
175
     1
176
     1
 42
1.0
176
     1
 92
        0
176
     1
 66
   257
176
     1
 43
1.0
176
     1
 76
     1
176
     1
 77
     6
176
     1
 78
     2
176
     1
 67
     7
176
     1
 79
     5
176
     1
170
     0
176
     1
171
     0
176
     1
290
     0
176
     1
 93
       13
176
     1
 44
0.0
176
     1
173
     0
176
     1
1001
ACAD
1000
AcDbSavedByObjectVersion
1070
     0
  0
VISUALSTYLE
  5
2C
102
{ACAD_XDICTIONARY
360
120
102
}
102
{ACAD_REACTORS
330
29
102
}
330
29
100
AcDbVisualStyle
  2
Gouraud
 70
     2
177
     2
291
     1
 71
     2
176
     1
 72
     2
176
     1
 73
     1
176
     1
 90
        2
176
     1
 40
0.6
176
     1
 41
30.0
176
     1
 63
     7
421
 16777215
176
     1
 74
     0
176
     1
 91
        0
176
     1
 64
     7
176
     1
 65
   257
176
     1
 75
     1
176
     1
175
     1
176
     1
 42
1.0
176
     1
 92
        0
176
     1
 66
     7
176
     1
 43
1.0
176
     1
 76
     1
176
     1
 77
     6
176
     1
 78
     2
176
     1
 67
     7
176
     1
 79
     5
176
     1
170
     0
176
     1
171
     0
176
     1
290
     0
176
     1
 93
       13
176
     1
 44
0.0
176
     1
173
     0
176
     1
1001
ACAD
1000
AcDbSavedByObjectVersion
1070
     0
  0
VISUALSTYLE
  5
2D
102
{ACAD_XDICTIONARY
360
122
102
}
102
{ACAD_REACTORS
330
29
102
}
330
29
100
AcDbVisualStyle
  2
GouraudWithEdges
 70
     3
177
     2
291
     1
 71
     2
176
     1
 72
     2
176
     1
 73
     1
176
     1
 90
        2
176
     1
 40
0.6
176
     1
 41
30.0
176
     1
 63
     7
421
 16777215
176
     1
 74
     1
176
     1
 91
        0
176
     1
 64
     7
176
     1
 65
   257
176
     1
 75
     1
176
     1
175
     1
176
     1
 42
1.0
176
     1
 92
        0
176
     1
 66
   257
176
     1
 43
1.0
176
     1
 76
     1
176
     1
 77
     6
176
     1
 78
     2
176
     1
 67
     7
176
     1
 79
     5
176
     1
170
     0
176
     1
171
     0
176
     1
290
     0
176
     1
 93
       13
176
     1
 44
0.0
176
     1
173
     0
176
     1
1001
ACAD
1000
AcDbSavedByObjectVersion
1070
     0
  0
VISUALSTYLE
  5
31
102
{ACAD_XDICTIONARY
360
12A
102
}
102
{ACAD_REACTORS
330
29
102
}
330
29
100
AcDbVisualStyle
  2
Hidden
 70
     6
177
     2
291
     0
 71
     1
176
     1
 72
     2
176
     1
 73
     2
176
     1
 90
        0
176
     1
 40
0.6
176
     1
 41
30.0
176
     1
 63
     7
421
 16777215
176
     1
 74
     2
176
     1
 91
        2
176
     1
 64
     7
176
     1
 65
   257
176
     1
 75
     2
176
     1
175
     1
176
     1
 42
40.0
176
     1
 92
        0
176
     1
 66
   257
176
     1
 43
1.0
176
     1
 76
     1
176
     1
 77
     6
176
     1
 78
     2
176
     1
 67
     7
176
     1
 79
     3
176
     1
170
     0
176
     1
171
     0
176
     1
290
     0
176
     1
 93
        1
176
     1
 44
0.0
176
     1
173
     0
176
     1
1001
ACAD
1000
AcDbSavedByObjectVersion
1070
     0
  0
VISUALSTYLE
  5
3F
102
{ACAD_XDICTIONARY
360
146
102
}
102
{ACAD_REACTORS
330
29
102
}
330
29
100
AcDbVisualStyle
  2
JitterOff
 70
    20
177
     2
291
     1
 71
     2
176
     0
 72
     2
176
     0
 73
     0
176
     0
 90
        0
176
     0
 40
0.6
176
     0
 41
30.0
176
     0
 63
     7
421
 16777215
176
     0
 74
     1
176
     0
 91
        4
176
     0
 64
     7
176
     0
 65
   257
176
     0
 75
     1
176
     0
175
     1
176
     0
 42
1.0
176
     0
 92
       10
176
     2
 66
     7
176
     0
 43
1.0
176
     0
 76
     1
176
     0
 77
     6
176
     0
 78
     2
176
     0
 67
     7
176
     0
 79
     5
176
     0
170
     0
176
     0
171
     0
176
     0
290
     0
176
     0
 93
        1
176
     0
 44
0.0
176
     0
173
     0
176
     0
1001
ACAD
1000
AcDbSavedByObjectVersion
1070
     0
  0
VISUALSTYLE
  5
37
102
{ACAD_XDICTIONARY
360
136
102
}
102
{ACAD_REACTORS
330
29
102
}
330
29
100
AcDbVisualStyle
  2
Linepattern
 70
    14
177
     2
291
     1
 71
     2
176
     1
 72
     2
176
     1
 73
     0
176
     1
 90
        0
176
     1
 40
0.6
176
     1
 41
30.0
176
     1
 63
     7
421
 16777215
176
     1
 74
     1
176
     1
 91
        4
176
     1
 64
     7
176
     1
 65
   257
176
     1
 75
     7
176
     1
175
     7
176
     1
 42
1.0
176
     1
 92
        8
176
     1
 66
     7
176
     1
 43
1.0
176
     1
 76
     1
176
     1
 77
     6
176
     1
 78
     2
176
     1
 67
     7
176
     1
 79
     5
176
     1
170
     0
176
     1
171
     0
176
     1
290
     0
176
     1
 93
        1
176
     1
 44
0.0
176
     1
173
     0
176
     1
1001
ACAD
1000
AcDbSavedByObjectVersion
1070
     0
  0
VISUALSTYLE
  5
40
102
{ACAD_XDICTIONARY
360
148
102
}
102
{ACAD_REACTORS
330
29
102
}
330
29
100
AcDbVisualStyle
  2
OverhangOff
 70
    21
177
     2
291
     1
 71
     2
176
     0
 72
     2
176
     0
 73
     0
176
     0
 90
        0
176
     0
 40
0.6
176
     0
 41
30.0
176
     0
 63
     7
421
 16777215
176
     0
 74
     1
176
     0
 91
        4
176
     0
 64
     7
176
     0
 65
   257
176
     0
 75
     1
176
     0
175
     1
176
     0
 42
1.0
176
     0
 92
        9
176
     2
 66
     7
176
     0
 43
1.0
176
     0
 76
     1
176
     0
 77
     6
176
     0
 78
     2
176
     0
 67
     7
176
     0
 79
     5
176
     0
170
     0
176
     0
171
     0
176
     0
290
     0
176
     0
 93
        1
176
     0
 44
0.0
176
     0
173
     0
176
     0
1001
ACAD
1000
AcDbSavedByObjectVersion
1070
     0
  0
VISUALSTYLE
  5
33
102
{ACAD_XDICTIONARY
360
12E
102
}
102
{ACAD_REACTORS
330
29
102
}
330
29
100
AcDbVisualStyle
  2
Realistic
 70
     8
177
     2
291
     0
 71
     2
176
     1
 72
     3
176
     1
 73
     0
176
     1
 90
        2
176
     1
 40
0.6
176
     1
 41
30.0
176
     1
 63
     7
421
 16777215
176
     1
 74
     0
176
     1
 91
        0
176
     1
 64
     7
176
     1
 65
   257
176
     1
 75
     1
176
     1
175
     1
176
     1
 42
1.0
176
     1
 92
        8
176
     1
 66
   257
176
     1
 43
1.0
176
     1
 76
     1
176
     1
 77
     6
176
     1
 78
     2
176
     1
 67
     7
176
     1
 79
     3
176
     1
170
     0
176
     1
171
     0
176
     1
290
     0
176
     1
 93
       13
176
     1
 44
0.0
176
     1
173
     0
176
     1
1001
ACAD
1000
AcDbSavedByObjectVersion
1070
     0
  0
VISUALSTYLE
  5
3E
102
{ACAD_XDICTIONARY
360
144
102
}
102
{ACAD_REACTORS
330
29
102
}
330
29
100
AcDbVisualStyle
  2
Shaded
 70
    27
177
     2
291
     0
 71
     2
176
     1
 72
     2
176
     1
 73
     1
176
     1
 90
        2
176
     1
 40
0.6
176
     1
 41
30.0
176
     1
 63
     7
421
 16777215
176
     1
 74
     0
176
     1
 91
        4
176
     1
 64
     7
176
     1
 65
   257
176
     1
 75
     1
176
     1
175
     1
176
     1
 42
1.0
176
     1
 92
        8
176
     1
 66
   257
176
     1
 43
1.0
176
     1
 76
     1
176
     1
 77
     6
176
     1
 78
     2
176
     1
 67
     8
425
  7895160
176
     1
 79
     3
176
     1
170
     0
176
     1
171
     0
176
     1
290
     0
176
     1
 93
        5
176
     1
 44
0.0
176
     1
173
     0
176
     1
1001
ACAD
1000
AcDbSavedByObjectVersion
1070
     0
  0
VISUALSTYLE
  5
3D
102
{ACAD_XDICTIONARY
360
142
102
}
102
{ACAD_REACTORS
330
29
102
}
330
29
100
AcDbVisualStyle
  2
Shaded with edges
 70
    26
177
     2
291
     0
 71
     2
176
     1
 72
     2
176
     1
 73
     1
176
     1
 90
        2
176
     1
 40
0.6
176
     1
 41
30.0
176
     1
 63
     7
421
 16777215
176
     1
 74
     1
176
     1
 91
        2
176
     1
 64
     7
176
     1
 65
   257
176
     1
 75
     2
176
     1
175
     1
176
     1
 42
1.0
176
     1
 92
        8
176
     1
 66
   257
176
     1
 43
1.0
176
     1
 76
     1
176
     1
 77
     6
176
     1
 78
     2
176
     1
 67
     7
176
     1
 79
     3
176
     1
170
     0
176
     1
171
     0
176
     1
290
     0
176
     1
 93
        5
176
     1
 44
0.0
176
     1
173
     0
176
     1
1001
ACAD
1000
AcDbSavedByObjectVersion
1070
     0
  0
VISUALSTYLE
  5
3A
102
{ACAD_XDICTIONARY
360
13C
102
}
102
{ACAD_REACTORS
330
29
102
}
330
29
100
AcDbVisualStyle
  2
Shades of Gray
 70
    23
177
     2
291
     0
 71
     2
176
     1
 72
     2
176
     1
 73
     3
176
     1
 90
        0
176
     1
 40
0.6
176
     1
 41
30.0
176
     1
 63
     7
421
 16777215
176
     1
 74
     2
176
     1
 91
        2
176
     1
 64
     7
176
     1
 65
     7
176
     1
 75
     1
176
     1
175
     1
176
     1
 42
40.0
176
     1
 92
        8
176
     1
 66
     7
176
     1
 43
1.0
176
     1
 76
     1
176
     1
 77
     6
176
     1
 78
     2
176
     1
 67
     7
176
     1
 79
     3
176
     1
170
     0
176
     1
171
     0
176
     1
290
     0
176
     1
 93
        1
176
     1
 44
0.0
176
     1
173
     0
176
     1
1001
ACAD
1000
AcDbSavedByObjectVersion
1070
     0
  0
VISUALSTYLE
  5
3B
102
{ACAD_XDICTIONARY
360
13E
102
}
102
{ACAD_REACTORS
330
29
102
}
330
29
100
AcDbVisualStyle
  2
Sketchy
 70
    24
177
     2
291
     0
 71
     1
176
     1
 72
     2
176
     1
 73
     2
176
     1
 90
        0
176
     1
 40
0.6
176
     1
 41
30.0
176
     1
 63
     7
421
 16777215
176
     1
 74
     2
176
     1
 91
        2
176
     1
 64
     7
176
     1
 65
     7
176
     1
 75
     1
176
     1
175
     1
176
     1
 42
40.0
176
     1
 92
       11
176
     1
 66
     7
176
     1
 43
1.0
176
     1
 76
     1
176
     1
 77
     6
176
     1
 78
     2
176
     1
 67
     7
176
     1
 79
     6
176
     1
170
     0
176
     1
171
     0
176
     1
290
     0
176
     1
 93
        1
176
     1
 44
0.0
176
     1
173
     0
176
     1
1001
ACAD
1000
AcDbSavedByObjectVersion
1070
     0
  0
VISUALSTYLE
  5
36
102
{ACAD_XDICTIONARY
360
134
102
}
102
{ACAD_REACTORS
330
29
102
}
330
29
100
AcDbVisualStyle
  2
Thicken
 70
    13
177
     2
291
     1
 71
     2
176
     1
 72
     2
176
     1
 73
     0
176
     1
 90
        0
176
     1
 40
0.6
176
     1
 41
30.0
176
     1
 63
     7
421
 16777215
176
     1
 74
     1
176
     1
 91
        4
176
     1
 64
     7
176
     1
 65
   257
176
     1
 75
     1
176
     1
175
     1
176
     1
 42
1.0
176
     1
 92
       12
176
     1
 66
     7
176
     1
 43
1.0
176
     1
 76
     1
176
     1
 77
     6
176
     1
 78
     2
176
     1
 67
     7
176
     1
 79
     5
176
     1
170
     0
176
     1
171
     0
176
     1
290
     0
176
     1
 93
        1
176
     1
 44
0.0
176
     1
173
     0
176
     1
1001
ACAD
1000
AcDbSavedByObjectVersion
1070
     0
  0
VISUALSTYLE
  5
30
102
{ACAD_XDICTIONARY
360
128
102
}
102
{ACAD_REACTORS
330
29
102
}
330
29
100
AcDbVisualStyle
  2
Wireframe
 70
     5
177
     2
291
     0
 71
     0
176
     1
 72
     2
176
     1
 73
     0
176
     1
 90
        0
176
     1
 40
0.6
176
     1
 41
30.0
176
     1
 63
     7
421
 16777215
176
     1
 74
     1
176
     1
 91
        4
176
     1
 64
     7
176
     1
 65
   257
176
     1
 75
     1
176
     1
175
     1
176
     1
 42
1.0
176
     1
 92
        0
176
     1
 66
   257
176
     1
 43
1.0
176
     1
 76
     1
176
     1
 77
     6
176
     1
 78
     2
176
     1
 67
     7
176
     1
 79
     3
176
     1
170
     0
176
     1
171
     0
176
     1
290
     0
176
     1
 93
        1
176
     1
 44
0.0
176
     1
173
     0
176
     1
1001
ACAD
1000
AcDbSavedByObjectVersion
1070
     0
  0
VISUALSTYLE
  5
3C
102
{ACAD_XDICTIONARY
360
140
102
}
102
{ACAD_REACTORS
330
29
102
}
330
29
100
AcDbVisualStyle
  2
X-Ray
 70
    25
177
     2
291
     0
 71
     2
176
     1
 72
     2
176
     1
 73
     1
176
     1
 90
        1
176
     1
 40
0.5
176
     1
 41
30.0
176
     1
 63
     7
421
 16777215
176
     1
 74
     1
176
     1
 91
        0
176
     1
 64
     7
176
     1
 65
   257
176
     1
 75
     1
176
     1
175
     1
176
     1
 42
1.0
176
     1
 92
        8
176
     1
 66
     7
176
     1
 43
1.0
176
     1
 76
     1
176
     1
 77
     6
176
     1
 78
     2
176
     1
 67
     7
176
     1
 79
     3
176
     1
170
     0
176
     1
171
     0
176
     1
290
     0
176
     1
 93
       13
176
     1
 44
0.0
176
     1
173
     0
176
     1
1001
ACAD
1000
AcDbSavedByObjectVersion
1070
     0
  0
DICTIONARYVAR
  5
117
102
{ACAD_REACTORS
330
112
102
}
330
112
100
DictionaryVariables
280
     0
  1
1:1
  0
DICTIONARYVAR
  5
114
102
{ACAD_REACTORS
330
112
102
}
330
112
100
DictionaryVariables
280
     0
  1
STANDARD
  0
DICTIONARYVAR
  5
113
102
{ACAD_REACTORS
330
112
102
}
330
112
100
DictionaryVariables
280
     0
  1
STANDARD
  0
DICTIONARYVAR
  5
115
102
{ACAD_REACTORS
330
112
102
}
330
112
100
DictionaryVariables
280
     0
  1
Imperial24
  0
DICTIONARYVAR
  5
116
102
{ACAD_REACTORS
330
112
102
}
330
112
100
DictionaryVariables
280
     0
  1
Imperial24
  0
DICTIONARY
  5
150
330
6B
100
AcDbDictionary
280
     1
281
     1
  3
ACAD_XREC_ROUNDTRIP
360
151
  0
DICTIONARY
  5
1A
330
19
100
AcDbDictionary
280
     1
281
     1
  3
BUMPTILE
360
1C
  3
DIFFUSETILE
360
1B
  3
OPACITYTILE
360
1F
  3
REFLECTIONTILE
360
1E
  3
REFRACTIONTILE
360
20
  3
SPECULARTILE
360
1D
  0
DICTIONARY
  5
12
330
11
100
AcDbDictionary
280
     1
281
     1
  3
BUMPTILE
360
14
  3
DIFFUSETILE
360
13
  3
OPACITYTILE
360
17
  3
REFLECTIONTILE
360
16
  3
REFRACTIONTILE
360
18
  3
SPECULARTILE
360
15
  0
DICTIONARY
  5
22
330
21
100
AcDbDictionary
280
     1
281
     1
  3
BUMPTILE
360
24
  3
DIFFUSETILE
360
23
  3
OPACITYTILE
360
27
  3
REFLECTIONTILE
360
26
  3
REFRACTIONTILE
360
28
  3
SPECULARTILE
360
25
  0
DICTIONARY
  5
14C
330
67
100
AcDbDictionary
280
     1
281
     1
  3
ACAD_XREC_ROUNDTRIP
360
14D
  0
DICTIONARY
  5
14E
330
69
100
AcDbDictionary
280
     1
281
     1
  3
ACAD_XREC_ROUNDTRIP
360
14F
  0
DICTIONARY
  5
118
330
65
100
AcDbDictionary
280
     1
281
     1
  3
ACAD_ROUNDTRIP_2008_TABLESTYLE_CELLSTYLEMAP
360
119
  0
DICTIONARY
  5
126
330
2F
100
AcDbDictionary
280
     1
281
     1
  3
ACAD_XREC_ROUNDTRIP
360
127
  0
DICTIONARY
  5
124
330
2E
100
AcDbDictionary
280
     1
281
     1
  3
ACAD_XREC_ROUNDTRIP
360
125
  0
DICTIONARY
  5
132
330
35
100
AcDbDictionary
280
     1
281
     1
  3
ACAD_XREC_ROUNDTRIP
360
133
  0
DICTIONARY
  5
13A
330
39
100
AcDbDictionary
280
     1
281
     1
  3
ACAD_XREC_ROUNDTRIP
360
13B
  0
DICTIONARY
  5
12C
330
32
100
AcDbDictionary
280
     1
281
     1
  3
ACAD_XREC_ROUNDTRIP
360
12D
  0
DICTIONARY
  5
130
330
34
100
AcDbDictionary
280
     1
281
     1
  3
ACAD_XREC_ROUNDTRIP
360
131
  0
DICTIONARY
  5
14A
330
41
100
AcDbDictionary
280
     1
281
     1
  3
ACAD_XREC_ROUNDTRIP
360
14B
  0
DICTIONARY
  5
138
330
38
100
AcDbDictionary
280
     1
281
     1
  3
ACAD_XREC_ROUNDTRIP
360
139
  0
DICTIONARY
  5
11C
330
2A
100
AcDbDictionary
280
     1
281
     1
  3
ACAD_XREC_ROUNDTRIP
360
11D
  0
DICTIONARY
  5
11E
330
2B
100
AcDbDictionary
280
     1
281
     1
  3
ACAD_XREC_ROUNDTRIP
360
11F
  0
DICTIONARY
  5
120
330
2C
100
AcDbDictionary
280
     1
281
     1
  3
ACAD_XREC_ROUNDTRIP
360
121
  0
DICTIONARY
  5
122
330
2D
100
AcDbDictionary
280
     1
281
     1
  3
ACAD_XREC_ROUNDTRIP
360
123
  0
DICTIONARY
  5
12A
330
31
100
AcDbDictionary
280
     1
281
     1
  3
ACAD_XREC_ROUNDTRIP
360
12B
  0
DICTIONARY
  5
146
330
3F
100
AcDbDictionary
280
     1
281
     1
  3
ACAD_XREC_ROUNDTRIP
360
147
  0
DICTIONARY
  5
136
330
37
100
AcDbDictionary
280
     1
281
     1
  3
ACAD_XREC_ROUNDTRIP
360
137
  0
DICTIONARY
  5
148
330
40
100
AcDbDictionary
280
     1
281
     1
  3
ACAD_XREC_ROUNDTRIP
360
149
  0
DICTIONARY
  5
12E
330
33
100
AcDbDictionary
280
     1
281
     1
  3
ACAD_XREC_ROUNDTRIP
360
12F
  0
DICTIONARY
  5
144
330
3E
100
AcDbDictionary
280
     1
281
     1
  3
ACAD_XREC_ROUNDTRIP
360
145
  0
DICTIONARY
  5
142
330
3D
100
AcDbDictionary
280
     1
281
     1
  3
ACAD_XREC_ROUNDTRIP
360
143
  0
DICTIONARY
  5
13C
330
3A
100
AcDbDictionary
280
     1
281
     1
  3
ACAD_XREC_ROUNDTRIP
360
13D
  0
DICTIONARY
  5
13E
330
3B
100
AcDbDictionary
280
     1
281
     1
  3
ACAD_XREC_ROUNDTRIP
360
13F
  0
DICTIONARY
  5
134
330
36
100
AcDbDictionary
280
     1
281
     1
  3
ACAD_XREC_ROUNDTRIP
360
135
  0
DICTIONARY
  5
128
330
30
100
AcDbDictionary
280
     1
281
     1
  3
ACAD_XREC_ROUNDTRIP
360
129
  0
DICTIONARY
  5
140
330
3C
100
AcDbDictionary
280
     1
281
     1
  3
ACAD_XREC_ROUNDTRIP
360
141
  0
XRECORD
  5
151
102
{ACAD_REACTORS
330
150
102
}
330
150
100
AcDbXrecord
280
     1
102
DISPLAYNAME
  1
Imperial24
102
FLAGS
 90
        0
  0
XRECORD
  5
1C
102
{ACAD_REACTORS
330
1A
102
}
330
1A
100
AcDbXrecord
280
     1
270
     1
271
     1
  0
XRECORD
  5
1B
102
{ACAD_REACTORS
330
1A
102
}
330
1A
100
AcDbXrecord
280
     1
270
     1
271
     1
  0
XRECORD
  5
1F
102
{ACAD_REACTORS
330
1A
102
}
330
1A
100
AcDbXrecord
280
     1
270
     1
271
     1
  0
XRECORD
  5
1E
102
{ACAD_REACTORS
330
1A
102
}
330
1A
100
AcDbXrecord
280
     1
270
     1
271
     1
  0
XRECORD
  5
20
102
{ACAD_REACTORS
330
1A
102
}
330
1A
100
AcDbXrecord
280
     1
270
     1
271
     1
  0
XRECORD
  5
1D
102
{ACAD_REACTORS
330
1A
102
}
330
1A
100
AcDbXrecord
280
     1
270
     1
271
     1
  0
XRECORD
  5
14
102
{ACAD_REACTORS
330
12
102
}
330
12
100
AcDbXrecord
280
     1
270
     1
271
     1
  0
XRECORD
  5
13
102
{ACAD_REACTORS
330
12
102
}
330
12
100
AcDbXrecord
280
     1
270
     1
271
     1
  0
XRECORD
  5
17
102
{ACAD_REACTORS
330
12
102
}
330
12
100
AcDbXrecord
280
     1
270
     1
271
     1
  0
XRECORD
  5
16
102
{ACAD_REACTORS
330
12
102
}
330
12
100
AcDbXrecord
280
     1
270
     1
271
     1
  0
XRECORD
  5
18
102
{ACAD_REACTORS
330
12
102
}
330
12
100
AcDbXrecord
280
     1
270
     1
271
     1
  0
XRECORD
  5
15
102
{ACAD_REACTORS
330
12
102
}
330
12
100
AcDbXrecord
280
     1
270
     1
271
     1
  0
XRECORD
  5
24
102
{ACAD_REACTORS
330
22
102
}
330
22
100
AcDbXrecord
280
     1
270
     1
271
     1
  0
XRECORD
  5
23
102
{ACAD_REACTORS
330
22
102
}
330
22
100
AcDbXrecord
280
     1
270
     1
271
     1
  0
XRECORD
  5
27
102
{ACAD_REACTORS
330
22
102
}
330
22
100
AcDbXrecord
280
     1
270
     1
271
     1
  0
XRECORD
  5
26
102
{ACAD_REACTORS
330
22
102
}
330
22
100
AcDbXrecord
280
     1
270
     1
271
     1
  0
XRECORD
  5
28
102
{ACAD_REACTORS
330
22
102
}
330
22
100
AcDbXrecord
280
     1
270
     1
271
     1
  0
XRECORD
  5
25
102
{ACAD_REACTORS
330
22
102
}
330
22
100
AcDbXrecord
280
     1
270
     1
271
     1
  0
XRECORD
  5
14D
102
{ACAD_REACTORS
330
14C
102
}
330
14C
100
AcDbXrecord
280
     1
102
ACAD_ROUNDTRIP_2012_MLEADER_STYLE
298
     1
  0
XRECORD
  5
14F
102
{ACAD_REACTORS
330
14E
102
}
330
14E
100
AcDbXrecord
280
     1
102
DISPLAYNAME
  1
Imperial24
102
FLAGS
 90
        0
  0
CELLSTYLEMAP
  5
119
102
{ACAD_REACTORS
330
118
102
}
330
118
100
AcDbCellStyleMap
 90
        3
300
CELLSTYLE
  1
TABLEFORMAT_BEGIN
 90
        5
170
     1
 91
        0
 92
    32768
 62
   257
 93
        1
300
CONTENTFORMAT
  1
CONTENTFORMAT_BEGIN
 90
        0
 91
        0
 92
      512
 93
        0
300

 40
0.0
140
1.0
 94
        5
 62
     0
340
55
144
0.25
309
CONTENTFORMAT_END
171
     0
 94
        0
309
TABLEFORMAT_END
  1
CELLSTYLE_BEGIN
 90
        1
 91
        1
300
_TITLE
309
CELLSTYLE_END
300
CELLSTYLE
  1
TABLEFORMAT_BEGIN
 90
        5
170
     1
 91
        0
 92
        0
 62
   257
 93
        1
300
CONTENTFORMAT
  1
CONTENTFORMAT_BEGIN
 90
        0
 91
        0
 92
      512
 93
        0
300

 40
0.0
140
1.0
 94
        5
 62
     0
340
55
144
0.18
309
CONTENTFORMAT_END
171
     0
 94
        0
309
TABLEFORMAT_END
  1
CELLSTYLE_BEGIN
 90
        2
 91
        1
300
_HEADER
309
CELLSTYLE_END
300
CELLSTYLE
  1
TABLEFORMAT_BEGIN
 90
        5
170
     1
 91
        0
 92
        0
 62
   257
 93
        1
300
CONTENTFORMAT
  1
CONTENTFORMAT_BEGIN
 90
        0
 91
        0
 92
      512
 93
        0
300

 40
0.0
140
1.0
 94
        2
 62
     0
340
55
144
0.18
309
CONTENTFORMAT_END
171
     0
 94
        0
309
TABLEFORMAT_END
  1
CELLSTYLE_BEGIN
 90
        3
 91
        2
300
_DATA
309
CELLSTYLE_END
  0
XRECORD
  5
127
102
{ACAD_REACTORS
330
126
102
}
330
126
100
AcDbXrecord
280
     1
102
RTVSPost2010Prop28
280
     1
102
RTVSPost2010PropOp28
 70
     1
102
RTVSPost2010Prop29
280
     1
102
RTVSPost2010PropOp29
 70
     1
102
RTVSPost2010Prop30
280
     0
102
RTVSPost2010PropOp30
 70
     1
102
RTVSPost2010Prop31
280
     0
102
RTVSPost2010PropOp31
 70
     1
102
RTVSPost2010Prop32
280
     0
102
RTVSPost2010PropOp32
 70
     1
102
RTVSPost2010Prop33
280
     0
102
RTVSPost2010PropOp33
 70
     1
102
RTVSPost2010Prop34
280
     0
102
RTVSPost2010PropOp34
 70
     1
102
RTVSPost2010Prop35
280
     0
102
RTVSPost2010PropOp35
 70
     1
102
RTVSPost2010Prop36
280
     0
102
RTVSPost2010PropOp36
 70
     1
102
RTVSPost2010Prop37
 90
       50
102
RTVSPost2010PropOp37
 70
     1
102
RTVSPost2010Prop38
140
0.0
102
RTVSPost2010PropOp38
 70
     1
102
RTVSPost2010Prop39
140
1.0
102
RTVSPost2010PropOp39
 70
     1
102
RTVSPost2010Prop40
 90
        0
102
RTVSPost2010PropOp40
 70
     1
102
RTVSPost2010Prop41ColorIndex
 90
       18
102
RTVSPost2010Prop41ColorRGB
 90
        0
102
RTVSPost2010PropOp41
 70
     1
102
RTVSPost2010Prop42
 90
       50
102
RTVSPost2010PropOp42
 70
     1
102
RTVSPost2010Prop43
 90
        3
102
RTVSPost2010PropOp43
 70
     1
102
RTVSPost2010Prop44ColorIndex
 90
        5
102
RTVSPost2010Prop44ColorRGB
 90
      255
102
RTVSPost2010PropOp44
 70
     1
102
RTVSPost2010Prop45
280
     0
102
RTVSPost2010PropOp45
 70
     1
102
RTVSPost2010Prop46
 90
       50
102
RTVSPost2010PropOp46
 70
     1
102
RTVSPost2010Prop47
 90
       50
102
RTVSPost2010PropOp47
 70
     1
102
RTVSPost2010Prop48
 90
       50
102
RTVSPost2010PropOp48
 70
     1
102
RTVSPost2010Prop49
280
     0
102
RTVSPost2010PropOp49
 70
     1
102
RTVSPost2010Prop50
 90
       50
102
RTVSPost2010PropOp50
 70
     1
102
RTVSPost2010Prop51ColorIndex
 90
      256
102
RTVSPost2010Prop51ColorRGB
 90
-16777216
102
RTVSPost2010PropOp51
 70
     0
102
RTVSPost2010Prop52
140
1.0
102
RTVSPost2010PropOp52
 70
     0
102
RTVSPost2010Prop53
 90
        2
102
RTVSPost2010PropOp53
 70
     1
102
RTVSPost2010Prop54
  1
strokes_ogs.tif
102
RTVSPost2010PropOp54
 70
     1
102
RTVSPost2010Prop55
280
     0
102
RTVSPost2010PropOp55
 70
     1
102
RTVSPost2010Prop56
140
1.0
102
RTVSPost2010PropOp56
 70
     1
102
RTVSPost2010Prop57
140
1.0
102
RTVSPost2010PropOp57
 70
     1
  0
XRECORD
  5
125
102
{ACAD_REACTORS
330
124
102
}
330
124
100
AcDbXrecord
280
     1
102
RTVSPost2010Prop28
280
     0
102
RTVSPost2010PropOp28
 70
     1
102
RTVSPost2010Prop29
280
     1
102
RTVSPost2010PropOp29
 70
     1
102
RTVSPost2010Prop30
280
     1
102
RTVSPost2010PropOp30
 70
     1
102
RTVSPost2010Prop31
280
     0
102
RTVSPost2010PropOp31
 70
     1
102
RTVSPost2010Prop32
280
     0
102
RTVSPost2010PropOp32
 70
     1
102
RTVSPost2010Prop33
280
     0
102
RTVSPost2010PropOp33
 70
     1
102
RTVSPost2010Prop34
280
     0
102
RTVSPost2010PropOp34
 70
     1
102
RTVSPost2010Prop35
280
     0
102
RTVSPost2010PropOp35
 70
     1
102
RTVSPost2010Prop36
280
     0
102
RTVSPost2010PropOp36
 70
     1
102
RTVSPost2010Prop37
 90
       50
102
RTVSPost2010PropOp37
 70
     1
102
RTVSPost2010Prop38
140
0.0
102
RTVSPost2010PropOp38
 70
     1
102
RTVSPost2010Prop39
140
1.0
102
RTVSPost2010PropOp39
 70
     1
102
RTVSPost2010Prop40
 90
        0
102
RTVSPost2010PropOp40
 70
     1
102
RTVSPost2010Prop41ColorIndex
 90
       18
102
RTVSPost2010Prop41ColorRGB
 90
        0
102
RTVSPost2010PropOp41
 70
     1
102
RTVSPost2010Prop42
 90
       50
102
RTVSPost2010PropOp42
 70
     1
102
RTVSPost2010Prop43
 90
        3
102
RTVSPost2010PropOp43
 70
     1
102
RTVSPost2010Prop44ColorIndex
 90
        5
102
RTVSPost2010Prop44ColorRGB
 90
      255
102
RTVSPost2010PropOp44
 70
     1
102
RTVSPost2010Prop45
280
     0
102
RTVSPost2010PropOp45
 70
     1
102
RTVSPost2010Prop46
 90
       50
102
RTVSPost2010PropOp46
 70
     1
102
RTVSPost2010Prop47
 90
       50
102
RTVSPost2010PropOp47
 70
     1
102
RTVSPost2010Prop48
 90
       50
102
RTVSPost2010PropOp48
 70
     1
102
RTVSPost2010Prop49
280
     0
102
RTVSPost2010PropOp49
 70
     1
102
RTVSPost2010Prop50
 90
       50
102
RTVSPost2010PropOp50
 70
     1
102
RTVSPost2010Prop51ColorIndex
 90
      256
102
RTVSPost2010Prop51ColorRGB
 90
-16777216
102
RTVSPost2010PropOp51
 70
     0
102
RTVSPost2010Prop52
140
1.0
102
RTVSPost2010PropOp52
 70
     0
102
RTVSPost2010Prop53
 90
        2
102
RTVSPost2010PropOp53
 70
     1
102
RTVSPost2010Prop54
  1
strokes_ogs.tif
102
RTVSPost2010PropOp54
 70
     1
102
RTVSPost2010Prop55
280
     0
102
RTVSPost2010PropOp55
 70
     1
102
RTVSPost2010Prop56
140
1.0
102
RTVSPost2010PropOp56
 70
     1
102
RTVSPost2010Prop57
140
1.0
102
RTVSPost2010PropOp57
 70
     1
  0
XRECORD
  5
133
102
{ACAD_REACTORS
330
132
102
}
330
132
100
AcDbXrecord
280
     1
102
RTVSPost2010Prop28
280
     0
102
RTVSPost2010PropOp28
 70
     1
102
RTVSPost2010Prop29
280
     1
102
RTVSPost2010PropOp29
 70
     1
102
RTVSPost2010Prop30
280
     1
102
RTVSPost2010PropOp30
 70
     1
102
RTVSPost2010Prop31
280
     0
102
RTVSPost2010PropOp31
 70
     1
102
RTVSPost2010Prop32
280
     0
102
RTVSPost2010PropOp32
 70
     1
102
RTVSPost2010Prop33
280
     0
102
RTVSPost2010PropOp33
 70
     1
102
RTVSPost2010Prop34
280
     0
102
RTVSPost2010PropOp34
 70
     1
102
RTVSPost2010Prop35
280
     0
102
RTVSPost2010PropOp35
 70
     1
102
RTVSPost2010Prop36
280
     0
102
RTVSPost2010PropOp36
 70
     1
102
RTVSPost2010Prop37
 90
       50
102
RTVSPost2010PropOp37
 70
     1
102
RTVSPost2010Prop38
140
0.0
102
RTVSPost2010PropOp38
 70
     1
102
RTVSPost2010Prop39
140
1.0
102
RTVSPost2010PropOp39
 70
     1
102
RTVSPost2010Prop40
 90
        0
102
RTVSPost2010PropOp40
 70
     1
102
RTVSPost2010Prop41ColorIndex
 90
       18
102
RTVSPost2010Prop41ColorRGB
 90
        0
102
RTVSPost2010PropOp41
 70
     1
102
RTVSPost2010Prop42
 90
       50
102
RTVSPost2010PropOp42
 70
     1
102
RTVSPost2010Prop43
 90
        3
102
RTVSPost2010PropOp43
 70
     1
102
RTVSPost2010Prop44ColorIndex
 90
        5
102
RTVSPost2010Prop44ColorRGB
 90
      255
102
RTVSPost2010PropOp44
 70
     1
102
RTVSPost2010Prop45
280
     0
102
RTVSPost2010PropOp45
 70
     1
102
RTVSPost2010Prop46
 90
       50
102
RTVSPost2010PropOp46
 70
     1
102
RTVSPost2010Prop47
 90
       50
102
RTVSPost2010PropOp47
 70
     1
102
RTVSPost2010Prop48
 90
       50
102
RTVSPost2010PropOp48
 70
     1
102
RTVSPost2010Prop49
280
     0
102
RTVSPost2010PropOp49
 70
     1
102
RTVSPost2010Prop50
 90
       50
102
RTVSPost2010PropOp50
 70
     1
102
RTVSPost2010Prop51ColorIndex
 90
      256
102
RTVSPost2010Prop51ColorRGB
 90
-16777216
102
RTVSPost2010PropOp51
 70
     0
102
RTVSPost2010Prop52
140
1.0
102
RTVSPost2010PropOp52
 70
     0
102
RTVSPost2010Prop53
 90
        2
102
RTVSPost2010PropOp53
 70
     1
102
RTVSPost2010Prop54
  1
strokes_ogs.tif
102
RTVSPost2010PropOp54
 70
     1
102
RTVSPost2010Prop55
280
     0
102
RTVSPost2010PropOp55
 70
     1
102
RTVSPost2010Prop56
140
1.0
102
RTVSPost2010PropOp56
 70
     1
102
RTVSPost2010Prop57
140
1.0
102
RTVSPost2010PropOp57
 70
     1
  0
XRECORD
  5
13B
102
{ACAD_REACTORS
330
13A
102
}
330
13A
100
AcDbXrecord
280
     1
102
RTVSPost2010Prop28
280
     0
102
RTVSPost2010PropOp28
 70
     1
102
RTVSPost2010Prop29
280
     1
102
RTVSPost2010PropOp29
 70
     1
102
RTVSPost2010Prop30
280
     1
102
RTVSPost2010PropOp30
 70
     1
102
RTVSPost2010Prop31
280
     0
102
RTVSPost2010PropOp31
 70
     1
102
RTVSPost2010Prop32
280
     0
102
RTVSPost2010PropOp32
 70
     1
102
RTVSPost2010Prop33
280
     0
102
RTVSPost2010PropOp33
 70
     1
102
RTVSPost2010Prop34
280
     0
102
RTVSPost2010PropOp34
 70
     1
102
RTVSPost2010Prop35
280
     0
102
RTVSPost2010PropOp35
 70
     1
102
RTVSPost2010Prop36
280
     0
102
RTVSPost2010PropOp36
 70
     1
102
RTVSPost2010Prop37
 90
       50
102
RTVSPost2010PropOp37
 70
     1
102
RTVSPost2010Prop38
140
0.0
102
RTVSPost2010PropOp38
 70
     1
102
RTVSPost2010Prop39
140
1.0
102
RTVSPost2010PropOp39
 70
     1
102
RTVSPost2010Prop40
 90
        0
102
RTVSPost2010PropOp40
 70
     1
102
RTVSPost2010Prop41ColorIndex
 90
       18
102
RTVSPost2010Prop41ColorRGB
 90
        0
102
RTVSPost2010PropOp41
 70
     1
102
RTVSPost2010Prop42
 90
       50
102
RTVSPost2010PropOp42
 70
     1
102
RTVSPost2010Prop43
 90
        3
102
RTVSPost2010PropOp43
 70
     1
102
RTVSPost2010Prop44ColorIndex
 90
        5
102
RTVSPost2010Prop44ColorRGB
 90
      255
102
RTVSPost2010PropOp44
 70
     1
102
RTVSPost2010Prop45
280
     0
102
RTVSPost2010PropOp45
 70
     1
102
RTVSPost2010Prop46
 90
       50
102
RTVSPost2010PropOp46
 70
     1
102
RTVSPost2010Prop47
 90
       50
102
RTVSPost2010PropOp47
 70
     1
102
RTVSPost2010Prop48
 90
       50
102
RTVSPost2010PropOp48
 70
     1
102
RTVSPost2010Prop49
280
     0
102
RTVSPost2010PropOp49
 70
     1
102
RTVSPost2010Prop50
 90
       50
102
RTVSPost2010PropOp50
 70
     1
102
RTVSPost2010Prop51ColorIndex
 90
      256
102
RTVSPost2010Prop51ColorRGB
 90
-16777216
102
RTVSPost2010PropOp51
 70
     0
102
RTVSPost2010Prop52
140
1.0
102
RTVSPost2010PropOp52
 70
     0
102
RTVSPost2010Prop53
 90
        2
102
RTVSPost2010PropOp53
 70
     1
102
RTVSPost2010Prop54
  1
strokes_ogs.tif
102
RTVSPost2010PropOp54
 70
     1
102
RTVSPost2010Prop55
280
     0
102
RTVSPost2010PropOp55
 70
     1
102
RTVSPost2010Prop56
140
1.0
102
RTVSPost2010PropOp56
 70
     1
102
RTVSPost2010Prop57
140
1.0
102
RTVSPost2010PropOp57
 70
     1
  0
XRECORD
  5
12D
102
{ACAD_REACTORS
330
12C
102
}
330
12C
100
AcDbXrecord
280
     1
102
RTVSPost2010Prop28
280
     0
102
RTVSPost2010PropOp28
 70
     1
102
RTVSPost2010Prop29
280
     1
102
RTVSPost2010PropOp29
 70
     1
102
RTVSPost2010Prop30
280
     1
102
RTVSPost2010PropOp30
 70
     1
102
RTVSPost2010Prop31
280
     0
102
RTVSPost2010PropOp31
 70
     1
102
RTVSPost2010Prop32
280
     0
102
RTVSPost2010PropOp32
 70
     1
102
RTVSPost2010Prop33
280
     0
102
RTVSPost2010PropOp33
 70
     1
102
RTVSPost2010Prop34
280
     0
102
RTVSPost2010PropOp34
 70
     1
102
RTVSPost2010Prop35
280
     0
102
RTVSPost2010PropOp35
 70
     1
102
RTVSPost2010Prop36
280
     0
102
RTVSPost2010PropOp36
 70
     1
102
RTVSPost2010Prop37
 90
       50
102
RTVSPost2010PropOp37
 70
     1
102
RTVSPost2010Prop38
140
0.0
102
RTVSPost2010PropOp38
 70
     1
102
RTVSPost2010Prop39
140
1.0
102
RTVSPost2010PropOp39
 70
     1
102
RTVSPost2010Prop40
 90
        0
102
RTVSPost2010PropOp40
 70
     1
102
RTVSPost2010Prop41ColorIndex
 90
       18
102
RTVSPost2010Prop41ColorRGB
 90
        0
102
RTVSPost2010PropOp41
 70
     1
102
RTVSPost2010Prop42
 90
       50
102
RTVSPost2010PropOp42
 70
     1
102
RTVSPost2010Prop43
 90
        3
102
RTVSPost2010PropOp43
 70
     1
102
RTVSPost2010Prop44ColorIndex
 90
        5
102
RTVSPost2010Prop44ColorRGB
 90
      255
102
RTVSPost2010PropOp44
 70
     1
102
RTVSPost2010Prop45
280
     0
102
RTVSPost2010PropOp45
 70
     1
102
RTVSPost2010Prop46
 90
       50
102
RTVSPost2010PropOp46
 70
     1
102
RTVSPost2010Prop47
 90
       50
102
RTVSPost2010PropOp47
 70
     1
102
RTVSPost2010Prop48
 90
       50
102
RTVSPost2010PropOp48
 70
     1
102
RTVSPost2010Prop49
280
     0
102
RTVSPost2010PropOp49
 70
     1
102
RTVSPost2010Prop50
 90
       50
102
RTVSPost2010PropOp50
 70
     1
102
RTVSPost2010Prop51ColorIndex
 90
      256
102
RTVSPost2010Prop51ColorRGB
 90
-16777216
102
RTVSPost2010PropOp51
 70
     0
102
RTVSPost2010Prop52
140
1.0
102
RTVSPost2010PropOp52
 70
     0
102
RTVSPost2010Prop53
 90
        2
102
RTVSPost2010PropOp53
 70
     1
102
RTVSPost2010Prop54
  1
strokes_ogs.tif
102
RTVSPost2010PropOp54
 70
     1
102
RTVSPost2010Prop55
280
     0
102
RTVSPost2010PropOp55
 70
     1
102
RTVSPost2010Prop56
140
1.0
102
RTVSPost2010PropOp56
 70
     1
102
RTVSPost2010Prop57
140
1.0
102
RTVSPost2010PropOp57
 70
     1
  0
XRECORD
  5
131
102
{ACAD_REACTORS
330
130
102
}
330
130
100
AcDbXrecord
280
     1
102
RTVSPost2010Prop28
280
     0
102
RTVSPost2010PropOp28
 70
     1
102
RTVSPost2010Prop29
280
     1
102
RTVSPost2010PropOp29
 70
     1
102
RTVSPost2010Prop30
280
     1
102
RTVSPost2010PropOp30
 70
     1
102
RTVSPost2010Prop31
280
     0
102
RTVSPost2010PropOp31
 70
     1
102
RTVSPost2010Prop32
280
     0
102
RTVSPost2010PropOp32
 70
     1
102
RTVSPost2010Prop33
280
     0
102
RTVSPost2010PropOp33
 70
     1
102
RTVSPost2010Prop34
280
     0
102
RTVSPost2010PropOp34
 70
     1
102
RTVSPost2010Prop35
280
     0
102
RTVSPost2010PropOp35
 70
     1
102
RTVSPost2010Prop36
280
     0
102
RTVSPost2010PropOp36
 70
     1
102
RTVSPost2010Prop37
 90
       50
102
RTVSPost2010PropOp37
 70
     1
102
RTVSPost2010Prop38
140
0.0
102
RTVSPost2010PropOp38
 70
     1
102
RTVSPost2010Prop39
140
1.0
102
RTVSPost2010PropOp39
 70
     1
102
RTVSPost2010Prop40
 90
        0
102
RTVSPost2010PropOp40
 70
     1
102
RTVSPost2010Prop41ColorIndex
 90
       18
102
RTVSPost2010Prop41ColorRGB
 90
        0
102
RTVSPost2010PropOp41
 70
     1
102
RTVSPost2010Prop42
 90
       50
102
RTVSPost2010PropOp42
 70
     1
102
RTVSPost2010Prop43
 90
        3
102
RTVSPost2010PropOp43
 70
     1
102
RTVSPost2010Prop44ColorIndex
 90
        5
102
RTVSPost2010Prop44ColorRGB
 90
      255
102
RTVSPost2010PropOp44
 70
     1
102
RTVSPost2010Prop45
280
     0
102
RTVSPost2010PropOp45
 70
     1
102
RTVSPost2010Prop46
 90
       50
102
RTVSPost2010PropOp46
 70
     1
102
RTVSPost2010Prop47
 90
       50
102
RTVSPost2010PropOp47
 70
     1
102
RTVSPost2010Prop48
 90
       50
102
RTVSPost2010PropOp48
 70
     1
102
RTVSPost2010Prop49
280
     0
102
RTVSPost2010PropOp49
 70
     1
102
RTVSPost2010Prop50
 90
       50
102
RTVSPost2010PropOp50
 70
     1
102
RTVSPost2010Prop51ColorIndex
 90
      256
102
RTVSPost2010Prop51ColorRGB
 90
-16777216
102
RTVSPost2010PropOp51
 70
     0
102
RTVSPost2010Prop52
140
1.0
102
RTVSPost2010PropOp52
 70
     0
102
RTVSPost2010Prop53
 90
        2
102
RTVSPost2010PropOp53
 70
     1
102
RTVSPost2010Prop54
  1
strokes_ogs.tif
102
RTVSPost2010PropOp54
 70
     1
102
RTVSPost2010Prop55
280
     0
102
RTVSPost2010PropOp55
 70
     1
102
RTVSPost2010Prop56
140
1.0
102
RTVSPost2010PropOp56
 70
     1
102
RTVSPost2010Prop57
140
1.0
102
RTVSPost2010PropOp57
 70
     1
  0
XRECORD
  5
14B
102
{ACAD_REACTORS
330
14A
102
}
330
14A
100
AcDbXrecord
280
     1
102
RTVSPost2010Prop28
280
     0
102
RTVSPost2010PropOp28
 70
     0
102
RTVSPost2010Prop29
280
     1
102
RTVSPost2010PropOp29
 70
     0
102
RTVSPost2010Prop30
280
     1
102
RTVSPost2010PropOp30
 70
     0
102
RTVSPost2010Prop31
280
     0
102
RTVSPost2010PropOp31
 70
     0
102
RTVSPost2010Prop32
280
     0
102
RTVSPost2010PropOp32
 70
     0
102
RTVSPost2010Prop33
280
     0
102
RTVSPost2010PropOp33
 70
     0
102
RTVSPost2010Prop34
280
     0
102
RTVSPost2010PropOp34
 70
     0
102
RTVSPost2010Prop35
280
     0
102
RTVSPost2010PropOp35
 70
     0
102
RTVSPost2010Prop36
280
     0
102
RTVSPost2010PropOp36
 70
     0
102
RTVSPost2010Prop37
 90
       50
102
RTVSPost2010PropOp37
 70
     0
102
RTVSPost2010Prop38
140
0.0
102
RTVSPost2010PropOp38
 70
     0
102
RTVSPost2010Prop39
140
1.0
102
RTVSPost2010PropOp39
 70
     0
102
RTVSPost2010Prop40
 90
        0
102
RTVSPost2010PropOp40
 70
     0
102
RTVSPost2010Prop41ColorIndex
 90
       18
102
RTVSPost2010Prop41ColorRGB
 90
        0
102
RTVSPost2010PropOp41
 70
     0
102
RTVSPost2010Prop42
 90
       50
102
RTVSPost2010PropOp42
 70
     0
102
RTVSPost2010Prop43
 90
        3
102
RTVSPost2010PropOp43
 70
     0
102
RTVSPost2010Prop44ColorIndex
 90
        5
102
RTVSPost2010Prop44ColorRGB
 90
      255
102
RTVSPost2010PropOp44
 70
     0
102
RTVSPost2010Prop45
280
     0
102
RTVSPost2010PropOp45
 70
     0
102
RTVSPost2010Prop46
 90
       50
102
RTVSPost2010PropOp46
 70
     0
102
RTVSPost2010Prop47
 90
       50
102
RTVSPost2010PropOp47
 70
     0
102
RTVSPost2010Prop48
 90
       50
102
RTVSPost2010PropOp48
 70
     0
102
RTVSPost2010Prop49
280
     0
102
RTVSPost2010PropOp49
 70
     0
102
RTVSPost2010Prop50
 90
       50
102
RTVSPost2010PropOp50
 70
     0
102
RTVSPost2010Prop51ColorIndex
 90
      256
102
RTVSPost2010Prop51ColorRGB
 90
-16777216
102
RTVSPost2010PropOp51
 70
     0
102
RTVSPost2010Prop52
140
1.0
102
RTVSPost2010PropOp52
 70
     0
102
RTVSPost2010Prop53
 90
        2
102
RTVSPost2010PropOp53
 70
     0
102
RTVSPost2010Prop54
  1
strokes_ogs.tif
102
RTVSPost2010PropOp54
 70
     0
102
RTVSPost2010Prop55
280
     0
102
RTVSPost2010PropOp55
 70
     0
102
RTVSPost2010Prop56
140
1.0
102
RTVSPost2010PropOp56
 70
     0
102
RTVSPost2010Prop57
140
1.0
102
RTVSPost2010PropOp57
 70
     0
  0
XRECORD
  5
139
102
{ACAD_REACTORS
330
138
102
}
330
138
100
AcDbXrecord
280
     1
102
RTVSPost2010Prop28
280
     0
102
RTVSPost2010PropOp28
 70
     1
102
RTVSPost2010Prop29
280
     1
102
RTVSPost2010PropOp29
 70
     1
102
RTVSPost2010Prop30
280
     1
102
RTVSPost2010PropOp30
 70
     1
102
RTVSPost2010Prop31
280
     0
102
RTVSPost2010PropOp31
 70
     1
102
RTVSPost2010Prop32
280
     0
102
RTVSPost2010PropOp32
 70
     1
102
RTVSPost2010Prop33
280
     0
102
RTVSPost2010PropOp33
 70
     1
102
RTVSPost2010Prop34
280
     0
102
RTVSPost2010PropOp34
 70
     1
102
RTVSPost2010Prop35
280
     0
102
RTVSPost2010PropOp35
 70
     1
102
RTVSPost2010Prop36
280
     0
102
RTVSPost2010PropOp36
 70
     1
102
RTVSPost2010Prop37
 90
       50
102
RTVSPost2010PropOp37
 70
     1
102
RTVSPost2010Prop38
140
0.0
102
RTVSPost2010PropOp38
 70
     1
102
RTVSPost2010Prop39
140
1.0
102
RTVSPost2010PropOp39
 70
     1
102
RTVSPost2010Prop40
 90
        0
102
RTVSPost2010PropOp40
 70
     1
102
RTVSPost2010Prop41ColorIndex
 90
       18
102
RTVSPost2010Prop41ColorRGB
 90
        0
102
RTVSPost2010PropOp41
 70
     1
102
RTVSPost2010Prop42
 90
       50
102
RTVSPost2010PropOp42
 70
     1
102
RTVSPost2010Prop43
 90
        3
102
RTVSPost2010PropOp43
 70
     1
102
RTVSPost2010Prop44ColorIndex
 90
        5
102
RTVSPost2010Prop44ColorRGB
 90
      255
102
RTVSPost2010PropOp44
 70
     1
102
RTVSPost2010Prop45
280
     0
102
RTVSPost2010PropOp45
 70
     1
102
RTVSPost2010Prop46
 90
       50
102
RTVSPost2010PropOp46
 70
     1
102
RTVSPost2010Prop47
 90
       50
102
RTVSPost2010PropOp47
 70
     1
102
RTVSPost2010Prop48
 90
       50
102
RTVSPost2010PropOp48
 70
     1
102
RTVSPost2010Prop49
280
     0
102
RTVSPost2010PropOp49
 70
     1
102
RTVSPost2010Prop50
 90
       50
102
RTVSPost2010PropOp50
 70
     1
102
RTVSPost2010Prop51ColorIndex
 90
      256
102
RTVSPost2010Prop51ColorRGB
 90
-16777216
102
RTVSPost2010PropOp51
 70
     0
102
RTVSPost2010Prop52
140
1.0
102
RTVSPost2010PropOp52
 70
     0
102
RTVSPost2010Prop53
 90
        2
102
RTVSPost2010PropOp53
 70
     1
102
RTVSPost2010Prop54
  1
strokes_ogs.tif
102
RTVSPost2010PropOp54
 70
     1
102
RTVSPost2010Prop55
280
     0
102
RTVSPost2010PropOp55
 70
     1
102
RTVSPost2010Prop56
140
1.0
102
RTVSPost2010PropOp56
 70
     1
102
RTVSPost2010Prop57
140
1.0
102
RTVSPost2010PropOp57
 70
     1
  0
XRECORD
  5
11D
102
{ACAD_REACTORS
330
11C
102
}
330
11C
100
AcDbXrecord
280
     1
102
RTVSPost2010Prop28
280
     0
102
RTVSPost2010PropOp28
 70
     1
102
RTVSPost2010Prop29
280
     1
102
RTVSPost2010PropOp29
 70
     1
102
RTVSPost2010Prop30
280
     1
102
RTVSPost2010PropOp30
 70
     1
102
RTVSPost2010Prop31
280
     0
102
RTVSPost2010PropOp31
 70
     1
102
RTVSPost2010Prop32
280
     0
102
RTVSPost2010PropOp32
 70
     1
102
RTVSPost2010Prop33
280
     0
102
RTVSPost2010PropOp33
 70
     1
102
RTVSPost2010Prop34
280
     0
102
RTVSPost2010PropOp34
 70
     1
102
RTVSPost2010Prop35
280
     0
102
RTVSPost2010PropOp35
 70
     1
102
RTVSPost2010Prop36
280
     0
102
RTVSPost2010PropOp36
 70
     1
102
RTVSPost2010Prop37
 90
       50
102
RTVSPost2010PropOp37
 70
     1
102
RTVSPost2010Prop38
140
0.0
102
RTVSPost2010PropOp38
 70
     1
102
RTVSPost2010Prop39
140
1.0
102
RTVSPost2010PropOp39
 70
     1
102
RTVSPost2010Prop40
 90
        0
102
RTVSPost2010PropOp40
 70
     1
102
RTVSPost2010Prop41ColorIndex
 90
       18
102
RTVSPost2010Prop41ColorRGB
 90
        0
102
RTVSPost2010PropOp41
 70
     1
102
RTVSPost2010Prop42
 90
       50
102
RTVSPost2010PropOp42
 70
     1
102
RTVSPost2010Prop43
 90
        3
102
RTVSPost2010PropOp43
 70
     1
102
RTVSPost2010Prop44ColorIndex
 90
        5
102
RTVSPost2010Prop44ColorRGB
 90
      255
102
RTVSPost2010PropOp44
 70
     1
102
RTVSPost2010Prop45
280
     0
102
RTVSPost2010PropOp45
 70
     1
102
RTVSPost2010Prop46
 90
       50
102
RTVSPost2010PropOp46
 70
     1
102
RTVSPost2010Prop47
 90
       50
102
RTVSPost2010PropOp47
 70
     1
102
RTVSPost2010Prop48
 90
       50
102
RTVSPost2010PropOp48
 70
     1
102
RTVSPost2010Prop49
280
     0
102
RTVSPost2010PropOp49
 70
     1
102
RTVSPost2010Prop50
 90
       50
102
RTVSPost2010PropOp50
 70
     1
102
RTVSPost2010Prop51ColorIndex
 90
      256
102
RTVSPost2010Prop51ColorRGB
 90
-16777216
102
RTVSPost2010PropOp51
 70
     0
102
RTVSPost2010Prop52
140
1.0
102
RTVSPost2010PropOp52
 70
     0
102
RTVSPost2010Prop53
 90
        2
102
RTVSPost2010PropOp53
 70
     1
102
RTVSPost2010Prop54
  1
strokes_ogs.tif
102
RTVSPost2010PropOp54
 70
     1
102
RTVSPost2010Prop55
280
     0
102
RTVSPost2010PropOp55
 70
     1
102
RTVSPost2010Prop56
140
1.0
102
RTVSPost2010PropOp56
 70
     1
102
RTVSPost2010Prop57
140
1.0
102
RTVSPost2010PropOp57
 70
     1
  0
XRECORD
  5
11F
102
{ACAD_REACTORS
330
11E
102
}
330
11E
100
AcDbXrecord
280
     1
102
RTVSPost2010Prop28
280
     0
102
RTVSPost2010PropOp28
 70
     1
102
RTVSPost2010Prop29
280
     1
102
RTVSPost2010PropOp29
 70
     1
102
RTVSPost2010Prop30
280
     1
102
RTVSPost2010PropOp30
 70
     1
102
RTVSPost2010Prop31
280
     0
102
RTVSPost2010PropOp31
 70
     1
102
RTVSPost2010Prop32
280
     0
102
RTVSPost2010PropOp32
 70
     1
102
RTVSPost2010Prop33
280
     0
102
RTVSPost2010PropOp33
 70
     1
102
RTVSPost2010Prop34
280
     0
102
RTVSPost2010PropOp34
 70
     1
102
RTVSPost2010Prop35
280
     0
102
RTVSPost2010PropOp35
 70
     1
102
RTVSPost2010Prop36
280
     0
102
RTVSPost2010PropOp36
 70
     1
102
RTVSPost2010Prop37
 90
       50
102
RTVSPost2010PropOp37
 70
     1
102
RTVSPost2010Prop38
140
0.0
102
RTVSPost2010PropOp38
 70
     1
102
RTVSPost2010Prop39
140
1.0
102
RTVSPost2010PropOp39
 70
     1
102
RTVSPost2010Prop40
 90
        0
102
RTVSPost2010PropOp40
 70
     1
102
RTVSPost2010Prop41ColorIndex
 90
       18
102
RTVSPost2010Prop41ColorRGB
 90
        0
102
RTVSPost2010PropOp41
 70
     1
102
RTVSPost2010Prop42
 90
       50
102
RTVSPost2010PropOp42
 70
     1
102
RTVSPost2010Prop43
 90
        3
102
RTVSPost2010PropOp43
 70
     1
102
RTVSPost2010Prop44ColorIndex
 90
        5
102
RTVSPost2010Prop44ColorRGB
 90
      255
102
RTVSPost2010PropOp44
 70
     1
102
RTVSPost2010Prop45
280
     0
102
RTVSPost2010PropOp45
 70
     1
102
RTVSPost2010Prop46
 90
       50
102
RTVSPost2010PropOp46
 70
     1
102
RTVSPost2010Prop47
 90
       50
102
RTVSPost2010PropOp47
 70
     1
102
RTVSPost2010Prop48
 90
       50
102
RTVSPost2010PropOp48
 70
     1
102
RTVSPost2010Prop49
280
     0
102
RTVSPost2010PropOp49
 70
     1
102
RTVSPost2010Prop50
 90
       50
102
RTVSPost2010PropOp50
 70
     1
102
RTVSPost2010Prop51ColorIndex
 90
      256
102
RTVSPost2010Prop51ColorRGB
 90
-16777216
102
RTVSPost2010PropOp51
 70
     0
102
RTVSPost2010Prop52
140
1.0
102
RTVSPost2010PropOp52
 70
     0
102
RTVSPost2010Prop53
 90
        2
102
RTVSPost2010PropOp53
 70
     1
102
RTVSPost2010Prop54
  1
strokes_ogs.tif
102
RTVSPost2010PropOp54
 70
     1
102
RTVSPost2010Prop55
280
     0
102
RTVSPost2010PropOp55
 70
     1
102
RTVSPost2010Prop56
140
1.0
102
RTVSPost2010PropOp56
 70
     1
102
RTVSPost2010Prop57
140
1.0
102
RTVSPost2010PropOp57
 70
     1
  0
XRECORD
  5
121
102
{ACAD_REACTORS
330
120
102
}
330
120
100
AcDbXrecord
280
     1
102
RTVSPost2010Prop28
280
     0
102
RTVSPost2010PropOp28
 70
     1
102
RTVSPost2010Prop29
280
     1
102
RTVSPost2010PropOp29
 70
     1
102
RTVSPost2010Prop30
280
     1
102
RTVSPost2010PropOp30
 70
     1
102
RTVSPost2010Prop31
280
     0
102
RTVSPost2010PropOp31
 70
     1
102
RTVSPost2010Prop32
280
     0
102
RTVSPost2010PropOp32
 70
     1
102
RTVSPost2010Prop33
280
     0
102
RTVSPost2010PropOp33
 70
     1
102
RTVSPost2010Prop34
280
     0
102
RTVSPost2010PropOp34
 70
     1
102
RTVSPost2010Prop35
280
     0
102
RTVSPost2010PropOp35
 70
     1
102
RTVSPost2010Prop36
280
     0
102
RTVSPost2010PropOp36
 70
     1
102
RTVSPost2010Prop37
 90
       50
102
RTVSPost2010PropOp37
 70
     1
102
RTVSPost2010Prop38
140
0.0
102
RTVSPost2010PropOp38
 70
     1
102
RTVSPost2010Prop39
140
1.0
102
RTVSPost2010PropOp39
 70
     1
102
RTVSPost2010Prop40
 90
        0
102
RTVSPost2010PropOp40
 70
     1
102
RTVSPost2010Prop41ColorIndex
 90
       18
102
RTVSPost2010Prop41ColorRGB
 90
        0
102
RTVSPost2010PropOp41
 70
     1
102
RTVSPost2010Prop42
 90
       50
102
RTVSPost2010PropOp42
 70
     1
102
RTVSPost2010Prop43
 90
        3
102
RTVSPost2010PropOp43
 70
     1
102
RTVSPost2010Prop44ColorIndex
 90
        5
102
RTVSPost2010Prop44ColorRGB
 90
      255
102
RTVSPost2010PropOp44
 70
     1
102
RTVSPost2010Prop45
280
     0
102
RTVSPost2010PropOp45
 70
     1
102
RTVSPost2010Prop46
 90
       50
102
RTVSPost2010PropOp46
 70
     1
102
RTVSPost2010Prop47
 90
       50
102
RTVSPost2010PropOp47
 70
     1
102
RTVSPost2010Prop48
 90
       50
102
RTVSPost2010PropOp48
 70
     1
102
RTVSPost2010Prop49
280
     0
102
RTVSPost2010PropOp49
 70
     1
102
RTVSPost2010Prop50
 90
       50
102
RTVSPost2010PropOp50
 70
     1
102
RTVSPost2010Prop51ColorIndex
 90
      256
102
RTVSPost2010Prop51ColorRGB
 90
-16777216
102
RTVSPost2010PropOp51
 70
     0
102
RTVSPost2010Prop52
140
1.0
102
RTVSPost2010PropOp52
 70
     0
102
RTVSPost2010Prop53
 90
        2
102
RTVSPost2010PropOp53
 70
     1
102
RTVSPost2010Prop54
  1
strokes_ogs.tif
102
RTVSPost2010PropOp54
 70
     1
102
RTVSPost2010Prop55
280
     0
102
RTVSPost2010PropOp55
 70
     1
102
RTVSPost2010Prop56
140
1.0
102
RTVSPost2010PropOp56
 70
     1
102
RTVSPost2010Prop57
140
1.0
102
RTVSPost2010PropOp57
 70
     1
  0
XRECORD
  5
123
102
{ACAD_REACTORS
330
122
102
}
330
122
100
AcDbXrecord
280
     1
102
RTVSPost2010Prop28
280
     0
102
RTVSPost2010PropOp28
 70
     1
102
RTVSPost2010Prop29
280
     1
102
RTVSPost2010PropOp29
 70
     1
102
RTVSPost2010Prop30
280
     1
102
RTVSPost2010PropOp30
 70
     1
102
RTVSPost2010Prop31
280
     0
102
RTVSPost2010PropOp31
 70
     1
102
RTVSPost2010Prop32
280
     0
102
RTVSPost2010PropOp32
 70
     1
102
RTVSPost2010Prop33
280
     0
102
RTVSPost2010PropOp33
 70
     1
102
RTVSPost2010Prop34
280
     0
102
RTVSPost2010PropOp34
 70
     1
102
RTVSPost2010Prop35
280
     0
102
RTVSPost2010PropOp35
 70
     1
102
RTVSPost2010Prop36
280
     0
102
RTVSPost2010PropOp36
 70
     1
102
RTVSPost2010Prop37
 90
       50
102
RTVSPost2010PropOp37
 70
     1
102
RTVSPost2010Prop38
140
0.0
102
RTVSPost2010PropOp38
 70
     1
102
RTVSPost2010Prop39
140
1.0
102
RTVSPost2010PropOp39
 70
     1
102
RTVSPost2010Prop40
 90
        0
102
RTVSPost2010PropOp40
 70
     1
102
RTVSPost2010Prop41ColorIndex
 90
       18
102
RTVSPost2010Prop41ColorRGB
 90
        0
102
RTVSPost2010PropOp41
 70
     1
102
RTVSPost2010Prop42
 90
       50
102
RTVSPost2010PropOp42
 70
     1
102
RTVSPost2010Prop43
 90
        3
102
RTVSPost2010PropOp43
 70
     1
102
RTVSPost2010Prop44ColorIndex
 90
        5
102
RTVSPost2010Prop44ColorRGB
 90
      255
102
RTVSPost2010PropOp44
 70
     1
102
RTVSPost2010Prop45
280
     0
102
RTVSPost2010PropOp45
 70
     1
102
RTVSPost2010Prop46
 90
       50
102
RTVSPost2010PropOp46
 70
     1
102
RTVSPost2010Prop47
 90
       50
102
RTVSPost2010PropOp47
 70
     1
102
RTVSPost2010Prop48
 90
       50
102
RTVSPost2010PropOp48
 70
     1
102
RTVSPost2010Prop49
280
     0
102
RTVSPost2010PropOp49
 70
     1
102
RTVSPost2010Prop50
 90
       50
102
RTVSPost2010PropOp50
 70
     1
102
RTVSPost2010Prop51ColorIndex
 90
      256
102
RTVSPost2010Prop51ColorRGB
 90
-16777216
102
RTVSPost2010PropOp51
 70
     0
102
RTVSPost2010Prop52
140
1.0
102
RTVSPost2010PropOp52
 70
     0
102
RTVSPost2010Prop53
 90
        2
102
RTVSPost2010PropOp53
 70
     1
102
RTVSPost2010Prop54
  1
strokes_ogs.tif
102
RTVSPost2010PropOp54
 70
     1
102
RTVSPost2010Prop55
280
     0
102
RTVSPost2010PropOp55
 70
     1
102
RTVSPost2010Prop56
140
1.0
102
RTVSPost2010PropOp56
 70
     1
102
RTVSPost2010Prop57
140
1.0
102
RTVSPost2010PropOp57
 70
     1
  0
XRECORD
  5
12B
102
{ACAD_REACTORS
330
12A
102
}
330
12A
100
AcDbXrecord
280
     1
102
RTVSPost2010Prop28
280
     0
102
RTVSPost2010PropOp28
 70
     1
102
RTVSPost2010Prop29
280
     1
102
RTVSPost2010PropOp29
 70
     1
102
RTVSPost2010Prop30
280
     1
102
RTVSPost2010PropOp30
 70
     1
102
RTVSPost2010Prop31
280
     0
102
RTVSPost2010PropOp31
 70
     1
102
RTVSPost2010Prop32
280
     0
102
RTVSPost2010PropOp32
 70
     1
102
RTVSPost2010Prop33
280
     0
102
RTVSPost2010PropOp33
 70
     1
102
RTVSPost2010Prop34
280
     0
102
RTVSPost2010PropOp34
 70
     1
102
RTVSPost2010Prop35
280
     0
102
RTVSPost2010PropOp35
 70
     1
102
RTVSPost2010Prop36
280
     0
102
RTVSPost2010PropOp36
 70
     1
102
RTVSPost2010Prop37
 90
       50
102
RTVSPost2010PropOp37
 70
     1
102
RTVSPost2010Prop38
140
0.0
102
RTVSPost2010PropOp38
 70
     1
102
RTVSPost2010Prop39
140
1.0
102
RTVSPost2010PropOp39
 70
     1
102
RTVSPost2010Prop40
 90
        0
102
RTVSPost2010PropOp40
 70
     1
102
RTVSPost2010Prop41ColorIndex
 90
       18
102
RTVSPost2010Prop41ColorRGB
 90
        0
102
RTVSPost2010PropOp41
 70
     1
102
RTVSPost2010Prop42
 90
       50
102
RTVSPost2010PropOp42
 70
     1
102
RTVSPost2010Prop43
 90
        3
102
RTVSPost2010PropOp43
 70
     1
102
RTVSPost2010Prop44ColorIndex
 90
        5
102
RTVSPost2010Prop44ColorRGB
 90
      255
102
RTVSPost2010PropOp44
 70
     1
102
RTVSPost2010Prop45
280
     0
102
RTVSPost2010PropOp45
 70
     1
102
RTVSPost2010Prop46
 90
       50
102
RTVSPost2010PropOp46
 70
     1
102
RTVSPost2010Prop47
 90
       50
102
RTVSPost2010PropOp47
 70
     1
102
RTVSPost2010Prop48
 90
       50
102
RTVSPost2010PropOp48
 70
     1
102
RTVSPost2010Prop49
280
     0
102
RTVSPost2010PropOp49
 70
     1
102
RTVSPost2010Prop50
 90
       50
102
RTVSPost2010PropOp50
 70
     1
102
RTVSPost2010Prop51ColorIndex
 90
      256
102
RTVSPost2010Prop51ColorRGB
 90
-16777216
102
RTVSPost2010PropOp51
 70
     0
102
RTVSPost2010Prop52
140
1.0
102
RTVSPost2010PropOp52
 70
     0
102
RTVSPost2010Prop53
 90
        2
102
RTVSPost2010PropOp53
 70
     1
102
RTVSPost2010Prop54
  1
strokes_ogs.tif
102
RTVSPost2010PropOp54
 70
     1
102
RTVSPost2010Prop55
280
     0
102
RTVSPost2010PropOp55
 70
     1
102
RTVSPost2010Prop56
140
1.0
102
RTVSPost2010PropOp56
 70
     1
102
RTVSPost2010Prop57
140
1.0
102
RTVSPost2010PropOp57
 70
     1
  0
XRECORD
  5
147
102
{ACAD_REACTORS
330
146
102
}
330
146
100
AcDbXrecord
280
     1
102
RTVSPost2010Prop28
280
     0
102
RTVSPost2010PropOp28
 70
     0
102
RTVSPost2010Prop29
280
     1
102
RTVSPost2010PropOp29
 70
     0
102
RTVSPost2010Prop30
280
     1
102
RTVSPost2010PropOp30
 70
     0
102
RTVSPost2010Prop31
280
     0
102
RTVSPost2010PropOp31
 70
     0
102
RTVSPost2010Prop32
280
     0
102
RTVSPost2010PropOp32
 70
     0
102
RTVSPost2010Prop33
280
     0
102
RTVSPost2010PropOp33
 70
     0
102
RTVSPost2010Prop34
280
     0
102
RTVSPost2010PropOp34
 70
     0
102
RTVSPost2010Prop35
280
     0
102
RTVSPost2010PropOp35
 70
     0
102
RTVSPost2010Prop36
280
     0
102
RTVSPost2010PropOp36
 70
     0
102
RTVSPost2010Prop37
 90
       50
102
RTVSPost2010PropOp37
 70
     0
102
RTVSPost2010Prop38
140
0.0
102
RTVSPost2010PropOp38
 70
     0
102
RTVSPost2010Prop39
140
1.0
102
RTVSPost2010PropOp39
 70
     0
102
RTVSPost2010Prop40
 90
        0
102
RTVSPost2010PropOp40
 70
     0
102
RTVSPost2010Prop41ColorIndex
 90
       18
102
RTVSPost2010Prop41ColorRGB
 90
        0
102
RTVSPost2010PropOp41
 70
     0
102
RTVSPost2010Prop42
 90
       50
102
RTVSPost2010PropOp42
 70
     0
102
RTVSPost2010Prop43
 90
        3
102
RTVSPost2010PropOp43
 70
     0
102
RTVSPost2010Prop44ColorIndex
 90
        5
102
RTVSPost2010Prop44ColorRGB
 90
      255
102
RTVSPost2010PropOp44
 70
     0
102
RTVSPost2010Prop45
280
     0
102
RTVSPost2010PropOp45
 70
     0
102
RTVSPost2010Prop46
 90
       50
102
RTVSPost2010PropOp46
 70
     0
102
RTVSPost2010Prop47
 90
       50
102
RTVSPost2010PropOp47
 70
     0
102
RTVSPost2010Prop48
 90
       50
102
RTVSPost2010PropOp48
 70
     0
102
RTVSPost2010Prop49
280
     0
102
RTVSPost2010PropOp49
 70
     0
102
RTVSPost2010Prop50
 90
       50
102
RTVSPost2010PropOp50
 70
     0
102
RTVSPost2010Prop51ColorIndex
 90
      256
102
RTVSPost2010Prop51ColorRGB
 90
-16777216
102
RTVSPost2010PropOp51
 70
     0
102
RTVSPost2010Prop52
140
1.0
102
RTVSPost2010PropOp52
 70
     0
102
RTVSPost2010Prop53
 90
        2
102
RTVSPost2010PropOp53
 70
     0
102
RTVSPost2010Prop54
  1
strokes_ogs.tif
102
RTVSPost2010PropOp54
 70
     0
102
RTVSPost2010Prop55
280
     0
102
RTVSPost2010PropOp55
 70
     0
102
RTVSPost2010Prop56
140
1.0
102
RTVSPost2010PropOp56
 70
     0
102
RTVSPost2010Prop57
140
1.0
102
RTVSPost2010PropOp57
 70
     0
  0
XRECORD
  5
137
102
{ACAD_REACTORS
330
136
102
}
330
136
100
AcDbXrecord
280
     1
102
RTVSPost2010Prop28
280
     0
102
RTVSPost2010PropOp28
 70
     1
102
RTVSPost2010Prop29
280
     1
102
RTVSPost2010PropOp29
 70
     1
102
RTVSPost2010Prop30
280
     1
102
RTVSPost2010PropOp30
 70
     1
102
RTVSPost2010Prop31
280
     0
102
RTVSPost2010PropOp31
 70
     1
102
RTVSPost2010Prop32
280
     0
102
RTVSPost2010PropOp32
 70
     1
102
RTVSPost2010Prop33
280
     0
102
RTVSPost2010PropOp33
 70
     1
102
RTVSPost2010Prop34
280
     0
102
RTVSPost2010PropOp34
 70
     1
102
RTVSPost2010Prop35
280
     0
102
RTVSPost2010PropOp35
 70
     1
102
RTVSPost2010Prop36
280
     0
102
RTVSPost2010PropOp36
 70
     1
102
RTVSPost2010Prop37
 90
       50
102
RTVSPost2010PropOp37
 70
     1
102
RTVSPost2010Prop38
140
0.0
102
RTVSPost2010PropOp38
 70
     1
102
RTVSPost2010Prop39
140
1.0
102
RTVSPost2010PropOp39
 70
     1
102
RTVSPost2010Prop40
 90
        0
102
RTVSPost2010PropOp40
 70
     1
102
RTVSPost2010Prop41ColorIndex
 90
       18
102
RTVSPost2010Prop41ColorRGB
 90
        0
102
RTVSPost2010PropOp41
 70
     1
102
RTVSPost2010Prop42
 90
       50
102
RTVSPost2010PropOp42
 70
     1
102
RTVSPost2010Prop43
 90
        3
102
RTVSPost2010PropOp43
 70
     1
102
RTVSPost2010Prop44ColorIndex
 90
        5
102
RTVSPost2010Prop44ColorRGB
 90
      255
102
RTVSPost2010PropOp44
 70
     1
102
RTVSPost2010Prop45
280
     0
102
RTVSPost2010PropOp45
 70
     1
102
RTVSPost2010Prop46
 90
       50
102
RTVSPost2010PropOp46
 70
     1
102
RTVSPost2010Prop47
 90
       50
102
RTVSPost2010PropOp47
 70
     1
102
RTVSPost2010Prop48
 90
       50
102
RTVSPost2010PropOp48
 70
     1
102
RTVSPost2010Prop49
280
     0
102
RTVSPost2010PropOp49
 70
     1
102
RTVSPost2010Prop50
 90
       50
102
RTVSPost2010PropOp50
 70
     1
102
RTVSPost2010Prop51ColorIndex
 90
      256
102
RTVSPost2010Prop51ColorRGB
 90
-16777216
102
RTVSPost2010PropOp51
 70
     0
102
RTVSPost2010Prop52
140
1.0
102
RTVSPost2010PropOp52
 70
     0
102
RTVSPost2010Prop53
 90
        2
102
RTVSPost2010PropOp53
 70
     1
102
RTVSPost2010Prop54
  1
strokes_ogs.tif
102
RTVSPost2010PropOp54
 70
     1
102
RTVSPost2010Prop55
280
     0
102
RTVSPost2010PropOp55
 70
     1
102
RTVSPost2010Prop56
140
1.0
102
RTVSPost2010PropOp56
 70
     1
102
RTVSPost2010Prop57
140
1.0
102
RTVSPost2010PropOp57
 70
     1
  0
XRECORD
  5
149
102
{ACAD_REACTORS
330
148
102
}
330
148
100
AcDbXrecord
280
     1
102
RTVSPost2010Prop28
280
     0
102
RTVSPost2010PropOp28
 70
     0
102
RTVSPost2010Prop29
280
     1
102
RTVSPost2010PropOp29
 70
     0
102
RTVSPost2010Prop30
280
     1
102
RTVSPost2010PropOp30
 70
     0
102
RTVSPost2010Prop31
280
     0
102
RTVSPost2010PropOp31
 70
     0
102
RTVSPost2010Prop32
280
     0
102
RTVSPost2010PropOp32
 70
     0
102
RTVSPost2010Prop33
280
     0
102
RTVSPost2010PropOp33
 70
     0
102
RTVSPost2010Prop34
280
     0
102
RTVSPost2010PropOp34
 70
     0
102
RTVSPost2010Prop35
280
     0
102
RTVSPost2010PropOp35
 70
     0
102
RTVSPost2010Prop36
280
     0
102
RTVSPost2010PropOp36
 70
     0
102
RTVSPost2010Prop37
 90
       50
102
RTVSPost2010PropOp37
 70
     0
102
RTVSPost2010Prop38
140
0.0
102
RTVSPost2010PropOp38
 70
     0
102
RTVSPost2010Prop39
140
1.0
102
RTVSPost2010PropOp39
 70
     0
102
RTVSPost2010Prop40
 90
        0
102
RTVSPost2010PropOp40
 70
     0
102
RTVSPost2010Prop41ColorIndex
 90
       18
102
RTVSPost2010Prop41ColorRGB
 90
        0
102
RTVSPost2010PropOp41
 70
     0
102
RTVSPost2010Prop42
 90
       50
102
RTVSPost2010PropOp42
 70
     0
102
RTVSPost2010Prop43
 90
        3
102
RTVSPost2010PropOp43
 70
     0
102
RTVSPost2010Prop44ColorIndex
 90
        5
102
RTVSPost2010Prop44ColorRGB
 90
      255
102
RTVSPost2010PropOp44
 70
     0
102
RTVSPost2010Prop45
280
     0
102
RTVSPost2010PropOp45
 70
     0
102
RTVSPost2010Prop46
 90
       50
102
RTVSPost2010PropOp46
 70
     0
102
RTVSPost2010Prop47
 90
       50
102
RTVSPost2010PropOp47
 70
     0
102
RTVSPost2010Prop48
 90
       50
102
RTVSPost2010PropOp48
 70
     0
102
RTVSPost2010Prop49
280
     0
102
RTVSPost2010PropOp49
 70
     0
102
RTVSPost2010Prop50
 90
       50
102
RTVSPost2010PropOp50
 70
     0
102
RTVSPost2010Prop51ColorIndex
 90
      256
102
RTVSPost2010Prop51ColorRGB
 90
-16777216
102
RTVSPost2010PropOp51
 70
     0
102
RTVSPost2010Prop52
140
1.0
102
RTVSPost2010PropOp52
 70
     0
102
RTVSPost2010Prop53
 90
        2
102
RTVSPost2010PropOp53
 70
     0
102
RTVSPost2010Prop54
  1
strokes_ogs.tif
102
RTVSPost2010PropOp54
 70
     0
102
RTVSPost2010Prop55
280
     0
102
RTVSPost2010PropOp55
 70
     0
102
RTVSPost2010Prop56
140
1.0
102
RTVSPost2010PropOp56
 70
     0
102
RTVSPost2010Prop57
140
1.0
102
RTVSPost2010PropOp57
 70
     0
  0
XRECORD
  5
12F
102
{ACAD_REACTORS
330
12E
102
}
330
12E
100
AcDbXrecord
280
     1
102
RTVSPost2010Prop28
280
     0
102
RTVSPost2010PropOp28
 70
     1
102
RTVSPost2010Prop29
280
     1
102
RTVSPost2010PropOp29
 70
     1
102
RTVSPost2010Prop30
280
     1
102
RTVSPost2010PropOp30
 70
     1
102
RTVSPost2010Prop31
280
     0
102
RTVSPost2010PropOp31
 70
     1
102
RTVSPost2010Prop32
280
     0
102
RTVSPost2010PropOp32
 70
     1
102
RTVSPost2010Prop33
280
     0
102
RTVSPost2010PropOp33
 70
     1
102
RTVSPost2010Prop34
280
     0
102
RTVSPost2010PropOp34
 70
     1
102
RTVSPost2010Prop35
280
     0
102
RTVSPost2010PropOp35
 70
     1
102
RTVSPost2010Prop36
280
     0
102
RTVSPost2010PropOp36
 70
     1
102
RTVSPost2010Prop37
 90
       50
102
RTVSPost2010PropOp37
 70
     1
102
RTVSPost2010Prop38
140
0.0
102
RTVSPost2010PropOp38
 70
     1
102
RTVSPost2010Prop39
140
1.0
102
RTVSPost2010PropOp39
 70
     1
102
RTVSPost2010Prop40
 90
        0
102
RTVSPost2010PropOp40
 70
     1
102
RTVSPost2010Prop41ColorIndex
 90
       18
102
RTVSPost2010Prop41ColorRGB
 90
        0
102
RTVSPost2010PropOp41
 70
     1
102
RTVSPost2010Prop42
 90
       50
102
RTVSPost2010PropOp42
 70
     1
102
RTVSPost2010Prop43
 90
        3
102
RTVSPost2010PropOp43
 70
     1
102
RTVSPost2010Prop44ColorIndex
 90
        5
102
RTVSPost2010Prop44ColorRGB
 90
      255
102
RTVSPost2010PropOp44
 70
     1
102
RTVSPost2010Prop45
280
     0
102
RTVSPost2010PropOp45
 70
     1
102
RTVSPost2010Prop46
 90
       50
102
RTVSPost2010PropOp46
 70
     1
102
RTVSPost2010Prop47
 90
       50
102
RTVSPost2010PropOp47
 70
     1
102
RTVSPost2010Prop48
 90
       50
102
RTVSPost2010PropOp48
 70
     1
102
RTVSPost2010Prop49
280
     0
102
RTVSPost2010PropOp49
 70
     1
102
RTVSPost2010Prop50
 90
       50
102
RTVSPost2010PropOp50
 70
     1
102
RTVSPost2010Prop51ColorIndex
 90
      256
102
RTVSPost2010Prop51ColorRGB
 90
-16777216
102
RTVSPost2010PropOp51
 70
     0
102
RTVSPost2010Prop52
140
1.0
102
RTVSPost2010PropOp52
 70
     0
102
RTVSPost2010Prop53
 90
        2
102
RTVSPost2010PropOp53
 70
     1
102
RTVSPost2010Prop54
  1
strokes_ogs.tif
102
RTVSPost2010PropOp54
 70
     1
102
RTVSPost2010Prop55
280
     0
102
RTVSPost2010PropOp55
 70
     1
102
RTVSPost2010Prop56
140
1.0
102
RTVSPost2010PropOp56
 70
     1
102
RTVSPost2010Prop57
140
1.0
102
RTVSPost2010PropOp57
 70
     1
  0
XRECORD
  5
145
102
{ACAD_REACTORS
330
144
102
}
330
144
100
AcDbXrecord
280
     1
102
RTVSPost2010Prop28
280
     0
102
RTVSPost2010PropOp28
 70
     1
102
RTVSPost2010Prop29
280
     1
102
RTVSPost2010PropOp29
 70
     1
102
RTVSPost2010Prop30
280
     1
102
RTVSPost2010PropOp30
 70
     1
102
RTVSPost2010Prop31
280
     0
102
RTVSPost2010PropOp31
 70
     1
102
RTVSPost2010Prop32
280
     0
102
RTVSPost2010PropOp32
 70
     1
102
RTVSPost2010Prop33
280
     0
102
RTVSPost2010PropOp33
 70
     1
102
RTVSPost2010Prop34
280
     0
102
RTVSPost2010PropOp34
 70
     1
102
RTVSPost2010Prop35
280
     0
102
RTVSPost2010PropOp35
 70
     1
102
RTVSPost2010Prop36
280
     0
102
RTVSPost2010PropOp36
 70
     1
102
RTVSPost2010Prop37
 90
       50
102
RTVSPost2010PropOp37
 70
     1
102
RTVSPost2010Prop38
140
0.0
102
RTVSPost2010PropOp38
 70
     1
102
RTVSPost2010Prop39
140
1.0
102
RTVSPost2010PropOp39
 70
     1
102
RTVSPost2010Prop40
 90
        0
102
RTVSPost2010PropOp40
 70
     1
102
RTVSPost2010Prop41ColorIndex
 90
       18
102
RTVSPost2010Prop41ColorRGB
 90
        0
102
RTVSPost2010PropOp41
 70
     1
102
RTVSPost2010Prop42
 90
       50
102
RTVSPost2010PropOp42
 70
     1
102
RTVSPost2010Prop43
 90
        3
102
RTVSPost2010PropOp43
 70
     1
102
RTVSPost2010Prop44ColorIndex
 90
        5
102
RTVSPost2010Prop44ColorRGB
 90
      255
102
RTVSPost2010PropOp44
 70
     1
102
RTVSPost2010Prop45
280
     0
102
RTVSPost2010PropOp45
 70
     1
102
RTVSPost2010Prop46
 90
       50
102
RTVSPost2010PropOp46
 70
     1
102
RTVSPost2010Prop47
 90
       50
102
RTVSPost2010PropOp47
 70
     1
102
RTVSPost2010Prop48
 90
       50
102
RTVSPost2010PropOp48
 70
     1
102
RTVSPost2010Prop49
280
     0
102
RTVSPost2010PropOp49
 70
     1
102
RTVSPost2010Prop50
 90
       50
102
RTVSPost2010PropOp50
 70
     1
102
RTVSPost2010Prop51ColorIndex
 90
      256
102
RTVSPost2010Prop51ColorRGB
 90
-16777216
102
RTVSPost2010PropOp51
 70
     0
102
RTVSPost2010Prop52
140
1.0
102
RTVSPost2010PropOp52
 70
     0
102
RTVSPost2010Prop53
 90
        2
102
RTVSPost2010PropOp53
 70
     1
102
RTVSPost2010Prop54
  1
strokes_ogs.tif
102
RTVSPost2010PropOp54
 70
     1
102
RTVSPost2010Prop55
280
     0
102
RTVSPost2010PropOp55
 70
     1
102
RTVSPost2010Prop56
140
1.0
102
RTVSPost2010PropOp56
 70
     1
102
RTVSPost2010Prop57
140
1.0
102
RTVSPost2010PropOp57
 70
     1
  0
XRECORD
  5
143
102
{ACAD_REACTORS
330
142
102
}
330
142
100
AcDbXrecord
280
     1
102
RTVSPost2010Prop28
280
     0
102
RTVSPost2010PropOp28
 70
     1
102
RTVSPost2010Prop29
280
     1
102
RTVSPost2010PropOp29
 70
     1
102
RTVSPost2010Prop30
280
     1
102
RTVSPost2010PropOp30
 70
     1
102
RTVSPost2010Prop31
280
     0
102
RTVSPost2010PropOp31
 70
     1
102
RTVSPost2010Prop32
280
     0
102
RTVSPost2010PropOp32
 70
     1
102
RTVSPost2010Prop33
280
     0
102
RTVSPost2010PropOp33
 70
     1
102
RTVSPost2010Prop34
280
     0
102
RTVSPost2010PropOp34
 70
     1
102
RTVSPost2010Prop35
280
     0
102
RTVSPost2010PropOp35
 70
     1
102
RTVSPost2010Prop36
280
     0
102
RTVSPost2010PropOp36
 70
     1
102
RTVSPost2010Prop37
 90
       50
102
RTVSPost2010PropOp37
 70
     1
102
RTVSPost2010Prop38
140
0.0
102
RTVSPost2010PropOp38
 70
     1
102
RTVSPost2010Prop39
140
1.0
102
RTVSPost2010PropOp39
 70
     1
102
RTVSPost2010Prop40
 90
        0
102
RTVSPost2010PropOp40
 70
     1
102
RTVSPost2010Prop41ColorIndex
 90
       18
102
RTVSPost2010Prop41ColorRGB
 90
        0
102
RTVSPost2010PropOp41
 70
     1
102
RTVSPost2010Prop42
 90
       50
102
RTVSPost2010PropOp42
 70
     1
102
RTVSPost2010Prop43
 90
        3
102
RTVSPost2010PropOp43
 70
     1
102
RTVSPost2010Prop44ColorIndex
 90
        5
102
RTVSPost2010Prop44ColorRGB
 90
      255
102
RTVSPost2010PropOp44
 70
     1
102
RTVSPost2010Prop45
280
     0
102
RTVSPost2010PropOp45
 70
     1
102
RTVSPost2010Prop46
 90
       50
102
RTVSPost2010PropOp46
 70
     1
102
RTVSPost2010Prop47
 90
       50
102
RTVSPost2010PropOp47
 70
     1
102
RTVSPost2010Prop48
 90
       50
102
RTVSPost2010PropOp48
 70
     1
102
RTVSPost2010Prop49
280
     0
102
RTVSPost2010PropOp49
 70
     1
102
RTVSPost2010Prop50
 90
       50
102
RTVSPost2010PropOp50
 70
     1
102
RTVSPost2010Prop51ColorIndex
 90
      256
102
RTVSPost2010Prop51ColorRGB
 90
-16777216
102
RTVSPost2010PropOp51
 70
     0
102
RTVSPost2010Prop52
140
1.0
102
RTVSPost2010PropOp52
 70
     0
102
RTVSPost2010Prop53
 90
        2
102
RTVSPost2010PropOp53
 70
     1
102
RTVSPost2010Prop54
  1
strokes_ogs.tif
102
RTVSPost2010PropOp54
 70
     1
102
RTVSPost2010Prop55
280
     0
102
RTVSPost2010PropOp55
 70
     1
102
RTVSPost2010Prop56
140
1.0
102
RTVSPost2010PropOp56
 70
     1
102
RTVSPost2010Prop57
140
1.0
102
RTVSPost2010PropOp57
 70
     1
  0
XRECORD
  5
13D
102
{ACAD_REACTORS
330
13C
102
}
330
13C
100
AcDbXrecord
280
     1
102
RTVSPost2010Prop28
280
     0
102
RTVSPost2010PropOp28
 70
     1
102
RTVSPost2010Prop29
280
     1
102
RTVSPost2010PropOp29
 70
     1
102
RTVSPost2010Prop30
280
     1
102
RTVSPost2010PropOp30
 70
     1
102
RTVSPost2010Prop31
280
     0
102
RTVSPost2010PropOp31
 70
     1
102
RTVSPost2010Prop32
280
     0
102
RTVSPost2010PropOp32
 70
     1
102
RTVSPost2010Prop33
280
     0
102
RTVSPost2010PropOp33
 70
     1
102
RTVSPost2010Prop34
280
     0
102
RTVSPost2010PropOp34
 70
     1
102
RTVSPost2010Prop35
280
     0
102
RTVSPost2010PropOp35
 70
     1
102
RTVSPost2010Prop36
280
     0
102
RTVSPost2010PropOp36
 70
     1
102
RTVSPost2010Prop37
 90
       50
102
RTVSPost2010PropOp37
 70
     1
102
RTVSPost2010Prop38
140
0.0
102
RTVSPost2010PropOp38
 70
     1
102
RTVSPost2010Prop39
140
1.0
102
RTVSPost2010PropOp39
 70
     1
102
RTVSPost2010Prop40
 90
        0
102
RTVSPost2010PropOp40
 70
     1
102
RTVSPost2010Prop41ColorIndex
 90
       18
102
RTVSPost2010Prop41ColorRGB
 90
        0
102
RTVSPost2010PropOp41
 70
     1
102
RTVSPost2010Prop42
 90
       50
102
RTVSPost2010PropOp42
 70
     1
102
RTVSPost2010Prop43
 90
        3
102
RTVSPost2010PropOp43
 70
     1
102
RTVSPost2010Prop44ColorIndex
 90
        5
102
RTVSPost2010Prop44ColorRGB
 90
      255
102
RTVSPost2010PropOp44
 70
     1
102
RTVSPost2010Prop45
280
     0
102
RTVSPost2010PropOp45
 70
     1
102
RTVSPost2010Prop46
 90
       50
102
RTVSPost2010PropOp46
 70
     1
102
RTVSPost2010Prop47
 90
       50
102
RTVSPost2010PropOp47
 70
     1
102
RTVSPost2010Prop48
 90
       50
102
RTVSPost2010PropOp48
 70
     1
102
RTVSPost2010Prop49
280
     0
102
RTVSPost2010PropOp49
 70
     1
102
RTVSPost2010Prop50
 90
       50
102
RTVSPost2010PropOp50
 70
     1
102
RTVSPost2010Prop51ColorIndex
 90
      256
102
RTVSPost2010Prop51ColorRGB
 90
-16777216
102
RTVSPost2010PropOp51
 70
     0
102
RTVSPost2010Prop52
140
1.0
102
RTVSPost2010PropOp52
 70
     0
102
RTVSPost2010Prop53
 90
        2
102
RTVSPost2010PropOp53
 70
     1
102
RTVSPost2010Prop54
  1
strokes_ogs.tif
102
RTVSPost2010PropOp54
 70
     1
102
RTVSPost2010Prop55
280
     0
102
RTVSPost2010PropOp55
 70
     1
102
RTVSPost2010Prop56
140
1.0
102
RTVSPost2010PropOp56
 70
     1
102
RTVSPost2010Prop57
140
1.0
102
RTVSPost2010PropOp57
 70
     1
  0
XRECORD
  5
13F
102
{ACAD_REACTORS
330
13E
102
}
330
13E
100
AcDbXrecord
280
     1
102
RTVSPost2010Prop28
280
     0
102
RTVSPost2010PropOp28
 70
     1
102
RTVSPost2010Prop29
280
     1
102
RTVSPost2010PropOp29
 70
     1
102
RTVSPost2010Prop30
280
     1
102
RTVSPost2010PropOp30
 70
     1
102
RTVSPost2010Prop31
280
     0
102
RTVSPost2010PropOp31
 70
     1
102
RTVSPost2010Prop32
280
     0
102
RTVSPost2010PropOp32
 70
     1
102
RTVSPost2010Prop33
280
     0
102
RTVSPost2010PropOp33
 70
     1
102
RTVSPost2010Prop34
280
     0
102
RTVSPost2010PropOp34
 70
     1
102
RTVSPost2010Prop35
280
     0
102
RTVSPost2010PropOp35
 70
     1
102
RTVSPost2010Prop36
280
     0
102
RTVSPost2010PropOp36
 70
     1
102
RTVSPost2010Prop37
 90
       50
102
RTVSPost2010PropOp37
 70
     1
102
RTVSPost2010Prop38
140
0.0
102
RTVSPost2010PropOp38
 70
     1
102
RTVSPost2010Prop39
140
1.0
102
RTVSPost2010PropOp39
 70
     1
102
RTVSPost2010Prop40
 90
        0
102
RTVSPost2010PropOp40
 70
     1
102
RTVSPost2010Prop41ColorIndex
 90
       18
102
RTVSPost2010Prop41ColorRGB
 90
        0
102
RTVSPost2010PropOp41
 70
     1
102
RTVSPost2010Prop42
 90
       50
102
RTVSPost2010PropOp42
 70
     1
102
RTVSPost2010Prop43
 90
        3
102
RTVSPost2010PropOp43
 70
     1
102
RTVSPost2010Prop44ColorIndex
 90
        5
102
RTVSPost2010Prop44ColorRGB
 90
      255
102
RTVSPost2010PropOp44
 70
     1
102
RTVSPost2010Prop45
280
     0
102
RTVSPost2010PropOp45
 70
     1
102
RTVSPost2010Prop46
 90
       50
102
RTVSPost2010PropOp46
 70
     1
102
RTVSPost2010Prop47
 90
       50
102
RTVSPost2010PropOp47
 70
     1
102
RTVSPost2010Prop48
 90
       50
102
RTVSPost2010PropOp48
 70
     1
102
RTVSPost2010Prop49
280
     0
102
RTVSPost2010PropOp49
 70
     1
102
RTVSPost2010Prop50
 90
       50
102
RTVSPost2010PropOp50
 70
     1
102
RTVSPost2010Prop51ColorIndex
 90
      256
102
RTVSPost2010Prop51ColorRGB
 90
-16777216
102
RTVSPost2010PropOp51
 70
     0
102
RTVSPost2010Prop52
140
1.0
102
RTVSPost2010PropOp52
 70
     0
102
RTVSPost2010Prop53
 90
        2
102
RTVSPost2010PropOp53
 70
     1
102
RTVSPost2010Prop54
  1
strokes_ogs.tif
102
RTVSPost2010PropOp54
 70
     1
102
RTVSPost2010Prop55
280
     0
102
RTVSPost2010PropOp55
 70
     1
102
RTVSPost2010Prop56
140
1.0
102
RTVSPost2010PropOp56
 70
     1
102
RTVSPost2010Prop57
140
1.0
102
RTVSPost2010PropOp57
 70
     1
  0
XRECORD
  5
135
102
{ACAD_REACTORS
330
134
102
}
330
134
100
AcDbXrecord
280
     1
102
RTVSPost2010Prop28
280
     0
102
RTVSPost2010PropOp28
 70
     1
102
RTVSPost2010Prop29
280
     1
102
RTVSPost2010PropOp29
 70
     1
102
RTVSPost2010Prop30
280
     1
102
RTVSPost2010PropOp30
 70
     1
102
RTVSPost2010Prop31
280
     0
102
RTVSPost2010PropOp31
 70
     1
102
RTVSPost2010Prop32
280
     0
102
RTVSPost2010PropOp32
 70
     1
102
RTVSPost2010Prop33
280
     0
102
RTVSPost2010PropOp33
 70
     1
102
RTVSPost2010Prop34
280
     0
102
RTVSPost2010PropOp34
 70
     1
102
RTVSPost2010Prop35
280
     0
102
RTVSPost2010PropOp35
 70
     1
102
RTVSPost2010Prop36
280
     0
102
RTVSPost2010PropOp36
 70
     1
102
RTVSPost2010Prop37
 90
       50
102
RTVSPost2010PropOp37
 70
     1
102
RTVSPost2010Prop38
140
0.0
102
RTVSPost2010PropOp38
 70
     1
102
RTVSPost2010Prop39
140
1.0
102
RTVSPost2010PropOp39
 70
     1
102
RTVSPost2010Prop40
 90
        0
102
RTVSPost2010PropOp40
 70
     1
102
RTVSPost2010Prop41ColorIndex
 90
       18
102
RTVSPost2010Prop41ColorRGB
 90
        0
102
RTVSPost2010PropOp41
 70
     1
102
RTVSPost2010Prop42
 90
       50
102
RTVSPost2010PropOp42
 70
     1
102
RTVSPost2010Prop43
 90
        3
102
RTVSPost2010PropOp43
 70
     1
102
RTVSPost2010Prop44ColorIndex
 90
        5
102
RTVSPost2010Prop44ColorRGB
 90
      255
102
RTVSPost2010PropOp44
 70
     1
102
RTVSPost2010Prop45
280
     0
102
RTVSPost2010PropOp45
 70
     1
102
RTVSPost2010Prop46
 90
       50
102
RTVSPost2010PropOp46
 70
     1
102
RTVSPost2010Prop47
 90
       50
102
RTVSPost2010PropOp47
 70
     1
102
RTVSPost2010Prop48
 90
       50
102
RTVSPost2010PropOp48
 70
     1
102
RTVSPost2010Prop49
280
     0
102
RTVSPost2010PropOp49
 70
     1
102
RTVSPost2010Prop50
 90
       50
102
RTVSPost2010PropOp50
 70
     1
102
RTVSPost2010Prop51ColorIndex
 90
      256
102
RTVSPost2010Prop51ColorRGB
 90
-16777216
102
RTVSPost2010PropOp51
 70
     0
102
RTVSPost2010Prop52
140
1.0
102
RTVSPost2010PropOp52
 70
     0
102
RTVSPost2010Prop53
 90
        2
102
RTVSPost2010PropOp53
 70
     1
102
RTVSPost2010Prop54
  1
strokes_ogs.tif
102
RTVSPost2010PropOp54
 70
     1
102
RTVSPost2010Prop55
280
     0
102
RTVSPost2010PropOp55
 70
     1
102
RTVSPost2010Prop56
140
1.0
102
RTVSPost2010PropOp56
 70
     1
102
RTVSPost2010Prop57
140
1.0
102
RTVSPost2010PropOp57
 70
     1
  0
XRECORD
  5
129
102
{ACAD_REACTORS
330
128
102
}
330
128
100
AcDbXrecord
280
     1
102
RTVSPost2010Prop28
280
     0
102
RTVSPost2010PropOp28
 70
     1
102
RTVSPost2010Prop29
280
     1
102
RTVSPost2010PropOp29
 70
     1
102
RTVSPost2010Prop30
280
     1
102
RTVSPost2010PropOp30
 70
     1
102
RTVSPost2010Prop31
280
     0
102
RTVSPost2010PropOp31
 70
     1
102
RTVSPost2010Prop32
280
     0
102
RTVSPost2010PropOp32
 70
     1
102
RTVSPost2010Prop33
280
     0
102
RTVSPost2010PropOp33
 70
     1
102
RTVSPost2010Prop34
280
     0
102
RTVSPost2010PropOp34
 70
     1
102
RTVSPost2010Prop35
280
     0
102
RTVSPost2010PropOp35
 70
     1
102
RTVSPost2010Prop36
280
     0
102
RTVSPost2010PropOp36
 70
     1
102
RTVSPost2010Prop37
 90
       50
102
RTVSPost2010PropOp37
 70
     1
102
RTVSPost2010Prop38
140
0.0
102
RTVSPost2010PropOp38
 70
     1
102
RTVSPost2010Prop39
140
1.0
102
RTVSPost2010PropOp39
 70
     1
102
RTVSPost2010Prop40
 90
        0
102
RTVSPost2010PropOp40
 70
     1
102
RTVSPost2010Prop41ColorIndex
 90
       18
102
RTVSPost2010Prop41ColorRGB
 90
        0
102
RTVSPost2010PropOp41
 70
     1
102
RTVSPost2010Prop42
 90
       50
102
RTVSPost2010PropOp42
 70
     1
102
RTVSPost2010Prop43
 90
        3
102
RTVSPost2010PropOp43
 70
     1
102
RTVSPost2010Prop44ColorIndex
 90
        5
102
RTVSPost2010Prop44ColorRGB
 90
      255
102
RTVSPost2010PropOp44
 70
     1
102
RTVSPost2010Prop45
280
     0
102
RTVSPost2010PropOp45
 70
     1
102
RTVSPost2010Prop46
 90
       50
102
RTVSPost2010PropOp46
 70
     1
102
RTVSPost2010Prop47
 90
       50
102
RTVSPost2010PropOp47
 70
     1
102
RTVSPost2010Prop48
 90
       50
102
RTVSPost2010PropOp48
 70
     1
102
RTVSPost2010Prop49
280
     0
102
RTVSPost2010PropOp49
 70
     1
102
RTVSPost2010Prop50
 90
       50
102
RTVSPost2010PropOp50
 70
     1
102
RTVSPost2010Prop51ColorIndex
 90
      256
102
RTVSPost2010Prop51ColorRGB
 90
-16777216
102
RTVSPost2010PropOp51
 70
     0
102
RTVSPost2010Prop52
140
1.0
102
RTVSPost2010PropOp52
 70
     0
102
RTVSPost2010Prop53
 90
        2
102
RTVSPost2010PropOp53
 70
     1
102
RTVSPost2010Prop54
  1
strokes_ogs.tif
102
RTVSPost2010PropOp54
 70
     1
102
RTVSPost2010Prop55
280
     0
102
RTVSPost2010PropOp55
 70
     1
102
RTVSPost2010Prop56
140
1.0
102
RTVSPost2010PropOp56
 70
     1
102
RTVSPost2010Prop57
140
1.0
102
RTVSPost2010PropOp57
 70
     1
  0
XRECORD
  5
141
102
{ACAD_REACTORS
330
140
102
}
330
140
100
AcDbXrecord
280
     1
102
RTVSPost2010Prop28
280
     0
102
RTVSPost2010PropOp28
 70
     1
102
RTVSPost2010Prop29
280
     1
102
RTVSPost2010PropOp29
 70
     1
102
RTVSPost2010Prop30
280
     1
102
RTVSPost2010PropOp30
 70
     1
102
RTVSPost2010Prop31
280
     0
102
RTVSPost2010PropOp31
 70
     1
102
RTVSPost2010Prop32
280
     0
102
RTVSPost2010PropOp32
 70
     1
102
RTVSPost2010Prop33
280
     0
102
RTVSPost2010PropOp33
 70
     1
102
RTVSPost2010Prop34
280
     0
102
RTVSPost2010PropOp34
 70
     1
102
RTVSPost2010Prop35
280
     0
102
RTVSPost2010PropOp35
 70
     1
102
RTVSPost2010Prop36
280
     0
102
RTVSPost2010PropOp36
 70
     1
102
RTVSPost2010Prop37
 90
       50
102
RTVSPost2010PropOp37
 70
     1
102
RTVSPost2010Prop38
140
0.0
102
RTVSPost2010PropOp38
 70
     1
102
RTVSPost2010Prop39
140
1.0
102
RTVSPost2010PropOp39
 70
     1
102
RTVSPost2010Prop40
 90
        0
102
RTVSPost2010PropOp40
 70
     1
102
RTVSPost2010Prop41ColorIndex
 90
       18
102
RTVSPost2010Prop41ColorRGB
 90
        0
102
RTVSPost2010PropOp41
 70
     1
102
RTVSPost2010Prop42
 90
       50
102
RTVSPost2010PropOp42
 70
     1
102
RTVSPost2010Prop43
 90
        3
102
RTVSPost2010PropOp43
 70
     1
102
RTVSPost2010Prop44ColorIndex
 90
        5
102
RTVSPost2010Prop44ColorRGB
 90
      255
102
RTVSPost2010PropOp44
 70
     1
102
RTVSPost2010Prop45
280
     0
102
RTVSPost2010PropOp45
 70
     1
102
RTVSPost2010Prop46
 90
       50
102
RTVSPost2010PropOp46
 70
     1
102
RTVSPost2010Prop47
 90
       50
102
RTVSPost2010PropOp47
 70
     1
102
RTVSPost2010Prop48
 90
       50
102
RTVSPost2010PropOp48
 70
     1
102
RTVSPost2010Prop49
280
     0
102
RTVSPost2010PropOp49
 70
     1
102
RTVSPost2010Prop50
 90
       50
102
RTVSPost2010PropOp50
 70
     1
102
RTVSPost2010Prop51ColorIndex
 90
      256
102
RTVSPost2010Prop51ColorRGB
 90
-16777216
102
RTVSPost2010PropOp51
 70
     0
102
RTVSPost2010Prop52
140
1.0
102
RTVSPost2010PropOp52
 70
     0
102
RTVSPost2010Prop53
 90
        2
102
RTVSPost2010PropOp53
 70
     1
102
RTVSPost2010Prop54
  1
strokes_ogs.tif
102
RTVSPost2010PropOp54
 70
     1
102
RTVSPost2010Prop55
280
     0
102
RTVSPost2010PropOp55
 70
     1
102
RTVSPost2010Prop56
140
1.0
102
RTVSPost2010PropOp56
 70
     1
102
RTVSPost2010Prop57
140
1.0
102
RTVSPost2010PropOp57
 70
     1
  0
ENDSEC
  0
EOF
