  0
SECTION
  2
HEADER
  9
$ACADVER
  1
AC1024
  9
$ACADMAINTVER
 70
   226
  9
$DWGCODEPAGE
  3
ANSI_1252
  9
$INSBASE
 10
0.0
 20
0.0
 30
0.0
  9
$EXTMIN
 10
1.000000000000000E+20
 20
1.000000000000000E+20
 30
1.000000000000000E+20
  9
$EXTMAX
 10
-1.000000000000000E+20
 20
-1.000000000000000E+20
 30
-1.000000000000000E+20
  9
$LIMMIN
 10
0.0
 20
0.0
  9
$LIMMAX
 10
12.0
 20
9.0
  9
$ORTHOMODE
 70
     0
  9
$REGENMODE
 70
     1
  9
$FILLMODE
 70
     1
  9
$QTEXTMODE
 70
     0
  9
$MIRRTEXT
 70
     0
  9
$LTSCALE
 40
1.0
  9
$ATTMODE
 70
     1
  9
$TEXTSIZE
 40
0.2
  9
$TRACEWID
 40
0.05
  9
$TEXTSTYLE
  7
Standard
  9
$CLAYER
  8
0
  9
$CELTYPE
  6
ByLayer
  9
$CECOLOR
 62
   256
  9
$CELTSCALE
 40
1.0
  9
$DISPSILH
 70
     0
  9
$DIMSCALE
 40
1.0
  9
$DIMASZ
 40
0.18
  9
$DIMEXO
 40
0.0625
  9
$DIMDLI
 40
0.38
  9
$DIMRND
 40
0.0
  9
$DIMDLE
 40
0.0
  9
$DIMEXE
 40
0.18
  9
$DIMTP
 40
0.0
  9
$DIMTM
 40
0.0
  9
$DIMTXT
 40
0.18
  9
$DIMCEN
 40
0.09
  9
$DIMTSZ
 40
0.0
  9
$DIMTOL
 70
     0
  9
$DIMLIM
 70
     0
  9
$DIMTIH
 70
     1
  9
$DIMTOH
 70
     1
  9
$DIMSE1
 70
     0
  9
$DIMSE2
 70
     0
  9
$DIMTAD
 70
     0
  9
$DIMZIN
 70
     0
  9
$DIMBLK
  1

  9
$DIMASO
 70
     1
  9
$DIMSHO
 70
     1
  9
$DIMPOST
  1

  9
$DIMAPOST
  1

  9
$DIMALT
 70
     0
  9
$DIMALTD
 70
     2
  9
$DIMALTF
 40
25.4
  9
$DIMLFAC
 40
1.0
  9
$DIMTOFL
 70
     0
  9
$DIMTVP
 40
0.0
  9
$DIMTIX
 70
     0
  9
$DIMSOXD
 70
     0
  9
$DIMSAH
 70
     0
  9
$DIMBLK1
  1

  9
$DIMBLK2
  1

  9
$DIMSTYLE
  2
Standard
  9
$DIMCLRD
 70
     0
  9
$DIMCLRE
 70
     0
  9
$DIMCLRT
 70
     0
  9
$DIMTFAC
 40
1.0
  9
$DIMGAP
 40
0.09
  9
$DIMJUST
 70
     0
  9
$DIMSD1
 70
     0
  9
$DIMSD2
 70
     0
  9
$DIMTOLJ
 70
     1
  9
$DIMTZIN
 70
     0
  9
$DIMALTZ
 70
     0
  9
$DIMALTTZ
 70
     0
  9
$DIMUPT
 70
     0
  9
$DIMDEC
 70
     4
  9
$DIMTDEC
 70
     4
  9
$DIMALTU
 70
     2
  9
$DIMALTTD
 70
     2
  9
$DIMTXSTY
  7
Standard
  9
$DIMAUNIT
 70
     0
  9
$DIMADEC
 70
     0
  9
$DIMALTRND
 40
0.0
  9
$DIMAZIN
 70
     0
  9
$DIMDSEP
 70
    46
  9
$DIMATFIT
 70
     3
  9
$DIMFRAC
 70
     0
  9
$DIMLDRBLK
  1

  9
$DIMLUNIT
 70
     2
  9
$DIMLWD
 70
    -2
  9
$DIMLWE
 70
    -2
  9
$DIMTMOVE
 70
     0
  9
$DIMFXL
 40
1.0
  9
$DIMFXLON
 70
     0
  9
$DIMJOGANG
 40
0.7853981633974483
  9
$DIMTFILL
 70
     0
  9
$DIMTFILLCLR
 70
     0
  9
$DIMARCSYM
 70
     0
  9
$DIMLTYPE
  6

  9
$DIMLTEX1
  6

  9
$DIMLTEX2
  6

  9
$DIMTXTDIRECTION
 70
     0
  9
$LUNITS
 70
     2
  9
$LUPREC
 70
     4
  9
$SKETCHINC
 40
0.1
  9
$FILLETRAD
 40
0.0
  9
$AUNITS
 70
     0
  9
$AUPREC
 70
     0
  9
$MENU
  1
.
  9
$ELEVATION
 40
0.0
  9
$PELEVATION
 40
0.0
  9
$THICKNESS
 40
0.0
  9
$LIMCHECK
 70
     0
  9
$CHAMFERA
 40
0.0
  9
$CHAMFERB
 40
0.0
  9
$CHAMFERC
 40
0.0
  9
$CHAMFERD
 40
0.0
  9
$SKPOLY
 70
     0
  9
$TDCREATE
 40
2459653.759988426
  9
$TDUCREATE
 40
2459653.718321760
  9
$TDUPDATE
 40
2459653.759988426
  9
$TDUUPDATE
 40
2459653.718321760
  9
$TDINDWG
 40
0.0001736111
  9
$TDUSRTIMER
 40
0.0001736111
  9
$USRTIMER
 70
     1
  9
$ANGBASE
 50
0.0
  9
$ANGDIR
 70
     0
  9
$PDMODE
 70
     0
  9
$PDSIZE
 40
0.0
  9
$PLINEWID
 40
0.0
  9
$SPLFRAME
 70
     0
  9
$SPLINETYPE
 70
     6
  9
$SPLINESEGS
 70
     8
  9
$HANDSEED
  5
18B
  9
$SURFTAB1
 70
     6
  9
$SURFTAB2
 70
     6
  9
$SURFTYPE
 70
     6
  9
$SURFU
 70
     6
  9
$SURFV
 70
     6
  9
$UCSBASE
  2

  9
$UCSNAME
  2

  9
$UCSORG
 10
0.0
 20
0.0
 30
0.0
  9
$UCSXDIR
 10
1.0
 20
0.0
 30
0.0
  9
$UCSYDIR
 10
0.0
 20
1.0
 30
0.0
  9
$UCSORTHOREF
  2

  9
$UCSORTHOVIEW
 70
     0
  9
$UCSORGTOP
 10
0.0
 20
0.0
 30
0.0
  9
$UCSORGBOTTOM
 10
0.0
 20
0.0
 30
0.0
  9
$UCSORGLEFT
 10
0.0
 20
0.0
 30
0.0
  9
$UCSORGRIGHT
 10
0.0
 20
0.0
 30
0.0
  9
$UCSORGFRONT
 10
0.0
 20
0.0
 30
0.0
  9
$UCSORGBACK
 10
0.0
 20
0.0
 30
0.0
  9
$PUCSBASE
  2

  9
$PUCSNAME
  2

  9
$PUCSORG
 10
0.0
 20
0.0
 30
0.0
  9
$PUCSXDIR
 10
1.0
 20
0.0
 30
0.0
  9
$PUCSYDIR
 10
0.0
 20
1.0
 30
0.0
  9
$PUCSORTHOREF
  2

  9
$PUCSORTHOVIEW
 70
     0
  9
$PUCSORGTOP
 10
0.0
 20
0.0
 30
0.0
  9
$PUCSORGBOTTOM
 10
0.0
 20
0.0
 30
0.0
  9
$PUCSORGLEFT
 10
0.0
 20
0.0
 30
0.0
  9
$PUCSORGRIGHT
 10
0.0
 20
0.0
 30
0.0
  9
$PUCSORGFRONT
 10
0.0
 20
0.0
 30
0.0
  9
$PUCSORGBACK
 10
0.0
 20
0.0
 30
0.0
  9
$USERI1
 70
     0
  9
$USERI2
 70
     0
  9
$USERI3
 70
     0
  9
$USERI4
 70
     0
  9
$USERI5
 70
     0
  9
$USERR1
 40
0.0
  9
$USERR2
 40
0.0
  9
$USERR3
 40
0.0
  9
$USERR4
 40
0.0
  9
$USERR5
 40
0.0
  9
$WORLDVIEW
 70
     1
  9
$SHADEDGE
 70
     3
  9
$SHADEDIF
 70
    70
  9
$TILEMODE
 70
     1
  9
$MAXACTVP
 70
    64
  9
$PINSBASE
 10
0.0
 20
0.0
 30
0.0
  9
$PLIMCHECK
 70
     0
  9
$PEXTMIN
 10
1.000000000000000E+20
 20
1.000000000000000E+20
 30
1.000000000000000E+20
  9
$PEXTMAX
 10
-1.000000000000000E+20
 20
-1.000000000000000E+20
 30
-1.000000000000000E+20
  9
$PLIMMIN
 10
0.0
 20
0.0
  9
$PLIMMAX
 10
12.0
 20
9.0
  9
$UNITMODE
 70
     0
  9
$VISRETAIN
 70
     1
  9
$PLINEGEN
 70
     0
  9
$PSLTSCALE
 70
     1
  9
$TREEDEPTH
 70
  3020
  9
$CMLSTYLE
  2
Standard
  9
$CMLJUST
 70
     0
  9
$CMLSCALE
 40
1.0
  9
$PROXYGRAPHICS
 70
     1
  9
$MEASUREMENT
 70
     0
  9
$CELWEIGHT
370
    -1
  9
$ENDCAPS
280
     0
  9
$JOINSTYLE
280
     0
  9
$LWDISPLAY
290
     1
  9
$INSUNITS
 70
     4
  9
$HYPERLINKBASE
  1

  9
$STYLESHEET
  1

  9
$XEDIT
290
     1
  9
$CEPSNTYPE
380
     0
  9
$PSTYLEMODE
290
     1
  9
$FINGERPRINTGUID
  2
{937E3EC0-7FFD-7546-9CC5-B094AD1D8B5D}
  9
$VERSIONGUID
  2
{35FAC28A-E6A1-FE4F-B220-DDF6807551A6}
  9
$EXTNAMES
290
     1
  9
$PSVPSCALE
 40
0.0
  9
$OLESTARTUP
290
     0
  9
$SORTENTS
280
   127
  9
$INDEXCTL
280
     0
  9
$HIDETEXT
280
     1
  9
$XCLIPFRAME
280
     2
  9
$HALOGAP
280
     0
  9
$OBSCOLOR
 70
   257
  9
$OBSLTYPE
280
     0
  9
$INTERSECTIONDISPLAY
280
     0
  9
$INTERSECTIONCOLOR
 70
   257
  9
$DIMASSOC
280
     2
  9
$PROJECTNAME
  1

  9
$CAMERADISPLAY
290
     0
  9
$LENSLENGTH
 40
50.0
  9
$CAMERAHEIGHT
 40
0.0
  9
$STEPSPERSEC
 40
2.0
  9
$STEPSIZE
 40
6.0
  9
$3DDWFPREC
 40
2.0
  9
$PSOLWIDTH
 40
0.25
  9
$PSOLHEIGHT
 40
4.0
  9
$LOFTANG1
 40
1.570796326794896
  9
$LOFTANG2
 40
1.570796326794896
  9
$LOFTMAG1
 40
0.0
  9
$LOFTMAG2
 40
0.0
  9
$LOFTPARAM
 70
     7
  9
$LOFTNORMALS
280
     1
  9
$LATITUDE
 40
37.795
  9
$LONGITUDE
 40
-122.394
  9
$NORTHDIRECTION
 40
0.0
  9
$TIMEZONE
 70
 -8000
  9
$LIGHTGLYPHDISPLAY
280
     1
  9
$TILEMODELIGHTSYNCH
280
     1
  9
$CMATERIAL
347
11
  9
$SOLIDHIST
280
     0
  9
$SHOWHIST
280
     1
  9
$DWFFRAME
280
     2
  9
$DGNFRAME
280
     0
  9
$REALWORLDSCALE
290
     1
  9
$INTERFERECOLOR
 62
     1
  9
$INTERFEREOBJVS
345
33
  9
$INTERFEREVPVS
346
30
  9
$CSHADOW
280
     0
  9
$SHADOWPLANELOCATION
 40
0.0
  0
ENDSEC
  0
SECTION
  2
CLASSES
  0
CLASS
  1
ACDBDICTIONARYWDFLT
  2
AcDbDictionaryWithDefault
  3
ObjectDBX Classes
 90
        0
 91
        1
280
     0
281
     0
  0
CLASS
  1
MATERIAL
  2
AcDbMaterial
  3
ObjectDBX Classes
 90
     1153
 91
        3
280
     0
281
     0
  0
CLASS
  1
VISUALSTYLE
  2
AcDbVisualStyle
  3
ObjectDBX Classes
 90
     4095
 91
       24
280
     0
281
     0
  0
CLASS
  1
SCALE
  2
AcDbScale
  3
ObjectDBX Classes
 90
     1153
 91
       17
280
     0
281
     0
  0
CLASS
  1
TABLESTYLE
  2
AcDbTableStyle
  3
ObjectDBX Classes
 90
     4095
 91
        1
280
     0
281
     0
  0
CLASS
  1
MLEADERSTYLE
  2
AcDbMLeaderStyle
  3
ACDB_MLEADERSTYLE_CLASS
 90
     4095
 91
        1
280
     0
281
     0
  0
CLASS
  1
ACDBSECTIONVIEWSTYLE
  2
AcDbSectionViewStyle
  3
ObjectDBX Classes
 90
     1025
 91
        1
280
     0
281
     0
  0
CLASS
  1
ACDBDETAILVIEWSTYLE
  2
AcDbDetailViewStyle
  3
ObjectDBX Classes
 90
     1025
 91
        1
280
     0
281
     0
  0
CLASS
  1
DICTIONARYVAR
  2
AcDbDictionaryVar
  3
ObjectDBX Classes
 90
        0
 91
        5
280
     0
281
     0
  0
CLASS
  1
CELLSTYLEMAP
  2
AcDbCellStyleMap
  3
ObjectDBX Classes
 90
     1152
 91
        1
280
     0
281
     0
  0
ENDSEC
  0
SECTION
  2
TABLES
  0
TABLE
  2
VPORT
  5
8
330
0
100
AcDbSymbolTable
 70
     1
  0
VPORT
  5
57
330
8
100
AcDbSymbolTableRecord
100
AcDbViewportTableRecord
  2
*Active
 70
     0
 10
0.0
 20
0.0
 11
1.0
 21
1.0
 12
0.0
 22
0.0
 13
0.0
 23
0.0
 14
1.0
 24
1.0
 15
0.0
 25
0.0
 16
0.0
 26
0.0
 36
1.0
 17
104.9999999737534
 27
-148.4999999628701
 37
0.0
 40
302.939999924255
 41
0.7070707070707534
 42
50.0
 43
0.0
 44
0.0
 50
0.0
 51
0.0
 71
     0
 72
   100
 73
     1
 74
     1
 75
     0
 76
     0
 77
     0
 78
     0
281
     0
 65
     1
110
0.0
120
0.0
130
0.0
111
1.0
121
0.0
131
0.0
112
0.0
122
1.0
132
0.0
 79
     0
146
0.0
 60
     3
 61
     5
292
     1
282
     1
141
0.0
142
0.0
 63
   250
421
  3355443
  0
ENDTAB
  0
TABLE
  2
LTYPE
  5
5
330
0
100
AcDbSymbolTable
 70
     1
  0
LTYPE
  5
5B
330
5
100
AcDbSymbolTableRecord
100
AcDbLinetypeTableRecord
  2
ByBlock
 70
     0
  3

 72
    65
 73
     0
 40
0.0
  0
LTYPE
  5
5C
330
5
100
AcDbSymbolTableRecord
100
AcDbLinetypeTableRecord
  2
ByLayer
 70
     0
  3

 72
    65
 73
     0
 40
0.0
  0
LTYPE
  5
5D
330
5
100
AcDbSymbolTableRecord
100
AcDbLinetypeTableRecord
  2
Continuous
 70
     0
  3
Solid line
 72
    65
 73
     0
 40
0.0
  0
ENDTAB
  0
TABLE
  2
LAYER
  5
2
330
0
100
AcDbSymbolTable
 70
     2
  0
LAYER
  5
54
330
2
100
AcDbSymbolTableRecord
100
AcDbLayerTableRecord
  2
0
 70
     0
 62
     7
  6
Continuous
370
    -3
390
F
347
21
  0
LAYER
  5
78
330
2
100
AcDbSymbolTableRecord
100
AcDbLayerTableRecord
  2
Capa 1
 70
     0
 62
     7
  6
Continuous
370
     0
390
F
347
21
  0
ENDTAB
  0
TABLE
  2
STYLE
  5
3
330
0
100
AcDbSymbolTable
 70
     2
  0
STYLE
  5
55
330
3
100
AcDbSymbolTableRecord
100
AcDbTextStyleTableRecord
  2
Standard
 70
     0
 40
0.0
 41
1.0
 50
0.0
 71
     0
 42
0.2
  3
txt
  4

  0
STYLE
  5
5A
330
3
100
AcDbSymbolTableRecord
100
AcDbTextStyleTableRecord
  2
Annotative
 70
     0
 40
0.0
 41
1.0
 50
0.0
 71
     0
 42
0.2
  3
txt
  4

1001
AcadAnnotative
1000
AnnotativeData
1002
{
1070
     1
1070
     1
1002
}
  0
ENDTAB
  0
TABLE
  2
VIEW
  5
6
330
0
100
AcDbSymbolTable
 70
     0
  0
ENDTAB
  0
TABLE
  2
UCS
  5
7
330
0
100
AcDbSymbolTable
 70
     0
  0
ENDTAB
  0
TABLE
  2
APPID
  5
9
330
0
100
AcDbSymbolTable
 70
     2
  0
APPID
  5
56
330
9
100
AcDbSymbolTableRecord
100
AcDbRegAppTableRecord
  2
ACAD
 70
     0
  0
APPID
  5
5E
330
9
100
AcDbSymbolTableRecord
100
AcDbRegAppTableRecord
  2
AcadAnnotative
 70
     0
  0
ENDTAB
  0
TABLE
  2
DIMSTYLE
  5
A
330
0
100
AcDbSymbolTable
 70
     2
100
AcDbDimStyleTable
 71
     0
  0
DIMSTYLE
105
58
330
A
100
AcDbSymbolTableRecord
100
AcDbDimStyleTableRecord
  2
Standard
 70
     0
340
55
  0
DIMSTYLE
105
59
330
A
100
AcDbSymbolTableRecord
100
AcDbDimStyleTableRecord
  2
Annotative
 70
     0
340
55
1001
AcadAnnotative
1000
AnnotativeData
1002
{
1070
     1
1070
     1
1002
}
  0
ENDTAB
  0
TABLE
  2
BLOCK_RECORD
  5
1
330
0
100
AcDbSymbolTable
 70
     4
  0
BLOCK_RECORD
  5
70
330
1
100
AcDbSymbolTableRecord
100
AcDbBlockTableRecord
  2
*Model_Space
340
73
 70
     0
280
     1
281
     0
  0
BLOCK_RECORD
  5
6C
330
1
100
AcDbSymbolTableRecord
100
AcDbBlockTableRecord
  2
*Paper_Space
340
6F
 70
     0
280
     1
281
     0
  0
BLOCK_RECORD
  5
74
330
1
100
AcDbSymbolTableRecord
100
AcDbBlockTableRecord
  2
*Paper_Space0
340
77
 70
     0
280
     1
281
     0
  0
BLOCK_RECORD
  5
AE
330
1
100
AcDbSymbolTableRecord
100
AcDbBlockTableRecord
  2
Block_0
340
0
102
{BLKREFS
331
AF
102
}
 70
     0
280
     1
281
     0
  0
BLOCK_RECORD
  5
B5
330
1
100
AcDbSymbolTableRecord
100
AcDbBlockTableRecord
  2
Block_1
340
0
102
{BLKREFS
331
B6
102
}
 70
     0
280
     1
281
     0
  0
BLOCK_RECORD
  5
EB
330
1
100
AcDbSymbolTableRecord
100
AcDbBlockTableRecord
  2
Block_2
340
0
102
{BLKREFS
331
EC
102
}
 70
     0
280
     1
281
     0
  0
ENDTAB
  0
ENDSEC
  0
SECTION
  2
BLOCKS
  0
BLOCK
  5
71
330
70
100
AcDbEntity
  8
0
100
AcDbBlockBegin
  2
*Model_Space
 70
     0
 10
0.0
 20
0.0
 30
0.0
  3
*Model_Space
  1

  0
ENDBLK
  5
72
330
70
100
AcDbEntity
  8
0
100
AcDbBlockEnd
  0
BLOCK
  5
6D
330
6C
100
AcDbEntity
 67
     1
  8
0
100
AcDbBlockBegin
  2
*Paper_Space
 70
     0
 10
0.0
 20
0.0
 30
0.0
  3
*Paper_Space
  1

  0
ENDBLK
  5
6E
330
6C
100
AcDbEntity
 67
     1
  8
0
100
AcDbBlockEnd
  0
BLOCK
  5
75
330
74
100
AcDbEntity
 67
     1
  8
0
100
AcDbBlockBegin
  2
*Paper_Space0
 70
     0
 10
0.0
 20
0.0
 30
0.0
  3
*Paper_Space0
  1

  0
ENDBLK
  5
76
330
74
100
AcDbEntity
 67
     1
  8
0
100
AcDbBlockEnd
  0
BLOCK
  5
B0
330
AE
100
AcDbEntity
  8
0
100
AcDbBlockBegin
  2
Block_0
 70
     0
 10
0.0
 20
0.0
 30
0.0
  3
Block_0
  1

  0
LINE
  5
B2
330
AE
100
AcDbEntity
  8
Capa 1
 62
    18
420
        0
370
     9
100
AcDbLine
 10
69.25604949469172
 20
-245.6791383793827
 30
0.0
 11
69.25604949469172
 21
-247.5037680375914
 31
0.0
  0
LINE
  5
B3
330
AE
100
AcDbEntity
  8
Capa 1
 62
    18
420
        0
370
     9
100
AcDbLine
 10
141.7850784083789
 20
-245.6791383793827
 30
0.0
 11
141.7850784083789
 21
-247.5037680375914
 31
0.0
  0
LINE
  5
B4
330
AE
100
AcDbEntity
  8
Capa 1
 62
    18
420
        0
370
     9
100
AcDbLine
 10
69.25604949469172
 20
-246.5914532084896
 30
0.0
 11
141.7850784083789
 21
-246.5914532084896
 31
0.0
  0
ENDBLK
  5
B1
330
AE
100
AcDbEntity
  8
0
100
AcDbBlockEnd
  0
BLOCK
  5
B7
330
B5
100
AcDbEntity
  8
0
100
AcDbBlockBegin
  2
Block_1
 70
     0
 10
0.0
 20
0.0
 30
0.0
  3
Block_1
  1

  0
LINE
  5
B9
330
B5
100
AcDbEntity
  8
Capa 1
 62
    18
420
        0
370
     9
100
AcDbLine
 10
150.524701493065
 20
-186.2546441961759
 30
0.0
 11
148.7000718348588
 21
-186.2546441961759
 31
0.0
  0
LINE
  5
BA
330
B5
100
AcDbEntity
  8
Capa 1
 62
    18
420
        0
370
     9
100
AcDbLine
 10
150.524701493065
 20
-237.8004320404958
 30
0.0
 11
148.7000718348588
 21
-237.8004320404958
 31
0.0
  0
LINE
  5
BB
330
B5
100
AcDbEntity
  8
Capa 1
 62
    18
420
        0
370
     9
100
AcDbLine
 10
149.6123866639619
 20
-186.2546441961759
 30
0.0
 11
149.6123866639619
 21
-237.8004320404958
 31
0.0
  0
ENDBLK
  5
B8
330
B5
100
AcDbEntity
  8
0
100
AcDbBlockEnd
  0
BLOCK
  5
ED
330
EB
100
AcDbEntity
  8
0
100
AcDbBlockBegin
  2
Block_2
 70
     0
 10
0.0
 20
0.0
 30
0.0
  3
Block_2
  1

  0
LINE
  5
EF
330
EB
100
AcDbEntity
  8
Capa 1
 62
    18
420
        0
370
     9
100
AcDbLine
 10
149.5005296428052
 20
-130.8426866964283
 30
0.0
 11
147.6758999845991
 21
-130.8426866964283
 31
0.0
  0
LINE
  5
F0
330
EB
100
AcDbEntity
  8
Capa 1
 62
    18
420
        0
370
     9
100
AcDbLine
 10
149.5005296428052
 20
-172.7176233705114
 30
0.0
 11
147.6758999845991
 21
-172.7176233705114
 31
0.0
  0
LINE
  5
F1
330
EB
100
AcDbEntity
  8
Capa 1
 62
    18
420
        0
370
     9
100
AcDbLine
 10
148.5882148137021
 20
-130.8426866964283
 30
0.0
 11
148.5882148137021
 21
-172.7176233705114
 31
0.0
  0
MTEXT
  5
F2
330
EB
100
AcDbEntity
  8
Capa 1
100
AcDbMText
 10
147.6761755335689
 20
-151.7798841202954
 30
0.0
 40
0.2
 41
0.0
 46
0.0
 71
     7
 72
     1
  1
\C18;\c0;\FArial Bold|b1|i0|c1;\H0.089916;\W1.000000;45.8997
 11
0.0000000000000001
 21
1.0
 31
0.0
 73
     1
 44
1.0
  0
ENDBLK
  5
EE
330
EB
100
AcDbEntity
  8
0
100
AcDbBlockEnd
  0
ENDSEC
  0
SECTION
  2
ENTITIES
  0
LINE
  5
79
330
70
100
AcDbEntity
  8
Capa 1
 62
    18
420
        0
370
     9
100
AcDbLine
 10
69.34728097760268
 20
-212.0731538597884
 30
0.0
 11
141.6938469254692
 21
-212.0731538597884
 31
0.0
  0
LINE
  5
7A
330
70
100
AcDbEntity
  8
Capa 1
 62
    18
420
        0
370
     9
100
AcDbLine
 10
69.34728097760268
 20
-186.8020330936358
 30
0.0
 11
69.34728097760268
 21
-212.0731538597884
 31
0.0
  0
LINE
  5
7B
330
70
100
AcDbEntity
  8
Capa 1
 62
    18
420
        0
370
     9
100
AcDbLine
 10
141.6938469254692
 20
-212.0731538597884
 30
0.0
 11
141.6938469254692
 21
-186.8020330936358
 31
0.0
  0
LINE
  5
7C
330
70
100
AcDbEntity
  8
Capa 1
 62
    18
420
        0
370
     9
100
AcDbLine
 10
69.34728097760268
 20
-237.7092005575842
 30
0.0
 11
141.6938469254692
 21
-237.7092005575842
 31
0.0
  0
LINE
  5
7D
330
70
100
AcDbEntity
  8
Capa 1
 62
    18
420
        0
370
     9
100
AcDbLine
 10
69.34728097760268
 20
-212.4380797914309
 30
0.0
 11
69.34728097760268
 21
-237.7092005575842
 31
0.0
  0
LINE
  5
7E
330
70
100
AcDbEntity
  8
Capa 1
 62
    18
420
        0
370
     9
100
AcDbLine
 10
141.6938469254692
 20
-237.7092005575842
 30
0.0
 11
141.6938469254692
 21
-212.4380797914309
 31
0.0
  0
LINE
  5
7F
330
70
100
AcDbEntity
  8
Capa 1
 62
    18
420
        0
370
     9
100
AcDbLine
 10
140.3253746818128
 20
-186.3458756790868
 30
0.0
 11
70.71575322125726
 21
-186.3458756790868
 31
0.0
  0
SPLINE
  5
80
330
70
100
AcDbEntity
  8
Capa 1
 62
    18
420
        0
370
     9
100
AcDbSpline
210
0.0
220
0.0
230
1.0
 70
     8
 71
     3
 72
     8
 73
     4
 74
     0
 42
0.0000000001
 43
0.0000000001
 40
0.0
 40
0.0
 40
0.0
 40
0.0
 40
1.0
 40
1.0
 40
1.0
 40
1.0
 10
70.13294566189002
 20
-212.4380797914309
 30
0.0
 10
70.29747076040661
 20
-212.5569003998904
 30
0.0
 10
70.47894394579451
 20
-212.643297726827
 30
0.0
 10
70.66950149660638
 20
-212.6935279435793
 30
0.0
  0
LINE
  5
81
330
70
100
AcDbEntity
  8
Capa 1
 62
    18
420
        0
370
     9
100
AcDbLine
 10
69.34728097760268
 20
-212.4380797914309
 30
0.0
 11
70.13294566189002
 21
-212.4380797914309
 31
0.0
  0
LINE
  5
82
330
70
100
AcDbEntity
  8
Capa 1
 62
    18
420
        0
370
     9
100
AcDbLine
 10
69.34728097760268
 20
-212.4380797914309
 30
0.0
 11
69.34728097760268
 21
-212.3286020119381
 31
0.0
  0
LINE
  5
83
330
70
100
AcDbEntity
  8
Capa 1
 62
    18
420
        0
370
     9
100
AcDbLine
 10
69.34728097760268
 20
-212.3286020119381
 30
0.0
 11
71.06243285631655
 21
-212.3286020119381
 31
0.0
  0
LINE
  5
84
330
70
100
AcDbEntity
  8
Capa 1
 62
    18
420
        0
370
     9
100
AcDbLine
 10
71.06243285631655
 20
-212.6935279435793
 30
0.0
 11
71.06243285631655
 21
-212.3286020119381
 31
0.0
  0
LINE
  5
85
330
70
100
AcDbEntity
  8
Capa 1
 62
    18
420
        0
370
     9
100
AcDbLine
 10
70.66950149660638
 20
-212.6935279435793
 30
0.0
 11
71.06243285631655
 21
-212.6935279435793
 31
0.0
  0
LINE
  5
86
330
70
100
AcDbEntity
  8
Capa 1
 62
    18
420
        0
370
     9
100
AcDbLine
 10
139.9786950467541
 20
-212.3286020119381
 30
0.0
 11
71.06243285631655
 21
-212.3286020119381
 31
0.0
  0
LINE
  5
87
330
70
100
AcDbEntity
  8
Capa 1
 62
    18
420
        0
370
     9
100
AcDbLine
 10
139.9786950467541
 20
-212.6935279435793
 30
0.0
 11
139.9786950467541
 21
-212.3286020119381
 31
0.0
  0
LINE
  5
88
330
70
100
AcDbEntity
  8
Capa 1
 62
    18
420
        0
370
     9
100
AcDbLine
 10
139.9786950467541
 20
-212.6935279435793
 30
0.0
 11
71.06243285631655
 21
-212.6935279435793
 31
0.0
  0
LINE
  5
89
330
70
100
AcDbEntity
  8
Capa 1
 62
    18
420
        0
370
     9
100
AcDbLine
 10
141.6938469254692
 20
-212.4380797914309
 30
0.0
 11
141.6938469254692
 21
-212.3286020119381
 31
0.0
  0
LINE
  5
8A
330
70
100
AcDbEntity
  8
Capa 1
 62
    18
420
        0
370
     9
100
AcDbLine
 10
141.6938469254692
 20
-212.4380797914309
 30
0.0
 11
140.908182241181
 21
-212.4380797914309
 31
0.0
  0
SPLINE
  5
8B
330
70
100
AcDbEntity
  8
Capa 1
 62
    18
420
        0
370
     9
100
AcDbSpline
210
0.0
220
0.0
230
1.0
 70
     8
 71
     3
 72
     8
 73
     4
 74
     0
 42
0.0000000001
 43
0.0000000001
 40
0.0
 40
0.0
 40
0.0
 40
0.0
 40
1.0
 40
1.0
 40
1.0
 40
1.0
 10
140.3716264064639
 20
-212.6935279435793
 30
0.0
 10
140.5621839572784
 20
-212.643297726827
 30
0.0
 10
140.743657142666
 20
-212.5569003998904
 30
0.0
 10
140.908182241181
 20
-212.4380797914309
 30
0.0
  0
LINE
  5
8C
330
70
100
AcDbEntity
  8
Capa 1
 62
    18
420
        0
370
     9
100
AcDbLine
 10
141.6938469254692
 20
-212.3286020119381
 30
0.0
 11
139.9786950467541
 21
-212.3286020119381
 31
0.0
  0
LINE
  5
8D
330
70
100
AcDbEntity
  8
Capa 1
 62
    18
420
        0
370
     9
100
AcDbLine
 10
140.3716264064639
 20
-212.6935279435793
 30
0.0
 11
139.9786950467541
 21
-212.6935279435793
 31
0.0
  0
LINE
  5
8E
330
70
100
AcDbEntity
  8
Capa 1
 62
    18
420
        0
370
     9
100
AcDbLine
 10
139.9786950467541
 20
-186.6925553141455
 30
0.0
 11
71.06243285631655
 21
-186.6925553141455
 31
0.0
  0
LINE
  5
8F
330
70
100
AcDbEntity
  8
Capa 1
 62
    18
420
        0
370
     9
100
AcDbLine
 10
139.9786950467541
 20
-187.057481245786
 30
0.0
 11
139.9786950467541
 21
-186.6925553141455
 31
0.0
  0
LINE
  5
90
330
70
100
AcDbEntity
  8
Capa 1
 62
    18
420
        0
370
     9
100
AcDbLine
 10
139.9786950467541
 20
-187.057481245786
 30
0.0
 11
71.06243285631655
 21
-187.057481245786
 31
0.0
  0
LINE
  5
91
330
70
100
AcDbEntity
  8
Capa 1
 62
    18
420
        0
370
     9
100
AcDbLine
 10
71.06243285631655
 20
-187.057481245786
 30
0.0
 11
71.06243285631655
 21
-186.6925553141455
 31
0.0
  0
SPLINE
  5
92
330
70
100
AcDbEntity
  8
Capa 1
 62
    18
420
        0
370
     9
100
AcDbSpline
210
0.0
220
0.0
230
1.0
 70
     8
 71
     3
 72
     8
 73
     4
 74
     0
 42
0.0000000001
 43
0.0000000001
 40
0.0
 40
0.0
 40
0.0
 40
0.0
 40
1.0
 40
1.0
 40
1.0
 40
1.0
 10
70.13294566189002
 20
-186.8020330936358
 30
0.0
 10
70.29747076040661
 20
-186.9208537020979
 30
0.0
 10
70.47894394579451
 20
-187.0072510290331
 30
0.0
 10
70.66950149660638
 20
-187.057481245786
 30
0.0
  0
LINE
  5
93
330
70
100
AcDbEntity
  8
Capa 1
 62
    18
420
        0
370
     9
100
AcDbLine
 10
69.34728097760268
 20
-186.8020330936358
 30
0.0
 11
70.13294566189002
 21
-186.8020330936358
 31
0.0
  0
LINE
  5
94
330
70
100
AcDbEntity
  8
Capa 1
 62
    18
420
        0
370
     9
100
AcDbLine
 10
69.34728097760268
 20
-186.8020330936358
 30
0.0
 11
69.34728097760268
 21
-186.6925553141455
 31
0.0
  0
LINE
  5
95
330
70
100
AcDbEntity
  8
Capa 1
 62
    18
420
        0
370
     9
100
AcDbLine
 10
69.34728097760268
 20
-186.6925553141455
 30
0.0
 11
71.06243285631655
 21
-186.6925553141455
 31
0.0
  0
LINE
  5
96
330
70
100
AcDbEntity
  8
Capa 1
 62
    18
420
        0
370
     9
100
AcDbLine
 10
70.66950149660638
 20
-187.057481245786
 30
0.0
 11
71.06243285631655
 21
-187.057481245786
 31
0.0
  0
LINE
  5
97
330
70
100
AcDbEntity
  8
Capa 1
 62
    18
420
        0
370
     9
100
AcDbLine
 10
141.6938469254692
 20
-186.8020330936358
 30
0.0
 11
141.6938469254692
 21
-186.6925553141455
 31
0.0
  0
LINE
  5
98
330
70
100
AcDbEntity
  8
Capa 1
 62
    18
420
        0
370
     9
100
AcDbLine
 10
141.6938469254692
 20
-186.8020330936358
 30
0.0
 11
140.908182241181
 21
-186.8020330936358
 31
0.0
  0
SPLINE
  5
99
330
70
100
AcDbEntity
  8
Capa 1
 62
    18
420
        0
370
     9
100
AcDbSpline
210
0.0
220
0.0
230
1.0
 70
     8
 71
     3
 72
     8
 73
     4
 74
     0
 42
0.0000000001
 43
0.0000000001
 40
0.0
 40
0.0
 40
0.0
 40
0.0
 40
1.0
 40
1.0
 40
1.0
 40
1.0
 10
140.3716264064639
 20
-187.057481245786
 30
0.0
 10
140.5621839572784
 20
-187.0072510290331
 30
0.0
 10
140.743657142666
 20
-186.9208537020979
 30
0.0
 10
140.908182241181
 20
-186.8020330936358
 30
0.0
  0
LINE
  5
9A
330
70
100
AcDbEntity
  8
Capa 1
 62
    18
420
        0
370
     9
100
AcDbLine
 10
140.3716264064639
 20
-187.057481245786
 30
0.0
 11
139.9786950467541
 21
-187.057481245786
 31
0.0
  0
LINE
  5
9B
330
70
100
AcDbEntity
  8
Capa 1
 62
    18
420
        0
370
     9
100
AcDbLine
 10
141.6938469254692
 20
-186.6925553141455
 30
0.0
 11
139.9786950467541
 21
-186.6925553141455
 31
0.0
  0
LINE
  5
9C
330
70
100
AcDbEntity
  8
Capa 1
 62
    18
420
        0
370
     9
100
AcDbLine
 10
70.55859706970543
 20
-238.192727417008
 30
0.0
 11
70.57915639921249
 21
-237.8004320404939
 31
0.0
  0
LINE
  5
9D
330
70
100
AcDbEntity
  8
Capa 1
 62
    18
420
        0
370
     9
100
AcDbLine
 10
70.55859706970543
 20
-238.192727417008
 30
0.0
 11
69.45932219234041
 21
-238.192727417008
 31
0.0
  0
LINE
  5
9E
330
70
100
AcDbEntity
  8
Capa 1
 62
    18
420
        0
370
     9
100
AcDbLine
 10
69.45932219234041
 20
-238.192727417008
 30
0.0
 11
69.43876286283367
 21
-237.8004320404958
 31
0.0
  0
LINE
  5
9F
330
70
100
AcDbEntity
  8
Capa 1
 62
    18
420
        0
370
     9
100
AcDbLine
 10
141.5820561130522
 20
-238.192727417008
 30
0.0
 11
141.6026154425583
 21
-237.8004320404939
 31
0.0
  0
LINE
  5
A0
330
70
100
AcDbEntity
  8
Capa 1
 62
    18
420
        0
370
     9
100
AcDbLine
 10
141.5820561130522
 20
-238.192727417008
 30
0.0
 11
140.4827812356872
 21
-238.192727417008
 31
0.0
  0
LINE
  5
A1
330
70
100
AcDbEntity
  8
Capa 1
 62
    18
420
        0
370
     9
100
AcDbLine
 10
140.4827812356872
 20
-238.192727417008
 30
0.0
 11
140.4622219061779
 21
-237.8004320404958
 31
0.0
  0
LINE
  5
A2
330
70
100
AcDbEntity
  8
Capa 1
 62
    18
420
        0
370
     9
100
AcDbLine
 10
69.25604949469172
 20
-237.8004320404958
 30
0.0
 11
70.71575322125726
 21
-237.8004320404958
 31
0.0
  0
LINE
  5
A3
330
70
100
AcDbEntity
  8
Capa 1
 62
    18
420
        0
370
     9
100
AcDbLine
 10
69.25604949469172
 20
-237.8004320404958
 30
0.0
 11
69.25604949469172
 21
-186.2546441961759
 31
0.0
  0
LINE
  5
A4
330
70
100
AcDbEntity
  8
Capa 1
 62
    18
420
        0
370
     9
100
AcDbLine
 10
69.25604949469172
 20
-186.2546441961759
 30
0.0
 11
70.71575322125726
 21
-186.2546441961759
 31
0.0
  0
LINE
  5
A5
330
70
100
AcDbEntity
  8
Capa 1
 62
    18
420
        0
370
     9
100
AcDbLine
 10
70.71575322125726
 20
-237.8004320404958
 30
0.0
 11
70.71575322125726
 21
-237.7092005575842
 31
0.0
  0
LINE
  5
A6
330
70
100
AcDbEntity
  8
Capa 1
 62
    18
420
        0
370
     9
100
AcDbLine
 10
70.71575322125726
 20
-212.3286020119381
 30
0.0
 11
70.71575322125726
 21
-212.0731538597884
 31
0.0
  0
LINE
  5
A7
330
70
100
AcDbEntity
  8
Capa 1
 62
    18
420
        0
370
     9
100
AcDbLine
 10
70.71575322125726
 20
-186.6925553141455
 30
0.0
 11
70.71575322125726
 21
-186.2546441961759
 31
0.0
  0
LINE
  5
A8
330
70
100
AcDbEntity
  8
Capa 1
 62
    18
420
        0
370
     9
100
AcDbLine
 10
141.7850784083789
 20
-237.8004320404958
 30
0.0
 11
141.7850784083789
 21
-186.2546441961759
 31
0.0
  0
LINE
  5
A9
330
70
100
AcDbEntity
  8
Capa 1
 62
    18
420
        0
370
     9
100
AcDbLine
 10
140.3253746818128
 20
-237.8004320404958
 30
0.0
 11
140.3253746818128
 21
-237.7092005575842
 31
0.0
  0
LINE
  5
AA
330
70
100
AcDbEntity
  8
Capa 1
 62
    18
420
        0
370
     9
100
AcDbLine
 10
140.3253746818128
 20
-212.3286020119381
 30
0.0
 11
140.3253746818128
 21
-212.0731538597884
 31
0.0
  0
LINE
  5
AB
330
70
100
AcDbEntity
  8
Capa 1
 62
    18
420
        0
370
     9
100
AcDbLine
 10
140.3253746818128
 20
-186.6925553141455
 30
0.0
 11
140.3253746818128
 21
-186.2546441961759
 31
0.0
  0
LINE
  5
AC
330
70
100
AcDbEntity
  8
Capa 1
 62
    18
420
        0
370
     9
100
AcDbLine
 10
140.3253746818128
 20
-186.2546441961759
 30
0.0
 11
141.7850784083789
 21
-186.2546441961759
 31
0.0
  0
LINE
  5
AD
330
70
100
AcDbEntity
  8
Capa 1
 62
    18
420
        0
370
     9
100
AcDbLine
 10
140.3253746818128
 20
-237.8004320404958
 30
0.0
 11
141.7850784083789
 21
-237.8004320404958
 31
0.0
  0
INSERT
  5
AF
330
70
100
AcDbEntity
  8
Capa 1
100
AcDbBlockReference
  2
Block_0
 10
0.0
 20
0.0
 30
0.0
  0
INSERT
  5
B6
330
70
100
AcDbEntity
  8
Capa 1
100
AcDbBlockReference
  2
Block_1
 10
0.0
 20
0.0
 30
0.0
  0
MTEXT
  5
BC
330
70
100
AcDbEntity
  8
Capa 1
100
AcDbMText
 10
96.47464966746307
 20
-245.7617444483625
 30
0.0
 40
0.2
 41
0.0
 46
0.0
 71
     7
 72
     1
  1
\C18;\c0;\FArial Bold|b1|i0|c1;\H2.497667;\W1.000000;600/800/1000
 73
     1
 44
1.0
  0
MTEXT
  5
BD
330
70
100
AcDbEntity
  8
Capa 1
100
AcDbMText
 10
147.917676727085
 20
-216.3843817169916
 30
0.0
 40
0.2
 41
0.0
 46
0.0
 71
     7
 72
     1
  1
\C18;\c0;\FArial Bold|b1|i0|c1;\H2.497667;\W1.000000;565
 11
0.0000000000000001
 21
1.0
 31
0.0
 73
     1
 44
1.0
  0
LINE
  5
BE
330
70
100
AcDbEntity
  8
Capa 1
 62
    18
420
        0
370
     9
100
AcDbLine
 10
140.9580324794771
 20
-171.9878826673739
 30
0.0
 11
68.54275172294949
 21
-171.9878826673739
 31
0.0
  0
LINE
  5
BF
330
70
100
AcDbEntity
  8
Capa 1
 62
    18
420
        0
370
     9
100
AcDbLine
 10
68.54275172309901
 20
-171.9878826672225
 30
0.0
 11
68.54275172309901
 21
-132.4414550432168
 31
0.0
  0
LINE
  5
C0
330
70
100
AcDbEntity
  8
Capa 1
 62
    18
420
        0
370
     9
100
AcDbLine
 10
140.9580324796285
 20
-132.4414550432168
 30
0.0
 11
140.9580324796285
 21
-171.9878826672225
 31
0.0
  0
SPLINE
  5
C1
330
70
100
AcDbEntity
  8
Capa 1
 62
    18
420
        0
370
     9
100
AcDbSpline
210
0.0
220
0.0
230
1.0
 70
     8
 71
     3
 72
    14
 73
    10
 74
     0
 42
0.0000000001
 43
0.0000000001
 40
0.0
 40
0.0
 40
0.0
 40
0.0
 40
1.0
 40
1.0
 40
1.0
 40
2.0
 40
2.0
 40
2.0
 40
3.0
 40
3.0
 40
3.0
 40
3.0
 10
104.7503921005574
 20
-136.9206358253372
 30
0.0
 10
105.3207015428166
 20
-136.920635825574
 30
0.0
 10
105.8478910616724
 20
-136.6162628151879
 30
0.0
 10
106.1330457829358
 20
-136.1223603502517
 30
0.0
 10
106.4182005042004
 20
-135.6284578853159
 30
0.0
 10
106.4182005043262
 20
-135.019711864186
 30
0.0
 10
106.133045783263
 20
-134.5258093991327
 30
0.0
 10
105.8478910622024
 20
-134.0319069340785
 30
0.0
 10
105.3207015434711
 20
-133.72753392348
 30
0.0
 10
104.7503921012113
 20
-133.72753392348
 30
0.0
  0
SPLINE
  5
C2
330
70
100
AcDbEntity
  8
Capa 1
 62
    18
420
        0
370
     9
100
AcDbSpline
210
0.0
220
0.0
230
1.0
 70
     8
 71
     3
 72
    17
 73
    13
 74
     0
 42
0.0000000001
 43
0.0000000001
 40
0.0
 40
0.0
 40
0.0
 40
0.0
 40
1.0
 40
1.0
 40
1.0
 40
2.0
 40
2.0
 40
2.0
 40
3.0
 40
3.0
 40
3.0
 40
4.0
 40
4.0
 40
4.0
 40
4.0
 10
104.7503921009252
 20
-133.72753392348
 30
0.0
 10
104.326972445407
 20
-133.7275339235557
 30
0.0
 10
103.9208630069613
 20
-133.8957499608193
 30
0.0
 10
103.6214600972644
 20
-134.1951528705333
 30
0.0
 10
103.3220571875687
 20
-134.494555780247
 30
0.0
 10
103.1538411503327
 20
-134.900665218708
 30
0.0
 10
103.1538411502829
 20
-135.3240848742236
 30
0.0
 10
103.1538411502332
 20
-135.7475045297437
 30
0.0
 10
103.3220571873781
 20
-136.1536139682413
 30
0.0
 10
103.6214600970032
 20
-136.4530168780253
 30
0.0
 10
103.9208630066302
 20
-136.7524197878092
 30
0.0
 10
104.3269724450374
 20
-136.9206358251652
 30
0.0
 10
104.7503921005574
 20
-136.9206358253372
 30
0.0
  0
SPLINE
  5
C3
330
70
100
AcDbEntity
  8
Capa 1
 62
    18
420
        0
370
     9
100
AcDbSpline
210
0.0
220
0.0
230
1.0
 70
     8
 71
     3
 72
    89
 73
    85
 74
     0
 42
0.0000000001
 43
0.0000000001
 40
0.0
 40
0.0
 40
0.0
 40
0.0
 40
1.0
 40
1.0
 40
1.0
 40
2.0
 40
2.0
 40
2.0
 40
3.0
 40
3.0
 40
3.0
 40
4.0
 40
4.0
 40
4.0
 40
5.0
 40
5.0
 40
5.0
 40
6.0
 40
6.0
 40
6.0
 40
7.0
 40
7.0
 40
7.0
 40
8.0
 40
8.0
 40
8.0
 40
9.0
 40
9.0
 40
9.0
 40
10.0
 40
10.0
 40
10.0
 40
11.0
 40
11.0
 40
11.0
 40
12.0
 40
12.0
 40
12.0
 40
13.0
 40
13.0
 40
13.0
 40
14.0
 40
14.0
 40
14.0
 40
15.0
 40
15.0
 40
15.0
 40
16.0
 40
16.0
 40
16.0
 40
17.0
 40
17.0
 40
17.0
 40
18.0
 40
18.0
 40
18.0
 40
19.0
 40
19.0
 40
19.0
 40
20.0
 40
20.0
 40
20.0
 40
21.0
 40
21.0
 40
21.0
 40
22.0
 40
22.0
 40
22.0
 40
23.0
 40
23.0
 40
23.0
 40
24.0
 40
24.0
 40
24.0
 40
25.0
 40
25.0
 40
25.0
 40
26.0
 40
26.0
 40
26.0
 40
27.0
 40
27.0
 40
27.0
 40
28.0
 40
28.0
 40
28.0
 40
28.0
 10
104.7503921003912
 20
-140.6278560717523
 30
0.0
 10
103.3047703601047
 20
-140.6278560743066
 30
0.0
 10
101.8591841516548
 20
-140.6342410234947
 30
0.0
 10
100.413615833609
 20
-140.6438740904538
 30
0.0
 10
98.96804751555899
 20
-140.6535071574126
 30
0.0
 10
97.52249513665537
 20
-140.6661013694527
 30
0.0
 10
96.0769446848343
 20
-140.6788327341149
 30
0.0
 10
94.63139423301127
 20
-140.6915640987736
 30
0.0
 10
93.18584665548339
 20
-140.7044669802657
 30
0.0
 10
91.74028715851553
 20
-140.7166606356909
 30
0.0
 10
91.01750741003192
 20
-140.7227574634032
 30
0.0
 10
90.29472497683384
 20
-140.7287021965121
 30
0.0
 10
89.57193982758203
 20
-140.7344930517153
 30
0.0
 10
89.39124354027155
 20
-140.7359407655179
 30
0.0
 10
89.21055152989065
 20
-140.7376307835383
 30
0.0
 10
89.02984871569465
 20
-140.7387087243807
 30
0.0
 10
88.8491459014993
 20
-140.7397866652234
 30
0.0
 10
88.66843516473103
 20
-140.7404157611573
 30
0.0
 10
88.48781288810815
 20
-140.7460564692104
 30
0.0
 10
88.30719061148334
 20
-140.7516971772618
 30
0.0
 10
88.12666668762849
 20
-140.7629099566986
 30
0.0
 10
87.94623973043327
 20
-140.7796162729031
 30
0.0
 10
87.76581277323803
 20
-140.7963225891111
 30
0.0
 10
87.58510394217923
 20
-140.8185840909266
 30
0.0
 10
87.40654927499198
 20
-140.8460722759091
 30
0.0
 10
87.04943994061331
 20
-140.9010486458761
 30
0.0
 10
86.69918191658686
 20
-140.9769950236793
 30
0.0
 10
86.35531733519879
 20
-141.0725099998038
 30
0.0
 10
86.01145275381265
 20
-141.1680249759279
 30
0.0
 10
85.67399838296653
 20
-141.2831598725419
 30
0.0
 10
85.34284065558329
 20
-141.4175670916176
 30
0.0
 10
85.01168292819746
 20
-141.5519743106921
 30
0.0
 10
84.68682300848788
 20
-141.7056574157221
 30
0.0
 10
84.36823061406727
 20
-141.8785237200413
 30
0.0
 10
84.28858251546195
 20
-141.9217402961196
 30
0.0
 10
84.20941307010108
 20
-141.9661107166011
 30
0.0
 10
84.13113928776388
 20
-142.0113871929866
 30
0.0
 10
84.05286550542927
 20
-142.0566636693721
 30
0.0
 10
83.97536623568381
 20
-142.1029111094739
 30
0.0
 10
83.89862274889283
 20
-142.1501060328679
 30
0.0
 10
83.74513577531379
 20
-142.2444958796487
 30
0.0
 10
83.59466982974661
 20
-142.3426730223593
 30
0.0
 10
83.44710472479139
 20
-142.444486788778
 30
0.0
 10
83.15197451488481
 20
-142.6481143216138
 30
0.0
 10
82.86842680932037
 20
-142.8662622002981
 30
0.0
 10
82.59583666805962
 20
-143.0981469722782
 30
0.0
 10
82.32324652680016
 20
-143.3300317442598
 30
0.0
 10
82.06159437161472
 20
-143.575628865028
 30
0.0
 10
81.81065387288519
 20
-143.8346545981087
 30
0.0
 10
81.74791874820241
 20
-143.8994110313781
 30
0.0
 10
81.68585333285463
 20
-143.9650070421674
 30
0.0
 10
81.62445242694536
 20
-144.0314361118314
 30
0.0
 10
81.56305152103959
 20
-144.0978651814977
 30
0.0
 10
81.50228828743479
 20
-144.1651625934945
 30
0.0
 10
81.44251679211182
 20
-144.2329050959121
 30
0.0
 10
81.32297380146779
 20
-144.3683901007474
 30
0.0
 10
81.20705210458762
 20
-144.506015764946
 30
0.0
 10
81.09457284064637
 20
-144.6456763583674
 30
0.0
 10
80.86961431276227
 20
-144.924997545208
 30
0.0
 10
80.65839396116322
 20
-145.2124397955119
 30
0.0
 10
80.45998330771983
 20
-145.5074542566604
 30
0.0
 10
80.06316200083592
 20
-146.0974831789592
 30
0.0
 10
79.71772774376074
 20
-146.7178885852516
 30
0.0
 10
79.41959638326416
 20
-147.366256205258
 30
0.0
 10
79.27053070301845
 20
-147.6904400152603
 30
0.0
 10
79.13328192218563
 20
-148.0216091619359
 30
0.0
 10
79.00784791673742
 20
-148.3597623899406
 30
0.0
 10
78.97648941537432
 20
-148.4443006969426
 30
0.0
 10
78.94584202373791
 20
-148.5293649495208
 30
0.0
 10
78.91605926395148
 20
-148.614521140411
 30
0.0
 10
78.88627650416634
 20
-148.6996773313031
 30
0.0
 10
78.85733689257792
 20
-148.784978148453
 30
0.0
 10
78.82923002956069
 20
-148.8704218079526
 30
0.0
 10
78.77301630352107
 20
-149.0413091269507
 30
0.0
 10
78.72013182668107
 20
-149.2127675162908
 30
0.0
 10
78.67051614279086
 20
-149.3847866055673
 30
0.0
 10
78.47205340724222
 20
-150.0728629626665
 30
0.0
 10
78.32602630058605
 20
-150.7699336683661
 30
0.0
 10
78.22772689391346
 20
-151.4751911647445
 30
0.0
 10
78.17857719057826
 20
-151.8278199129336
 30
0.0
 10
78.14146239313565
 20
-152.182513023491
 30
0.0
 10
78.11651138776877
 20
-152.539292604173
 30
0.0
 10
78.09156038240122
 20
-152.8960721848574
 30
0.0
 10
78.07877032332756
 20
-153.2549405889821
 30
0.0
 10
78.07877032989535
 20
-153.615997206224
 30
0.0
  0
SPLINE
  5
C4
330
70
100
AcDbEntity
  8
Capa 1
 62
    18
420
        0
370
     9
100
AcDbSpline
210
0.0
220
0.0
230
1.0
 70
     8
 71
     3
 72
    89
 73
    85
 74
     0
 42
0.0000000001
 43
0.0000000001
 40
0.0
 40
0.0
 40
0.0
 40
0.0
 40
1.0
 40
1.0
 40
1.0
 40
2.0
 40
2.0
 40
2.0
 40
3.0
 40
3.0
 40
3.0
 40
4.0
 40
4.0
 40
4.0
 40
5.0
 40
5.0
 40
5.0
 40
6.0
 40
6.0
 40
6.0
 40
7.0
 40
7.0
 40
7.0
 40
8.0
 40
8.0
 40
8.0
 40
9.0
 40
9.0
 40
9.0
 40
10.0
 40
10.0
 40
10.0
 40
11.0
 40
11.0
 40
11.0
 40
12.0
 40
12.0
 40
12.0
 40
13.0
 40
13.0
 40
13.0
 40
14.0
 40
14.0
 40
14.0
 40
15.0
 40
15.0
 40
15.0
 40
16.0
 40
16.0
 40
16.0
 40
17.0
 40
17.0
 40
17.0
 40
18.0
 40
18.0
 40
18.0
 40
19.0
 40
19.0
 40
19.0
 40
20.0
 40
20.0
 40
20.0
 40
21.0
 40
21.0
 40
21.0
 40
22.0
 40
22.0
 40
22.0
 40
23.0
 40
23.0
 40
23.0
 40
24.0
 40
24.0
 40
24.0
 40
25.0
 40
25.0
 40
25.0
 40
26.0
 40
26.0
 40
26.0
 40
27.0
 40
27.0
 40
27.0
 40
28.0
 40
28.0
 40
28.0
 40
28.0
 10
78.07877032989535
 20
-153.6159971896207
 30
0.0
 10
78.07877032332756
 20
-153.9770538068652
 30
0.0
 10
78.09156038240122
 20
-154.3359222109912
 30
0.0
 10
78.11651138776877
 20
-154.6927017916744
 30
0.0
 10
78.14146239313565
 20
-155.0494813723557
 30
0.0
 10
78.17857719057826
 20
-155.4041744829118
 30
0.0
 10
78.22772689391346
 20
-155.7568032311029
 30
0.0
 10
78.32602630058605
 20
-156.46206072748
 30
0.0
 10
78.47205340724222
 20
-157.1591314331783
 30
0.0
 10
78.67051614279086
 20
-157.8472077902793
 30
0.0
 10
78.72013182668107
 20
-158.019226879554
 30
0.0
 10
78.77301630352107
 20
-158.1906852688048
 30
0.0
 10
78.82923002956069
 20
-158.361572587863
 30
0.0
 10
78.85733689257792
 20
-158.4470162473937
 30
0.0
 10
78.88627650416634
 20
-158.5323170645443
 30
0.0
 10
78.91605926395148
 20
-158.6174732554364
 30
0.0
 10
78.94584202373791
 20
-158.7026294463285
 30
0.0
 10
78.97648941537432
 20
-158.7876936989047
 30
0.0
 10
79.00784791673742
 20
-158.872232005908
 30
0.0
 10
79.13328192218563
 20
-159.2103852339134
 30
0.0
 10
79.27053070310893
 20
-159.5415543806794
 30
0.0
 10
79.41959638329528
 20
-159.8657381906201
 30
0.0
 10
79.71772774367059
 20
-160.5141058105027
 30
0.0
 10
80.06316200083592
 20
-161.1345112168904
 30
0.0
 10
80.45998330771983
 20
-161.7245401391882
 30
0.0
 10
80.65839396116322
 20
-162.0195546003358
 30
0.0
 10
80.86961431276227
 20
-162.306996850639
 30
0.0
 10
81.09457284064637
 20
-162.58631803748
 30
0.0
 10
81.20705210458762
 20
-162.7259786308991
 30
0.0
 10
81.32297380146779
 20
-162.8636042951
 30
0.0
 10
81.44251679211182
 20
-162.9990892999365
 30
0.0
 10
81.50228828743479
 20
-163.0668318023522
 30
0.0
 10
81.56305152103959
 20
-163.1341292143494
 30
0.0
 10
81.62445242694536
 20
-163.2005582840153
 30
0.0
 10
81.68585333285463
 20
-163.2669873536799
 30
0.0
 10
81.7479187482948
 20
-163.3325833644686
 30
0.0
 10
81.81065387292946
 20
-163.397339797738
 30
0.0
 10
82.06159437147771
 20
-163.6563655308165
 30
0.0
 10
82.32324652680016
 20
-163.9019626515891
 30
0.0
 10
82.59583666805962
 20
-164.1338474235692
 30
0.0
 10
82.86842680932037
 20
-164.3657321955492
 30
0.0
 10
83.15197451488481
 20
-164.5838800742336
 30
0.0
 10
83.44710472479139
 20
-164.787507607071
 30
0.0
 10
83.59466982974661
 20
-164.8893213734894
 30
0.0
 10
83.74513577531379
 20
-164.9874985161983
 30
0.0
 10
83.89862274889283
 20
-165.0818883629807
 30
0.0
 10
83.97536623568381
 20
-165.1290832863725
 30
0.0
 10
84.05286550542927
 20
-165.1753307264749
 30
0.0
 10
84.13113928776388
 20
-165.2206072028604
 30
0.0
 10
84.20941307010108
 20
-165.2658836792478
 30
0.0
 10
84.28858251546195
 20
-165.3102540997248
 30
0.0
 10
84.36823061406727
 20
-165.353470675806
 30
0.0
 10
84.68682300848788
 20
-165.5263369801268
 30
0.0
 10
85.01168292819746
 20
-165.6800200851552
 30
0.0
 10
85.34284065552199
 20
-165.8144273042297
 30
0.0
 10
85.67399838284492
 20
-165.9488345233029
 30
0.0
 10
86.01145275381265
 20
-166.0639694199207
 30
0.0
 10
86.35531733519879
 20
-166.1594843960448
 30
0.0
 10
86.69918191658686
 20
-166.254999372169
 30
0.0
 10
87.04943994061331
 20
-166.3309457498805
 30
0.0
 10
87.40654927499198
 20
-166.3859221199174
 30
0.0
 10
87.58510394217923
 20
-166.413410304939
 30
0.0
 10
87.76581277323803
 20
-166.4356718067359
 30
0.0
 10
87.94623973043327
 20
-166.4523781229446
 30
0.0
 10
88.12666668762849
 20
-166.4690844391481
 30
0.0
 10
88.30719061148334
 20
-166.4802972185852
 30
0.0
 10
88.48781288810815
 20
-166.4859379266386
 30
0.0
 10
88.66843516473103
 20
-166.4915786346893
 30
0.0
 10
88.8491459014993
 20
-166.4922077306255
 30
0.0
 10
89.02984871569465
 20
-166.4932856714676
 30
0.0
 10
89.21055152989065
 20
-166.4943636123103
 30
0.0
 10
89.39124354027155
 20
-166.4960536303304
 30
0.0
 10
89.57193982758203
 20
-166.4975013441318
 30
0.0
 10
90.29472497683384
 20
-166.5032921993372
 30
0.0
 10
91.01750741003192
 20
-166.5092369324438
 30
0.0
 10
91.74028715851553
 20
-166.5153337601545
 30
0.0
 10
93.18584665548339
 20
-166.5275274155816
 30
0.0
 10
94.63139423301127
 20
-166.5404302974376
 30
0.0
 10
96.0769446848343
 20
-166.553161661734
 30
0.0
 10
97.52249513665537
 20
-166.5658930260298
 30
0.0
 10
98.96804751555899
 20
-166.5784872383901
 30
0.0
 10
100.413615833609
 20
-166.5881203054387
 30
0.0
 10
101.8591841516548
 20
-166.5977533724886
 30
0.0
 10
103.3047703601047
 20
-166.604138321542
 30
0.0
 10
104.7503921003912
 20
-166.6041383240947
 30
0.0
  0
SPLINE
  5
C5
330
70
100
AcDbEntity
  8
Capa 1
 62
    18
420
        0
370
     9
100
AcDbSpline
210
0.0
220
0.0
230
1.0
 70
     8
 71
     3
 72
    89
 73
    85
 74
     0
 42
0.0000000001
 43
0.0000000001
 40
0.0
 40
0.0
 40
0.0
 40
0.0
 40
1.0
 40
1.0
 40
1.0
 40
2.0
 40
2.0
 40
2.0
 40
3.0
 40
3.0
 40
3.0
 40
4.0
 40
4.0
 40
4.0
 40
5.0
 40
5.0
 40
5.0
 40
6.0
 40
6.0
 40
6.0
 40
7.0
 40
7.0
 40
7.0
 40
8.0
 40
8.0
 40
8.0
 40
9.0
 40
9.0
 40
9.0
 40
10.0
 40
10.0
 40
10.0
 40
11.0
 40
11.0
 40
11.0
 40
12.0
 40
12.0
 40
12.0
 40
13.0
 40
13.0
 40
13.0
 40
14.0
 40
14.0
 40
14.0
 40
15.0
 40
15.0
 40
15.0
 40
16.0
 40
16.0
 40
16.0
 40
17.0
 40
17.0
 40
17.0
 40
18.0
 40
18.0
 40
18.0
 40
19.0
 40
19.0
 40
19.0
 40
20.0
 40
20.0
 40
20.0
 40
21.0
 40
21.0
 40
21.0
 40
22.0
 40
22.0
 40
22.0
 40
23.0
 40
23.0
 40
23.0
 40
24.0
 40
24.0
 40
24.0
 40
25.0
 40
25.0
 40
25.0
 40
26.0
 40
26.0
 40
26.0
 40
27.0
 40
27.0
 40
27.0
 40
28.0
 40
28.0
 40
28.0
 40
28.0
 10
104.750392102034
 20
-166.6041383240947
 30
0.0
 10
106.19601384232
 20
-166.6041383213598
 30
0.0
 10
107.6416000507714
 20
-166.5977533723519
 30
0.0
 10
109.0871683688192
 20
-166.5881203053951
 30
0.0
 10
110.5327366868669
 20
-166.5784872384344
 30
0.0
 10
111.9782890657709
 20
-166.5658930263968
 30
0.0
 10
113.4238395175897
 20
-166.553161661734
 30
0.0
 10
114.869389969415
 20
-166.5404302970712
 30
0.0
 10
116.3149375469432
 20
-166.5275274153987
 30
0.0
 10
117.760497043911
 20
-166.5153337601545
 30
0.0
 10
118.4832767923943
 20
-166.5092369325362
 30
0.0
 10
119.2060592255905
 20
-166.5032921994277
 30
0.0
 10
119.928844374842
 20
-166.4975013441433
 30
0.0
 10
120.1095406621528
 20
-166.4960536303201
 30
0.0
 10
120.2902326725369
 20
-166.4943636123103
 30
0.0
 10
120.4709354867316
 20
-166.4932856714676
 30
0.0
 10
120.6516383009295
 20
-166.4922077306255
 30
0.0
 10
120.8323490376952
 20
-166.4915786346893
 30
0.0
 10
121.0129713143187
 20
-166.4859379266386
 30
0.0
 10
121.1935935909435
 20
-166.4802972185852
 30
0.0
 10
121.3741175147955
 20
-166.4690844391481
 30
0.0
 10
121.5545444719933
 20
-166.4523781229446
 30
0.0
 10
121.734971429186
 20
-166.4356718067359
 30
0.0
 10
121.9156802602473
 20
-166.413410304939
 30
0.0
 10
122.0942349274323
 20
-166.3859221199174
 30
0.0
 10
122.4513442618113
 20
-166.3309457498805
 30
0.0
 10
122.8016022859302
 20
-166.254999372169
 30
0.0
 10
123.1454668672464
 20
-166.1594843960448
 30
0.0
 10
123.48933144856
 20
-166.0639694199207
 30
0.0
 10
123.8267858194302
 20
-165.9488345231534
 30
0.0
 10
124.1579435468751
 20
-165.8144273041983
 30
0.0
 10
124.4891012743173
 20
-165.6800200852476
 30
0.0
 10
124.8139611939381
 20
-165.5263369801268
 30
0.0
 10
125.1325535883555
 20
-165.353470675806
 30
0.0
 10
125.2122016869643
 20
-165.3102540997293
 30
0.0
 10
125.2913711323274
 20
-165.2658836792478
 30
0.0
 10
125.3696449146608
 20
-165.2206072028604
 30
0.0
 10
125.4479186969992
 20
-165.1753307264749
 30
0.0
 10
125.5254179667405
 20
-165.1290832863725
 30
0.0
 10
125.6021614535318
 20
-165.0818883629807
 30
0.0
 10
125.7556484271118
 20
-164.9874985161983
 30
0.0
 10
125.9061143726822
 20
-164.8893213734894
 30
0.0
 10
126.0536794776336
 20
-164.787507607071
 30
0.0
 10
126.3488096875402
 20
-164.5838800742336
 30
0.0
 10
126.6323573932432
 20
-164.3657321955492
 30
0.0
 10
126.9049475344109
 20
-164.1338474235692
 30
0.0
 10
127.1775376755805
 20
-163.9019626515891
 30
0.0
 10
127.4391898309492
 20
-163.6563655308165
 30
0.0
 10
127.6901303294968
 20
-163.397339797738
 30
0.0
 10
127.7528654541318
 20
-163.3325833644686
 30
0.0
 10
127.8149308695732
 20
-163.2669873536799
 30
0.0
 10
127.8763317754815
 20
-163.2005582840153
 30
0.0
 10
127.9377326813867
 20
-163.1341292143494
 30
0.0
 10
127.9984959149895
 20
-163.0668318023522
 30
0.0
 10
128.0582674103125
 20
-162.9990892999365
 30
0.0
 10
128.1778104009585
 20
-162.8636042951
 30
0.0
 10
128.2937320978374
 20
-162.7259786308991
 30
0.0
 10
128.4062113617776
 20
-162.58631803748
 30
0.0
 10
128.6311698896646
 20
-162.306996850639
 30
0.0
 10
128.842390241264
 20
-162.0195546003358
 30
0.0
 10
129.0408008947064
 20
-161.7245401391882
 30
0.0
 10
129.4376222015881
 20
-161.1345112168904
 30
0.0
 10
129.7830564587579
 20
-160.5141058105027
 30
0.0
 10
130.0811878191294
 20
-159.8657381906201
 30
0.0
 10
130.2302534993196
 20
-159.5415543806794
 30
0.0
 10
130.3675022802406
 20
-159.2103852339134
 30
0.0
 10
130.4929362856872
 20
-158.872232005908
 30
0.0
 10
130.5242947870519
 20
-158.7876936989047
 30
0.0
 10
130.554942178689
 20
-158.7026294463285
 30
0.0
 10
130.5847249384757
 20
-158.6174732554364
 30
0.0
 10
130.6145076982605
 20
-158.5323170645443
 30
0.0
 10
130.6434473098464
 20
-158.4470162473937
 30
0.0
 10
130.6715541728672
 20
-158.3615725878925
 30
0.0
 10
130.7277678989061
 20
-158.1906852688941
 30
0.0
 10
130.7806523757468
 20
-158.019226879554
 30
0.0
 10
130.8302680596338
 20
-157.8472077902793
 30
0.0
 10
131.028730795185
 20
-157.1591314331783
 30
0.0
 10
131.1747579018386
 20
-156.4620607274825
 30
0.0
 10
131.2730573085109
 20
-155.7568032311029
 30
0.0
 10
131.322207011849
 20
-155.4041744829118
 30
0.0
 10
131.3593218092893
 20
-155.0494813723557
 30
0.0
 10
131.3842728146559
 20
-154.6927017916744
 30
0.0
 10
131.409223820025
 20
-154.3359222109912
 30
0.0
 10
131.4220138790066
 20
-153.9770538069576
 30
0.0
 10
131.4220138725312
 20
-153.6159971896207
 30
0.0
  0
SPLINE
  5
C6
330
70
100
AcDbEntity
  8
Capa 1
 62
    18
420
        0
370
     9
100
AcDbSpline
210
0.0
220
0.0
230
1.0
 70
     8
 71
     3
 72
    89
 73
    85
 74
     0
 42
0.0000000001
 43
0.0000000001
 40
0.0
 40
0.0
 40
0.0
 40
0.0
 40
1.0
 40
1.0
 40
1.0
 40
2.0
 40
2.0
 40
2.0
 40
3.0
 40
3.0
 40
3.0
 40
4.0
 40
4.0
 40
4.0
 40
5.0
 40
5.0
 40
5.0
 40
6.0
 40
6.0
 40
6.0
 40
7.0
 40
7.0
 40
7.0
 40
8.0
 40
8.0
 40
8.0
 40
9.0
 40
9.0
 40
9.0
 40
10.0
 40
10.0
 40
10.0
 40
11.0
 40
11.0
 40
11.0
 40
12.0
 40
12.0
 40
12.0
 40
13.0
 40
13.0
 40
13.0
 40
14.0
 40
14.0
 40
14.0
 40
15.0
 40
15.0
 40
15.0
 40
16.0
 40
16.0
 40
16.0
 40
17.0
 40
17.0
 40
17.0
 40
18.0
 40
18.0
 40
18.0
 40
19.0
 40
19.0
 40
19.0
 40
20.0
 40
20.0
 40
20.0
 40
21.0
 40
21.0
 40
21.0
 40
22.0
 40
22.0
 40
22.0
 40
23.0
 40
23.0
 40
23.0
 40
24.0
 40
24.0
 40
24.0
 40
25.0
 40
25.0
 40
25.0
 40
26.0
 40
26.0
 40
26.0
 40
27.0
 40
27.0
 40
27.0
 40
28.0
 40
28.0
 40
28.0
 40
28.0
 10
131.4220138725312
 20
-153.615997206224
 30
0.0
 10
131.422013879099
 20
-153.254940588891
 30
0.0
 10
131.409223820025
 20
-152.8960721848574
 30
0.0
 10
131.3842728146559
 20
-152.539292604173
 30
0.0
 10
131.3593218092893
 20
-152.182513023491
 30
0.0
 10
131.3222070119413
 20
-151.827819913026
 30
0.0
 10
131.2730573085571
 20
-151.4751911647445
 30
0.0
 10
131.174757901795
 20
-150.7699336681832
 30
0.0
 10
131.028730795185
 20
-150.0728629626665
 30
0.0
 10
130.8302680596338
 20
-149.3847866055673
 30
0.0
 10
130.7806523757468
 20
-149.2127675162908
 30
0.0
 10
130.7277678989061
 20
-149.0413091269507
 30
0.0
 10
130.6715541728672
 20
-148.8704218079526
 30
0.0
 10
130.6434473098464
 20
-148.784978148453
 30
0.0
 10
130.6145076982605
 20
-148.6996773313031
 30
0.0
 10
130.5847249384757
 20
-148.614521140411
 30
0.0
 10
130.554942178689
 20
-148.5293649495208
 30
0.0
 10
130.5242947870519
 20
-148.4443006969426
 30
0.0
 10
130.4929362856872
 20
-148.3597623899406
 30
0.0
 10
130.3675022802406
 20
-148.0216091619359
 30
0.0
 10
130.2302534993196
 20
-147.6904400151679
 30
0.0
 10
130.0811878191294
 20
-147.3662562052282
 30
0.0
 10
129.7830564587579
 20
-146.717888585344
 30
0.0
 10
129.4376222015881
 20
-146.0974831791861
 30
0.0
 10
129.0408008947064
 20
-145.5074542567051
 30
0.0
 10
128.842390241264
 20
-145.2124397954669
 30
0.0
 10
128.6311698896646
 20
-144.924997545208
 30
0.0
 10
128.4062113617776
 20
-144.6456763583674
 30
0.0
 10
128.2937320978374
 20
-144.506015764946
 30
0.0
 10
128.1778104009585
 20
-144.3683901007474
 30
0.0
 10
128.0582674103125
 20
-144.2329050959121
 30
0.0
 10
127.9984959149895
 20
-144.1651625934945
 30
0.0
 10
127.9377326814168
 20
-144.0978651814977
 30
0.0
 10
127.8763317754482
 20
-144.0314361118314
 30
0.0
 10
127.8149308694808
 20
-143.9650070421674
 30
0.0
 10
127.7528654541318
 20
-143.8994110313781
 30
0.0
 10
127.6901303294968
 20
-143.8346545981087
 30
0.0
 10
127.4391898309492
 20
-143.575628865028
 30
0.0
 10
127.1775376756242
 20
-143.3300317442598
 30
0.0
 10
126.9049475343673
 20
-143.0981469722782
 30
0.0
 10
126.6323573931065
 20
-142.8662622002981
 30
0.0
 10
126.3488096875402
 20
-142.6481143216138
 30
0.0
 10
126.0536794776336
 20
-142.444486788778
 30
0.0
 10
125.9061143726822
 20
-142.3426730223593
 30
0.0
 10
125.7556484271118
 20
-142.2444958796487
 30
0.0
 10
125.6021614535318
 20
-142.1501060328679
 30
0.0
 10
125.5254179667405
 20
-142.1029111094739
 30
0.0
 10
125.4479186969992
 20
-142.0566636693721
 30
0.0
 10
125.3696449146608
 20
-142.0113871929866
 30
0.0
 10
125.2913711323274
 20
-141.9661107166011
 30
0.0
 10
125.2122016869643
 20
-141.9217402961196
 30
0.0
 10
125.1325535883593
 20
-141.8785237200413
 30
0.0
 10
124.8139611939381
 20
-141.7056574157221
 30
0.0
 10
124.4891012743173
 20
-141.5519743106921
 30
0.0
 10
124.1579435468751
 20
-141.4175670916176
 30
0.0
 10
123.8267858194302
 20
-141.2831598725419
 30
0.0
 10
123.4893314486139
 20
-141.1680249759279
 30
0.0
 10
123.1454668672278
 20
-141.0725099998038
 30
0.0
 10
122.8016022858378
 20
-140.9769950236793
 30
0.0
 10
122.4513442618113
 20
-140.9010486458761
 30
0.0
 10
122.0942349274323
 20
-140.8460722759091
 30
0.0
 10
121.9156802602473
 20
-140.8185840909266
 30
0.0
 10
121.734971429186
 20
-140.7963225891111
 30
0.0
 10
121.5545444719933
 20
-140.7796162729031
 30
0.0
 10
121.3741175147955
 20
-140.7629099566986
 30
0.0
 10
121.1935935909435
 20
-140.7516971772618
 30
0.0
 10
121.0129713143187
 20
-140.7460564692104
 30
0.0
 10
120.8323490376952
 20
-140.7404157611573
 30
0.0
 10
120.6516383009295
 20
-140.7397866652234
 30
0.0
 10
120.4709354867316
 20
-140.7387087243807
 30
0.0
 10
120.2902326725369
 20
-140.7376307835383
 30
0.0
 10
120.1095406621528
 20
-140.7359407655179
 30
0.0
 10
119.928844374842
 20
-140.7344930517153
 30
0.0
 10
119.2060592255905
 20
-140.7287021965121
 30
0.0
 10
118.4832767923943
 20
-140.7227574634032
 30
0.0
 10
117.760497043911
 20
-140.7166606356909
 30
0.0
 10
116.3149375469432
 20
-140.7044669802657
 30
0.0
 10
114.869389969415
 20
-140.6915640987736
 30
0.0
 10
113.4238395175897
 20
-140.6788327341149
 30
0.0
 10
111.9782890657709
 20
-140.6661013694527
 30
0.0
 10
110.5327366868669
 20
-140.6535071574126
 30
0.0
 10
109.0871683688192
 20
-140.6438740904538
 30
0.0
 10
107.6416000507714
 20
-140.6342410234947
 30
0.0
 10
106.19601384232
 20
-140.6278560744898
 30
0.0
 10
104.750392102034
 20
-140.6278560717523
 30
0.0
  0
SPLINE
  5
C7
330
70
100
AcDbEntity
  8
Capa 1
 62
    18
420
        0
370
     9
100
AcDbSpline
210
0.0
220
0.0
230
1.0
 70
     8
 71
     3
 72
    29
 73
    25
 74
     0
 42
0.0000000001
 43
0.0000000001
 40
0.0
 40
0.0
 40
0.0
 40
0.0
 40
1.0
 40
1.0
 40
1.0
 40
2.0
 40
2.0
 40
2.0
 40
3.0
 40
3.0
 40
3.0
 40
4.0
 40
4.0
 40
4.0
 40
5.0
 40
5.0
 40
5.0
 40
6.0
 40
6.0
 40
6.0
 40
7.0
 40
7.0
 40
7.0
 40
8.0
 40
8.0
 40
8.0
 40
8.0
 10
68.55052123688522
 20
-132.0852559460143
 30
0.0
 10
68.50775335850707
 20
-132.0848917918244
 30
0.0
 10
68.46340750374745
 20
-132.081561392977
 30
0.0
 10
68.4185061090499
 20
-132.0747294808637
 30
0.0
 10
68.37360471435268
 20
-132.0678975687506
 30
0.0
 10
68.32815676068638
 20
-132.0575532139661
 30
0.0
 10
68.28351530891052
 20
-132.0434677810093
 30
0.0
 10
68.23887385713305
 20
-132.0293823480522
 30
0.0
 10
68.19505649197026
 20
-132.0115497172146
 30
0.0
 10
68.153545147798
 20
-131.9901808965751
 30
0.0
 10
68.11203380362382
 20
-131.9688120759336
 30
0.0
 10
68.0728493436805
 20
-131.9439100361406
 30
0.0
 10
68.03730669635337
 20
-131.9161516637047
 30
0.0
 10
68.00176404902817
 20
-131.8883932912688
 30
0.0
 10
67.96987873514289
 20
-131.857790707764
 30
0.0
 10
67.94251746035619
 20
-131.8253708561629
 30
0.0
 10
67.91515618556978
 20
-131.7929510045582
 30
0.0
 10
67.89232275359438
 20
-131.758730178794
 30
0.0
 10
67.87428734545834
 20
-131.7238657514734
 30
0.0
 10
67.85625193732197
 20
-131.6890013241518
 30
0.0
 10
67.84300671717223
 20
-131.6535070287286
 30
0.0
 10
67.83425893329411
 20
-131.618439589168
 30
0.0
 10
67.82551114941823
 20
-131.5833721496091
 30
0.0
 10
67.8212468074777
 20
-131.5487385799371
 30
0.0
 10
67.82078053359949
 20
-131.515337390502
 30
0.0
  0
SPLINE
  5
C8
330
70
100
AcDbEntity
  8
Capa 1
 62
    18
420
        0
370
     9
100
AcDbSpline
210
0.0
220
0.0
230
1.0
 70
     8
 71
     3
 72
    29
 73
    25
 74
     0
 42
0.0000000001
 43
0.0000000001
 40
0.0
 40
0.0
 40
0.0
 40
0.0
 40
1.0
 40
1.0
 40
1.0
 40
2.0
 40
2.0
 40
2.0
 40
3.0
 40
3.0
 40
3.0
 40
4.0
 40
4.0
 40
4.0
 40
5.0
 40
5.0
 40
5.0
 40
6.0
 40
6.0
 40
6.0
 40
7.0
 40
7.0
 40
7.0
 40
8.0
 40
8.0
 40
8.0
 40
8.0
 10
141.6800036688181
 20
-131.5153373902007
 30
0.0
 10
141.6795373949434
 20
-131.5487385796448
 30
0.0
 10
141.6752730530026
 20
-131.5833721493264
 30
0.0
 10
141.6665252691251
 20
-131.6184395888982
 30
0.0
 10
141.6577774852463
 20
-131.6535070284719
 30
0.0
 10
141.6445322650972
 20
-131.6890013239063
 30
0.0
 10
141.6264968569644
 20
-131.7238657512382
 30
0.0
 10
141.6084614488264
 20
-131.7587301785723
 30
0.0
 10
141.5856280168517
 20
-131.7929510043455
 30
0.0
 10
141.5582667420653
 20
-131.8253708559595
 30
0.0
 10
141.5309054672782
 20
-131.8577907075715
 30
0.0
 10
141.4990201533942
 20
-131.8883932910876
 30
0.0
 10
141.4634775060681
 20
-131.9161516635347
 30
0.0
 10
141.4279348587406
 20
-131.9439100359776
 30
0.0
 10
141.388750398795
 20
-131.9688120757803
 30
0.0
 10
141.3472390546205
 20
-131.9901808964272
 30
0.0
 10
141.3057277104505
 20
-132.0115497170761
 30
0.0
 10
141.2619103452877
 20
-132.0293823479175
 30
0.0
 10
141.2172688935112
 20
-132.0434677808781
 30
0.0
 10
141.1726274417347
 20
-132.0575532138406
 30
0.0
 10
141.1271794880684
 20
-132.0678975686287
 30
0.0
 10
141.0822780933709
 20
-132.074729480744
 30
0.0
 10
141.0373766986734
 20
-132.081561392859
 30
0.0
 10
140.9930308439121
 20
-132.084891791706
 30
0.0
 10
140.9502629655356
 20
-132.0852559458959
 30
0.0
  0
LINE
  5
C9
330
70
100
AcDbEntity
  8
Capa 1
 62
    18
420
        0
370
     9
100
AcDbLine
 10
140.9502629371147
 20
-132.0852559459848
 30
0.0
 11
68.55052126531088
 21
-132.0852559459848
 31
0.0
  0
SPLINE
  5
CA
330
70
100
AcDbEntity
  8
Capa 1
 62
    18
420
        0
370
     9
100
AcDbSpline
210
0.0
220
0.0
230
1.0
 70
     8
 71
     3
 72
    68
 73
    64
 74
     0
 42
0.0000000001
 43
0.0000000001
 40
0.0
 40
0.0
 40
0.0
 40
0.0
 40
1.0
 40
1.0
 40
1.0
 40
2.0
 40
2.0
 40
2.0
 40
3.0
 40
3.0
 40
3.0
 40
4.0
 40
4.0
 40
4.0
 40
5.0
 40
5.0
 40
5.0
 40
6.0
 40
6.0
 40
6.0
 40
7.0
 40
7.0
 40
7.0
 40
8.0
 40
8.0
 40
8.0
 40
9.0
 40
9.0
 40
9.0
 40
10.0
 40
10.0
 40
10.0
 40
11.0
 40
11.0
 40
11.0
 40
12.0
 40
12.0
 40
12.0
 40
13.0
 40
13.0
 40
13.0
 40
14.0
 40
14.0
 40
14.0
 40
15.0
 40
15.0
 40
15.0
 40
16.0
 40
16.0
 40
16.0
 40
17.0
 40
17.0
 40
17.0
 40
18.0
 40
18.0
 40
18.0
 40
19.0
 40
19.0
 40
19.0
 40
20.0
 40
20.0
 40
20.0
 40
21.0
 40
21.0
 40
21.0
 40
21.0
 10
67.80164152248961
 20
-131.0361634926674
 30
0.0
 10
67.80173300464603
 20
-131.0307854282654
 30
0.0
 10
67.80182448680054
 20
-131.0254073638657
 30
0.0
 10
67.80211688393767
 20
-131.0200386467477
 30
0.0
 10
67.80240709949346
 20
-131.0147099857556
 30
0.0
 10
67.80289524315257
 20
-131.0093905330835
 30
0.0
 10
67.8035272103509
 20
-131.0040893889095
 30
0.0
 10
67.80415442777922
 20
-130.9988280873505
 30
0.0
 10
67.80492331495835
 20
-130.9935848201135
 30
0.0
 10
67.80584669522842
 20
-130.9883684261186
 30
0.0
 10
67.80676308415443
 20
-130.9831915278997
 30
0.0
 10
67.80783163554675
 20
-130.9780410975196
 30
0.0
 10
67.80904684079743
 20
-130.9729256867506
 30
0.0
 10
67.81025277658581
 20
-130.967849295809
 30
0.0
 10
67.81160313744432
 20
-130.9628073922643
 30
0.0
 10
67.81309670994187
 20
-130.9578082215034
 30
0.0
 10
67.81457880411331
 20
-130.9528474701094
 30
0.0
 10
67.81620191717625
 20
-130.9479287972076
 30
0.0
 10
67.81796317700067
 20
-130.9430601242111
 30
0.0
 10
67.819710798969
 20
-130.9382291505185
 30
0.0
 10
67.82159443657424
 20
-130.9334474054072
 30
0.0
 10
67.82361117605328
 20
-130.9287224717818
 30
0.0
 10
67.82561218054117
 20
-130.9240344030019
 30
0.0
 10
67.82774421803306
 20
-130.9194022626589
 30
0.0
 10
67.83000394548134
 20
-130.91483328246
 30
0.0
 10
67.83224590689684
 20
-130.9103002236956
 30
0.0
 10
67.83461355835881
 20
-130.9058293358486
 30
0.0
 10
67.83710326770372
 20
-130.9014274914744
 30
0.0
 10
67.83957325169343
 20
-130.89706052183
 30
0.0
 10
67.84216336715828
 20
-130.8927615059643
 30
0.0
 10
67.84486970302317
 20
-130.8885369431975
 30
0.0
 10
67.84755443041601
 20
-130.8843461110336
 30
0.0
 10
67.85035352971812
 20
-130.8802285477844
 30
0.0
 10
67.85326281671681
 20
-130.8761903988112
 30
0.0
 10
67.85614869272109
 20
-130.8721847447689
 30
0.0
 10
67.85914299020118
 20
-130.8682572320502
 30
0.0
 10
67.86224139851873
 20
-130.8644135584971
 30
0.0
 10
67.86531467710012
 20
-130.8606010591775
 30
0.0
 10
67.86849038458213
 20
-130.8568710445763
 30
0.0
 10
67.87176367380386
 20
-130.8532290971138
 30
0.0
 10
67.87501020370751
 20
-130.8496169227734
 30
0.0
 10
67.87835272639944
 20
-130.846091381547
 30
0.0
 10
67.88178750585392
 20
-130.8426567123723
 30
0.0
 10
67.88868291042248
 20
-130.8357615291922
 30
0.0
 10
67.89595012406846
 20
-130.8292325744982
 30
0.0
 10
67.9035443520121
 20
-130.8231106049797
 30
0.0
 10
67.91126319208737
 20
-130.8168881813165
 30
0.0
 10
67.91931986632753
 20
-130.8110862086813
 30
0.0
 10
67.92766773673841
 20
-130.805738909445
 30
0.0
 10
67.93615042649687
 20
-130.8003052505268
 30
0.0
 10
67.94493379409792
 20
-130.7953410696853
 30
0.0
 10
67.95396407601384
 20
-130.7908731518794
 30
0.0
 10
67.96313793296715
 20
-130.7863341973707
 30
0.0
 10
67.97256661817321
 20
-130.7823074118011
 30
0.0
 10
67.98219091775941
 20
-130.7788323833875
 30
0.0
 10
67.99196589414485
 20
-130.7753029503768
 30
0.0
 10
68.00194265788258
 20
-130.7723426862359
 30
0.0
 10
68.01205648027516
 20
-130.7699160471769
 30
0.0
 10
68.02232625363055
 20
-130.7674519903495
 30
0.0
 10
68.03273734500194
 20
-130.7655381420344
 30
0.0
 10
68.0432201823879
 20
-130.764396416723
 30
0.0
 10
68.05386225546152
 20
-130.763237348452
 30
0.0
 10
68.06457827076918
 20
-130.7628740386466
 30
0.0
 10
68.07529428607522
 20
-130.7625107288396
 30
0.0
  0
SPLINE
  5
CB
330
70
100
AcDbEntity
  8
Capa 1
 62
    18
420
        0
370
     9
100
AcDbSpline
210
0.0
220
0.0
230
1.0
 70
     8
 71
     3
 72
    68
 73
    64
 74
     0
 42
0.0000000001
 43
0.0000000001
 40
0.0
 40
0.0
 40
0.0
 40
0.0
 40
1.0
 40
1.0
 40
1.0
 40
2.0
 40
2.0
 40
2.0
 40
3.0
 40
3.0
 40
3.0
 40
4.0
 40
4.0
 40
4.0
 40
5.0
 40
5.0
 40
5.0
 40
6.0
 40
6.0
 40
6.0
 40
7.0
 40
7.0
 40
7.0
 40
8.0
 40
8.0
 40
8.0
 40
9.0
 40
9.0
 40
9.0
 40
10.0
 40
10.0
 40
10.0
 40
11.0
 40
11.0
 40
11.0
 40
12.0
 40
12.0
 40
12.0
 40
13.0
 40
13.0
 40
13.0
 40
14.0
 40
14.0
 40
14.0
 40
15.0
 40
15.0
 40
15.0
 40
16.0
 40
16.0
 40
16.0
 40
17.0
 40
17.0
 40
17.0
 40
18.0
 40
18.0
 40
18.0
 40
19.0
 40
19.0
 40
19.0
 40
20.0
 40
20.0
 40
20.0
 40
21.0
 40
21.0
 40
21.0
 40
21.0
 10
141.4254899161219
 20
-130.762510728845
 30
0.0
 10
141.4308679805239
 20
-130.7626022110015
 30
0.0
 10
141.436246044924
 20
-130.7626936931559
 30
0.0
 10
141.4416147620433
 20
-130.762986090295
 30
0.0
 10
141.4469434230379
 20
-130.7632763058489
 30
0.0
 10
141.4522628757091
 20
-130.7637644495083
 30
0.0
 10
141.4575640198853
 20
-130.7643964167086
 30
0.0
 10
141.4628253214443
 20
-130.7650236341369
 30
0.0
 10
141.4680685886832
 20
-130.7657925213157
 30
0.0
 10
141.4732849826836
 20
-130.7667159015896
 30
0.0
 10
141.4784618809038
 20
-130.767632290514
 30
0.0
 10
141.4836123112884
 20
-130.7687008419079
 30
0.0
 10
141.4887277220593
 20
-130.7699160471586
 30
0.0
 10
141.493804113004
 20
-130.7711219829518
 30
0.0
 10
141.4988460165539
 20
-130.7724723438113
 30
0.0
 10
141.5038451873171
 20
-130.7739659163104
 30
0.0
 10
141.5088059387181
 20
-130.7754480104861
 30
0.0
 10
141.5137246116242
 20
-130.7770711235503
 30
0.0
 10
141.5185932846245
 20
-130.7788323833786
 30
0.0
 10
141.5234242583209
 20
-130.7805800053504
 30
0.0
 10
141.5282060034376
 20
-130.7824636429576
 30
0.0
 10
141.5329309370647
 20
-130.7844803824405
 30
0.0
 10
141.5376190058519
 20
-130.7864813869341
 30
0.0
 10
141.5422511462004
 20
-130.7886134244292
 30
0.0
 10
141.5468201264073
 20
-130.790873151881
 30
0.0
 10
141.5513531851772
 20
-130.7931151133023
 30
0.0
 10
141.5558240730293
 20
-130.7954827647678
 30
0.0
 10
141.5602259174131
 20
-130.7979724741201
 30
0.0
 10
141.564592887061
 20
-130.8004424581159
 30
0.0
 10
141.5688919029342
 20
-130.8030325735859
 30
0.0
 10
141.5731164657064
 20
-130.8057389094598
 30
0.0
 10
141.5773072978755
 20
-130.808423636858
 30
0.0
 10
141.5814248611305
 20
-130.8112227361717
 30
0.0
 10
141.585463010111
 20
-130.8141320231778
 30
0.0
 10
141.5894686641594
 20
-130.817017899193
 30
0.0
 10
141.5933961768845
 20
-130.8200121966808
 30
0.0
 10
141.5972398504437
 20
-130.8231106050076
 30
0.0
 10
141.6010523497706
 20
-130.8261838836018
 30
0.0
 10
141.6047823643793
 20
-130.8293595910928
 30
0.0
 10
141.6084243118459
 20
-130.8326328803258
 30
0.0
 10
141.6120364861931
 20
-130.8358794102403
 30
0.0
 10
141.615562027423
 20
-130.8392219329454
 30
0.0
 10
141.6189966966041
 20
-130.8426567124092
 30
0.0
 10
141.6258918797634
 20
-130.8495521169685
 30
0.0
 10
141.632420834433
 20
-130.8568193306048
 30
0.0
 10
141.6385428039338
 20
-130.8644135585363
 30
0.0
 10
141.6447652275794
 20
-130.8721323986035
 30
0.0
 10
141.6505672002008
 20
-130.8801890728382
 30
0.0
 10
141.6559144994275
 20
-130.8885369432398
 30
0.0
 10
141.6613481583325
 20
-130.8970196329928
 30
0.0
 10
141.666312339165
 20
-130.9058030005936
 30
0.0
 10
141.6707802569613
 20
-130.9148332825063
 30
0.0
 10
141.675319211463
 20
-130.9240071394592
 30
0.0
 10
141.6793459970271
 20
-130.9334358246692
 30
0.0
 10
141.6828210254368
 20
-130.9430601242553
 30
0.0
 10
141.6863504584475
 20
-130.9528351006498
 30
0.0
 10
141.6893107225846
 20
-130.9628118643968
 30
0.0
 10
141.6917373616359
 20
-130.9729256867987
 30
0.0
 10
141.6942014184643
 20
-130.9831954601708
 30
0.0
 10
141.6961152667736
 20
-130.9936065515569
 30
0.0
 10
141.6972569920773
 20
-131.0040893889573
 30
0.0
 10
141.6984160603409
 20
-131.0147314620573
 30
0.0
 10
141.6987793701377
 20
-131.0254474773851
 30
0.0
 10
141.6991426799311
 20
-131.0361634927152
 30
0.0
  0
LINE
  5
CC
330
70
100
AcDbEntity
  8
Capa 1
 62
    18
420
        0
370
     9
100
AcDbLine
 10
141.6877731828186
 20
-171.987882678673
 30
0.0
 11
141.6991426798837
 21
-171.9992521541743
 31
0.0
  0
LINE
  5
CD
330
70
100
AcDbEntity
  8
Capa 1
 62
    18
420
        0
370
     9
100
AcDbLine
 10
141.6991426798837
 20
-171.9992521541743
 30
0.0
 11
141.6991426798837
 21
-131.0361635027617
 31
0.0
  0
LINE
  5
CE
330
70
100
AcDbEntity
  8
Capa 1
 62
    18
420
        0
370
     9
100
AcDbLine
 10
67.80164152254321
 20
-131.0361635027617
 30
0.0
 11
67.80164152254321
 21
-171.9992521541743
 31
0.0
  0
LINE
  5
CF
330
70
100
AcDbEntity
  8
Capa 1
 62
    18
420
        0
370
     9
100
AcDbLine
 10
67.80164152254321
 20
-171.9992521541743
 30
0.0
 11
67.81301101960633
 21
-171.987882678673
 31
0.0
  0
LINE
  5
D0
330
70
100
AcDbEntity
  8
Capa 1
 62
    18
420
        0
370
     9
100
AcDbLine
 10
141.4254898979984
 20
-130.7625107288931
 30
0.0
 11
68.07529430442878
 21
-130.7625107288931
 31
0.0
  0
SPLINE
  5
D1
330
70
100
AcDbEntity
  8
Capa 1
 62
    18
420
        0
370
     9
100
AcDbSpline
210
0.0
220
0.0
230
1.0
 70
     8
 71
     3
 72
    11
 73
     7
 74
     0
 42
0.0000000001
 43
0.0000000001
 40
0.0
 40
0.0
 40
0.0
 40
0.0
 40
1.0
 40
1.0
 40
1.0
 40
2.0
 40
2.0
 40
2.0
 40
2.0
 10
140.9502629655394
 20
-132.0852559460182
 30
0.0
 10
140.9526772011002
 20
-132.1278133200554
 30
0.0
 10
140.9546499953397
 20
-132.1824526645324
 30
0.0
 10
140.9559892720505
 20
-132.2438527919013
 30
0.0
 10
140.9573285487587
 20
-132.3052529192679
 30
0.0
 10
140.9580324794771
 20
-132.3733300170802
 30
0.0
 10
140.9580324794771
 20
-132.4414550432168
 30
0.0
  0
SPLINE
  5
D2
330
70
100
AcDbEntity
  8
Capa 1
 62
    18
420
        0
370
     9
100
AcDbSpline
210
0.0
220
0.0
230
1.0
 70
     8
 71
     3
 72
    11
 73
     7
 74
     0
 42
0.0000000001
 43
0.0000000001
 40
0.0
 40
0.0
 40
0.0
 40
0.0
 40
1.0
 40
1.0
 40
1.0
 40
2.0
 40
2.0
 40
2.0
 40
2.0
 10
68.54275172294949
 20
-132.4414550432168
 30
0.0
 10
68.54275172294949
 20
-132.3733300170802
 30
0.0
 10
68.54345565366722
 20
-132.3052529192679
 30
0.0
 10
68.5447949303764
 20
-132.2438527919013
 30
0.0
 10
68.54613420708526
 20
-132.1824526645324
 30
0.0
 10
68.54810700132446
 20
-132.1278133200554
 30
0.0
 10
68.55052123688522
 20
-132.0852559460182
 30
0.0
  0
SPLINE
  5
D3
330
70
100
AcDbEntity
  8
Capa 1
 62
    18
420
        0
370
     9
100
AcDbSpline
210
0.0
220
0.0
230
1.0
 70
     8
 71
     3
 72
   110
 73
   106
 74
     0
 42
0.0000000001
 43
0.0000000001
 40
0.0
 40
0.0
 40
0.0
 40
0.0
 40
1.0
 40
1.0
 40
1.0
 40
2.0
 40
2.0
 40
2.0
 40
3.0
 40
3.0
 40
3.0
 40
4.0
 40
4.0
 40
4.0
 40
5.0
 40
5.0
 40
5.0
 40
6.0
 40
6.0
 40
6.0
 40
7.0
 40
7.0
 40
7.0
 40
8.0
 40
8.0
 40
8.0
 40
9.0
 40
9.0
 40
9.0
 40
10.0
 40
10.0
 40
10.0
 40
11.0
 40
11.0
 40
11.0
 40
12.0
 40
12.0
 40
12.0
 40
13.0
 40
13.0
 40
13.0
 40
14.0
 40
14.0
 40
14.0
 40
15.0
 40
15.0
 40
15.0
 40
16.0
 40
16.0
 40
16.0
 40
17.0
 40
17.0
 40
17.0
 40
18.0
 40
18.0
 40
18.0
 40
19.0
 40
19.0
 40
19.0
 40
20.0
 40
20.0
 40
20.0
 40
21.0
 40
21.0
 40
21.0
 40
22.0
 40
22.0
 40
22.0
 40
23.0
 40
23.0
 40
23.0
 40
24.0
 40
24.0
 40
24.0
 40
25.0
 40
25.0
 40
25.0
 40
26.0
 40
26.0
 40
26.0
 40
27.0
 40
27.0
 40
27.0
 40
28.0
 40
28.0
 40
28.0
 40
29.0
 40
29.0
 40
29.0
 40
30.0
 40
30.0
 40
30.0
 40
31.0
 40
31.0
 40
31.0
 40
32.0
 40
32.0
 40
32.0
 40
33.0
 40
33.0
 40
33.0
 40
34.0
 40
34.0
 40
34.0
 40
35.0
 40
35.0
 40
35.0
 40
35.0
 10
104.7503921012139
 20
-166.1486379220987
 30
0.0
 10
103.3060610742077
 20
-166.14863791261
 30
0.0
 10
101.8615654747266
 20
-166.1425081845917
 30
0.0
 10
100.4166442911482
 20
-166.1336604475426
 30
0.0
 10
98.97172310756619
 20
-166.1248127104962
 30
0.0
 10
97.52641458936594
 20
-166.1135913701997
 30
0.0
 10
96.08090904669875
 20
-166.1030382667625
 30
0.0
 10
94.63540350403091
 20
-166.092485163324
 30
0.0
 10
93.18972068641137
 20
-166.0825327064381
 30
0.0
 10
91.74400998922575
 20
-166.0739916701143
 30
0.0
 10
91.021154640635
 20
-166.0697211519492
 30
0.0
 10
90.29829056912538
 20
-166.0657764114664
 30
0.0
 10
89.57542781056922
 20
-166.0621480440089
 30
0.0
 10
89.48506996575074
 20
-166.0616944980762
 30
0.0
 10
89.39471214144544
 20
-166.0612458954733
 30
0.0
 10
89.3043543417426
 20
-166.0608021125737
 30
0.0
 10
89.259175441891
 20
-166.0605802211229
 30
0.0
 10
89.21399654819202
 20
-166.0603595345987
 30
0.0
 10
89.16881766329138
 20
-166.0601400523037
 30
0.0
 10
89.14622822084105
 20
-166.0600303111581
 30
0.0
 10
89.12363706869369
 20
-166.0599133122924
 30
0.0
 10
89.10077901926488
 20
-166.0598220910265
 30
0.0
 10
89.07792096983383
 20
-166.0597308697605
 30
0.0
 10
89.05514006038222
 20
-166.0596604002836
 30
0.0
 10
89.03243577822211
 20
-166.0595981498484
 30
0.0
 10
88.85080152094879
 20
-166.0591001463786
 30
0.0
 10
88.67420745555666
 20
-166.0589378138206
 30
0.0
 10
88.50130634821068
 20
-166.0538610500205
 30
0.0
 10
88.45808107137555
 20
-166.0525918590685
 30
0.0
 10
88.4150800092568
 20
-166.0510276835254
 30
0.0
 10
88.37227253669682
 20
-166.0491112010358
 30
0.0
 10
88.35086880041812
 20
-166.0481529597916
 30
0.0
 10
88.32951343589142
 20
-166.0471067952398
 30
0.0
 10
88.3082025176091
 20
-166.0459664327213
 30
0.0
 10
88.28689159932904
 20
-166.0448260702034
 30
0.0
 10
88.26536871391246
 20
-166.0435858476618
 30
0.0
 10
88.24387262801542
 20
-166.0422692787517
 30
0.0
 10
88.15788828443498
 20
-166.0370030031146
 30
0.0
 10
88.07194647588787
 20
-166.0304300413493
 30
0.0
 10
87.9860403306392
 20
-166.0225346366038
 30
0.0
 10
87.81422804014571
 20
-166.006743827113
 30
0.0
 10
87.64219780721797
 20
-165.9855812101509
 30
0.0
 10
87.47221671669114
 20
-165.9593669215627
 30
0.0
 10
87.13225453563937
 20
-165.9069383443915
 30
0.0
 10
86.79879924313501
 20
-165.834251097278
 30
0.0
 10
86.47110481938243
 20
-165.7426365214753
 30
0.0
 10
86.14341039563276
 20
-165.6510219456695
 30
0.0
 10
85.82198642276649
 20
-165.5405389688311
 30
0.0
 10
85.50638195871036
 20
-165.4114878886878
 30
0.0
 10
85.19077749465516
 20
-165.2824368085472
 30
0.0
 10
84.88105214445893
 20
-165.134827463761
 30
0.0
 10
84.5770148342024
 20
-164.9686816050685
 30
0.0
 10
84.50100550663652
 20
-164.9271451403947
 30
0.0
 10
84.42543435445815
 20
-164.8844927940478
 30
0.0
 10
84.35073087551657
 20
-164.8409781876036
 30
0.0
 10
84.27602739657437
 20
-164.7974635811594
 30
0.0
 10
84.20204702748865
 20
-164.7530102095341
 30
0.0
 10
84.1287735525327
 20
-164.707641010031
 30
0.0
 10
83.98222660262238
 20
-164.6169026110259
 30
0.0
 10
83.83850559125907
 20
-164.5225036442878
 30
0.0
 10
83.69750325377451
 20
-164.4245892462875
 30
0.0
 10
83.41549857880377
 20
-164.2287604502902
 30
0.0
 10
83.14435072184956
 20
-164.0188977698579
 30
0.0
 10
82.88347215325751
 20
-163.7957200129161
 30
0.0
 10
82.62259358466577
 20
-163.5725422559776
 30
0.0
 10
82.37197254611272
 20
-163.336079432076
 30
0.0
 10
82.13142818687115
 20
-163.0865781395504
 30
0.0
 10
82.07129209706291
 20
-163.024202816419
 30
0.0
 10
82.01177709358045
 20
-162.9610040049851
 30
0.0
 10
81.95288110799481
 20
-162.8969890986862
 30
0.0
 10
81.89398512240982
 20
-162.8329741923847
 30
0.0
 10
81.83568234146241
 20
-162.7681091389236
 30
0.0
 10
81.77831521333503
 20
-162.7028030240553
 30
0.0
 10
81.66358095708412
 20
-162.5721907943181
 30
0.0
 10
81.55225823241478
 20
-162.4394673683678
 30
0.0
 10
81.44419308102104
 20
-162.3047423522358
 30
0.0
 10
81.22806277823512
 20
-162.0352923199783
 30
0.0
 10
81.02493552577675
 20
-161.7578559423199
 30
0.0
 10
80.83400487657133
 20
-161.4729936095599
 30
0.0
 10
80.45214357815982
 20
-160.9032689440406
 30
0.0
 10
80.1192855805918
 20
-160.3039208299958
 30
0.0
 10
79.83140766466681
 20
-159.6763797868972
 30
0.0
 10
79.68746870670336
 20
-159.3626092653482
 30
0.0
 10
79.55482369722306
 20
-159.0418893226811
 30
0.0
 10
79.43355211253244
 20
-158.7143219876632
 30
0.0
 10
79.40323421635899
 20
-158.6324301539077
 30
0.0
 10
79.37360052969951
 20
-158.5500235917003
 30
0.0
 10
79.3448004056055
 20
-158.4675241526403
 30
0.0
 10
79.31600028150954
 20
-158.3850247135797
 30
0.0
 10
79.28801295463343
 20
-158.3023813696297
 30
0.0
 10
79.26082915837617
 20
-158.219597189478
 30
0.0
 10
79.20646156586456
 20
-158.0540288291747
 30
0.0
 10
79.15530652602014
 20
-157.8878975144549
 30
0.0
 10
79.10731029723435
 20
-157.7212226988499
 30
0.0
 10
79.01131783966213
 20
-157.3878730676385
 30
0.0
 10
78.92806071392101
 20
-157.0523641752563
 30
0.0
 10
78.85678830252712
 20
-156.7144252138155
 30
0.0
 10
78.78551589113387
 20
-156.3764862523741
 30
0.0
 10
78.72620571163583
 20
-156.0362660321934
 30
0.0
 10
78.67855043066954
 20
-155.6939670522255
 30
0.0
 10
78.63089514970166
 20
-155.351668072257
 30
0.0
 10
78.59489703135716
 20
-155.007289074598
 30
0.0
 10
78.5707002550436
 20
-154.660938570114
 30
0.0
 10
78.54650347872972
 20
-154.3145880656312
 30
0.0
 10
78.53410526288771
 20
-153.9662632676542
 30
0.0
 10
78.53410527301533
 20
-153.615997197925
 30
0.0
  0
SPLINE
  5
D4
330
70
100
AcDbEntity
  8
Capa 1
 62
    18
420
        0
370
     9
100
AcDbSpline
210
0.0
220
0.0
230
1.0
 70
     8
 71
     3
 72
   110
 73
   106
 74
     0
 42
0.0000000001
 43
0.0000000001
 40
0.0
 40
0.0
 40
0.0
 40
0.0
 40
1.0
 40
1.0
 40
1.0
 40
2.0
 40
2.0
 40
2.0
 40
3.0
 40
3.0
 40
3.0
 40
4.0
 40
4.0
 40
4.0
 40
5.0
 40
5.0
 40
5.0
 40
6.0
 40
6.0
 40
6.0
 40
7.0
 40
7.0
 40
7.0
 40
8.0
 40
8.0
 40
8.0
 40
9.0
 40
9.0
 40
9.0
 40
10.0
 40
10.0
 40
10.0
 40
11.0
 40
11.0
 40
11.0
 40
12.0
 40
12.0
 40
12.0
 40
13.0
 40
13.0
 40
13.0
 40
14.0
 40
14.0
 40
14.0
 40
15.0
 40
15.0
 40
15.0
 40
16.0
 40
16.0
 40
16.0
 40
17.0
 40
17.0
 40
17.0
 40
18.0
 40
18.0
 40
18.0
 40
19.0
 40
19.0
 40
19.0
 40
20.0
 40
20.0
 40
20.0
 40
21.0
 40
21.0
 40
21.0
 40
22.0
 40
22.0
 40
22.0
 40
23.0
 40
23.0
 40
23.0
 40
24.0
 40
24.0
 40
24.0
 40
25.0
 40
25.0
 40
25.0
 40
26.0
 40
26.0
 40
26.0
 40
27.0
 40
27.0
 40
27.0
 40
28.0
 40
28.0
 40
28.0
 40
29.0
 40
29.0
 40
29.0
 40
30.0
 40
30.0
 40
30.0
 40
31.0
 40
31.0
 40
31.0
 40
32.0
 40
32.0
 40
32.0
 40
33.0
 40
33.0
 40
33.0
 40
34.0
 40
34.0
 40
34.0
 40
35.0
 40
35.0
 40
35.0
 40
35.0
 10
130.9666789294112
 20
-153.615997197925
 30
0.0
 10
130.9666789395373
 20
-153.9662632676542
 30
0.0
 10
130.9542807236965
 20
-154.3145880655388
 30
0.0
 10
130.9300839473833
 20
-154.6609385700665
 30
0.0
 10
130.9058871710694
 20
-155.007289074598
 30
0.0
 10
130.869889052723
 20
-155.3516680721646
 30
0.0
 10
130.8222337717567
 20
-155.6939670521793
 30
0.0
 10
130.7745784907904
 20
-156.0362660321934
 30
0.0
 10
130.715268311295
 20
-156.3764862523741
 30
0.0
 10
130.6439958998991
 20
-156.7144252137526
 30
0.0
 10
130.5727234885033
 20
-157.0523641751343
 30
0.0
 10
130.4894663627628
 20
-157.3878730676385
 30
0.0
 10
130.3934739051925
 20
-157.7212226988499
 30
0.0
 10
130.3454776764039
 20
-157.8878975144549
 30
0.0
 10
130.2943226365598
 20
-158.0540288291747
 30
0.0
 10
130.2399550440504
 20
-158.219597189478
 30
0.0
 10
130.2127712477925
 20
-158.3023813696297
 30
0.0
 10
130.1847839209148
 20
-158.3850247135797
 30
0.0
 10
130.1559837968217
 20
-158.4675241526403
 30
0.0
 10
130.1271836727267
 20
-158.5500235917003
 30
0.0
 10
130.0975499860676
 20
-158.6324301539166
 30
0.0
 10
130.0672320898945
 20
-158.714321987651
 30
0.0
 10
129.9459605052019
 20
-159.0418893225886
 30
0.0
 10
129.8133154957207
 20
-159.3626092653482
 30
0.0
 10
129.6693765377594
 20
-159.6763797868972
 30
0.0
 10
129.3814986218351
 20
-160.3039208299958
 30
0.0
 10
129.0486406242687
 20
-160.9032689440406
 30
0.0
 10
128.6667793258559
 20
-161.4729936095599
 30
0.0
 10
128.4758486766495
 20
-161.7578559423199
 30
0.0
 10
128.2727214241911
 20
-162.0352923199783
 30
0.0
 10
128.0565911214036
 20
-162.3047423522358
 30
0.0
 10
127.9485259700098
 20
-162.4394673683678
 30
0.0
 10
127.8372032453421
 20
-162.5721907943181
 30
0.0
 10
127.7224689890912
 20
-162.7028030241272
 30
0.0
 10
127.6651018609622
 20
-162.7681091390346
 30
0.0
 10
127.6067990800171
 20
-162.8329741923847
 30
0.0
 10
127.5479030944314
 20
-162.8969890986862
 30
0.0
 10
127.4890071088458
 20
-162.9610040049851
 30
0.0
 10
127.4294921053653
 20
-163.024202816419
 30
0.0
 10
127.3693560155538
 20
-163.0865781395504
 30
0.0
 10
127.1288116563151
 20
-163.336079432076
 30
0.0
 10
126.8781906177598
 20
-163.5725422559776
 30
0.0
 10
126.6173120491675
 20
-163.7957200129161
 30
0.0
 10
126.3564334805751
 20
-164.0188977698579
 30
0.0
 10
126.0852856236231
 20
-164.2287604502902
 30
0.0
 10
125.8032809486527
 20
-164.4245892462875
 30
0.0
 10
125.6622786111675
 20
-164.5225036442878
 30
0.0
 10
125.5185575998039
 20
-164.6169026110259
 30
0.0
 10
125.372010649892
 20
-164.707641010031
 30
0.0
 10
125.2987371749357
 20
-164.7530102095341
 30
0.0
 10
125.2247568058519
 20
-164.7974635811594
 30
0.0
 10
125.1500533269103
 20
-164.8409781876036
 30
0.0
 10
125.0753498479681
 20
-164.8844927940478
 30
0.0
 10
124.9997786957878
 20
-164.9271451403947
 30
0.0
 10
124.9237693682238
 20
-164.9686816050685
 30
0.0
 10
124.619732057968
 20
-165.134827463761
 30
0.0
 10
124.3100067078612
 20
-165.2824368086396
 30
0.0
 10
123.9944022437457
 20
-165.4114878887174
 30
0.0
 10
123.6787977796264
 20
-165.540538968799
 30
0.0
 10
123.3573738067961
 20
-165.6510219456695
 30
0.0
 10
123.0296793830416
 20
-165.7426365214753
 30
0.0
 10
122.7019849592916
 20
-165.834251097278
 30
0.0
 10
122.3685296667878
 20
-165.9069383443915
 30
0.0
 10
122.0285674857329
 20
-165.9593669215627
 30
0.0
 10
121.858586395208
 20
-165.9855812101509
 30
0.0
 10
121.6865561622789
 20
-166.006743827113
 30
0.0
 10
121.5147438717867
 20
-166.0225346366038
 30
0.0
 10
121.4288377265393
 20
-166.0304300413493
 30
0.0
 10
121.3428959179938
 20
-166.0370030031146
 30
0.0
 10
121.2569115744108
 20
-166.0422692787517
 30
0.0
 10
121.2354154885144
 20
-166.0435858476618
 30
0.0
 10
121.2138926030953
 20
-166.0448260702034
 30
0.0
 10
121.1925816848155
 20
-166.0459664327213
 30
0.0
 10
121.1712707665339
 20
-166.0471067952398
 30
0.0
 10
121.1499154020065
 20
-166.0481529597916
 30
0.0
 10
121.1285116657294
 20
-166.0491112010358
 30
0.0
 10
121.0857041931682
 20
-166.0510276835254
 30
0.0
 10
121.0427031310529
 20
-166.0525918590685
 30
0.0
 10
120.9994778542457
 20
-166.0538610499871
 30
0.0
 10
120.8265767470233
 20
-166.0589378136711
 30
0.0
 10
120.6499826814759
 20
-166.0591001463786
 30
0.0
 10
120.4683484242045
 20
-166.0595981498484
 30
0.0
 10
120.445644142044
 20
-166.0596604002836
 30
0.0
 10
120.4228632325908
 20
-166.0597308697605
 30
0.0
 10
120.400005183164
 20
-166.0598220910265
 30
0.0
 10
120.3771471337313
 20
-166.0599133122924
 30
0.0
 10
120.3545559815881
 20
-166.0600303111581
 30
0.0
 10
120.3319665391358
 20
-166.0601400523037
 30
0.0
 10
120.2867876542365
 20
-166.0603595345987
 30
0.0
 10
120.2416087605336
 20
-166.0605802211229
 30
0.0
 10
120.196429860684
 20
-166.0608021125737
 30
0.0
 10
120.1060720609808
 20
-166.0612458954733
 30
0.0
 10
120.0157142366762
 20
-166.0616944980762
 30
0.0
 10
119.9253563918551
 20
-166.0621480440089
 30
0.0
 10
119.2024936333002
 20
-166.0657764114664
 30
0.0
 10
118.4796295617938
 20
-166.0697211519492
 30
0.0
 10
117.7567742131989
 20
-166.0739916701143
 30
0.0
 10
116.3110635160155
 20
-166.0825327064381
 30
0.0
 10
114.8653806983972
 20
-166.092485163324
 30
0.0
 10
113.4198751557304
 20
-166.1030382667625
 30
0.0
 10
111.9743696130603
 20
-166.1135913701997
 30
0.0
 10
110.5290610948578
 20
-166.1248127103595
 30
0.0
 10
109.0841399112765
 20
-166.1336604474984
 30
0.0
 10
107.6392187276983
 20
-166.1425081846379
 30
0.0
 10
106.1947231282188
 20
-166.1486379124296
 30
0.0
 10
104.7503921012113
 20
-166.1486379220987
 30
0.0
  0
SPLINE
  5
D5
330
70
100
AcDbEntity
  8
Capa 1
 62
    18
420
        0
370
     9
100
AcDbSpline
210
0.0
220
0.0
230
1.0
 70
     8
 71
     3
 72
   110
 73
   106
 74
     0
 42
0.0000000001
 43
0.0000000001
 40
0.0
 40
0.0
 40
0.0
 40
0.0
 40
1.0
 40
1.0
 40
1.0
 40
2.0
 40
2.0
 40
2.0
 40
3.0
 40
3.0
 40
3.0
 40
4.0
 40
4.0
 40
4.0
 40
5.0
 40
5.0
 40
5.0
 40
6.0
 40
6.0
 40
6.0
 40
7.0
 40
7.0
 40
7.0
 40
8.0
 40
8.0
 40
8.0
 40
9.0
 40
9.0
 40
9.0
 40
10.0
 40
10.0
 40
10.0
 40
11.0
 40
11.0
 40
11.0
 40
12.0
 40
12.0
 40
12.0
 40
13.0
 40
13.0
 40
13.0
 40
14.0
 40
14.0
 40
14.0
 40
15.0
 40
15.0
 40
15.0
 40
16.0
 40
16.0
 40
16.0
 40
17.0
 40
17.0
 40
17.0
 40
18.0
 40
18.0
 40
18.0
 40
19.0
 40
19.0
 40
19.0
 40
20.0
 40
20.0
 40
20.0
 40
21.0
 40
21.0
 40
21.0
 40
22.0
 40
22.0
 40
22.0
 40
23.0
 40
23.0
 40
23.0
 40
24.0
 40
24.0
 40
24.0
 40
25.0
 40
25.0
 40
25.0
 40
26.0
 40
26.0
 40
26.0
 40
27.0
 40
27.0
 40
27.0
 40
28.0
 40
28.0
 40
28.0
 40
29.0
 40
29.0
 40
29.0
 40
30.0
 40
30.0
 40
30.0
 40
31.0
 40
31.0
 40
31.0
 40
32.0
 40
32.0
 40
32.0
 40
33.0
 40
33.0
 40
33.0
 40
34.0
 40
34.0
 40
34.0
 40
35.0
 40
35.0
 40
35.0
 40
35.0
 10
78.53410527301533
 20
-153.615997197925
 30
0.0
 10
78.53410526288771
 20
-153.2657311281925
 30
0.0
 10
78.54650347872972
 20
-152.9174063303085
 30
0.0
 10
78.5707002550436
 20
-152.5710558257783
 30
0.0
 10
78.59489703135716
 20
-152.2247053212506
 30
0.0
 10
78.63089514970166
 20
-151.8803263236827
 30
0.0
 10
78.67855043066954
 20
-151.538027343668
 30
0.0
 10
78.72620571163583
 20
-151.1957283636526
 30
0.0
 10
78.78551589113387
 20
-150.8555081434732
 30
0.0
 10
78.85678830252712
 20
-150.5175691820338
 30
0.0
 10
78.92806071392101
 20
-150.179630220593
 30
0.0
 10
79.01131783966213
 20
-149.8441213282088
 30
0.0
 10
79.10731029723435
 20
-149.5107716969975
 30
0.0
 10
79.15530652602014
 20
-149.3440968813924
 30
0.0
 10
79.20646156586456
 20
-149.1779655666726
 30
0.0
 10
79.26082915837617
 20
-149.0123972063712
 30
0.0
 10
79.28801295463343
 20
-148.9296130262176
 30
0.0
 10
79.31600028150954
 20
-148.8469696822651
 30
0.0
 10
79.3448004056055
 20
-148.764470243207
 30
0.0
 10
79.37360052969951
 20
-148.6819708041467
 30
0.0
 10
79.40323421635899
 20
-148.5995642419297
 30
0.0
 10
79.43355211253244
 20
-148.5176724081957
 30
0.0
 10
79.55482369722306
 20
-148.1901050732561
 30
0.0
 10
79.68746870670336
 20
-147.8693851305873
 30
0.0
 10
79.83140766466681
 20
-147.5556146089793
 30
0.0
 10
80.1192855805918
 20
-146.9280735657591
 30
0.0
 10
80.45214357815982
 20
-146.328725451807
 30
0.0
 10
80.83400487657133
 20
-145.7590007862868
 30
0.0
 10
81.02493552577675
 20
-145.4741384535278
 30
0.0
 10
81.22806277823512
 20
-145.1967020758706
 30
0.0
 10
81.44419308102104
 20
-144.9272520436112
 30
0.0
 10
81.55225823241478
 20
-144.7925270274811
 30
0.0
 10
81.66358095708412
 20
-144.6598036015286
 30
0.0
 10
81.77831521333503
 20
-144.5291913717933
 30
0.0
 10
81.83568234146241
 20
-144.4638852569234
 30
0.0
 10
81.89398512240982
 20
-144.3990202034623
 30
0.0
 10
81.95288110799481
 20
-144.3350052971611
 30
0.0
 10
82.01177709358045
 20
-144.2709903908619
 30
0.0
 10
82.07129209706291
 20
-144.2077915794293
 30
0.0
 10
82.13142818687115
 20
-144.1454162562982
 30
0.0
 10
82.37197254611272
 20
-143.8959149637707
 30
0.0
 10
82.62259358466577
 20
-143.6594521398714
 30
0.0
 10
82.88347215325751
 20
-143.4362743829283
 30
0.0
 10
83.14435072184956
 20
-143.2130966259891
 30
0.0
 10
83.41549857880377
 20
-143.0032339455569
 30
0.0
 10
83.69750325377451
 20
-142.8074051495572
 30
0.0
 10
83.83850559125907
 20
-142.7094907515591
 30
0.0
 10
83.98222660262238
 20
-142.6150917848211
 30
0.0
 10
84.1287735525327
 20
-142.5243533858164
 30
0.0
 10
84.20204702748865
 20
-142.4789841863129
 30
0.0
 10
84.27602739657437
 20
-142.4345308146899
 30
0.0
 10
84.3507308754553
 20
-142.3910162082434
 30
0.0
 10
84.42543435433622
 20
-142.3475016017992
 30
0.0
 10
84.50100550663652
 20
-142.30484925545
 30
0.0
 10
84.5770148342024
 20
-142.2633127907769
 30
0.0
 10
84.88105214445893
 20
-142.0971669320883
 30
0.0
 10
85.19077749456277
 20
-141.9495575872998
 30
0.0
 10
85.50638195868051
 20
-141.8205065071569
 30
0.0
 10
85.82198642279795
 20
-141.6914554270159
 30
0.0
 10
86.14341039563276
 20
-141.5809724501776
 30
0.0
 10
86.47110481938243
 20
-141.489357874373
 30
0.0
 10
86.79879924313501
 20
-141.3977432985691
 30
0.0
 10
87.13225453563937
 20
-141.3250560514574
 30
0.0
 10
87.47221671669114
 20
-141.272627474282
 30
0.0
 10
87.64219780721797
 20
-141.2464131856983
 30
0.0
 10
87.81422804014571
 20
-141.2252505687334
 30
0.0
 10
87.9860403306392
 20
-141.2094597592435
 30
0.0
 10
88.07194647588787
 20
-141.2015643544981
 30
0.0
 10
88.15788828443498
 20
-141.1949913927324
 30
0.0
 10
88.24387262801542
 20
-141.189725117095
 30
0.0
 10
88.26536871391246
 20
-141.1884085481852
 30
0.0
 10
88.28689159932904
 20
-141.1871683256436
 30
0.0
 10
88.3082025176091
 20
-141.1860279631254
 30
0.0
 10
88.32951343589142
 20
-141.1848876006073
 30
0.0
 10
88.35086880041812
 20
-141.1838414360554
 30
0.0
 10
88.37227253669682
 20
-141.1828831948128
 30
0.0
 10
88.4150800092568
 20
-141.1809667123216
 30
0.0
 10
88.45808107137555
 20
-141.1794025367801
 30
0.0
 10
88.50130634818084
 20
-141.1781333458281
 30
0.0
 10
88.67420745540393
 20
-141.1730565820245
 30
0.0
 10
88.85080152094879
 20
-141.1728942494681
 30
0.0
 10
89.03243577822211
 20
-141.1723962459983
 30
0.0
 10
89.05514006038222
 20
-141.172333995565
 30
0.0
 10
89.07792096983383
 20
-141.1722635260865
 30
0.0
 10
89.10077901926488
 20
-141.1721723048199
 30
0.0
 10
89.12363706869369
 20
-141.1720810835552
 30
0.0
 10
89.14622822084105
 20
-141.1719640846886
 30
0.0
 10
89.16881766329138
 20
-141.171854343541
 30
0.0
 10
89.21399654819202
 20
-141.1716348612499
 30
0.0
 10
89.259175441891
 20
-141.1714141747241
 30
0.0
 10
89.3043543417442
 20
-141.1711922832753
 30
0.0
 10
89.39471214145124
 20
-141.1707485003753
 30
0.0
 10
89.48506996576711
 20
-141.1702998977705
 30
0.0
 10
89.57542781059329
 20
-141.1698463518378
 30
0.0
 10
90.29829056921554
 20
-141.1662179843803
 30
0.0
 10
91.021154640635
 20
-141.1622732438994
 30
0.0
 10
91.74400998927195
 20
-141.1580027257346
 30
0.0
 10
93.18972068654806
 20
-141.1494616894089
 30
0.0
 10
94.63540350403091
 20
-141.1395092325233
 30
0.0
 10
96.08090904669875
 20
-141.1289561290861
 30
0.0
 10
97.52641458936594
 20
-141.1184030256473
 30
0.0
 10
98.97172310756619
 20
-141.1071816853508
 30
0.0
 10
100.4166442911482
 20
-141.0983339483021
 30
0.0
 10
101.8615654747266
 20
-141.0894862112534
 30
0.0
 10
103.3060610742077
 20
-141.0833564832345
 30
0.0
 10
104.7503921012139
 20
-141.0833564737466
 30
0.0
  0
SPLINE
  5
D6
330
70
100
AcDbEntity
  8
Capa 1
 62
    18
420
        0
370
     9
100
AcDbSpline
210
0.0
220
0.0
230
1.0
 70
     8
 71
     3
 72
   110
 73
   106
 74
     0
 42
0.0000000001
 43
0.0000000001
 40
0.0
 40
0.0
 40
0.0
 40
0.0
 40
1.0
 40
1.0
 40
1.0
 40
2.0
 40
2.0
 40
2.0
 40
3.0
 40
3.0
 40
3.0
 40
4.0
 40
4.0
 40
4.0
 40
5.0
 40
5.0
 40
5.0
 40
6.0
 40
6.0
 40
6.0
 40
7.0
 40
7.0
 40
7.0
 40
8.0
 40
8.0
 40
8.0
 40
9.0
 40
9.0
 40
9.0
 40
10.0
 40
10.0
 40
10.0
 40
11.0
 40
11.0
 40
11.0
 40
12.0
 40
12.0
 40
12.0
 40
13.0
 40
13.0
 40
13.0
 40
14.0
 40
14.0
 40
14.0
 40
15.0
 40
15.0
 40
15.0
 40
16.0
 40
16.0
 40
16.0
 40
17.0
 40
17.0
 40
17.0
 40
18.0
 40
18.0
 40
18.0
 40
19.0
 40
19.0
 40
19.0
 40
20.0
 40
20.0
 40
20.0
 40
21.0
 40
21.0
 40
21.0
 40
22.0
 40
22.0
 40
22.0
 40
23.0
 40
23.0
 40
23.0
 40
24.0
 40
24.0
 40
24.0
 40
25.0
 40
25.0
 40
25.0
 40
26.0
 40
26.0
 40
26.0
 40
27.0
 40
27.0
 40
27.0
 40
28.0
 40
28.0
 40
28.0
 40
29.0
 40
29.0
 40
29.0
 40
30.0
 40
30.0
 40
30.0
 40
31.0
 40
31.0
 40
31.0
 40
32.0
 40
32.0
 40
32.0
 40
33.0
 40
33.0
 40
33.0
 40
34.0
 40
34.0
 40
34.0
 40
35.0
 40
35.0
 40
35.0
 40
35.0
 10
104.7503921012113
 20
-141.0833564737466
 30
0.0
 10
106.1947231282188
 20
-141.0833564834177
 30
0.0
 10
107.6392187276983
 20
-141.0894862112534
 30
0.0
 10
109.0841399112765
 20
-141.0983339483021
 30
0.0
 10
110.5290610948578
 20
-141.1071816853508
 30
0.0
 10
111.9743696130603
 20
-141.1184030256473
 30
0.0
 10
113.4198751557304
 20
-141.1289561290861
 30
0.0
 10
114.8653806983972
 20
-141.1395092325233
 30
0.0
 10
116.3110635158782
 20
-141.1494616894089
 30
0.0
 10
117.7567742131566
 20
-141.1580027257346
 30
0.0
 10
118.4796295617938
 20
-141.1622732438994
 30
0.0
 10
119.2024936333002
 20
-141.1662179843803
 30
0.0
 10
119.9253563918551
 20
-141.1698463518378
 30
0.0
 10
120.0157142366762
 20
-141.1702998977705
 30
0.0
 10
120.1060720609808
 20
-141.1707485003753
 30
0.0
 10
120.196429860684
 20
-141.1711922832753
 30
0.0
 10
120.2416087605336
 20
-141.1714141747241
 30
0.0
 10
120.2867876542365
 20
-141.1716348612499
 30
0.0
 10
120.3319665391358
 20
-141.171854343541
 30
0.0
 10
120.3545559815881
 20
-141.1719640846886
 30
0.0
 10
120.3771471337313
 20
-141.1720810835552
 30
0.0
 10
120.400005183164
 20
-141.1721723048199
 30
0.0
 10
120.4228632325908
 20
-141.1722635260865
 30
0.0
 10
120.445644142044
 20
-141.172333995565
 30
0.0
 10
120.4683484242045
 20
-141.1723962459983
 30
0.0
 10
120.6499826814759
 20
-141.1728942494681
 30
0.0
 10
120.8265767470233
 20
-141.1730565820245
 30
0.0
 10
120.9994778542457
 20
-141.1781333458281
 30
0.0
 10
121.0427031310529
 20
-141.1794025367801
 30
0.0
 10
121.0857041931682
 20
-141.1809667123216
 30
0.0
 10
121.1285116657294
 20
-141.1828831948128
 30
0.0
 10
121.1499154020065
 20
-141.1838414360554
 30
0.0
 10
121.1712707665339
 20
-141.1848876006073
 30
0.0
 10
121.1925816848155
 20
-141.1860279631254
 30
0.0
 10
121.2138926030953
 20
-141.1871683256436
 30
0.0
 10
121.2354154885144
 20
-141.1884085481852
 30
0.0
 10
121.2569115744108
 20
-141.189725117095
 30
0.0
 10
121.3428959179938
 20
-141.1949913927324
 30
0.0
 10
121.4288377265393
 20
-141.2015643544981
 30
0.0
 10
121.5147438717867
 20
-141.2094597592435
 30
0.0
 10
121.6865561622789
 20
-141.2252505687334
 30
0.0
 10
121.858586395208
 20
-141.2464131856983
 30
0.0
 10
122.0285674857329
 20
-141.272627474282
 30
0.0
 10
122.3685296667878
 20
-141.3250560514574
 30
0.0
 10
122.7019849592916
 20
-141.3977432985691
 30
0.0
 10
123.0296793830416
 20
-141.489357874373
 30
0.0
 10
123.3573738067961
 20
-141.5809724501776
 30
0.0
 10
123.6787977796264
 20
-141.6914554270159
 30
0.0
 10
123.9944022437457
 20
-141.8205065071569
 30
0.0
 10
124.3100067078612
 20
-141.9495575872998
 30
0.0
 10
124.619732057968
 20
-142.0971669320883
 30
0.0
 10
124.9237693682238
 20
-142.2633127907769
 30
0.0
 10
124.9997786957878
 20
-142.30484925545
 30
0.0
 10
125.0753498479681
 20
-142.3475016017992
 30
0.0
 10
125.1500533269103
 20
-142.3910162082434
 30
0.0
 10
125.2247568058519
 20
-142.4345308146899
 30
0.0
 10
125.2987371749357
 20
-142.4789841863129
 30
0.0
 10
125.372010649892
 20
-142.5243533858164
 30
0.0
 10
125.5185575998039
 20
-142.6150917848211
 30
0.0
 10
125.6622786111675
 20
-142.7094907515591
 30
0.0
 10
125.8032809486527
 20
-142.8074051495572
 30
0.0
 10
126.0852856236231
 20
-143.0032339455569
 30
0.0
 10
126.3564334805751
 20
-143.2130966259891
 30
0.0
 10
126.6173120491675
 20
-143.4362743829283
 30
0.0
 10
126.8781906177598
 20
-143.6594521398714
 30
0.0
 10
127.1288116563151
 20
-143.8959149637707
 30
0.0
 10
127.3693560155538
 20
-144.1454162562963
 30
0.0
 10
127.4294921053653
 20
-144.2077915794293
 30
0.0
 10
127.4890071088458
 20
-144.2709903908619
 30
0.0
 10
127.5479030944314
 20
-144.3350052971611
 30
0.0
 10
127.6067990800171
 20
-144.3990202034623
 30
0.0
 10
127.6651018609622
 20
-144.4638852568127
 30
0.0
 10
127.7224689890912
 20
-144.5291913717195
 30
0.0
 10
127.8372032453421
 20
-144.6598036015286
 30
0.0
 10
127.9485259700098
 20
-144.7925270274811
 30
0.0
 10
128.0565911214036
 20
-144.9272520436112
 30
0.0
 10
128.2727214241911
 20
-145.1967020758706
 30
0.0
 10
128.4758486766495
 20
-145.4741384535278
 30
0.0
 10
128.6667793258559
 20
-145.7590007862868
 30
0.0
 10
129.0486406242687
 20
-146.328725451807
 30
0.0
 10
129.3814986218351
 20
-146.9280735658515
 30
0.0
 10
129.6693765377594
 20
-147.5556146089495
 30
0.0
 10
129.8133154957207
 20
-147.8693851304965
 30
0.0
 10
129.9459605052019
 20
-148.1901050732561
 30
0.0
 10
130.0672320898945
 20
-148.5176724081957
 30
0.0
 10
130.0975499860676
 20
-148.5995642419297
 30
0.0
 10
130.1271836727267
 20
-148.6819708041467
 30
0.0
 10
130.1559837968217
 20
-148.764470243207
 30
0.0
 10
130.1847839209148
 20
-148.8469696822651
 30
0.0
 10
130.2127712477925
 20
-148.9296130262176
 30
0.0
 10
130.2399550440504
 20
-149.0123972063712
 30
0.0
 10
130.2943226365598
 20
-149.1779655666726
 30
0.0
 10
130.3454776764039
 20
-149.3440968813924
 30
0.0
 10
130.3934739051925
 20
-149.5107716969975
 30
0.0
 10
130.4894663627628
 20
-149.8441213282088
 30
0.0
 10
130.5727234885033
 20
-150.179630220593
 30
0.0
 10
130.6439958998991
 20
-150.5175691820338
 30
0.0
 10
130.715268311295
 20
-150.8555081434732
 30
0.0
 10
130.774578490698
 20
-151.1957283635628
 30
0.0
 10
130.8222337717124
 20
-151.5380273436218
 30
0.0
 10
130.869889052723
 20
-151.8803263236827
 30
0.0
 10
130.9058871710694
 20
-152.2247053212506
 30
0.0
 10
130.9300839473833
 20
-152.5710558257783
 30
0.0
 10
130.9542807236965
 20
-152.9174063303085
 30
0.0
 10
130.9666789395373
 20
-153.2657311281925
 30
0.0
 10
130.9666789294112
 20
-153.615997197925
 30
0.0
  0
SPLINE
  5
D7
330
70
100
AcDbEntity
  8
Capa 1
 62
    18
420
        0
370
     9
100
AcDbSpline
210
0.0
220
0.0
230
1.0
 70
    24
 71
     3
 72
    11
 73
     7
 74
     0
 42
0.0000000001
 43
0.0000000001
 40
0.0
 40
0.0
 40
0.0
 40
0.0
 40
1.0
 40
1.0
 40
1.0
 40
2.0
 40
2.0
 40
2.0
 40
2.0
 10
140.958032479463
 20
-172.7176233704325
 30
0.0
 10
140.9580324794193
 20
-172.7142837270733
 30
0.0
 10
140.9580324793828
 20
-172.6359281150321
 30
0.0
 10
140.9580324793552
 20
-172.4994425946246
 30
0.0
 10
140.9580324793269
 20
-172.3629570742121
 30
0.0
 10
140.9580324793147
 20
-172.1792397342434
 30
0.0
 10
140.9580324793147
 20
-171.9878826601035
 30
0.0
  0
SPLINE
  5
D8
330
70
100
AcDbEntity
  8
Capa 1
 62
    18
420
        0
370
     9
100
AcDbSpline
210
0.0
220
0.0
230
1.0
 70
    24
 71
     3
 72
    11
 73
     7
 74
     0
 42
0.0000000001
 43
0.0000000001
 40
0.0
 40
0.0
 40
0.0
 40
0.0
 40
1.0
 40
1.0
 40
1.0
 40
2.0
 40
2.0
 40
2.0
 40
2.0
 10
140.9580324793147
 20
-171.9878826601035
 30
0.0
 10
141.1493895534579
 20
-171.9878826601035
 30
0.0
 10
141.3331068927091
 20
-171.9878826601035
 30
0.0
 10
141.4695924118389
 20
-171.9878826601035
 30
0.0
 10
141.6060779309687
 20
-171.9878826601035
 30
0.0
 10
141.6844335412652
 20
-171.9878826601035
 30
0.0
 10
141.687773182793
 20
-171.9878826601035
 30
0.0
  0
SPLINE
  5
D9
330
70
100
AcDbEntity
  8
Capa 1
 62
    18
420
        0
370
     9
100
AcDbSpline
210
0.0
220
0.0
230
1.0
 70
     8
 71
     3
 72
    98
 73
    94
 74
     0
 42
0.0000000001
 43
0.0000000001
 40
0.0
 40
0.0
 40
0.0
 40
0.0
 40
1.0
 40
1.0
 40
1.0
 40
2.0
 40
2.0
 40
2.0
 40
3.0
 40
3.0
 40
3.0
 40
4.0
 40
4.0
 40
4.0
 40
5.0
 40
5.0
 40
5.0
 40
6.0
 40
6.0
 40
6.0
 40
7.0
 40
7.0
 40
7.0
 40
8.0
 40
8.0
 40
8.0
 40
9.0
 40
9.0
 40
9.0
 40
10.0
 40
10.0
 40
10.0
 40
11.0
 40
11.0
 40
11.0
 40
12.0
 40
12.0
 40
12.0
 40
13.0
 40
13.0
 40
13.0
 40
14.0
 40
14.0
 40
14.0
 40
15.0
 40
15.0
 40
15.0
 40
16.0
 40
16.0
 40
16.0
 40
17.0
 40
17.0
 40
17.0
 40
18.0
 40
18.0
 40
18.0
 40
19.0
 40
19.0
 40
19.0
 40
20.0
 40
20.0
 40
20.0
 40
21.0
 40
21.0
 40
21.0
 40
22.0
 40
22.0
 40
22.0
 40
23.0
 40
23.0
 40
23.0
 40
24.0
 40
24.0
 40
24.0
 40
25.0
 40
25.0
 40
25.0
 40
26.0
 40
26.0
 40
26.0
 40
27.0
 40
27.0
 40
27.0
 40
28.0
 40
28.0
 40
28.0
 40
29.0
 40
29.0
 40
29.0
 40
30.0
 40
30.0
 40
30.0
 40
31.0
 40
31.0
 40
31.0
 40
31.0
 10
141.687773182793
 20
-171.9878826601035
 30
0.0
 10
141.687684790524
 20
-171.9963968841412
 30
0.0
 10
141.6875963982523
 20
-172.0049111081788
 30
0.0
 10
141.6873184052517
 20
-172.0134200909015
 30
0.0
 10
141.6870504267315
 20
-172.0216225441499
 30
0.0
 10
141.6866062618663
 20
-172.0298201269077
 30
0.0
 10
141.6860342670417
 20
-172.0380081826962
 30
0.0
 10
141.6854836483242
 20
-172.0458902414061
 30
0.0
 10
141.6848145754279
 20
-172.0537634719101
 30
0.0
 10
141.6840152324674
 20
-172.0616237216665
 30
0.0
 10
141.6832469220858
 20
-172.0691788160296
 30
0.0
 10
141.6823582601447
 20
-172.0767219179765
 30
0.0
 10
141.6813527566535
 20
-172.0842493540092
 30
0.0
 10
141.6803878667078
 20
-172.0914727474434
 30
0.0
 10
141.6793153833435
 20
-172.0986817149402
 30
0.0
 10
141.6781350163751
 20
-172.1058730229912
 30
0.0
 10
141.6770043332931
 20
-172.1127616352088
 30
0.0
 10
141.6757746575154
 20
-172.1196340433321
 30
0.0
 10
141.6744466921125
 20
-172.1264874188307
 30
0.0
 10
141.673177080102
 20
-172.1330396436429
 30
0.0
 10
141.6718176267544
 20
-172.1395744717396
 30
0.0
 10
141.6703687966983
 20
-172.1460894445899
 30
0.0
 10
141.6689865577844
 20
-172.1523049762016
 30
0.0
 10
141.667522969219
 20
-172.1585024357986
 30
0.0
 10
141.6659785459731
 20
-172.1646797007085
 30
0.0
 10
141.6645085278759
 20
-172.170559365666
 30
0.0
 10
141.662965276171
 20
-172.1764207348944
 30
0.0
 10
141.6613492670273
 20
-172.1822619903167
 30
0.0
 10
141.6598150528936
 20
-172.1878075880441
 30
0.0
 10
141.6582152602188
 20
-172.1933350565813
 30
0.0
 10
141.6565503396282
 20
-172.1988428469939
 30
0.0
 10
141.6549741829711
 20
-172.20405699389
 30
0.0
 10
141.6533396577601
 20
-172.2092535049766
 30
0.0
 10
141.6516471666936
 20
-172.2144310862129
 30
0.0
 10
141.6500499915008
 20
-172.2193170820546
 30
0.0
 10
141.6484011955224
 20
-172.2241862201494
 30
0.0
 10
141.6467011697849
 20
-172.229037381428
 30
0.0
 10
141.6451025981048
 20
-172.2335990353268
 30
0.0
 10
141.6434587287933
 20
-172.2381447940233
 30
0.0
 10
141.6417698058288
 20
-172.2426738653267
 30
0.0
 10
141.6401880713131
 20
-172.2469154965753
 30
0.0
 10
141.6385668203879
 20
-172.25114249136
 30
0.0
 10
141.636906601464
 20
-172.2553537566195
 30
0.0
 10
141.6353588897076
 20
-172.259279639329
 30
0.0
 10
141.6337773124428
 20
-172.263191852142
 30
0.0
 10
141.6321612016733
 20
-172.2670910124115
 30
0.0
 10
141.6118366643688
 20
-172.3161276439588
 30
0.0
 10
141.5860502770641
 20
-172.36309987407
 30
0.0
 10
141.5555252903331
 20
-172.4066559801356
 30
0.0
 10
141.5312062337716
 20
-172.4413568439296
 30
0.0
 10
141.5038794913432
 20
-172.4738894240003
 30
0.0
 10
141.4739585186237
 20
-172.5038086956199
 30
0.0
 10
141.4558344816447
 20
-172.5219317021907
 30
0.0
 10
141.4367585980083
 20
-172.5390958621557
 30
0.0
 10
141.4168411162952
 20
-172.5552075414664
 30
0.0
 10
141.3996345481405
 20
-172.5691263044949
 30
0.0
 10
141.3817998863431
 20
-172.5822595899593
 30
0.0
 10
141.3633854106819
 20
-172.5945627210663
 30
0.0
 10
141.3237028214974
 20
-172.6210755638095
 30
0.0
 10
141.2813276444598
 20
-172.6437332666923
 30
0.0
 10
141.2372408376772
 20
-172.6620113840336
 30
0.0
 10
141.2151708605424
 20
-172.6711614600164
 30
0.0
 10
141.1926719436479
 20
-172.6792139981851
 30
0.0
 10
141.1698251596378
 20
-172.6861485661427
 30
0.0
 10
141.1469783755353
 20
-172.6930831341304
 30
0.0
 10
141.1237837243185
 20
-172.6988997318956
 30
0.0
 10
141.1003705923417
 20
-172.7035636716298
 30
0.0
 10
141.088660500657
 20
-172.7058963438211
 30
0.0
 10
141.0768957558802
 20
-172.7079406779063
 30
0.0
 10
141.0650870786855
 20
-172.7096954781511
 30
0.0
 10
141.0532784017871
 20
-172.7114502783509
 30
0.0
 10
141.0414257924747
 20
-172.7129155447277
 30
0.0
 10
141.0295457619826
 20
-172.7140890484072
 30
0.0
 10
141.0236052995422
 20
-172.7146758444199
 30
0.0
 10
141.0176579807799
 20
-172.7151896887765
 30
0.0
 10
141.0117051549039
 20
-172.7156305243628
 30
0.0
 10
141.0057523288623
 20
-172.7160713599624
 30
0.0
 10
140.9997939957114
 20
-172.7164391867903
 30
0.0
 10
140.9938322294392
 20
-172.7167338022198
 30
0.0
 10
140.9908512903373
 20
-172.7168811127002
 30
0.0
 10
140.9878694929213
 20
-172.7170101196447
 30
0.0
 10
140.9848870103625
 20
-172.7171208989053
 30
0.0
 10
140.9819045274559
 20
-172.7172316781724
 30
0.0
 10
140.9789213594022
 20
-172.7173242297549
 30
0.0
 10
140.9759377476174
 20
-172.7173982176054
 30
0.0
 10
140.9733803616771
 20
-172.7174616358731
 30
0.0
 10
140.9708226497293
 20
-172.7175114154374
 30
0.0
 10
140.9682647540861
 20
-172.7175485128982
 30
0.0
 10
140.9665594856405
 20
-172.7175732446093
 30
0.0
 10
140.9648541355579
 20
-172.7175923397952
 30
0.0
 10
140.9631487430134
 20
-172.717603876634
 30
0.0
 10
140.9614433501366
 20
-172.7176154134722
 30
0.0
 10
140.9597379147979
 20
-172.7176193919517
 30
0.0
 10
140.958032479463
 20
-172.7176233704325
 30
0.0
  0
SPLINE
  5
DA
330
70
100
AcDbEntity
  8
Capa 1
 62
    18
420
        0
370
     9
100
AcDbSpline
210
0.0
220
0.0
230
1.0
 70
    24
 71
     3
 72
    11
 73
     7
 74
     0
 42
0.0000000001
 43
0.0000000001
 40
0.0
 40
0.0
 40
0.0
 40
0.0
 40
1.0
 40
1.0
 40
1.0
 40
2.0
 40
2.0
 40
2.0
 40
2.0
 10
68.54275172278682
 20
-171.9878826600759
 30
0.0
 10
68.54275172278682
 20
-172.1792397342152
 30
0.0
 10
68.54275172280191
 20
-172.3629570741845
 30
0.0
 10
68.54275172282918
 20
-172.4994425945964
 30
0.0
 10
68.54275172285709
 20
-172.6359281150045
 30
0.0
 10
68.54275172289367
 20
-172.7142837270458
 30
0.0
 10
68.54275172293249
 20
-172.7176233704049
 30
0.0
  0
LINE
  5
DB
330
70
100
AcDbEntity
  8
Capa 1
 62
    18
420
        0
370
     9
100
AcDbLine
 10
140.9580325132522
 20
-172.7176233705114
 30
0.0
 11
68.54275168917173
 21
-172.7176233705114
 31
0.0
  0
SPLINE
  5
DC
330
70
100
AcDbEntity
  8
Capa 1
 62
    18
420
        0
370
     9
100
AcDbSpline
210
0.0
220
0.0
230
1.0
 70
    24
 71
     3
 72
    11
 73
     7
 74
     0
 42
0.0000000001
 43
0.0000000001
 40
0.0
 40
0.0
 40
0.0
 40
0.0
 40
1.0
 40
1.0
 40
1.0
 40
2.0
 40
2.0
 40
2.0
 40
2.0
 10
68.54275172309901
 20
-171.9878826672225
 30
0.0
 10
68.3513946489594
 20
-171.9878826672225
 30
0.0
 10
68.16767730971101
 20
-171.9878826672225
 30
0.0
 10
68.03119179058538
 20
-171.9878826672225
 30
0.0
 10
67.89470627146134
 20
-171.9878826672225
 30
0.0
 10
67.81635066117096
 20
-171.9878826672225
 30
0.0
 10
67.81301101964707
 20
-171.9878826672225
 30
0.0
  0
SPLINE
  5
DD
330
70
100
AcDbEntity
  8
Capa 1
 62
    18
420
        0
370
     9
100
AcDbSpline
210
0.0
220
0.0
230
1.0
 70
     8
 71
     3
 72
    74
 73
    70
 74
     0
 42
0.0000000001
 43
0.0000000001
 40
0.0
 40
0.0
 40
0.0
 40
0.0
 40
1.0
 40
1.0
 40
1.0
 40
2.0
 40
2.0
 40
2.0
 40
3.0
 40
3.0
 40
3.0
 40
4.0
 40
4.0
 40
4.0
 40
5.0
 40
5.0
 40
5.0
 40
6.0
 40
6.0
 40
6.0
 40
7.0
 40
7.0
 40
7.0
 40
8.0
 40
8.0
 40
8.0
 40
9.0
 40
9.0
 40
9.0
 40
10.0
 40
10.0
 40
10.0
 40
11.0
 40
11.0
 40
11.0
 40
12.0
 40
12.0
 40
12.0
 40
13.0
 40
13.0
 40
13.0
 40
14.0
 40
14.0
 40
14.0
 40
15.0
 40
15.0
 40
15.0
 40
16.0
 40
16.0
 40
16.0
 40
17.0
 40
17.0
 40
17.0
 40
18.0
 40
18.0
 40
18.0
 40
19.0
 40
19.0
 40
19.0
 40
20.0
 40
20.0
 40
20.0
 40
21.0
 40
21.0
 40
21.0
 40
22.0
 40
22.0
 40
22.0
 40
23.0
 40
23.0
 40
23.0
 40
23.0
 10
68.54275172293249
 20
-172.7176233704049
 30
0.0
 10
68.54096101595882
 20
-172.7176190135508
 30
0.0
 10
68.53917030898418
 20
-172.7176146566992
 30
0.0
 10
68.53737965084189
 20
-172.7176019603186
 30
0.0
 10
68.53558899304161
 20
-172.7175892639399
 30
0.0
 10
68.53379838407367
 20
-172.7175682280411
 30
0.0
 10
68.53200787090532
 20
-172.717541003745
 30
0.0
 10
68.52962052457461
 20
-172.7175047047478
 30
0.0
 10
68.52723334855276
 20
-172.7174574042029
 30
0.0
 10
68.52484645480725
 20
-172.7173982175771
 30
0.0
 10
68.52186284458241
 20
-172.7173242344676
 30
0.0
 10
68.51887967541017
 20
-172.7172316794461
 30
0.0
 10
68.51589719208394
 20
-172.7171208988777
 30
0.0
 10
68.51291470909621
 20
-172.7170101183203
 30
0.0
 10
68.50993291195415
 20
-172.7168811122195
 30
0.0
 10
68.50695197299794
 20
-172.7167338021928
 30
0.0
 10
68.50099020702542
 20
-172.7164391876707
 30
0.0
 10
68.49503187366758
 20
-172.7160713601844
 30
0.0
 10
68.48907904755026
 20
-172.7156305243358
 30
0.0
 10
68.4831262215956
 20
-172.7151896884994
 30
0.0
 10
68.47717890288274
 20
-172.7146758443057
 30
0.0
 10
68.47123844047546
 20
-172.7140890483796
 30
0.0
 10
68.45935841004079
 20
-172.7129155448798
 30
0.0
 10
68.44750580069846
 20
-172.7114502783933
 30
0.0
 10
68.43569712377031
 20
-172.7096954781216
 30
0.0
 10
68.42388844655052
 20
-172.70794067781
 30
0.0
 10
68.41212370174392
 20
-172.7058963436992
 30
0.0
 10
68.40041361011628
 20
-172.7035636716003
 30
0.0
 10
68.37700047825755
 20
-172.6988997320599
 30
0.0
 10
68.35380582749704
 20
-172.6930831349788
 30
0.0
 10
68.33095904282278
 20
-172.686148566117
 30
0.0
 10
68.30811225824511
 20
-172.6792139972815
 30
0.0
 10
68.28561333975144
 20
-172.6711614566712
 30
0.0
 10
68.26354336478432
 20
-172.6620113840072
 30
0.0
 10
68.21945656233774
 20
-172.6437332732877
 30
0.0
 10
68.17708140467139
 20
-172.6210755999975
 30
0.0
 10
68.13739879178092
 20
-172.5945627210387
 30
0.0
 10
68.11898430511874
 20
-172.5822595731263
 30
0.0
 10
68.10114962304208
 20
-172.5691262566909
 30
0.0
 10
68.0839430861683
 20
-172.5552075414388
 30
0.0
 10
68.06402564066657
 20
-172.5390959174336
 30
0.0
 10
68.04494986232369
 20
-172.5219319182995
 30
0.0
 10
68.02682568384013
 20
-172.5038086955905
 30
0.0
 10
67.99690447751034
 20
-172.4738890671463
 30
0.0
 10
67.96957682882814
 20
-172.4413551028319
 30
0.0
 10
67.94525891211943
 20
-172.4066559801074
 30
0.0
 10
67.91473535611327
 20
-172.3631020594184
 30
0.0
 10
67.88895362316494
 20
-172.3161369386114
 30
0.0
 10
67.86862300077348
 20
-172.267091012382
 30
0.0
 10
67.86501515026666
 20
-172.2583873747707
 30
0.0
 10
67.86157896434874
 20
-172.2496182091174
 30
0.0
 10
67.85831288294184
 20
-172.2407846809272
 30
0.0
 10
67.85455839455528
 20
-172.2306301945972
 30
0.0
 10
67.85102868911343
 20
-172.220390657026
 30
0.0
 10
67.84772914785664
 20
-172.2100779993528
 30
0.0
 10
67.84400040599615
 20
-172.1984238828115
 30
0.0
 10
67.84056560181089
 20
-172.1866763861804
 30
0.0
 10
67.83742623087803
 20
-172.1748497858675
 30
0.0
 10
67.83392552386359
 20
-172.1616619646272
 30
0.0
 10
67.83079217158292
 20
-172.1483757823809
 30
0.0
 10
67.82804206775495
 20
-172.1350122947477
 30
0.0
 10
67.82500812631323
 20
-172.1202695644769
 30
0.0
 10
67.82244062576379
 20
-172.1054327479933
 30
0.0
 10
67.820297910919
 20
-172.0905301902715
 30
0.0
 10
67.81795475510506
 20
-172.0742335678708
 30
0.0
 10
67.81611957562063
 20
-172.057858329373
 30
0.0
 10
67.81499554227965
 20
-172.0414418407167
 30
0.0
 10
67.81377536601077
 20
-172.0236211861782
 30
0.0
 10
67.81339319283262
 20
-172.005751923128
 30
0.0
 10
67.81301101965638
 20
-171.9878826600759
 30
0.0
  0
SPLINE
  5
DE
330
70
100
AcDbEntity
  8
Capa 1
 62
    18
420
        0
370
     9
100
AcDbSpline
210
0.0
220
0.0
230
1.0
 70
     8
 71
     3
 72
     8
 73
     4
 74
     0
 42
0.0000000001
 43
0.0000000001
 40
0.0
 40
0.0
 40
0.0
 40
0.0
 40
1.0
 40
1.0
 40
1.0
 40
1.0
 10
107.7262050989346
 20
-155.0057391829431
 30
0.0
 10
107.9294057144948
 20
-154.5706317749111
 30
0.0
 10
108.0347254860812
 20
-154.0962148007261
 30
0.0
 10
108.0347254859836
 20
-153.6159971972499
 30
0.0
  0
SPLINE
  5
DF
330
70
100
AcDbEntity
  8
Capa 1
 62
    18
420
        0
370
     9
100
AcDbSpline
210
0.0
220
0.0
230
1.0
 70
     8
 71
     3
 72
     8
 73
     4
 74
     0
 42
0.0000000001
 43
0.0000000001
 40
0.0
 40
0.0
 40
0.0
 40
0.0
 40
1.0
 40
1.0
 40
1.0
 40
1.0
 10
104.7503921012113
 20
-156.9003305826946
 30
0.0
 10
105.3395925513676
 20
-156.9003305826946
 30
0.0
 10
105.9180043642646
 20
-156.7418066220485
 30
0.0
 10
106.4248755103241
 20
-156.4414088661441
 30
0.0
  0
SPLINE
  5
E0
330
70
100
AcDbEntity
  8
Capa 1
 62
    18
420
        0
370
     9
100
AcDbSpline
210
0.0
220
0.0
230
1.0
 70
     8
 71
     3
 72
     8
 73
     4
 74
     0
 42
0.0000000001
 43
0.0000000001
 40
0.0
 40
0.0
 40
0.0
 40
0.0
 40
1.0
 40
1.0
 40
1.0
 40
1.0
 10
106.4248755103241
 20
-156.4414088661441
 30
0.0
 10
106.9931462409848
 20
-156.10462257724
 30
0.0
 10
107.4466884174739
 20
-155.6042599031389
 30
0.0
 10
107.7262050989346
 20
-155.0057391829431
 30
0.0
  0
SPLINE
  5
E1
330
70
100
AcDbEntity
  8
Capa 1
 62
    18
420
        0
370
     9
100
AcDbSpline
210
0.0
220
0.0
230
1.0
 70
     8
 71
     3
 72
     8
 73
     4
 74
     0
 42
0.0000000001
 43
0.0000000001
 40
0.0
 40
0.0
 40
0.0
 40
0.0
 40
1.0
 40
1.0
 40
1.0
 40
1.0
 10
108.0347254859836
 20
-153.6159971972499
 30
0.0
 10
108.0347254858611
 20
-153.0267956985041
 30
0.0
 10
107.8762009609876
 20
-152.4483828949143
 30
0.0
 10
107.5758021934017
 20
-151.9415111295203
 30
0.0
  0
SPLINE
  5
E2
330
70
100
AcDbEntity
  8
Capa 1
 62
    18
420
        0
370
     9
100
AcDbSpline
210
0.0
220
0.0
230
1.0
 70
     8
 71
     3
 72
     8
 73
     4
 74
     0
 42
0.0000000001
 43
0.0000000001
 40
0.0
 40
0.0
 40
0.0
 40
0.0
 40
1.0
 40
1.0
 40
1.0
 40
1.0
 10
107.5758021934017
 20
-151.9415111295203
 30
0.0
 10
107.2390111848088
 20
-151.3732336546617
 30
0.0
 10
106.7386399445331
 20
-150.9196879115555
 30
0.0
 10
106.1401094756032
 20
-150.640172706856
 30
0.0
  0
SPLINE
  5
E3
330
70
100
AcDbEntity
  8
Capa 1
 62
    18
420
        0
370
     9
100
AcDbSpline
210
0.0
220
0.0
230
1.0
 70
     8
 71
     3
 72
     8
 73
     4
 74
     0
 42
0.0000000001
 43
0.0000000001
 40
0.0
 40
0.0
 40
0.0
 40
0.0
 40
1.0
 40
1.0
 40
1.0
 40
1.0
 10
106.1401094756032
 20
-150.640172706856
 30
0.0
 10
105.7050086887861
 20
-150.436979566648
 30
0.0
 10
105.2306005409783
 20
-150.3316638129551
 30
0.0
 10
104.7503920998657
 20
-150.331663813154
 30
0.0
  0
SPLINE
  5
E4
330
70
100
AcDbEntity
  8
Capa 1
 62
    18
420
        0
370
     9
100
AcDbSpline
210
0.0
220
0.0
230
1.0
 70
     8
 71
     3
 72
    11
 73
     7
 74
     0
 42
0.0000000001
 43
0.0000000001
 40
0.0
 40
0.0
 40
0.0
 40
0.0
 40
1.0
 40
1.0
 40
1.0
 40
2.0
 40
2.0
 40
2.0
 40
2.0
 10
104.7503920998657
 20
-150.331663813154
 30
0.0
 10
103.8793573802252
 20
-150.3316638135095
 30
0.0
 10
103.043932250031
 20
-150.6777082329914
 30
0.0
 10
102.4280176931323
 20
-151.2936227899049
 30
0.0
 10
101.8121031362358
 20
-151.9095373468177
 30
0.0
 10
101.4660587167776
 20
-152.7449624770196
 30
0.0
 10
101.4660587164432
 20
-153.6159971966601
 30
0.0
  0
SPLINE
  5
E5
330
70
100
AcDbEntity
  8
Capa 1
 62
    18
420
        0
370
     9
100
AcDbSpline
210
0.0
220
0.0
230
1.0
 70
     8
 71
     3
 72
    11
 73
     7
 74
     0
 42
0.0000000001
 43
0.0000000001
 40
0.0
 40
0.0
 40
0.0
 40
0.0
 40
1.0
 40
1.0
 40
1.0
 40
2.0
 40
2.0
 40
2.0
 40
2.0
 10
101.4660587164432
 20
-153.6159971966601
 30
0.0
 10
101.4660587161063
 20
-154.4870319168699
 30
0.0
 10
101.8121031353746
 20
-155.3224570478335
 30
0.0
 10
102.4280176925091
 20
-155.9383716053155
 30
0.0
 10
103.0439322496427
 20
-156.5542861628001
 30
0.0
 10
103.8793573804138
 20
-156.9003305825394
 30
0.0
 10
104.7503921006236
 20
-156.9003305826946
 30
0.0
  0
LINE
  5
E6
330
70
100
AcDbEntity
  8
Capa 1
 62
    18
420
        0
370
     9
100
AcDbLine
 10
140.9694019586098
 20
-172.7289928676323
 30
0.0
 11
140.9580325132522
 21
-172.7176233705114
 31
0.0
  0
LINE
  5
E7
330
70
100
AcDbEntity
  8
Capa 1
 62
    18
420
        0
370
     9
100
AcDbLine
 10
68.54275168917173
 20
-172.7176233705114
 30
0.0
 11
68.53138224381639
 21
-172.7289928676323
 31
0.0
  0
LINE
  5
E8
330
70
100
AcDbEntity
  8
Capa 1
 62
    18
420
        0
370
     9
100
AcDbLine
 10
68.53138224381639
 20
-172.7289928676323
 30
0.0
 11
140.9694019586098
 21
-172.7289928676323
 31
0.0
  0
SPLINE
  5
E9
330
70
100
AcDbEntity
  8
Capa 1
 62
    18
420
        0
370
     9
100
AcDbSpline
210
0.0
220
0.0
230
1.0
 70
     8
 71
     3
 72
    14
 73
    10
 74
     0
 42
0.0000000001
 43
0.0000000001
 40
0.0
 40
0.0
 40
0.0
 40
0.0
 40
1.0
 40
1.0
 40
1.0
 40
2.0
 40
2.0
 40
2.0
 40
3.0
 40
3.0
 40
3.0
 40
3.0
 10
104.7503921012113
 20
-155.7144686032887
 30
0.0
 10
105.499994270872
 20
-155.7144686032887
 30
0.0
 10
106.1929205627775
 20
-155.3144074220672
 30
0.0
 10
106.5677216475186
 20
-154.6652329003585
 30
0.0
 10
106.9425227322585
 20
-154.016058378651
 30
0.0
 10
106.942522732098
 20
-153.2159360162979
 30
0.0
 10
106.5677216470861
 20
-152.5667614947419
 30
0.0
 10
106.1929205620819
 20
-151.917586973191
 30
0.0
 10
105.4999942700108
 20
-151.5175257922493
 30
0.0
 10
104.7503921003515
 20
-151.517525792556
 30
0.0
  0
SPLINE
  5
EA
330
70
100
AcDbEntity
  8
Capa 1
 62
    18
420
        0
370
     9
100
AcDbSpline
210
0.0
220
0.0
230
1.0
 70
     8
 71
     3
 72
    17
 73
    13
 74
     0
 42
0.0000000001
 43
0.0000000001
 40
0.0
 40
0.0
 40
0.0
 40
0.0
 40
1.0
 40
1.0
 40
1.0
 40
2.0
 40
2.0
 40
2.0
 40
3.0
 40
3.0
 40
3.0
 40
4.0
 40
4.0
 40
4.0
 40
4.0
 10
104.7503921003515
 20
-151.517525792556
 30
0.0
 10
104.1938586310899
 20
-151.5175257927858
 30
0.0
 10
103.6600773299333
 20
-151.7386252472768
 30
0.0
 10
103.2665487399611
 20
-152.1321538374517
 30
0.0
 10
102.8730201499927
 20
-152.5256824276312
 30
0.0
 10
102.6519206957821
 20
-153.0594637289028
 30
0.0
 10
102.6519206958453
 20
-153.6159971981649
 30
0.0
 10
102.6519206959117
 20
-154.1725306674271
 30
0.0
 10
102.8730201502442
 20
-154.7063119686499
 30
0.0
 10
103.266548740305
 20
-155.0998405587363
 30
0.0
 10
103.6600773303658
 20
-155.4933691488215
 30
0.0
 10
104.1938586315719
 20
-155.7144686031912
 30
0.0
 10
104.7503921008379
 20
-155.7144686032887
 30
0.0
  0
INSERT
  5
EC
330
70
100
AcDbEntity
  8
Capa 1
100
AcDbBlockReference
  2
Block_2
 10
0.0
 20
0.0
 30
0.0
  0
MTEXT
  5
F3
330
70
100
AcDbEntity
  8
Capa 1
100
AcDbMText
 10
147.3757632072551
 20
-154.1094576874214
 30
0.0
 40
0.2
 41
0.0
 46
0.0
 71
     7
 72
     1
  1
\C18;\c0;\FArial Bold|b1|i0|c1;\H2.497667;\W1.000000;460
 11
0.0000000000000001
 21
1.0
 31
0.0
 73
     1
 44
1.0
  0
LWPOLYLINE
  5
F4
330
70
100
AcDbEntity
  8
Capa 1
 62
   250
420
  1907995
370
     9
100
AcDbPolyline
 90
        4
 70
     1
 43
0.0
 10
68.24896026866423
 20
-115.6508241770349
 10
68.24896026866423
 20
-52.48932961261071
 10
140.4335254851428
 20
-52.48932961261071
 10
140.4335254851428
 20
-115.6508241770349
  0
LINE
  5
F5
330
70
100
AcDbEntity
  8
Capa 1
 62
   250
420
  1907995
370
     9
100
AcDbLine
 10
146.9714967707932
 20
-115.8525051977347
 30
0.0
 11
146.9714967707932
 21
-52.69101063331112
 31
0.0
  0
LINE
  5
F6
330
70
100
AcDbEntity
  8
Capa 1
 62
   250
420
  1907995
370
     9
100
AcDbLine
 10
145.6098911245866
 20
-115.8525051977347
 30
0.0
 11
148.866341607722
 21
-115.8525051977347
 31
0.0
  0
LINE
  5
F7
330
70
100
AcDbEntity
  8
Capa 1
 62
   250
420
  1907995
370
     9
100
AcDbLine
 10
145.6098911245866
 20
-52.69101063331112
 30
0.0
 11
148.866341607722
 21
-52.69101063331112
 31
0.0
  0
MTEXT
  5
F8
330
70
100
AcDbEntity
  8
Capa 1
100
AcDbMText
 10
146.1855792739767
 20
-85.45787050441949
 30
0.0
 40
0.2
 41
0.0
 46
0.0
 71
     7
 72
     1
  1
\C18;\c0;\FArial Bold|b1|i0|c1;\H2.497667;\W1.000000;700
 11
0.0000000000000001
 21
1.0
 31
0.0
 73
     1
 44
1.0
  0
LINE
  5
F9
330
70
100
AcDbEntity
  8
Capa 1
 62
    18
420
        0
370
     9
100
AcDbLine
 10
86.44831978049294
 20
-49.16576874949075
 30
0.0
 11
123.4544579448094
 21
-49.16576874949075
 31
0.0
  0
LINE
  5
FA
330
70
100
AcDbEntity
  8
Capa 1
 62
    18
420
        0
370
     9
100
AcDbLine
 10
86.44831978049294
 20
-49.16576874949075
 30
0.0
 11
86.44831978049294
 21
-48.41372005285072
 31
0.0
  0
LINE
  5
FB
330
70
100
AcDbEntity
  8
Capa 1
 62
    18
420
        0
370
     9
100
AcDbLine
 10
123.4544579448094
 20
-48.41372005285072
 30
0.0
 11
123.4544579448094
 21
-49.16576874949075
 31
0.0
  0
LINE
  5
FC
330
70
100
AcDbEntity
  8
Capa 1
 62
    18
420
        0
370
     9
100
AcDbLine
 10
86.44831978049294
 20
-48.32472012432967
 30
0.0
 11
123.4544579448094
 21
-48.32472012432967
 31
0.0
  0
LINE
  5
FD
330
70
100
AcDbEntity
  8
Capa 1
 62
    18
420
        0
370
     9
100
AcDbLine
 10
86.44831978049294
 20
-48.32472012432967
 30
0.0
 11
86.44831978049294
 21
-48.41372005285072
 31
0.0
  0
LINE
  5
FE
330
70
100
AcDbEntity
  8
Capa 1
 62
    18
420
        0
370
     9
100
AcDbLine
 10
123.4544579448094
 20
-48.41372005285072
 30
0.0
 11
123.4544579448094
 21
-48.32472012432967
 31
0.0
  0
LINE
  5
FF
330
70
100
AcDbEntity
  8
Capa 1
 62
    18
420
        0
370
     9
100
AcDbLine
 10
123.2742337749306
 20
-50.1269671662575
 30
0.0
 11
123.2742337749306
 21
-50.09547962231666
 31
0.0
  0
LINE
  5
100
330
70
100
AcDbEntity
  8
Capa 1
 62
    18
420
        0
370
     9
100
AcDbLine
 10
123.2742337749306
 20
-49.23785861885892
 30
0.0
 11
123.2742337749306
 21
-50.09547962231666
 31
0.0
  0
LINE
  5
101
330
70
100
AcDbEntity
  8
Capa 1
 62
    18
420
        0
370
     9
100
AcDbLine
 10
123.2742337749306
 20
-49.23785861885892
 30
0.0
 11
123.2742337749306
 21
-49.17721974203542
 31
0.0
  0
LINE
  5
102
330
70
100
AcDbEntity
  8
Capa 1
 62
    18
420
        0
370
     9
100
AcDbLine
 10
86.62854395037149
 20
-49.17721974203542
 30
0.0
 11
123.2742337749306
 21
-49.17721974203542
 31
0.0
  0
LINE
  5
103
330
70
100
AcDbEntity
  8
Capa 1
 62
    18
420
        0
370
     9
100
AcDbLine
 10
86.62854395037149
 20
-49.17721974203542
 30
0.0
 11
86.62854395037149
 21
-49.23785861885892
 31
0.0
  0
LINE
  5
104
330
70
100
AcDbEntity
  8
Capa 1
 62
    18
420
        0
370
     9
100
AcDbLine
 10
86.62854395037149
 20
-50.09547962231666
 30
0.0
 11
86.62854395037149
 21
-49.23785861885892
 31
0.0
  0
LINE
  5
105
330
70
100
AcDbEntity
  8
Capa 1
 62
    18
420
        0
370
     9
100
AcDbLine
 10
86.62854395037149
 20
-50.09547962231666
 30
0.0
 11
86.62854395037149
 21
-50.1269671662575
 31
0.0
  0
LINE
  5
106
330
70
100
AcDbEntity
  8
Capa 1
 62
    18
420
        0
370
     9
100
AcDbLine
 10
123.2742337749306
 20
-50.1269671662575
 30
0.0
 11
86.62854395037149
 21
-50.1269671662575
 31
0.0
  0
SPLINE
  5
107
330
70
100
AcDbEntity
  8
Capa 1
 62
    18
420
        0
370
     9
100
AcDbSpline
210
0.0
220
0.0
230
1.0
 70
     8
 71
     3
 72
    11
 73
     7
 74
     0
 42
0.0000000001
 43
0.0000000001
 40
0.0
 40
0.0
 40
0.0
 40
0.0
 40
1.0
 40
1.0
 40
1.0
 40
2.0
 40
2.0
 40
2.0
 40
2.0
 10
104.4707896631077
 20
-51.26839025375884
 30
0.0
 10
104.4707896631077
 20
-51.53381786244764
 30
0.0
 10
104.6859612539625
 20
-51.74898945330217
 30
0.0
 10
104.951388862651
 20
-51.74898945330217
 30
0.0
 10
105.2168164713401
 20
-51.74898945330217
 30
0.0
 10
105.4319880621944
 20
-51.53381786244764
 30
0.0
 10
105.4319880621944
 20
-51.26839025375884
 30
0.0
  0
LINE
  5
108
330
70
100
AcDbEntity
  8
Capa 1
 62
    18
420
        0
370
     9
100
AcDbLine
 10
105.4319880850215
 20
-51.268390256445
 30
0.0
 11
105.4319880850215
 21
-50.1269671662575
 31
0.0
  0
LINE
  5
109
330
70
100
AcDbEntity
  8
Capa 1
 62
    18
420
        0
370
     9
100
AcDbLine
 10
104.4707896402802
 20
-50.1269671662575
 30
0.0
 11
104.4707896402802
 21
-51.268390256445
 31
0.0
  0
LINE
  5
10A
330
70
100
AcDbEntity
  8
Capa 1
 62
    18
420
        0
370
     9
100
AcDbLine
 10
107.1741601891858
 20
-52.22958870118596
 30
0.0
 11
107.2342349870763
 21
-52.22958870118596
 31
0.0
  0
LINE
  5
10B
330
70
100
AcDbEntity
  8
Capa 1
 62
    18
420
        0
370
     9
100
AcDbLine
 10
107.1140851674964
 20
-52.22958870118596
 30
0.0
 11
107.1140851674964
 21
-50.13727439113661
 31
0.0
  0
SPLINE
  5
10C
330
70
100
AcDbEntity
  8
Capa 1
 62
    18
420
        0
370
     9
100
AcDbSpline
210
0.0
220
0.0
230
1.0
 70
     8
 71
     3
 72
    20
 73
    16
 74
     0
 42
0.0000000001
 43
0.0000000001
 40
0.0
 40
0.0
 40
0.0
 40
0.0
 40
1.0
 40
1.0
 40
1.0
 40
2.0
 40
2.0
 40
2.0
 40
3.0
 40
3.0
 40
3.0
 40
4.0
 40
4.0
 40
4.0
 40
5.0
 40
5.0
 40
5.0
 40
5.0
 10
107.1140851674964
 20
-50.13727439113661
 30
0.0
 10
107.1146713821208
 20
-50.13524322836314
 30
0.0
 10
107.1152575967451
 20
-50.13321206558966
 30
0.0
 10
107.1171840768281
 20
-50.13169970569105
 30
0.0
 10
107.1191134948853
 20
-50.13018503937208
 30
0.0
 10
107.1223872694558
 20
-50.12919075953147
 30
0.0
 10
107.1265069890063
 20
-50.12850503945731
 30
0.0
 10
107.1305122887951
 20
-50.12783836435161
 30
0.0
 10
107.1353171961003
 20
-50.12746334734821
 30
0.0
 10
107.1407476042003
 20
-50.12725315013604
 30
0.0
 10
107.1462358012735
 20
-50.12704071605983
 30
0.0
 10
107.1523628828068
 20
-50.12699662837759
 30
0.0
 10
107.1587562800861
 20
-50.12697835607958
 30
0.0
 10
107.1637812414491
 20
-50.12696399476459
 30
0.0
 10
107.1689707153168
 20
-50.12696558051072
 30
0.0
 10
107.1741601891858
 20
-50.1269671662575
 30
0.0
  0
LINE
  5
10D
330
70
100
AcDbEntity
  8
Capa 1
 62
    18
420
        0
370
     9
100
AcDbLine
 10
107.1741601891858
 20
-52.22958870118596
 30
0.0
 11
107.1140851674964
 21
-52.22958870118596
 31
0.0
  0
LINE
  5
10E
330
70
100
AcDbEntity
  8
Capa 1
 62
    18
420
        0
370
     9
100
AcDbLine
 10
103.3293665221188
 20
-52.22958870118596
 30
0.0
 11
103.2692916123286
 21
-52.22958870118596
 31
0.0
  0
LINE
  5
10F
330
70
100
AcDbEntity
  8
Capa 1
 62
    18
420
        0
370
     9
100
AcDbLine
 10
103.3293665221188
 20
-52.22958870118596
 30
0.0
 11
103.3774264723302
 21
-52.22958870118596
 31
0.0
  0
LINE
  5
110
330
70
100
AcDbEntity
  8
Capa 1
 62
    18
420
        0
370
     9
100
AcDbLine
 10
103.3774264723302
 20
-52.22958870118596
 30
0.0
 11
103.4375013821202
 21
-52.22958870118596
 31
0.0
  0
LINE
  5
111
330
70
100
AcDbEntity
  8
Capa 1
 62
    18
420
        0
370
     9
100
AcDbLine
 10
104.302579926438
 20
-52.22958870118596
 30
0.0
 11
103.4375013821202
 21
-52.22958870118596
 31
0.0
  0
LINE
  5
112
330
70
100
AcDbEntity
  8
Capa 1
 62
    18
420
        0
370
     9
100
AcDbLine
 10
104.302579926438
 20
-52.22958870118596
 30
0.0
 11
104.3626548362279
 21
-52.22958870118596
 31
0.0
  0
LINE
  5
113
330
70
100
AcDbEntity
  8
Capa 1
 62
    18
420
        0
370
     9
100
AcDbLine
 10
104.4107147864397
 20
-52.22958870118596
 30
0.0
 11
104.3626548362279
 21
-52.22958870118596
 31
0.0
  0
LINE
  5
114
330
70
100
AcDbEntity
  8
Capa 1
 62
    18
420
        0
370
     9
100
AcDbLine
 10
104.4107147864397
 20
-52.22958870118596
 30
0.0
 11
104.4707896402802
 21
-52.22958870118596
 31
0.0
  0
LINE
  5
115
330
70
100
AcDbEntity
  8
Capa 1
 62
    18
420
        0
370
     9
100
AcDbLine
 10
105.4319880850215
 20
-52.22958870118596
 30
0.0
 11
104.4707896402802
 21
-52.22958870118596
 31
0.0
  0
LINE
  5
116
330
70
100
AcDbEntity
  8
Capa 1
 62
    18
420
        0
370
     9
100
AcDbLine
 10
105.4319880850215
 20
-52.22958870118596
 30
0.0
 11
105.4920629388624
 21
-52.22958870118596
 31
0.0
  0
LINE
  5
117
330
70
100
AcDbEntity
  8
Capa 1
 62
    18
420
        0
370
     9
100
AcDbLine
 10
105.5401228890741
 20
-52.22958870118596
 30
0.0
 11
105.4920629388624
 21
-52.22958870118596
 31
0.0
  0
LINE
  5
118
330
70
100
AcDbEntity
  8
Capa 1
 62
    18
420
        0
370
     9
100
AcDbLine
 10
105.5401228890741
 20
-52.22958870118596
 30
0.0
 11
105.600197798864
 21
-52.22958870118596
 31
0.0
  0
LINE
  5
119
330
70
100
AcDbEntity
  8
Capa 1
 62
    18
420
        0
370
     9
100
AcDbLine
 10
106.4652763431822
 20
-52.22958870118596
 30
0.0
 11
105.600197798864
 21
-52.22958870118596
 31
0.0
  0
LINE
  5
11A
330
70
100
AcDbEntity
  8
Capa 1
 62
    18
420
        0
370
     9
100
AcDbLine
 10
106.4652763431822
 20
-52.22958870118596
 30
0.0
 11
106.5253512529722
 21
-52.22958870118596
 31
0.0
  0
LINE
  5
11B
330
70
100
AcDbEntity
  8
Capa 1
 62
    18
420
        0
370
     9
100
AcDbLine
 10
106.5253512529722
 20
-52.22958870118596
 30
0.0
 11
106.5734112031832
 21
-52.22958870118596
 31
0.0
  0
LINE
  5
11C
330
70
100
AcDbEntity
  8
Capa 1
 62
    18
420
        0
370
     9
100
AcDbLine
 10
106.6334861129732
 20
-52.22958870118596
 30
0.0
 11
106.5734112031832
 21
-52.22958870118596
 31
0.0
  0
LINE
  5
11D
330
70
100
AcDbEntity
  8
Capa 1
 62
    18
420
        0
370
     9
100
AcDbLine
 10
107.1140851674964
 20
-52.22958870118596
 30
0.0
 11
106.6334861129732
 21
-52.22958870118596
 31
0.0
  0
LINE
  5
11E
330
70
100
AcDbEntity
  8
Capa 1
 62
    18
420
        0
370
     9
100
AcDbLine
 10
107.2342349870763
 20
-52.22958870118596
 30
0.0
 11
107.2943100087651
 21
-52.22958870118596
 31
0.0
  0
LINE
  5
11F
330
70
100
AcDbEntity
  8
Capa 1
 62
    18
420
        0
370
     9
100
AcDbLine
 10
102.6685427382254
 20
-52.22958870118596
 30
0.0
 11
102.6084677165373
 21
-52.22958870118596
 31
0.0
  0
LINE
  5
120
330
70
100
AcDbEntity
  8
Capa 1
 62
    18
420
        0
370
     9
100
AcDbLine
 10
102.6685427382254
 20
-52.22958870118596
 30
0.0
 11
102.7286175361172
 21
-52.22958870118596
 31
0.0
  0
LINE
  5
121
330
70
100
AcDbEntity
  8
Capa 1
 62
    18
420
        0
370
     9
100
AcDbLine
 10
102.7886925578057
 20
-52.22958870118596
 30
0.0
 11
102.7286175361172
 21
-52.22958870118596
 31
0.0
  0
LINE
  5
122
330
70
100
AcDbEntity
  8
Capa 1
 62
    18
420
        0
370
     9
100
AcDbLine
 10
103.2692916123286
 20
-52.22958870118596
 30
0.0
 11
102.7886925578057
 21
-52.22958870118596
 31
0.0
  0
LINE
  5
123
330
70
100
AcDbEntity
  8
Capa 1
 62
    18
420
        0
370
     9
100
AcDbLine
 10
107.2943100087651
 20
-50.1269671662575
 30
0.0
 11
107.2943100087651
 21
-52.22958870118596
 31
0.0
  0
LINE
  5
124
330
70
100
AcDbEntity
  8
Capa 1
 62
    18
420
        0
370
     9
100
AcDbLine
 10
106.6334861129732
 20
-50.13727439113661
 30
0.0
 11
106.6334861129732
 21
-52.22958870118596
 31
0.0
  0
SPLINE
  5
125
330
70
100
AcDbEntity
  8
Capa 1
 62
    18
420
        0
370
     9
100
AcDbSpline
210
0.0
220
0.0
230
1.0
 70
     8
 71
     3
 72
    20
 73
    16
 74
     0
 42
0.0000000001
 43
0.0000000001
 40
0.0
 40
0.0
 40
0.0
 40
0.0
 40
1.0
 40
1.0
 40
1.0
 40
2.0
 40
2.0
 40
2.0
 40
3.0
 40
3.0
 40
3.0
 40
4.0
 40
4.0
 40
4.0
 40
5.0
 40
5.0
 40
5.0
 40
5.0
 10
106.5734112031832
 20
-50.1269671662575
 30
0.0
 10
106.5801581905452
 20
-50.12696132876433
 30
0.0
 10
106.5869051779059
 20
-50.12695549127052
 30
0.0
 10
106.5932771657412
 20
-50.126998861428
 30
0.0
 10
106.5996497726222
 20
-50.12704223580016
 30
0.0
 10
106.605647307109
 20
-50.12713482738362
 30
0.0
 10
106.6109058352692
 20
-50.12744659418476
 30
0.0
 10
106.6161386523462
 20
-50.12775683663175
 30
0.0
 10
106.620639672034
 20
-50.12828411626173
 30
0.0
 10
106.6242260875954
 20
-50.12916031543923
 30
0.0
 10
106.6277449883075
 20
-50.13002002002656
 30
0.0
 10
106.630383395909
 20
-50.13121563088158
 30
0.0
 10
106.6317699299584
 20
-50.13288868023834
 30
0.0
 10
106.6328278984993
 20
-50.13416526885595
 30
0.0
 10
106.6331570057365
 20
-50.13571982999629
 30
0.0
 10
106.6334861129732
 20
-50.13727439113661
 30
0.0
  0
LINE
  5
126
330
70
100
AcDbEntity
  8
Capa 1
 62
    18
420
        0
370
     9
100
AcDbLine
 10
106.4652763431822
 20
-52.22958870118596
 30
0.0
 11
106.4652763431822
 21
-50.13727439113661
 31
0.0
  0
SPLINE
  5
127
330
70
100
AcDbEntity
  8
Capa 1
 62
    18
420
        0
370
     9
100
AcDbSpline
210
0.0
220
0.0
230
1.0
 70
     8
 71
     3
 72
    20
 73
    16
 74
     0
 42
0.0000000001
 43
0.0000000001
 40
0.0
 40
0.0
 40
0.0
 40
0.0
 40
1.0
 40
1.0
 40
1.0
 40
2.0
 40
2.0
 40
2.0
 40
3.0
 40
3.0
 40
3.0
 40
4.0
 40
4.0
 40
4.0
 40
5.0
 40
5.0
 40
5.0
 40
5.0
 10
106.4652763431822
 20
-50.13727439113661
 30
0.0
 10
106.4658625127965
 20
-50.13524322825725
 30
0.0
 10
106.4664486824115
 20
-50.13321206537789
 30
0.0
 10
106.4683751406151
 20
-50.13169970569105
 30
0.0
 10
106.4703045384183
 20
-50.13018503828183
 30
0.0
 10
106.4735783182469
 20
-50.12919075856443
 30
0.0
 10
106.4776980527939
 20
-50.12850503945731
 30
0.0
 10
106.4817033838501
 20
-50.12783836251315
 30
0.0
 10
106.4865083382913
 20
-50.12746334689967
 30
0.0
 10
106.4919387798848
 20
-50.1272531501354
 30
0.0
 10
106.4974269879426
 20
-50.12704071739777
 30
0.0
 10
106.5035540612032
 20
-50.12699662868881
 30
0.0
 10
106.5099474557719
 20
-50.12697835607958
 30
0.0
 10
106.5149723791117
 20
-50.12696399462214
 30
0.0
 10
106.5201618160419
 20
-50.12696558043949
 30
0.0
 10
106.5253512529722
 20
-50.1269671662575
 30
0.0
  0
SPLINE
  5
128
330
70
100
AcDbEntity
  8
Capa 1
 62
    18
420
        0
370
     9
100
AcDbSpline
210
0.0
220
0.0
230
1.0
 70
     8
 71
     3
 72
    20
 73
    16
 74
     0
 42
0.0000000001
 43
0.0000000001
 40
0.0
 40
0.0
 40
0.0
 40
0.0
 40
1.0
 40
1.0
 40
1.0
 40
2.0
 40
2.0
 40
2.0
 40
3.0
 40
3.0
 40
3.0
 40
4.0
 40
4.0
 40
4.0
 40
5.0
 40
5.0
 40
5.0
 40
5.0
 10
105.600197798864
 20
-50.13727439113661
 30
0.0
 10
105.5996116238357
 20
-50.13524322865703
 30
0.0
 10
105.599025448808
 20
-50.13321206617746
 30
0.0
 10
105.5970990014304
 20
-50.13169970569105
 30
0.0
 10
105.5951696169579
 20
-50.13018503943368
 30
0.0
 10
105.5918958702147
 20
-50.12919075832572
 30
0.0
 10
105.5877761452014
 20
-50.12850503945731
 30
0.0
 10
105.5837708099074
 20
-50.12783836049757
 30
0.0
 10
105.5789658235738
 20
-50.12746334637732
 30
0.0
 10
105.5735353621608
 20
-50.12725315013604
 30
0.0
 10
105.5680471455068
 20
-50.12704071836802
 30
0.0
 10
105.5619200786439
 20
-50.12699662893779
 30
0.0
 10
105.5555266862743
 20
-50.12697835607958
 30
0.0
 10
105.5505017646632
 20
-50.12696399442706
 30
0.0
 10
105.5453123268687
 20
-50.1269655803426
 30
0.0
 10
105.5401228890741
 20
-50.1269671662575
 30
0.0
  0
LINE
  5
129
330
70
100
AcDbEntity
  8
Capa 1
 62
    18
420
        0
370
     9
100
AcDbLine
 10
105.600197798864
 20
-52.22958870118596
 30
0.0
 11
105.600197798864
 21
-50.13727439113661
 31
0.0
  0
LINE
  5
12A
330
70
100
AcDbEntity
  8
Capa 1
 62
    18
420
        0
370
     9
100
AcDbLine
 10
105.4319880850215
 20
-51.70425430449432
 30
0.0
 11
105.4319880850215
 21
-52.22958870118596
 31
0.0
  0
SPLINE
  5
12B
330
70
100
AcDbEntity
  8
Capa 1
 62
    18
420
        0
370
     9
100
AcDbSpline
210
0.0
220
0.0
230
1.0
 70
     8
 71
     3
 72
    11
 73
     7
 74
     0
 42
0.0000000001
 43
0.0000000001
 40
0.0
 40
0.0
 40
0.0
 40
0.0
 40
1.0
 40
1.0
 40
1.0
 40
2.0
 40
2.0
 40
2.0
 40
2.0
 10
104.4707896631077
 20
-51.70425425005834
 30
0.0
 10
104.711510701264
 20
-51.96968185874715
 30
0.0
 10
105.1218252502617
 20
-51.98971049145846
 30
0.0
 10
105.3872528589502
 20
-51.74898945330281
 30
0.0
 10
105.4028831729551
 20
-51.73481404241559
 30
0.0
 10
105.4178126513074
 20
-51.7198845640632
 30
0.0
 10
105.4319880621947
 20
-51.70425425005834
 30
0.0
  0
LINE
  5
12C
330
70
100
AcDbEntity
  8
Capa 1
 62
    18
420
        0
370
     9
100
AcDbLine
 10
104.302579926438
 20
-50.13727439113661
 30
0.0
 11
104.302579926438
 21
-52.22958870118596
 31
0.0
  0
SPLINE
  5
12D
330
70
100
AcDbEntity
  8
Capa 1
 62
    18
420
        0
370
     9
100
AcDbSpline
210
0.0
220
0.0
230
1.0
 70
     8
 71
     3
 72
    20
 73
    16
 74
     0
 42
0.0000000001
 43
0.0000000001
 40
0.0
 40
0.0
 40
0.0
 40
0.0
 40
1.0
 40
1.0
 40
1.0
 40
2.0
 40
2.0
 40
2.0
 40
3.0
 40
3.0
 40
3.0
 40
4.0
 40
4.0
 40
4.0
 40
5.0
 40
5.0
 40
5.0
 40
5.0
 10
104.3626548362279
 20
-50.1269671662575
 30
0.0
 10
104.3559078485329
 20
-50.12696132869375
 30
0.0
 10
104.3491608608382
 20
-50.12695549112999
 30
0.0
 10
104.34278887367
 20
-50.12699886142864
 30
0.0
 10
104.336416267457
 20
-50.12704223594004
 30
0.0
 10
104.3304187346373
 20
-50.12713482787646
 30
0.0
 10
104.325160204142
 20
-50.12744659418476
 30
0.0
 10
104.3199273750456
 20
-50.12775683671645
 30
0.0
 10
104.3154263420859
 20
-50.12828411639906
 30
0.0
 10
104.311839895867
 20
-50.12916031543923
 30
0.0
 10
104.3083209677595
 20
-50.13002001923599
 30
0.0
 10
104.305682514682
 20
-50.13121562860483
 30
0.0
 10
104.3042959975549
 20
-50.13288868023834
 30
0.0
 10
104.3032380439814
 20
-50.13416526811479
 30
0.0
 10
104.3029089852097
 20
-50.13571982962602
 30
0.0
 10
104.302579926438
 20
-50.13727439113661
 30
0.0
  0
LINE
  5
12E
330
70
100
AcDbEntity
  8
Capa 1
 62
    18
420
        0
370
     9
100
AcDbLine
 10
104.4707896402802
 20
-52.22958870118596
 30
0.0
 11
104.4707896402802
 21
-51.70425430449432
 31
0.0
  0
LINE
  5
12F
330
70
100
AcDbEntity
  8
Capa 1
 62
    18
420
        0
370
     9
100
AcDbLine
 10
103.2692916123286
 20
-52.22958870118596
 30
0.0
 11
103.2692916123286
 21
-50.13727439113661
 31
0.0
  0
SPLINE
  5
130
330
70
100
AcDbEntity
  8
Capa 1
 62
    18
420
        0
370
     9
100
AcDbSpline
210
0.0
220
0.0
230
1.0
 70
     8
 71
     3
 72
    20
 73
    16
 74
     0
 42
0.0000000001
 43
0.0000000001
 40
0.0
 40
0.0
 40
0.0
 40
0.0
 40
1.0
 40
1.0
 40
1.0
 40
2.0
 40
2.0
 40
2.0
 40
3.0
 40
3.0
 40
3.0
 40
4.0
 40
4.0
 40
4.0
 40
5.0
 40
5.0
 40
5.0
 40
5.0
 10
103.2692916123286
 20
-50.13727439113661
 30
0.0
 10
103.2698777818255
 20
-50.13524322825597
 30
0.0
 10
103.2704639513227
 20
-50.13321206537597
 30
0.0
 10
103.2723904097618
 20
-50.13169970569105
 30
0.0
 10
103.2743198078008
 20
-50.13018503828504
 30
0.0
 10
103.2775935882197
 20
-50.1291907585747
 30
0.0
 10
103.2817133219403
 20
-50.12850503945731
 30
0.0
 10
103.2857186521928
 20
-50.12783836250353
 30
0.0
 10
103.2905236044913
 20
-50.12746334686501
 30
0.0
 10
103.2959540490318
 20
-50.12725315013604
 30
0.0
 10
103.3014422883782
 20
-50.12704071633704
 30
0.0
 10
103.3075694047177
 20
-50.12699662836539
 30
0.0
 10
103.3139628368164
 20
-50.12697835607958
 30
0.0
 10
103.31898772784
 20
-50.12696399505336
 30
0.0
 10
103.3241771249791
 20
-50.12696558065575
 30
0.0
 10
103.3293665221188
 20
-50.1269671662575
 30
0.0
  0
LINE
  5
131
330
70
100
AcDbEntity
  8
Capa 1
 62
    18
420
        0
370
     9
100
AcDbLine
 10
103.4375013821202
 20
-50.13727439113661
 30
0.0
 11
103.4375013821202
 21
-52.22958870118596
 31
0.0
  0
SPLINE
  5
132
330
70
100
AcDbEntity
  8
Capa 1
 62
    18
420
        0
370
     9
100
AcDbSpline
210
0.0
220
0.0
230
1.0
 70
     8
 71
     3
 72
    20
 73
    16
 74
     0
 42
0.0000000001
 43
0.0000000001
 40
0.0
 40
0.0
 40
0.0
 40
0.0
 40
1.0
 40
1.0
 40
1.0
 40
2.0
 40
2.0
 40
2.0
 40
3.0
 40
3.0
 40
3.0
 40
4.0
 40
4.0
 40
4.0
 40
5.0
 40
5.0
 40
5.0
 40
5.0
 10
103.3774264723302
 20
-50.1269671662575
 30
0.0
 10
103.3841734614835
 20
-50.12696132853204
 30
0.0
 10
103.3909204506365
 20
-50.12695549080593
 30
0.0
 10
103.3972924348882
 20
-50.12699886142864
 30
0.0
 10
103.4036650381844
 20
-50.12704223626474
 30
0.0
 10
103.4096625637108
 20
-50.12713482900969
 30
0.0
 10
103.4149211044162
 20
-50.1274465941854
 30
0.0
 10
103.4201539533689
 20
-50.12775683616396
 30
0.0
 10
103.424655020805
 20
-50.12828411417428
 30
0.0
 10
103.4282414686403
 20
-50.12916031543923
 30
0.0
 10
103.4317603879777
 20
-50.13002001888819
 30
0.0
 10
103.4343988058336
 20
-50.13121562968288
 30
0.0
 10
103.4357853110033
 20
-50.13288868023834
 30
0.0
 10
103.4368432566066
 20
-50.13416526868334
 30
0.0
 10
103.4371723193632
 20
-50.13571982990965
 30
0.0
 10
103.4375013821202
 20
-50.13727439113661
 30
0.0
  0
LINE
  5
133
330
70
100
AcDbEntity
  8
Capa 1
 62
    18
420
        0
370
     9
100
AcDbLine
 10
102.6084677165373
 20
-52.22958870118596
 30
0.0
 11
102.6084677165373
 21
-50.1269671662575
 31
0.0
  0
SPLINE
  5
134
330
70
100
AcDbEntity
  8
Capa 1
 62
    18
420
        0
370
     9
100
AcDbSpline
210
0.0
220
0.0
230
1.0
 70
     8
 71
     3
 72
    20
 73
    16
 74
     0
 42
0.0000000001
 43
0.0000000001
 40
0.0
 40
0.0
 40
0.0
 40
0.0
 40
1.0
 40
1.0
 40
1.0
 40
2.0
 40
2.0
 40
2.0
 40
3.0
 40
3.0
 40
3.0
 40
4.0
 40
4.0
 40
4.0
 40
5.0
 40
5.0
 40
5.0
 40
5.0
 10
102.7886925578057
 20
-50.13727439113661
 30
0.0
 10
102.788106343181
 20
-50.13524322836314
 30
0.0
 10
102.7875201285569
 20
-50.13321206558966
 30
0.0
 10
102.7855936484739
 20
-50.13169970569105
 30
0.0
 10
102.7836642304167
 20
-50.13018503937208
 30
0.0
 10
102.7803904558463
 20
-50.12919075953147
 30
0.0
 10
102.7762707362954
 20
-50.12850503945731
 30
0.0
 10
102.7722654365073
 20
-50.12783836435161
 30
0.0
 10
102.7674605292021
 20
-50.12746334734821
 30
0.0
 10
102.7620301211021
 20
-50.12725315013604
 30
0.0
 10
102.7565419240289
 20
-50.12704071605983
 30
0.0
 10
102.7504148424955
 20
-50.12699662837759
 30
0.0
 10
102.7440214452156
 20
-50.12697835607958
 30
0.0
 10
102.7389964838529
 20
-50.12696399476459
 30
0.0
 10
102.7338070099849
 20
-50.12696558051072
 30
0.0
 10
102.7286175361172
 20
-50.1269671662575
 30
0.0
  0
LINE
  5
135
330
70
100
AcDbEntity
  8
Capa 1
 62
    18
420
        0
370
     9
100
AcDbLine
 10
102.7886925578057
 20
-50.13727439113661
 30
0.0
 11
102.7886925578057
 21
-52.22958870118596
 31
0.0
  0
SPLINE
  5
136
330
70
100
AcDbEntity
  8
Capa 1
 62
    18
420
        0
370
     9
100
AcDbSpline
210
0.0
220
0.0
230
1.0
 70
     8
 71
     3
 72
    11
 73
     7
 74
     0
 42
0.0000000001
 43
0.0000000001
 40
0.0
 40
0.0
 40
0.0
 40
0.0
 40
1.0
 40
1.0
 40
1.0
 40
2.0
 40
2.0
 40
2.0
 40
2.0
 10
106.6334860610533
 20
-51.74898945330217
 30
0.0
 10
106.6334860610533
 20
-51.88170325764722
 30
0.0
 10
106.7410718564806
 20
-51.98928905307448
 30
0.0
 10
106.8737856608243
 20
-51.98928905307448
 30
0.0
 10
107.0064994651687
 20
-51.98928905307448
 30
0.0
 10
107.1140852605966
 20
-51.88170325764722
 30
0.0
 10
107.1140852605966
 20
-51.74898945330217
 30
0.0
  0
SPLINE
  5
137
330
70
100
AcDbEntity
  8
Capa 1
 62
    18
420
        0
370
     9
100
AcDbSpline
210
0.0
220
0.0
230
1.0
 70
     8
 71
     3
 72
    11
 73
     7
 74
     0
 42
0.0000000001
 43
0.0000000001
 40
0.0
 40
0.0
 40
0.0
 40
0.0
 40
1.0
 40
1.0
 40
1.0
 40
2.0
 40
2.0
 40
2.0
 40
2.0
 10
102.788692464706
 20
-51.74898945330217
 30
0.0
 10
102.788692464706
 20
-51.88170325764722
 30
0.0
 10
102.8962782601333
 20
-51.98928905307448
 30
0.0
 10
103.028992064478
 20
-51.98928905307448
 30
0.0
 10
103.1617058688221
 20
-51.98928905307448
 30
0.0
 10
103.2692916642494
 20
-51.88170325764722
 30
0.0
 10
103.2692916642494
 20
-51.74898945330217
 30
0.0
  0
SPLINE
  5
138
330
70
100
AcDbEntity
  8
Capa 1
 62
    18
420
        0
370
     9
100
AcDbSpline
210
0.0
220
0.0
230
1.0
 70
     8
 71
     3
 72
    11
 73
     7
 74
     0
 42
0.0000000001
 43
0.0000000001
 40
0.0
 40
0.0
 40
0.0
 40
0.0
 40
1.0
 40
1.0
 40
1.0
 40
2.0
 40
2.0
 40
2.0
 40
2.0
 10
107.1140852605966
 20
-51.26839025375884
 30
0.0
 10
107.1140852605966
 20
-51.13567644941507
 30
0.0
 10
107.0064994651687
 20
-51.02809065398782
 30
0.0
 10
106.8737856608243
 20
-51.02809065398782
 30
0.0
 10
106.7410718564806
 20
-51.02809065398782
 30
0.0
 10
106.6334860610533
 20
-51.13567644941507
 30
0.0
 10
106.6334860610533
 20
-51.26839025375884
 30
0.0
  0
SPLINE
  5
139
330
70
100
AcDbEntity
  8
Capa 1
 62
    18
420
        0
370
     9
100
AcDbSpline
210
0.0
220
0.0
230
1.0
 70
     8
 71
     3
 72
    11
 73
     7
 74
     0
 42
0.0000000001
 43
0.0000000001
 40
0.0
 40
0.0
 40
0.0
 40
0.0
 40
1.0
 40
1.0
 40
1.0
 40
2.0
 40
2.0
 40
2.0
 40
2.0
 10
103.2692916642494
 20
-51.26839025375884
 30
0.0
 10
103.2692916642494
 20
-51.13567644941507
 30
0.0
 10
103.1617058688221
 20
-51.02809065398782
 30
0.0
 10
103.028992064478
 20
-51.02809065398782
 30
0.0
 10
102.8962782601333
 20
-51.02809065398782
 30
0.0
 10
102.788692464706
 20
-51.13567644941507
 30
0.0
 10
102.788692464706
 20
-51.26839025375884
 30
0.0
  0
LINE
  5
13A
330
70
100
AcDbEntity
  8
Capa 1
 62
    18
420
        0
370
     9
100
AcDbLine
 10
86.44831978049294
 20
-49.23785861885892
 30
0.0
 11
86.44831978049294
 21
-50.09547962231666
 31
0.0
  0
LINE
  5
13B
330
70
100
AcDbEntity
  8
Capa 1
 62
    18
420
        0
370
     9
100
AcDbLine
 10
86.44831978049294
 20
-49.17721974203542
 30
0.0
 11
86.62854395037149
 21
-49.17721974203542
 31
0.0
  0
LINE
  5
13C
330
70
100
AcDbEntity
  8
Capa 1
 62
    18
420
        0
370
     9
100
AcDbLine
 10
86.44831978049294
 20
-49.23785861885892
 30
0.0
 11
86.44831978049294
 21
-49.17721974203542
 31
0.0
  0
LINE
  5
13D
330
70
100
AcDbEntity
  8
Capa 1
 62
    18
420
        0
370
     9
100
AcDbLine
 10
86.62854395037149
 20
-50.1269671662575
 30
0.0
 11
86.44831978049294
 21
-50.1269671662575
 31
0.0
  0
LINE
  5
13E
330
70
100
AcDbEntity
  8
Capa 1
 62
    18
420
        0
370
     9
100
AcDbLine
 10
86.44831978049294
 20
-50.1269671662575
 30
0.0
 11
86.44831978049294
 21
-50.09547962231666
 31
0.0
  0
LINE
  5
13F
330
70
100
AcDbEntity
  8
Capa 1
 62
    18
420
        0
370
     9
100
AcDbLine
 10
123.4544579448094
 20
-50.09547962231666
 30
0.0
 11
123.4544579448094
 21
-49.23785861885892
 31
0.0
  0
LINE
  5
140
330
70
100
AcDbEntity
  8
Capa 1
 62
    18
420
        0
370
     9
100
AcDbLine
 10
123.2742337749306
 20
-49.17721974203542
 30
0.0
 11
123.4544579448094
 21
-49.17721974203542
 31
0.0
  0
LINE
  5
141
330
70
100
AcDbEntity
  8
Capa 1
 62
    18
420
        0
370
     9
100
AcDbLine
 10
123.4544579448094
 20
-49.17721974203542
 30
0.0
 11
123.4544579448094
 21
-49.23785861885892
 31
0.0
  0
LINE
  5
142
330
70
100
AcDbEntity
  8
Capa 1
 62
    18
420
        0
370
     9
100
AcDbLine
 10
123.4544579448094
 20
-50.1269671662575
 30
0.0
 11
123.2742337749306
 21
-50.1269671662575
 31
0.0
  0
LINE
  5
143
330
70
100
AcDbEntity
  8
Capa 1
 62
    18
420
        0
370
     9
100
AcDbLine
 10
123.4544579448094
 20
-50.09547962231666
 30
0.0
 11
123.4544579448094
 21
-50.1269671662575
 31
0.0
  0
LINE
  5
144
330
70
100
AcDbEntity
  8
Capa 1
 62
    18
420
        0
370
     9
100
AcDbLine
 10
86.44831978049294
 20
-46.52247312604187
 30
0.0
 11
86.44831978049294
 21
-38.98402883130649
 31
0.0
  0
LINE
  5
145
330
70
100
AcDbEntity
  8
Capa 1
 62
    18
420
        0
370
     9
100
AcDbLine
 10
123.4544579448094
 20
-46.52247312604187
 30
0.0
 11
123.4544579448094
 21
-38.98402883130649
 31
0.0
  0
LINE
  5
146
330
70
100
AcDbEntity
  8
Capa 1
 62
    18
420
        0
370
     9
100
AcDbLine
 10
86.42022944422237
 20
-40.78627582959397
 30
0.0
 11
123.48254828108
 21
-40.78627582959397
 31
0.0
  0
MTEXT
  5
147
330
70
100
AcDbEntity
  8
Capa 1
100
AcDbMText
 10
102.1567058731696
 20
-39.53813356894576
 30
0.0
 40
0.2
 41
0.0
 46
0.0
 71
     7
 72
     1
  1
\C18;\c0;\FArial Bold|b1|i0|c1;\H2.497667;\W1.000000;308
 73
     1
 44
1.0
  0
LINE
  5
148
330
70
100
AcDbEntity
  8
Capa 1
 62
    18
420
        0
370
     9
100
AcDbLine
 10
86.44831978049294
 20
-48.32472012432967
 30
0.0
 11
86.44831978049294
 21
-48.32472012432967
 31
0.0
  0
LINE
  5
149
330
70
100
AcDbEntity
  8
Capa 1
 62
    18
420
        0
370
     9
100
AcDbLine
 10
123.4544579448094
 20
-48.32472012432967
 30
0.0
 11
123.4544579448094
 21
-48.32472012432967
 31
0.0
  0
LINE
  5
14A
330
70
100
AcDbEntity
  8
Capa 1
 62
    18
420
        0
370
     9
100
AcDbLine
 10
123.4544579448094
 20
-40.78627582959397
 30
0.0
 11
123.4544579448094
 21
-40.78627582959397
 31
0.0
  0
ENDSEC
  0
SECTION
  2
OBJECTS
  0
DICTIONARY
  5
C
330
0
100
AcDbDictionary
281
     1
  3
ACAD_COLOR
350
63
  3
ACAD_DETAILVIEWSTYLE
350
6A
  3
ACAD_GROUP
350
D
  3
ACAD_LAYOUT
350
62
  3
ACAD_MATERIAL
350
10
  3
ACAD_MLEADERSTYLE
350
66
  3
ACAD_MLINESTYLE
350
5F
  3
ACAD_PLOTSETTINGS
350
61
  3
ACAD_PLOTSTYLENAME
350
E
  3
ACAD_SCALELIST
350
42
  3
ACAD_SECTIONVIEWSTYLE
350
68
  3
ACAD_TABLESTYLE
350
64
  3
ACAD_VISUALSTYLE
350
29
  3
ACDB_RECOMPOSE_DATA
350
154
  3
AcDbVariableDictionary
350
14B
  0
DICTIONARY
  5
63
102
{ACAD_REACTORS
330
C
102
}
330
C
100
AcDbDictionary
281
     1
  0
DICTIONARY
  5
6A
102
{ACAD_REACTORS
330
C
102
}
330
C
100
AcDbDictionary
281
     1
  3
Imperial24
350
6B
  0
DICTIONARY
  5
D
102
{ACAD_REACTORS
330
C
102
}
330
C
100
AcDbDictionary
281
     1
  0
DICTIONARY
  5
62
102
{ACAD_REACTORS
330
C
102
}
330
C
100
AcDbDictionary
281
     1
  3
Layout1
350
6F
  3
Layout2
350
77
  3
Model
350
73
  0
DICTIONARY
  5
10
102
{ACAD_REACTORS
330
C
102
}
330
C
100
AcDbDictionary
281
     1
  3
ByBlock
350
19
  3
ByLayer
350
11
  3
Global
350
21
  0
DICTIONARY
  5
66
102
{ACAD_REACTORS
330
C
102
}
330
C
100
AcDbDictionary
281
     1
  3
Standard
350
67
  0
DICTIONARY
  5
5F
102
{ACAD_REACTORS
330
C
102
}
330
C
100
AcDbDictionary
281
     1
  3
Standard
350
60
  0
DICTIONARY
  5
61
102
{ACAD_REACTORS
330
C
102
}
330
C
100
AcDbDictionary
281
     1
  0
ACDBDICTIONARYWDFLT
  5
E
102
{ACAD_REACTORS
330
C
102
}
330
C
100
AcDbDictionary
281
     1
  3
Normal
350
F
100
AcDbDictionaryWithDefault
340
F
  0
DICTIONARY
  5
42
102
{ACAD_REACTORS
330
C
102
}
330
C
100
AcDbDictionary
281
     1
  3
A0
350
43
  3
A1
350
44
  3
A2
350
45
  3
A3
350
46
  3
A4
350
47
  3
A5
350
48
  3
A6
350
49
  3
A7
350
4A
  3
A8
350
4B
  3
A9
350
4C
  3
B0
350
4D
  3
B1
350
4E
  3
B2
350
4F
  3
B3
350
50
  3
B4
350
51
  3
B5
350
52
  3
B6
350
53
  0
DICTIONARY
  5
68
102
{ACAD_REACTORS
330
C
102
}
330
C
100
AcDbDictionary
281
     1
  3
Imperial24
350
69
  0
DICTIONARY
  5
64
102
{ACAD_REACTORS
330
C
102
}
330
C
100
AcDbDictionary
281
     1
  3
Standard
350
65
  0
DICTIONARY
  5
29
102
{ACAD_REACTORS
330
C
102
}
330
C
100
AcDbDictionary
281
     1
  3
2dWireframe
350
2F
  3
Basic
350
2E
  3
Brighten
350
35
  3
ColorChange
350
39
  3
Conceptual
350
32
  3
Dim
350
34
  3
EdgeColorOff
350
41
  3
Facepattern
350
38
  3
Flat
350
2A
  3
FlatWithEdges
350
2B
  3
Gouraud
350
2C
  3
GouraudWithEdges
350
2D
  3
Hidden
350
31
  3
JitterOff
350
3F
  3
Linepattern
350
37
  3
OverhangOff
350
40
  3
Realistic
350
33
  3
Shaded
350
3E
  3
Shaded with edges
350
3D
  3
Shades of Gray
350
3A
  3
Sketchy
350
3B
  3
Thicken
350
36
  3
Wireframe
350
30
  3
X-Ray
350
3C
  0
XRECORD
  5
154
102
{ACAD_REACTORS
330
C
102
}
330
C
100
AcDbXrecord
280
     1
 90
        1
330
65
  0
DICTIONARY
  5
14B
102
{ACAD_REACTORS
330
C
102
}
330
C
100
AcDbDictionary
281
     1
  3
CANNOSCALE
350
150
  3
CMLEADERSTYLE
350
14D
  3
CTABLESTYLE
350
14C
  3
CVIEWDETAILSTYLE
350
14E
  3
CVIEWSECTIONSTYLE
350
14F
  0
ACDBDETAILVIEWSTYLE
  5
6B
102
{ACAD_XDICTIONARY
360
189
102
}
102
{ACAD_REACTORS
330
6A
102
}
330
6A
100
AcDbModelDocViewStyle
 70
     0
  3
Imperial24
290
     0
100
AcDbDetailViewStyle
 70
     0
 71
     0
 90
        3
 71
     1
340
55
 62
   256
 40
0.24
340
0
 62
   256
 40
0.24
300

 40
0.36
280
     3
 71
     2
340
5D
 90
       25
 62
   256
 71
     3
340
55
 62
   256
 40
0.24
 90
        1
 40
0.75
 90
        1
300
%<\AcVar ViewType \f "%tc1">% %<\AcVar ViewDetailId>%\PSCALE %<\AcVar ViewScale \f "%sn">%
 71
     4
340
5D
 90
       25
 62
   256
340
5D
 90
       25
 62
   256
280
     0
  0
LAYOUT
  5
6F
102
{ACAD_REACTORS
330
62
102
}
330
62
100
AcDbPlotSettings
  1

  2

  4

  6

 40
0.0
 41
0.0
 42
0.0
 43
0.0
 44
0.0
 45
0.0
 46
0.0
 47
0.0
 48
0.0
 49
0.0
140
0.0
141
0.0
142
1.0
143
1.0
 70
   688
 72
     0
 73
     0
 74
     5
  7

 75
    16
147
1.0
 76
     0
 77
     2
 78
   300
148
0.0
149
0.0
100
AcDbLayout
  1
Layout1
 70
     1
 71
     1
 10
0.0
 20
0.0
 11
12.0
 21
9.0
 12
0.0
 22
0.0
 32
0.0
 14
0.0
 24
0.0
 34
0.0
 15
0.0
 25
0.0
 35
0.0
146
0.0
 13
0.0
 23
0.0
 33
0.0
 16
1.0
 26
0.0
 36
0.0
 17
0.0
 27
1.0
 37
0.0
 76
     0
330
6C
  0
LAYOUT
  5
77
102
{ACAD_REACTORS
330
62
102
}
330
62
100
AcDbPlotSettings
  1

  2

  4

  6

 40
0.0
 41
0.0
 42
0.0
 43
0.0
 44
0.0
 45
0.0
 46
0.0
 47
0.0
 48
0.0
 49
0.0
140
0.0
141
0.0
142
1.0
143
1.0
 70
   688
 72
     0
 73
     0
 74
     5
  7

 75
    16
147
1.0
 76
     0
 77
     2
 78
   300
148
0.0
149
0.0
100
AcDbLayout
  1
Layout2
 70
     1
 71
     2
 10
0.0
 20
0.0
 11
12.0
 21
9.0
 12
0.0
 22
0.0
 32
0.0
 14
0.0
 24
0.0
 34
0.0
 15
0.0
 25
0.0
 35
0.0
146
0.0
 13
0.0
 23
0.0
 33
0.0
 16
1.0
 26
0.0
 36
0.0
 17
0.0
 27
1.0
 37
0.0
 76
     0
330
74
  0
LAYOUT
  5
73
102
{ACAD_REACTORS
330
62
102
}
330
62
100
AcDbPlotSettings
  1

  2

  4

  6

 40
0.0
 41
0.0
 42
0.0
 43
0.0
 44
0.0
 45
0.0
 46
0.0
 47
0.0
 48
0.0
 49
0.0
140
0.0
141
0.0
142
1.0
143
1.0
 70
  1712
 72
     0
 73
     0
 74
     0
  7

 75
     0
147
1.0
 76
     0
 77
     2
 78
   300
148
0.0
149
0.0
100
AcDbLayout
  1
Model
 70
     1
 71
     0
 10
0.0
 20
0.0
 11
12.0
 21
9.0
 12
0.0
 22
0.0
 32
0.0
 14
0.0
 24
0.0
 34
0.0
 15
0.0
 25
0.0
 35
0.0
146
0.0
 13
0.0
 23
0.0
 33
0.0
 16
1.0
 26
0.0
 36
0.0
 17
0.0
 27
1.0
 37
0.0
 76
     0
330
70
  0
MATERIAL
  5
19
102
{ACAD_XDICTIONARY
360
1A
102
}
102
{ACAD_REACTORS
330
10
102
}
330
10
100
AcDbMaterial
  1
ByBlock
 72
     0
 43
0.0208333333333333
 43
0.0
 43
0.0
 43
0.0
 43
0.0
 43
0.0208333333333333
 43
0.0
 43
0.0
 43
0.0
 43
0.0
 43
1.0
 43
0.0
 43
0.0
 43
0.0
 43
0.0
 43
1.0
 77
     0
 47
0.0208333333333333
 47
0.0
 47
0.0
 47
0.0
 47
0.0
 47
0.0208333333333333
 47
0.0
 47
0.0
 47
0.0
 47
0.0
 47
1.0
 47
0.0
 47
0.0
 47
0.0
 47
0.0
 47
1.0
171
     0
 49
0.0208333333333333
 49
0.0
 49
0.0
 49
0.0
 49
0.0
 49
0.0208333333333333
 49
0.0
 49
0.0
 49
0.0
 49
0.0
 49
1.0
 49
0.0
 49
0.0
 49
0.0
 49
0.0
 49
1.0
175
     0
142
0.0208333333333333
142
0.0
142
0.0
142
0.0
142
0.0
142
0.0208333333333333
142
0.0
142
0.0
142
0.0
142
0.0
142
1.0
142
0.0
142
0.0
142
0.0
142
0.0
142
1.0
179
     0
144
0.0208333333333333
144
0.0
144
0.0
144
0.0
144
0.0
144
0.0208333333333333
144
0.0
144
0.0
144
0.0
144
0.0
144
1.0
144
0.0
144
0.0
144
0.0
144
0.0
144
1.0
147
0.0208333333333333
147
0.0
147
0.0
147
0.0
147
0.0
147
0.0208333333333333
147
0.0
147
0.0
147
0.0
147
0.0
147
1.0
147
0.0
147
0.0
147
0.0
147
0.0
147
1.0
  0
MATERIAL
  5
11
102
{ACAD_XDICTIONARY
360
12
102
}
102
{ACAD_REACTORS
330
10
102
}
330
10
100
AcDbMaterial
  1
ByLayer
 72
     0
 43
0.0208333333333333
 43
0.0
 43
0.0
 43
0.0
 43
0.0
 43
0.0208333333333333
 43
0.0
 43
0.0
 43
0.0
 43
0.0
 43
1.0
 43
0.0
 43
0.0
 43
0.0
 43
0.0
 43
1.0
 77
     0
 47
0.0208333333333333
 47
0.0
 47
0.0
 47
0.0
 47
0.0
 47
0.0208333333333333
 47
0.0
 47
0.0
 47
0.0
 47
0.0
 47
1.0
 47
0.0
 47
0.0
 47
0.0
 47
0.0
 47
1.0
171
     0
 49
0.0208333333333333
 49
0.0
 49
0.0
 49
0.0
 49
0.0
 49
0.0208333333333333
 49
0.0
 49
0.0
 49
0.0
 49
0.0
 49
1.0
 49
0.0
 49
0.0
 49
0.0
 49
0.0
 49
1.0
175
     0
142
0.0208333333333333
142
0.0
142
0.0
142
0.0
142
0.0
142
0.0208333333333333
142
0.0
142
0.0
142
0.0
142
0.0
142
1.0
142
0.0
142
0.0
142
0.0
142
0.0
142
1.0
179
     0
144
0.0208333333333333
144
0.0
144
0.0
144
0.0
144
0.0
144
0.0208333333333333
144
0.0
144
0.0
144
0.0
144
0.0
144
1.0
144
0.0
144
0.0
144
0.0
144
0.0
144
1.0
147
0.0208333333333333
147
0.0
147
0.0
147
0.0
147
0.0
147
0.0208333333333333
147
0.0
147
0.0
147
0.0
147
0.0
147
1.0
147
0.0
147
0.0
147
0.0
147
0.0
147
1.0
  0
MATERIAL
  5
21
102
{ACAD_XDICTIONARY
360
22
102
}
102
{ACAD_REACTORS
330
10
102
}
330
10
100
AcDbMaterial
  1
Global
 72
     0
 43
0.0208333333333333
 43
0.0
 43
0.0
 43
0.0
 43
0.0
 43
0.0208333333333333
 43
0.0
 43
0.0
 43
0.0
 43
0.0
 43
1.0
 43
0.0
 43
0.0
 43
0.0
 43
0.0
 43
1.0
 77
     0
 47
0.0208333333333333
 47
0.0
 47
0.0
 47
0.0
 47
0.0
 47
0.0208333333333333
 47
0.0
 47
0.0
 47
0.0
 47
0.0
 47
1.0
 47
0.0
 47
0.0
 47
0.0
 47
0.0
 47
1.0
171
     0
 49
0.0208333333333333
 49
0.0
 49
0.0
 49
0.0
 49
0.0
 49
0.0208333333333333
 49
0.0
 49
0.0
 49
0.0
 49
0.0
 49
1.0
 49
0.0
 49
0.0
 49
0.0
 49
0.0
 49
1.0
175
     0
142
0.0208333333333333
142
0.0
142
0.0
142
0.0
142
0.0
142
0.0208333333333333
142
0.0
142
0.0
142
0.0
142
0.0
142
1.0
142
0.0
142
0.0
142
0.0
142
0.0
142
1.0
179
     0
144
0.0208333333333333
144
0.0
144
0.0
144
0.0
144
0.0
144
0.0208333333333333
144
0.0
144
0.0
144
0.0
144
0.0
144
1.0
144
0.0
144
0.0
144
0.0
144
0.0
144
1.0
147
0.0208333333333333
147
0.0
147
0.0
147
0.0
147
0.0
147
0.0208333333333333
147
0.0
147
0.0
147
0.0
147
0.0
147
1.0
147
0.0
147
0.0
147
0.0
147
0.0
147
1.0
  0
MLEADERSTYLE
  5
67
102
{ACAD_XDICTIONARY
360
185
102
}
102
{ACAD_REACTORS
330
66
102
}
330
66
100
AcDbMLeaderStyle
179
     2
170
     2
171
     1
172
     0
 90
        2
 40
0.0
 41
0.0
173
     1
 91
-1056964608
340
5B
 92
       -2
290
     1
 42
0.09
291
     1
 43
0.36
  3
Standard
 44
0.18
300

342
55
174
     1
178
     6
175
     1
176
     0
 93
-1056964608
 45
0.18
292
     0
297
     0
 46
0.18
 94
-1056964608
 47
1.0
 49
1.0
140
1.0
293
     1
141
0.0
294
     1
177
     0
142
1.0
295
     0
296
     0
143
0.125
271
     0
272
     9
273
     9
  0
MLINESTYLE
  5
60
102
{ACAD_REACTORS
330
5F
102
}
330
5F
100
AcDbMlineStyle
  2
STANDARD
 70
     0
  3

 62
   256
 51
90.0
 52
90.0
 71
     2
 49
0.5
 62
   256
  6
BYLAYER
 49
-0.5
 62
   256
  6
BYLAYER
  0
ACDBPLACEHOLDER
  5
F
102
{ACAD_REACTORS
330
E
102
}
330
E
  0
SCALE
  5
43
102
{ACAD_REACTORS
330
42
102
}
330
42
100
AcDbScale
 70
     0
300
1:1
140
1.0
141
1.0
290
     1
  0
SCALE
  5
44
102
{ACAD_REACTORS
330
42
102
}
330
42
100
AcDbScale
 70
     0
300
1/128" = 1'-0"
140
0.0078125
141
12.0
290
     0
  0
SCALE
  5
45
102
{ACAD_REACTORS
330
42
102
}
330
42
100
AcDbScale
 70
     0
300
1/64" = 1'-0"
140
0.015625
141
12.0
290
     0
  0
SCALE
  5
46
102
{ACAD_REACTORS
330
42
102
}
330
42
100
AcDbScale
 70
     0
300
1/32" = 1'-0"
140
0.03125
141
12.0
290
     0
  0
SCALE
  5
47
102
{ACAD_REACTORS
330
42
102
}
330
42
100
AcDbScale
 70
     0
300
1/16" = 1'-0"
140
0.0625
141
12.0
290
     0
  0
SCALE
  5
48
102
{ACAD_REACTORS
330
42
102
}
330
42
100
AcDbScale
 70
     0
300
3/32" = 1'-0"
140
0.09375
141
12.0
290
     0
  0
SCALE
  5
49
102
{ACAD_REACTORS
330
42
102
}
330
42
100
AcDbScale
 70
     0
300
1/8" = 1'-0"
140
0.125
141
12.0
290
     0
  0
SCALE
  5
4A
102
{ACAD_REACTORS
330
42
102
}
330
42
100
AcDbScale
 70
     0
300
3/16" = 1'-0"
140
0.1875
141
12.0
290
     0
  0
SCALE
  5
4B
102
{ACAD_REACTORS
330
42
102
}
330
42
100
AcDbScale
 70
     0
300
1/4" = 1'-0"
140
0.25
141
12.0
290
     0
  0
SCALE
  5
4C
102
{ACAD_REACTORS
330
42
102
}
330
42
100
AcDbScale
 70
     0
300
3/8" = 1'-0"
140
0.375
141
12.0
290
     0
  0
SCALE
  5
4D
102
{ACAD_REACTORS
330
42
102
}
330
42
100
AcDbScale
 70
     0
300
1/2" = 1'-0"
140
0.5
141
12.0
290
     0
  0
SCALE
  5
4E
102
{ACAD_REACTORS
330
42
102
}
330
42
100
AcDbScale
 70
     0
300
3/4" = 1'-0"
140
0.75
141
12.0
290
     0
  0
SCALE
  5
4F
102
{ACAD_REACTORS
330
42
102
}
330
42
100
AcDbScale
 70
     0
300
1" = 1'-0"
140
1.0
141
12.0
290
     0
  0
SCALE
  5
50
102
{ACAD_REACTORS
330
42
102
}
330
42
100
AcDbScale
 70
     0
300
1-1/2" = 1'-0"
140
1.5
141
12.0
290
     0
  0
SCALE
  5
51
102
{ACAD_REACTORS
330
42
102
}
330
42
100
AcDbScale
 70
     0
300
3" = 1'-0"
140
3.0
141
12.0
290
     0
  0
SCALE
  5
52
102
{ACAD_REACTORS
330
42
102
}
330
42
100
AcDbScale
 70
     0
300
6" = 1'-0"
140
6.0
141
12.0
290
     0
  0
SCALE
  5
53
102
{ACAD_REACTORS
330
42
102
}
330
42
100
AcDbScale
 70
     0
300
1'-0" = 1'-0"
140
12.0
141
12.0
290
     0
  0
ACDBSECTIONVIEWSTYLE
  5
69
102
{ACAD_XDICTIONARY
360
187
102
}
102
{ACAD_REACTORS
330
68
102
}
330
68
100
AcDbModelDocViewStyle
 70
     0
  3
Imperial24
290
     0
100
AcDbSectionViewStyle
 70
     0
 71
     0
 90
       78
 71
     1
340
55
 62
   256
 40
0.24
340
0
340
0
 62
   256
 40
0.24
300
I, O, Q, S, X, Z
 40
0.48
 90
        3
 40
0.18
 90
        1
 71
     2
340
5D
 90
       25
 62
   256
340
5D
 90
       50
 62
   256
 40
0.24
 40
0.0
 40
0.24
 71
     3
340
55
 62
   256
 40
0.24
 90
        1
 40
0.75
 90
        1
300
%<\AcVar ViewType \f "%tc1">% %<\AcVar ViewSectionStartId>%-%<\AcVar ViewSectionEndId>%\PSCALE %<\AcVar ViewScale \f "%sn">%
 71
     4
 62
   256
 62
   257
300
ANSI31
 40
1.0
 90
        0
290
     0
290
     0
 90
        6
 40
0.0
 40
1.570796326794896
 40
0.2617993877991494
 40
1.308996938995747
 40
-0.2617993877991494
 40
1.832595714594046
  0
TABLESTYLE
  5
65
102
{ACAD_XDICTIONARY
360
151
102
}
102
{ACAD_REACTORS
330
64
102
}
330
64
100
AcDbTableStyle
280
     0
  3
Standard
 70
     0
 71
     0
 40
0.06
 41
0.06
280
     0
281
     0
  7
Standard
140
0.18
170
     2
 62
     0
 63
     7
283
     0
 90
      512
 91
        0
  1

274
    -2
284
     1
 64
     0
275
    -2
285
     1
 65
     0
276
    -2
286
     1
 66
     0
277
    -2
287
     1
 67
     0
278
    -2
288
     1
 68
     0
279
    -2
289
     1
 69
     0
  7
Standard
140
0.25
170
     5
 62
     0
 63
     7
283
     0
 90
      512
 91
        0
  1

274
    -2
284
     1
 64
     0
275
    -2
285
     1
 65
     0
276
    -2
286
     1
 66
     0
277
    -2
287
     1
 67
     0
278
    -2
288
     1
 68
     0
279
    -2
289
     1
 69
     0
  7
Standard
140
0.18
170
     5
 62
     0
 63
     7
283
     0
 90
      512
 91
        0
  1

274
    -2
284
     1
 64
     0
275
    -2
285
     1
 65
     0
276
    -2
286
     1
 66
     0
277
    -2
287
     1
 67
     0
278
    -2
288
     1
 68
     0
279
    -2
289
     1
 69
     0
  0
VISUALSTYLE
  5
2F
102
{ACAD_XDICTIONARY
360
15F
102
}
102
{ACAD_REACTORS
330
29
102
}
330
29
100
AcDbVisualStyle
  2
2dWireframe
 70
     4
177
     2
291
     0
 71
     0
176
     1
 72
     2
176
     1
 73
     0
176
     1
 90
        0
176
     1
 40
0.6
176
     1
 41
30.0
176
     1
 63
     7
421
 16777215
176
     1
 74
     1
176
     1
 91
        4
176
     1
 64
     7
176
     1
 65
   257
176
     1
 75
     1
176
     1
175
     1
176
     1
 42
1.0
176
     1
 92
        0
176
     1
 66
   257
176
     1
 43
1.0
176
     1
 76
     1
176
     1
 77
     6
176
     1
 78
     2
176
     1
 67
     7
176
     1
 79
     5
176
     1
170
     0
176
     1
171
     0
176
     1
290
     0
176
     1
 93
        1
176
     1
 44
0.0
176
     1
173
     0
176
     1
1001
ACAD
1000
AcDbSavedByObjectVersion
1070
     0
  0
VISUALSTYLE
  5
2E
102
{ACAD_XDICTIONARY
360
15D
102
}
102
{ACAD_REACTORS
330
29
102
}
330
29
100
AcDbVisualStyle
  2
Basic
 70
     7
177
     2
291
     1
 71
     1
176
     1
 72
     0
176
     1
 73
     1
176
     1
 90
        0
176
     1
 40
0.6
176
     1
 41
30.0
176
     1
 63
     7
421
 16777215
176
     1
 74
     0
176
     1
 91
        4
176
     1
 64
     7
176
     1
 65
   257
176
     1
 75
     1
176
     1
175
     1
176
     1
 42
1.0
176
     1
 92
        8
176
     1
 66
     7
176
     1
 43
1.0
176
     1
 76
     1
176
     1
 77
     6
176
     1
 78
     2
176
     1
 67
     7
176
     1
 79
     5
176
     1
170
     0
176
     1
171
     0
176
     1
290
     0
176
     1
 93
        1
176
     1
 44
0.0
176
     1
173
     0
176
     1
1001
ACAD
1000
AcDbSavedByObjectVersion
1070
     0
  0
VISUALSTYLE
  5
35
102
{ACAD_XDICTIONARY
360
16B
102
}
102
{ACAD_REACTORS
330
29
102
}
330
29
100
AcDbVisualStyle
  2
Brighten
 70
    12
177
     2
291
     1
 71
     2
176
     1
 72
     2
176
     1
 73
     0
176
     1
 90
        0
176
     1
 40
0.6
176
     1
 41
30.0
176
     1
 63
     7
421
 16777215
176
     1
 74
     1
176
     1
 91
        4
176
     1
 64
     7
176
     1
 65
   257
176
     1
 75
     1
176
     1
175
     1
176
     1
 42
1.0
176
     1
 92
        8
176
     1
 66
     7
176
     1
 43
1.0
176
     1
 76
     1
176
     1
 77
     6
176
     1
 78
     2
176
     1
 67
     7
176
     1
 79
     5
176
     1
170
     0
176
     1
171
     0
176
     1
290
     0
176
     1
 93
        1
176
     1
 44
50.0
176
     1
173
     0
176
     1
1001
ACAD
1000
AcDbSavedByObjectVersion
1070
     0
  0
VISUALSTYLE
  5
39
102
{ACAD_XDICTIONARY
360
173
102
}
102
{ACAD_REACTORS
330
29
102
}
330
29
100
AcDbVisualStyle
  2
ColorChange
 70
    16
177
     2
291
     1
 71
     2
176
     1
 72
     2
176
     1
 73
     3
176
     1
 90
        0
176
     1
 40
0.6
176
     1
 41
30.0
176
     1
 63
     8
421
  8421504
176
     1
 74
     1
176
     1
 91
        4
176
     1
 64
     7
176
     1
 65
   257
176
     1
 75
     1
176
     1
175
     1
176
     1
 42
1.0
176
     1
 92
        8
176
     1
 66
     8
424
  8421504
176
     1
 43
1.0
176
     1
 76
     1
176
     1
 77
     6
176
     1
 78
     2
176
     1
 67
     7
176
     1
 79
     5
176
     1
170
     0
176
     1
171
     0
176
     1
290
     0
176
     1
 93
        1
176
     1
 44
0.0
176
     1
173
     0
176
     1
1001
ACAD
1000
AcDbSavedByObjectVersion
1070
     0
  0
VISUALSTYLE
  5
32
102
{ACAD_XDICTIONARY
360
165
102
}
102
{ACAD_REACTORS
330
29
102
}
330
29
100
AcDbVisualStyle
  2
Conceptual
 70
     9
177
     2
291
     0
 71
     3
176
     1
 72
     2
176
     1
 73
     0
176
     1
 90
        0
176
     1
 40
0.6
176
     1
 41
30.0
176
     1
 63
     7
421
 16777215
176
     1
 74
     2
176
     1
 91
        2
176
     1
 64
     7
176
     1
 65
   257
176
     1
 75
     1
176
     1
175
     1
176
     1
 42
179.0
176
     1
 92
        8
176
     1
 66
     7
176
     1
 43
1.0
176
     1
 76
     1
176
     1
 77
     6
176
     1
 78
     2
176
     1
 67
     7
176
     1
 79
     3
176
     1
170
     0
176
     1
171
     0
176
     1
290
     0
176
     1
 93
        1
176
     1
 44
0.0
176
     1
173
     0
176
     1
1001
ACAD
1000
AcDbSavedByObjectVersion
1070
     0
  0
VISUALSTYLE
  5
34
102
{ACAD_XDICTIONARY
360
169
102
}
102
{ACAD_REACTORS
330
29
102
}
330
29
100
AcDbVisualStyle
  2
Dim
 70
    11
177
     2
291
     1
 71
     2
176
     1
 72
     2
176
     1
 73
     0
176
     1
 90
        0
176
     1
 40
0.6
176
     1
 41
30.0
176
     1
 63
     7
421
 16777215
176
     1
 74
     1
176
     1
 91
        4
176
     1
 64
     7
176
     1
 65
   257
176
     1
 75
     1
176
     1
175
     1
176
     1
 42
1.0
176
     1
 92
        8
176
     1
 66
     7
176
     1
 43
1.0
176
     1
 76
     1
176
     1
 77
     6
176
     1
 78
     2
176
     1
 67
     7
176
     1
 79
     5
176
     1
170
     0
176
     1
171
     0
176
     1
290
     0
176
     1
 93
        1
176
     1
 44
-50.0
176
     1
173
     0
176
     1
1001
ACAD
1000
AcDbSavedByObjectVersion
1070
     0
  0
VISUALSTYLE
  5
41
102
{ACAD_XDICTIONARY
360
183
102
}
102
{ACAD_REACTORS
330
29
102
}
330
29
100
AcDbVisualStyle
  2
EdgeColorOff
 70
    22
177
     2
291
     1
 71
     2
176
     0
 72
     2
176
     0
 73
     0
176
     0
 90
        0
176
     0
 40
0.6
176
     0
 41
30.0
176
     0
 63
     7
421
 16777215
176
     0
 74
     1
176
     0
 91
        4
176
     0
 64
     7
176
     0
 65
   257
176
     0
 75
     1
176
     0
175
     1
176
     0
 42
1.0
176
     0
 92
        8
176
     2
 66
     7
176
     0
 43
1.0
176
     0
 76
     1
176
     0
 77
     6
176
     0
 78
     2
176
     0
 67
     7
176
     0
 79
     5
176
     0
170
     0
176
     0
171
     0
176
     0
290
     0
176
     0
 93
        1
176
     0
 44
0.0
176
     0
173
     0
176
     0
1001
ACAD
1000
AcDbSavedByObjectVersion
1070
     0
  0
VISUALSTYLE
  5
38
102
{ACAD_XDICTIONARY
360
171
102
}
102
{ACAD_REACTORS
330
29
102
}
330
29
100
AcDbVisualStyle
  2
Facepattern
 70
    15
177
     2
291
     1
 71
     2
176
     1
 72
     2
176
     1
 73
     0
176
     1
 90
        0
176
     1
 40
0.6
176
     1
 41
30.0
176
     1
 63
     7
421
 16777215
176
     1
 74
     1
176
     1
 91
        4
176
     1
 64
     7
176
     1
 65
   257
176
     1
 75
     1
176
     1
175
     1
176
     1
 42
1.0
176
     1
 92
        8
176
     1
 66
     7
176
     1
 43
1.0
176
     1
 76
     1
176
     1
 77
     6
176
     1
 78
     2
176
     1
 67
     7
176
     1
 79
     5
176
     1
170
     0
176
     1
171
     0
176
     1
290
     0
176
     1
 93
        1
176
     1
 44
0.0
176
     1
173
     0
176
     1
1001
ACAD
1000
AcDbSavedByObjectVersion
1070
     0
  0
VISUALSTYLE
  5
2A
102
{ACAD_XDICTIONARY
360
155
102
}
102
{ACAD_REACTORS
330
29
102
}
330
29
100
AcDbVisualStyle
  2
Flat
 70
     0
177
     2
291
     1
 71
     2
176
     1
 72
     1
176
     1
 73
     1
176
     1
 90
        2
176
     1
 40
0.6
176
     1
 41
30.0
176
     1
 63
     7
421
 16777215
176
     1
 74
     0
176
     1
 91
        0
176
     1
 64
     7
176
     1
 65
   257
176
     1
 75
     1
176
     1
175
     1
176
     1
 42
1.0
176
     1
 92
        8
176
     1
 66
     7
176
     1
 43
1.0
176
     1
 76
     1
176
     1
 77
     6
176
     1
 78
     2
176
     1
 67
     7
176
     1
 79
     5
176
     1
170
     0
176
     1
171
     0
176
     1
290
     0
176
     1
 93
       13
176
     1
 44
0.0
176
     1
173
     0
176
     1
1001
ACAD
1000
AcDbSavedByObjectVersion
1070
     0
  0
VISUALSTYLE
  5
2B
102
{ACAD_XDICTIONARY
360
157
102
}
102
{ACAD_REACTORS
330
29
102
}
330
29
100
AcDbVisualStyle
  2
FlatWithEdges
 70
     1
177
     2
291
     1
 71
     2
176
     1
 72
     1
176
     1
 73
     1
176
     1
 90
        2
176
     1
 40
0.6
176
     1
 41
30.0
176
     1
 63
     7
421
 16777215
176
     1
 74
     1
176
     1
 91
        0
176
     1
 64
     7
176
     1
 65
   257
176
     1
 75
     1
176
     1
175
     1
176
     1
 42
1.0
176
     1
 92
        0
176
     1
 66
   257
176
     1
 43
1.0
176
     1
 76
     1
176
     1
 77
     6
176
     1
 78
     2
176
     1
 67
     7
176
     1
 79
     5
176
     1
170
     0
176
     1
171
     0
176
     1
290
     0
176
     1
 93
       13
176
     1
 44
0.0
176
     1
173
     0
176
     1
1001
ACAD
1000
AcDbSavedByObjectVersion
1070
     0
  0
VISUALSTYLE
  5
2C
102
{ACAD_XDICTIONARY
360
159
102
}
102
{ACAD_REACTORS
330
29
102
}
330
29
100
AcDbVisualStyle
  2
Gouraud
 70
     2
177
     2
291
     1
 71
     2
176
     1
 72
     2
176
     1
 73
     1
176
     1
 90
        2
176
     1
 40
0.6
176
     1
 41
30.0
176
     1
 63
     7
421
 16777215
176
     1
 74
     0
176
     1
 91
        0
176
     1
 64
     7
176
     1
 65
   257
176
     1
 75
     1
176
     1
175
     1
176
     1
 42
1.0
176
     1
 92
        0
176
     1
 66
     7
176
     1
 43
1.0
176
     1
 76
     1
176
     1
 77
     6
176
     1
 78
     2
176
     1
 67
     7
176
     1
 79
     5
176
     1
170
     0
176
     1
171
     0
176
     1
290
     0
176
     1
 93
       13
176
     1
 44
0.0
176
     1
173
     0
176
     1
1001
ACAD
1000
AcDbSavedByObjectVersion
1070
     0
  0
VISUALSTYLE
  5
2D
102
{ACAD_XDICTIONARY
360
15B
102
}
102
{ACAD_REACTORS
330
29
102
}
330
29
100
AcDbVisualStyle
  2
GouraudWithEdges
 70
     3
177
     2
291
     1
 71
     2
176
     1
 72
     2
176
     1
 73
     1
176
     1
 90
        2
176
     1
 40
0.6
176
     1
 41
30.0
176
     1
 63
     7
421
 16777215
176
     1
 74
     1
176
     1
 91
        0
176
     1
 64
     7
176
     1
 65
   257
176
     1
 75
     1
176
     1
175
     1
176
     1
 42
1.0
176
     1
 92
        0
176
     1
 66
   257
176
     1
 43
1.0
176
     1
 76
     1
176
     1
 77
     6
176
     1
 78
     2
176
     1
 67
     7
176
     1
 79
     5
176
     1
170
     0
176
     1
171
     0
176
     1
290
     0
176
     1
 93
       13
176
     1
 44
0.0
176
     1
173
     0
176
     1
1001
ACAD
1000
AcDbSavedByObjectVersion
1070
     0
  0
VISUALSTYLE
  5
31
102
{ACAD_XDICTIONARY
360
163
102
}
102
{ACAD_REACTORS
330
29
102
}
330
29
100
AcDbVisualStyle
  2
Hidden
 70
     6
177
     2
291
     0
 71
     1
176
     1
 72
     2
176
     1
 73
     2
176
     1
 90
        0
176
     1
 40
0.6
176
     1
 41
30.0
176
     1
 63
     7
421
 16777215
176
     1
 74
     2
176
     1
 91
        2
176
     1
 64
     7
176
     1
 65
   257
176
     1
 75
     2
176
     1
175
     1
176
     1
 42
40.0
176
     1
 92
        0
176
     1
 66
   257
176
     1
 43
1.0
176
     1
 76
     1
176
     1
 77
     6
176
     1
 78
     2
176
     1
 67
     7
176
     1
 79
     3
176
     1
170
     0
176
     1
171
     0
176
     1
290
     0
176
     1
 93
        1
176
     1
 44
0.0
176
     1
173
     0
176
     1
1001
ACAD
1000
AcDbSavedByObjectVersion
1070
     0
  0
VISUALSTYLE
  5
3F
102
{ACAD_XDICTIONARY
360
17F
102
}
102
{ACAD_REACTORS
330
29
102
}
330
29
100
AcDbVisualStyle
  2
JitterOff
 70
    20
177
     2
291
     1
 71
     2
176
     0
 72
     2
176
     0
 73
     0
176
     0
 90
        0
176
     0
 40
0.6
176
     0
 41
30.0
176
     0
 63
     7
421
 16777215
176
     0
 74
     1
176
     0
 91
        4
176
     0
 64
     7
176
     0
 65
   257
176
     0
 75
     1
176
     0
175
     1
176
     0
 42
1.0
176
     0
 92
       10
176
     2
 66
     7
176
     0
 43
1.0
176
     0
 76
     1
176
     0
 77
     6
176
     0
 78
     2
176
     0
 67
     7
176
     0
 79
     5
176
     0
170
     0
176
     0
171
     0
176
     0
290
     0
176
     0
 93
        1
176
     0
 44
0.0
176
     0
173
     0
176
     0
1001
ACAD
1000
AcDbSavedByObjectVersion
1070
     0
  0
VISUALSTYLE
  5
37
102
{ACAD_XDICTIONARY
360
16F
102
}
102
{ACAD_REACTORS
330
29
102
}
330
29
100
AcDbVisualStyle
  2
Linepattern
 70
    14
177
     2
291
     1
 71
     2
176
     1
 72
     2
176
     1
 73
     0
176
     1
 90
        0
176
     1
 40
0.6
176
     1
 41
30.0
176
     1
 63
     7
421
 16777215
176
     1
 74
     1
176
     1
 91
        4
176
     1
 64
     7
176
     1
 65
   257
176
     1
 75
     7
176
     1
175
     7
176
     1
 42
1.0
176
     1
 92
        8
176
     1
 66
     7
176
     1
 43
1.0
176
     1
 76
     1
176
     1
 77
     6
176
     1
 78
     2
176
     1
 67
     7
176
     1
 79
     5
176
     1
170
     0
176
     1
171
     0
176
     1
290
     0
176
     1
 93
        1
176
     1
 44
0.0
176
     1
173
     0
176
     1
1001
ACAD
1000
AcDbSavedByObjectVersion
1070
     0
  0
VISUALSTYLE
  5
40
102
{ACAD_XDICTIONARY
360
181
102
}
102
{ACAD_REACTORS
330
29
102
}
330
29
100
AcDbVisualStyle
  2
OverhangOff
 70
    21
177
     2
291
     1
 71
     2
176
     0
 72
     2
176
     0
 73
     0
176
     0
 90
        0
176
     0
 40
0.6
176
     0
 41
30.0
176
     0
 63
     7
421
 16777215
176
     0
 74
     1
176
     0
 91
        4
176
     0
 64
     7
176
     0
 65
   257
176
     0
 75
     1
176
     0
175
     1
176
     0
 42
1.0
176
     0
 92
        9
176
     2
 66
     7
176
     0
 43
1.0
176
     0
 76
     1
176
     0
 77
     6
176
     0
 78
     2
176
     0
 67
     7
176
     0
 79
     5
176
     0
170
     0
176
     0
171
     0
176
     0
290
     0
176
     0
 93
        1
176
     0
 44
0.0
176
     0
173
     0
176
     0
1001
ACAD
1000
AcDbSavedByObjectVersion
1070
     0
  0
VISUALSTYLE
  5
33
102
{ACAD_XDICTIONARY
360
167
102
}
102
{ACAD_REACTORS
330
29
102
}
330
29
100
AcDbVisualStyle
  2
Realistic
 70
     8
177
     2
291
     0
 71
     2
176
     1
 72
     3
176
     1
 73
     0
176
     1
 90
        2
176
     1
 40
0.6
176
     1
 41
30.0
176
     1
 63
     7
421
 16777215
176
     1
 74
     0
176
     1
 91
        0
176
     1
 64
     7
176
     1
 65
   257
176
     1
 75
     1
176
     1
175
     1
176
     1
 42
1.0
176
     1
 92
        8
176
     1
 66
   257
176
     1
 43
1.0
176
     1
 76
     1
176
     1
 77
     6
176
     1
 78
     2
176
     1
 67
     7
176
     1
 79
     3
176
     1
170
     0
176
     1
171
     0
176
     1
290
     0
176
     1
 93
       13
176
     1
 44
0.0
176
     1
173
     0
176
     1
1001
ACAD
1000
AcDbSavedByObjectVersion
1070
     0
  0
VISUALSTYLE
  5
3E
102
{ACAD_XDICTIONARY
360
17D
102
}
102
{ACAD_REACTORS
330
29
102
}
330
29
100
AcDbVisualStyle
  2
Shaded
 70
    27
177
     2
291
     0
 71
     2
176
     1
 72
     2
176
     1
 73
     1
176
     1
 90
        2
176
     1
 40
0.6
176
     1
 41
30.0
176
     1
 63
     7
421
 16777215
176
     1
 74
     0
176
     1
 91
        4
176
     1
 64
     7
176
     1
 65
   257
176
     1
 75
     1
176
     1
175
     1
176
     1
 42
1.0
176
     1
 92
        8
176
     1
 66
   257
176
     1
 43
1.0
176
     1
 76
     1
176
     1
 77
     6
176
     1
 78
     2
176
     1
 67
     8
425
  7895160
176
     1
 79
     3
176
     1
170
     0
176
     1
171
     0
176
     1
290
     0
176
     1
 93
        5
176
     1
 44
0.0
176
     1
173
     0
176
     1
1001
ACAD
1000
AcDbSavedByObjectVersion
1070
     0
  0
VISUALSTYLE
  5
3D
102
{ACAD_XDICTIONARY
360
17B
102
}
102
{ACAD_REACTORS
330
29
102
}
330
29
100
AcDbVisualStyle
  2
Shaded with edges
 70
    26
177
     2
291
     0
 71
     2
176
     1
 72
     2
176
     1
 73
     1
176
     1
 90
        2
176
     1
 40
0.6
176
     1
 41
30.0
176
     1
 63
     7
421
 16777215
176
     1
 74
     1
176
     1
 91
        2
176
     1
 64
     7
176
     1
 65
   257
176
     1
 75
     2
176
     1
175
     1
176
     1
 42
1.0
176
     1
 92
        8
176
     1
 66
   257
176
     1
 43
1.0
176
     1
 76
     1
176
     1
 77
     6
176
     1
 78
     2
176
     1
 67
     7
176
     1
 79
     3
176
     1
170
     0
176
     1
171
     0
176
     1
290
     0
176
     1
 93
        5
176
     1
 44
0.0
176
     1
173
     0
176
     1
1001
ACAD
1000
AcDbSavedByObjectVersion
1070
     0
  0
VISUALSTYLE
  5
3A
102
{ACAD_XDICTIONARY
360
175
102
}
102
{ACAD_REACTORS
330
29
102
}
330
29
100
AcDbVisualStyle
  2
Shades of Gray
 70
    23
177
     2
291
     0
 71
     2
176
     1
 72
     2
176
     1
 73
     3
176
     1
 90
        0
176
     1
 40
0.6
176
     1
 41
30.0
176
     1
 63
     7
421
 16777215
176
     1
 74
     2
176
     1
 91
        2
176
     1
 64
     7
176
     1
 65
     7
176
     1
 75
     1
176
     1
175
     1
176
     1
 42
40.0
176
     1
 92
        8
176
     1
 66
     7
176
     1
 43
1.0
176
     1
 76
     1
176
     1
 77
     6
176
     1
 78
     2
176
     1
 67
     7
176
     1
 79
     3
176
     1
170
     0
176
     1
171
     0
176
     1
290
     0
176
     1
 93
        1
176
     1
 44
0.0
176
     1
173
     0
176
     1
1001
ACAD
1000
AcDbSavedByObjectVersion
1070
     0
  0
VISUALSTYLE
  5
3B
102
{ACAD_XDICTIONARY
360
177
102
}
102
{ACAD_REACTORS
330
29
102
}
330
29
100
AcDbVisualStyle
  2
Sketchy
 70
    24
177
     2
291
     0
 71
     1
176
     1
 72
     2
176
     1
 73
     2
176
     1
 90
        0
176
     1
 40
0.6
176
     1
 41
30.0
176
     1
 63
     7
421
 16777215
176
     1
 74
     2
176
     1
 91
        2
176
     1
 64
     7
176
     1
 65
     7
176
     1
 75
     1
176
     1
175
     1
176
     1
 42
40.0
176
     1
 92
       11
176
     1
 66
     7
176
     1
 43
1.0
176
     1
 76
     1
176
     1
 77
     6
176
     1
 78
     2
176
     1
 67
     7
176
     1
 79
     6
176
     1
170
     0
176
     1
171
     0
176
     1
290
     0
176
     1
 93
        1
176
     1
 44
0.0
176
     1
173
     0
176
     1
1001
ACAD
1000
AcDbSavedByObjectVersion
1070
     0
  0
VISUALSTYLE
  5
36
102
{ACAD_XDICTIONARY
360
16D
102
}
102
{ACAD_REACTORS
330
29
102
}
330
29
100
AcDbVisualStyle
  2
Thicken
 70
    13
177
     2
291
     1
 71
     2
176
     1
 72
     2
176
     1
 73
     0
176
     1
 90
        0
176
     1
 40
0.6
176
     1
 41
30.0
176
     1
 63
     7
421
 16777215
176
     1
 74
     1
176
     1
 91
        4
176
     1
 64
     7
176
     1
 65
   257
176
     1
 75
     1
176
     1
175
     1
176
     1
 42
1.0
176
     1
 92
       12
176
     1
 66
     7
176
     1
 43
1.0
176
     1
 76
     1
176
     1
 77
     6
176
     1
 78
     2
176
     1
 67
     7
176
     1
 79
     5
176
     1
170
     0
176
     1
171
     0
176
     1
290
     0
176
     1
 93
        1
176
     1
 44
0.0
176
     1
173
     0
176
     1
1001
ACAD
1000
AcDbSavedByObjectVersion
1070
     0
  0
VISUALSTYLE
  5
30
102
{ACAD_XDICTIONARY
360
161
102
}
102
{ACAD_REACTORS
330
29
102
}
330
29
100
AcDbVisualStyle
  2
Wireframe
 70
     5
177
     2
291
     0
 71
     0
176
     1
 72
     2
176
     1
 73
     0
176
     1
 90
        0
176
     1
 40
0.6
176
     1
 41
30.0
176
     1
 63
     7
421
 16777215
176
     1
 74
     1
176
     1
 91
        4
176
     1
 64
     7
176
     1
 65
   257
176
     1
 75
     1
176
     1
175
     1
176
     1
 42
1.0
176
     1
 92
        0
176
     1
 66
   257
176
     1
 43
1.0
176
     1
 76
     1
176
     1
 77
     6
176
     1
 78
     2
176
     1
 67
     7
176
     1
 79
     3
176
     1
170
     0
176
     1
171
     0
176
     1
290
     0
176
     1
 93
        1
176
     1
 44
0.0
176
     1
173
     0
176
     1
1001
ACAD
1000
AcDbSavedByObjectVersion
1070
     0
  0
VISUALSTYLE
  5
3C
102
{ACAD_XDICTIONARY
360
179
102
}
102
{ACAD_REACTORS
330
29
102
}
330
29
100
AcDbVisualStyle
  2
X-Ray
 70
    25
177
     2
291
     0
 71
     2
176
     1
 72
     2
176
     1
 73
     1
176
     1
 90
        1
176
     1
 40
0.5
176
     1
 41
30.0
176
     1
 63
     7
421
 16777215
176
     1
 74
     1
176
     1
 91
        0
176
     1
 64
     7
176
     1
 65
   257
176
     1
 75
     1
176
     1
175
     1
176
     1
 42
1.0
176
     1
 92
        8
176
     1
 66
     7
176
     1
 43
1.0
176
     1
 76
     1
176
     1
 77
     6
176
     1
 78
     2
176
     1
 67
     7
176
     1
 79
     3
176
     1
170
     0
176
     1
171
     0
176
     1
290
     0
176
     1
 93
       13
176
     1
 44
0.0
176
     1
173
     0
176
     1
1001
ACAD
1000
AcDbSavedByObjectVersion
1070
     0
  0
DICTIONARYVAR
  5
150
102
{ACAD_REACTORS
330
14B
102
}
330
14B
100
DictionaryVariables
280
     0
  1
1:1
  0
DICTIONARYVAR
  5
14D
102
{ACAD_REACTORS
330
14B
102
}
330
14B
100
DictionaryVariables
280
     0
  1
STANDARD
  0
DICTIONARYVAR
  5
14C
102
{ACAD_REACTORS
330
14B
102
}
330
14B
100
DictionaryVariables
280
     0
  1
STANDARD
  0
DICTIONARYVAR
  5
14E
102
{ACAD_REACTORS
330
14B
102
}
330
14B
100
DictionaryVariables
280
     0
  1
Imperial24
  0
DICTIONARYVAR
  5
14F
102
{ACAD_REACTORS
330
14B
102
}
330
14B
100
DictionaryVariables
280
     0
  1
Imperial24
  0
DICTIONARY
  5
189
330
6B
100
AcDbDictionary
280
     1
281
     1
  3
ACAD_XREC_ROUNDTRIP
360
18A
  0
DICTIONARY
  5
1A
330
19
100
AcDbDictionary
280
     1
281
     1
  3
BUMPTILE
360
1C
  3
DIFFUSETILE
360
1B
  3
OPACITYTILE
360
1F
  3
REFLECTIONTILE
360
1E
  3
REFRACTIONTILE
360
20
  3
SPECULARTILE
360
1D
  0
DICTIONARY
  5
12
330
11
100
AcDbDictionary
280
     1
281
     1
  3
BUMPTILE
360
14
  3
DIFFUSETILE
360
13
  3
OPACITYTILE
360
17
  3
REFLECTIONTILE
360
16
  3
REFRACTIONTILE
360
18
  3
SPECULARTILE
360
15
  0
DICTIONARY
  5
22
330
21
100
AcDbDictionary
280
     1
281
     1
  3
BUMPTILE
360
24
  3
DIFFUSETILE
360
23
  3
OPACITYTILE
360
27
  3
REFLECTIONTILE
360
26
  3
REFRACTIONTILE
360
28
  3
SPECULARTILE
360
25
  0
DICTIONARY
  5
185
330
67
100
AcDbDictionary
280
     1
281
     1
  3
ACAD_XREC_ROUNDTRIP
360
186
  0
DICTIONARY
  5
187
330
69
100
AcDbDictionary
280
     1
281
     1
  3
ACAD_XREC_ROUNDTRIP
360
188
  0
DICTIONARY
  5
151
330
65
100
AcDbDictionary
280
     1
281
     1
  3
ACAD_ROUNDTRIP_2008_TABLESTYLE_CELLSTYLEMAP
360
152
  0
DICTIONARY
  5
15F
330
2F
100
AcDbDictionary
280
     1
281
     1
  3
ACAD_XREC_ROUNDTRIP
360
160
  0
DICTIONARY
  5
15D
330
2E
100
AcDbDictionary
280
     1
281
     1
  3
ACAD_XREC_ROUNDTRIP
360
15E
  0
DICTIONARY
  5
16B
330
35
100
AcDbDictionary
280
     1
281
     1
  3
ACAD_XREC_ROUNDTRIP
360
16C
  0
DICTIONARY
  5
173
330
39
100
AcDbDictionary
280
     1
281
     1
  3
ACAD_XREC_ROUNDTRIP
360
174
  0
DICTIONARY
  5
165
330
32
100
AcDbDictionary
280
     1
281
     1
  3
ACAD_XREC_ROUNDTRIP
360
166
  0
DICTIONARY
  5
169
330
34
100
AcDbDictionary
280
     1
281
     1
  3
ACAD_XREC_ROUNDTRIP
360
16A
  0
DICTIONARY
  5
183
330
41
100
AcDbDictionary
280
     1
281
     1
  3
ACAD_XREC_ROUNDTRIP
360
184
  0
DICTIONARY
  5
171
330
38
100
AcDbDictionary
280
     1
281
     1
  3
ACAD_XREC_ROUNDTRIP
360
172
  0
DICTIONARY
  5
155
330
2A
100
AcDbDictionary
280
     1
281
     1
  3
ACAD_XREC_ROUNDTRIP
360
156
  0
DICTIONARY
  5
157
330
2B
100
AcDbDictionary
280
     1
281
     1
  3
ACAD_XREC_ROUNDTRIP
360
158
  0
DICTIONARY
  5
159
330
2C
100
AcDbDictionary
280
     1
281
     1
  3
ACAD_XREC_ROUNDTRIP
360
15A
  0
DICTIONARY
  5
15B
330
2D
100
AcDbDictionary
280
     1
281
     1
  3
ACAD_XREC_ROUNDTRIP
360
15C
  0
DICTIONARY
  5
163
330
31
100
AcDbDictionary
280
     1
281
     1
  3
ACAD_XREC_ROUNDTRIP
360
164
  0
DICTIONARY
  5
17F
330
3F
100
AcDbDictionary
280
     1
281
     1
  3
ACAD_XREC_ROUNDTRIP
360
180
  0
DICTIONARY
  5
16F
330
37
100
AcDbDictionary
280
     1
281
     1
  3
ACAD_XREC_ROUNDTRIP
360
170
  0
DICTIONARY
  5
181
330
40
100
AcDbDictionary
280
     1
281
     1
  3
ACAD_XREC_ROUNDTRIP
360
182
  0
DICTIONARY
  5
167
330
33
100
AcDbDictionary
280
     1
281
     1
  3
ACAD_XREC_ROUNDTRIP
360
168
  0
DICTIONARY
  5
17D
330
3E
100
AcDbDictionary
280
     1
281
     1
  3
ACAD_XREC_ROUNDTRIP
360
17E
  0
DICTIONARY
  5
17B
330
3D
100
AcDbDictionary
280
     1
281
     1
  3
ACAD_XREC_ROUNDTRIP
360
17C
  0
DICTIONARY
  5
175
330
3A
100
AcDbDictionary
280
     1
281
     1
  3
ACAD_XREC_ROUNDTRIP
360
176
  0
DICTIONARY
  5
177
330
3B
100
AcDbDictionary
280
     1
281
     1
  3
ACAD_XREC_ROUNDTRIP
360
178
  0
DICTIONARY
  5
16D
330
36
100
AcDbDictionary
280
     1
281
     1
  3
ACAD_XREC_ROUNDTRIP
360
16E
  0
DICTIONARY
  5
161
330
30
100
AcDbDictionary
280
     1
281
     1
  3
ACAD_XREC_ROUNDTRIP
360
162
  0
DICTIONARY
  5
179
330
3C
100
AcDbDictionary
280
     1
281
     1
  3
ACAD_XREC_ROUNDTRIP
360
17A
  0
XRECORD
  5
18A
102
{ACAD_REACTORS
330
189
102
}
330
189
100
AcDbXrecord
280
     1
102
DISPLAYNAME
  1
Imperial24
102
FLAGS
 90
        0
  0
XRECORD
  5
1C
102
{ACAD_REACTORS
330
1A
102
}
330
1A
100
AcDbXrecord
280
     1
270
     1
271
     1
  0
XRECORD
  5
1B
102
{ACAD_REACTORS
330
1A
102
}
330
1A
100
AcDbXrecord
280
     1
270
     1
271
     1
  0
XRECORD
  5
1F
102
{ACAD_REACTORS
330
1A
102
}
330
1A
100
AcDbXrecord
280
     1
270
     1
271
     1
  0
XRECORD
  5
1E
102
{ACAD_REACTORS
330
1A
102
}
330
1A
100
AcDbXrecord
280
     1
270
     1
271
     1
  0
XRECORD
  5
20
102
{ACAD_REACTORS
330
1A
102
}
330
1A
100
AcDbXrecord
280
     1
270
     1
271
     1
  0
XRECORD
  5
1D
102
{ACAD_REACTORS
330
1A
102
}
330
1A
100
AcDbXrecord
280
     1
270
     1
271
     1
  0
XRECORD
  5
14
102
{ACAD_REACTORS
330
12
102
}
330
12
100
AcDbXrecord
280
     1
270
     1
271
     1
  0
XRECORD
  5
13
102
{ACAD_REACTORS
330
12
102
}
330
12
100
AcDbXrecord
280
     1
270
     1
271
     1
  0
XRECORD
  5
17
102
{ACAD_REACTORS
330
12
102
}
330
12
100
AcDbXrecord
280
     1
270
     1
271
     1
  0
XRECORD
  5
16
102
{ACAD_REACTORS
330
12
102
}
330
12
100
AcDbXrecord
280
     1
270
     1
271
     1
  0
XRECORD
  5
18
102
{ACAD_REACTORS
330
12
102
}
330
12
100
AcDbXrecord
280
     1
270
     1
271
     1
  0
XRECORD
  5
15
102
{ACAD_REACTORS
330
12
102
}
330
12
100
AcDbXrecord
280
     1
270
     1
271
     1
  0
XRECORD
  5
24
102
{ACAD_REACTORS
330
22
102
}
330
22
100
AcDbXrecord
280
     1
270
     1
271
     1
  0
XRECORD
  5
23
102
{ACAD_REACTORS
330
22
102
}
330
22
100
AcDbXrecord
280
     1
270
     1
271
     1
  0
XRECORD
  5
27
102
{ACAD_REACTORS
330
22
102
}
330
22
100
AcDbXrecord
280
     1
270
     1
271
     1
  0
XRECORD
  5
26
102
{ACAD_REACTORS
330
22
102
}
330
22
100
AcDbXrecord
280
     1
270
     1
271
     1
  0
XRECORD
  5
28
102
{ACAD_REACTORS
330
22
102
}
330
22
100
AcDbXrecord
280
     1
270
     1
271
     1
  0
XRECORD
  5
25
102
{ACAD_REACTORS
330
22
102
}
330
22
100
AcDbXrecord
280
     1
270
     1
271
     1
  0
XRECORD
  5
186
102
{ACAD_REACTORS
330
185
102
}
330
185
100
AcDbXrecord
280
     1
102
ACAD_ROUNDTRIP_2012_MLEADER_STYLE
298
     1
  0
XRECORD
  5
188
102
{ACAD_REACTORS
330
187
102
}
330
187
100
AcDbXrecord
280
     1
102
DISPLAYNAME
  1
Imperial24
102
FLAGS
 90
        0
  0
CELLSTYLEMAP
  5
152
102
{ACAD_REACTORS
330
151
102
}
330
151
100
AcDbCellStyleMap
 90
        3
300
CELLSTYLE
  1
TABLEFORMAT_BEGIN
 90
        5
170
     1
 91
        0
 92
    32768
 62
   257
 93
        1
300
CONTENTFORMAT
  1
CONTENTFORMAT_BEGIN
 90
        0
 91
        0
 92
      512
 93
        0
300

 40
0.0
140
1.0
 94
        5
 62
     0
340
55
144
0.25
309
CONTENTFORMAT_END
171
     0
 94
        0
309
TABLEFORMAT_END
  1
CELLSTYLE_BEGIN
 90
        1
 91
        1
300
_TITLE
309
CELLSTYLE_END
300
CELLSTYLE
  1
TABLEFORMAT_BEGIN
 90
        5
170
     1
 91
        0
 92
        0
 62
   257
 93
        1
300
CONTENTFORMAT
  1
CONTENTFORMAT_BEGIN
 90
        0
 91
        0
 92
      512
 93
        0
300

 40
0.0
140
1.0
 94
        5
 62
     0
340
55
144
0.18
309
CONTENTFORMAT_END
171
     0
 94
        0
309
TABLEFORMAT_END
  1
CELLSTYLE_BEGIN
 90
        2
 91
        1
300
_HEADER
309
CELLSTYLE_END
300
CELLSTYLE
  1
TABLEFORMAT_BEGIN
 90
        5
170
     1
 91
        0
 92
        0
 62
   257
 93
        1
300
CONTENTFORMAT
  1
CONTENTFORMAT_BEGIN
 90
        0
 91
        0
 92
      512
 93
        0
300

 40
0.0
140
1.0
 94
        2
 62
     0
340
55
144
0.18
309
CONTENTFORMAT_END
171
     0
 94
        0
309
TABLEFORMAT_END
  1
CELLSTYLE_BEGIN
 90
        3
 91
        2
300
_DATA
309
CELLSTYLE_END
  0
XRECORD
  5
160
102
{ACAD_REACTORS
330
15F
102
}
330
15F
100
AcDbXrecord
280
     1
102
RTVSPost2010Prop28
280
     1
102
RTVSPost2010PropOp28
 70
     1
102
RTVSPost2010Prop29
280
     1
102
RTVSPost2010PropOp29
 70
     1
102
RTVSPost2010Prop30
280
     0
102
RTVSPost2010PropOp30
 70
     1
102
RTVSPost2010Prop31
280
     0
102
RTVSPost2010PropOp31
 70
     1
102
RTVSPost2010Prop32
280
     0
102
RTVSPost2010PropOp32
 70
     1
102
RTVSPost2010Prop33
280
     0
102
RTVSPost2010PropOp33
 70
     1
102
RTVSPost2010Prop34
280
     0
102
RTVSPost2010PropOp34
 70
     1
102
RTVSPost2010Prop35
280
     0
102
RTVSPost2010PropOp35
 70
     1
102
RTVSPost2010Prop36
280
     0
102
RTVSPost2010PropOp36
 70
     1
102
RTVSPost2010Prop37
 90
       50
102
RTVSPost2010PropOp37
 70
     1
102
RTVSPost2010Prop38
140
0.0
102
RTVSPost2010PropOp38
 70
     1
102
RTVSPost2010Prop39
140
1.0
102
RTVSPost2010PropOp39
 70
     1
102
RTVSPost2010Prop40
 90
        0
102
RTVSPost2010PropOp40
 70
     1
102
RTVSPost2010Prop41ColorIndex
 90
       18
102
RTVSPost2010Prop41ColorRGB
 90
        0
102
RTVSPost2010PropOp41
 70
     1
102
RTVSPost2010Prop42
 90
       50
102
RTVSPost2010PropOp42
 70
     1
102
RTVSPost2010Prop43
 90
        3
102
RTVSPost2010PropOp43
 70
     1
102
RTVSPost2010Prop44ColorIndex
 90
        5
102
RTVSPost2010Prop44ColorRGB
 90
      255
102
RTVSPost2010PropOp44
 70
     1
102
RTVSPost2010Prop45
280
     0
102
RTVSPost2010PropOp45
 70
     1
102
RTVSPost2010Prop46
 90
       50
102
RTVSPost2010PropOp46
 70
     1
102
RTVSPost2010Prop47
 90
       50
102
RTVSPost2010PropOp47
 70
     1
102
RTVSPost2010Prop48
 90
       50
102
RTVSPost2010PropOp48
 70
     1
102
RTVSPost2010Prop49
280
     0
102
RTVSPost2010PropOp49
 70
     1
102
RTVSPost2010Prop50
 90
       50
102
RTVSPost2010PropOp50
 70
     1
102
RTVSPost2010Prop51ColorIndex
 90
      256
102
RTVSPost2010Prop51ColorRGB
 90
-16777216
102
RTVSPost2010PropOp51
 70
     0
102
RTVSPost2010Prop52
140
1.0
102
RTVSPost2010PropOp52
 70
     0
102
RTVSPost2010Prop53
 90
        2
102
RTVSPost2010PropOp53
 70
     1
102
RTVSPost2010Prop54
  1
strokes_ogs.tif
102
RTVSPost2010PropOp54
 70
     1
102
RTVSPost2010Prop55
280
     0
102
RTVSPost2010PropOp55
 70
     1
102
RTVSPost2010Prop56
140
1.0
102
RTVSPost2010PropOp56
 70
     1
102
RTVSPost2010Prop57
140
1.0
102
RTVSPost2010PropOp57
 70
     1
  0
XRECORD
  5
15E
102
{ACAD_REACTORS
330
15D
102
}
330
15D
100
AcDbXrecord
280
     1
102
RTVSPost2010Prop28
280
     0
102
RTVSPost2010PropOp28
 70
     1
102
RTVSPost2010Prop29
280
     1
102
RTVSPost2010PropOp29
 70
     1
102
RTVSPost2010Prop30
280
     1
102
RTVSPost2010PropOp30
 70
     1
102
RTVSPost2010Prop31
280
     0
102
RTVSPost2010PropOp31
 70
     1
102
RTVSPost2010Prop32
280
     0
102
RTVSPost2010PropOp32
 70
     1
102
RTVSPost2010Prop33
280
     0
102
RTVSPost2010PropOp33
 70
     1
102
RTVSPost2010Prop34
280
     0
102
RTVSPost2010PropOp34
 70
     1
102
RTVSPost2010Prop35
280
     0
102
RTVSPost2010PropOp35
 70
     1
102
RTVSPost2010Prop36
280
     0
102
RTVSPost2010PropOp36
 70
     1
102
RTVSPost2010Prop37
 90
       50
102
RTVSPost2010PropOp37
 70
     1
102
RTVSPost2010Prop38
140
0.0
102
RTVSPost2010PropOp38
 70
     1
102
RTVSPost2010Prop39
140
1.0
102
RTVSPost2010PropOp39
 70
     1
102
RTVSPost2010Prop40
 90
        0
102
RTVSPost2010PropOp40
 70
     1
102
RTVSPost2010Prop41ColorIndex
 90
       18
102
RTVSPost2010Prop41ColorRGB
 90
        0
102
RTVSPost2010PropOp41
 70
     1
102
RTVSPost2010Prop42
 90
       50
102
RTVSPost2010PropOp42
 70
     1
102
RTVSPost2010Prop43
 90
        3
102
RTVSPost2010PropOp43
 70
     1
102
RTVSPost2010Prop44ColorIndex
 90
        5
102
RTVSPost2010Prop44ColorRGB
 90
      255
102
RTVSPost2010PropOp44
 70
     1
102
RTVSPost2010Prop45
280
     0
102
RTVSPost2010PropOp45
 70
     1
102
RTVSPost2010Prop46
 90
       50
102
RTVSPost2010PropOp46
 70
     1
102
RTVSPost2010Prop47
 90
       50
102
RTVSPost2010PropOp47
 70
     1
102
RTVSPost2010Prop48
 90
       50
102
RTVSPost2010PropOp48
 70
     1
102
RTVSPost2010Prop49
280
     0
102
RTVSPost2010PropOp49
 70
     1
102
RTVSPost2010Prop50
 90
       50
102
RTVSPost2010PropOp50
 70
     1
102
RTVSPost2010Prop51ColorIndex
 90
      256
102
RTVSPost2010Prop51ColorRGB
 90
-16777216
102
RTVSPost2010PropOp51
 70
     0
102
RTVSPost2010Prop52
140
1.0
102
RTVSPost2010PropOp52
 70
     0
102
RTVSPost2010Prop53
 90
        2
102
RTVSPost2010PropOp53
 70
     1
102
RTVSPost2010Prop54
  1
strokes_ogs.tif
102
RTVSPost2010PropOp54
 70
     1
102
RTVSPost2010Prop55
280
     0
102
RTVSPost2010PropOp55
 70
     1
102
RTVSPost2010Prop56
140
1.0
102
RTVSPost2010PropOp56
 70
     1
102
RTVSPost2010Prop57
140
1.0
102
RTVSPost2010PropOp57
 70
     1
  0
XRECORD
  5
16C
102
{ACAD_REACTORS
330
16B
102
}
330
16B
100
AcDbXrecord
280
     1
102
RTVSPost2010Prop28
280
     0
102
RTVSPost2010PropOp28
 70
     1
102
RTVSPost2010Prop29
280
     1
102
RTVSPost2010PropOp29
 70
     1
102
RTVSPost2010Prop30
280
     1
102
RTVSPost2010PropOp30
 70
     1
102
RTVSPost2010Prop31
280
     0
102
RTVSPost2010PropOp31
 70
     1
102
RTVSPost2010Prop32
280
     0
102
RTVSPost2010PropOp32
 70
     1
102
RTVSPost2010Prop33
280
     0
102
RTVSPost2010PropOp33
 70
     1
102
RTVSPost2010Prop34
280
     0
102
RTVSPost2010PropOp34
 70
     1
102
RTVSPost2010Prop35
280
     0
102
RTVSPost2010PropOp35
 70
     1
102
RTVSPost2010Prop36
280
     0
102
RTVSPost2010PropOp36
 70
     1
102
RTVSPost2010Prop37
 90
       50
102
RTVSPost2010PropOp37
 70
     1
102
RTVSPost2010Prop38
140
0.0
102
RTVSPost2010PropOp38
 70
     1
102
RTVSPost2010Prop39
140
1.0
102
RTVSPost2010PropOp39
 70
     1
102
RTVSPost2010Prop40
 90
        0
102
RTVSPost2010PropOp40
 70
     1
102
RTVSPost2010Prop41ColorIndex
 90
       18
102
RTVSPost2010Prop41ColorRGB
 90
        0
102
RTVSPost2010PropOp41
 70
     1
102
RTVSPost2010Prop42
 90
       50
102
RTVSPost2010PropOp42
 70
     1
102
RTVSPost2010Prop43
 90
        3
102
RTVSPost2010PropOp43
 70
     1
102
RTVSPost2010Prop44ColorIndex
 90
        5
102
RTVSPost2010Prop44ColorRGB
 90
      255
102
RTVSPost2010PropOp44
 70
     1
102
RTVSPost2010Prop45
280
     0
102
RTVSPost2010PropOp45
 70
     1
102
RTVSPost2010Prop46
 90
       50
102
RTVSPost2010PropOp46
 70
     1
102
RTVSPost2010Prop47
 90
       50
102
RTVSPost2010PropOp47
 70
     1
102
RTVSPost2010Prop48
 90
       50
102
RTVSPost2010PropOp48
 70
     1
102
RTVSPost2010Prop49
280
     0
102
RTVSPost2010PropOp49
 70
     1
102
RTVSPost2010Prop50
 90
       50
102
RTVSPost2010PropOp50
 70
     1
102
RTVSPost2010Prop51ColorIndex
 90
      256
102
RTVSPost2010Prop51ColorRGB
 90
-16777216
102
RTVSPost2010PropOp51
 70
     0
102
RTVSPost2010Prop52
140
1.0
102
RTVSPost2010PropOp52
 70
     0
102
RTVSPost2010Prop53
 90
        2
102
RTVSPost2010PropOp53
 70
     1
102
RTVSPost2010Prop54
  1
strokes_ogs.tif
102
RTVSPost2010PropOp54
 70
     1
102
RTVSPost2010Prop55
280
     0
102
RTVSPost2010PropOp55
 70
     1
102
RTVSPost2010Prop56
140
1.0
102
RTVSPost2010PropOp56
 70
     1
102
RTVSPost2010Prop57
140
1.0
102
RTVSPost2010PropOp57
 70
     1
  0
XRECORD
  5
174
102
{ACAD_REACTORS
330
173
102
}
330
173
100
AcDbXrecord
280
     1
102
RTVSPost2010Prop28
280
     0
102
RTVSPost2010PropOp28
 70
     1
102
RTVSPost2010Prop29
280
     1
102
RTVSPost2010PropOp29
 70
     1
102
RTVSPost2010Prop30
280
     1
102
RTVSPost2010PropOp30
 70
     1
102
RTVSPost2010Prop31
280
     0
102
RTVSPost2010PropOp31
 70
     1
102
RTVSPost2010Prop32
280
     0
102
RTVSPost2010PropOp32
 70
     1
102
RTVSPost2010Prop33
280
     0
102
RTVSPost2010PropOp33
 70
     1
102
RTVSPost2010Prop34
280
     0
102
RTVSPost2010PropOp34
 70
     1
102
RTVSPost2010Prop35
280
     0
102
RTVSPost2010PropOp35
 70
     1
102
RTVSPost2010Prop36
280
     0
102
RTVSPost2010PropOp36
 70
     1
102
RTVSPost2010Prop37
 90
       50
102
RTVSPost2010PropOp37
 70
     1
102
RTVSPost2010Prop38
140
0.0
102
RTVSPost2010PropOp38
 70
     1
102
RTVSPost2010Prop39
140
1.0
102
RTVSPost2010PropOp39
 70
     1
102
RTVSPost2010Prop40
 90
        0
102
RTVSPost2010PropOp40
 70
     1
102
RTVSPost2010Prop41ColorIndex
 90
       18
102
RTVSPost2010Prop41ColorRGB
 90
        0
102
RTVSPost2010PropOp41
 70
     1
102
RTVSPost2010Prop42
 90
       50
102
RTVSPost2010PropOp42
 70
     1
102
RTVSPost2010Prop43
 90
        3
102
RTVSPost2010PropOp43
 70
     1
102
RTVSPost2010Prop44ColorIndex
 90
        5
102
RTVSPost2010Prop44ColorRGB
 90
      255
102
RTVSPost2010PropOp44
 70
     1
102
RTVSPost2010Prop45
280
     0
102
RTVSPost2010PropOp45
 70
     1
102
RTVSPost2010Prop46
 90
       50
102
RTVSPost2010PropOp46
 70
     1
102
RTVSPost2010Prop47
 90
       50
102
RTVSPost2010PropOp47
 70
     1
102
RTVSPost2010Prop48
 90
       50
102
RTVSPost2010PropOp48
 70
     1
102
RTVSPost2010Prop49
280
     0
102
RTVSPost2010PropOp49
 70
     1
102
RTVSPost2010Prop50
 90
       50
102
RTVSPost2010PropOp50
 70
     1
102
RTVSPost2010Prop51ColorIndex
 90
      256
102
RTVSPost2010Prop51ColorRGB
 90
-16777216
102
RTVSPost2010PropOp51
 70
     0
102
RTVSPost2010Prop52
140
1.0
102
RTVSPost2010PropOp52
 70
     0
102
RTVSPost2010Prop53
 90
        2
102
RTVSPost2010PropOp53
 70
     1
102
RTVSPost2010Prop54
  1
strokes_ogs.tif
102
RTVSPost2010PropOp54
 70
     1
102
RTVSPost2010Prop55
280
     0
102
RTVSPost2010PropOp55
 70
     1
102
RTVSPost2010Prop56
140
1.0
102
RTVSPost2010PropOp56
 70
     1
102
RTVSPost2010Prop57
140
1.0
102
RTVSPost2010PropOp57
 70
     1
  0
XRECORD
  5
166
102
{ACAD_REACTORS
330
165
102
}
330
165
100
AcDbXrecord
280
     1
102
RTVSPost2010Prop28
280
     0
102
RTVSPost2010PropOp28
 70
     1
102
RTVSPost2010Prop29
280
     1
102
RTVSPost2010PropOp29
 70
     1
102
RTVSPost2010Prop30
280
     1
102
RTVSPost2010PropOp30
 70
     1
102
RTVSPost2010Prop31
280
     0
102
RTVSPost2010PropOp31
 70
     1
102
RTVSPost2010Prop32
280
     0
102
RTVSPost2010PropOp32
 70
     1
102
RTVSPost2010Prop33
280
     0
102
RTVSPost2010PropOp33
 70
     1
102
RTVSPost2010Prop34
280
     0
102
RTVSPost2010PropOp34
 70
     1
102
RTVSPost2010Prop35
280
     0
102
RTVSPost2010PropOp35
 70
     1
102
RTVSPost2010Prop36
280
     0
102
RTVSPost2010PropOp36
 70
     1
102
RTVSPost2010Prop37
 90
       50
102
RTVSPost2010PropOp37
 70
     1
102
RTVSPost2010Prop38
140
0.0
102
RTVSPost2010PropOp38
 70
     1
102
RTVSPost2010Prop39
140
1.0
102
RTVSPost2010PropOp39
 70
     1
102
RTVSPost2010Prop40
 90
        0
102
RTVSPost2010PropOp40
 70
     1
102
RTVSPost2010Prop41ColorIndex
 90
       18
102
RTVSPost2010Prop41ColorRGB
 90
        0
102
RTVSPost2010PropOp41
 70
     1
102
RTVSPost2010Prop42
 90
       50
102
RTVSPost2010PropOp42
 70
     1
102
RTVSPost2010Prop43
 90
        3
102
RTVSPost2010PropOp43
 70
     1
102
RTVSPost2010Prop44ColorIndex
 90
        5
102
RTVSPost2010Prop44ColorRGB
 90
      255
102
RTVSPost2010PropOp44
 70
     1
102
RTVSPost2010Prop45
280
     0
102
RTVSPost2010PropOp45
 70
     1
102
RTVSPost2010Prop46
 90
       50
102
RTVSPost2010PropOp46
 70
     1
102
RTVSPost2010Prop47
 90
       50
102
RTVSPost2010PropOp47
 70
     1
102
RTVSPost2010Prop48
 90
       50
102
RTVSPost2010PropOp48
 70
     1
102
RTVSPost2010Prop49
280
     0
102
RTVSPost2010PropOp49
 70
     1
102
RTVSPost2010Prop50
 90
       50
102
RTVSPost2010PropOp50
 70
     1
102
RTVSPost2010Prop51ColorIndex
 90
      256
102
RTVSPost2010Prop51ColorRGB
 90
-16777216
102
RTVSPost2010PropOp51
 70
     0
102
RTVSPost2010Prop52
140
1.0
102
RTVSPost2010PropOp52
 70
     0
102
RTVSPost2010Prop53
 90
        2
102
RTVSPost2010PropOp53
 70
     1
102
RTVSPost2010Prop54
  1
strokes_ogs.tif
102
RTVSPost2010PropOp54
 70
     1
102
RTVSPost2010Prop55
280
     0
102
RTVSPost2010PropOp55
 70
     1
102
RTVSPost2010Prop56
140
1.0
102
RTVSPost2010PropOp56
 70
     1
102
RTVSPost2010Prop57
140
1.0
102
RTVSPost2010PropOp57
 70
     1
  0
XRECORD
  5
16A
102
{ACAD_REACTORS
330
169
102
}
330
169
100
AcDbXrecord
280
     1
102
RTVSPost2010Prop28
280
     0
102
RTVSPost2010PropOp28
 70
     1
102
RTVSPost2010Prop29
280
     1
102
RTVSPost2010PropOp29
 70
     1
102
RTVSPost2010Prop30
280
     1
102
RTVSPost2010PropOp30
 70
     1
102
RTVSPost2010Prop31
280
     0
102
RTVSPost2010PropOp31
 70
     1
102
RTVSPost2010Prop32
280
     0
102
RTVSPost2010PropOp32
 70
     1
102
RTVSPost2010Prop33
280
     0
102
RTVSPost2010PropOp33
 70
     1
102
RTVSPost2010Prop34
280
     0
102
RTVSPost2010PropOp34
 70
     1
102
RTVSPost2010Prop35
280
     0
102
RTVSPost2010PropOp35
 70
     1
102
RTVSPost2010Prop36
280
     0
102
RTVSPost2010PropOp36
 70
     1
102
RTVSPost2010Prop37
 90
       50
102
RTVSPost2010PropOp37
 70
     1
102
RTVSPost2010Prop38
140
0.0
102
RTVSPost2010PropOp38
 70
     1
102
RTVSPost2010Prop39
140
1.0
102
RTVSPost2010PropOp39
 70
     1
102
RTVSPost2010Prop40
 90
        0
102
RTVSPost2010PropOp40
 70
     1
102
RTVSPost2010Prop41ColorIndex
 90
       18
102
RTVSPost2010Prop41ColorRGB
 90
        0
102
RTVSPost2010PropOp41
 70
     1
102
RTVSPost2010Prop42
 90
       50
102
RTVSPost2010PropOp42
 70
     1
102
RTVSPost2010Prop43
 90
        3
102
RTVSPost2010PropOp43
 70
     1
102
RTVSPost2010Prop44ColorIndex
 90
        5
102
RTVSPost2010Prop44ColorRGB
 90
      255
102
RTVSPost2010PropOp44
 70
     1
102
RTVSPost2010Prop45
280
     0
102
RTVSPost2010PropOp45
 70
     1
102
RTVSPost2010Prop46
 90
       50
102
RTVSPost2010PropOp46
 70
     1
102
RTVSPost2010Prop47
 90
       50
102
RTVSPost2010PropOp47
 70
     1
102
RTVSPost2010Prop48
 90
       50
102
RTVSPost2010PropOp48
 70
     1
102
RTVSPost2010Prop49
280
     0
102
RTVSPost2010PropOp49
 70
     1
102
RTVSPost2010Prop50
 90
       50
102
RTVSPost2010PropOp50
 70
     1
102
RTVSPost2010Prop51ColorIndex
 90
      256
102
RTVSPost2010Prop51ColorRGB
 90
-16777216
102
RTVSPost2010PropOp51
 70
     0
102
RTVSPost2010Prop52
140
1.0
102
RTVSPost2010PropOp52
 70
     0
102
RTVSPost2010Prop53
 90
        2
102
RTVSPost2010PropOp53
 70
     1
102
RTVSPost2010Prop54
  1
strokes_ogs.tif
102
RTVSPost2010PropOp54
 70
     1
102
RTVSPost2010Prop55
280
     0
102
RTVSPost2010PropOp55
 70
     1
102
RTVSPost2010Prop56
140
1.0
102
RTVSPost2010PropOp56
 70
     1
102
RTVSPost2010Prop57
140
1.0
102
RTVSPost2010PropOp57
 70
     1
  0
XRECORD
  5
184
102
{ACAD_REACTORS
330
183
102
}
330
183
100
AcDbXrecord
280
     1
102
RTVSPost2010Prop28
280
     0
102
RTVSPost2010PropOp28
 70
     0
102
RTVSPost2010Prop29
280
     1
102
RTVSPost2010PropOp29
 70
     0
102
RTVSPost2010Prop30
280
     1
102
RTVSPost2010PropOp30
 70
     0
102
RTVSPost2010Prop31
280
     0
102
RTVSPost2010PropOp31
 70
     0
102
RTVSPost2010Prop32
280
     0
102
RTVSPost2010PropOp32
 70
     0
102
RTVSPost2010Prop33
280
     0
102
RTVSPost2010PropOp33
 70
     0
102
RTVSPost2010Prop34
280
     0
102
RTVSPost2010PropOp34
 70
     0
102
RTVSPost2010Prop35
280
     0
102
RTVSPost2010PropOp35
 70
     0
102
RTVSPost2010Prop36
280
     0
102
RTVSPost2010PropOp36
 70
     0
102
RTVSPost2010Prop37
 90
       50
102
RTVSPost2010PropOp37
 70
     0
102
RTVSPost2010Prop38
140
0.0
102
RTVSPost2010PropOp38
 70
     0
102
RTVSPost2010Prop39
140
1.0
102
RTVSPost2010PropOp39
 70
     0
102
RTVSPost2010Prop40
 90
        0
102
RTVSPost2010PropOp40
 70
     0
102
RTVSPost2010Prop41ColorIndex
 90
       18
102
RTVSPost2010Prop41ColorRGB
 90
        0
102
RTVSPost2010PropOp41
 70
     0
102
RTVSPost2010Prop42
 90
       50
102
RTVSPost2010PropOp42
 70
     0
102
RTVSPost2010Prop43
 90
        3
102
RTVSPost2010PropOp43
 70
     0
102
RTVSPost2010Prop44ColorIndex
 90
        5
102
RTVSPost2010Prop44ColorRGB
 90
      255
102
RTVSPost2010PropOp44
 70
     0
102
RTVSPost2010Prop45
280
     0
102
RTVSPost2010PropOp45
 70
     0
102
RTVSPost2010Prop46
 90
       50
102
RTVSPost2010PropOp46
 70
     0
102
RTVSPost2010Prop47
 90
       50
102
RTVSPost2010PropOp47
 70
     0
102
RTVSPost2010Prop48
 90
       50
102
RTVSPost2010PropOp48
 70
     0
102
RTVSPost2010Prop49
280
     0
102
RTVSPost2010PropOp49
 70
     0
102
RTVSPost2010Prop50
 90
       50
102
RTVSPost2010PropOp50
 70
     0
102
RTVSPost2010Prop51ColorIndex
 90
      256
102
RTVSPost2010Prop51ColorRGB
 90
-16777216
102
RTVSPost2010PropOp51
 70
     0
102
RTVSPost2010Prop52
140
1.0
102
RTVSPost2010PropOp52
 70
     0
102
RTVSPost2010Prop53
 90
        2
102
RTVSPost2010PropOp53
 70
     0
102
RTVSPost2010Prop54
  1
strokes_ogs.tif
102
RTVSPost2010PropOp54
 70
     0
102
RTVSPost2010Prop55
280
     0
102
RTVSPost2010PropOp55
 70
     0
102
RTVSPost2010Prop56
140
1.0
102
RTVSPost2010PropOp56
 70
     0
102
RTVSPost2010Prop57
140
1.0
102
RTVSPost2010PropOp57
 70
     0
  0
XRECORD
  5
172
102
{ACAD_REACTORS
330
171
102
}
330
171
100
AcDbXrecord
280
     1
102
RTVSPost2010Prop28
280
     0
102
RTVSPost2010PropOp28
 70
     1
102
RTVSPost2010Prop29
280
     1
102
RTVSPost2010PropOp29
 70
     1
102
RTVSPost2010Prop30
280
     1
102
RTVSPost2010PropOp30
 70
     1
102
RTVSPost2010Prop31
280
     0
102
RTVSPost2010PropOp31
 70
     1
102
RTVSPost2010Prop32
280
     0
102
RTVSPost2010PropOp32
 70
     1
102
RTVSPost2010Prop33
280
     0
102
RTVSPost2010PropOp33
 70
     1
102
RTVSPost2010Prop34
280
     0
102
RTVSPost2010PropOp34
 70
     1
102
RTVSPost2010Prop35
280
     0
102
RTVSPost2010PropOp35
 70
     1
102
RTVSPost2010Prop36
280
     0
102
RTVSPost2010PropOp36
 70
     1
102
RTVSPost2010Prop37
 90
       50
102
RTVSPost2010PropOp37
 70
     1
102
RTVSPost2010Prop38
140
0.0
102
RTVSPost2010PropOp38
 70
     1
102
RTVSPost2010Prop39
140
1.0
102
RTVSPost2010PropOp39
 70
     1
102
RTVSPost2010Prop40
 90
        0
102
RTVSPost2010PropOp40
 70
     1
102
RTVSPost2010Prop41ColorIndex
 90
       18
102
RTVSPost2010Prop41ColorRGB
 90
        0
102
RTVSPost2010PropOp41
 70
     1
102
RTVSPost2010Prop42
 90
       50
102
RTVSPost2010PropOp42
 70
     1
102
RTVSPost2010Prop43
 90
        3
102
RTVSPost2010PropOp43
 70
     1
102
RTVSPost2010Prop44ColorIndex
 90
        5
102
RTVSPost2010Prop44ColorRGB
 90
      255
102
RTVSPost2010PropOp44
 70
     1
102
RTVSPost2010Prop45
280
     0
102
RTVSPost2010PropOp45
 70
     1
102
RTVSPost2010Prop46
 90
       50
102
RTVSPost2010PropOp46
 70
     1
102
RTVSPost2010Prop47
 90
       50
102
RTVSPost2010PropOp47
 70
     1
102
RTVSPost2010Prop48
 90
       50
102
RTVSPost2010PropOp48
 70
     1
102
RTVSPost2010Prop49
280
     0
102
RTVSPost2010PropOp49
 70
     1
102
RTVSPost2010Prop50
 90
       50
102
RTVSPost2010PropOp50
 70
     1
102
RTVSPost2010Prop51ColorIndex
 90
      256
102
RTVSPost2010Prop51ColorRGB
 90
-16777216
102
RTVSPost2010PropOp51
 70
     0
102
RTVSPost2010Prop52
140
1.0
102
RTVSPost2010PropOp52
 70
     0
102
RTVSPost2010Prop53
 90
        2
102
RTVSPost2010PropOp53
 70
     1
102
RTVSPost2010Prop54
  1
strokes_ogs.tif
102
RTVSPost2010PropOp54
 70
     1
102
RTVSPost2010Prop55
280
     0
102
RTVSPost2010PropOp55
 70
     1
102
RTVSPost2010Prop56
140
1.0
102
RTVSPost2010PropOp56
 70
     1
102
RTVSPost2010Prop57
140
1.0
102
RTVSPost2010PropOp57
 70
     1
  0
XRECORD
  5
156
102
{ACAD_REACTORS
330
155
102
}
330
155
100
AcDbXrecord
280
     1
102
RTVSPost2010Prop28
280
     0
102
RTVSPost2010PropOp28
 70
     1
102
RTVSPost2010Prop29
280
     1
102
RTVSPost2010PropOp29
 70
     1
102
RTVSPost2010Prop30
280
     1
102
RTVSPost2010PropOp30
 70
     1
102
RTVSPost2010Prop31
280
     0
102
RTVSPost2010PropOp31
 70
     1
102
RTVSPost2010Prop32
280
     0
102
RTVSPost2010PropOp32
 70
     1
102
RTVSPost2010Prop33
280
     0
102
RTVSPost2010PropOp33
 70
     1
102
RTVSPost2010Prop34
280
     0
102
RTVSPost2010PropOp34
 70
     1
102
RTVSPost2010Prop35
280
     0
102
RTVSPost2010PropOp35
 70
     1
102
RTVSPost2010Prop36
280
     0
102
RTVSPost2010PropOp36
 70
     1
102
RTVSPost2010Prop37
 90
       50
102
RTVSPost2010PropOp37
 70
     1
102
RTVSPost2010Prop38
140
0.0
102
RTVSPost2010PropOp38
 70
     1
102
RTVSPost2010Prop39
140
1.0
102
RTVSPost2010PropOp39
 70
     1
102
RTVSPost2010Prop40
 90
        0
102
RTVSPost2010PropOp40
 70
     1
102
RTVSPost2010Prop41ColorIndex
 90
       18
102
RTVSPost2010Prop41ColorRGB
 90
        0
102
RTVSPost2010PropOp41
 70
     1
102
RTVSPost2010Prop42
 90
       50
102
RTVSPost2010PropOp42
 70
     1
102
RTVSPost2010Prop43
 90
        3
102
RTVSPost2010PropOp43
 70
     1
102
RTVSPost2010Prop44ColorIndex
 90
        5
102
RTVSPost2010Prop44ColorRGB
 90
      255
102
RTVSPost2010PropOp44
 70
     1
102
RTVSPost2010Prop45
280
     0
102
RTVSPost2010PropOp45
 70
     1
102
RTVSPost2010Prop46
 90
       50
102
RTVSPost2010PropOp46
 70
     1
102
RTVSPost2010Prop47
 90
       50
102
RTVSPost2010PropOp47
 70
     1
102
RTVSPost2010Prop48
 90
       50
102
RTVSPost2010PropOp48
 70
     1
102
RTVSPost2010Prop49
280
     0
102
RTVSPost2010PropOp49
 70
     1
102
RTVSPost2010Prop50
 90
       50
102
RTVSPost2010PropOp50
 70
     1
102
RTVSPost2010Prop51ColorIndex
 90
      256
102
RTVSPost2010Prop51ColorRGB
 90
-16777216
102
RTVSPost2010PropOp51
 70
     0
102
RTVSPost2010Prop52
140
1.0
102
RTVSPost2010PropOp52
 70
     0
102
RTVSPost2010Prop53
 90
        2
102
RTVSPost2010PropOp53
 70
     1
102
RTVSPost2010Prop54
  1
strokes_ogs.tif
102
RTVSPost2010PropOp54
 70
     1
102
RTVSPost2010Prop55
280
     0
102
RTVSPost2010PropOp55
 70
     1
102
RTVSPost2010Prop56
140
1.0
102
RTVSPost2010PropOp56
 70
     1
102
RTVSPost2010Prop57
140
1.0
102
RTVSPost2010PropOp57
 70
     1
  0
XRECORD
  5
158
102
{ACAD_REACTORS
330
157
102
}
330
157
100
AcDbXrecord
280
     1
102
RTVSPost2010Prop28
280
     0
102
RTVSPost2010PropOp28
 70
     1
102
RTVSPost2010Prop29
280
     1
102
RTVSPost2010PropOp29
 70
     1
102
RTVSPost2010Prop30
280
     1
102
RTVSPost2010PropOp30
 70
     1
102
RTVSPost2010Prop31
280
     0
102
RTVSPost2010PropOp31
 70
     1
102
RTVSPost2010Prop32
280
     0
102
RTVSPost2010PropOp32
 70
     1
102
RTVSPost2010Prop33
280
     0
102
RTVSPost2010PropOp33
 70
     1
102
RTVSPost2010Prop34
280
     0
102
RTVSPost2010PropOp34
 70
     1
102
RTVSPost2010Prop35
280
     0
102
RTVSPost2010PropOp35
 70
     1
102
RTVSPost2010Prop36
280
     0
102
RTVSPost2010PropOp36
 70
     1
102
RTVSPost2010Prop37
 90
       50
102
RTVSPost2010PropOp37
 70
     1
102
RTVSPost2010Prop38
140
0.0
102
RTVSPost2010PropOp38
 70
     1
102
RTVSPost2010Prop39
140
1.0
102
RTVSPost2010PropOp39
 70
     1
102
RTVSPost2010Prop40
 90
        0
102
RTVSPost2010PropOp40
 70
     1
102
RTVSPost2010Prop41ColorIndex
 90
       18
102
RTVSPost2010Prop41ColorRGB
 90
        0
102
RTVSPost2010PropOp41
 70
     1
102
RTVSPost2010Prop42
 90
       50
102
RTVSPost2010PropOp42
 70
     1
102
RTVSPost2010Prop43
 90
        3
102
RTVSPost2010PropOp43
 70
     1
102
RTVSPost2010Prop44ColorIndex
 90
        5
102
RTVSPost2010Prop44ColorRGB
 90
      255
102
RTVSPost2010PropOp44
 70
     1
102
RTVSPost2010Prop45
280
     0
102
RTVSPost2010PropOp45
 70
     1
102
RTVSPost2010Prop46
 90
       50
102
RTVSPost2010PropOp46
 70
     1
102
RTVSPost2010Prop47
 90
       50
102
RTVSPost2010PropOp47
 70
     1
102
RTVSPost2010Prop48
 90
       50
102
RTVSPost2010PropOp48
 70
     1
102
RTVSPost2010Prop49
280
     0
102
RTVSPost2010PropOp49
 70
     1
102
RTVSPost2010Prop50
 90
       50
102
RTVSPost2010PropOp50
 70
     1
102
RTVSPost2010Prop51ColorIndex
 90
      256
102
RTVSPost2010Prop51ColorRGB
 90
-16777216
102
RTVSPost2010PropOp51
 70
     0
102
RTVSPost2010Prop52
140
1.0
102
RTVSPost2010PropOp52
 70
     0
102
RTVSPost2010Prop53
 90
        2
102
RTVSPost2010PropOp53
 70
     1
102
RTVSPost2010Prop54
  1
strokes_ogs.tif
102
RTVSPost2010PropOp54
 70
     1
102
RTVSPost2010Prop55
280
     0
102
RTVSPost2010PropOp55
 70
     1
102
RTVSPost2010Prop56
140
1.0
102
RTVSPost2010PropOp56
 70
     1
102
RTVSPost2010Prop57
140
1.0
102
RTVSPost2010PropOp57
 70
     1
  0
XRECORD
  5
15A
102
{ACAD_REACTORS
330
159
102
}
330
159
100
AcDbXrecord
280
     1
102
RTVSPost2010Prop28
280
     0
102
RTVSPost2010PropOp28
 70
     1
102
RTVSPost2010Prop29
280
     1
102
RTVSPost2010PropOp29
 70
     1
102
RTVSPost2010Prop30
280
     1
102
RTVSPost2010PropOp30
 70
     1
102
RTVSPost2010Prop31
280
     0
102
RTVSPost2010PropOp31
 70
     1
102
RTVSPost2010Prop32
280
     0
102
RTVSPost2010PropOp32
 70
     1
102
RTVSPost2010Prop33
280
     0
102
RTVSPost2010PropOp33
 70
     1
102
RTVSPost2010Prop34
280
     0
102
RTVSPost2010PropOp34
 70
     1
102
RTVSPost2010Prop35
280
     0
102
RTVSPost2010PropOp35
 70
     1
102
RTVSPost2010Prop36
280
     0
102
RTVSPost2010PropOp36
 70
     1
102
RTVSPost2010Prop37
 90
       50
102
RTVSPost2010PropOp37
 70
     1
102
RTVSPost2010Prop38
140
0.0
102
RTVSPost2010PropOp38
 70
     1
102
RTVSPost2010Prop39
140
1.0
102
RTVSPost2010PropOp39
 70
     1
102
RTVSPost2010Prop40
 90
        0
102
RTVSPost2010PropOp40
 70
     1
102
RTVSPost2010Prop41ColorIndex
 90
       18
102
RTVSPost2010Prop41ColorRGB
 90
        0
102
RTVSPost2010PropOp41
 70
     1
102
RTVSPost2010Prop42
 90
       50
102
RTVSPost2010PropOp42
 70
     1
102
RTVSPost2010Prop43
 90
        3
102
RTVSPost2010PropOp43
 70
     1
102
RTVSPost2010Prop44ColorIndex
 90
        5
102
RTVSPost2010Prop44ColorRGB
 90
      255
102
RTVSPost2010PropOp44
 70
     1
102
RTVSPost2010Prop45
280
     0
102
RTVSPost2010PropOp45
 70
     1
102
RTVSPost2010Prop46
 90
       50
102
RTVSPost2010PropOp46
 70
     1
102
RTVSPost2010Prop47
 90
       50
102
RTVSPost2010PropOp47
 70
     1
102
RTVSPost2010Prop48
 90
       50
102
RTVSPost2010PropOp48
 70
     1
102
RTVSPost2010Prop49
280
     0
102
RTVSPost2010PropOp49
 70
     1
102
RTVSPost2010Prop50
 90
       50
102
RTVSPost2010PropOp50
 70
     1
102
RTVSPost2010Prop51ColorIndex
 90
      256
102
RTVSPost2010Prop51ColorRGB
 90
-16777216
102
RTVSPost2010PropOp51
 70
     0
102
RTVSPost2010Prop52
140
1.0
102
RTVSPost2010PropOp52
 70
     0
102
RTVSPost2010Prop53
 90
        2
102
RTVSPost2010PropOp53
 70
     1
102
RTVSPost2010Prop54
  1
strokes_ogs.tif
102
RTVSPost2010PropOp54
 70
     1
102
RTVSPost2010Prop55
280
     0
102
RTVSPost2010PropOp55
 70
     1
102
RTVSPost2010Prop56
140
1.0
102
RTVSPost2010PropOp56
 70
     1
102
RTVSPost2010Prop57
140
1.0
102
RTVSPost2010PropOp57
 70
     1
  0
XRECORD
  5
15C
102
{ACAD_REACTORS
330
15B
102
}
330
15B
100
AcDbXrecord
280
     1
102
RTVSPost2010Prop28
280
     0
102
RTVSPost2010PropOp28
 70
     1
102
RTVSPost2010Prop29
280
     1
102
RTVSPost2010PropOp29
 70
     1
102
RTVSPost2010Prop30
280
     1
102
RTVSPost2010PropOp30
 70
     1
102
RTVSPost2010Prop31
280
     0
102
RTVSPost2010PropOp31
 70
     1
102
RTVSPost2010Prop32
280
     0
102
RTVSPost2010PropOp32
 70
     1
102
RTVSPost2010Prop33
280
     0
102
RTVSPost2010PropOp33
 70
     1
102
RTVSPost2010Prop34
280
     0
102
RTVSPost2010PropOp34
 70
     1
102
RTVSPost2010Prop35
280
     0
102
RTVSPost2010PropOp35
 70
     1
102
RTVSPost2010Prop36
280
     0
102
RTVSPost2010PropOp36
 70
     1
102
RTVSPost2010Prop37
 90
       50
102
RTVSPost2010PropOp37
 70
     1
102
RTVSPost2010Prop38
140
0.0
102
RTVSPost2010PropOp38
 70
     1
102
RTVSPost2010Prop39
140
1.0
102
RTVSPost2010PropOp39
 70
     1
102
RTVSPost2010Prop40
 90
        0
102
RTVSPost2010PropOp40
 70
     1
102
RTVSPost2010Prop41ColorIndex
 90
       18
102
RTVSPost2010Prop41ColorRGB
 90
        0
102
RTVSPost2010PropOp41
 70
     1
102
RTVSPost2010Prop42
 90
       50
102
RTVSPost2010PropOp42
 70
     1
102
RTVSPost2010Prop43
 90
        3
102
RTVSPost2010PropOp43
 70
     1
102
RTVSPost2010Prop44ColorIndex
 90
        5
102
RTVSPost2010Prop44ColorRGB
 90
      255
102
RTVSPost2010PropOp44
 70
     1
102
RTVSPost2010Prop45
280
     0
102
RTVSPost2010PropOp45
 70
     1
102
RTVSPost2010Prop46
 90
       50
102
RTVSPost2010PropOp46
 70
     1
102
RTVSPost2010Prop47
 90
       50
102
RTVSPost2010PropOp47
 70
     1
102
RTVSPost2010Prop48
 90
       50
102
RTVSPost2010PropOp48
 70
     1
102
RTVSPost2010Prop49
280
     0
102
RTVSPost2010PropOp49
 70
     1
102
RTVSPost2010Prop50
 90
       50
102
RTVSPost2010PropOp50
 70
     1
102
RTVSPost2010Prop51ColorIndex
 90
      256
102
RTVSPost2010Prop51ColorRGB
 90
-16777216
102
RTVSPost2010PropOp51
 70
     0
102
RTVSPost2010Prop52
140
1.0
102
RTVSPost2010PropOp52
 70
     0
102
RTVSPost2010Prop53
 90
        2
102
RTVSPost2010PropOp53
 70
     1
102
RTVSPost2010Prop54
  1
strokes_ogs.tif
102
RTVSPost2010PropOp54
 70
     1
102
RTVSPost2010Prop55
280
     0
102
RTVSPost2010PropOp55
 70
     1
102
RTVSPost2010Prop56
140
1.0
102
RTVSPost2010PropOp56
 70
     1
102
RTVSPost2010Prop57
140
1.0
102
RTVSPost2010PropOp57
 70
     1
  0
XRECORD
  5
164
102
{ACAD_REACTORS
330
163
102
}
330
163
100
AcDbXrecord
280
     1
102
RTVSPost2010Prop28
280
     0
102
RTVSPost2010PropOp28
 70
     1
102
RTVSPost2010Prop29
280
     1
102
RTVSPost2010PropOp29
 70
     1
102
RTVSPost2010Prop30
280
     1
102
RTVSPost2010PropOp30
 70
     1
102
RTVSPost2010Prop31
280
     0
102
RTVSPost2010PropOp31
 70
     1
102
RTVSPost2010Prop32
280
     0
102
RTVSPost2010PropOp32
 70
     1
102
RTVSPost2010Prop33
280
     0
102
RTVSPost2010PropOp33
 70
     1
102
RTVSPost2010Prop34
280
     0
102
RTVSPost2010PropOp34
 70
     1
102
RTVSPost2010Prop35
280
     0
102
RTVSPost2010PropOp35
 70
     1
102
RTVSPost2010Prop36
280
     0
102
RTVSPost2010PropOp36
 70
     1
102
RTVSPost2010Prop37
 90
       50
102
RTVSPost2010PropOp37
 70
     1
102
RTVSPost2010Prop38
140
0.0
102
RTVSPost2010PropOp38
 70
     1
102
RTVSPost2010Prop39
140
1.0
102
RTVSPost2010PropOp39
 70
     1
102
RTVSPost2010Prop40
 90
        0
102
RTVSPost2010PropOp40
 70
     1
102
RTVSPost2010Prop41ColorIndex
 90
       18
102
RTVSPost2010Prop41ColorRGB
 90
        0
102
RTVSPost2010PropOp41
 70
     1
102
RTVSPost2010Prop42
 90
       50
102
RTVSPost2010PropOp42
 70
     1
102
RTVSPost2010Prop43
 90
        3
102
RTVSPost2010PropOp43
 70
     1
102
RTVSPost2010Prop44ColorIndex
 90
        5
102
RTVSPost2010Prop44ColorRGB
 90
      255
102
RTVSPost2010PropOp44
 70
     1
102
RTVSPost2010Prop45
280
     0
102
RTVSPost2010PropOp45
 70
     1
102
RTVSPost2010Prop46
 90
       50
102
RTVSPost2010PropOp46
 70
     1
102
RTVSPost2010Prop47
 90
       50
102
RTVSPost2010PropOp47
 70
     1
102
RTVSPost2010Prop48
 90
       50
102
RTVSPost2010PropOp48
 70
     1
102
RTVSPost2010Prop49
280
     0
102
RTVSPost2010PropOp49
 70
     1
102
RTVSPost2010Prop50
 90
       50
102
RTVSPost2010PropOp50
 70
     1
102
RTVSPost2010Prop51ColorIndex
 90
      256
102
RTVSPost2010Prop51ColorRGB
 90
-16777216
102
RTVSPost2010PropOp51
 70
     0
102
RTVSPost2010Prop52
140
1.0
102
RTVSPost2010PropOp52
 70
     0
102
RTVSPost2010Prop53
 90
        2
102
RTVSPost2010PropOp53
 70
     1
102
RTVSPost2010Prop54
  1
strokes_ogs.tif
102
RTVSPost2010PropOp54
 70
     1
102
RTVSPost2010Prop55
280
     0
102
RTVSPost2010PropOp55
 70
     1
102
RTVSPost2010Prop56
140
1.0
102
RTVSPost2010PropOp56
 70
     1
102
RTVSPost2010Prop57
140
1.0
102
RTVSPost2010PropOp57
 70
     1
  0
XRECORD
  5
180
102
{ACAD_REACTORS
330
17F
102
}
330
17F
100
AcDbXrecord
280
     1
102
RTVSPost2010Prop28
280
     0
102
RTVSPost2010PropOp28
 70
     0
102
RTVSPost2010Prop29
280
     1
102
RTVSPost2010PropOp29
 70
     0
102
RTVSPost2010Prop30
280
     1
102
RTVSPost2010PropOp30
 70
     0
102
RTVSPost2010Prop31
280
     0
102
RTVSPost2010PropOp31
 70
     0
102
RTVSPost2010Prop32
280
     0
102
RTVSPost2010PropOp32
 70
     0
102
RTVSPost2010Prop33
280
     0
102
RTVSPost2010PropOp33
 70
     0
102
RTVSPost2010Prop34
280
     0
102
RTVSPost2010PropOp34
 70
     0
102
RTVSPost2010Prop35
280
     0
102
RTVSPost2010PropOp35
 70
     0
102
RTVSPost2010Prop36
280
     0
102
RTVSPost2010PropOp36
 70
     0
102
RTVSPost2010Prop37
 90
       50
102
RTVSPost2010PropOp37
 70
     0
102
RTVSPost2010Prop38
140
0.0
102
RTVSPost2010PropOp38
 70
     0
102
RTVSPost2010Prop39
140
1.0
102
RTVSPost2010PropOp39
 70
     0
102
RTVSPost2010Prop40
 90
        0
102
RTVSPost2010PropOp40
 70
     0
102
RTVSPost2010Prop41ColorIndex
 90
       18
102
RTVSPost2010Prop41ColorRGB
 90
        0
102
RTVSPost2010PropOp41
 70
     0
102
RTVSPost2010Prop42
 90
       50
102
RTVSPost2010PropOp42
 70
     0
102
RTVSPost2010Prop43
 90
        3
102
RTVSPost2010PropOp43
 70
     0
102
RTVSPost2010Prop44ColorIndex
 90
        5
102
RTVSPost2010Prop44ColorRGB
 90
      255
102
RTVSPost2010PropOp44
 70
     0
102
RTVSPost2010Prop45
280
     0
102
RTVSPost2010PropOp45
 70
     0
102
RTVSPost2010Prop46
 90
       50
102
RTVSPost2010PropOp46
 70
     0
102
RTVSPost2010Prop47
 90
       50
102
RTVSPost2010PropOp47
 70
     0
102
RTVSPost2010Prop48
 90
       50
102
RTVSPost2010PropOp48
 70
     0
102
RTVSPost2010Prop49
280
     0
102
RTVSPost2010PropOp49
 70
     0
102
RTVSPost2010Prop50
 90
       50
102
RTVSPost2010PropOp50
 70
     0
102
RTVSPost2010Prop51ColorIndex
 90
      256
102
RTVSPost2010Prop51ColorRGB
 90
-16777216
102
RTVSPost2010PropOp51
 70
     0
102
RTVSPost2010Prop52
140
1.0
102
RTVSPost2010PropOp52
 70
     0
102
RTVSPost2010Prop53
 90
        2
102
RTVSPost2010PropOp53
 70
     0
102
RTVSPost2010Prop54
  1
strokes_ogs.tif
102
RTVSPost2010PropOp54
 70
     0
102
RTVSPost2010Prop55
280
     0
102
RTVSPost2010PropOp55
 70
     0
102
RTVSPost2010Prop56
140
1.0
102
RTVSPost2010PropOp56
 70
     0
102
RTVSPost2010Prop57
140
1.0
102
RTVSPost2010PropOp57
 70
     0
  0
XRECORD
  5
170
102
{ACAD_REACTORS
330
16F
102
}
330
16F
100
AcDbXrecord
280
     1
102
RTVSPost2010Prop28
280
     0
102
RTVSPost2010PropOp28
 70
     1
102
RTVSPost2010Prop29
280
     1
102
RTVSPost2010PropOp29
 70
     1
102
RTVSPost2010Prop30
280
     1
102
RTVSPost2010PropOp30
 70
     1
102
RTVSPost2010Prop31
280
     0
102
RTVSPost2010PropOp31
 70
     1
102
RTVSPost2010Prop32
280
     0
102
RTVSPost2010PropOp32
 70
     1
102
RTVSPost2010Prop33
280
     0
102
RTVSPost2010PropOp33
 70
     1
102
RTVSPost2010Prop34
280
     0
102
RTVSPost2010PropOp34
 70
     1
102
RTVSPost2010Prop35
280
     0
102
RTVSPost2010PropOp35
 70
     1
102
RTVSPost2010Prop36
280
     0
102
RTVSPost2010PropOp36
 70
     1
102
RTVSPost2010Prop37
 90
       50
102
RTVSPost2010PropOp37
 70
     1
102
RTVSPost2010Prop38
140
0.0
102
RTVSPost2010PropOp38
 70
     1
102
RTVSPost2010Prop39
140
1.0
102
RTVSPost2010PropOp39
 70
     1
102
RTVSPost2010Prop40
 90
        0
102
RTVSPost2010PropOp40
 70
     1
102
RTVSPost2010Prop41ColorIndex
 90
       18
102
RTVSPost2010Prop41ColorRGB
 90
        0
102
RTVSPost2010PropOp41
 70
     1
102
RTVSPost2010Prop42
 90
       50
102
RTVSPost2010PropOp42
 70
     1
102
RTVSPost2010Prop43
 90
        3
102
RTVSPost2010PropOp43
 70
     1
102
RTVSPost2010Prop44ColorIndex
 90
        5
102
RTVSPost2010Prop44ColorRGB
 90
      255
102
RTVSPost2010PropOp44
 70
     1
102
RTVSPost2010Prop45
280
     0
102
RTVSPost2010PropOp45
 70
     1
102
RTVSPost2010Prop46
 90
       50
102
RTVSPost2010PropOp46
 70
     1
102
RTVSPost2010Prop47
 90
       50
102
RTVSPost2010PropOp47
 70
     1
102
RTVSPost2010Prop48
 90
       50
102
RTVSPost2010PropOp48
 70
     1
102
RTVSPost2010Prop49
280
     0
102
RTVSPost2010PropOp49
 70
     1
102
RTVSPost2010Prop50
 90
       50
102
RTVSPost2010PropOp50
 70
     1
102
RTVSPost2010Prop51ColorIndex
 90
      256
102
RTVSPost2010Prop51ColorRGB
 90
-16777216
102
RTVSPost2010PropOp51
 70
     0
102
RTVSPost2010Prop52
140
1.0
102
RTVSPost2010PropOp52
 70
     0
102
RTVSPost2010Prop53
 90
        2
102
RTVSPost2010PropOp53
 70
     1
102
RTVSPost2010Prop54
  1
strokes_ogs.tif
102
RTVSPost2010PropOp54
 70
     1
102
RTVSPost2010Prop55
280
     0
102
RTVSPost2010PropOp55
 70
     1
102
RTVSPost2010Prop56
140
1.0
102
RTVSPost2010PropOp56
 70
     1
102
RTVSPost2010Prop57
140
1.0
102
RTVSPost2010PropOp57
 70
     1
  0
XRECORD
  5
182
102
{ACAD_REACTORS
330
181
102
}
330
181
100
AcDbXrecord
280
     1
102
RTVSPost2010Prop28
280
     0
102
RTVSPost2010PropOp28
 70
     0
102
RTVSPost2010Prop29
280
     1
102
RTVSPost2010PropOp29
 70
     0
102
RTVSPost2010Prop30
280
     1
102
RTVSPost2010PropOp30
 70
     0
102
RTVSPost2010Prop31
280
     0
102
RTVSPost2010PropOp31
 70
     0
102
RTVSPost2010Prop32
280
     0
102
RTVSPost2010PropOp32
 70
     0
102
RTVSPost2010Prop33
280
     0
102
RTVSPost2010PropOp33
 70
     0
102
RTVSPost2010Prop34
280
     0
102
RTVSPost2010PropOp34
 70
     0
102
RTVSPost2010Prop35
280
     0
102
RTVSPost2010PropOp35
 70
     0
102
RTVSPost2010Prop36
280
     0
102
RTVSPost2010PropOp36
 70
     0
102
RTVSPost2010Prop37
 90
       50
102
RTVSPost2010PropOp37
 70
     0
102
RTVSPost2010Prop38
140
0.0
102
RTVSPost2010PropOp38
 70
     0
102
RTVSPost2010Prop39
140
1.0
102
RTVSPost2010PropOp39
 70
     0
102
RTVSPost2010Prop40
 90
        0
102
RTVSPost2010PropOp40
 70
     0
102
RTVSPost2010Prop41ColorIndex
 90
       18
102
RTVSPost2010Prop41ColorRGB
 90
        0
102
RTVSPost2010PropOp41
 70
     0
102
RTVSPost2010Prop42
 90
       50
102
RTVSPost2010PropOp42
 70
     0
102
RTVSPost2010Prop43
 90
        3
102
RTVSPost2010PropOp43
 70
     0
102
RTVSPost2010Prop44ColorIndex
 90
        5
102
RTVSPost2010Prop44ColorRGB
 90
      255
102
RTVSPost2010PropOp44
 70
     0
102
RTVSPost2010Prop45
280
     0
102
RTVSPost2010PropOp45
 70
     0
102
RTVSPost2010Prop46
 90
       50
102
RTVSPost2010PropOp46
 70
     0
102
RTVSPost2010Prop47
 90
       50
102
RTVSPost2010PropOp47
 70
     0
102
RTVSPost2010Prop48
 90
       50
102
RTVSPost2010PropOp48
 70
     0
102
RTVSPost2010Prop49
280
     0
102
RTVSPost2010PropOp49
 70
     0
102
RTVSPost2010Prop50
 90
       50
102
RTVSPost2010PropOp50
 70
     0
102
RTVSPost2010Prop51ColorIndex
 90
      256
102
RTVSPost2010Prop51ColorRGB
 90
-16777216
102
RTVSPost2010PropOp51
 70
     0
102
RTVSPost2010Prop52
140
1.0
102
RTVSPost2010PropOp52
 70
     0
102
RTVSPost2010Prop53
 90
        2
102
RTVSPost2010PropOp53
 70
     0
102
RTVSPost2010Prop54
  1
strokes_ogs.tif
102
RTVSPost2010PropOp54
 70
     0
102
RTVSPost2010Prop55
280
     0
102
RTVSPost2010PropOp55
 70
     0
102
RTVSPost2010Prop56
140
1.0
102
RTVSPost2010PropOp56
 70
     0
102
RTVSPost2010Prop57
140
1.0
102
RTVSPost2010PropOp57
 70
     0
  0
XRECORD
  5
168
102
{ACAD_REACTORS
330
167
102
}
330
167
100
AcDbXrecord
280
     1
102
RTVSPost2010Prop28
280
     0
102
RTVSPost2010PropOp28
 70
     1
102
RTVSPost2010Prop29
280
     1
102
RTVSPost2010PropOp29
 70
     1
102
RTVSPost2010Prop30
280
     1
102
RTVSPost2010PropOp30
 70
     1
102
RTVSPost2010Prop31
280
     0
102
RTVSPost2010PropOp31
 70
     1
102
RTVSPost2010Prop32
280
     0
102
RTVSPost2010PropOp32
 70
     1
102
RTVSPost2010Prop33
280
     0
102
RTVSPost2010PropOp33
 70
     1
102
RTVSPost2010Prop34
280
     0
102
RTVSPost2010PropOp34
 70
     1
102
RTVSPost2010Prop35
280
     0
102
RTVSPost2010PropOp35
 70
     1
102
RTVSPost2010Prop36
280
     0
102
RTVSPost2010PropOp36
 70
     1
102
RTVSPost2010Prop37
 90
       50
102
RTVSPost2010PropOp37
 70
     1
102
RTVSPost2010Prop38
140
0.0
102
RTVSPost2010PropOp38
 70
     1
102
RTVSPost2010Prop39
140
1.0
102
RTVSPost2010PropOp39
 70
     1
102
RTVSPost2010Prop40
 90
        0
102
RTVSPost2010PropOp40
 70
     1
102
RTVSPost2010Prop41ColorIndex
 90
       18
102
RTVSPost2010Prop41ColorRGB
 90
        0
102
RTVSPost2010PropOp41
 70
     1
102
RTVSPost2010Prop42
 90
       50
102
RTVSPost2010PropOp42
 70
     1
102
RTVSPost2010Prop43
 90
        3
102
RTVSPost2010PropOp43
 70
     1
102
RTVSPost2010Prop44ColorIndex
 90
        5
102
RTVSPost2010Prop44ColorRGB
 90
      255
102
RTVSPost2010PropOp44
 70
     1
102
RTVSPost2010Prop45
280
     0
102
RTVSPost2010PropOp45
 70
     1
102
RTVSPost2010Prop46
 90
       50
102
RTVSPost2010PropOp46
 70
     1
102
RTVSPost2010Prop47
 90
       50
102
RTVSPost2010PropOp47
 70
     1
102
RTVSPost2010Prop48
 90
       50
102
RTVSPost2010PropOp48
 70
     1
102
RTVSPost2010Prop49
280
     0
102
RTVSPost2010PropOp49
 70
     1
102
RTVSPost2010Prop50
 90
       50
102
RTVSPost2010PropOp50
 70
     1
102
RTVSPost2010Prop51ColorIndex
 90
      256
102
RTVSPost2010Prop51ColorRGB
 90
-16777216
102
RTVSPost2010PropOp51
 70
     0
102
RTVSPost2010Prop52
140
1.0
102
RTVSPost2010PropOp52
 70
     0
102
RTVSPost2010Prop53
 90
        2
102
RTVSPost2010PropOp53
 70
     1
102
RTVSPost2010Prop54
  1
strokes_ogs.tif
102
RTVSPost2010PropOp54
 70
     1
102
RTVSPost2010Prop55
280
     0
102
RTVSPost2010PropOp55
 70
     1
102
RTVSPost2010Prop56
140
1.0
102
RTVSPost2010PropOp56
 70
     1
102
RTVSPost2010Prop57
140
1.0
102
RTVSPost2010PropOp57
 70
     1
  0
XRECORD
  5
17E
102
{ACAD_REACTORS
330
17D
102
}
330
17D
100
AcDbXrecord
280
     1
102
RTVSPost2010Prop28
280
     0
102
RTVSPost2010PropOp28
 70
     1
102
RTVSPost2010Prop29
280
     1
102
RTVSPost2010PropOp29
 70
     1
102
RTVSPost2010Prop30
280
     1
102
RTVSPost2010PropOp30
 70
     1
102
RTVSPost2010Prop31
280
     0
102
RTVSPost2010PropOp31
 70
     1
102
RTVSPost2010Prop32
280
     0
102
RTVSPost2010PropOp32
 70
     1
102
RTVSPost2010Prop33
280
     0
102
RTVSPost2010PropOp33
 70
     1
102
RTVSPost2010Prop34
280
     0
102
RTVSPost2010PropOp34
 70
     1
102
RTVSPost2010Prop35
280
     0
102
RTVSPost2010PropOp35
 70
     1
102
RTVSPost2010Prop36
280
     0
102
RTVSPost2010PropOp36
 70
     1
102
RTVSPost2010Prop37
 90
       50
102
RTVSPost2010PropOp37
 70
     1
102
RTVSPost2010Prop38
140
0.0
102
RTVSPost2010PropOp38
 70
     1
102
RTVSPost2010Prop39
140
1.0
102
RTVSPost2010PropOp39
 70
     1
102
RTVSPost2010Prop40
 90
        0
102
RTVSPost2010PropOp40
 70
     1
102
RTVSPost2010Prop41ColorIndex
 90
       18
102
RTVSPost2010Prop41ColorRGB
 90
        0
102
RTVSPost2010PropOp41
 70
     1
102
RTVSPost2010Prop42
 90
       50
102
RTVSPost2010PropOp42
 70
     1
102
RTVSPost2010Prop43
 90
        3
102
RTVSPost2010PropOp43
 70
     1
102
RTVSPost2010Prop44ColorIndex
 90
        5
102
RTVSPost2010Prop44ColorRGB
 90
      255
102
RTVSPost2010PropOp44
 70
     1
102
RTVSPost2010Prop45
280
     0
102
RTVSPost2010PropOp45
 70
     1
102
RTVSPost2010Prop46
 90
       50
102
RTVSPost2010PropOp46
 70
     1
102
RTVSPost2010Prop47
 90
       50
102
RTVSPost2010PropOp47
 70
     1
102
RTVSPost2010Prop48
 90
       50
102
RTVSPost2010PropOp48
 70
     1
102
RTVSPost2010Prop49
280
     0
102
RTVSPost2010PropOp49
 70
     1
102
RTVSPost2010Prop50
 90
       50
102
RTVSPost2010PropOp50
 70
     1
102
RTVSPost2010Prop51ColorIndex
 90
      256
102
RTVSPost2010Prop51ColorRGB
 90
-16777216
102
RTVSPost2010PropOp51
 70
     0
102
RTVSPost2010Prop52
140
1.0
102
RTVSPost2010PropOp52
 70
     0
102
RTVSPost2010Prop53
 90
        2
102
RTVSPost2010PropOp53
 70
     1
102
RTVSPost2010Prop54
  1
strokes_ogs.tif
102
RTVSPost2010PropOp54
 70
     1
102
RTVSPost2010Prop55
280
     0
102
RTVSPost2010PropOp55
 70
     1
102
RTVSPost2010Prop56
140
1.0
102
RTVSPost2010PropOp56
 70
     1
102
RTVSPost2010Prop57
140
1.0
102
RTVSPost2010PropOp57
 70
     1
  0
XRECORD
  5
17C
102
{ACAD_REACTORS
330
17B
102
}
330
17B
100
AcDbXrecord
280
     1
102
RTVSPost2010Prop28
280
     0
102
RTVSPost2010PropOp28
 70
     1
102
RTVSPost2010Prop29
280
     1
102
RTVSPost2010PropOp29
 70
     1
102
RTVSPost2010Prop30
280
     1
102
RTVSPost2010PropOp30
 70
     1
102
RTVSPost2010Prop31
280
     0
102
RTVSPost2010PropOp31
 70
     1
102
RTVSPost2010Prop32
280
     0
102
RTVSPost2010PropOp32
 70
     1
102
RTVSPost2010Prop33
280
     0
102
RTVSPost2010PropOp33
 70
     1
102
RTVSPost2010Prop34
280
     0
102
RTVSPost2010PropOp34
 70
     1
102
RTVSPost2010Prop35
280
     0
102
RTVSPost2010PropOp35
 70
     1
102
RTVSPost2010Prop36
280
     0
102
RTVSPost2010PropOp36
 70
     1
102
RTVSPost2010Prop37
 90
       50
102
RTVSPost2010PropOp37
 70
     1
102
RTVSPost2010Prop38
140
0.0
102
RTVSPost2010PropOp38
 70
     1
102
RTVSPost2010Prop39
140
1.0
102
RTVSPost2010PropOp39
 70
     1
102
RTVSPost2010Prop40
 90
        0
102
RTVSPost2010PropOp40
 70
     1
102
RTVSPost2010Prop41ColorIndex
 90
       18
102
RTVSPost2010Prop41ColorRGB
 90
        0
102
RTVSPost2010PropOp41
 70
     1
102
RTVSPost2010Prop42
 90
       50
102
RTVSPost2010PropOp42
 70
     1
102
RTVSPost2010Prop43
 90
        3
102
RTVSPost2010PropOp43
 70
     1
102
RTVSPost2010Prop44ColorIndex
 90
        5
102
RTVSPost2010Prop44ColorRGB
 90
      255
102
RTVSPost2010PropOp44
 70
     1
102
RTVSPost2010Prop45
280
     0
102
RTVSPost2010PropOp45
 70
     1
102
RTVSPost2010Prop46
 90
       50
102
RTVSPost2010PropOp46
 70
     1
102
RTVSPost2010Prop47
 90
       50
102
RTVSPost2010PropOp47
 70
     1
102
RTVSPost2010Prop48
 90
       50
102
RTVSPost2010PropOp48
 70
     1
102
RTVSPost2010Prop49
280
     0
102
RTVSPost2010PropOp49
 70
     1
102
RTVSPost2010Prop50
 90
       50
102
RTVSPost2010PropOp50
 70
     1
102
RTVSPost2010Prop51ColorIndex
 90
      256
102
RTVSPost2010Prop51ColorRGB
 90
-16777216
102
RTVSPost2010PropOp51
 70
     0
102
RTVSPost2010Prop52
140
1.0
102
RTVSPost2010PropOp52
 70
     0
102
RTVSPost2010Prop53
 90
        2
102
RTVSPost2010PropOp53
 70
     1
102
RTVSPost2010Prop54
  1
strokes_ogs.tif
102
RTVSPost2010PropOp54
 70
     1
102
RTVSPost2010Prop55
280
     0
102
RTVSPost2010PropOp55
 70
     1
102
RTVSPost2010Prop56
140
1.0
102
RTVSPost2010PropOp56
 70
     1
102
RTVSPost2010Prop57
140
1.0
102
RTVSPost2010PropOp57
 70
     1
  0
XRECORD
  5
176
102
{ACAD_REACTORS
330
175
102
}
330
175
100
AcDbXrecord
280
     1
102
RTVSPost2010Prop28
280
     0
102
RTVSPost2010PropOp28
 70
     1
102
RTVSPost2010Prop29
280
     1
102
RTVSPost2010PropOp29
 70
     1
102
RTVSPost2010Prop30
280
     1
102
RTVSPost2010PropOp30
 70
     1
102
RTVSPost2010Prop31
280
     0
102
RTVSPost2010PropOp31
 70
     1
102
RTVSPost2010Prop32
280
     0
102
RTVSPost2010PropOp32
 70
     1
102
RTVSPost2010Prop33
280
     0
102
RTVSPost2010PropOp33
 70
     1
102
RTVSPost2010Prop34
280
     0
102
RTVSPost2010PropOp34
 70
     1
102
RTVSPost2010Prop35
280
     0
102
RTVSPost2010PropOp35
 70
     1
102
RTVSPost2010Prop36
280
     0
102
RTVSPost2010PropOp36
 70
     1
102
RTVSPost2010Prop37
 90
       50
102
RTVSPost2010PropOp37
 70
     1
102
RTVSPost2010Prop38
140
0.0
102
RTVSPost2010PropOp38
 70
     1
102
RTVSPost2010Prop39
140
1.0
102
RTVSPost2010PropOp39
 70
     1
102
RTVSPost2010Prop40
 90
        0
102
RTVSPost2010PropOp40
 70
     1
102
RTVSPost2010Prop41ColorIndex
 90
       18
102
RTVSPost2010Prop41ColorRGB
 90
        0
102
RTVSPost2010PropOp41
 70
     1
102
RTVSPost2010Prop42
 90
       50
102
RTVSPost2010PropOp42
 70
     1
102
RTVSPost2010Prop43
 90
        3
102
RTVSPost2010PropOp43
 70
     1
102
RTVSPost2010Prop44ColorIndex
 90
        5
102
RTVSPost2010Prop44ColorRGB
 90
      255
102
RTVSPost2010PropOp44
 70
     1
102
RTVSPost2010Prop45
280
     0
102
RTVSPost2010PropOp45
 70
     1
102
RTVSPost2010Prop46
 90
       50
102
RTVSPost2010PropOp46
 70
     1
102
RTVSPost2010Prop47
 90
       50
102
RTVSPost2010PropOp47
 70
     1
102
RTVSPost2010Prop48
 90
       50
102
RTVSPost2010PropOp48
 70
     1
102
RTVSPost2010Prop49
280
     0
102
RTVSPost2010PropOp49
 70
     1
102
RTVSPost2010Prop50
 90
       50
102
RTVSPost2010PropOp50
 70
     1
102
RTVSPost2010Prop51ColorIndex
 90
      256
102
RTVSPost2010Prop51ColorRGB
 90
-16777216
102
RTVSPost2010PropOp51
 70
     0
102
RTVSPost2010Prop52
140
1.0
102
RTVSPost2010PropOp52
 70
     0
102
RTVSPost2010Prop53
 90
        2
102
RTVSPost2010PropOp53
 70
     1
102
RTVSPost2010Prop54
  1
strokes_ogs.tif
102
RTVSPost2010PropOp54
 70
     1
102
RTVSPost2010Prop55
280
     0
102
RTVSPost2010PropOp55
 70
     1
102
RTVSPost2010Prop56
140
1.0
102
RTVSPost2010PropOp56
 70
     1
102
RTVSPost2010Prop57
140
1.0
102
RTVSPost2010PropOp57
 70
     1
  0
XRECORD
  5
178
102
{ACAD_REACTORS
330
177
102
}
330
177
100
AcDbXrecord
280
     1
102
RTVSPost2010Prop28
280
     0
102
RTVSPost2010PropOp28
 70
     1
102
RTVSPost2010Prop29
280
     1
102
RTVSPost2010PropOp29
 70
     1
102
RTVSPost2010Prop30
280
     1
102
RTVSPost2010PropOp30
 70
     1
102
RTVSPost2010Prop31
280
     0
102
RTVSPost2010PropOp31
 70
     1
102
RTVSPost2010Prop32
280
     0
102
RTVSPost2010PropOp32
 70
     1
102
RTVSPost2010Prop33
280
     0
102
RTVSPost2010PropOp33
 70
     1
102
RTVSPost2010Prop34
280
     0
102
RTVSPost2010PropOp34
 70
     1
102
RTVSPost2010Prop35
280
     0
102
RTVSPost2010PropOp35
 70
     1
102
RTVSPost2010Prop36
280
     0
102
RTVSPost2010PropOp36
 70
     1
102
RTVSPost2010Prop37
 90
       50
102
RTVSPost2010PropOp37
 70
     1
102
RTVSPost2010Prop38
140
0.0
102
RTVSPost2010PropOp38
 70
     1
102
RTVSPost2010Prop39
140
1.0
102
RTVSPost2010PropOp39
 70
     1
102
RTVSPost2010Prop40
 90
        0
102
RTVSPost2010PropOp40
 70
     1
102
RTVSPost2010Prop41ColorIndex
 90
       18
102
RTVSPost2010Prop41ColorRGB
 90
        0
102
RTVSPost2010PropOp41
 70
     1
102
RTVSPost2010Prop42
 90
       50
102
RTVSPost2010PropOp42
 70
     1
102
RTVSPost2010Prop43
 90
        3
102
RTVSPost2010PropOp43
 70
     1
102
RTVSPost2010Prop44ColorIndex
 90
        5
102
RTVSPost2010Prop44ColorRGB
 90
      255
102
RTVSPost2010PropOp44
 70
     1
102
RTVSPost2010Prop45
280
     0
102
RTVSPost2010PropOp45
 70
     1
102
RTVSPost2010Prop46
 90
       50
102
RTVSPost2010PropOp46
 70
     1
102
RTVSPost2010Prop47
 90
       50
102
RTVSPost2010PropOp47
 70
     1
102
RTVSPost2010Prop48
 90
       50
102
RTVSPost2010PropOp48
 70
     1
102
RTVSPost2010Prop49
280
     0
102
RTVSPost2010PropOp49
 70
     1
102
RTVSPost2010Prop50
 90
       50
102
RTVSPost2010PropOp50
 70
     1
102
RTVSPost2010Prop51ColorIndex
 90
      256
102
RTVSPost2010Prop51ColorRGB
 90
-16777216
102
RTVSPost2010PropOp51
 70
     0
102
RTVSPost2010Prop52
140
1.0
102
RTVSPost2010PropOp52
 70
     0
102
RTVSPost2010Prop53
 90
        2
102
RTVSPost2010PropOp53
 70
     1
102
RTVSPost2010Prop54
  1
strokes_ogs.tif
102
RTVSPost2010PropOp54
 70
     1
102
RTVSPost2010Prop55
280
     0
102
RTVSPost2010PropOp55
 70
     1
102
RTVSPost2010Prop56
140
1.0
102
RTVSPost2010PropOp56
 70
     1
102
RTVSPost2010Prop57
140
1.0
102
RTVSPost2010PropOp57
 70
     1
  0
XRECORD
  5
16E
102
{ACAD_REACTORS
330
16D
102
}
330
16D
100
AcDbXrecord
280
     1
102
RTVSPost2010Prop28
280
     0
102
RTVSPost2010PropOp28
 70
     1
102
RTVSPost2010Prop29
280
     1
102
RTVSPost2010PropOp29
 70
     1
102
RTVSPost2010Prop30
280
     1
102
RTVSPost2010PropOp30
 70
     1
102
RTVSPost2010Prop31
280
     0
102
RTVSPost2010PropOp31
 70
     1
102
RTVSPost2010Prop32
280
     0
102
RTVSPost2010PropOp32
 70
     1
102
RTVSPost2010Prop33
280
     0
102
RTVSPost2010PropOp33
 70
     1
102
RTVSPost2010Prop34
280
     0
102
RTVSPost2010PropOp34
 70
     1
102
RTVSPost2010Prop35
280
     0
102
RTVSPost2010PropOp35
 70
     1
102
RTVSPost2010Prop36
280
     0
102
RTVSPost2010PropOp36
 70
     1
102
RTVSPost2010Prop37
 90
       50
102
RTVSPost2010PropOp37
 70
     1
102
RTVSPost2010Prop38
140
0.0
102
RTVSPost2010PropOp38
 70
     1
102
RTVSPost2010Prop39
140
1.0
102
RTVSPost2010PropOp39
 70
     1
102
RTVSPost2010Prop40
 90
        0
102
RTVSPost2010PropOp40
 70
     1
102
RTVSPost2010Prop41ColorIndex
 90
       18
102
RTVSPost2010Prop41ColorRGB
 90
        0
102
RTVSPost2010PropOp41
 70
     1
102
RTVSPost2010Prop42
 90
       50
102
RTVSPost2010PropOp42
 70
     1
102
RTVSPost2010Prop43
 90
        3
102
RTVSPost2010PropOp43
 70
     1
102
RTVSPost2010Prop44ColorIndex
 90
        5
102
RTVSPost2010Prop44ColorRGB
 90
      255
102
RTVSPost2010PropOp44
 70
     1
102
RTVSPost2010Prop45
280
     0
102
RTVSPost2010PropOp45
 70
     1
102
RTVSPost2010Prop46
 90
       50
102
RTVSPost2010PropOp46
 70
     1
102
RTVSPost2010Prop47
 90
       50
102
RTVSPost2010PropOp47
 70
     1
102
RTVSPost2010Prop48
 90
       50
102
RTVSPost2010PropOp48
 70
     1
102
RTVSPost2010Prop49
280
     0
102
RTVSPost2010PropOp49
 70
     1
102
RTVSPost2010Prop50
 90
       50
102
RTVSPost2010PropOp50
 70
     1
102
RTVSPost2010Prop51ColorIndex
 90
      256
102
RTVSPost2010Prop51ColorRGB
 90
-16777216
102
RTVSPost2010PropOp51
 70
     0
102
RTVSPost2010Prop52
140
1.0
102
RTVSPost2010PropOp52
 70
     0
102
RTVSPost2010Prop53
 90
        2
102
RTVSPost2010PropOp53
 70
     1
102
RTVSPost2010Prop54
  1
strokes_ogs.tif
102
RTVSPost2010PropOp54
 70
     1
102
RTVSPost2010Prop55
280
     0
102
RTVSPost2010PropOp55
 70
     1
102
RTVSPost2010Prop56
140
1.0
102
RTVSPost2010PropOp56
 70
     1
102
RTVSPost2010Prop57
140
1.0
102
RTVSPost2010PropOp57
 70
     1
  0
XRECORD
  5
162
102
{ACAD_REACTORS
330
161
102
}
330
161
100
AcDbXrecord
280
     1
102
RTVSPost2010Prop28
280
     0
102
RTVSPost2010PropOp28
 70
     1
102
RTVSPost2010Prop29
280
     1
102
RTVSPost2010PropOp29
 70
     1
102
RTVSPost2010Prop30
280
     1
102
RTVSPost2010PropOp30
 70
     1
102
RTVSPost2010Prop31
280
     0
102
RTVSPost2010PropOp31
 70
     1
102
RTVSPost2010Prop32
280
     0
102
RTVSPost2010PropOp32
 70
     1
102
RTVSPost2010Prop33
280
     0
102
RTVSPost2010PropOp33
 70
     1
102
RTVSPost2010Prop34
280
     0
102
RTVSPost2010PropOp34
 70
     1
102
RTVSPost2010Prop35
280
     0
102
RTVSPost2010PropOp35
 70
     1
102
RTVSPost2010Prop36
280
     0
102
RTVSPost2010PropOp36
 70
     1
102
RTVSPost2010Prop37
 90
       50
102
RTVSPost2010PropOp37
 70
     1
102
RTVSPost2010Prop38
140
0.0
102
RTVSPost2010PropOp38
 70
     1
102
RTVSPost2010Prop39
140
1.0
102
RTVSPost2010PropOp39
 70
     1
102
RTVSPost2010Prop40
 90
        0
102
RTVSPost2010PropOp40
 70
     1
102
RTVSPost2010Prop41ColorIndex
 90
       18
102
RTVSPost2010Prop41ColorRGB
 90
        0
102
RTVSPost2010PropOp41
 70
     1
102
RTVSPost2010Prop42
 90
       50
102
RTVSPost2010PropOp42
 70
     1
102
RTVSPost2010Prop43
 90
        3
102
RTVSPost2010PropOp43
 70
     1
102
RTVSPost2010Prop44ColorIndex
 90
        5
102
RTVSPost2010Prop44ColorRGB
 90
      255
102
RTVSPost2010PropOp44
 70
     1
102
RTVSPost2010Prop45
280
     0
102
RTVSPost2010PropOp45
 70
     1
102
RTVSPost2010Prop46
 90
       50
102
RTVSPost2010PropOp46
 70
     1
102
RTVSPost2010Prop47
 90
       50
102
RTVSPost2010PropOp47
 70
     1
102
RTVSPost2010Prop48
 90
       50
102
RTVSPost2010PropOp48
 70
     1
102
RTVSPost2010Prop49
280
     0
102
RTVSPost2010PropOp49
 70
     1
102
RTVSPost2010Prop50
 90
       50
102
RTVSPost2010PropOp50
 70
     1
102
RTVSPost2010Prop51ColorIndex
 90
      256
102
RTVSPost2010Prop51ColorRGB
 90
-16777216
102
RTVSPost2010PropOp51
 70
     0
102
RTVSPost2010Prop52
140
1.0
102
RTVSPost2010PropOp52
 70
     0
102
RTVSPost2010Prop53
 90
        2
102
RTVSPost2010PropOp53
 70
     1
102
RTVSPost2010Prop54
  1
strokes_ogs.tif
102
RTVSPost2010PropOp54
 70
     1
102
RTVSPost2010Prop55
280
     0
102
RTVSPost2010PropOp55
 70
     1
102
RTVSPost2010Prop56
140
1.0
102
RTVSPost2010PropOp56
 70
     1
102
RTVSPost2010Prop57
140
1.0
102
RTVSPost2010PropOp57
 70
     1
  0
XRECORD
  5
17A
102
{ACAD_REACTORS
330
179
102
}
330
179
100
AcDbXrecord
280
     1
102
RTVSPost2010Prop28
280
     0
102
RTVSPost2010PropOp28
 70
     1
102
RTVSPost2010Prop29
280
     1
102
RTVSPost2010PropOp29
 70
     1
102
RTVSPost2010Prop30
280
     1
102
RTVSPost2010PropOp30
 70
     1
102
RTVSPost2010Prop31
280
     0
102
RTVSPost2010PropOp31
 70
     1
102
RTVSPost2010Prop32
280
     0
102
RTVSPost2010PropOp32
 70
     1
102
RTVSPost2010Prop33
280
     0
102
RTVSPost2010PropOp33
 70
     1
102
RTVSPost2010Prop34
280
     0
102
RTVSPost2010PropOp34
 70
     1
102
RTVSPost2010Prop35
280
     0
102
RTVSPost2010PropOp35
 70
     1
102
RTVSPost2010Prop36
280
     0
102
RTVSPost2010PropOp36
 70
     1
102
RTVSPost2010Prop37
 90
       50
102
RTVSPost2010PropOp37
 70
     1
102
RTVSPost2010Prop38
140
0.0
102
RTVSPost2010PropOp38
 70
     1
102
RTVSPost2010Prop39
140
1.0
102
RTVSPost2010PropOp39
 70
     1
102
RTVSPost2010Prop40
 90
        0
102
RTVSPost2010PropOp40
 70
     1
102
RTVSPost2010Prop41ColorIndex
 90
       18
102
RTVSPost2010Prop41ColorRGB
 90
        0
102
RTVSPost2010PropOp41
 70
     1
102
RTVSPost2010Prop42
 90
       50
102
RTVSPost2010PropOp42
 70
     1
102
RTVSPost2010Prop43
 90
        3
102
RTVSPost2010PropOp43
 70
     1
102
RTVSPost2010Prop44ColorIndex
 90
        5
102
RTVSPost2010Prop44ColorRGB
 90
      255
102
RTVSPost2010PropOp44
 70
     1
102
RTVSPost2010Prop45
280
     0
102
RTVSPost2010PropOp45
 70
     1
102
RTVSPost2010Prop46
 90
       50
102
RTVSPost2010PropOp46
 70
     1
102
RTVSPost2010Prop47
 90
       50
102
RTVSPost2010PropOp47
 70
     1
102
RTVSPost2010Prop48
 90
       50
102
RTVSPost2010PropOp48
 70
     1
102
RTVSPost2010Prop49
280
     0
102
RTVSPost2010PropOp49
 70
     1
102
RTVSPost2010Prop50
 90
       50
102
RTVSPost2010PropOp50
 70
     1
102
RTVSPost2010Prop51ColorIndex
 90
      256
102
RTVSPost2010Prop51ColorRGB
 90
-16777216
102
RTVSPost2010PropOp51
 70
     0
102
RTVSPost2010Prop52
140
1.0
102
RTVSPost2010PropOp52
 70
     0
102
RTVSPost2010Prop53
 90
        2
102
RTVSPost2010PropOp53
 70
     1
102
RTVSPost2010Prop54
  1
strokes_ogs.tif
102
RTVSPost2010PropOp54
 70
     1
102
RTVSPost2010Prop55
280
     0
102
RTVSPost2010PropOp55
 70
     1
102
RTVSPost2010Prop56
140
1.0
102
RTVSPost2010PropOp56
 70
     1
102
RTVSPost2010Prop57
140
1.0
102
RTVSPost2010PropOp57
 70
     1
  0
ENDSEC
  0
EOF
