  0
SECTION
  2
HEADER
  9
$ACADVER
  1
AC1024
  9
$ACADMAINTVER
 70
   226
  9
$DWGCODEPAGE
  3
ANSI_1252
  9
$INSBASE
 10
0.0
 20
0.0
 30
0.0
  9
$EXTMIN
 10
1.000000000000000E+20
 20
1.000000000000000E+20
 30
1.000000000000000E+20
  9
$EXTMAX
 10
-1.000000000000000E+20
 20
-1.000000000000000E+20
 30
-1.000000000000000E+20
  9
$LIMMIN
 10
0.0
 20
0.0
  9
$LIMMAX
 10
12.0
 20
9.0
  9
$ORTHOMODE
 70
     0
  9
$REGENMODE
 70
     1
  9
$FILLMODE
 70
     1
  9
$QTEXTMODE
 70
     0
  9
$MIRRTEXT
 70
     0
  9
$LTSCALE
 40
1.0
  9
$ATTMODE
 70
     1
  9
$TEXTSIZE
 40
0.2
  9
$TRACEWID
 40
0.05
  9
$TEXTSTYLE
  7
Standard
  9
$CLAYER
  8
0
  9
$CELTYPE
  6
ByLayer
  9
$CECOLOR
 62
   256
  9
$CELTSCALE
 40
1.0
  9
$DISPSILH
 70
     0
  9
$DIMSCALE
 40
1.0
  9
$DIMASZ
 40
0.18
  9
$DIMEXO
 40
0.0625
  9
$DIMDLI
 40
0.38
  9
$DIMRND
 40
0.0
  9
$DIMDLE
 40
0.0
  9
$DIMEXE
 40
0.18
  9
$DIMTP
 40
0.0
  9
$DIMTM
 40
0.0
  9
$DIMTXT
 40
0.18
  9
$DIMCEN
 40
0.09
  9
$DIMTSZ
 40
0.0
  9
$DIMTOL
 70
     0
  9
$DIMLIM
 70
     0
  9
$DIMTIH
 70
     1
  9
$DIMTOH
 70
     1
  9
$DIMSE1
 70
     0
  9
$DIMSE2
 70
     0
  9
$DIMTAD
 70
     0
  9
$DIMZIN
 70
     0
  9
$DIMBLK
  1

  9
$DIMASO
 70
     1
  9
$DIMSHO
 70
     1
  9
$DIMPOST
  1

  9
$DIMAPOST
  1

  9
$DIMALT
 70
     0
  9
$DIMALTD
 70
     2
  9
$DIMALTF
 40
25.4
  9
$DIMLFAC
 40
1.0
  9
$DIMTOFL
 70
     0
  9
$DIMTVP
 40
0.0
  9
$DIMTIX
 70
     0
  9
$DIMSOXD
 70
     0
  9
$DIMSAH
 70
     0
  9
$DIMBLK1
  1

  9
$DIMBLK2
  1

  9
$DIMSTYLE
  2
Standard
  9
$DIMCLRD
 70
     0
  9
$DIMCLRE
 70
     0
  9
$DIMCLRT
 70
     0
  9
$DIMTFAC
 40
1.0
  9
$DIMGAP
 40
0.09
  9
$DIMJUST
 70
     0
  9
$DIMSD1
 70
     0
  9
$DIMSD2
 70
     0
  9
$DIMTOLJ
 70
     1
  9
$DIMTZIN
 70
     0
  9
$DIMALTZ
 70
     0
  9
$DIMALTTZ
 70
     0
  9
$DIMUPT
 70
     0
  9
$DIMDEC
 70
     4
  9
$DIMTDEC
 70
     4
  9
$DIMALTU
 70
     2
  9
$DIMALTTD
 70
     2
  9
$DIMTXSTY
  7
Standard
  9
$DIMAUNIT
 70
     0
  9
$DIMADEC
 70
     0
  9
$DIMALTRND
 40
0.0
  9
$DIMAZIN
 70
     0
  9
$DIMDSEP
 70
    46
  9
$DIMATFIT
 70
     3
  9
$DIMFRAC
 70
     0
  9
$DIMLDRBLK
  1

  9
$DIMLUNIT
 70
     2
  9
$DIMLWD
 70
    -2
  9
$DIMLWE
 70
    -2
  9
$DIMTMOVE
 70
     0
  9
$DIMFXL
 40
1.0
  9
$DIMFXLON
 70
     0
  9
$DIMJOGANG
 40
0.7853981633974483
  9
$DIMTFILL
 70
     0
  9
$DIMTFILLCLR
 70
     0
  9
$DIMARCSYM
 70
     0
  9
$DIMLTYPE
  6

  9
$DIMLTEX1
  6

  9
$DIMLTEX2
  6

  9
$DIMTXTDIRECTION
 70
     0
  9
$LUNITS
 70
     2
  9
$LUPREC
 70
     4
  9
$SKETCHINC
 40
0.1
  9
$FILLETRAD
 40
0.0
  9
$AUNITS
 70
     0
  9
$AUPREC
 70
     0
  9
$MENU
  1
.
  9
$ELEVATION
 40
0.0
  9
$PELEVATION
 40
0.0
  9
$THICKNESS
 40
0.0
  9
$LIMCHECK
 70
     0
  9
$CHAMFERA
 40
0.0
  9
$CHAMFERB
 40
0.0
  9
$CHAMFERC
 40
0.0
  9
$CHAMFERD
 40
0.0
  9
$SKPOLY
 70
     0
  9
$TDCREATE
 40
2459620.669953704
  9
$TDUCREATE
 40
2459620.628287037
  9
$TDUPDATE
 40
2459620.669953704
  9
$TDUUPDATE
 40
2459620.628287037
  9
$TDINDWG
 40
0.0000000000
  9
$TDUSRTIMER
 40
0.0000000000
  9
$USRTIMER
 70
     1
  9
$ANGBASE
 50
0.0
  9
$ANGDIR
 70
     0
  9
$PDMODE
 70
     0
  9
$PDSIZE
 40
0.0
  9
$PLINEWID
 40
0.0
  9
$SPLFRAME
 70
     0
  9
$SPLINETYPE
 70
     6
  9
$SPLINESEGS
 70
     8
  9
$HANDSEED
  5
134
  9
$SURFTAB1
 70
     6
  9
$SURFTAB2
 70
     6
  9
$SURFTYPE
 70
     6
  9
$SURFU
 70
     6
  9
$SURFV
 70
     6
  9
$UCSBASE
  2

  9
$UCSNAME
  2

  9
$UCSORG
 10
0.0
 20
0.0
 30
0.0
  9
$UCSXDIR
 10
1.0
 20
0.0
 30
0.0
  9
$UCSYDIR
 10
0.0
 20
1.0
 30
0.0
  9
$UCSORTHOREF
  2

  9
$UCSORTHOVIEW
 70
     0
  9
$UCSORGTOP
 10
0.0
 20
0.0
 30
0.0
  9
$UCSORGBOTTOM
 10
0.0
 20
0.0
 30
0.0
  9
$UCSORGLEFT
 10
0.0
 20
0.0
 30
0.0
  9
$UCSORGRIGHT
 10
0.0
 20
0.0
 30
0.0
  9
$UCSORGFRONT
 10
0.0
 20
0.0
 30
0.0
  9
$UCSORGBACK
 10
0.0
 20
0.0
 30
0.0
  9
$PUCSBASE
  2

  9
$PUCSNAME
  2

  9
$PUCSORG
 10
0.0
 20
0.0
 30
0.0
  9
$PUCSXDIR
 10
1.0
 20
0.0
 30
0.0
  9
$PUCSYDIR
 10
0.0
 20
1.0
 30
0.0
  9
$PUCSORTHOREF
  2

  9
$PUCSORTHOVIEW
 70
     0
  9
$PUCSORGTOP
 10
0.0
 20
0.0
 30
0.0
  9
$PUCSORGBOTTOM
 10
0.0
 20
0.0
 30
0.0
  9
$PUCSORGLEFT
 10
0.0
 20
0.0
 30
0.0
  9
$PUCSORGRIGHT
 10
0.0
 20
0.0
 30
0.0
  9
$PUCSORGFRONT
 10
0.0
 20
0.0
 30
0.0
  9
$PUCSORGBACK
 10
0.0
 20
0.0
 30
0.0
  9
$USERI1
 70
     0
  9
$USERI2
 70
     0
  9
$USERI3
 70
     0
  9
$USERI4
 70
     0
  9
$USERI5
 70
     0
  9
$USERR1
 40
0.0
  9
$USERR2
 40
0.0
  9
$USERR3
 40
0.0
  9
$USERR4
 40
0.0
  9
$USERR5
 40
0.0
  9
$WORLDVIEW
 70
     1
  9
$SHADEDGE
 70
     3
  9
$SHADEDIF
 70
    70
  9
$TILEMODE
 70
     1
  9
$MAXACTVP
 70
    64
  9
$PINSBASE
 10
0.0
 20
0.0
 30
0.0
  9
$PLIMCHECK
 70
     0
  9
$PEXTMIN
 10
1.000000000000000E+20
 20
1.000000000000000E+20
 30
1.000000000000000E+20
  9
$PEXTMAX
 10
-1.000000000000000E+20
 20
-1.000000000000000E+20
 30
-1.000000000000000E+20
  9
$PLIMMIN
 10
0.0
 20
0.0
  9
$PLIMMAX
 10
12.0
 20
9.0
  9
$UNITMODE
 70
     0
  9
$VISRETAIN
 70
     1
  9
$PLINEGEN
 70
     0
  9
$PSLTSCALE
 70
     1
  9
$TREEDEPTH
 70
  3020
  9
$CMLSTYLE
  2
Standard
  9
$CMLJUST
 70
     0
  9
$CMLSCALE
 40
1.0
  9
$PROXYGRAPHICS
 70
     1
  9
$MEASUREMENT
 70
     0
  9
$CELWEIGHT
370
    -1
  9
$ENDCAPS
280
     0
  9
$JOINSTYLE
280
     0
  9
$LWDISPLAY
290
     1
  9
$INSUNITS
 70
     4
  9
$HYPERLINKBASE
  1

  9
$STYLESHEET
  1

  9
$XEDIT
290
     1
  9
$CEPSNTYPE
380
     0
  9
$PSTYLEMODE
290
     1
  9
$FINGERPRINTGUID
  2
{0BD4A281-99B6-CF45-9E26-8CF427819CA7}
  9
$VERSIONGUID
  2
{98AA5531-F1A9-644D-8AE6-564753D5F650}
  9
$EXTNAMES
290
     1
  9
$PSVPSCALE
 40
0.0
  9
$OLESTARTUP
290
     0
  9
$SORTENTS
280
   127
  9
$INDEXCTL
280
     0
  9
$HIDETEXT
280
     1
  9
$XCLIPFRAME
280
     2
  9
$HALOGAP
280
     0
  9
$OBSCOLOR
 70
   257
  9
$OBSLTYPE
280
     0
  9
$INTERSECTIONDISPLAY
280
     0
  9
$INTERSECTIONCOLOR
 70
   257
  9
$DIMASSOC
280
     2
  9
$PROJECTNAME
  1

  9
$CAMERADISPLAY
290
     0
  9
$LENSLENGTH
 40
50.0
  9
$CAMERAHEIGHT
 40
0.0
  9
$STEPSPERSEC
 40
2.0
  9
$STEPSIZE
 40
6.0
  9
$3DDWFPREC
 40
2.0
  9
$PSOLWIDTH
 40
0.25
  9
$PSOLHEIGHT
 40
4.0
  9
$LOFTANG1
 40
1.570796326794896
  9
$LOFTANG2
 40
1.570796326794896
  9
$LOFTMAG1
 40
0.0
  9
$LOFTMAG2
 40
0.0
  9
$LOFTPARAM
 70
     7
  9
$LOFTNORMALS
280
     1
  9
$LATITUDE
 40
37.795
  9
$LONGITUDE
 40
-122.394
  9
$NORTHDIRECTION
 40
0.0
  9
$TIMEZONE
 70
 -8000
  9
$LIGHTGLYPHDISPLAY
280
     1
  9
$TILEMODELIGHTSYNCH
280
     1
  9
$CMATERIAL
347
11
  9
$SOLIDHIST
280
     0
  9
$SHOWHIST
280
     1
  9
$DWFFRAME
280
     2
  9
$DGNFRAME
280
     0
  9
$REALWORLDSCALE
290
     1
  9
$INTERFERECOLOR
 62
     1
  9
$INTERFEREOBJVS
345
33
  9
$INTERFEREVPVS
346
30
  9
$CSHADOW
280
     0
  9
$SHADOWPLANELOCATION
 40
0.0
  0
ENDSEC
  0
SECTION
  2
CLASSES
  0
CLASS
  1
ACDBDICTIONARYWDFLT
  2
AcDbDictionaryWithDefault
  3
ObjectDBX Classes
 90
        0
 91
        1
280
     0
281
     0
  0
CLASS
  1
MATERIAL
  2
AcDbMaterial
  3
ObjectDBX Classes
 90
     1153
 91
        3
280
     0
281
     0
  0
CLASS
  1
VISUALSTYLE
  2
AcDbVisualStyle
  3
ObjectDBX Classes
 90
     4095
 91
       24
280
     0
281
     0
  0
CLASS
  1
SCALE
  2
AcDbScale
  3
ObjectDBX Classes
 90
     1153
 91
       17
280
     0
281
     0
  0
CLASS
  1
TABLESTYLE
  2
AcDbTableStyle
  3
ObjectDBX Classes
 90
     4095
 91
        1
280
     0
281
     0
  0
CLASS
  1
MLEADERSTYLE
  2
AcDbMLeaderStyle
  3
ACDB_MLEADERSTYLE_CLASS
 90
     4095
 91
        1
280
     0
281
     0
  0
CLASS
  1
ACDBSECTIONVIEWSTYLE
  2
AcDbSectionViewStyle
  3
ObjectDBX Classes
 90
     1025
 91
        1
280
     0
281
     0
  0
CLASS
  1
ACDBDETAILVIEWSTYLE
  2
AcDbDetailViewStyle
  3
ObjectDBX Classes
 90
     1025
 91
        1
280
     0
281
     0
  0
CLASS
  1
DICTIONARYVAR
  2
AcDbDictionaryVar
  3
ObjectDBX Classes
 90
        0
 91
        5
280
     0
281
     0
  0
CLASS
  1
CELLSTYLEMAP
  2
AcDbCellStyleMap
  3
ObjectDBX Classes
 90
     1152
 91
        1
280
     0
281
     0
  0
ENDSEC
  0
SECTION
  2
TABLES
  0
TABLE
  2
VPORT
  5
8
330
0
100
AcDbSymbolTable
 70
     1
  0
VPORT
  5
57
330
8
100
AcDbSymbolTableRecord
100
AcDbViewportTableRecord
  2
*Active
 70
     0
 10
0.0
 20
0.0
 11
1.0
 21
1.0
 12
0.0
 22
0.0
 13
0.0
 23
0.0
 14
1.0
 24
1.0
 15
0.0
 25
0.0
 16
0.0
 26
0.0
 36
1.0
 17
104.9999999737534
 27
-148.4999999628701
 37
0.0
 40
302.939999924255
 41
0.7070707070707534
 42
50.0
 43
0.0
 44
0.0
 50
0.0
 51
0.0
 71
     0
 72
   100
 73
     1
 74
     1
 75
     0
 76
     0
 77
     0
 78
     0
281
     0
 65
     1
110
0.0
120
0.0
130
0.0
111
1.0
121
0.0
131
0.0
112
0.0
122
1.0
132
0.0
 79
     0
146
0.0
 60
     3
 61
     5
292
     1
282
     1
141
0.0
142
0.0
 63
   250
421
  3355443
  0
ENDTAB
  0
TABLE
  2
LTYPE
  5
5
330
0
100
AcDbSymbolTable
 70
     1
  0
LTYPE
  5
5B
330
5
100
AcDbSymbolTableRecord
100
AcDbLinetypeTableRecord
  2
ByBlock
 70
     0
  3

 72
    65
 73
     0
 40
0.0
  0
LTYPE
  5
5C
330
5
100
AcDbSymbolTableRecord
100
AcDbLinetypeTableRecord
  2
ByLayer
 70
     0
  3

 72
    65
 73
     0
 40
0.0
  0
LTYPE
  5
5D
330
5
100
AcDbSymbolTableRecord
100
AcDbLinetypeTableRecord
  2
Continuous
 70
     0
  3
Solid line
 72
    65
 73
     0
 40
0.0
  0
ENDTAB
  0
TABLE
  2
LAYER
  5
2
330
0
100
AcDbSymbolTable
 70
     2
  0
LAYER
  5
54
330
2
100
AcDbSymbolTableRecord
100
AcDbLayerTableRecord
  2
0
 70
     0
 62
     7
  6
Continuous
370
    -3
390
F
347
21
  0
LAYER
  5
78
330
2
100
AcDbSymbolTableRecord
100
AcDbLayerTableRecord
  2
Capa 1
 70
     0
 62
     7
  6
Continuous
370
     0
390
F
347
21
  0
ENDTAB
  0
TABLE
  2
STYLE
  5
3
330
0
100
AcDbSymbolTable
 70
     2
  0
STYLE
  5
55
330
3
100
AcDbSymbolTableRecord
100
AcDbTextStyleTableRecord
  2
Standard
 70
     0
 40
0.0
 41
1.0
 50
0.0
 71
     0
 42
0.2
  3
txt
  4

  0
STYLE
  5
5A
330
3
100
AcDbSymbolTableRecord
100
AcDbTextStyleTableRecord
  2
Annotative
 70
     0
 40
0.0
 41
1.0
 50
0.0
 71
     0
 42
0.2
  3
txt
  4

1001
AcadAnnotative
1000
AnnotativeData
1002
{
1070
     1
1070
     1
1002
}
  0
ENDTAB
  0
TABLE
  2
VIEW
  5
6
330
0
100
AcDbSymbolTable
 70
     0
  0
ENDTAB
  0
TABLE
  2
UCS
  5
7
330
0
100
AcDbSymbolTable
 70
     0
  0
ENDTAB
  0
TABLE
  2
APPID
  5
9
330
0
100
AcDbSymbolTable
 70
     2
  0
APPID
  5
56
330
9
100
AcDbSymbolTableRecord
100
AcDbRegAppTableRecord
  2
ACAD
 70
     0
  0
APPID
  5
5E
330
9
100
AcDbSymbolTableRecord
100
AcDbRegAppTableRecord
  2
AcadAnnotative
 70
     0
  0
ENDTAB
  0
TABLE
  2
DIMSTYLE
  5
A
330
0
100
AcDbSymbolTable
 70
     2
100
AcDbDimStyleTable
 71
     0
  0
DIMSTYLE
105
58
330
A
100
AcDbSymbolTableRecord
100
AcDbDimStyleTableRecord
  2
Standard
 70
     0
340
55
  0
DIMSTYLE
105
59
330
A
100
AcDbSymbolTableRecord
100
AcDbDimStyleTableRecord
  2
Annotative
 70
     0
340
55
1001
AcadAnnotative
1000
AnnotativeData
1002
{
1070
     1
1070
     1
1002
}
  0
ENDTAB
  0
TABLE
  2
BLOCK_RECORD
  5
1
330
0
100
AcDbSymbolTable
 70
     4
  0
BLOCK_RECORD
  5
70
330
1
100
AcDbSymbolTableRecord
100
AcDbBlockTableRecord
  2
*Model_Space
340
73
 70
     0
280
     1
281
     0
  0
BLOCK_RECORD
  5
6C
330
1
100
AcDbSymbolTableRecord
100
AcDbBlockTableRecord
  2
*Paper_Space
340
6F
 70
     0
280
     1
281
     0
  0
BLOCK_RECORD
  5
74
330
1
100
AcDbSymbolTableRecord
100
AcDbBlockTableRecord
  2
*Paper_Space0
340
77
 70
     0
280
     1
281
     0
  0
BLOCK_RECORD
  5
AE
330
1
100
AcDbSymbolTableRecord
100
AcDbBlockTableRecord
  2
Block_0
340
0
102
{BLKREFS
331
AF
102
}
 70
     0
280
     1
281
     0
  0
BLOCK_RECORD
  5
B5
330
1
100
AcDbSymbolTableRecord
100
AcDbBlockTableRecord
  2
Block_1
340
0
102
{BLKREFS
331
B6
102
}
 70
     0
280
     1
281
     0
  0
BLOCK_RECORD
  5
EB
330
1
100
AcDbSymbolTableRecord
100
AcDbBlockTableRecord
  2
Block_2
340
0
102
{BLKREFS
331
EC
102
}
 70
     0
280
     1
281
     0
  0
ENDTAB
  0
ENDSEC
  0
SECTION
  2
BLOCKS
  0
BLOCK
  5
71
330
70
100
AcDbEntity
  8
0
100
AcDbBlockBegin
  2
*Model_Space
 70
     0
 10
0.0
 20
0.0
 30
0.0
  3
*Model_Space
  1

  0
ENDBLK
  5
72
330
70
100
AcDbEntity
  8
0
100
AcDbBlockEnd
  0
BLOCK
  5
6D
330
6C
100
AcDbEntity
 67
     1
  8
0
100
AcDbBlockBegin
  2
*Paper_Space
 70
     0
 10
0.0
 20
0.0
 30
0.0
  3
*Paper_Space
  1

  0
ENDBLK
  5
6E
330
6C
100
AcDbEntity
 67
     1
  8
0
100
AcDbBlockEnd
  0
BLOCK
  5
75
330
74
100
AcDbEntity
 67
     1
  8
0
100
AcDbBlockBegin
  2
*Paper_Space0
 70
     0
 10
0.0
 20
0.0
 30
0.0
  3
*Paper_Space0
  1

  0
ENDBLK
  5
76
330
74
100
AcDbEntity
 67
     1
  8
0
100
AcDbBlockEnd
  0
BLOCK
  5
B0
330
AE
100
AcDbEntity
  8
0
100
AcDbBlockBegin
  2
Block_0
 70
     0
 10
0.0
 20
0.0
 30
0.0
  3
Block_0
  1

  0
LINE
  5
B2
330
AE
100
AcDbEntity
  8
Capa 1
 62
    18
420
        0
370
     9
100
AcDbLine
 10
60.42619943810109
 20
-244.1643961329006
 30
0.0
 11
60.42619943810109
 21
-246.698603991523
 31
0.0
  0
LINE
  5
B3
330
AE
100
AcDbEntity
  8
Capa 1
 62
    18
420
        0
370
     9
100
AcDbLine
 10
161.1609618182226
 20
-244.1643961329006
 30
0.0
 11
161.1609618182226
 21
-246.698603991523
 31
0.0
  0
LINE
  5
B4
330
AE
100
AcDbEntity
  8
Capa 1
 62
    18
420
        0
370
     9
100
AcDbLine
 10
60.42619943810109
 20
-245.4315000622156
 30
0.0
 11
161.1609618182226
 21
-245.4315000622156
 31
0.0
  0
ENDBLK
  5
B1
330
AE
100
AcDbEntity
  8
0
100
AcDbBlockEnd
  0
BLOCK
  5
B7
330
B5
100
AcDbEntity
  8
0
100
AcDbBlockBegin
  2
Block_1
 70
     0
 10
0.0
 20
0.0
 30
0.0
  3
Block_1
  1

  0
LINE
  5
B9
330
B5
100
AcDbEntity
  8
Capa 1
 62
    18
420
        0
370
     9
100
AcDbLine
 10
173.2993272136196
 20
-161.6303764340019
 30
0.0
 11
170.7651193549999
 21
-161.6303764340019
 31
0.0
  0
LINE
  5
BA
330
B5
100
AcDbEntity
  8
Capa 1
 62
    18
420
        0
370
     9
100
AcDbLine
 10
173.2993272136196
 20
-233.2217484400017
 30
0.0
 11
170.7651193549999
 21
-233.2217484400017
 31
0.0
  0
LINE
  5
BB
330
B5
100
AcDbEntity
  8
Capa 1
 62
    18
420
        0
370
     9
100
AcDbLine
 10
172.0322232843097
 20
-161.6303764340019
 30
0.0
 11
172.0322232843097
 21
-233.2217484400017
 31
0.0
  0
ENDBLK
  5
B8
330
B5
100
AcDbEntity
  8
0
100
AcDbBlockEnd
  0
BLOCK
  5
ED
330
EB
100
AcDbEntity
  8
0
100
AcDbBlockBegin
  2
Block_2
 70
     0
 10
0.0
 20
0.0
 30
0.0
  3
Block_2
  1

  0
LINE
  5
EF
330
EB
100
AcDbEntity
  8
Capa 1
 62
    18
420
        0
370
     9
100
AcDbLine
 10
171.8768663104814
 20
-84.66932435101943
 30
0.0
 11
169.3426584518616
 21
-84.66932435101943
 31
0.0
  0
LINE
  5
F0
330
EB
100
AcDbEntity
  8
Capa 1
 62
    18
420
        0
370
     9
100
AcDbLine
 10
171.8768663104814
 20
-142.8289586205799
 30
0.0
 11
169.3426584518616
 21
-142.8289586205799
 31
0.0
  0
LINE
  5
F1
330
EB
100
AcDbEntity
  8
Capa 1
 62
    18
420
        0
370
     9
100
AcDbLine
 10
170.6097623811715
 20
-84.66932435101943
 30
0.0
 11
170.6097623811715
 21
-142.8289586205799
 31
0.0
  0
MTEXT
  5
F2
330
EB
100
AcDbEntity
  8
Capa 1
100
AcDbMText
 10
169.3429795583587
 20
-113.748784693785
 30
0.0
 40
0.2
 41
0.0
 46
0.0
 71
     7
 72
     1
  1
\C18;\c0;\FArial Bold|b1|i0|c1;\H0.124883;\W1.000000;45.8997
 11
0.0000000000000001
 21
1.0
 31
0.0
 73
     1
 44
1.0
  0
ENDBLK
  5
EE
330
EB
100
AcDbEntity
  8
0
100
AcDbBlockEnd
  0
ENDSEC
  0
SECTION
  2
ENTITIES
  0
LINE
  5
79
330
70
100
AcDbEntity
  8
Capa 1
 62
    18
420
        0
370
     9
100
AcDbLine
 10
60.55290983103311
 20
-197.489417633464
 30
0.0
 11
161.0342514252931
 21
-197.489417633464
 31
0.0
  0
LINE
  5
7A
330
70
100
AcDbEntity
  8
Capa 1
 62
    18
420
        0
370
     9
100
AcDbLine
 10
60.55290983103311
 20
-162.3906387915863
 30
0.0
 11
60.55290983103311
 21
-197.489417633464
 31
0.0
  0
LINE
  5
7B
330
70
100
AcDbEntity
  8
Capa 1
 62
    18
420
        0
370
     9
100
AcDbLine
 10
161.0342514252931
 20
-197.489417633464
 30
0.0
 11
161.0342514252931
 21
-162.3906387915863
 31
0.0
  0
LINE
  5
7C
330
70
100
AcDbEntity
  8
Capa 1
 62
    18
420
        0
370
     9
100
AcDbLine
 10
60.55290983103311
 20
-233.0950380470697
 30
0.0
 11
161.0342514252931
 21
-233.0950380470697
 31
0.0
  0
LINE
  5
7D
330
70
100
AcDbEntity
  8
Capa 1
 62
    18
420
        0
370
     9
100
AcDbLine
 10
60.55290983103311
 20
-197.9962592051895
 30
0.0
 11
60.55290983103311
 21
-233.0950380470697
 31
0.0
  0
LINE
  5
7E
330
70
100
AcDbEntity
  8
Capa 1
 62
    18
420
        0
370
     9
100
AcDbLine
 10
161.0342514252931
 20
-233.0950380470697
 30
0.0
 11
161.0342514252931
 21
-197.9962592051895
 31
0.0
  0
LINE
  5
7F
330
70
100
AcDbEntity
  8
Capa 1
 62
    18
420
        0
370
     9
100
AcDbLine
 10
159.1335955313258
 20
-161.7570868269339
 30
0.0
 11
62.4535657249979
 21
-161.7570868269339
 31
0.0
  0
SPLINE
  5
80
330
70
100
AcDbEntity
  8
Capa 1
 62
    18
420
        0
370
     9
100
AcDbSpline
210
0.0
220
0.0
230
1.0
 70
     8
 71
     3
 72
     8
 73
     4
 74
     0
 42
0.0000000001
 43
0.0000000001
 40
0.0
 40
0.0
 40
0.0
 40
0.0
 40
1.0
 40
1.0
 40
1.0
 40
1.0
 10
61.64411078143214
 20
-197.9962592051895
 30
0.0
 10
61.87261786270506
 20
-198.1612878280505
 30
0.0
 10
62.12466395352174
 20
-198.2812841154626
 30
0.0
 10
62.38932721853847
 20
-198.351048305395
 30
0.0
  0
LINE
  5
81
330
70
100
AcDbEntity
  8
Capa 1
 62
    18
420
        0
370
     9
100
AcDbLine
 10
60.55290983103311
 20
-197.9962592051895
 30
0.0
 11
61.64411078143214
 21
-197.9962592051895
 31
0.0
  0
LINE
  5
82
330
70
100
AcDbEntity
  8
Capa 1
 62
    18
420
        0
370
     9
100
AcDbLine
 10
60.55290983103311
 20
-197.9962592051895
 30
0.0
 11
60.55290983103311
 21
-197.8442067336721
 31
0.0
  0
LINE
  5
83
330
70
100
AcDbEntity
  8
Capa 1
 62
    18
420
        0
370
     9
100
AcDbLine
 10
60.55290983103311
 20
-197.8442067336721
 30
0.0
 11
62.93506521813545
 21
-197.8442067336721
 31
0.0
  0
LINE
  5
84
330
70
100
AcDbEntity
  8
Capa 1
 62
    18
420
        0
370
     9
100
AcDbLine
 10
62.93506521813545
 20
-198.351048305395
 30
0.0
 11
62.93506521813545
 21
-197.8442067336721
 31
0.0
  0
LINE
  5
85
330
70
100
AcDbEntity
  8
Capa 1
 62
    18
420
        0
370
     9
100
AcDbLine
 10
62.38932721853847
 20
-198.351048305395
 30
0.0
 11
62.93506521813545
 21
-198.351048305395
 31
0.0
  0
LINE
  5
86
330
70
100
AcDbEntity
  8
Capa 1
 62
    18
420
        0
370
     9
100
AcDbLine
 10
158.6520960381883
 20
-197.8442067336721
 30
0.0
 11
62.93506521813545
 21
-197.8442067336721
 31
0.0
  0
LINE
  5
87
330
70
100
AcDbEntity
  8
Capa 1
 62
    18
420
        0
370
     9
100
AcDbLine
 10
158.6520960381883
 20
-198.351048305395
 30
0.0
 11
158.6520960381883
 21
-197.8442067336721
 31
0.0
  0
LINE
  5
88
330
70
100
AcDbEntity
  8
Capa 1
 62
    18
420
        0
370
     9
100
AcDbLine
 10
158.6520960381883
 20
-198.351048305395
 30
0.0
 11
62.93506521813545
 21
-198.351048305395
 31
0.0
  0
LINE
  5
89
330
70
100
AcDbEntity
  8
Capa 1
 62
    18
420
        0
370
     9
100
AcDbLine
 10
161.0342514252931
 20
-197.9962592051895
 30
0.0
 11
161.0342514252931
 21
-197.8442067336721
 31
0.0
  0
LINE
  5
8A
330
70
100
AcDbEntity
  8
Capa 1
 62
    18
420
        0
370
     9
100
AcDbLine
 10
161.0342514252931
 20
-197.9962592051895
 30
0.0
 11
159.9430504748916
 21
-197.9962592051895
 31
0.0
  0
SPLINE
  5
8B
330
70
100
AcDbEntity
  8
Capa 1
 62
    18
420
        0
370
     9
100
AcDbSpline
210
0.0
220
0.0
230
1.0
 70
     8
 71
     3
 72
     8
 73
     4
 74
     0
 42
0.0000000001
 43
0.0000000001
 40
0.0
 40
0.0
 40
0.0
 40
0.0
 40
1.0
 40
1.0
 40
1.0
 40
1.0
 10
159.1978340377852
 20
-198.351048305395
 30
0.0
 10
159.4624973028045
 20
-198.2812841154626
 30
0.0
 10
159.7145433936212
 20
-198.1612878280505
 30
0.0
 10
159.9430504748916
 20
-197.9962592051895
 30
0.0
  0
LINE
  5
8C
330
70
100
AcDbEntity
  8
Capa 1
 62
    18
420
        0
370
     9
100
AcDbLine
 10
161.0342514252931
 20
-197.8442067336721
 30
0.0
 11
158.6520960381883
 21
-197.8442067336721
 31
0.0
  0
LINE
  5
8D
330
70
100
AcDbEntity
  8
Capa 1
 62
    18
420
        0
370
     9
100
AcDbLine
 10
159.1978340377852
 20
-198.351048305395
 30
0.0
 11
158.6520960381883
 21
-198.351048305395
 31
0.0
  0
LINE
  5
8E
330
70
100
AcDbEntity
  8
Capa 1
 62
    18
420
        0
370
     9
100
AcDbLine
 10
158.6520960381883
 20
-162.2385863200715
 30
0.0
 11
62.93506521813545
 21
-162.2385863200715
 31
0.0
  0
LINE
  5
8F
330
70
100
AcDbEntity
  8
Capa 1
 62
    18
420
        0
370
     9
100
AcDbLine
 10
158.6520960381883
 20
-162.7454278917944
 30
0.0
 11
158.6520960381883
 21
-162.2385863200715
 31
0.0
  0
LINE
  5
90
330
70
100
AcDbEntity
  8
Capa 1
 62
    18
420
        0
370
     9
100
AcDbLine
 10
158.6520960381883
 20
-162.7454278917944
 30
0.0
 11
62.93506521813545
 21
-162.7454278917944
 31
0.0
  0
LINE
  5
91
330
70
100
AcDbEntity
  8
Capa 1
 62
    18
420
        0
370
     9
100
AcDbLine
 10
62.93506521813545
 20
-162.7454278917944
 30
0.0
 11
62.93506521813545
 21
-162.2385863200715
 31
0.0
  0
SPLINE
  5
92
330
70
100
AcDbEntity
  8
Capa 1
 62
    18
420
        0
370
     9
100
AcDbSpline
210
0.0
220
0.0
230
1.0
 70
     8
 71
     3
 72
     8
 73
     4
 74
     0
 42
0.0000000001
 43
0.0000000001
 40
0.0
 40
0.0
 40
0.0
 40
0.0
 40
1.0
 40
1.0
 40
1.0
 40
1.0
 10
61.64411078143214
 20
-162.3906387915863
 30
0.0
 10
61.87261786270506
 20
-162.5556674144499
 30
0.0
 10
62.12466395352174
 20
-162.6756637018595
 30
0.0
 10
62.38932721853847
 20
-162.7454278917944
 30
0.0
  0
LINE
  5
93
330
70
100
AcDbEntity
  8
Capa 1
 62
    18
420
        0
370
     9
100
AcDbLine
 10
60.55290983103311
 20
-162.3906387915863
 30
0.0
 11
61.64411078143214
 21
-162.3906387915863
 31
0.0
  0
LINE
  5
94
330
70
100
AcDbEntity
  8
Capa 1
 62
    18
420
        0
370
     9
100
AcDbLine
 10
60.55290983103311
 20
-162.3906387915863
 30
0.0
 11
60.55290983103311
 21
-162.2385863200715
 31
0.0
  0
LINE
  5
95
330
70
100
AcDbEntity
  8
Capa 1
 62
    18
420
        0
370
     9
100
AcDbLine
 10
60.55290983103311
 20
-162.2385863200715
 30
0.0
 11
62.93506521813545
 21
-162.2385863200715
 31
0.0
  0
LINE
  5
96
330
70
100
AcDbEntity
  8
Capa 1
 62
    18
420
        0
370
     9
100
AcDbLine
 10
62.38932721853847
 20
-162.7454278917944
 30
0.0
 11
62.93506521813545
 21
-162.7454278917944
 31
0.0
  0
LINE
  5
97
330
70
100
AcDbEntity
  8
Capa 1
 62
    18
420
        0
370
     9
100
AcDbLine
 10
161.0342514252931
 20
-162.3906387915863
 30
0.0
 11
161.0342514252931
 21
-162.2385863200715
 31
0.0
  0
LINE
  5
98
330
70
100
AcDbEntity
  8
Capa 1
 62
    18
420
        0
370
     9
100
AcDbLine
 10
161.0342514252931
 20
-162.3906387915863
 30
0.0
 11
159.9430504748916
 21
-162.3906387915863
 31
0.0
  0
SPLINE
  5
99
330
70
100
AcDbEntity
  8
Capa 1
 62
    18
420
        0
370
     9
100
AcDbSpline
210
0.0
220
0.0
230
1.0
 70
     8
 71
     3
 72
     8
 73
     4
 74
     0
 42
0.0000000001
 43
0.0000000001
 40
0.0
 40
0.0
 40
0.0
 40
0.0
 40
1.0
 40
1.0
 40
1.0
 40
1.0
 10
159.1978340377852
 20
-162.7454278917944
 30
0.0
 10
159.4624973028045
 20
-162.6756637018595
 30
0.0
 10
159.7145433936212
 20
-162.5556674144499
 30
0.0
 10
159.9430504748916
 20
-162.3906387915863
 30
0.0
  0
LINE
  5
9A
330
70
100
AcDbEntity
  8
Capa 1
 62
    18
420
        0
370
     9
100
AcDbLine
 10
159.1978340377852
 20
-162.7454278917944
 30
0.0
 11
158.6520960381883
 21
-162.7454278917944
 31
0.0
  0
LINE
  5
9B
330
70
100
AcDbEntity
  8
Capa 1
 62
    18
420
        0
370
     9
100
AcDbLine
 10
161.0342514252931
 20
-162.2385863200715
 30
0.0
 11
158.6520960381883
 21
-162.2385863200715
 31
0.0
  0
LINE
  5
9C
330
70
100
AcDbEntity
  8
Capa 1
 62
    18
420
        0
370
     9
100
AcDbLine
 10
62.23529329228682
 20
-233.7666031296027
 30
0.0
 11
62.26384791660199
 21
-233.2217484399992
 31
0.0
  0
LINE
  5
9D
330
70
100
AcDbEntity
  8
Capa 1
 62
    18
420
        0
370
     9
100
AcDbLine
 10
62.23529329228682
 20
-233.7666031296027
 30
0.0
 11
60.70852262927982
 21
-233.7666031296027
 31
0.0
  0
LINE
  5
9E
330
70
100
AcDbEntity
  8
Capa 1
 62
    18
420
        0
370
     9
100
AcDbLine
 10
60.70852262927982
 20
-233.7666031296027
 30
0.0
 11
60.67996800496466
 21
-233.2217484400017
 31
0.0
  0
LINE
  5
9F
330
70
100
AcDbEntity
  8
Capa 1
 62
    18
420
        0
370
     9
100
AcDbLine
 10
160.878986408046
 20
-233.7666031296027
 30
0.0
 11
160.9075410323612
 21
-233.2217484399992
 31
0.0
  0
LINE
  5
A0
330
70
100
AcDbEntity
  8
Capa 1
 62
    18
420
        0
370
     9
100
AcDbLine
 10
160.878986408046
 20
-233.7666031296027
 30
0.0
 11
159.352215745039
 21
-233.7666031296027
 31
0.0
  0
LINE
  5
A1
330
70
100
AcDbEntity
  8
Capa 1
 62
    18
420
        0
370
     9
100
AcDbLine
 10
159.352215745039
 20
-233.7666031296027
 30
0.0
 11
159.3236611207213
 21
-233.2217484400017
 31
0.0
  0
LINE
  5
A2
330
70
100
AcDbEntity
  8
Capa 1
 62
    18
420
        0
370
     9
100
AcDbLine
 10
60.42619943810109
 20
-233.2217484400017
 30
0.0
 11
62.4535657249979
 21
-233.2217484400017
 31
0.0
  0
LINE
  5
A3
330
70
100
AcDbEntity
  8
Capa 1
 62
    18
420
        0
370
     9
100
AcDbLine
 10
60.42619943810109
 20
-233.2217484400017
 30
0.0
 11
60.42619943810109
 21
-161.6303764340019
 31
0.0
  0
LINE
  5
A4
330
70
100
AcDbEntity
  8
Capa 1
 62
    18
420
        0
370
     9
100
AcDbLine
 10
60.42619943810109
 20
-161.6303764340019
 30
0.0
 11
62.4535657249979
 21
-161.6303764340019
 31
0.0
  0
LINE
  5
A5
330
70
100
AcDbEntity
  8
Capa 1
 62
    18
420
        0
370
     9
100
AcDbLine
 10
62.4535657249979
 20
-233.2217484400017
 30
0.0
 11
62.4535657249979
 21
-233.0950380470697
 31
0.0
  0
LINE
  5
A6
330
70
100
AcDbEntity
  8
Capa 1
 62
    18
420
        0
370
     9
100
AcDbLine
 10
62.4535657249979
 20
-197.8442067336721
 30
0.0
 11
62.4535657249979
 21
-197.489417633464
 31
0.0
  0
LINE
  5
A7
330
70
100
AcDbEntity
  8
Capa 1
 62
    18
420
        0
370
     9
100
AcDbLine
 10
62.4535657249979
 20
-162.2385863200715
 30
0.0
 11
62.4535657249979
 21
-161.6303764340019
 31
0.0
  0
LINE
  5
A8
330
70
100
AcDbEntity
  8
Capa 1
 62
    18
420
        0
370
     9
100
AcDbLine
 10
161.1609618182226
 20
-233.2217484400017
 30
0.0
 11
161.1609618182226
 21
-161.6303764340019
 31
0.0
  0
LINE
  5
A9
330
70
100
AcDbEntity
  8
Capa 1
 62
    18
420
        0
370
     9
100
AcDbLine
 10
159.1335955313258
 20
-233.2217484400017
 30
0.0
 11
159.1335955313258
 21
-233.0950380470697
 31
0.0
  0
LINE
  5
AA
330
70
100
AcDbEntity
  8
Capa 1
 62
    18
420
        0
370
     9
100
AcDbLine
 10
159.1335955313258
 20
-197.8442067336721
 30
0.0
 11
159.1335955313258
 21
-197.489417633464
 31
0.0
  0
LINE
  5
AB
330
70
100
AcDbEntity
  8
Capa 1
 62
    18
420
        0
370
     9
100
AcDbLine
 10
159.1335955313258
 20
-162.2385863200715
 30
0.0
 11
159.1335955313258
 21
-161.6303764340019
 31
0.0
  0
LINE
  5
AC
330
70
100
AcDbEntity
  8
Capa 1
 62
    18
420
        0
370
     9
100
AcDbLine
 10
159.1335955313258
 20
-161.6303764340019
 30
0.0
 11
161.1609618182226
 21
-161.6303764340019
 31
0.0
  0
LINE
  5
AD
330
70
100
AcDbEntity
  8
Capa 1
 62
    18
420
        0
370
     9
100
AcDbLine
 10
159.1335955313258
 20
-233.2217484400017
 30
0.0
 11
161.1609618182226
 21
-233.2217484400017
 31
0.0
  0
INSERT
  5
AF
330
70
100
AcDbEntity
  8
Capa 1
100
AcDbBlockReference
  2
Block_0
 10
0.0
 20
0.0
 30
0.0
  0
INSERT
  5
B6
330
70
100
AcDbEntity
  8
Capa 1
100
AcDbBlockReference
  2
Block_1
 10
0.0
 20
0.0
 30
0.0
  0
MTEXT
  5
BC
330
70
100
AcDbEntity
  8
Capa 1
100
AcDbMText
 10
98.22983464328414
 20
-244.279318515319
 30
0.0
 40
0.2
 41
0.0
 46
0.0
 71
     7
 72
     1
  1
\C18;\c0;\FArial Bold|b1|i0|c1;\H2.497667;\W1.000000;600/800/1000
 73
     1
 44
1.0
  0
MTEXT
  5
BD
330
70
100
AcDbEntity
  8
Capa 1
100
AcDbMText
 10
169.6783596037971
 20
-203.4769856262641
 30
0.0
 40
0.2
 41
0.0
 46
0.0
 71
     7
 72
     1
  1
\C18;\c0;\FArial Bold|b1|i0|c1;\H2.497667;\W1.000000;565
 11
0.0000000000000176
 21
1.0
 31
0.0
 73
     1
 44
1.0
  0
LINE
  5
BE
330
70
100
AcDbEntity
  8
Capa 1
 62
    18
420
        0
370
     9
100
AcDbLine
 10
160.0122869169699
 20
-141.8154298662216
 30
0.0
 11
59.43550808845902
 21
-141.8154298662216
 31
0.0
  0
LINE
  5
BF
330
70
100
AcDbEntity
  8
Capa 1
 62
    18
420
        0
370
     9
100
AcDbLine
 10
59.43550808866692
 20
-141.8154298660112
 30
0.0
 11
59.43550808866692
 21
-86.88983594378136
 31
0.0
  0
LINE
  5
C0
330
70
100
AcDbEntity
  8
Capa 1
 62
    18
420
        0
370
     9
100
AcDbLine
 10
160.0122869171804
 20
-86.88983594378136
 30
0.0
 11
160.0122869171804
 21
-141.8154298660112
 31
0.0
  0
SPLINE
  5
C1
330
70
100
AcDbEntity
  8
Capa 1
 62
    18
420
        0
370
     9
100
AcDbSpline
210
0.0
220
0.0
230
1.0
 70
     8
 71
     3
 72
    14
 73
    10
 74
     0
 42
0.0000000001
 43
0.0000000001
 40
0.0
 40
0.0
 40
0.0
 40
0.0
 40
1.0
 40
1.0
 40
1.0
 40
2.0
 40
2.0
 40
2.0
 40
3.0
 40
3.0
 40
3.0
 40
3.0
 10
109.7238975018032
 20
-93.11092036339305
 30
0.0
 10
110.5159939493865
 20
-93.1109203637216
 30
0.0
 10
111.2482016144632
 20
-92.68818007151903
 30
0.0
 10
111.644249838441
 20
-92.00220442577439
 30
0.0
 10
112.0402980624187
 20
-91.31622878002977
 30
0.0
 10
112.0402980625932
 20
-90.47074819512666
 30
0.0
 10
111.6442498388953
 20
-89.78477254922031
 30
0.0
 10
111.2482016151999
 20
-89.09879690331141
 30
0.0
 10
110.5159939502952
 20
-88.67605661081366
 30
0.0
 10
109.7238975027119
 20
-88.67605661081366
 30
0.0
  0
SPLINE
  5
C2
330
70
100
AcDbEntity
  8
Capa 1
 62
    18
420
        0
370
     9
100
AcDbSpline
210
0.0
220
0.0
230
1.0
 70
     8
 71
     3
 72
    17
 73
    13
 74
     0
 42
0.0000000001
 43
0.0000000001
 40
0.0
 40
0.0
 40
0.0
 40
0.0
 40
1.0
 40
1.0
 40
1.0
 40
2.0
 40
2.0
 40
2.0
 40
3.0
 40
3.0
 40
3.0
 40
4.0
 40
4.0
 40
4.0
 40
4.0
 10
109.723897502314
 20
-88.67605661081366
 30
0.0
 10
109.1358146474279
 20
-88.67605661091889
 30
0.0
 10
108.5717737606975
 20
-88.90968999600737
 30
0.0
 10
108.1559363861182
 20
-89.32552737060978
 30
0.0
 10
107.7400990115415
 20
-89.74136474521216
 30
0.0
 10
107.5064656264915
 20
-90.30540563196309
 30
0.0
 10
107.5064656264222
 20
-90.89348848684668
 30
0.0
 10
107.5064656263529
 20
-91.48157134173541
 30
0.0
 10
107.7400990112771
 20
-92.04561222853765
 30
0.0
 10
108.1559363857563
 20
-92.46144960323759
 30
0.0
 10
108.571773760238
 20
-92.87728697793752
 30
0.0
 10
109.1358146469145
 20
-93.11092036315434
 30
0.0
 10
109.7238975018032
 20
-93.11092036339305
 30
0.0
  0
SPLINE
  5
C3
330
70
100
AcDbEntity
  8
Capa 1
 62
    18
420
        0
370
     9
100
AcDbSpline
210
0.0
220
0.0
230
1.0
 70
     8
 71
     3
 72
    89
 73
    85
 74
     0
 42
0.0000000001
 43
0.0000000001
 40
0.0
 40
0.0
 40
0.0
 40
0.0
 40
1.0
 40
1.0
 40
1.0
 40
2.0
 40
2.0
 40
2.0
 40
3.0
 40
3.0
 40
3.0
 40
4.0
 40
4.0
 40
4.0
 40
5.0
 40
5.0
 40
5.0
 40
6.0
 40
6.0
 40
6.0
 40
7.0
 40
7.0
 40
7.0
 40
8.0
 40
8.0
 40
8.0
 40
9.0
 40
9.0
 40
9.0
 40
10.0
 40
10.0
 40
10.0
 40
11.0
 40
11.0
 40
11.0
 40
12.0
 40
12.0
 40
12.0
 40
13.0
 40
13.0
 40
13.0
 40
14.0
 40
14.0
 40
14.0
 40
15.0
 40
15.0
 40
15.0
 40
16.0
 40
16.0
 40
16.0
 40
17.0
 40
17.0
 40
17.0
 40
18.0
 40
18.0
 40
18.0
 40
19.0
 40
19.0
 40
19.0
 40
20.0
 40
20.0
 40
20.0
 40
21.0
 40
21.0
 40
21.0
 40
22.0
 40
22.0
 40
22.0
 40
23.0
 40
23.0
 40
23.0
 40
24.0
 40
24.0
 40
24.0
 40
25.0
 40
25.0
 40
25.0
 40
26.0
 40
26.0
 40
26.0
 40
27.0
 40
27.0
 40
27.0
 40
28.0
 40
28.0
 40
28.0
 40
28.0
 10
109.7238975015722
 20
-98.2598373723032
 30
0.0
 10
107.7160895289529
 20
-98.25983737585051
 30
0.0
 10
105.7083309061058
 20
-98.26870536083422
 30
0.0
 10
103.7005971310417
 20
-98.28208462049941
 30
0.0
 10
101.6928633559724
 20
-98.2954638801646
 30
0.0
 10
99.68515171860627
 20
-98.31295584133094
 30
0.0
 10
97.67744275774367
 20
-98.33063829225093
 30
0.0
 10
95.66973379687849
 20
-98.34832074316576
 30
0.0
 10
93.66202882808977
 20
-98.36624141190464
 30
0.0
 10
91.65430730452337
 20
-98.38317704443973
 30
0.0
 10
90.65044654274016
 20
-98.39164486070727
 30
0.0
 10
89.64658205218759
 20
-98.3999014344689
 30
0.0
 10
88.64271378933789
 20
-98.40794428891777
 30
0.0
 10
88.39174672362869
 20
-98.4099550025332
 30
0.0
 10
88.14078559809924
 20
-98.41230224978366
 30
0.0
 10
87.88980946727198
 20
-98.41379938984262
 30
0.0
 10
87.6388333364447
 20
-98.41529652990161
 30
0.0
 10
87.38784620204466
 20
-98.4161702742543
 30
0.0
 10
87.13698192895721
 20
-98.42400459099467
 30
0.0
 10
86.88611765586719
 20
-98.43183890773246
 30
0.0
 10
86.63538998384673
 20
-98.44741221250611
 30
0.0
 10
86.38479698774224
 20
-98.47061542945661
 30
0.0
 10
86.13420399163775
 20
-98.49381864641225
 30
0.0
 10
85.8832195040563
 20
-98.52473739893376
 30
0.0
 10
85.63522691074037
 20
-98.56291543363179
 30
0.0
 10
85.13924172410337
 20
-98.63927150303043
 30
0.0
 10
84.65277224628888
 20
-98.74475258331253
 30
0.0
 10
84.17518254991675
 20
-98.87741227237418
 30
0.0
 10
83.69759285354723
 20
-99.01007196143581
 30
0.0
 10
83.2289062273721
 20
-99.16998154006618
 30
0.0
 10
82.7689649393393
 20
-99.35665823322619
 30
0.0
 10
82.30902365130393
 20
-99.54333492638619
 30
0.0
 10
81.85782931837442
 20
-99.7567836833722
 30
0.0
 10
81.41533988167829
 20
-99.99687577270373
 30
0.0
 10
81.30471752250427
 20
-100.0568987950353
 30
0.0
 10
81.19475995950265
 20
-100.1185243790373
 30
0.0
 10
81.08604637292364
 20
-100.1814083740172
 30
0.0
 10
80.97733278634718
 20
-100.2442923689971
 30
0.0
 10
80.86969491170139
 20
-100.3085249246938
 30
0.0
 10
80.76310673560316
 20
-100.3740734294079
 30
0.0
 10
80.54993038340928
 20
-100.5051704388257
 30
0.0
 10
80.34094990345485
 20
-100.641527581479
 30
0.0
 10
80.13599836879507
 20
-100.782935590394
 30
0.0
 10
79.72609529948066
 20
-101.0657516082215
 30
0.0
 10
79.33227904175194
 20
-101.3687347730607
 30
0.0
 10
78.95368162333396
 20
-101.6907969563663
 30
0.0
 10
78.57508420491853
 20
-102.0128591396745
 30
0.0
 10
78.21167843382731
 20
-102.3539662518525
 30
0.0
 10
77.86314996336976
 20
-102.713724214465
 30
0.0
 10
77.77601784575472
 20
-102.8036637051168
 30
0.0
 10
77.68981587999407
 20
-102.894769275657
 30
0.0
 10
77.60453684400893
 20
-102.9870318724128
 30
0.0
 10
77.51925780802894
 20
-103.0792944691711
 30
0.0
 10
77.43486442802219
 20
-103.172763096945
 30
0.0
 10
77.35184846229583
 20
-103.2668499058581
 30
0.0
 10
77.18581653084569
 20
-103.4550235236844
 30
0.0
 10
77.02481417406774
 20
-103.6461702795165
 30
0.0
 10
76.86859297414947
 20
-103.8401433259349
 30
0.0
 10
76.55615057431036
 20
-104.2280894187691
 30
0.0
 10
76.26278897486663
 20
-104.6273147664124
 30
0.0
 10
75.98721862286258
 20
-105.0370570735642
 30
0.0
 10
75.43607791885704
 20
-105.8565416878677
 30
0.0
 10
74.95630811736404
 20
-106.7182158632743
 30
0.0
 10
74.54223678334049
 20
-107.6187264466162
 30
0.0
 10
74.33520111633256
 20
-108.0689817382859
 30
0.0
 10
74.14457780962033
 20
-108.528938886447
 30
0.0
 10
73.97036391316446
 20
-108.9985961475645
 30
0.0
 10
73.92681043904921
 20
-109.1160104628445
 30
0.0
 10
73.8842446173319
 20
-109.2341552580921
 30
0.0
 10
73.84287967318369
 20
-109.3524277454397
 30
0.0
 10
73.80151472903803
 20
-109.4707002327899
 30
0.0
 10
73.76132082405418
 20
-109.5891735899429
 30
0.0
 10
73.72228351430803
 20
-109.7078453392474
 30
0.0
 10
73.64420889480804
 20
-109.9451888378565
 30
0.0
 10
73.57075823253078
 20
-110.1833254897178
 30
0.0
 10
73.50184756046134
 20
-110.4222408914909
 30
0.0
 10
73.22620487219897
 20
-111.377902498573
 30
0.0
 10
73.02338944628775
 20
-112.346056256489
 30
0.0
 10
72.88686249257589
 20
-113.3255805570141
 30
0.0
 10
72.81859901572123
 20
-113.8153427072766
 30
0.0
 10
72.7670506859398
 20
-114.307972027496
 30
0.0
 10
72.73239651181893
 20
-114.8034992228867
 30
0.0
 10
72.69774233769806
 20
-115.2990264182824
 30
0.0
 10
72.67997836676181
 20
-115.7974547573434
 30
0.0
 10
72.67997837588421
 20
-116.2989222812916
 30
0.0
  0
SPLINE
  5
C4
330
70
100
AcDbEntity
  8
Capa 1
 62
    18
420
        0
370
     9
100
AcDbSpline
210
0.0
220
0.0
230
1.0
 70
     8
 71
     3
 72
    89
 73
    85
 74
     0
 42
0.0000000001
 43
0.0000000001
 40
0.0
 40
0.0
 40
0.0
 40
0.0
 40
1.0
 40
1.0
 40
1.0
 40
2.0
 40
2.0
 40
2.0
 40
3.0
 40
3.0
 40
3.0
 40
4.0
 40
4.0
 40
4.0
 40
5.0
 40
5.0
 40
5.0
 40
6.0
 40
6.0
 40
6.0
 40
7.0
 40
7.0
 40
7.0
 40
8.0
 40
8.0
 40
8.0
 40
9.0
 40
9.0
 40
9.0
 40
10.0
 40
10.0
 40
10.0
 40
11.0
 40
11.0
 40
11.0
 40
12.0
 40
12.0
 40
12.0
 40
13.0
 40
13.0
 40
13.0
 40
14.0
 40
14.0
 40
14.0
 40
15.0
 40
15.0
 40
15.0
 40
16.0
 40
16.0
 40
16.0
 40
17.0
 40
17.0
 40
17.0
 40
18.0
 40
18.0
 40
18.0
 40
19.0
 40
19.0
 40
19.0
 40
20.0
 40
20.0
 40
20.0
 40
21.0
 40
21.0
 40
21.0
 40
22.0
 40
22.0
 40
22.0
 40
23.0
 40
23.0
 40
23.0
 40
24.0
 40
24.0
 40
24.0
 40
25.0
 40
25.0
 40
25.0
 40
26.0
 40
26.0
 40
26.0
 40
27.0
 40
27.0
 40
27.0
 40
28.0
 40
28.0
 40
28.0
 40
28.0
 10
72.67997837588421
 20
-116.2989222582315
 30
0.0
 10
72.67997836676181
 20
-116.8003897821822
 30
0.0
 10
72.69774233769806
 20
-117.2988181212458
 30
0.0
 10
72.73239651181893
 20
-117.794345316639
 30
0.0
 10
72.7670506859398
 20
-118.2898725120296
 30
0.0
 10
72.81859901572123
 20
-118.7825018322464
 30
0.0
 10
72.88686249257589
 20
-119.2722639825115
 30
0.0
 10
73.02338944628775
 20
-120.2517882830366
 30
0.0
 10
73.22620487219897
 20
-121.2199420409501
 30
0.0
 10
73.50184756046134
 20
-122.1756036480347
 30
0.0
 10
73.57075823253078
 20
-122.4145190498052
 30
0.0
 10
73.64420889480804
 20
-122.6526557015434
 30
0.0
 10
73.72228351430803
 20
-122.8899992002346
 30
0.0
 10
73.76132082405418
 20
-123.0086709495827
 30
0.0
 10
73.80151472903803
 20
-123.1271443067357
 30
0.0
 10
73.84287967318369
 20
-123.2454167940859
 30
0.0
 10
73.8842446173319
 20
-123.363689281436
 30
0.0
 10
73.92681043904921
 20
-123.4818340766811
 30
0.0
 10
73.97036391316446
 20
-123.5992483919637
 30
0.0
 10
74.14457780962033
 20
-124.0689056530812
 30
0.0
 10
74.33520111645833
 20
-124.528862801368
 30
0.0
 10
74.54223678338412
 20
-124.979118092953
 30
0.0
 10
74.95630811723827
 20
-125.879628676123
 30
0.0
 10
75.43607791885704
 20
-126.7413028516605
 30
0.0
 10
75.98721862286258
 20
-127.560787465964
 30
0.0
 10
76.26278897486663
 20
-127.9705297731132
 30
0.0
 10
76.55615057431036
 20
-128.3697551207565
 30
0.0
 10
76.86859297414947
 20
-128.7577012135908
 30
0.0
 10
77.02481417406774
 20
-128.9516742600066
 30
0.0
 10
77.18581653084569
 20
-129.1428210158412
 30
0.0
 10
77.35184846229583
 20
-129.3309946336701
 30
0.0
 10
77.43486442802219
 20
-129.4250814425806
 30
0.0
 10
77.51925780802894
 20
-129.5185500703545
 30
0.0
 10
77.60453684400893
 20
-129.6108126671129
 30
0.0
 10
77.68981587999407
 20
-129.7030752638686
 30
0.0
 10
77.77601784588306
 20
-129.7941808344088
 30
0.0
 10
77.86314996343135
 20
-129.8841203250606
 30
0.0
 10
78.21167843363737
 20
-130.2438782876705
 30
0.0
 10
78.57508420491853
 20
-130.5849853998537
 30
0.0
 10
78.95368162333396
 20
-130.9070475831593
 30
0.0
 10
79.33227904175194
 20
-131.229109766465
 30
0.0
 10
79.72609529948066
 20
-131.5320929313041
 30
0.0
 10
80.13599836879507
 20
-131.8149089491342
 30
0.0
 10
80.34094990345485
 20
-131.9563169580492
 30
0.0
 10
80.54993038340928
 20
-132.0926741007
 30
0.0
 10
80.76310673560316
 20
-132.2237711101203
 30
0.0
 10
80.86969491170139
 20
-132.2893196148318
 30
0.0
 10
80.97733278634718
 20
-132.3535521705285
 30
0.0
 10
81.08604637292364
 20
-132.4164361655084
 30
0.0
 10
81.19475995950265
 20
-132.4793201604909
 30
0.0
 10
81.30471752250427
 20
-132.5409457444878
 30
0.0
 10
81.41533988167829
 20
-132.6009687668219
 30
0.0
 10
81.85782931837442
 20
-132.841060856156
 30
0.0
 10
82.30902365130393
 20
-133.0545096131395
 30
0.0
 10
82.76896493925459
 20
-133.2411863062995
 30
0.0
 10
83.22890622720269
 20
-133.4278629994569
 30
0.0
 10
83.69759285354723
 20
-133.5877725780924
 30
0.0
 10
84.17518254991675
 20
-133.7204322671541
 30
0.0
 10
84.65277224628888
 20
-133.8530919562157
 30
0.0
 10
85.13924172410337
 20
-133.9585730363694
 30
0.0
 10
85.63522691074037
 20
-134.0349291058656
 30
0.0
 10
85.8832195040563
 20
-134.0731071406176
 30
0.0
 10
86.13420399163775
 20
-134.1040258931134
 30
0.0
 10
86.38479698774224
 20
-134.127229110069
 30
0.0
 10
86.63538998384673
 20
-134.1504323270195
 30
0.0
 10
86.88611765586719
 20
-134.1660056317932
 30
0.0
 10
87.13698192895721
 20
-134.1738399485336
 30
0.0
 10
87.38784620204466
 20
-134.1816742652713
 30
0.0
 10
87.6388333364447
 20
-134.1825480096266
 30
0.0
 10
87.88980946727198
 20
-134.1840451496856
 30
0.0
 10
88.14078559809924
 20
-134.1855422897446
 30
0.0
 10
88.39174672362869
 20
-134.187889536995
 30
0.0
 10
88.64271378933789
 20
-134.1899002506079
 30
0.0
 10
89.64658205218759
 20
-134.1979431050593
 30
0.0
 10
90.65044654274016
 20
-134.2061996788184
 30
0.0
 10
91.65430730452337
 20
-134.2146674950834
 30
0.0
 10
93.66202882808977
 20
-134.231603127621
 30
0.0
 10
95.66973379687849
 20
-134.2495237968655
 30
0.0
 10
97.67744275774367
 20
-134.2672062472773
 30
0.0
 10
99.68515171860627
 20
-134.284888697689
 30
0.0
 10
101.6928633559724
 20
-134.3023806592995
 30
0.0
 10
103.7005971310417
 20
-134.3157599190904
 30
0.0
 10
105.7083309061058
 20
-134.3291391788814
 30
0.0
 10
107.7160895289529
 20
-134.3380071636777
 30
0.0
 10
109.7238975015722
 20
-134.3380071672225
 30
0.0
  0
SPLINE
  5
C5
330
70
100
AcDbEntity
  8
Capa 1
 62
    18
420
        0
370
     9
100
AcDbSpline
210
0.0
220
0.0
230
1.0
 70
     8
 71
     3
 72
    89
 73
    85
 74
     0
 42
0.0000000001
 43
0.0000000001
 40
0.0
 40
0.0
 40
0.0
 40
0.0
 40
1.0
 40
1.0
 40
1.0
 40
2.0
 40
2.0
 40
2.0
 40
3.0
 40
3.0
 40
3.0
 40
4.0
 40
4.0
 40
4.0
 40
5.0
 40
5.0
 40
5.0
 40
6.0
 40
6.0
 40
6.0
 40
7.0
 40
7.0
 40
7.0
 40
8.0
 40
8.0
 40
8.0
 40
9.0
 40
9.0
 40
9.0
 40
10.0
 40
10.0
 40
10.0
 40
11.0
 40
11.0
 40
11.0
 40
12.0
 40
12.0
 40
12.0
 40
13.0
 40
13.0
 40
13.0
 40
14.0
 40
14.0
 40
14.0
 40
15.0
 40
15.0
 40
15.0
 40
16.0
 40
16.0
 40
16.0
 40
17.0
 40
17.0
 40
17.0
 40
18.0
 40
18.0
 40
18.0
 40
19.0
 40
19.0
 40
19.0
 40
20.0
 40
20.0
 40
20.0
 40
21.0
 40
21.0
 40
21.0
 40
22.0
 40
22.0
 40
22.0
 40
23.0
 40
23.0
 40
23.0
 40
24.0
 40
24.0
 40
24.0
 40
25.0
 40
25.0
 40
25.0
 40
26.0
 40
26.0
 40
26.0
 40
27.0
 40
27.0
 40
27.0
 40
28.0
 40
28.0
 40
28.0
 40
28.0
 10
109.7238975038541
 20
-134.3380071672225
 30
0.0
 10
111.7317054764734
 20
-134.3380071634236
 30
0.0
 10
113.739464099323
 20
-134.3291391786914
 30
0.0
 10
115.7471978743898
 20
-134.3157599190288
 30
0.0
 10
117.7549316494565
 20
-134.3023806593611
 30
0.0
 10
119.7626432868227
 20
-134.2848886981973
 30
0.0
 10
121.7703522476827
 20
-134.2672062472773
 30
0.0
 10
123.7780612085504
 20
-134.2495237963573
 30
0.0
 10
125.7857661773391
 20
-134.2316031273669
 30
0.0
 10
127.7934877009056
 20
-134.2146674950834
 30
0.0
 10
128.7973484626887
 20
-134.2061996789468
 30
0.0
 10
129.8012129532388
 20
-134.1979431051851
 30
0.0
 10
130.8050812160885
 20
-134.1899002506233
 30
0.0
 10
131.0560482817977
 20
-134.1878895369796
 30
0.0
 10
131.3070094073297
 20
-134.1855422897446
 30
0.0
 10
131.5579855381569
 20
-134.1840451496856
 30
0.0
 10
131.8089616689868
 20
-134.1825480096266
 30
0.0
 10
132.0599488033843
 20
-134.1816742652713
 30
0.0
 10
132.3108130764717
 20
-134.1738399485336
 30
0.0
 10
132.5616773495617
 20
-134.1660056317932
 30
0.0
 10
132.8124050215796
 20
-134.1504323270195
 30
0.0
 10
133.0629980176867
 20
-134.127229110069
 30
0.0
 10
133.3135910137886
 20
-134.1040258931134
 30
0.0
 10
133.5645755013726
 20
-134.0731071406176
 30
0.0
 10
133.812568094686
 20
-134.0349291058656
 30
0.0
 10
134.308553281323
 20
-133.9585730363694
 30
0.0
 10
134.7950227592658
 20
-133.8530919562157
 30
0.0
 10
135.2726124555378
 20
-133.7204322671541
 30
0.0
 10
135.7502021518073
 20
-133.5877725780924
 30
0.0
 10
136.2188887780158
 20
-133.427862999249
 30
0.0
 10
136.6788300661333
 20
-133.2411863062558
 30
0.0
 10
137.1387713542482
 20
-133.0545096132678
 30
0.0
 10
137.5899656870545
 20
-132.841060856156
 30
0.0
 10
138.0324551237455
 20
-132.6009687668219
 30
0.0
 10
138.1430774829247
 20
-132.5409457444929
 30
0.0
 10
138.2530350459288
 20
-132.4793201604909
 30
0.0
 10
138.3617486325027
 20
-132.4164361655084
 30
0.0
 10
138.4704622190843
 20
-132.3535521705285
 30
0.0
 10
138.578100093725
 20
-132.2893196148318
 30
0.0
 10
138.6846882698232
 20
-132.2237711101203
 30
0.0
 10
138.8978646220171
 20
-132.0926741007
 30
0.0
 10
139.1068451019767
 20
-131.9563169580492
 30
0.0
 10
139.3117966366313
 20
-131.8149089491342
 30
0.0
 10
139.7216997059457
 20
-131.5320929313041
 30
0.0
 10
140.1155159638669
 20
-131.229109766465
 30
0.0
 10
140.4941133821566
 20
-130.9070475831593
 30
0.0
 10
140.8727108004462
 20
-130.5849853998537
 30
0.0
 10
141.2361165717916
 20
-130.2438782876705
 30
0.0
 10
141.5846450419976
 20
-129.8841203250606
 30
0.0
 10
141.6717771595459
 20
-129.7941808344088
 30
0.0
 10
141.7579791254374
 20
-129.7030752638686
 30
0.0
 10
141.84325816142
 20
-129.6108126671129
 30
0.0
 10
141.9285371974
 20
-129.5185500703545
 30
0.0
 10
142.0129305774042
 20
-129.4250814425806
 30
0.0
 10
142.0959465431305
 20
-129.3309946336701
 30
0.0
 10
142.2619784745832
 20
-129.1428210158412
 30
0.0
 10
142.4229808313586
 20
-128.9516742600066
 30
0.0
 10
142.5792020312769
 20
-128.7577012135908
 30
0.0
 10
142.8916444311186
 20
-128.3697551207565
 30
0.0
 10
143.1850060305623
 20
-127.9705297731132
 30
0.0
 10
143.4605763825663
 20
-127.560787465964
 30
0.0
 10
144.0117170865693
 20
-126.7413028516605
 30
0.0
 10
144.4914868881932
 20
-125.879628676123
 30
0.0
 10
144.9055582220422
 20
-124.979118092953
 30
0.0
 10
145.1125938889731
 20
-124.528862801368
 30
0.0
 10
145.3032171958086
 20
-124.0689056530812
 30
0.0
 10
145.4774310922619
 20
-123.5992483919637
 30
0.0
 10
145.5209845663797
 20
-123.4818340766811
 30
0.0
 10
145.563550388097
 20
-123.363689281436
 30
0.0
 10
145.6049153322452
 20
-123.2454167940859
 30
0.0
 10
145.6462802763909
 20
-123.1271443067357
 30
0.0
 10
145.6864741813722
 20
-123.0086709495827
 30
0.0
 10
145.7255114911235
 20
-122.8899992002756
 30
0.0
 10
145.8035861106209
 20
-122.6526557016666
 30
0.0
 10
145.8770367729007
 20
-122.4145190498052
 30
0.0
 10
145.945947444965
 20
-122.1756036480347
 30
0.0
 10
146.22159013323
 20
-121.2199420409501
 30
0.0
 10
146.4244055591386
 20
-120.2517882830392
 30
0.0
 10
146.5609325128505
 20
-119.2722639825115
 30
0.0
 10
146.6291959897077
 20
-118.7825018322464
 30
0.0
 10
146.6807443194866
 20
-118.2898725120296
 30
0.0
 10
146.7153984936074
 20
-117.794345316639
 30
0.0
 10
146.7500526677309
 20
-117.2988181212458
 30
0.0
 10
146.7678166385388
 20
-116.8003897823105
 30
0.0
 10
146.7678166295447
 20
-116.2989222582315
 30
0.0
  0
SPLINE
  5
C6
330
70
100
AcDbEntity
  8
Capa 1
 62
    18
420
        0
370
     9
100
AcDbSpline
210
0.0
220
0.0
230
1.0
 70
     8
 71
     3
 72
    89
 73
    85
 74
     0
 42
0.0000000001
 43
0.0000000001
 40
0.0
 40
0.0
 40
0.0
 40
0.0
 40
1.0
 40
1.0
 40
1.0
 40
2.0
 40
2.0
 40
2.0
 40
3.0
 40
3.0
 40
3.0
 40
4.0
 40
4.0
 40
4.0
 40
5.0
 40
5.0
 40
5.0
 40
6.0
 40
6.0
 40
6.0
 40
7.0
 40
7.0
 40
7.0
 40
8.0
 40
8.0
 40
8.0
 40
9.0
 40
9.0
 40
9.0
 40
10.0
 40
10.0
 40
10.0
 40
11.0
 40
11.0
 40
11.0
 40
12.0
 40
12.0
 40
12.0
 40
13.0
 40
13.0
 40
13.0
 40
14.0
 40
14.0
 40
14.0
 40
15.0
 40
15.0
 40
15.0
 40
16.0
 40
16.0
 40
16.0
 40
17.0
 40
17.0
 40
17.0
 40
18.0
 40
18.0
 40
18.0
 40
19.0
 40
19.0
 40
19.0
 40
20.0
 40
20.0
 40
20.0
 40
21.0
 40
21.0
 40
21.0
 40
22.0
 40
22.0
 40
22.0
 40
23.0
 40
23.0
 40
23.0
 40
24.0
 40
24.0
 40
24.0
 40
25.0
 40
25.0
 40
25.0
 40
26.0
 40
26.0
 40
26.0
 40
27.0
 40
27.0
 40
27.0
 40
28.0
 40
28.0
 40
28.0
 40
28.0
 10
146.7678166295447
 20
-116.2989222812916
 30
0.0
 10
146.7678166386671
 20
-115.7974547572176
 30
0.0
 10
146.7500526677309
 20
-115.2990264182824
 30
0.0
 10
146.7153984936074
 20
-114.8034992228867
 30
0.0
 10
146.6807443194866
 20
-114.307972027496
 30
0.0
 10
146.629195989836
 20
-113.815342707405
 30
0.0
 10
146.5609325129146
 20
-113.3255805570141
 30
0.0
 10
146.424405559077
 20
-112.3460562562349
 30
0.0
 10
146.22159013323
 20
-111.377902498573
 30
0.0
 10
145.945947444965
 20
-110.4222408914909
 30
0.0
 10
145.8770367729007
 20
-110.1833254897178
 30
0.0
 10
145.8035861106209
 20
-109.9451888378565
 30
0.0
 10
145.7255114911235
 20
-109.7078453392474
 30
0.0
 10
145.6864741813722
 20
-109.5891735899429
 30
0.0
 10
145.6462802763909
 20
-109.4707002327899
 30
0.0
 10
145.6049153322452
 20
-109.3524277454397
 30
0.0
 10
145.563550388097
 20
-109.2341552580921
 30
0.0
 10
145.5209845663797
 20
-109.1160104628445
 30
0.0
 10
145.4774310922619
 20
-108.9985961475645
 30
0.0
 10
145.3032171958086
 20
-108.528938886447
 30
0.0
 10
145.1125938889731
 20
-108.0689817381576
 30
0.0
 10
144.9055582220422
 20
-107.6187264465752
 30
0.0
 10
144.4914868881932
 20
-106.7182158634027
 30
0.0
 10
144.0117170865693
 20
-105.8565416881834
 30
0.0
 10
143.4605763825663
 20
-105.0370570736258
 30
0.0
 10
143.1850060305623
 20
-104.6273147663508
 30
0.0
 10
142.8916444311186
 20
-104.2280894187691
 30
0.0
 10
142.5792020312769
 20
-103.8401433259349
 30
0.0
 10
142.4229808313586
 20
-103.6461702795165
 30
0.0
 10
142.2619784745832
 20
-103.4550235236844
 30
0.0
 10
142.0959465431305
 20
-103.2668499058581
 30
0.0
 10
142.0129305774042
 20
-103.172763096945
 30
0.0
 10
141.928537197441
 20
-103.0792944691711
 30
0.0
 10
141.8432581613738
 20
-102.9870318724128
 30
0.0
 10
141.7579791253091
 20
-102.894769275657
 30
0.0
 10
141.6717771595459
 20
-102.8036637051168
 30
0.0
 10
141.5846450419976
 20
-102.713724214465
 30
0.0
 10
141.2361165717916
 20
-102.3539662518525
 30
0.0
 10
140.8727108005078
 20
-102.0128591396745
 30
0.0
 10
140.494113382095
 20
-101.6907969563663
 30
0.0
 10
140.115515963677
 20
-101.3687347730607
 30
0.0
 10
139.7216997059457
 20
-101.0657516082215
 30
0.0
 10
139.3117966366313
 20
-100.782935590394
 30
0.0
 10
139.1068451019767
 20
-100.641527581479
 30
0.0
 10
138.8978646220171
 20
-100.5051704388257
 30
0.0
 10
138.6846882698232
 20
-100.3740734294079
 30
0.0
 10
138.578100093725
 20
-100.3085249246938
 30
0.0
 10
138.4704622190843
 20
-100.2442923689971
 30
0.0
 10
138.3617486325027
 20
-100.1814083740172
 30
0.0
 10
138.2530350459288
 20
-100.1185243790373
 30
0.0
 10
138.1430774829247
 20
-100.0568987950353
 30
0.0
 10
138.0324551237506
 20
-99.99687577270373
 30
0.0
 10
137.5899656870545
 20
-99.7567836833722
 30
0.0
 10
137.1387713542482
 20
-99.54333492638619
 30
0.0
 10
136.6788300661333
 20
-99.35665823322619
 30
0.0
 10
136.2188887780158
 20
-99.16998154006618
 30
0.0
 10
135.7502021518817
 20
-99.01007196143581
 30
0.0
 10
135.2726124555122
 20
-98.87741227237418
 30
0.0
 10
134.7950227591375
 20
-98.74475258331253
 30
0.0
 10
134.308553281323
 20
-98.63927150303043
 30
0.0
 10
133.812568094686
 20
-98.56291543363179
 30
0.0
 10
133.5645755013726
 20
-98.52473739893376
 30
0.0
 10
133.3135910137886
 20
-98.49381864641225
 30
0.0
 10
133.0629980176867
 20
-98.47061542945661
 30
0.0
 10
132.8124050215796
 20
-98.44741221250611
 30
0.0
 10
132.5616773495617
 20
-98.43183890773246
 30
0.0
 10
132.3108130764717
 20
-98.42400459099467
 30
0.0
 10
132.0599488033843
 20
-98.4161702742543
 30
0.0
 10
131.8089616689868
 20
-98.41529652990161
 30
0.0
 10
131.5579855381569
 20
-98.41379938984262
 30
0.0
 10
131.3070094073297
 20
-98.41230224978366
 30
0.0
 10
131.0560482817977
 20
-98.4099550025332
 30
0.0
 10
130.8050812160885
 20
-98.40794428891777
 30
0.0
 10
129.8012129532388
 20
-98.3999014344689
 30
0.0
 10
128.7973484626887
 20
-98.39164486070727
 30
0.0
 10
127.7934877009056
 20
-98.38317704443973
 30
0.0
 10
125.7857661773391
 20
-98.36624141190464
 30
0.0
 10
123.7780612085504
 20
-98.34832074316576
 30
0.0
 10
121.7703522476827
 20
-98.33063829225093
 30
0.0
 10
119.7626432868227
 20
-98.31295584133094
 30
0.0
 10
117.7549316494565
 20
-98.2954638801646
 30
0.0
 10
115.7471978743898
 20
-98.28208462049941
 30
0.0
 10
113.739464099323
 20
-98.26870536083422
 30
0.0
 10
111.7317054764734
 20
-98.25983737610462
 30
0.0
 10
109.7238975038541
 20
-98.2598373723032
 30
0.0
  0
SPLINE
  5
C7
330
70
100
AcDbEntity
  8
Capa 1
 62
    18
420
        0
370
     9
100
AcDbSpline
210
0.0
220
0.0
230
1.0
 70
     8
 71
     3
 72
    29
 73
    25
 74
     0
 42
0.0000000001
 43
0.0000000001
 40
0.0
 40
0.0
 40
0.0
 40
0.0
 40
1.0
 40
1.0
 40
1.0
 40
2.0
 40
2.0
 40
2.0
 40
3.0
 40
3.0
 40
3.0
 40
4.0
 40
4.0
 40
4.0
 40
5.0
 40
5.0
 40
5.0
 40
6.0
 40
6.0
 40
6.0
 40
7.0
 40
7.0
 40
7.0
 40
8.0
 40
8.0
 40
8.0
 40
8.0
 10
59.44629908003644
 20
-86.3951149754447
 30
0.0
 10
59.38689924895554
 20
-86.39460920573657
 30
0.0
 10
59.32530778401191
 20
-86.38998365178181
 30
0.0
 10
59.2629447358208
 20
-86.3804948849579
 30
0.0
 10
59.20058168762969
 20
-86.37100611813396
 30
0.0
 10
59.13745952976033
 20
-86.35663895871124
 30
0.0
 10
59.07545751340494
 20
-86.337075857382
 30
0.0
 10
59.01345549704698
 20
-86.31751275605274
 30
0.0
 10
58.9525980454327
 20
-86.29274521322313
 30
0.0
 10
58.89494340074884
 20
-86.26306629566796
 30
0.0
 10
58.83728875606242
 20
-86.23338737811021
 30
0.0
 10
58.78286589502994
 20
-86.19880121173094
 30
0.0
 10
58.73350110707587
 20
-86.1602479166812
 30
0.0
 10
58.68413631912435
 20
-86.12169462163143
 30
0.0
 10
58.63985116094973
 20
-86.07919103342963
 30
0.0
 10
58.60184939041289
 20
-86.03416346176182
 30
0.0
 10
58.56384761987605
 20
-85.98913589008889
 30
0.0
 10
58.53213451991063
 20
-85.9416069654163
 30
0.0
 10
58.50708534194363
 20
-85.89318414969268
 30
0.0
 10
58.48203616397661
 20
-85.84476133396904
 30
0.0
 10
58.46364002487956
 20
-85.79546370143651
 30
0.0
 10
58.45149032504927
 20
-85.74675892426895
 30
0.0
 10
58.43934062522155
 20
-85.69805414710398
 30
0.0
 10
58.4334179280818
 20
-85.6499519670038
 30
0.0
 10
58.43277032547282
 20
-85.60356142612194
 30
0.0
  0
SPLINE
  5
C8
330
70
100
AcDbEntity
  8
Capa 1
 62
    18
420
        0
370
     9
100
AcDbSpline
210
0.0
220
0.0
230
1.0
 70
     8
 71
     3
 72
    29
 73
    25
 74
     0
 42
0.0000000001
 43
0.0000000001
 40
0.0
 40
0.0
 40
0.0
 40
0.0
 40
1.0
 40
1.0
 40
1.0
 40
2.0
 40
2.0
 40
2.0
 40
3.0
 40
3.0
 40
3.0
 40
4.0
 40
4.0
 40
4.0
 40
5.0
 40
5.0
 40
5.0
 40
6.0
 40
6.0
 40
6.0
 40
7.0
 40
7.0
 40
7.0
 40
8.0
 40
8.0
 40
8.0
 40
8.0
 10
161.0150246799433
 20
-85.60356142570356
 30
0.0
 10
161.0143770773394
 20
-85.64995196659825
 30
0.0
 10
161.0084543801997
 20
-85.69805414671126
 30
0.0
 10
160.9963046803694
 20
-85.74675892389421
 30
0.0
 10
160.9841549805391
 20
-85.79546370107975
 30
0.0
 10
160.965758841442
 20
-85.84476133362766
 30
0.0
 10
160.9407096634802
 20
-85.89318414936668
 30
0.0
 10
160.9156604855106
 20
-85.94160696510828
 30
0.0
 10
160.8839473855452
 20
-85.98913588979369
 30
0.0
 10
160.8459456150083
 20
-86.03416346147948
 30
0.0
 10
160.8079438444715
 20
-86.07919103316268
 30
0.0
 10
160.7636586862994
 20
-86.12169462137989
 30
0.0
 10
160.7142938983453
 20
-86.16024791644505
 30
0.0
 10
160.6649291103913
 20
-86.19880121150508
 30
0.0
 10
160.6105062493562
 20
-86.23338737789715
 30
0.0
 10
160.5528516046698
 20
-86.26306629546261
 30
0.0
 10
160.4951969599885
 20
-86.29274521303065
 30
0.0
 10
160.4343395083743
 20
-86.31751275586537
 30
0.0
 10
160.3723374920163
 20
-86.33707585719974
 30
0.0
 10
160.3103354756609
 20
-86.35663895853671
 30
0.0
 10
160.2472133177915
 20
-86.37100611796455
 30
0.0
 10
160.1848502696004
 20
-86.38049488479104
 30
0.0
 10
160.1224872214093
 20
-86.38998365161755
 30
0.0
 10
160.0608957564631
 20
-86.3946092055723
 30
0.0
 10
160.0014959253848
 20
-86.39511497528042
 30
0.0
  0
LINE
  5
C9
330
70
100
AcDbEntity
  8
Capa 1
 62
    18
420
        0
370
     9
100
AcDbLine
 10
160.00149588591
 20
-86.39511497540363
 30
0.0
 11
59.44629911951633
 21
-86.39511497540363
 31
0.0
  0
SPLINE
  5
CA
330
70
100
AcDbEntity
  8
Capa 1
 62
    18
420
        0
370
     9
100
AcDbSpline
210
0.0
220
0.0
230
1.0
 70
     8
 71
     3
 72
    68
 73
    64
 74
     0
 42
0.0000000001
 43
0.0000000001
 40
0.0
 40
0.0
 40
0.0
 40
0.0
 40
1.0
 40
1.0
 40
1.0
 40
2.0
 40
2.0
 40
2.0
 40
3.0
 40
3.0
 40
3.0
 40
4.0
 40
4.0
 40
4.0
 40
5.0
 40
5.0
 40
5.0
 40
6.0
 40
6.0
 40
6.0
 40
7.0
 40
7.0
 40
7.0
 40
8.0
 40
8.0
 40
8.0
 40
9.0
 40
9.0
 40
9.0
 40
10.0
 40
10.0
 40
10.0
 40
11.0
 40
11.0
 40
11.0
 40
12.0
 40
12.0
 40
12.0
 40
13.0
 40
13.0
 40
13.0
 40
14.0
 40
14.0
 40
14.0
 40
15.0
 40
15.0
 40
15.0
 40
16.0
 40
16.0
 40
16.0
 40
17.0
 40
17.0
 40
17.0
 40
18.0
 40
18.0
 40
18.0
 40
19.0
 40
19.0
 40
19.0
 40
20.0
 40
20.0
 40
20.0
 40
21.0
 40
21.0
 40
21.0
 40
21.0
 10
58.40618836559816
 20
-84.93804212357378
 30
0.0
 10
58.40631542414866
 20
-84.93057258968235
 30
0.0
 10
58.40644248269661
 20
-84.9231030557935
 30
0.0
 10
58.40684858983174
 20
-84.91564650424113
 30
0.0
 10
58.40725166699235
 20
-84.90824558619614
 30
0.0
 10
58.40792964429702
 20
-84.9008574574851
 30
0.0
 10
58.40880737651664
 20
-84.89349475724328
 30
0.0
 10
58.40967851183398
 20
-84.8861873939669
 30
0.0
 10
58.41074641069378
 20
-84.87890507836011
 30
0.0
 10
58.41202888329117
 20
-84.87166008670056
 30
0.0
 10
58.41330164568844
 20
-84.86446995028552
 30
0.0
 10
58.41478574484435
 20
-84.85731657475758
 30
0.0
 10
58.41647352991475
 20
-84.8502118375784
 30
0.0
 10
58.41814844073133
 20
-84.84316129460387
 30
0.0
 10
58.42002394192419
 20
-84.83615865079213
 30
0.0
 10
58.42209834817092
 20
-84.8292153580685
 30
0.0
 10
58.42415681229826
 20
-84.82232542557694
 30
0.0
 10
58.42641113599635
 20
-84.81549393543524
 30
0.0
 10
58.42885733019702
 20
-84.8087318896068
 30
0.0
 10
58.4312845829308
 20
-84.80202220392248
 30
0.0
 10
58.43390074627129
 20
-84.79538089126826
 30
0.0
 10
58.43670177332555
 20
-84.78881848345517
 30
0.0
 10
58.43948094622557
 20
-84.78230727681612
 30
0.0
 10
58.4424421094086
 20
-84.77587374856195
 30
0.0
 10
58.44558061975341
 20
-84.76952794273026
 30
0.0
 10
58.44869445505298
 20
-84.76323202777967
 30
0.0
 10
58.45198285986102
 20
-84.75702246132515
 30
0.0
 10
58.45544078950673
 20
-84.75090878858347
 30
0.0
 10
58.45887132282585
 20
-84.74484355296654
 30
0.0
 10
58.46246870541592
 20
-84.73887269759726
 30
0.0
 10
58.46622750522785
 20
-84.73300524930998
 30
0.0
 10
58.46995629327366
 20
-84.72718464908243
 30
0.0
 10
58.47384393119332
 20
-84.72146581123656
 30
0.0
 10
58.47788460758064
 20
-84.71585727099585
 30
0.0
 10
58.48189276869774
 20
-84.71029386260365
 30
0.0
 10
58.48605151519798
 20
-84.70483898382797
 30
0.0
 10
58.49035486008323
 20
-84.6995005483375
 30
0.0
 10
58.49462330255731
 20
-84.69420541039372
 30
0.0
 10
58.49903400739317
 20
-84.68902483455847
 30
0.0
 10
58.50358024242353
 20
-84.68396657419381
 30
0.0
 10
58.50808931173427
 20
-84.67894966538752
 30
0.0
 10
58.51273170436207
 20
-84.67405308035147
 30
0.0
 10
58.51750223138219
 20
-84.6692827064972
 30
0.0
 10
58.52707918217194
 20
-84.65970606319165
 30
0.0
 10
58.53717253445758
 20
-84.65063807056113
 30
0.0
 10
58.5477200732687
 20
-84.64213533511866
 30
0.0
 10
58.55844068448391
 20
-84.63349308003108
 30
0.0
 10
58.56963050981764
 20
-84.6254347847042
 30
0.0
 10
58.58122477427711
 20
-84.61800798020938
 30
0.0
 10
58.59300628783048
 20
-84.61046123171211
 30
0.0
 10
58.60520540949837
 20
-84.60356653609904
 30
0.0
 10
58.61774746771535
 20
-84.59736109470158
 30
0.0
 10
58.6304889357056
 20
-84.59105699121691
 30
0.0
 10
58.64358433182566
 20
-84.58546423348195
 30
0.0
 10
58.65695141458419
 20
-84.58063780512979
 30
0.0
 10
58.67052777067449
 20
-84.57573581483684
 30
0.0
 10
58.6843843869773
 20
-84.57162433686322
 30
0.0
 10
58.69843136252242
 20
-84.56825400483726
 30
0.0
 10
58.7126949366274
 20
-84.56483170368775
 30
0.0
 10
58.7271547857545
 20
-84.56217358102799
 30
0.0
 10
58.74171428212314
 20
-84.56058785142888
 30
0.0
 10
58.75649493916988
 20
-84.55897803438574
 30
0.0
 10
58.77137829376427
 20
-84.55847343743394
 30
0.0
 10
58.78626164835608
 20
-84.55796884047959
 30
0.0
  0
SPLINE
  5
CB
330
70
100
AcDbEntity
  8
Capa 1
 62
    18
420
        0
370
     9
100
AcDbSpline
210
0.0
220
0.0
230
1.0
 70
     8
 71
     3
 72
    68
 73
    64
 74
     0
 42
0.0000000001
 43
0.0000000001
 40
0.0
 40
0.0
 40
0.0
 40
0.0
 40
1.0
 40
1.0
 40
1.0
 40
2.0
 40
2.0
 40
2.0
 40
3.0
 40
3.0
 40
3.0
 40
4.0
 40
4.0
 40
4.0
 40
5.0
 40
5.0
 40
5.0
 40
6.0
 40
6.0
 40
6.0
 40
7.0
 40
7.0
 40
7.0
 40
8.0
 40
8.0
 40
8.0
 40
9.0
 40
9.0
 40
9.0
 40
10.0
 40
10.0
 40
10.0
 40
11.0
 40
11.0
 40
11.0
 40
12.0
 40
12.0
 40
12.0
 40
13.0
 40
13.0
 40
13.0
 40
14.0
 40
14.0
 40
14.0
 40
15.0
 40
15.0
 40
15.0
 40
16.0
 40
16.0
 40
16.0
 40
17.0
 40
17.0
 40
17.0
 40
18.0
 40
18.0
 40
18.0
 40
19.0
 40
19.0
 40
19.0
 40
20.0
 40
20.0
 40
20.0
 40
21.0
 40
21.0
 40
21.0
 40
21.0
 10
160.6615333567545
 20
-84.55796884048728
 30
0.0
 10
160.669002890646
 20
-84.55809589903779
 30
0.0
 10
160.6764724245348
 20
-84.55822295758576
 30
0.0
 10
160.6839289760898
 20
-84.55862906472345
 30
0.0
 10
160.6913298941373
 20
-84.55903214188149
 30
0.0
 10
160.6987180228484
 20
-84.55971011918617
 30
0.0
 10
160.7060807230928
 20
-84.56058785140834
 30
0.0
 10
160.7133880863691
 20
-84.56145898672568
 30
0.0
 10
160.7206704019785
 20
-84.56252688558548
 30
0.0
 10
160.7279153936457
 20
-84.56380935818801
 30
0.0
 10
160.7351055300633
 20
-84.5650821205827
 30
0.0
 10
160.7422589055964
 20
-84.56656621974119
 30
0.0
 10
160.7493636427782
 20
-84.56825400481157
 30
0.0
 10
160.7564141857578
 20
-84.56992891563587
 30
0.0
 10
160.7634168295773
 20
-84.57180441682872
 30
0.0
 10
160.7703601223034
 20
-84.57387882307802
 30
0.0
 10
160.7772500548053
 20
-84.57593728721048
 30
0.0
 10
160.7840815449521
 20
-84.57819161091114
 30
0.0
 10
160.7908435907857
 20
-84.58063780511697
 30
0.0
 10
160.7975532764751
 20
-84.58306505785586
 30
0.0
 10
160.8041945891371
 20
-84.58568122119892
 30
0.0
 10
160.8107569969527
 20
-84.58848224825832
 30
0.0
 10
160.817268203602
 20
-84.59126142116604
 30
0.0
 10
160.8237017318639
 20
-84.5942225843542
 30
0.0
 10
160.8300475377059
 20
-84.59736109470416
 30
0.0
 10
160.8363434526641
 20
-84.60047493001141
 30
0.0
 10
160.8425530191264
 20
-84.60376333482459
 30
0.0
 10
160.8486666918809
 20
-84.60722126448057
 30
0.0
 10
160.854731927503
 20
-84.61065179780737
 30
0.0
 10
160.8607027828825
 20
-84.61424918040515
 30
0.0
 10
160.8665702311775
 20
-84.61800798022991
 30
0.0
 10
160.8723908314127
 20
-84.62173676828344
 30
0.0
 10
160.8781096692663
 20
-84.6256244062185
 30
0.0
 10
160.8837182095173
 20
-84.62966508261606
 30
0.0
 10
160.8892816179172
 20
-84.63367324374857
 30
0.0
 10
160.8947364967031
 20
-84.63783199025909
 30
0.0
 10
160.9000749322013
 20
-84.64213533515717
 30
0.0
 10
160.9053700701554
 20
-84.6464037776492
 30
0.0
 10
160.9105506460009
 20
-84.65081448249792
 30
0.0
 10
160.9156089063707
 20
-84.65536071754367
 30
0.0
 10
160.9206258151872
 20
-84.65986978686983
 30
0.0
 10
160.9255224002284
 20
-84.66451217951558
 30
0.0
 10
160.9302927740904
 20
-84.66928270654854
 30
0.0
 10
160.9398694173677
 20
-84.67885965732547
 30
0.0
 10
160.9489374099648
 20
-84.68895300959825
 30
0.0
 10
160.9574401453816
 20
-84.69950054839141
 30
0.0
 10
160.9660824004461
 20
-84.71022115959636
 30
0.0
 10
160.9741406957525
 20
-84.72141098492238
 30
0.0
 10
160.9815675002344
 20
-84.73300524936901
 30
0.0
 10
160.9891142487138
 20
-84.7447867629147
 30
0.0
 10
160.996008944314
 20
-84.75698588458257
 30
0.0
 10
161.0022143856986
 20
-84.76952794279442
 30
0.0
 10
161.008518489173
 20
-84.78226941078467
 30
0.0
 10
161.0141112469003
 20
-84.79536480690986
 30
0.0
 10
161.0189376752473
 20
-84.80873188966841
 30
0.0
 10
161.0238396655402
 20
-84.82230824577154
 30
0.0
 10
161.0279511435087
 20
-84.83616486208719
 30
0.0
 10
161.0313214755244
 20
-84.85021183764514
 30
0.0
 10
161.034743776674
 20
-84.86447541177321
 30
0.0
 10
161.037401899326
 20
-84.87893526092085
 30
0.0
 10
161.0389876289148
 20
-84.89349475731001
 30
0.0
 10
161.0405974459477
 20
-84.90827541439271
 30
0.0
 10
161.0411020428867
 20
-84.92315876901532
 30
0.0
 10
161.0416066398231
 20
-84.93804212364052
 30
0.0
  0
LINE
  5
CC
330
70
100
AcDbEntity
  8
Capa 1
 62
    18
420
        0
370
     9
100
AcDbLine
 10
161.0258156716105
 20
-141.815429881915
 30
0.0
 11
161.0416066397563
 21
-141.8312208201115
 31
0.0
  0
LINE
  5
CD
330
70
100
AcDbEntity
  8
Capa 1
 62
    18
420
        0
370
     9
100
AcDbLine
 10
161.0416066397563
 20
-141.8312208201115
 30
0.0
 11
161.0416066397563
 21
-84.93804213759361
 31
0.0
  0
LINE
  5
CE
330
70
100
AcDbEntity
  8
Capa 1
 62
    18
420
        0
370
     9
100
AcDbLine
 10
58.40618836567259
 20
-84.93804213759361
 30
0.0
 11
58.40618836567259
 21
-141.8312208201115
 31
0.0
  0
LINE
  5
CF
330
70
100
AcDbEntity
  8
Capa 1
 62
    18
420
        0
370
     9
100
AcDbLine
 10
58.40618836567259
 20
-141.8312208201115
 30
0.0
 11
58.42197933381583
 21
-141.815429881915
 31
0.0
  0
LINE
  5
D0
330
70
100
AcDbEntity
  8
Capa 1
 62
    18
420
        0
370
     9
100
AcDbLine
 10
160.661533331582
 20
-84.55796884055402
 30
0.0
 11
58.78626167384695
 21
-84.55796884055402
 31
0.0
  0
SPLINE
  5
D1
330
70
100
AcDbEntity
  8
Capa 1
 62
    18
420
        0
370
     9
100
AcDbSpline
210
0.0
220
0.0
230
1.0
 70
     8
 71
     3
 72
    11
 73
     7
 74
     0
 42
0.0000000001
 43
0.0000000001
 40
0.0
 40
0.0
 40
0.0
 40
0.0
 40
1.0
 40
1.0
 40
1.0
 40
2.0
 40
2.0
 40
2.0
 40
2.0
 10
160.0014959253899
 20
-86.39511497544983
 30
0.0
 10
160.0048490303352
 20
-86.45422243939014
 30
0.0
 10
160.0075890223343
 20
-86.53011041783097
 30
0.0
 10
160.0094491288771
 20
-86.61538837250958
 30
0.0
 10
160.0113092354174
 20
-86.70066632718564
 30
0.0
 10
160.0122869169699
 20
-86.79521785192498
 30
0.0
 10
160.0122869169699
 20
-86.88983594378136
 30
0.0
  0
SPLINE
  5
D2
330
70
100
AcDbEntity
  8
Capa 1
 62
    18
420
        0
370
     9
100
AcDbSpline
210
0.0
220
0.0
230
1.0
 70
     8
 71
     3
 72
    11
 73
     7
 74
     0
 42
0.0000000001
 43
0.0000000001
 40
0.0
 40
0.0
 40
0.0
 40
0.0
 40
1.0
 40
1.0
 40
1.0
 40
2.0
 40
2.0
 40
2.0
 40
2.0
 10
59.43550808845902
 20
-86.88983594378136
 30
0.0
 10
59.43550808845902
 20
-86.79521785192498
 30
0.0
 10
59.43648577001152
 20
-86.70066632718564
 30
0.0
 10
59.43834587655182
 20
-86.61538837250958
 30
0.0
 10
59.44020598309211
 20
-86.53011041783097
 30
0.0
 10
59.4429459750911
 20
-86.45422243939014
 30
0.0
 10
59.44629908003644
 20
-86.39511497544983
 30
0.0
  0
SPLINE
  5
D3
330
70
100
AcDbEntity
  8
Capa 1
 62
    18
420
        0
370
     9
100
AcDbSpline
210
0.0
220
0.0
230
1.0
 70
     8
 71
     3
 72
   110
 73
   106
 74
     0
 42
0.0000000001
 43
0.0000000001
 40
0.0
 40
0.0
 40
0.0
 40
0.0
 40
1.0
 40
1.0
 40
1.0
 40
2.0
 40
2.0
 40
2.0
 40
3.0
 40
3.0
 40
3.0
 40
4.0
 40
4.0
 40
4.0
 40
5.0
 40
5.0
 40
5.0
 40
6.0
 40
6.0
 40
6.0
 40
7.0
 40
7.0
 40
7.0
 40
8.0
 40
8.0
 40
8.0
 40
9.0
 40
9.0
 40
9.0
 40
10.0
 40
10.0
 40
10.0
 40
11.0
 40
11.0
 40
11.0
 40
12.0
 40
12.0
 40
12.0
 40
13.0
 40
13.0
 40
13.0
 40
14.0
 40
14.0
 40
14.0
 40
15.0
 40
15.0
 40
15.0
 40
16.0
 40
16.0
 40
16.0
 40
17.0
 40
17.0
 40
17.0
 40
18.0
 40
18.0
 40
18.0
 40
19.0
 40
19.0
 40
19.0
 40
20.0
 40
20.0
 40
20.0
 40
21.0
 40
21.0
 40
21.0
 40
22.0
 40
22.0
 40
22.0
 40
23.0
 40
23.0
 40
23.0
 40
24.0
 40
24.0
 40
24.0
 40
25.0
 40
25.0
 40
25.0
 40
26.0
 40
26.0
 40
26.0
 40
27.0
 40
27.0
 40
27.0
 40
28.0
 40
28.0
 40
28.0
 40
29.0
 40
29.0
 40
29.0
 40
30.0
 40
30.0
 40
30.0
 40
31.0
 40
31.0
 40
31.0
 40
32.0
 40
32.0
 40
32.0
 40
33.0
 40
33.0
 40
33.0
 40
34.0
 40
34.0
 40
34.0
 40
35.0
 40
35.0
 40
35.0
 40
35.0
 10
109.7238975027144
 20
-133.7053677200061
 30
0.0
 10
107.7178821874287
 20
-133.7053677068282
 30
0.0
 10
105.7116382992608
 20
-133.6968541956905
 30
0.0
 10
103.7048033220687
 20
-133.6845656720119
 30
0.0
 10
101.6979683448714
 20
-133.6722771483359
 30
0.0
 10
99.69059540292679
 20
-133.6566919534797
 30
0.0
 10
97.68294881588845
 20
-133.6420348653728
 30
0.0
 10
95.67530222885011
 20
-133.6273777772633
 30
0.0
 10
93.66740942660042
 20
-133.6135549204774
 30
0.0
 10
91.65947790273168
 20
-133.6016923700276
 30
0.0
 10
90.65551214079988
 20
-133.5957610947988
 30
0.0
 10
89.65153426370315
 20
-133.5902822885726
 30
0.0
 10
88.64755821015338
 20
-133.5852428893264
 30
0.0
 10
88.52206120346062
 20
-133.5846129644197
 30
0.0
 10
88.39656422525932
 20
-133.5839899052486
 30
0.0
 10
88.27106728122718
 20
-133.58337354011
 30
0.0
 10
88.2083188092111
 20
-133.5830653575394
 30
0.0
 10
88.14557034573992
 20
-133.5827588484788
 30
0.0
 10
88.08282189448922
 20
-133.582454011958
 30
0.0
 10
88.05144766886389
 20
-133.5823015937001
 30
0.0
 10
88.02007106865948
 20
-133.5821390952744
 30
0.0
 10
87.98832377778595
 20
-133.5820123990734
 30
0.0
 10
87.95657648690985
 20
-133.5818857028698
 30
0.0
 10
87.92493633489339
 20
-133.5817878285965
 30
0.0
 10
87.89340260967136
 20
-133.5817013696589
 30
0.0
 10
87.64113280790287
 20
-133.5810096981733
 30
0.0
 10
87.39586327263598
 20
-133.5807842362866
 30
0.0
 10
87.15572284576625
 20
-133.5737331754533
 30
0.0
 10
87.09568773905074
 20
-133.5719704102424
 30
0.0
 10
87.03596404166379
 20
-133.5697979442098
 30
0.0
 10
86.97650921866417
 20
-133.5671361629748
 30
0.0
 10
86.94678180716563
 20
-133.5658052723573
 30
0.0
 10
86.91712157865605
 20
-133.5643522660353
 30
0.0
 10
86.8875230810422
 20
-133.5627684292045
 30
0.0
 10
86.85792458343092
 20
-133.5611845923737
 30
0.0
 10
86.8280316870188
 20
-133.5594620610663
 30
0.0
 10
86.79817601216186
 20
-133.5576334931354
 30
0.0
 10
86.67875331274428
 20
-133.550319221417
 30
0.0
 10
86.55938968976249
 20
-133.5411901078539
 30
0.0
 10
86.44007559913941
 20
-133.5302242679292
 30
0.0
 10
86.20144741789836
 20
-133.5082925880825
 30
0.0
 10
85.96251653883214
 20
-133.4789000645227
 30
0.0
 10
85.72643169087816
 20
-133.4424913303733
 30
0.0
 10
85.25426199497278
 20
-133.3696738620794
 30
0.0
 10
84.79112964427244
 20
-133.2687193521994
 30
0.0
 10
84.33599850017218
 20
-133.1414768858074
 30
0.0
 10
83.88086735607449
 20
-133.0142344194103
 30
0.0
 10
83.43444517153836
 20
-132.8607858404677
 30
0.0
 10
82.99610563812652
 20
-132.6815482291582
 30
0.0
 10
82.55776610471725
 20
-132.5023106178512
 30
0.0
 10
82.12759200722194
 20
-132.2972976389811
 30
0.0
 10
81.70531796519933
 20
-132.0665395019087
 30
0.0
 10
81.59974945469111
 20
-132.0088499676399
 30
0.0
 10
81.49478952111016
 20
-131.9496105977135
 30
0.0
 10
81.39103468924648
 20
-131.8891736443184
 30
0.0
 10
81.28727985738279
 20
-131.8287366909233
 30
0.0
 10
81.18452934476366
 20
-131.7669958969996
 30
0.0
 10
81.08276062954695
 20
-131.7039831199118
 30
0.0
 10
80.87922319911614
 20
-131.5779575657387
 30
0.0
 10
80.67961068333337
 20
-131.4468478897132
 30
0.0
 10
80.48377410349393
 20
-131.3108556702689
 30
0.0
 10
80.09210094381243
 20
-131.038871231383
 30
0.0
 10
79.71550669804255
 20
-130.7473952863382
 30
0.0
 10
79.35317535277589
 20
-130.4374261794756
 30
0.0
 10
78.99084400750925
 20
-130.1274570726157
 30
0.0
 10
78.64275923174142
 20
-129.799036483864
 30
0.0
 10
78.3086698439058
 20
-129.4525069109118
 30
0.0
 10
78.22514749695011
 20
-129.3658745176738
 30
0.0
 10
78.14248776989106
 20
-129.278098390682
 30
0.0
 10
78.06068778991137
 20
-129.1891887985997
 30
0.0
 10
77.97888780993168
 20
-129.1002792065148
 30
0.0
 10
77.89791172528291
 20
-129.0101888544851
 30
0.0
 10
77.81823515843926
 20
-128.9194859171679
 30
0.0
 10
77.65888202475712
 20
-128.7380800425334
 30
0.0
 10
77.50426712938315
 20
-128.5537419509357
 30
0.0
 10
77.35417664133612
 20
-128.3666238729741
 30
0.0
 10
77.05399566524464
 20
-127.9923877170611
 30
0.0
 10
76.77187448127518
 20
-127.607059414757
 30
0.0
 10
76.50669302404492
 20
-127.2114172859249
 30
0.0
 10
75.97633010958444
 20
-126.4201330282581
 30
0.0
 10
75.51402733518431
 20
-125.5877050920852
 30
0.0
 10
75.11419689639989
 20
-124.7161203100045
 30
0.0
 10
74.9142816770064
 20
-124.2803279189641
 30
0.0
 10
74.73005249717238
 20
-123.8348835541486
 30
0.0
 10
74.56161974065754
 20
-123.37992892218
 30
0.0
 10
74.51951155152818
 20
-123.2661902641853
 30
0.0
 10
74.47835365338976
 20
-123.1517367055642
 30
0.0
 10
74.43835348103696
 20
-123.0371541513138
 30
0.0
 10
74.3983533086816
 20
-122.9225715970633
 30
0.0
 10
74.35948202135411
 20
-122.8077891749101
 30
0.0
 10
74.32172674877405
 20
-122.6928111469216
 30
0.0
 10
74.24621620361908
 20
-122.4628550909446
 30
0.0
 10
74.17516753716845
 20
-122.2321171538341
 30
0.0
 10
74.10850610829896
 20
-122.000624354382
 30
0.0
 10
73.97518325055999
 20
-121.5376387554777
 30
0.0
 10
73.85954835369749
 20
-121.0716541827248
 30
0.0
 10
73.76055889342845
 20
-120.6022945140569
 30
0.0
 10
73.66156943315941
 20
-120.132934845389
 30
0.0
 10
73.57919418385671
 20
-119.6604067618047
 30
0.0
 10
73.51300629362594
 20
-119.1849915118486
 30
0.0
 10
73.44681840339259
 20
-118.7095762618925
 30
0.0
 10
73.3968210168029
 20
-118.2312720984772
 30
0.0
 10
73.36321438303404
 20
-117.7502297311394
 30
0.0
 10
73.32960774926518
 20
-117.2691873638016
 30
0.0
 10
73.31238800503996
 20
-116.7854029221667
 30
0.0
 10
73.312388019106
 20
-116.2989222697641
 30
0.0
  0
SPLINE
  5
D4
330
70
100
AcDbEntity
  8
Capa 1
 62
    18
420
        0
370
     9
100
AcDbSpline
210
0.0
220
0.0
230
1.0
 70
     8
 71
     3
 72
   110
 73
   106
 74
     0
 42
0.0000000001
 43
0.0000000001
 40
0.0
 40
0.0
 40
0.0
 40
0.0
 40
1.0
 40
1.0
 40
1.0
 40
2.0
 40
2.0
 40
2.0
 40
3.0
 40
3.0
 40
3.0
 40
4.0
 40
4.0
 40
4.0
 40
5.0
 40
5.0
 40
5.0
 40
6.0
 40
6.0
 40
6.0
 40
7.0
 40
7.0
 40
7.0
 40
8.0
 40
8.0
 40
8.0
 40
9.0
 40
9.0
 40
9.0
 40
10.0
 40
10.0
 40
10.0
 40
11.0
 40
11.0
 40
11.0
 40
12.0
 40
12.0
 40
12.0
 40
13.0
 40
13.0
 40
13.0
 40
14.0
 40
14.0
 40
14.0
 40
15.0
 40
15.0
 40
15.0
 40
16.0
 40
16.0
 40
16.0
 40
17.0
 40
17.0
 40
17.0
 40
18.0
 40
18.0
 40
18.0
 40
19.0
 40
19.0
 40
19.0
 40
20.0
 40
20.0
 40
20.0
 40
21.0
 40
21.0
 40
21.0
 40
22.0
 40
22.0
 40
22.0
 40
23.0
 40
23.0
 40
23.0
 40
24.0
 40
24.0
 40
24.0
 40
25.0
 40
25.0
 40
25.0
 40
26.0
 40
26.0
 40
26.0
 40
27.0
 40
27.0
 40
27.0
 40
28.0
 40
28.0
 40
28.0
 40
29.0
 40
29.0
 40
29.0
 40
30.0
 40
30.0
 40
30.0
 40
31.0
 40
31.0
 40
31.0
 40
32.0
 40
32.0
 40
32.0
 40
33.0
 40
33.0
 40
33.0
 40
34.0
 40
34.0
 40
34.0
 40
35.0
 40
35.0
 40
35.0
 40
35.0
 10
146.1354069863229
 20
-116.2989222697641
 30
0.0
 10
146.1354070003864
 20
-116.7854029221667
 30
0.0
 10
146.1181872561637
 20
-117.2691873636732
 30
0.0
 10
146.0845806223949
 20
-117.7502297310726
 30
0.0
 10
146.050973988626
 20
-118.2312720984772
 30
0.0
 10
146.0009766020337
 20
-118.7095762617641
 30
0.0
 10
145.934788711803
 20
-119.1849915117844
 30
0.0
 10
145.8686008215722
 20
-119.6604067618047
 30
0.0
 10
145.7862255722721
 20
-120.132934845389
 30
0.0
 10
145.6872361120005
 20
-120.6022945139696
 30
0.0
 10
145.5882466517289
 20
-121.0716541825554
 30
0.0
 10
145.4726117548664
 20
-121.5376387554777
 30
0.0
 10
145.33928889713
 20
-122.000624354382
 30
0.0
 10
145.2726274682579
 20
-122.2321171538341
 30
0.0
 10
145.2015788018073
 20
-122.4628550909446
 30
0.0
 10
145.1260682566549
 20
-122.6928111469216
 30
0.0
 10
145.0883129840748
 20
-122.8077891749101
 30
0.0
 10
145.0494416967447
 20
-122.9225715970633
 30
0.0
 10
145.0094415243919
 20
-123.0371541513138
 30
0.0
 10
144.9694413520392
 20
-123.1517367055642
 30
0.0
 10
144.9282834539008
 20
-123.2661902641981
 30
0.0
 10
144.8861752647714
 20
-123.379928922162
 30
0.0
 10
144.717742508254
 20
-123.8348835540203
 30
0.0
 10
144.53351332842
 20
-124.2803279189641
 30
0.0
 10
144.333598109029
 20
-124.7161203100045
 30
0.0
 10
143.9337676702446
 20
-125.5877050920852
 30
0.0
 10
143.4714648958471
 20
-126.4201330282581
 30
0.0
 10
142.941101981384
 20
-127.2114172859249
 30
0.0
 10
142.6759205241538
 20
-127.607059414757
 30
0.0
 10
142.3937993401843
 20
-127.9923877170611
 30
0.0
 10
142.0936183640902
 20
-128.3666238729741
 30
0.0
 10
141.9435278760432
 20
-128.5537419509357
 30
0.0
 10
141.7889129806718
 20
-128.7380800425334
 30
0.0
 10
141.6295598469897
 20
-128.919485917268
 30
0.0
 10
141.5498832801435
 20
-129.0101888546391
 30
0.0
 10
141.4689071954972
 20
-129.1002792065148
 30
0.0
 10
141.3871072155175
 20
-129.1891887985997
 30
0.0
 10
141.3053072355379
 20
-129.278098390682
 30
0.0
 10
141.2226475084814
 20
-129.3658745176738
 30
0.0
 10
141.1391251615206
 20
-129.4525069109118
 30
0.0
 10
140.8050357736901
 20
-129.799036483864
 30
0.0
 10
140.4569509979171
 20
-130.1274570726157
 30
0.0
 10
140.0946196526505
 20
-130.4374261794756
 30
0.0
 10
139.7322883073838
 20
-130.7473952863382
 30
0.0
 10
139.3556940616165
 20
-131.038871231383
 30
0.0
 10
138.964020901935
 20
-131.3108556702689
 30
0.0
 10
138.7681843220956
 20
-131.4468478897132
 30
0.0
 10
138.5685718063128
 20
-131.5779575657387
 30
0.0
 10
138.3650343758794
 20
-131.7039831199118
 30
0.0
 10
138.2632656606627
 20
-131.7669958969996
 30
0.0
 10
138.1605151480461
 20
-131.8287366909233
 30
0.0
 10
138.0567603161825
 20
-131.8891736443184
 30
0.0
 10
137.9530054843188
 20
-131.9496105977135
 30
0.0
 10
137.8480455507352
 20
-132.0088499676399
 30
0.0
 10
137.7424770402296
 20
-132.0665395019087
 30
0.0
 10
137.320202998207
 20
-132.2972976389811
 30
0.0
 10
136.8900289008375
 20
-132.5023106179795
 30
0.0
 10
136.4516893673435
 20
-132.6815482291992
 30
0.0
 10
136.0133498338444
 20
-132.8607858404241
 30
0.0
 10
135.566927649357
 20
-133.0142344194103
 30
0.0
 10
135.1117965052542
 20
-133.1414768858074
 30
0.0
 10
134.6566653611565
 20
-133.2687193521994
 30
0.0
 10
134.1935330104562
 20
-133.3696738620794
 30
0.0
 10
133.7213633145482
 20
-133.4424913303733
 30
0.0
 10
133.4852784665968
 20
-133.4789000645227
 30
0.0
 10
133.246347587528
 20
-133.5082925880825
 30
0.0
 10
133.0077194062895
 20
-133.5302242679292
 30
0.0
 10
132.8884053156664
 20
-133.5411901078539
 30
0.0
 10
132.7690416926872
 20
-133.550319221417
 30
0.0
 10
132.6496189932671
 20
-133.5576334931354
 30
0.0
 10
132.6197633184101
 20
-133.5594620610663
 30
0.0
 10
132.5898704219955
 20
-133.5611845923737
 30
0.0
 10
132.5602719243841
 20
-133.5627684292045
 30
0.0
 10
132.5306734267703
 20
-133.5643522660353
 30
0.0
 10
132.5010131982607
 20
-133.5658052723573
 30
0.0
 10
132.4712857867648
 20
-133.5671361629748
 30
0.0
 10
132.4118309637626
 20
-133.5697979442098
 30
0.0
 10
132.3521072663808
 20
-133.5719704102424
 30
0.0
 10
132.2920721597037
 20
-133.5737331754071
 30
0.0
 10
132.051931733006
 20
-133.5807842360787
 30
0.0
 10
131.8066621975235
 20
-133.5810096981733
 30
0.0
 10
131.5543923957576
 20
-133.5817013696589
 30
0.0
 10
131.5228586705355
 20
-133.5817878285965
 30
0.0
 10
131.4912185185165
 20
-133.5818857028698
 30
0.0
 10
131.4594712276455
 20
-133.5820123990734
 30
0.0
 10
131.4277239367669
 20
-133.5821390952744
 30
0.0
 10
131.3963473365676
 20
-133.5823015937001
 30
0.0
 10
131.3649731109397
 20
-133.582454011958
 30
0.0
 10
131.3022246596916
 20
-133.5827588484788
 30
0.0
 10
131.2394761962152
 20
-133.5830653575394
 30
0.0
 10
131.1767277242018
 20
-133.58337354011
 30
0.0
 10
131.0512307801696
 20
-133.5839899052486
 30
0.0
 10
130.9257338019683
 20
-133.5846129644197
 30
0.0
 10
130.800236795273
 20
-133.5852428893264
 30
0.0
 10
129.7962607417232
 20
-133.5902822885726
 30
0.0
 10
128.7922828646316
 20
-133.5957610947988
 30
0.0
 10
127.7883171026947
 20
-133.6016923700276
 30
0.0
 10
125.7803855788285
 20
-133.6135549204774
 30
0.0
 10
123.7724927765814
 20
-133.6273777772633
 30
0.0
 10
121.764846189543
 20
-133.6420348653728
 30
0.0
 10
119.7571996025021
 20
-133.6566919534797
 30
0.0
 10
117.7498266605549
 20
-133.672277148146
 30
0.0
 10
115.7429916833577
 20
-133.6845656719503
 30
0.0
 10
113.7361567061656
 20
-133.6968541957547
 30
0.0
 10
111.7299128180002
 20
-133.7053677065766
 30
0.0
 10
109.7238975027119
 20
-133.7053677200061
 30
0.0
  0
SPLINE
  5
D5
330
70
100
AcDbEntity
  8
Capa 1
 62
    18
420
        0
370
     9
100
AcDbSpline
210
0.0
220
0.0
230
1.0
 70
     8
 71
     3
 72
   110
 73
   106
 74
     0
 42
0.0000000001
 43
0.0000000001
 40
0.0
 40
0.0
 40
0.0
 40
0.0
 40
1.0
 40
1.0
 40
1.0
 40
2.0
 40
2.0
 40
2.0
 40
3.0
 40
3.0
 40
3.0
 40
4.0
 40
4.0
 40
4.0
 40
5.0
 40
5.0
 40
5.0
 40
6.0
 40
6.0
 40
6.0
 40
7.0
 40
7.0
 40
7.0
 40
8.0
 40
8.0
 40
8.0
 40
9.0
 40
9.0
 40
9.0
 40
10.0
 40
10.0
 40
10.0
 40
11.0
 40
11.0
 40
11.0
 40
12.0
 40
12.0
 40
12.0
 40
13.0
 40
13.0
 40
13.0
 40
14.0
 40
14.0
 40
14.0
 40
15.0
 40
15.0
 40
15.0
 40
16.0
 40
16.0
 40
16.0
 40
17.0
 40
17.0
 40
17.0
 40
18.0
 40
18.0
 40
18.0
 40
19.0
 40
19.0
 40
19.0
 40
20.0
 40
20.0
 40
20.0
 40
21.0
 40
21.0
 40
21.0
 40
22.0
 40
22.0
 40
22.0
 40
23.0
 40
23.0
 40
23.0
 40
24.0
 40
24.0
 40
24.0
 40
25.0
 40
25.0
 40
25.0
 40
26.0
 40
26.0
 40
26.0
 40
27.0
 40
27.0
 40
27.0
 40
28.0
 40
28.0
 40
28.0
 40
29.0
 40
29.0
 40
29.0
 40
30.0
 40
30.0
 40
30.0
 40
31.0
 40
31.0
 40
31.0
 40
32.0
 40
32.0
 40
32.0
 40
33.0
 40
33.0
 40
33.0
 40
34.0
 40
34.0
 40
34.0
 40
35.0
 40
35.0
 40
35.0
 40
35.0
 10
73.312388019106
 20
-116.2989222697641
 30
0.0
 10
73.31238800503996
 20
-115.8124416173589
 30
0.0
 10
73.32960774926518
 20
-115.3286571758524
 30
0.0
 10
73.36321438303404
 20
-114.8476148084504
 30
0.0
 10
73.3968210168029
 20
-114.366572441051
 30
0.0
 10
73.44681840339259
 20
-113.8882682777615
 30
0.0
 10
73.51300629362594
 20
-113.4128530277412
 30
0.0
 10
73.57919418385671
 20
-112.9374377777209
 30
0.0
 10
73.66156943315941
 20
-112.4649096941366
 30
0.0
 10
73.76055889342845
 20
-111.9955500254713
 30
0.0
 10
73.85954835369749
 20
-111.5261903568034
 30
0.0
 10
73.97518325055999
 20
-111.0602057840479
 30
0.0
 10
74.10850610829896
 20
-110.5972201851436
 30
0.0
 10
74.17516753716845
 20
-110.3657273856915
 30
0.0
 10
74.24621620361908
 20
-110.134989448581
 30
0.0
 10
74.32172674877405
 20
-109.9050333926066
 30
0.0
 10
74.35948202135411
 20
-109.7900553646156
 30
0.0
 10
74.3983533086816
 20
-109.6752729424598
 30
0.0
 10
74.43835348103696
 20
-109.5606903882119
 30
0.0
 10
74.47835365338976
 20
-109.4461078339614
 30
0.0
 10
74.51951155152818
 20
-109.3316542753275
 30
0.0
 10
74.56161974065754
 20
-109.2179156173636
 30
0.0
 10
74.73005249717238
 20
-108.7629609855028
 30
0.0
 10
74.9142816770064
 20
-108.3175166206847
 30
0.0
 10
75.11419689639989
 20
-107.8817242295622
 30
0.0
 10
75.51402733518431
 20
-107.0101394473121
 30
0.0
 10
75.97633010958444
 20
-106.1777115112676
 30
0.0
 10
76.50669302404492
 20
-105.3864272536008
 30
0.0
 10
76.77187448127518
 20
-104.9907851247686
 30
0.0
 10
77.05399566524464
 20
-104.6054568224671
 30
0.0
 10
77.35417664133612
 20
-104.2312206665515
 30
0.0
 10
77.50426712938315
 20
-104.0441025885925
 30
0.0
 10
77.65888202475712
 20
-103.8597644969922
 30
0.0
 10
77.81823515843926
 20
-103.6783586223603
 30
0.0
 10
77.89791172528291
 20
-103.5876556850406
 30
0.0
 10
77.97888780993168
 20
-103.4975653330108
 30
0.0
 10
78.06068778991137
 20
-103.4086557409259
 30
0.0
 10
78.14248776989106
 20
-103.3197461488436
 30
0.0
 10
78.22514749695011
 20
-103.2319700218544
 30
0.0
 10
78.3086698439058
 20
-103.1453376286164
 30
0.0
 10
78.64275923174142
 20
-102.7988080556616
 30
0.0
 10
78.99084400750925
 20
-102.4703874669125
 30
0.0
 10
79.35317535277589
 20
-102.1604183600474
 30
0.0
 10
79.71550669804255
 20
-101.8504492531874
 30
0.0
 10
80.09210094381243
 20
-101.5589733081426
 30
0.0
 10
80.48377410349393
 20
-101.2869888692541
 30
0.0
 10
80.67961068333337
 20
-101.1509966498124
 30
0.0
 10
80.87922319911614
 20
-101.0198869737869
 30
0.0
 10
81.08276062954695
 20
-100.8938614196139
 30
0.0
 10
81.18452934476366
 20
-100.830848642526
 30
0.0
 10
81.28727985738279
 20
-100.7691078486049
 30
0.0
 10
81.39103468916177
 20
-100.7086708952072
 30
0.0
 10
81.49478952094074
 20
-100.6482339418121
 30
0.0
 10
81.59974945469111
 20
-100.5889945718831
 30
0.0
 10
81.70531796519933
 20
-100.5313050376144
 30
0.0
 10
82.12759200722194
 20
-100.3005469005471
 30
0.0
 10
82.55776610458891
 20
-100.0955339216744
 30
0.0
 10
82.99610563808546
 20
-99.91629631036493
 30
0.0
 10
83.434445171582
 20
-99.73705869905796
 30
0.0
 10
83.88086735607449
 20
-99.5836101201154
 30
0.0
 10
84.33599850017218
 20
-99.45636765372084
 30
0.0
 10
84.79112964427244
 20
-99.32912518732628
 30
0.0
 10
85.25426199497278
 20
-99.22817067744876
 30
0.0
 10
85.72643169087816
 20
-99.15535320914983
 30
0.0
 10
85.96251653883214
 20
-99.11894447500548
 30
0.0
 10
86.20144741789836
 20
-99.08955195144319
 30
0.0
 10
86.44007559913941
 20
-99.06762027159643
 30
0.0
 10
86.55938968976249
 20
-99.05665443167176
 30
0.0
 10
86.67875331274428
 20
-99.04752531810867
 30
0.0
 10
86.79817601216186
 20
-99.04021104639026
 30
0.0
 10
86.8280316870188
 20
-99.03838247845937
 30
0.0
 10
86.85792458343092
 20
-99.03665994715195
 30
0.0
 10
86.8875230810422
 20
-99.03507611032114
 30
0.0
 10
86.91712157865605
 20
-99.03349227349034
 30
0.0
 10
86.94678180716563
 20
-99.03203926716834
 30
0.0
 10
86.97650921866417
 20
-99.03070837655343
 30
0.0
 10
87.03596404166379
 20
-99.02804659531591
 30
0.0
 10
87.09568773905074
 20
-99.02587412928586
 30
0.0
 10
87.15572284572518
 20
-99.02411136407495
 30
0.0
 10
87.39586327242294
 20
-99.01706030323648
 30
0.0
 10
87.64113280790287
 20
-99.01683484135237
 30
0.0
 10
87.89340260967136
 20
-99.01614316986677
 30
0.0
 10
87.92493633489339
 20
-99.01605671093172
 30
0.0
 10
87.95657648690985
 20
-99.01595883665587
 30
0.0
 10
87.98832377778595
 20
-99.01583214045226
 30
0.0
 10
88.02007106865948
 20
-99.01570544425124
 30
0.0
 10
88.05144766886389
 20
-99.01554294582552
 30
0.0
 10
88.08282189448922
 20
-99.01539052756513
 30
0.0
 10
88.14557034573992
 20
-99.01508569104946
 30
0.0
 10
88.2083188092111
 20
-99.01477918198629
 30
0.0
 10
88.27106728122975
 20
-99.01447099941824
 30
0.0
 10
88.39656422526699
 20
-99.01385463427956
 30
0.0
 10
88.52206120348373
 20
-99.01323157510594
 30
0.0
 10
88.64755821018675
 20
-99.0126016501992
 30
0.0
 10
89.65153426382892
 20
-99.007562250953
 30
0.0
 10
90.65551214079988
 20
-99.00208344472943
 30
0.0
 10
91.65947790279586
 20
-98.99615216950067
 30
0.0
 10
93.66740942679037
 20
-98.98428961904826
 30
0.0
 10
95.67530222885011
 20
-98.97046676226239
 30
0.0
 10
97.68294881588845
 20
-98.95580967415545
 30
0.0
 10
99.69059540292679
 20
-98.94115258604593
 30
0.0
 10
101.6979683448714
 20
-98.92556739118973
 30
0.0
 10
103.7048033220687
 20
-98.91327886751113
 30
0.0
 10
105.7116382992608
 20
-98.90099034383256
 30
0.0
 10
107.7178821874287
 20
-98.89247683269493
 30
0.0
 10
109.7238975027144
 20
-98.89247681951699
 30
0.0
  0
SPLINE
  5
D6
330
70
100
AcDbEntity
  8
Capa 1
 62
    18
420
        0
370
     9
100
AcDbSpline
210
0.0
220
0.0
230
1.0
 70
     8
 71
     3
 72
   110
 73
   106
 74
     0
 42
0.0000000001
 43
0.0000000001
 40
0.0
 40
0.0
 40
0.0
 40
0.0
 40
1.0
 40
1.0
 40
1.0
 40
2.0
 40
2.0
 40
2.0
 40
3.0
 40
3.0
 40
3.0
 40
4.0
 40
4.0
 40
4.0
 40
5.0
 40
5.0
 40
5.0
 40
6.0
 40
6.0
 40
6.0
 40
7.0
 40
7.0
 40
7.0
 40
8.0
 40
8.0
 40
8.0
 40
9.0
 40
9.0
 40
9.0
 40
10.0
 40
10.0
 40
10.0
 40
11.0
 40
11.0
 40
11.0
 40
12.0
 40
12.0
 40
12.0
 40
13.0
 40
13.0
 40
13.0
 40
14.0
 40
14.0
 40
14.0
 40
15.0
 40
15.0
 40
15.0
 40
16.0
 40
16.0
 40
16.0
 40
17.0
 40
17.0
 40
17.0
 40
18.0
 40
18.0
 40
18.0
 40
19.0
 40
19.0
 40
19.0
 40
20.0
 40
20.0
 40
20.0
 40
21.0
 40
21.0
 40
21.0
 40
22.0
 40
22.0
 40
22.0
 40
23.0
 40
23.0
 40
23.0
 40
24.0
 40
24.0
 40
24.0
 40
25.0
 40
25.0
 40
25.0
 40
26.0
 40
26.0
 40
26.0
 40
27.0
 40
27.0
 40
27.0
 40
28.0
 40
28.0
 40
28.0
 40
29.0
 40
29.0
 40
29.0
 40
30.0
 40
30.0
 40
30.0
 40
31.0
 40
31.0
 40
31.0
 40
32.0
 40
32.0
 40
32.0
 40
33.0
 40
33.0
 40
33.0
 40
34.0
 40
34.0
 40
34.0
 40
35.0
 40
35.0
 40
35.0
 40
35.0
 10
109.7238975027119
 20
-98.89247681951699
 30
0.0
 10
111.7299128180002
 20
-98.89247683294904
 30
0.0
 10
113.7361567061656
 20
-98.90099034383256
 30
0.0
 10
115.7429916833577
 20
-98.91327886751113
 30
0.0
 10
117.7498266605549
 20
-98.92556739118973
 30
0.0
 10
119.7571996025021
 20
-98.94115258604593
 30
0.0
 10
121.764846189543
 20
-98.95580967415545
 30
0.0
 10
123.7724927765814
 20
-98.97046676226239
 30
0.0
 10
125.7803855786386
 20
-98.98428961904826
 30
0.0
 10
127.7883171026356
 20
-98.99615216950067
 30
0.0
 10
128.7922828646316
 20
-99.00208344472943
 30
0.0
 10
129.7962607417232
 20
-99.007562250953
 30
0.0
 10
130.800236795273
 20
-99.0126016501992
 30
0.0
 10
130.9257338019683
 20
-99.01323157510594
 30
0.0
 10
131.0512307801696
 20
-99.01385463427956
 30
0.0
 10
131.1767277242018
 20
-99.01447099941824
 30
0.0
 10
131.2394761962152
 20
-99.01477918198629
 30
0.0
 10
131.3022246596916
 20
-99.01508569104946
 30
0.0
 10
131.3649731109397
 20
-99.01539052756513
 30
0.0
 10
131.3963473365676
 20
-99.01554294582552
 30
0.0
 10
131.4277239367669
 20
-99.01570544425124
 30
0.0
 10
131.4594712276455
 20
-99.01583214045226
 30
0.0
 10
131.4912185185165
 20
-99.01595883665587
 30
0.0
 10
131.5228586705355
 20
-99.01605671093172
 30
0.0
 10
131.5543923957576
 20
-99.01614316986677
 30
0.0
 10
131.8066621975235
 20
-99.01683484135237
 30
0.0
 10
132.051931733006
 20
-99.01706030323648
 30
0.0
 10
132.2920721597037
 20
-99.02411136407495
 30
0.0
 10
132.3521072663808
 20
-99.02587412928586
 30
0.0
 10
132.4118309637626
 20
-99.02804659531591
 30
0.0
 10
132.4712857867648
 20
-99.03070837655343
 30
0.0
 10
132.5010131982607
 20
-99.03203926716834
 30
0.0
 10
132.5306734267703
 20
-99.03349227349034
 30
0.0
 10
132.5602719243841
 20
-99.03507611032114
 30
0.0
 10
132.5898704219955
 20
-99.03665994715195
 30
0.0
 10
132.6197633184101
 20
-99.03838247845937
 30
0.0
 10
132.6496189932671
 20
-99.04021104639026
 30
0.0
 10
132.7690416926872
 20
-99.04752531810867
 30
0.0
 10
132.8884053156664
 20
-99.05665443167176
 30
0.0
 10
133.0077194062895
 20
-99.06762027159643
 30
0.0
 10
133.246347587528
 20
-99.08955195144319
 30
0.0
 10
133.4852784665968
 20
-99.11894447500548
 30
0.0
 10
133.7213633145482
 20
-99.15535320914983
 30
0.0
 10
134.1935330104562
 20
-99.22817067744876
 30
0.0
 10
134.6566653611565
 20
-99.32912518732628
 30
0.0
 10
135.1117965052542
 20
-99.45636765372084
 30
0.0
 10
135.566927649357
 20
-99.5836101201154
 30
0.0
 10
136.0133498338444
 20
-99.73705869905796
 30
0.0
 10
136.4516893673435
 20
-99.91629631036493
 30
0.0
 10
136.8900289008375
 20
-100.0955339216744
 30
0.0
 10
137.320202998207
 20
-100.3005469005471
 30
0.0
 10
137.7424770402296
 20
-100.5313050376144
 30
0.0
 10
137.8480455507352
 20
-100.5889945718831
 30
0.0
 10
137.9530054843188
 20
-100.6482339418121
 30
0.0
 10
138.0567603161825
 20
-100.7086708952072
 30
0.0
 10
138.1605151480461
 20
-100.7691078486049
 30
0.0
 10
138.2632656606627
 20
-100.830848642526
 30
0.0
 10
138.3650343758794
 20
-100.8938614196139
 30
0.0
 10
138.5685718063128
 20
-101.0198869737869
 30
0.0
 10
138.7681843220956
 20
-101.1509966498124
 30
0.0
 10
138.964020901935
 20
-101.2869888692541
 30
0.0
 10
139.3556940616165
 20
-101.5589733081426
 30
0.0
 10
139.7322883073838
 20
-101.8504492531874
 30
0.0
 10
140.0946196526505
 20
-102.1604183600474
 30
0.0
 10
140.4569509979171
 20
-102.4703874669125
 30
0.0
 10
140.8050357736901
 20
-102.7988080556616
 30
0.0
 10
141.1391251615206
 20
-103.1453376286138
 30
0.0
 10
141.2226475084814
 20
-103.2319700218544
 30
0.0
 10
141.3053072355379
 20
-103.3197461488436
 30
0.0
 10
141.3871072155175
 20
-103.4086557409259
 30
0.0
 10
141.4689071954972
 20
-103.4975653330108
 30
0.0
 10
141.5498832801435
 20
-103.5876556848865
 30
0.0
 10
141.6295598469897
 20
-103.6783586222576
 30
0.0
 10
141.7889129806718
 20
-103.8597644969922
 30
0.0
 10
141.9435278760432
 20
-104.0441025885925
 30
0.0
 10
142.0936183640902
 20
-104.2312206665515
 30
0.0
 10
142.3937993401843
 20
-104.6054568224671
 30
0.0
 10
142.6759205241538
 20
-104.9907851247686
 30
0.0
 10
142.941101981384
 20
-105.3864272536008
 30
0.0
 10
143.4714648958471
 20
-106.1777115112676
 30
0.0
 10
143.9337676702446
 20
-107.0101394474404
 30
0.0
 10
144.333598109029
 20
-107.8817242295211
 30
0.0
 10
144.53351332842
 20
-108.3175166205589
 30
0.0
 10
144.717742508254
 20
-108.7629609855028
 30
0.0
 10
144.8861752647714
 20
-109.2179156173636
 30
0.0
 10
144.9282834539008
 20
-109.3316542753275
 30
0.0
 10
144.9694413520392
 20
-109.4461078339614
 30
0.0
 10
145.0094415243919
 20
-109.5606903882119
 30
0.0
 10
145.0494416967447
 20
-109.6752729424598
 30
0.0
 10
145.0883129840748
 20
-109.7900553646156
 30
0.0
 10
145.1260682566549
 20
-109.9050333926066
 30
0.0
 10
145.2015788018073
 20
-110.134989448581
 30
0.0
 10
145.2726274682579
 20
-110.3657273856915
 30
0.0
 10
145.33928889713
 20
-110.5972201851436
 30
0.0
 10
145.4726117548664
 20
-111.0602057840479
 30
0.0
 10
145.5882466517289
 20
-111.5261903568034
 30
0.0
 10
145.6872361120005
 20
-111.9955500254713
 30
0.0
 10
145.7862255722721
 20
-112.4649096941366
 30
0.0
 10
145.8686008214439
 20
-112.9374377775951
 30
0.0
 10
145.9347887117414
 20
-113.412853027677
 30
0.0
 10
146.0009766020337
 20
-113.8882682777615
 30
0.0
 10
146.050973988626
 20
-114.366572441051
 30
0.0
 10
146.0845806223949
 20
-114.8476148084504
 30
0.0
 10
146.1181872561637
 20
-115.3286571758524
 30
0.0
 10
146.1354070003864
 20
-115.8124416173589
 30
0.0
 10
146.1354069863229
 20
-116.2989222697641
 30
0.0
  0
SPLINE
  5
D7
330
70
100
AcDbEntity
  8
Capa 1
 62
    18
420
        0
370
     9
100
AcDbSpline
210
0.0
220
0.0
230
1.0
 70
    24
 71
     3
 72
    11
 73
     7
 74
     0
 42
0.0000000001
 43
0.0000000001
 40
0.0
 40
0.0
 40
0.0
 40
0.0
 40
1.0
 40
1.0
 40
1.0
 40
2.0
 40
2.0
 40
2.0
 40
2.0
 10
160.0122869169494
 20
-142.8289586204695
 30
0.0
 10
160.0122869168903
 20
-142.8243202269153
 30
0.0
 10
160.012286916839
 20
-142.7154929879696
 30
0.0
 10
160.0122869168005
 20
-142.5259297651803
 30
0.0
 10
160.012286916762
 20
-142.3363665423858
 30
0.0
 10
160.012286916744
 20
-142.0812035702064
 30
0.0
 10
160.012286916744
 20
-141.8154298561239
 30
0.0
  0
SPLINE
  5
D8
330
70
100
AcDbEntity
  8
Capa 1
 62
    18
420
        0
370
     9
100
AcDbSpline
210
0.0
220
0.0
230
1.0
 70
    24
 71
     3
 72
    11
 73
     7
 74
     0
 42
0.0000000001
 43
0.0000000001
 40
0.0
 40
0.0
 40
0.0
 40
0.0
 40
1.0
 40
1.0
 40
1.0
 40
2.0
 40
2.0
 40
2.0
 40
2.0
 10
160.012286916744
 20
-141.8154298561239
 30
0.0
 10
160.2780606308317
 20
-141.8154298561239
 30
0.0
 10
160.5332236020152
 20
-141.8154298561239
 30
0.0
 10
160.7227868230283
 20
-141.8154298561239
 30
0.0
 10
160.9123500440414
 20
-141.8154298561239
 30
0.0
 10
161.0211772805641
 20
-141.8154298561239
 30
0.0
 10
161.0258156715746
 20
-141.8154298561239
 30
0.0
  0
SPLINE
  5
D9
330
70
100
AcDbEntity
  8
Capa 1
 62
    18
420
        0
370
     9
100
AcDbSpline
210
0.0
220
0.0
230
1.0
 70
     8
 71
     3
 72
    98
 73
    94
 74
     0
 42
0.0000000001
 43
0.0000000001
 40
0.0
 40
0.0
 40
0.0
 40
0.0
 40
1.0
 40
1.0
 40
1.0
 40
2.0
 40
2.0
 40
2.0
 40
3.0
 40
3.0
 40
3.0
 40
4.0
 40
4.0
 40
4.0
 40
5.0
 40
5.0
 40
5.0
 40
6.0
 40
6.0
 40
6.0
 40
7.0
 40
7.0
 40
7.0
 40
8.0
 40
8.0
 40
8.0
 40
9.0
 40
9.0
 40
9.0
 40
10.0
 40
10.0
 40
10.0
 40
11.0
 40
11.0
 40
11.0
 40
12.0
 40
12.0
 40
12.0
 40
13.0
 40
13.0
 40
13.0
 40
14.0
 40
14.0
 40
14.0
 40
15.0
 40
15.0
 40
15.0
 40
16.0
 40
16.0
 40
16.0
 40
17.0
 40
17.0
 40
17.0
 40
18.0
 40
18.0
 40
18.0
 40
19.0
 40
19.0
 40
19.0
 40
20.0
 40
20.0
 40
20.0
 40
21.0
 40
21.0
 40
21.0
 40
22.0
 40
22.0
 40
22.0
 40
23.0
 40
23.0
 40
23.0
 40
24.0
 40
24.0
 40
24.0
 40
25.0
 40
25.0
 40
25.0
 40
26.0
 40
26.0
 40
26.0
 40
27.0
 40
27.0
 40
27.0
 40
28.0
 40
28.0
 40
28.0
 40
29.0
 40
29.0
 40
29.0
 40
30.0
 40
30.0
 40
30.0
 40
31.0
 40
31.0
 40
31.0
 40
31.0
 10
161.0258156715746
 20
-141.8154298561239
 30
0.0
 10
161.0256929045353
 20
-141.8272551672871
 30
0.0
 10
161.0255701374908
 20
-141.8390804784504
 30
0.0
 10
161.025184036101
 20
-141.8508985100103
 30
0.0
 10
161.0248118437124
 20
-141.8622908061886
 30
0.0
 10
161.0241949480657
 20
-141.8736763377963
 30
0.0
 10
161.0234005108096
 20
-141.8850486375031
 30
0.0
 10
161.0226357625912
 20
-141.8959959412656
 30
0.0
 10
161.0217064946798
 20
-141.906930983633
 30
0.0
 10
161.0205962961231
 20
-141.9178479971833
 30
0.0
 10
161.0195291983706
 20
-141.9283411837984
 30
0.0
 10
161.0182949456752
 20
-141.9388177142806
 30
0.0
 10
161.0168984130474
 20
-141.9492724865477
 30
0.0
 10
161.015558288124
 20
-141.9593049774296
 30
0.0
 10
161.0140687278962
 20
-141.9693174322856
 30
0.0
 10
161.0124293293283
 20
-141.9793053601338
 30
0.0
 10
161.0108589361591
 20
-141.9888728771032
 30
0.0
 10
161.0091510531338
 20
-141.9984178883859
 30
0.0
 10
161.0073066567412
 20
-142.0079364654671
 30
0.0
 10
161.0055433067269
 20
-142.0170367777061
 30
0.0
 10
161.0036551770766
 20
-142.0261129278407
 30
0.0
 10
161.0016429131112
 20
-142.035161501244
 30
0.0
 10
160.9997231368407
 20
-142.0437941840377
 30
0.0
 10
160.9976903749442
 20
-142.0524017668119
 30
0.0
 10
160.9955453426595
 20
-142.0609813014089
 30
0.0
 10
160.9935036508561
 20
-142.0691475027389
 30
0.0
 10
160.9913602457123
 20
-142.0772882933337
 30
0.0
 10
160.9891157885682
 20
-142.085401148087
 30
0.0
 10
160.9869849356042
 20
-142.0931033671529
 30
0.0
 10
160.984763001334
 20
-142.1007804067878
 30
0.0
 10
160.9824506116246
 20
-142.1084301156932
 30
0.0
 10
160.9802615051551
 20
-142.1156719863828
 30
0.0
 10
160.9779913312521
 20
-142.1228893628912
 30
0.0
 10
160.9756406492151
 20
-142.1300804479428
 30
0.0
 10
160.9734223503368
 20
-142.1368665532782
 30
0.0
 10
160.9711323559213
 20
-142.1436292450769
 30
0.0
 10
160.9687712090641
 20
-142.1503669690743
 30
0.0
 10
160.9665509706196
 20
-142.1567025994894
 30
0.0
 10
160.9642678187976
 20
-142.1630161532348
 30
0.0
 10
160.9619220924585
 20
-142.1693065300454
 30
0.0
 10
160.9597252389645
 20
-142.1751976845562
 30
0.0
 10
160.9574735015676
 20
-142.1810685106471
 30
0.0
 10
160.9551676419519
 20
-142.1869174901738
 30
0.0
 10
160.9530180422896
 20
-142.1923701050481
 30
0.0
 10
160.9508214071991
 20
-142.197803733955
 30
0.0
 10
160.9485768089094
 20
-142.2032192343301
 30
0.0
 10
160.9203482848753
 20
-142.271325667034
 30
0.0
 10
160.8845338580633
 20
-142.3365648755216
 30
0.0
 10
160.8421380431587
 20
-142.3970594672793
 30
0.0
 10
160.8083615757126
 20
-142.4452551114374
 30
0.0
 10
160.7704077667836
 20
-142.4904392504248
 30
0.0
 10
160.7288508602287
 20
-142.5319937943414
 30
0.0
 10
160.7036785866467
 20
-142.557164636801
 30
0.0
 10
160.6771843038188
 20
-142.5810037478633
 30
0.0
 10
160.6495211347729
 20
-142.603381080239
 30
0.0
 10
160.6256231234468
 20
-142.6227126955573
 30
0.0
 10
160.6008527598391
 20
-142.6409533698122
 30
0.0
 10
160.5752770991996
 20
-142.6580410519054
 30
0.0
 10
160.5201623919982
 20
-142.6948644446049
 30
0.0
 10
160.4613079794457
 20
-142.7263334763864
 30
0.0
 10
160.4000763033591
 20
-142.751719750471
 30
0.0
 10
160.3694235573384
 20
-142.7644281893364
 30
0.0
 10
160.3381750616514
 20
-142.7756122701264
 30
0.0
 10
160.306443417192
 20
-142.7852436145122
 30
0.0
 10
160.274711772607
 20
-142.794874958939
 30
0.0
 10
160.2424969792496
 20
-142.802953566946
 30
0.0
 10
160.2099787403926
 20
-142.8094312610222
 30
0.0
 10
160.1937147241639
 20
-142.8126710835095
 30
0.0
 10
160.177374800863
 20
-142.8155104364059
 30
0.0
 10
160.1609738603153
 20
-142.8179476589687
 30
0.0
 10
160.1445729201783
 20
-142.8203848814673
 30
0.0
 10
160.1281109627995
 20
-142.8224199736579
 30
0.0
 10
160.1116109204493
 20
-142.8240498398791
 30
0.0
 10
160.1033602781711
 20
-142.8248648343412
 30
0.0
 10
160.095100113223
 20
-142.8255785070585
 30
0.0
 10
160.0868322995072
 20
-142.8261907787065
 30
0.0
 10
160.0785644855603
 20
-142.8268030503726
 30
0.0
 10
160.070289022851
 20
-142.8273139209669
 30
0.0
 10
160.0620087919175
 20
-142.8277231090634
 30
0.0
 10
160.0578685987203
 20
-142.8279277069529
 30
0.0
 10
160.053727213421
 20
-142.828106883265
 30
0.0
 10
160.0495848765333
 20
-142.8282607433487
 30
0.0
 10
160.045442539163
 20
-142.8284146034427
 30
0.0
 10
160.0412992501993
 20
-142.8285431473057
 30
0.0
 10
160.0371553449426
 20
-142.8286459082096
 30
0.0
 10
160.0336034200251
 20
-142.8287339891365
 30
0.0
 10
160.0300510423195
 20
-142.8288031274209
 30
0.0
 10
160.0264984094821
 20
-142.8288546516725
 30
0.0
 10
160.0241299810862
 20
-142.8288890012702
 30
0.0
 10
160.0217614393047
 20
-142.8289155223629
 30
0.0
 10
160.0193928385484
 20
-142.8289315457497
 30
0.0
 10
160.0170242373302
 20
-142.8289475691364
 30
0.0
 10
160.0146555771372
 20
-142.8289530948017
 30
0.0
 10
160.0122869169494
 20
-142.8289586204695
 30
0.0
  0
SPLINE
  5
DA
330
70
100
AcDbEntity
  8
Capa 1
 62
    18
420
        0
370
     9
100
AcDbSpline
210
0.0
220
0.0
230
1.0
 70
    24
 71
     3
 72
    11
 73
     7
 74
     0
 42
0.0000000001
 43
0.0000000001
 40
0.0
 40
0.0
 40
0.0
 40
0.0
 40
1.0
 40
1.0
 40
1.0
 40
2.0
 40
2.0
 40
2.0
 40
2.0
 10
59.43550808823314
 20
-141.8154298560854
 30
0.0
 10
59.43550808823314
 20
-142.0812035701679
 30
0.0
 10
59.43550808825367
 20
-142.3363665423473
 30
0.0
 10
59.43550808829217
 20
-142.5259297651418
 30
0.0
 10
59.43550808833067
 20
-142.7154929879311
 30
0.0
 10
59.435508088382
 20
-142.8243202268768
 30
0.0
 10
59.43550808843591
 20
-142.828958620431
 30
0.0
  0
LINE
  5
DB
330
70
100
AcDbEntity
  8
Capa 1
 62
    18
420
        0
370
     9
100
AcDbLine
 10
160.0122869638807
 20
-142.8289586205799
 30
0.0
 11
59.43550804154568
 21
-142.8289586205799
 31
0.0
  0
SPLINE
  5
DC
330
70
100
AcDbEntity
  8
Capa 1
 62
    18
420
        0
370
     9
100
AcDbSpline
210
0.0
220
0.0
230
1.0
 70
    24
 71
     3
 72
    11
 73
     7
 74
     0
 42
0.0000000001
 43
0.0000000001
 40
0.0
 40
0.0
 40
0.0
 40
0.0
 40
1.0
 40
1.0
 40
1.0
 40
2.0
 40
2.0
 40
2.0
 40
2.0
 10
59.43550808866692
 20
-141.8154298660112
 30
0.0
 10
59.1697343745844
 20
-141.8154298660112
 30
0.0
 10
58.914571403406
 20
-141.8154298660112
 30
0.0
 10
58.72500818239805
 20
-141.8154298660112
 30
0.0
 10
58.53544496139266
 20
-141.8154298660112
 30
0.0
 10
58.42661772487772
 20
-141.8154298660112
 30
0.0
 10
58.42197933387229
 20
-141.8154298660112
 30
0.0
  0
SPLINE
  5
DD
330
70
100
AcDbEntity
  8
Capa 1
 62
    18
420
        0
370
     9
100
AcDbSpline
210
0.0
220
0.0
230
1.0
 70
     8
 71
     3
 72
    74
 73
    70
 74
     0
 42
0.0000000001
 43
0.0000000001
 40
0.0
 40
0.0
 40
0.0
 40
0.0
 40
1.0
 40
1.0
 40
1.0
 40
2.0
 40
2.0
 40
2.0
 40
3.0
 40
3.0
 40
3.0
 40
4.0
 40
4.0
 40
4.0
 40
5.0
 40
5.0
 40
5.0
 40
6.0
 40
6.0
 40
6.0
 40
7.0
 40
7.0
 40
7.0
 40
8.0
 40
8.0
 40
8.0
 40
9.0
 40
9.0
 40
9.0
 40
10.0
 40
10.0
 40
10.0
 40
11.0
 40
11.0
 40
11.0
 40
12.0
 40
12.0
 40
12.0
 40
13.0
 40
13.0
 40
13.0
 40
14.0
 40
14.0
 40
14.0
 40
15.0
 40
15.0
 40
15.0
 40
16.0
 40
16.0
 40
16.0
 40
17.0
 40
17.0
 40
17.0
 40
18.0
 40
18.0
 40
18.0
 40
19.0
 40
19.0
 40
19.0
 40
20.0
 40
20.0
 40
20.0
 40
21.0
 40
21.0
 40
21.0
 40
22.0
 40
22.0
 40
22.0
 40
23.0
 40
23.0
 40
23.0
 40
23.0
 10
59.43550808843591
 20
-142.828958620431
 30
0.0
 10
59.43302099541605
 20
-142.828952569245
 30
0.0
 10
59.4305339023962
 20
-142.8289465180616
 30
0.0
 10
59.42804687719879
 20
-142.8289288842002
 30
0.0
 10
59.42555985247625
 20
-142.8289112503414
 30
0.0
 10
59.42307289557615
 20
-142.828882033815
 30
0.0
 10
59.42058607173108
 20
-142.828844222292
 30
0.0
 10
59.4172703129383
 20
-142.8287938070196
 30
0.0
 10
59.41395479068606
 20
-142.8287281118176
 30
0.0
 10
59.4106396604837
 20
-142.8286459081711
 30
0.0
 10
59.40649575739345
 20
-142.828543153851
 30
0.0
 10
59.40235246687681
 20
-142.8284146052112
 30
0.0
 10
59.39821012892388
 20
-142.8282607433102
 30
0.0
 10
59.39406779144068
 20
-142.8281068814246
 30
0.0
 10
59.3899264065212
 20
-142.8279277062855
 30
0.0
 10
59.38578621352689
 20
-142.8277231090249
 30
0.0
 10
59.37750598300911
 20
-142.8273139221887
 30
0.0
 10
59.36923052001231
 20
-142.8268030506806
 30
0.0
 10
59.36096270596025
 20
-142.8261907786681
 30
0.0
 10
59.35269489213407
 20
-142.8255785066735
 30
0.0
 10
59.3444347272552
 20
-142.8248648341821
 30
0.0
 10
59.33618408502324
 20
-142.8240498398406
 30
0.0
 10
59.3196840427526
 20
-142.8224199738684
 30
0.0
 10
59.30322208533279
 20
-142.8203848815264
 30
0.0
 10
59.28682114515469
 20
-142.8179476589276
 30
0.0
 10
59.27042020457102
 20
-142.8155104362725
 30
0.0
 10
59.25408028122905
 20
-142.8126710833401
 30
0.0
 10
59.23781626507992
 20
-142.8094312609811
 30
0.0
 10
59.20529802638727
 20
-142.8029535671745
 30
0.0
 10
59.17308323366388
 20
-142.7948749601171
 30
0.0
 10
59.14135158828307
 20
-142.7852436144762
 30
0.0
 10
59.10961994303574
 20
-142.7756122688712
 30
0.0
 10
59.07837144512844
 20
-142.7644281846905
 30
0.0
 10
59.04771870211861
 20
-142.7517197504351
 30
0.0
 10
58.98648703205368
 20
-142.7263334855473
 30
0.0
 10
58.92763264640631
 20
-142.6948644948653
 30
0.0
 10
58.87251790628064
 20
-142.6580410518669
 30
0.0
 10
58.84694223036099
 20
-142.6409533464338
 30
0.0
 10
58.82217183858786
 20
-142.6227126291619
 30
0.0
 10
58.79827387070738
 20
-142.6033810802005
 30
0.0
 10
58.77061075195531
 20
-142.5810038246388
 30
0.0
 10
58.74411661536796
 20
-142.5571649369519
 30
0.0
 10
58.71894414525161
 20
-142.5319937943003
 30
0.0
 10
58.67738691423824
 20
-142.4904387547945
 30
0.0
 10
58.63943184662422
 20
-142.4452526932459
 30
0.0
 10
58.6056569623062
 20
-142.3970594672407
 30
0.0
 10
58.5632631345202
 20
-142.3365679107272
 30
0.0
 10
58.52745517209183
 20
-142.2713385762732
 30
0.0
 10
58.49921819654777
 20
-142.203219234289
 30
0.0
 10
58.49420729306654
 20
-142.1911308487172
 30
0.0
 10
58.48943481262471
 20
-142.1789514519769
 30
0.0
 10
58.48489858844845
 20
-142.1666826628231
 30
0.0
 10
58.47968402124526
 20
-142.1525792095872
 30
0.0
 10
58.47478165257577
 20
-142.1383576296278
 30
0.0
 10
58.47019895638566
 20
-142.1240344939702
 30
0.0
 10
58.46502014824646
 20
-142.107848220997
 30
0.0
 10
58.46024958687747
 20
-142.0915322534533
 30
0.0
 10
58.45588934947131
 20
-142.0751064196851
 30
0.0
 10
58.45102725639519
 20
-142.0567900012957
 30
0.0
 10
58.44667537822787
 20
-142.038336970399
 30
0.0
 10
58.44285578957804
 20
-142.0197765709067
 30
0.0
 10
58.43864198201984
 20
-141.9993005566418
 30
0.0
 10
58.43507600903457
 20
-141.9786938670823
 30
0.0
 10
58.43210001619445
 20
-141.957995870246
 30
0.0
 10
58.42884563311955
 20
-141.9353616724673
 30
0.0
 10
58.42629677272466
 20
-141.9126182856647
 30
0.0
 10
58.42473561530644
 20
-141.8898176069759
 30
0.0
 10
58.42304092604464
 20
-141.865066697894
 30
0.0
 10
58.4225101299636
 20
-141.840248276991
 30
0.0
 10
58.42197933388512
 20
-141.8154298560854
 30
0.0
  0
SPLINE
  5
DE
330
70
100
AcDbEntity
  8
Capa 1
 62
    18
420
        0
370
     9
100
AcDbSpline
210
0.0
220
0.0
230
1.0
 70
     8
 71
     3
 72
     8
 73
     4
 74
     0
 42
0.0000000001
 43
0.0000000001
 40
0.0
 40
0.0
 40
0.0
 40
0.0
 40
1.0
 40
1.0
 40
1.0
 40
1.0
 10
113.8569711106603
 20
-118.2291194711787
 30
0.0
 10
114.1391941878282
 20
-117.6248036266898
 30
0.0
 10
114.2854716483645
 20
-116.9658911625443
 30
0.0
 10
114.2854716482284
 20
-116.2989222688272
 30
0.0
  0
SPLINE
  5
DF
330
70
100
AcDbEntity
  8
Capa 1
 62
    18
420
        0
370
     9
100
AcDbSpline
210
0.0
220
0.0
230
1.0
 70
     8
 71
     3
 72
     8
 73
     4
 74
     0
 42
0.0000000001
 43
0.0000000001
 40
0.0
 40
0.0
 40
0.0
 40
0.0
 40
1.0
 40
1.0
 40
1.0
 40
1.0
 10
109.7238975027119
 20
-120.8604964152781
 30
0.0
 10
110.5422314612619
 20
-120.8604964152781
 30
0.0
 10
111.3455812013967
 20
-120.6403242477151
 30
0.0
 10
112.0495689042575
 20
-120.2231051422923
 30
0.0
  0
SPLINE
  5
E0
330
70
100
AcDbEntity
  8
Capa 1
 62
    18
420
        0
370
     9
100
AcDbSpline
210
0.0
220
0.0
230
1.0
 70
     8
 71
     3
 72
     8
 73
     4
 74
     0
 42
0.0000000001
 43
0.0000000001
 40
0.0
 40
0.0
 40
0.0
 40
0.0
 40
1.0
 40
1.0
 40
1.0
 40
1.0
 10
112.0495689042575
 20
-120.2231051422923
 30
0.0
 10
112.8388338079519
 20
-119.7553464077022
 30
0.0
 10
113.4687534975211
 20
-119.0603982492287
 30
0.0
 10
113.8569711106603
 20
-118.2291194711787
 30
0.0
  0
SPLINE
  5
E1
330
70
100
AcDbEntity
  8
Capa 1
 62
    18
420
        0
370
     9
100
AcDbSpline
210
0.0
220
0.0
230
1.0
 70
     8
 71
     3
 72
     8
 73
     4
 74
     0
 42
0.0000000001
 43
0.0000000001
 40
0.0
 40
0.0
 40
0.0
 40
0.0
 40
1.0
 40
1.0
 40
1.0
 40
1.0
 10
114.2854716482284
 20
-116.2989222688272
 30
0.0
 10
114.285471648059
 20
-115.4805868539028
 30
0.0
 10
114.0652986968455
 20
-114.677235737806
 30
0.0
 10
113.6480781863097
 20
-113.973247174758
 30
0.0
  0
SPLINE
  5
E2
330
70
100
AcDbEntity
  8
Capa 1
 62
    18
420
        0
370
     9
100
AcDbSpline
210
0.0
220
0.0
230
1.0
 70
     8
 71
     3
 72
     8
 73
     4
 74
     0
 42
0.0000000001
 43
0.0000000001
 40
0.0
 40
0.0
 40
0.0
 40
0.0
 40
1.0
 40
1.0
 40
1.0
 40
1.0
 10
113.6480781863097
 20
-113.973247174758
 30
0.0
 10
113.180312896597
 20
-113.1839729041211
 30
0.0
 10
112.4853528406589
 20
-112.5540482609176
 30
0.0
 10
111.6540605227001
 20
-112.1658326988359
 30
0.0
  0
SPLINE
  5
E3
330
70
100
AcDbEntity
  8
Capa 1
 62
    18
420
        0
370
     9
100
AcDbSpline
210
0.0
220
0.0
230
1.0
 70
     8
 71
     3
 72
     8
 73
     4
 74
     0
 42
0.0000000001
 43
0.0000000001
 40
0.0
 40
0.0
 40
0.0
 40
0.0
 40
1.0
 40
1.0
 40
1.0
 40
1.0
 10
111.6540605227001
 20
-112.1658326988359
 30
0.0
 10
111.0497538743437
 20
-111.8836200041018
 30
0.0
 10
110.3908536690549
 20
-111.7373481239729
 30
0.0
 10
109.7238975008433
 20
-111.7373481242501
 30
0.0
  0
SPLINE
  5
E4
330
70
100
AcDbEntity
  8
Capa 1
 62
    18
420
        0
370
     9
100
AcDbSpline
210
0.0
220
0.0
230
1.0
 70
     8
 71
     3
 72
    11
 73
     7
 74
     0
 42
0.0000000001
 43
0.0000000001
 40
0.0
 40
0.0
 40
0.0
 40
0.0
 40
1.0
 40
1.0
 40
1.0
 40
2.0
 40
2.0
 40
2.0
 40
2.0
 10
109.7238975008433
 20
-111.7373481242501
 30
0.0
 10
108.5141270568981
 20
-111.7373481247429
 30
0.0
 10
107.3538143760725
 20
-112.2179653740238
 30
0.0
 10
106.4983774914912
 20
-113.0734022586256
 30
0.0
 10
105.6429406069125
 20
-113.9288391432274
 30
0.0
 10
105.1623233576651
 20
-115.0891518240632
 30
0.0
 10
105.1623233572005
 20
-116.2989222680084
 30
0.0
  0
SPLINE
  5
E5
330
70
100
AcDbEntity
  8
Capa 1
 62
    18
420
        0
370
     9
100
AcDbSpline
210
0.0
220
0.0
230
1.0
 70
     8
 71
     3
 72
    11
 73
     7
 74
     0
 42
0.0000000001
 43
0.0000000001
 40
0.0
 40
0.0
 40
0.0
 40
0.0
 40
1.0
 40
1.0
 40
1.0
 40
2.0
 40
2.0
 40
2.0
 40
2.0
 10
105.1623233572005
 20
-116.2989222680084
 30
0.0
 10
105.1623233567333
 20
-117.5086927127442
 30
0.0
 10
105.6429406057164
 20
-118.6690053946376
 30
0.0
 10
106.4983774906262
 20
-119.5244422800299
 30
0.0
 10
107.3538143755334
 20
-120.3798791654248
 30
0.0
 10
108.5141270571599
 20
-120.8604964150625
 30
0.0
 10
109.7238975018956
 20
-120.8604964152781
 30
0.0
  0
LINE
  5
E6
330
70
100
AcDbEntity
  8
Capa 1
 62
    18
420
        0
370
     9
100
AcDbLine
 10
160.0280778602101
 20
-142.8447495888027
 30
0.0
 11
160.0122869638807
 21
-142.8289586205799
 31
0.0
  0
LINE
  5
E7
330
70
100
AcDbEntity
  8
Capa 1
 62
    18
420
        0
370
     9
100
AcDbLine
 10
59.43550804154568
 20
-142.8289586205799
 30
0.0
 11
59.41971714521883
 21
-142.8447495888027
 31
0.0
  0
LINE
  5
E8
330
70
100
AcDbEntity
  8
Capa 1
 62
    18
420
        0
370
     9
100
AcDbLine
 10
59.41971714521883
 20
-142.8447495888027
 30
0.0
 11
160.0280778602101
 21
-142.8447495888027
 31
0.0
  0
SPLINE
  5
E9
330
70
100
AcDbEntity
  8
Capa 1
 62
    18
420
        0
370
     9
100
AcDbSpline
210
0.0
220
0.0
230
1.0
 70
     8
 71
     3
 72
    14
 73
    10
 74
     0
 42
0.0000000001
 43
0.0000000001
 40
0.0
 40
0.0
 40
0.0
 40
0.0
 40
1.0
 40
1.0
 40
1.0
 40
2.0
 40
2.0
 40
2.0
 40
3.0
 40
3.0
 40
3.0
 40
3.0
 10
109.7238975027119
 20
-119.2134658883261
 30
0.0
 10
110.7650116272406
 20
-119.2134658883261
 30
0.0
 10
111.7274092548864
 20
-118.6578253588513
 30
0.0
 10
112.2479663170276
 20
-117.7561940786999
 30
0.0
 10
112.7685233791662
 20
-116.854562798551
 30
0.0
 10
112.7685233789429
 20
-115.7432817397272
 30
0.0
 10
112.247966316427
 20
-114.8416504597888
 30
0.0
 10
111.7274092539213
 20
-113.9400191798555
 30
0.0
 10
110.7650116260445
 20
-113.3843786507709
 30
0.0
 10
109.7238975015183
 20
-113.3843786511969
 30
0.0
  0
SPLINE
  5
EA
330
70
100
AcDbEntity
  8
Capa 1
 62
    18
420
        0
370
     9
100
AcDbSpline
210
0.0
220
0.0
230
1.0
 70
     8
 71
     3
 72
    17
 73
    13
 74
     0
 42
0.0000000001
 43
0.0000000001
 40
0.0
 40
0.0
 40
0.0
 40
0.0
 40
1.0
 40
1.0
 40
1.0
 40
2.0
 40
2.0
 40
2.0
 40
3.0
 40
3.0
 40
3.0
 40
4.0
 40
4.0
 40
4.0
 40
4.0
 10
109.7238975015183
 20
-113.3843786511969
 30
0.0
 10
108.9509343497652
 20
-113.3843786515152
 30
0.0
 10
108.209571431492
 20
-113.6914612271981
 30
0.0
 10
107.6630039454198
 20
-114.2380287135526
 30
0.0
 10
107.1164364593528
 20
-114.7845961999123
 30
0.0
 10
106.80935388406
 20
-115.5259591183447
 30
0.0
 10
106.8093538841473
 20
-116.2989222700978
 30
0.0
 10
106.8093538842397
 20
-117.0718854218509
 30
0.0
 10
107.1164364597019
 20
-117.8132483402165
 30
0.0
 10
107.6630039458972
 20
-118.3598158264478
 30
0.0
 10
108.2095714320926
 20
-118.9063833126766
 30
0.0
 10
108.9509343504352
 20
-119.2134658881901
 30
0.0
 10
109.7238975021934
 20
-119.2134658883261
 30
0.0
  0
INSERT
  5
EC
330
70
100
AcDbEntity
  8
Capa 1
100
AcDbBlockReference
  2
Block_2
 10
0.0
 20
0.0
 30
0.0
  0
MTEXT
  5
F3
330
70
100
AcDbEntity
  8
Capa 1
100
AcDbMText
 10
168.9254339854963
 20
-116.9844183735814
 30
0.0
 40
0.2
 41
0.0
 46
0.0
 71
     7
 72
     1
  1
\C18;\c0;\FArial Bold|b1|i0|c1;\H2.497667;\W1.000000;460
 11
0.0000000000000176
 21
1.0
 31
0.0
 73
     1
 44
1.0
  0
ENDSEC
  0
SECTION
  2
OBJECTS
  0
DICTIONARY
  5
C
330
0
100
AcDbDictionary
281
     1
  3
ACAD_COLOR
350
63
  3
ACAD_DETAILVIEWSTYLE
350
6A
  3
ACAD_GROUP
350
D
  3
ACAD_LAYOUT
350
62
  3
ACAD_MATERIAL
350
10
  3
ACAD_MLEADERSTYLE
350
66
  3
ACAD_MLINESTYLE
350
5F
  3
ACAD_PLOTSETTINGS
350
61
  3
ACAD_PLOTSTYLENAME
350
E
  3
ACAD_SCALELIST
350
42
  3
ACAD_SECTIONVIEWSTYLE
350
68
  3
ACAD_TABLESTYLE
350
64
  3
ACAD_VISUALSTYLE
350
29
  3
ACDB_RECOMPOSE_DATA
350
FD
  3
AcDbVariableDictionary
350
F4
  0
DICTIONARY
  5
63
102
{ACAD_REACTORS
330
C
102
}
330
C
100
AcDbDictionary
281
     1
  0
DICTIONARY
  5
6A
102
{ACAD_REACTORS
330
C
102
}
330
C
100
AcDbDictionary
281
     1
  3
Imperial24
350
6B
  0
DICTIONARY
  5
D
102
{ACAD_REACTORS
330
C
102
}
330
C
100
AcDbDictionary
281
     1
  0
DICTIONARY
  5
62
102
{ACAD_REACTORS
330
C
102
}
330
C
100
AcDbDictionary
281
     1
  3
Layout1
350
6F
  3
Layout2
350
77
  3
Model
350
73
  0
DICTIONARY
  5
10
102
{ACAD_REACTORS
330
C
102
}
330
C
100
AcDbDictionary
281
     1
  3
ByBlock
350
19
  3
ByLayer
350
11
  3
Global
350
21
  0
DICTIONARY
  5
66
102
{ACAD_REACTORS
330
C
102
}
330
C
100
AcDbDictionary
281
     1
  3
Standard
350
67
  0
DICTIONARY
  5
5F
102
{ACAD_REACTORS
330
C
102
}
330
C
100
AcDbDictionary
281
     1
  3
Standard
350
60
  0
DICTIONARY
  5
61
102
{ACAD_REACTORS
330
C
102
}
330
C
100
AcDbDictionary
281
     1
  0
ACDBDICTIONARYWDFLT
  5
E
102
{ACAD_REACTORS
330
C
102
}
330
C
100
AcDbDictionary
281
     1
  3
Normal
350
F
100
AcDbDictionaryWithDefault
340
F
  0
DICTIONARY
  5
42
102
{ACAD_REACTORS
330
C
102
}
330
C
100
AcDbDictionary
281
     1
  3
A0
350
43
  3
A1
350
44
  3
A2
350
45
  3
A3
350
46
  3
A4
350
47
  3
A5
350
48
  3
A6
350
49
  3
A7
350
4A
  3
A8
350
4B
  3
A9
350
4C
  3
B0
350
4D
  3
B1
350
4E
  3
B2
350
4F
  3
B3
350
50
  3
B4
350
51
  3
B5
350
52
  3
B6
350
53
  0
DICTIONARY
  5
68
102
{ACAD_REACTORS
330
C
102
}
330
C
100
AcDbDictionary
281
     1
  3
Imperial24
350
69
  0
DICTIONARY
  5
64
102
{ACAD_REACTORS
330
C
102
}
330
C
100
AcDbDictionary
281
     1
  3
Standard
350
65
  0
DICTIONARY
  5
29
102
{ACAD_REACTORS
330
C
102
}
330
C
100
AcDbDictionary
281
     1
  3
2dWireframe
350
2F
  3
Basic
350
2E
  3
Brighten
350
35
  3
ColorChange
350
39
  3
Conceptual
350
32
  3
Dim
350
34
  3
EdgeColorOff
350
41
  3
Facepattern
350
38
  3
Flat
350
2A
  3
FlatWithEdges
350
2B
  3
Gouraud
350
2C
  3
GouraudWithEdges
350
2D
  3
Hidden
350
31
  3
JitterOff
350
3F
  3
Linepattern
350
37
  3
OverhangOff
350
40
  3
Realistic
350
33
  3
Shaded
350
3E
  3
Shaded with edges
350
3D
  3
Shades of Gray
350
3A
  3
Sketchy
350
3B
  3
Thicken
350
36
  3
Wireframe
350
30
  3
X-Ray
350
3C
  0
XRECORD
  5
FD
102
{ACAD_REACTORS
330
C
102
}
330
C
100
AcDbXrecord
280
     1
 90
        1
330
65
  0
DICTIONARY
  5
F4
102
{ACAD_REACTORS
330
C
102
}
330
C
100
AcDbDictionary
281
     1
  3
CANNOSCALE
350
F9
  3
CMLEADERSTYLE
350
F6
  3
CTABLESTYLE
350
F5
  3
CVIEWDETAILSTYLE
350
F7
  3
CVIEWSECTIONSTYLE
350
F8
  0
ACDBDETAILVIEWSTYLE
  5
6B
102
{ACAD_XDICTIONARY
360
132
102
}
102
{ACAD_REACTORS
330
6A
102
}
330
6A
100
AcDbModelDocViewStyle
 70
     0
  3
Imperial24
290
     0
100
AcDbDetailViewStyle
 70
     0
 71
     0
 90
        3
 71
     1
340
55
 62
   256
 40
0.24
340
0
 62
   256
 40
0.24
300

 40
0.36
280
     3
 71
     2
340
5D
 90
       25
 62
   256
 71
     3
340
55
 62
   256
 40
0.24
 90
        1
 40
0.75
 90
        1
300
%<\AcVar ViewType \f "%tc1">% %<\AcVar ViewDetailId>%\PSCALE %<\AcVar ViewScale \f "%sn">%
 71
     4
340
5D
 90
       25
 62
   256
340
5D
 90
       25
 62
   256
280
     0
  0
LAYOUT
  5
6F
102
{ACAD_REACTORS
330
62
102
}
330
62
100
AcDbPlotSettings
  1

  2

  4

  6

 40
0.0
 41
0.0
 42
0.0
 43
0.0
 44
0.0
 45
0.0
 46
0.0
 47
0.0
 48
0.0
 49
0.0
140
0.0
141
0.0
142
1.0
143
1.0
 70
   688
 72
     0
 73
     0
 74
     5
  7

 75
    16
147
1.0
 76
     0
 77
     2
 78
   300
148
0.0
149
0.0
100
AcDbLayout
  1
Layout1
 70
     1
 71
     1
 10
0.0
 20
0.0
 11
12.0
 21
9.0
 12
0.0
 22
0.0
 32
0.0
 14
0.0
 24
0.0
 34
0.0
 15
0.0
 25
0.0
 35
0.0
146
0.0
 13
0.0
 23
0.0
 33
0.0
 16
1.0
 26
0.0
 36
0.0
 17
0.0
 27
1.0
 37
0.0
 76
     0
330
6C
  0
LAYOUT
  5
77
102
{ACAD_REACTORS
330
62
102
}
330
62
100
AcDbPlotSettings
  1

  2

  4

  6

 40
0.0
 41
0.0
 42
0.0
 43
0.0
 44
0.0
 45
0.0
 46
0.0
 47
0.0
 48
0.0
 49
0.0
140
0.0
141
0.0
142
1.0
143
1.0
 70
   688
 72
     0
 73
     0
 74
     5
  7

 75
    16
147
1.0
 76
     0
 77
     2
 78
   300
148
0.0
149
0.0
100
AcDbLayout
  1
Layout2
 70
     1
 71
     2
 10
0.0
 20
0.0
 11
12.0
 21
9.0
 12
0.0
 22
0.0
 32
0.0
 14
0.0
 24
0.0
 34
0.0
 15
0.0
 25
0.0
 35
0.0
146
0.0
 13
0.0
 23
0.0
 33
0.0
 16
1.0
 26
0.0
 36
0.0
 17
0.0
 27
1.0
 37
0.0
 76
     0
330
74
  0
LAYOUT
  5
73
102
{ACAD_REACTORS
330
62
102
}
330
62
100
AcDbPlotSettings
  1

  2

  4

  6

 40
0.0
 41
0.0
 42
0.0
 43
0.0
 44
0.0
 45
0.0
 46
0.0
 47
0.0
 48
0.0
 49
0.0
140
0.0
141
0.0
142
1.0
143
1.0
 70
  1712
 72
     0
 73
     0
 74
     0
  7

 75
     0
147
1.0
 76
     0
 77
     2
 78
   300
148
0.0
149
0.0
100
AcDbLayout
  1
Model
 70
     1
 71
     0
 10
0.0
 20
0.0
 11
12.0
 21
9.0
 12
0.0
 22
0.0
 32
0.0
 14
0.0
 24
0.0
 34
0.0
 15
0.0
 25
0.0
 35
0.0
146
0.0
 13
0.0
 23
0.0
 33
0.0
 16
1.0
 26
0.0
 36
0.0
 17
0.0
 27
1.0
 37
0.0
 76
     0
330
70
  0
MATERIAL
  5
19
102
{ACAD_XDICTIONARY
360
1A
102
}
102
{ACAD_REACTORS
330
10
102
}
330
10
100
AcDbMaterial
  1
ByBlock
 72
     0
 43
0.0208333333333333
 43
0.0
 43
0.0
 43
0.0
 43
0.0
 43
0.0208333333333333
 43
0.0
 43
0.0
 43
0.0
 43
0.0
 43
1.0
 43
0.0
 43
0.0
 43
0.0
 43
0.0
 43
1.0
 77
     0
 47
0.0208333333333333
 47
0.0
 47
0.0
 47
0.0
 47
0.0
 47
0.0208333333333333
 47
0.0
 47
0.0
 47
0.0
 47
0.0
 47
1.0
 47
0.0
 47
0.0
 47
0.0
 47
0.0
 47
1.0
171
     0
 49
0.0208333333333333
 49
0.0
 49
0.0
 49
0.0
 49
0.0
 49
0.0208333333333333
 49
0.0
 49
0.0
 49
0.0
 49
0.0
 49
1.0
 49
0.0
 49
0.0
 49
0.0
 49
0.0
 49
1.0
175
     0
142
0.0208333333333333
142
0.0
142
0.0
142
0.0
142
0.0
142
0.0208333333333333
142
0.0
142
0.0
142
0.0
142
0.0
142
1.0
142
0.0
142
0.0
142
0.0
142
0.0
142
1.0
179
     0
144
0.0208333333333333
144
0.0
144
0.0
144
0.0
144
0.0
144
0.0208333333333333
144
0.0
144
0.0
144
0.0
144
0.0
144
1.0
144
0.0
144
0.0
144
0.0
144
0.0
144
1.0
147
0.0208333333333333
147
0.0
147
0.0
147
0.0
147
0.0
147
0.0208333333333333
147
0.0
147
0.0
147
0.0
147
0.0
147
1.0
147
0.0
147
0.0
147
0.0
147
0.0
147
1.0
  0
MATERIAL
  5
11
102
{ACAD_XDICTIONARY
360
12
102
}
102
{ACAD_REACTORS
330
10
102
}
330
10
100
AcDbMaterial
  1
ByLayer
 72
     0
 43
0.0208333333333333
 43
0.0
 43
0.0
 43
0.0
 43
0.0
 43
0.0208333333333333
 43
0.0
 43
0.0
 43
0.0
 43
0.0
 43
1.0
 43
0.0
 43
0.0
 43
0.0
 43
0.0
 43
1.0
 77
     0
 47
0.0208333333333333
 47
0.0
 47
0.0
 47
0.0
 47
0.0
 47
0.0208333333333333
 47
0.0
 47
0.0
 47
0.0
 47
0.0
 47
1.0
 47
0.0
 47
0.0
 47
0.0
 47
0.0
 47
1.0
171
     0
 49
0.0208333333333333
 49
0.0
 49
0.0
 49
0.0
 49
0.0
 49
0.0208333333333333
 49
0.0
 49
0.0
 49
0.0
 49
0.0
 49
1.0
 49
0.0
 49
0.0
 49
0.0
 49
0.0
 49
1.0
175
     0
142
0.0208333333333333
142
0.0
142
0.0
142
0.0
142
0.0
142
0.0208333333333333
142
0.0
142
0.0
142
0.0
142
0.0
142
1.0
142
0.0
142
0.0
142
0.0
142
0.0
142
1.0
179
     0
144
0.0208333333333333
144
0.0
144
0.0
144
0.0
144
0.0
144
0.0208333333333333
144
0.0
144
0.0
144
0.0
144
0.0
144
1.0
144
0.0
144
0.0
144
0.0
144
0.0
144
1.0
147
0.0208333333333333
147
0.0
147
0.0
147
0.0
147
0.0
147
0.0208333333333333
147
0.0
147
0.0
147
0.0
147
0.0
147
1.0
147
0.0
147
0.0
147
0.0
147
0.0
147
1.0
  0
MATERIAL
  5
21
102
{ACAD_XDICTIONARY
360
22
102
}
102
{ACAD_REACTORS
330
10
102
}
330
10
100
AcDbMaterial
  1
Global
 72
     0
 43
0.0208333333333333
 43
0.0
 43
0.0
 43
0.0
 43
0.0
 43
0.0208333333333333
 43
0.0
 43
0.0
 43
0.0
 43
0.0
 43
1.0
 43
0.0
 43
0.0
 43
0.0
 43
0.0
 43
1.0
 77
     0
 47
0.0208333333333333
 47
0.0
 47
0.0
 47
0.0
 47
0.0
 47
0.0208333333333333
 47
0.0
 47
0.0
 47
0.0
 47
0.0
 47
1.0
 47
0.0
 47
0.0
 47
0.0
 47
0.0
 47
1.0
171
     0
 49
0.0208333333333333
 49
0.0
 49
0.0
 49
0.0
 49
0.0
 49
0.0208333333333333
 49
0.0
 49
0.0
 49
0.0
 49
0.0
 49
1.0
 49
0.0
 49
0.0
 49
0.0
 49
0.0
 49
1.0
175
     0
142
0.0208333333333333
142
0.0
142
0.0
142
0.0
142
0.0
142
0.0208333333333333
142
0.0
142
0.0
142
0.0
142
0.0
142
1.0
142
0.0
142
0.0
142
0.0
142
0.0
142
1.0
179
     0
144
0.0208333333333333
144
0.0
144
0.0
144
0.0
144
0.0
144
0.0208333333333333
144
0.0
144
0.0
144
0.0
144
0.0
144
1.0
144
0.0
144
0.0
144
0.0
144
0.0
144
1.0
147
0.0208333333333333
147
0.0
147
0.0
147
0.0
147
0.0
147
0.0208333333333333
147
0.0
147
0.0
147
0.0
147
0.0
147
1.0
147
0.0
147
0.0
147
0.0
147
0.0
147
1.0
  0
MLEADERSTYLE
  5
67
102
{ACAD_XDICTIONARY
360
12E
102
}
102
{ACAD_REACTORS
330
66
102
}
330
66
100
AcDbMLeaderStyle
179
     2
170
     2
171
     1
172
     0
 90
        2
 40
0.0
 41
0.0
173
     1
 91
-1056964608
340
5B
 92
       -2
290
     1
 42
0.09
291
     1
 43
0.36
  3
Standard
 44
0.18
300

342
55
174
     1
178
     6
175
     1
176
     0
 93
-1056964608
 45
0.18
292
     0
297
     0
 46
0.18
 94
-1056964608
 47
1.0
 49
1.0
140
1.0
293
     1
141
0.0
294
     1
177
     0
142
1.0
295
     0
296
     0
143
0.125
271
     0
272
     9
273
     9
  0
MLINESTYLE
  5
60
102
{ACAD_REACTORS
330
5F
102
}
330
5F
100
AcDbMlineStyle
  2
STANDARD
 70
     0
  3

 62
   256
 51
90.0
 52
90.0
 71
     2
 49
0.5
 62
   256
  6
BYLAYER
 49
-0.5
 62
   256
  6
BYLAYER
  0
ACDBPLACEHOLDER
  5
F
102
{ACAD_REACTORS
330
E
102
}
330
E
  0
SCALE
  5
43
102
{ACAD_REACTORS
330
42
102
}
330
42
100
AcDbScale
 70
     0
300
1:1
140
1.0
141
1.0
290
     1
  0
SCALE
  5
44
102
{ACAD_REACTORS
330
42
102
}
330
42
100
AcDbScale
 70
     0
300
1/128" = 1'-0"
140
0.0078125
141
12.0
290
     0
  0
SCALE
  5
45
102
{ACAD_REACTORS
330
42
102
}
330
42
100
AcDbScale
 70
     0
300
1/64" = 1'-0"
140
0.015625
141
12.0
290
     0
  0
SCALE
  5
46
102
{ACAD_REACTORS
330
42
102
}
330
42
100
AcDbScale
 70
     0
300
1/32" = 1'-0"
140
0.03125
141
12.0
290
     0
  0
SCALE
  5
47
102
{ACAD_REACTORS
330
42
102
}
330
42
100
AcDbScale
 70
     0
300
1/16" = 1'-0"
140
0.0625
141
12.0
290
     0
  0
SCALE
  5
48
102
{ACAD_REACTORS
330
42
102
}
330
42
100
AcDbScale
 70
     0
300
3/32" = 1'-0"
140
0.09375
141
12.0
290
     0
  0
SCALE
  5
49
102
{ACAD_REACTORS
330
42
102
}
330
42
100
AcDbScale
 70
     0
300
1/8" = 1'-0"
140
0.125
141
12.0
290
     0
  0
SCALE
  5
4A
102
{ACAD_REACTORS
330
42
102
}
330
42
100
AcDbScale
 70
     0
300
3/16" = 1'-0"
140
0.1875
141
12.0
290
     0
  0
SCALE
  5
4B
102
{ACAD_REACTORS
330
42
102
}
330
42
100
AcDbScale
 70
     0
300
1/4" = 1'-0"
140
0.25
141
12.0
290
     0
  0
SCALE
  5
4C
102
{ACAD_REACTORS
330
42
102
}
330
42
100
AcDbScale
 70
     0
300
3/8" = 1'-0"
140
0.375
141
12.0
290
     0
  0
SCALE
  5
4D
102
{ACAD_REACTORS
330
42
102
}
330
42
100
AcDbScale
 70
     0
300
1/2" = 1'-0"
140
0.5
141
12.0
290
     0
  0
SCALE
  5
4E
102
{ACAD_REACTORS
330
42
102
}
330
42
100
AcDbScale
 70
     0
300
3/4" = 1'-0"
140
0.75
141
12.0
290
     0
  0
SCALE
  5
4F
102
{ACAD_REACTORS
330
42
102
}
330
42
100
AcDbScale
 70
     0
300
1" = 1'-0"
140
1.0
141
12.0
290
     0
  0
SCALE
  5
50
102
{ACAD_REACTORS
330
42
102
}
330
42
100
AcDbScale
 70
     0
300
1-1/2" = 1'-0"
140
1.5
141
12.0
290
     0
  0
SCALE
  5
51
102
{ACAD_REACTORS
330
42
102
}
330
42
100
AcDbScale
 70
     0
300
3" = 1'-0"
140
3.0
141
12.0
290
     0
  0
SCALE
  5
52
102
{ACAD_REACTORS
330
42
102
}
330
42
100
AcDbScale
 70
     0
300
6" = 1'-0"
140
6.0
141
12.0
290
     0
  0
SCALE
  5
53
102
{ACAD_REACTORS
330
42
102
}
330
42
100
AcDbScale
 70
     0
300
1'-0" = 1'-0"
140
12.0
141
12.0
290
     0
  0
ACDBSECTIONVIEWSTYLE
  5
69
102
{ACAD_XDICTIONARY
360
130
102
}
102
{ACAD_REACTORS
330
68
102
}
330
68
100
AcDbModelDocViewStyle
 70
     0
  3
Imperial24
290
     0
100
AcDbSectionViewStyle
 70
     0
 71
     0
 90
       78
 71
     1
340
55
 62
   256
 40
0.24
340
0
340
0
 62
   256
 40
0.24
300
I, O, Q, S, X, Z
 40
0.48
 90
        3
 40
0.18
 90
        1
 71
     2
340
5D
 90
       25
 62
   256
340
5D
 90
       50
 62
   256
 40
0.24
 40
0.0
 40
0.24
 71
     3
340
55
 62
   256
 40
0.24
 90
        1
 40
0.75
 90
        1
300
%<\AcVar ViewType \f "%tc1">% %<\AcVar ViewSectionStartId>%-%<\AcVar ViewSectionEndId>%\PSCALE %<\AcVar ViewScale \f "%sn">%
 71
     4
 62
   256
 62
   257
300
ANSI31
 40
1.0
 90
        0
290
     0
290
     0
 90
        6
 40
0.0
 40
1.570796326794896
 40
0.2617993877991494
 40
1.308996938995747
 40
-0.2617993877991494
 40
1.832595714594046
  0
TABLESTYLE
  5
65
102
{ACAD_XDICTIONARY
360
FA
102
}
102
{ACAD_REACTORS
330
64
102
}
330
64
100
AcDbTableStyle
280
     0
  3
Standard
 70
     0
 71
     0
 40
0.06
 41
0.06
280
     0
281
     0
  7
Standard
140
0.18
170
     2
 62
     0
 63
     7
283
     0
 90
      512
 91
        0
  1

274
    -2
284
     1
 64
     0
275
    -2
285
     1
 65
     0
276
    -2
286
     1
 66
     0
277
    -2
287
     1
 67
     0
278
    -2
288
     1
 68
     0
279
    -2
289
     1
 69
     0
  7
Standard
140
0.25
170
     5
 62
     0
 63
     7
283
     0
 90
      512
 91
        0
  1

274
    -2
284
     1
 64
     0
275
    -2
285
     1
 65
     0
276
    -2
286
     1
 66
     0
277
    -2
287
     1
 67
     0
278
    -2
288
     1
 68
     0
279
    -2
289
     1
 69
     0
  7
Standard
140
0.18
170
     5
 62
     0
 63
     7
283
     0
 90
      512
 91
        0
  1

274
    -2
284
     1
 64
     0
275
    -2
285
     1
 65
     0
276
    -2
286
     1
 66
     0
277
    -2
287
     1
 67
     0
278
    -2
288
     1
 68
     0
279
    -2
289
     1
 69
     0
  0
VISUALSTYLE
  5
2F
102
{ACAD_XDICTIONARY
360
108
102
}
102
{ACAD_REACTORS
330
29
102
}
330
29
100
AcDbVisualStyle
  2
2dWireframe
 70
     4
177
     2
291
     0
 71
     0
176
     1
 72
     2
176
     1
 73
     0
176
     1
 90
        0
176
     1
 40
0.6
176
     1
 41
30.0
176
     1
 63
     7
421
 16777215
176
     1
 74
     1
176
     1
 91
        4
176
     1
 64
     7
176
     1
 65
   257
176
     1
 75
     1
176
     1
175
     1
176
     1
 42
1.0
176
     1
 92
        0
176
     1
 66
   257
176
     1
 43
1.0
176
     1
 76
     1
176
     1
 77
     6
176
     1
 78
     2
176
     1
 67
     7
176
     1
 79
     5
176
     1
170
     0
176
     1
171
     0
176
     1
290
     0
176
     1
 93
        1
176
     1
 44
0.0
176
     1
173
     0
176
     1
1001
ACAD
1000
AcDbSavedByObjectVersion
1070
     0
  0
VISUALSTYLE
  5
2E
102
{ACAD_XDICTIONARY
360
106
102
}
102
{ACAD_REACTORS
330
29
102
}
330
29
100
AcDbVisualStyle
  2
Basic
 70
     7
177
     2
291
     1
 71
     1
176
     1
 72
     0
176
     1
 73
     1
176
     1
 90
        0
176
     1
 40
0.6
176
     1
 41
30.0
176
     1
 63
     7
421
 16777215
176
     1
 74
     0
176
     1
 91
        4
176
     1
 64
     7
176
     1
 65
   257
176
     1
 75
     1
176
     1
175
     1
176
     1
 42
1.0
176
     1
 92
        8
176
     1
 66
     7
176
     1
 43
1.0
176
     1
 76
     1
176
     1
 77
     6
176
     1
 78
     2
176
     1
 67
     7
176
     1
 79
     5
176
     1
170
     0
176
     1
171
     0
176
     1
290
     0
176
     1
 93
        1
176
     1
 44
0.0
176
     1
173
     0
176
     1
1001
ACAD
1000
AcDbSavedByObjectVersion
1070
     0
  0
VISUALSTYLE
  5
35
102
{ACAD_XDICTIONARY
360
114
102
}
102
{ACAD_REACTORS
330
29
102
}
330
29
100
AcDbVisualStyle
  2
Brighten
 70
    12
177
     2
291
     1
 71
     2
176
     1
 72
     2
176
     1
 73
     0
176
     1
 90
        0
176
     1
 40
0.6
176
     1
 41
30.0
176
     1
 63
     7
421
 16777215
176
     1
 74
     1
176
     1
 91
        4
176
     1
 64
     7
176
     1
 65
   257
176
     1
 75
     1
176
     1
175
     1
176
     1
 42
1.0
176
     1
 92
        8
176
     1
 66
     7
176
     1
 43
1.0
176
     1
 76
     1
176
     1
 77
     6
176
     1
 78
     2
176
     1
 67
     7
176
     1
 79
     5
176
     1
170
     0
176
     1
171
     0
176
     1
290
     0
176
     1
 93
        1
176
     1
 44
50.0
176
     1
173
     0
176
     1
1001
ACAD
1000
AcDbSavedByObjectVersion
1070
     0
  0
VISUALSTYLE
  5
39
102
{ACAD_XDICTIONARY
360
11C
102
}
102
{ACAD_REACTORS
330
29
102
}
330
29
100
AcDbVisualStyle
  2
ColorChange
 70
    16
177
     2
291
     1
 71
     2
176
     1
 72
     2
176
     1
 73
     3
176
     1
 90
        0
176
     1
 40
0.6
176
     1
 41
30.0
176
     1
 63
     8
421
  8421504
176
     1
 74
     1
176
     1
 91
        4
176
     1
 64
     7
176
     1
 65
   257
176
     1
 75
     1
176
     1
175
     1
176
     1
 42
1.0
176
     1
 92
        8
176
     1
 66
     8
424
  8421504
176
     1
 43
1.0
176
     1
 76
     1
176
     1
 77
     6
176
     1
 78
     2
176
     1
 67
     7
176
     1
 79
     5
176
     1
170
     0
176
     1
171
     0
176
     1
290
     0
176
     1
 93
        1
176
     1
 44
0.0
176
     1
173
     0
176
     1
1001
ACAD
1000
AcDbSavedByObjectVersion
1070
     0
  0
VISUALSTYLE
  5
32
102
{ACAD_XDICTIONARY
360
10E
102
}
102
{ACAD_REACTORS
330
29
102
}
330
29
100
AcDbVisualStyle
  2
Conceptual
 70
     9
177
     2
291
     0
 71
     3
176
     1
 72
     2
176
     1
 73
     0
176
     1
 90
        0
176
     1
 40
0.6
176
     1
 41
30.0
176
     1
 63
     7
421
 16777215
176
     1
 74
     2
176
     1
 91
        2
176
     1
 64
     7
176
     1
 65
   257
176
     1
 75
     1
176
     1
175
     1
176
     1
 42
179.0
176
     1
 92
        8
176
     1
 66
     7
176
     1
 43
1.0
176
     1
 76
     1
176
     1
 77
     6
176
     1
 78
     2
176
     1
 67
     7
176
     1
 79
     3
176
     1
170
     0
176
     1
171
     0
176
     1
290
     0
176
     1
 93
        1
176
     1
 44
0.0
176
     1
173
     0
176
     1
1001
ACAD
1000
AcDbSavedByObjectVersion
1070
     0
  0
VISUALSTYLE
  5
34
102
{ACAD_XDICTIONARY
360
112
102
}
102
{ACAD_REACTORS
330
29
102
}
330
29
100
AcDbVisualStyle
  2
Dim
 70
    11
177
     2
291
     1
 71
     2
176
     1
 72
     2
176
     1
 73
     0
176
     1
 90
        0
176
     1
 40
0.6
176
     1
 41
30.0
176
     1
 63
     7
421
 16777215
176
     1
 74
     1
176
     1
 91
        4
176
     1
 64
     7
176
     1
 65
   257
176
     1
 75
     1
176
     1
175
     1
176
     1
 42
1.0
176
     1
 92
        8
176
     1
 66
     7
176
     1
 43
1.0
176
     1
 76
     1
176
     1
 77
     6
176
     1
 78
     2
176
     1
 67
     7
176
     1
 79
     5
176
     1
170
     0
176
     1
171
     0
176
     1
290
     0
176
     1
 93
        1
176
     1
 44
-50.0
176
     1
173
     0
176
     1
1001
ACAD
1000
AcDbSavedByObjectVersion
1070
     0
  0
VISUALSTYLE
  5
41
102
{ACAD_XDICTIONARY
360
12C
102
}
102
{ACAD_REACTORS
330
29
102
}
330
29
100
AcDbVisualStyle
  2
EdgeColorOff
 70
    22
177
     2
291
     1
 71
     2
176
     0
 72
     2
176
     0
 73
     0
176
     0
 90
        0
176
     0
 40
0.6
176
     0
 41
30.0
176
     0
 63
     7
421
 16777215
176
     0
 74
     1
176
     0
 91
        4
176
     0
 64
     7
176
     0
 65
   257
176
     0
 75
     1
176
     0
175
     1
176
     0
 42
1.0
176
     0
 92
        8
176
     2
 66
     7
176
     0
 43
1.0
176
     0
 76
     1
176
     0
 77
     6
176
     0
 78
     2
176
     0
 67
     7
176
     0
 79
     5
176
     0
170
     0
176
     0
171
     0
176
     0
290
     0
176
     0
 93
        1
176
     0
 44
0.0
176
     0
173
     0
176
     0
1001
ACAD
1000
AcDbSavedByObjectVersion
1070
     0
  0
VISUALSTYLE
  5
38
102
{ACAD_XDICTIONARY
360
11A
102
}
102
{ACAD_REACTORS
330
29
102
}
330
29
100
AcDbVisualStyle
  2
Facepattern
 70
    15
177
     2
291
     1
 71
     2
176
     1
 72
     2
176
     1
 73
     0
176
     1
 90
        0
176
     1
 40
0.6
176
     1
 41
30.0
176
     1
 63
     7
421
 16777215
176
     1
 74
     1
176
     1
 91
        4
176
     1
 64
     7
176
     1
 65
   257
176
     1
 75
     1
176
     1
175
     1
176
     1
 42
1.0
176
     1
 92
        8
176
     1
 66
     7
176
     1
 43
1.0
176
     1
 76
     1
176
     1
 77
     6
176
     1
 78
     2
176
     1
 67
     7
176
     1
 79
     5
176
     1
170
     0
176
     1
171
     0
176
     1
290
     0
176
     1
 93
        1
176
     1
 44
0.0
176
     1
173
     0
176
     1
1001
ACAD
1000
AcDbSavedByObjectVersion
1070
     0
  0
VISUALSTYLE
  5
2A
102
{ACAD_XDICTIONARY
360
FE
102
}
102
{ACAD_REACTORS
330
29
102
}
330
29
100
AcDbVisualStyle
  2
Flat
 70
     0
177
     2
291
     1
 71
     2
176
     1
 72
     1
176
     1
 73
     1
176
     1
 90
        2
176
     1
 40
0.6
176
     1
 41
30.0
176
     1
 63
     7
421
 16777215
176
     1
 74
     0
176
     1
 91
        0
176
     1
 64
     7
176
     1
 65
   257
176
     1
 75
     1
176
     1
175
     1
176
     1
 42
1.0
176
     1
 92
        8
176
     1
 66
     7
176
     1
 43
1.0
176
     1
 76
     1
176
     1
 77
     6
176
     1
 78
     2
176
     1
 67
     7
176
     1
 79
     5
176
     1
170
     0
176
     1
171
     0
176
     1
290
     0
176
     1
 93
       13
176
     1
 44
0.0
176
     1
173
     0
176
     1
1001
ACAD
1000
AcDbSavedByObjectVersion
1070
     0
  0
VISUALSTYLE
  5
2B
102
{ACAD_XDICTIONARY
360
100
102
}
102
{ACAD_REACTORS
330
29
102
}
330
29
100
AcDbVisualStyle
  2
FlatWithEdges
 70
     1
177
     2
291
     1
 71
     2
176
     1
 72
     1
176
     1
 73
     1
176
     1
 90
        2
176
     1
 40
0.6
176
     1
 41
30.0
176
     1
 63
     7
421
 16777215
176
     1
 74
     1
176
     1
 91
        0
176
     1
 64
     7
176
     1
 65
   257
176
     1
 75
     1
176
     1
175
     1
176
     1
 42
1.0
176
     1
 92
        0
176
     1
 66
   257
176
     1
 43
1.0
176
     1
 76
     1
176
     1
 77
     6
176
     1
 78
     2
176
     1
 67
     7
176
     1
 79
     5
176
     1
170
     0
176
     1
171
     0
176
     1
290
     0
176
     1
 93
       13
176
     1
 44
0.0
176
     1
173
     0
176
     1
1001
ACAD
1000
AcDbSavedByObjectVersion
1070
     0
  0
VISUALSTYLE
  5
2C
102
{ACAD_XDICTIONARY
360
102
102
}
102
{ACAD_REACTORS
330
29
102
}
330
29
100
AcDbVisualStyle
  2
Gouraud
 70
     2
177
     2
291
     1
 71
     2
176
     1
 72
     2
176
     1
 73
     1
176
     1
 90
        2
176
     1
 40
0.6
176
     1
 41
30.0
176
     1
 63
     7
421
 16777215
176
     1
 74
     0
176
     1
 91
        0
176
     1
 64
     7
176
     1
 65
   257
176
     1
 75
     1
176
     1
175
     1
176
     1
 42
1.0
176
     1
 92
        0
176
     1
 66
     7
176
     1
 43
1.0
176
     1
 76
     1
176
     1
 77
     6
176
     1
 78
     2
176
     1
 67
     7
176
     1
 79
     5
176
     1
170
     0
176
     1
171
     0
176
     1
290
     0
176
     1
 93
       13
176
     1
 44
0.0
176
     1
173
     0
176
     1
1001
ACAD
1000
AcDbSavedByObjectVersion
1070
     0
  0
VISUALSTYLE
  5
2D
102
{ACAD_XDICTIONARY
360
104
102
}
102
{ACAD_REACTORS
330
29
102
}
330
29
100
AcDbVisualStyle
  2
GouraudWithEdges
 70
     3
177
     2
291
     1
 71
     2
176
     1
 72
     2
176
     1
 73
     1
176
     1
 90
        2
176
     1
 40
0.6
176
     1
 41
30.0
176
     1
 63
     7
421
 16777215
176
     1
 74
     1
176
     1
 91
        0
176
     1
 64
     7
176
     1
 65
   257
176
     1
 75
     1
176
     1
175
     1
176
     1
 42
1.0
176
     1
 92
        0
176
     1
 66
   257
176
     1
 43
1.0
176
     1
 76
     1
176
     1
 77
     6
176
     1
 78
     2
176
     1
 67
     7
176
     1
 79
     5
176
     1
170
     0
176
     1
171
     0
176
     1
290
     0
176
     1
 93
       13
176
     1
 44
0.0
176
     1
173
     0
176
     1
1001
ACAD
1000
AcDbSavedByObjectVersion
1070
     0
  0
VISUALSTYLE
  5
31
102
{ACAD_XDICTIONARY
360
10C
102
}
102
{ACAD_REACTORS
330
29
102
}
330
29
100
AcDbVisualStyle
  2
Hidden
 70
     6
177
     2
291
     0
 71
     1
176
     1
 72
     2
176
     1
 73
     2
176
     1
 90
        0
176
     1
 40
0.6
176
     1
 41
30.0
176
     1
 63
     7
421
 16777215
176
     1
 74
     2
176
     1
 91
        2
176
     1
 64
     7
176
     1
 65
   257
176
     1
 75
     2
176
     1
175
     1
176
     1
 42
40.0
176
     1
 92
        0
176
     1
 66
   257
176
     1
 43
1.0
176
     1
 76
     1
176
     1
 77
     6
176
     1
 78
     2
176
     1
 67
     7
176
     1
 79
     3
176
     1
170
     0
176
     1
171
     0
176
     1
290
     0
176
     1
 93
        1
176
     1
 44
0.0
176
     1
173
     0
176
     1
1001
ACAD
1000
AcDbSavedByObjectVersion
1070
     0
  0
VISUALSTYLE
  5
3F
102
{ACAD_XDICTIONARY
360
128
102
}
102
{ACAD_REACTORS
330
29
102
}
330
29
100
AcDbVisualStyle
  2
JitterOff
 70
    20
177
     2
291
     1
 71
     2
176
     0
 72
     2
176
     0
 73
     0
176
     0
 90
        0
176
     0
 40
0.6
176
     0
 41
30.0
176
     0
 63
     7
421
 16777215
176
     0
 74
     1
176
     0
 91
        4
176
     0
 64
     7
176
     0
 65
   257
176
     0
 75
     1
176
     0
175
     1
176
     0
 42
1.0
176
     0
 92
       10
176
     2
 66
     7
176
     0
 43
1.0
176
     0
 76
     1
176
     0
 77
     6
176
     0
 78
     2
176
     0
 67
     7
176
     0
 79
     5
176
     0
170
     0
176
     0
171
     0
176
     0
290
     0
176
     0
 93
        1
176
     0
 44
0.0
176
     0
173
     0
176
     0
1001
ACAD
1000
AcDbSavedByObjectVersion
1070
     0
  0
VISUALSTYLE
  5
37
102
{ACAD_XDICTIONARY
360
118
102
}
102
{ACAD_REACTORS
330
29
102
}
330
29
100
AcDbVisualStyle
  2
Linepattern
 70
    14
177
     2
291
     1
 71
     2
176
     1
 72
     2
176
     1
 73
     0
176
     1
 90
        0
176
     1
 40
0.6
176
     1
 41
30.0
176
     1
 63
     7
421
 16777215
176
     1
 74
     1
176
     1
 91
        4
176
     1
 64
     7
176
     1
 65
   257
176
     1
 75
     7
176
     1
175
     7
176
     1
 42
1.0
176
     1
 92
        8
176
     1
 66
     7
176
     1
 43
1.0
176
     1
 76
     1
176
     1
 77
     6
176
     1
 78
     2
176
     1
 67
     7
176
     1
 79
     5
176
     1
170
     0
176
     1
171
     0
176
     1
290
     0
176
     1
 93
        1
176
     1
 44
0.0
176
     1
173
     0
176
     1
1001
ACAD
1000
AcDbSavedByObjectVersion
1070
     0
  0
VISUALSTYLE
  5
40
102
{ACAD_XDICTIONARY
360
12A
102
}
102
{ACAD_REACTORS
330
29
102
}
330
29
100
AcDbVisualStyle
  2
OverhangOff
 70
    21
177
     2
291
     1
 71
     2
176
     0
 72
     2
176
     0
 73
     0
176
     0
 90
        0
176
     0
 40
0.6
176
     0
 41
30.0
176
     0
 63
     7
421
 16777215
176
     0
 74
     1
176
     0
 91
        4
176
     0
 64
     7
176
     0
 65
   257
176
     0
 75
     1
176
     0
175
     1
176
     0
 42
1.0
176
     0
 92
        9
176
     2
 66
     7
176
     0
 43
1.0
176
     0
 76
     1
176
     0
 77
     6
176
     0
 78
     2
176
     0
 67
     7
176
     0
 79
     5
176
     0
170
     0
176
     0
171
     0
176
     0
290
     0
176
     0
 93
        1
176
     0
 44
0.0
176
     0
173
     0
176
     0
1001
ACAD
1000
AcDbSavedByObjectVersion
1070
     0
  0
VISUALSTYLE
  5
33
102
{ACAD_XDICTIONARY
360
110
102
}
102
{ACAD_REACTORS
330
29
102
}
330
29
100
AcDbVisualStyle
  2
Realistic
 70
     8
177
     2
291
     0
 71
     2
176
     1
 72
     3
176
     1
 73
     0
176
     1
 90
        2
176
     1
 40
0.6
176
     1
 41
30.0
176
     1
 63
     7
421
 16777215
176
     1
 74
     0
176
     1
 91
        0
176
     1
 64
     7
176
     1
 65
   257
176
     1
 75
     1
176
     1
175
     1
176
     1
 42
1.0
176
     1
 92
        8
176
     1
 66
   257
176
     1
 43
1.0
176
     1
 76
     1
176
     1
 77
     6
176
     1
 78
     2
176
     1
 67
     7
176
     1
 79
     3
176
     1
170
     0
176
     1
171
     0
176
     1
290
     0
176
     1
 93
       13
176
     1
 44
0.0
176
     1
173
     0
176
     1
1001
ACAD
1000
AcDbSavedByObjectVersion
1070
     0
  0
VISUALSTYLE
  5
3E
102
{ACAD_XDICTIONARY
360
126
102
}
102
{ACAD_REACTORS
330
29
102
}
330
29
100
AcDbVisualStyle
  2
Shaded
 70
    27
177
     2
291
     0
 71
     2
176
     1
 72
     2
176
     1
 73
     1
176
     1
 90
        2
176
     1
 40
0.6
176
     1
 41
30.0
176
     1
 63
     7
421
 16777215
176
     1
 74
     0
176
     1
 91
        4
176
     1
 64
     7
176
     1
 65
   257
176
     1
 75
     1
176
     1
175
     1
176
     1
 42
1.0
176
     1
 92
        8
176
     1
 66
   257
176
     1
 43
1.0
176
     1
 76
     1
176
     1
 77
     6
176
     1
 78
     2
176
     1
 67
     8
425
  7895160
176
     1
 79
     3
176
     1
170
     0
176
     1
171
     0
176
     1
290
     0
176
     1
 93
        5
176
     1
 44
0.0
176
     1
173
     0
176
     1
1001
ACAD
1000
AcDbSavedByObjectVersion
1070
     0
  0
VISUALSTYLE
  5
3D
102
{ACAD_XDICTIONARY
360
124
102
}
102
{ACAD_REACTORS
330
29
102
}
330
29
100
AcDbVisualStyle
  2
Shaded with edges
 70
    26
177
     2
291
     0
 71
     2
176
     1
 72
     2
176
     1
 73
     1
176
     1
 90
        2
176
     1
 40
0.6
176
     1
 41
30.0
176
     1
 63
     7
421
 16777215
176
     1
 74
     1
176
     1
 91
        2
176
     1
 64
     7
176
     1
 65
   257
176
     1
 75
     2
176
     1
175
     1
176
     1
 42
1.0
176
     1
 92
        8
176
     1
 66
   257
176
     1
 43
1.0
176
     1
 76
     1
176
     1
 77
     6
176
     1
 78
     2
176
     1
 67
     7
176
     1
 79
     3
176
     1
170
     0
176
     1
171
     0
176
     1
290
     0
176
     1
 93
        5
176
     1
 44
0.0
176
     1
173
     0
176
     1
1001
ACAD
1000
AcDbSavedByObjectVersion
1070
     0
  0
VISUALSTYLE
  5
3A
102
{ACAD_XDICTIONARY
360
11E
102
}
102
{ACAD_REACTORS
330
29
102
}
330
29
100
AcDbVisualStyle
  2
Shades of Gray
 70
    23
177
     2
291
     0
 71
     2
176
     1
 72
     2
176
     1
 73
     3
176
     1
 90
        0
176
     1
 40
0.6
176
     1
 41
30.0
176
     1
 63
     7
421
 16777215
176
     1
 74
     2
176
     1
 91
        2
176
     1
 64
     7
176
     1
 65
     7
176
     1
 75
     1
176
     1
175
     1
176
     1
 42
40.0
176
     1
 92
        8
176
     1
 66
     7
176
     1
 43
1.0
176
     1
 76
     1
176
     1
 77
     6
176
     1
 78
     2
176
     1
 67
     7
176
     1
 79
     3
176
     1
170
     0
176
     1
171
     0
176
     1
290
     0
176
     1
 93
        1
176
     1
 44
0.0
176
     1
173
     0
176
     1
1001
ACAD
1000
AcDbSavedByObjectVersion
1070
     0
  0
VISUALSTYLE
  5
3B
102
{ACAD_XDICTIONARY
360
120
102
}
102
{ACAD_REACTORS
330
29
102
}
330
29
100
AcDbVisualStyle
  2
Sketchy
 70
    24
177
     2
291
     0
 71
     1
176
     1
 72
     2
176
     1
 73
     2
176
     1
 90
        0
176
     1
 40
0.6
176
     1
 41
30.0
176
     1
 63
     7
421
 16777215
176
     1
 74
     2
176
     1
 91
        2
176
     1
 64
     7
176
     1
 65
     7
176
     1
 75
     1
176
     1
175
     1
176
     1
 42
40.0
176
     1
 92
       11
176
     1
 66
     7
176
     1
 43
1.0
176
     1
 76
     1
176
     1
 77
     6
176
     1
 78
     2
176
     1
 67
     7
176
     1
 79
     6
176
     1
170
     0
176
     1
171
     0
176
     1
290
     0
176
     1
 93
        1
176
     1
 44
0.0
176
     1
173
     0
176
     1
1001
ACAD
1000
AcDbSavedByObjectVersion
1070
     0
  0
VISUALSTYLE
  5
36
102
{ACAD_XDICTIONARY
360
116
102
}
102
{ACAD_REACTORS
330
29
102
}
330
29
100
AcDbVisualStyle
  2
Thicken
 70
    13
177
     2
291
     1
 71
     2
176
     1
 72
     2
176
     1
 73
     0
176
     1
 90
        0
176
     1
 40
0.6
176
     1
 41
30.0
176
     1
 63
     7
421
 16777215
176
     1
 74
     1
176
     1
 91
        4
176
     1
 64
     7
176
     1
 65
   257
176
     1
 75
     1
176
     1
175
     1
176
     1
 42
1.0
176
     1
 92
       12
176
     1
 66
     7
176
     1
 43
1.0
176
     1
 76
     1
176
     1
 77
     6
176
     1
 78
     2
176
     1
 67
     7
176
     1
 79
     5
176
     1
170
     0
176
     1
171
     0
176
     1
290
     0
176
     1
 93
        1
176
     1
 44
0.0
176
     1
173
     0
176
     1
1001
ACAD
1000
AcDbSavedByObjectVersion
1070
     0
  0
VISUALSTYLE
  5
30
102
{ACAD_XDICTIONARY
360
10A
102
}
102
{ACAD_REACTORS
330
29
102
}
330
29
100
AcDbVisualStyle
  2
Wireframe
 70
     5
177
     2
291
     0
 71
     0
176
     1
 72
     2
176
     1
 73
     0
176
     1
 90
        0
176
     1
 40
0.6
176
     1
 41
30.0
176
     1
 63
     7
421
 16777215
176
     1
 74
     1
176
     1
 91
        4
176
     1
 64
     7
176
     1
 65
   257
176
     1
 75
     1
176
     1
175
     1
176
     1
 42
1.0
176
     1
 92
        0
176
     1
 66
   257
176
     1
 43
1.0
176
     1
 76
     1
176
     1
 77
     6
176
     1
 78
     2
176
     1
 67
     7
176
     1
 79
     3
176
     1
170
     0
176
     1
171
     0
176
     1
290
     0
176
     1
 93
        1
176
     1
 44
0.0
176
     1
173
     0
176
     1
1001
ACAD
1000
AcDbSavedByObjectVersion
1070
     0
  0
VISUALSTYLE
  5
3C
102
{ACAD_XDICTIONARY
360
122
102
}
102
{ACAD_REACTORS
330
29
102
}
330
29
100
AcDbVisualStyle
  2
X-Ray
 70
    25
177
     2
291
     0
 71
     2
176
     1
 72
     2
176
     1
 73
     1
176
     1
 90
        1
176
     1
 40
0.5
176
     1
 41
30.0
176
     1
 63
     7
421
 16777215
176
     1
 74
     1
176
     1
 91
        0
176
     1
 64
     7
176
     1
 65
   257
176
     1
 75
     1
176
     1
175
     1
176
     1
 42
1.0
176
     1
 92
        8
176
     1
 66
     7
176
     1
 43
1.0
176
     1
 76
     1
176
     1
 77
     6
176
     1
 78
     2
176
     1
 67
     7
176
     1
 79
     3
176
     1
170
     0
176
     1
171
     0
176
     1
290
     0
176
     1
 93
       13
176
     1
 44
0.0
176
     1
173
     0
176
     1
1001
ACAD
1000
AcDbSavedByObjectVersion
1070
     0
  0
DICTIONARYVAR
  5
F9
102
{ACAD_REACTORS
330
F4
102
}
330
F4
100
DictionaryVariables
280
     0
  1
1:1
  0
DICTIONARYVAR
  5
F6
102
{ACAD_REACTORS
330
F4
102
}
330
F4
100
DictionaryVariables
280
     0
  1
STANDARD
  0
DICTIONARYVAR
  5
F5
102
{ACAD_REACTORS
330
F4
102
}
330
F4
100
DictionaryVariables
280
     0
  1
STANDARD
  0
DICTIONARYVAR
  5
F7
102
{ACAD_REACTORS
330
F4
102
}
330
F4
100
DictionaryVariables
280
     0
  1
Imperial24
  0
DICTIONARYVAR
  5
F8
102
{ACAD_REACTORS
330
F4
102
}
330
F4
100
DictionaryVariables
280
     0
  1
Imperial24
  0
DICTIONARY
  5
132
330
6B
100
AcDbDictionary
280
     1
281
     1
  3
ACAD_XREC_ROUNDTRIP
360
133
  0
DICTIONARY
  5
1A
330
19
100
AcDbDictionary
280
     1
281
     1
  3
BUMPTILE
360
1C
  3
DIFFUSETILE
360
1B
  3
OPACITYTILE
360
1F
  3
REFLECTIONTILE
360
1E
  3
REFRACTIONTILE
360
20
  3
SPECULARTILE
360
1D
  0
DICTIONARY
  5
12
330
11
100
AcDbDictionary
280
     1
281
     1
  3
BUMPTILE
360
14
  3
DIFFUSETILE
360
13
  3
OPACITYTILE
360
17
  3
REFLECTIONTILE
360
16
  3
REFRACTIONTILE
360
18
  3
SPECULARTILE
360
15
  0
DICTIONARY
  5
22
330
21
100
AcDbDictionary
280
     1
281
     1
  3
BUMPTILE
360
24
  3
DIFFUSETILE
360
23
  3
OPACITYTILE
360
27
  3
REFLECTIONTILE
360
26
  3
REFRACTIONTILE
360
28
  3
SPECULARTILE
360
25
  0
DICTIONARY
  5
12E
330
67
100
AcDbDictionary
280
     1
281
     1
  3
ACAD_XREC_ROUNDTRIP
360
12F
  0
DICTIONARY
  5
130
330
69
100
AcDbDictionary
280
     1
281
     1
  3
ACAD_XREC_ROUNDTRIP
360
131
  0
DICTIONARY
  5
FA
330
65
100
AcDbDictionary
280
     1
281
     1
  3
ACAD_ROUNDTRIP_2008_TABLESTYLE_CELLSTYLEMAP
360
FB
  0
DICTIONARY
  5
108
330
2F
100
AcDbDictionary
280
     1
281
     1
  3
ACAD_XREC_ROUNDTRIP
360
109
  0
DICTIONARY
  5
106
330
2E
100
AcDbDictionary
280
     1
281
     1
  3
ACAD_XREC_ROUNDTRIP
360
107
  0
DICTIONARY
  5
114
330
35
100
AcDbDictionary
280
     1
281
     1
  3
ACAD_XREC_ROUNDTRIP
360
115
  0
DICTIONARY
  5
11C
330
39
100
AcDbDictionary
280
     1
281
     1
  3
ACAD_XREC_ROUNDTRIP
360
11D
  0
DICTIONARY
  5
10E
330
32
100
AcDbDictionary
280
     1
281
     1
  3
ACAD_XREC_ROUNDTRIP
360
10F
  0
DICTIONARY
  5
112
330
34
100
AcDbDictionary
280
     1
281
     1
  3
ACAD_XREC_ROUNDTRIP
360
113
  0
DICTIONARY
  5
12C
330
41
100
AcDbDictionary
280
     1
281
     1
  3
ACAD_XREC_ROUNDTRIP
360
12D
  0
DICTIONARY
  5
11A
330
38
100
AcDbDictionary
280
     1
281
     1
  3
ACAD_XREC_ROUNDTRIP
360
11B
  0
DICTIONARY
  5
FE
330
2A
100
AcDbDictionary
280
     1
281
     1
  3
ACAD_XREC_ROUNDTRIP
360
FF
  0
DICTIONARY
  5
100
330
2B
100
AcDbDictionary
280
     1
281
     1
  3
ACAD_XREC_ROUNDTRIP
360
101
  0
DICTIONARY
  5
102
330
2C
100
AcDbDictionary
280
     1
281
     1
  3
ACAD_XREC_ROUNDTRIP
360
103
  0
DICTIONARY
  5
104
330
2D
100
AcDbDictionary
280
     1
281
     1
  3
ACAD_XREC_ROUNDTRIP
360
105
  0
DICTIONARY
  5
10C
330
31
100
AcDbDictionary
280
     1
281
     1
  3
ACAD_XREC_ROUNDTRIP
360
10D
  0
DICTIONARY
  5
128
330
3F
100
AcDbDictionary
280
     1
281
     1
  3
ACAD_XREC_ROUNDTRIP
360
129
  0
DICTIONARY
  5
118
330
37
100
AcDbDictionary
280
     1
281
     1
  3
ACAD_XREC_ROUNDTRIP
360
119
  0
DICTIONARY
  5
12A
330
40
100
AcDbDictionary
280
     1
281
     1
  3
ACAD_XREC_ROUNDTRIP
360
12B
  0
DICTIONARY
  5
110
330
33
100
AcDbDictionary
280
     1
281
     1
  3
ACAD_XREC_ROUNDTRIP
360
111
  0
DICTIONARY
  5
126
330
3E
100
AcDbDictionary
280
     1
281
     1
  3
ACAD_XREC_ROUNDTRIP
360
127
  0
DICTIONARY
  5
124
330
3D
100
AcDbDictionary
280
     1
281
     1
  3
ACAD_XREC_ROUNDTRIP
360
125
  0
DICTIONARY
  5
11E
330
3A
100
AcDbDictionary
280
     1
281
     1
  3
ACAD_XREC_ROUNDTRIP
360
11F
  0
DICTIONARY
  5
120
330
3B
100
AcDbDictionary
280
     1
281
     1
  3
ACAD_XREC_ROUNDTRIP
360
121
  0
DICTIONARY
  5
116
330
36
100
AcDbDictionary
280
     1
281
     1
  3
ACAD_XREC_ROUNDTRIP
360
117
  0
DICTIONARY
  5
10A
330
30
100
AcDbDictionary
280
     1
281
     1
  3
ACAD_XREC_ROUNDTRIP
360
10B
  0
DICTIONARY
  5
122
330
3C
100
AcDbDictionary
280
     1
281
     1
  3
ACAD_XREC_ROUNDTRIP
360
123
  0
XRECORD
  5
133
102
{ACAD_REACTORS
330
132
102
}
330
132
100
AcDbXrecord
280
     1
102
DISPLAYNAME
  1
Imperial24
102
FLAGS
 90
        0
  0
XRECORD
  5
1C
102
{ACAD_REACTORS
330
1A
102
}
330
1A
100
AcDbXrecord
280
     1
270
     1
271
     1
  0
XRECORD
  5
1B
102
{ACAD_REACTORS
330
1A
102
}
330
1A
100
AcDbXrecord
280
     1
270
     1
271
     1
  0
XRECORD
  5
1F
102
{ACAD_REACTORS
330
1A
102
}
330
1A
100
AcDbXrecord
280
     1
270
     1
271
     1
  0
XRECORD
  5
1E
102
{ACAD_REACTORS
330
1A
102
}
330
1A
100
AcDbXrecord
280
     1
270
     1
271
     1
  0
XRECORD
  5
20
102
{ACAD_REACTORS
330
1A
102
}
330
1A
100
AcDbXrecord
280
     1
270
     1
271
     1
  0
XRECORD
  5
1D
102
{ACAD_REACTORS
330
1A
102
}
330
1A
100
AcDbXrecord
280
     1
270
     1
271
     1
  0
XRECORD
  5
14
102
{ACAD_REACTORS
330
12
102
}
330
12
100
AcDbXrecord
280
     1
270
     1
271
     1
  0
XRECORD
  5
13
102
{ACAD_REACTORS
330
12
102
}
330
12
100
AcDbXrecord
280
     1
270
     1
271
     1
  0
XRECORD
  5
17
102
{ACAD_REACTORS
330
12
102
}
330
12
100
AcDbXrecord
280
     1
270
     1
271
     1
  0
XRECORD
  5
16
102
{ACAD_REACTORS
330
12
102
}
330
12
100
AcDbXrecord
280
     1
270
     1
271
     1
  0
XRECORD
  5
18
102
{ACAD_REACTORS
330
12
102
}
330
12
100
AcDbXrecord
280
     1
270
     1
271
     1
  0
XRECORD
  5
15
102
{ACAD_REACTORS
330
12
102
}
330
12
100
AcDbXrecord
280
     1
270
     1
271
     1
  0
XRECORD
  5
24
102
{ACAD_REACTORS
330
22
102
}
330
22
100
AcDbXrecord
280
     1
270
     1
271
     1
  0
XRECORD
  5
23
102
{ACAD_REACTORS
330
22
102
}
330
22
100
AcDbXrecord
280
     1
270
     1
271
     1
  0
XRECORD
  5
27
102
{ACAD_REACTORS
330
22
102
}
330
22
100
AcDbXrecord
280
     1
270
     1
271
     1
  0
XRECORD
  5
26
102
{ACAD_REACTORS
330
22
102
}
330
22
100
AcDbXrecord
280
     1
270
     1
271
     1
  0
XRECORD
  5
28
102
{ACAD_REACTORS
330
22
102
}
330
22
100
AcDbXrecord
280
     1
270
     1
271
     1
  0
XRECORD
  5
25
102
{ACAD_REACTORS
330
22
102
}
330
22
100
AcDbXrecord
280
     1
270
     1
271
     1
  0
XRECORD
  5
12F
102
{ACAD_REACTORS
330
12E
102
}
330
12E
100
AcDbXrecord
280
     1
102
ACAD_ROUNDTRIP_2012_MLEADER_STYLE
298
     1
  0
XRECORD
  5
131
102
{ACAD_REACTORS
330
130
102
}
330
130
100
AcDbXrecord
280
     1
102
DISPLAYNAME
  1
Imperial24
102
FLAGS
 90
        0
  0
CELLSTYLEMAP
  5
FB
102
{ACAD_REACTORS
330
FA
102
}
330
FA
100
AcDbCellStyleMap
 90
        3
300
CELLSTYLE
  1
TABLEFORMAT_BEGIN
 90
        5
170
     1
 91
        0
 92
    32768
 62
   257
 93
        1
300
CONTENTFORMAT
  1
CONTENTFORMAT_BEGIN
 90
        0
 91
        0
 92
      512
 93
        0
300

 40
0.0
140
1.0
 94
        5
 62
     0
340
55
144
0.25
309
CONTENTFORMAT_END
171
     0
 94
        0
309
TABLEFORMAT_END
  1
CELLSTYLE_BEGIN
 90
        1
 91
        1
300
_TITLE
309
CELLSTYLE_END
300
CELLSTYLE
  1
TABLEFORMAT_BEGIN
 90
        5
170
     1
 91
        0
 92
        0
 62
   257
 93
        1
300
CONTENTFORMAT
  1
CONTENTFORMAT_BEGIN
 90
        0
 91
        0
 92
      512
 93
        0
300

 40
0.0
140
1.0
 94
        5
 62
     0
340
55
144
0.18
309
CONTENTFORMAT_END
171
     0
 94
        0
309
TABLEFORMAT_END
  1
CELLSTYLE_BEGIN
 90
        2
 91
        1
300
_HEADER
309
CELLSTYLE_END
300
CELLSTYLE
  1
TABLEFORMAT_BEGIN
 90
        5
170
     1
 91
        0
 92
        0
 62
   257
 93
        1
300
CONTENTFORMAT
  1
CONTENTFORMAT_BEGIN
 90
        0
 91
        0
 92
      512
 93
        0
300

 40
0.0
140
1.0
 94
        2
 62
     0
340
55
144
0.18
309
CONTENTFORMAT_END
171
     0
 94
        0
309
TABLEFORMAT_END
  1
CELLSTYLE_BEGIN
 90
        3
 91
        2
300
_DATA
309
CELLSTYLE_END
  0
XRECORD
  5
109
102
{ACAD_REACTORS
330
108
102
}
330
108
100
AcDbXrecord
280
     1
102
RTVSPost2010Prop28
280
     1
102
RTVSPost2010PropOp28
 70
     1
102
RTVSPost2010Prop29
280
     1
102
RTVSPost2010PropOp29
 70
     1
102
RTVSPost2010Prop30
280
     0
102
RTVSPost2010PropOp30
 70
     1
102
RTVSPost2010Prop31
280
     0
102
RTVSPost2010PropOp31
 70
     1
102
RTVSPost2010Prop32
280
     0
102
RTVSPost2010PropOp32
 70
     1
102
RTVSPost2010Prop33
280
     0
102
RTVSPost2010PropOp33
 70
     1
102
RTVSPost2010Prop34
280
     0
102
RTVSPost2010PropOp34
 70
     1
102
RTVSPost2010Prop35
280
     0
102
RTVSPost2010PropOp35
 70
     1
102
RTVSPost2010Prop36
280
     0
102
RTVSPost2010PropOp36
 70
     1
102
RTVSPost2010Prop37
 90
       50
102
RTVSPost2010PropOp37
 70
     1
102
RTVSPost2010Prop38
140
0.0
102
RTVSPost2010PropOp38
 70
     1
102
RTVSPost2010Prop39
140
1.0
102
RTVSPost2010PropOp39
 70
     1
102
RTVSPost2010Prop40
 90
        0
102
RTVSPost2010PropOp40
 70
     1
102
RTVSPost2010Prop41ColorIndex
 90
       18
102
RTVSPost2010Prop41ColorRGB
 90
        0
102
RTVSPost2010PropOp41
 70
     1
102
RTVSPost2010Prop42
 90
       50
102
RTVSPost2010PropOp42
 70
     1
102
RTVSPost2010Prop43
 90
        3
102
RTVSPost2010PropOp43
 70
     1
102
RTVSPost2010Prop44ColorIndex
 90
        5
102
RTVSPost2010Prop44ColorRGB
 90
      255
102
RTVSPost2010PropOp44
 70
     1
102
RTVSPost2010Prop45
280
     0
102
RTVSPost2010PropOp45
 70
     1
102
RTVSPost2010Prop46
 90
       50
102
RTVSPost2010PropOp46
 70
     1
102
RTVSPost2010Prop47
 90
       50
102
RTVSPost2010PropOp47
 70
     1
102
RTVSPost2010Prop48
 90
       50
102
RTVSPost2010PropOp48
 70
     1
102
RTVSPost2010Prop49
280
     0
102
RTVSPost2010PropOp49
 70
     1
102
RTVSPost2010Prop50
 90
       50
102
RTVSPost2010PropOp50
 70
     1
102
RTVSPost2010Prop51ColorIndex
 90
      256
102
RTVSPost2010Prop51ColorRGB
 90
-16777216
102
RTVSPost2010PropOp51
 70
     0
102
RTVSPost2010Prop52
140
1.0
102
RTVSPost2010PropOp52
 70
     0
102
RTVSPost2010Prop53
 90
        2
102
RTVSPost2010PropOp53
 70
     1
102
RTVSPost2010Prop54
  1
strokes_ogs.tif
102
RTVSPost2010PropOp54
 70
     1
102
RTVSPost2010Prop55
280
     0
102
RTVSPost2010PropOp55
 70
     1
102
RTVSPost2010Prop56
140
1.0
102
RTVSPost2010PropOp56
 70
     1
102
RTVSPost2010Prop57
140
1.0
102
RTVSPost2010PropOp57
 70
     1
  0
XRECORD
  5
107
102
{ACAD_REACTORS
330
106
102
}
330
106
100
AcDbXrecord
280
     1
102
RTVSPost2010Prop28
280
     0
102
RTVSPost2010PropOp28
 70
     1
102
RTVSPost2010Prop29
280
     1
102
RTVSPost2010PropOp29
 70
     1
102
RTVSPost2010Prop30
280
     1
102
RTVSPost2010PropOp30
 70
     1
102
RTVSPost2010Prop31
280
     0
102
RTVSPost2010PropOp31
 70
     1
102
RTVSPost2010Prop32
280
     0
102
RTVSPost2010PropOp32
 70
     1
102
RTVSPost2010Prop33
280
     0
102
RTVSPost2010PropOp33
 70
     1
102
RTVSPost2010Prop34
280
     0
102
RTVSPost2010PropOp34
 70
     1
102
RTVSPost2010Prop35
280
     0
102
RTVSPost2010PropOp35
 70
     1
102
RTVSPost2010Prop36
280
     0
102
RTVSPost2010PropOp36
 70
     1
102
RTVSPost2010Prop37
 90
       50
102
RTVSPost2010PropOp37
 70
     1
102
RTVSPost2010Prop38
140
0.0
102
RTVSPost2010PropOp38
 70
     1
102
RTVSPost2010Prop39
140
1.0
102
RTVSPost2010PropOp39
 70
     1
102
RTVSPost2010Prop40
 90
        0
102
RTVSPost2010PropOp40
 70
     1
102
RTVSPost2010Prop41ColorIndex
 90
       18
102
RTVSPost2010Prop41ColorRGB
 90
        0
102
RTVSPost2010PropOp41
 70
     1
102
RTVSPost2010Prop42
 90
       50
102
RTVSPost2010PropOp42
 70
     1
102
RTVSPost2010Prop43
 90
        3
102
RTVSPost2010PropOp43
 70
     1
102
RTVSPost2010Prop44ColorIndex
 90
        5
102
RTVSPost2010Prop44ColorRGB
 90
      255
102
RTVSPost2010PropOp44
 70
     1
102
RTVSPost2010Prop45
280
     0
102
RTVSPost2010PropOp45
 70
     1
102
RTVSPost2010Prop46
 90
       50
102
RTVSPost2010PropOp46
 70
     1
102
RTVSPost2010Prop47
 90
       50
102
RTVSPost2010PropOp47
 70
     1
102
RTVSPost2010Prop48
 90
       50
102
RTVSPost2010PropOp48
 70
     1
102
RTVSPost2010Prop49
280
     0
102
RTVSPost2010PropOp49
 70
     1
102
RTVSPost2010Prop50
 90
       50
102
RTVSPost2010PropOp50
 70
     1
102
RTVSPost2010Prop51ColorIndex
 90
      256
102
RTVSPost2010Prop51ColorRGB
 90
-16777216
102
RTVSPost2010PropOp51
 70
     0
102
RTVSPost2010Prop52
140
1.0
102
RTVSPost2010PropOp52
 70
     0
102
RTVSPost2010Prop53
 90
        2
102
RTVSPost2010PropOp53
 70
     1
102
RTVSPost2010Prop54
  1
strokes_ogs.tif
102
RTVSPost2010PropOp54
 70
     1
102
RTVSPost2010Prop55
280
     0
102
RTVSPost2010PropOp55
 70
     1
102
RTVSPost2010Prop56
140
1.0
102
RTVSPost2010PropOp56
 70
     1
102
RTVSPost2010Prop57
140
1.0
102
RTVSPost2010PropOp57
 70
     1
  0
XRECORD
  5
115
102
{ACAD_REACTORS
330
114
102
}
330
114
100
AcDbXrecord
280
     1
102
RTVSPost2010Prop28
280
     0
102
RTVSPost2010PropOp28
 70
     1
102
RTVSPost2010Prop29
280
     1
102
RTVSPost2010PropOp29
 70
     1
102
RTVSPost2010Prop30
280
     1
102
RTVSPost2010PropOp30
 70
     1
102
RTVSPost2010Prop31
280
     0
102
RTVSPost2010PropOp31
 70
     1
102
RTVSPost2010Prop32
280
     0
102
RTVSPost2010PropOp32
 70
     1
102
RTVSPost2010Prop33
280
     0
102
RTVSPost2010PropOp33
 70
     1
102
RTVSPost2010Prop34
280
     0
102
RTVSPost2010PropOp34
 70
     1
102
RTVSPost2010Prop35
280
     0
102
RTVSPost2010PropOp35
 70
     1
102
RTVSPost2010Prop36
280
     0
102
RTVSPost2010PropOp36
 70
     1
102
RTVSPost2010Prop37
 90
       50
102
RTVSPost2010PropOp37
 70
     1
102
RTVSPost2010Prop38
140
0.0
102
RTVSPost2010PropOp38
 70
     1
102
RTVSPost2010Prop39
140
1.0
102
RTVSPost2010PropOp39
 70
     1
102
RTVSPost2010Prop40
 90
        0
102
RTVSPost2010PropOp40
 70
     1
102
RTVSPost2010Prop41ColorIndex
 90
       18
102
RTVSPost2010Prop41ColorRGB
 90
        0
102
RTVSPost2010PropOp41
 70
     1
102
RTVSPost2010Prop42
 90
       50
102
RTVSPost2010PropOp42
 70
     1
102
RTVSPost2010Prop43
 90
        3
102
RTVSPost2010PropOp43
 70
     1
102
RTVSPost2010Prop44ColorIndex
 90
        5
102
RTVSPost2010Prop44ColorRGB
 90
      255
102
RTVSPost2010PropOp44
 70
     1
102
RTVSPost2010Prop45
280
     0
102
RTVSPost2010PropOp45
 70
     1
102
RTVSPost2010Prop46
 90
       50
102
RTVSPost2010PropOp46
 70
     1
102
RTVSPost2010Prop47
 90
       50
102
RTVSPost2010PropOp47
 70
     1
102
RTVSPost2010Prop48
 90
       50
102
RTVSPost2010PropOp48
 70
     1
102
RTVSPost2010Prop49
280
     0
102
RTVSPost2010PropOp49
 70
     1
102
RTVSPost2010Prop50
 90
       50
102
RTVSPost2010PropOp50
 70
     1
102
RTVSPost2010Prop51ColorIndex
 90
      256
102
RTVSPost2010Prop51ColorRGB
 90
-16777216
102
RTVSPost2010PropOp51
 70
     0
102
RTVSPost2010Prop52
140
1.0
102
RTVSPost2010PropOp52
 70
     0
102
RTVSPost2010Prop53
 90
        2
102
RTVSPost2010PropOp53
 70
     1
102
RTVSPost2010Prop54
  1
strokes_ogs.tif
102
RTVSPost2010PropOp54
 70
     1
102
RTVSPost2010Prop55
280
     0
102
RTVSPost2010PropOp55
 70
     1
102
RTVSPost2010Prop56
140
1.0
102
RTVSPost2010PropOp56
 70
     1
102
RTVSPost2010Prop57
140
1.0
102
RTVSPost2010PropOp57
 70
     1
  0
XRECORD
  5
11D
102
{ACAD_REACTORS
330
11C
102
}
330
11C
100
AcDbXrecord
280
     1
102
RTVSPost2010Prop28
280
     0
102
RTVSPost2010PropOp28
 70
     1
102
RTVSPost2010Prop29
280
     1
102
RTVSPost2010PropOp29
 70
     1
102
RTVSPost2010Prop30
280
     1
102
RTVSPost2010PropOp30
 70
     1
102
RTVSPost2010Prop31
280
     0
102
RTVSPost2010PropOp31
 70
     1
102
RTVSPost2010Prop32
280
     0
102
RTVSPost2010PropOp32
 70
     1
102
RTVSPost2010Prop33
280
     0
102
RTVSPost2010PropOp33
 70
     1
102
RTVSPost2010Prop34
280
     0
102
RTVSPost2010PropOp34
 70
     1
102
RTVSPost2010Prop35
280
     0
102
RTVSPost2010PropOp35
 70
     1
102
RTVSPost2010Prop36
280
     0
102
RTVSPost2010PropOp36
 70
     1
102
RTVSPost2010Prop37
 90
       50
102
RTVSPost2010PropOp37
 70
     1
102
RTVSPost2010Prop38
140
0.0
102
RTVSPost2010PropOp38
 70
     1
102
RTVSPost2010Prop39
140
1.0
102
RTVSPost2010PropOp39
 70
     1
102
RTVSPost2010Prop40
 90
        0
102
RTVSPost2010PropOp40
 70
     1
102
RTVSPost2010Prop41ColorIndex
 90
       18
102
RTVSPost2010Prop41ColorRGB
 90
        0
102
RTVSPost2010PropOp41
 70
     1
102
RTVSPost2010Prop42
 90
       50
102
RTVSPost2010PropOp42
 70
     1
102
RTVSPost2010Prop43
 90
        3
102
RTVSPost2010PropOp43
 70
     1
102
RTVSPost2010Prop44ColorIndex
 90
        5
102
RTVSPost2010Prop44ColorRGB
 90
      255
102
RTVSPost2010PropOp44
 70
     1
102
RTVSPost2010Prop45
280
     0
102
RTVSPost2010PropOp45
 70
     1
102
RTVSPost2010Prop46
 90
       50
102
RTVSPost2010PropOp46
 70
     1
102
RTVSPost2010Prop47
 90
       50
102
RTVSPost2010PropOp47
 70
     1
102
RTVSPost2010Prop48
 90
       50
102
RTVSPost2010PropOp48
 70
     1
102
RTVSPost2010Prop49
280
     0
102
RTVSPost2010PropOp49
 70
     1
102
RTVSPost2010Prop50
 90
       50
102
RTVSPost2010PropOp50
 70
     1
102
RTVSPost2010Prop51ColorIndex
 90
      256
102
RTVSPost2010Prop51ColorRGB
 90
-16777216
102
RTVSPost2010PropOp51
 70
     0
102
RTVSPost2010Prop52
140
1.0
102
RTVSPost2010PropOp52
 70
     0
102
RTVSPost2010Prop53
 90
        2
102
RTVSPost2010PropOp53
 70
     1
102
RTVSPost2010Prop54
  1
strokes_ogs.tif
102
RTVSPost2010PropOp54
 70
     1
102
RTVSPost2010Prop55
280
     0
102
RTVSPost2010PropOp55
 70
     1
102
RTVSPost2010Prop56
140
1.0
102
RTVSPost2010PropOp56
 70
     1
102
RTVSPost2010Prop57
140
1.0
102
RTVSPost2010PropOp57
 70
     1
  0
XRECORD
  5
10F
102
{ACAD_REACTORS
330
10E
102
}
330
10E
100
AcDbXrecord
280
     1
102
RTVSPost2010Prop28
280
     0
102
RTVSPost2010PropOp28
 70
     1
102
RTVSPost2010Prop29
280
     1
102
RTVSPost2010PropOp29
 70
     1
102
RTVSPost2010Prop30
280
     1
102
RTVSPost2010PropOp30
 70
     1
102
RTVSPost2010Prop31
280
     0
102
RTVSPost2010PropOp31
 70
     1
102
RTVSPost2010Prop32
280
     0
102
RTVSPost2010PropOp32
 70
     1
102
RTVSPost2010Prop33
280
     0
102
RTVSPost2010PropOp33
 70
     1
102
RTVSPost2010Prop34
280
     0
102
RTVSPost2010PropOp34
 70
     1
102
RTVSPost2010Prop35
280
     0
102
RTVSPost2010PropOp35
 70
     1
102
RTVSPost2010Prop36
280
     0
102
RTVSPost2010PropOp36
 70
     1
102
RTVSPost2010Prop37
 90
       50
102
RTVSPost2010PropOp37
 70
     1
102
RTVSPost2010Prop38
140
0.0
102
RTVSPost2010PropOp38
 70
     1
102
RTVSPost2010Prop39
140
1.0
102
RTVSPost2010PropOp39
 70
     1
102
RTVSPost2010Prop40
 90
        0
102
RTVSPost2010PropOp40
 70
     1
102
RTVSPost2010Prop41ColorIndex
 90
       18
102
RTVSPost2010Prop41ColorRGB
 90
        0
102
RTVSPost2010PropOp41
 70
     1
102
RTVSPost2010Prop42
 90
       50
102
RTVSPost2010PropOp42
 70
     1
102
RTVSPost2010Prop43
 90
        3
102
RTVSPost2010PropOp43
 70
     1
102
RTVSPost2010Prop44ColorIndex
 90
        5
102
RTVSPost2010Prop44ColorRGB
 90
      255
102
RTVSPost2010PropOp44
 70
     1
102
RTVSPost2010Prop45
280
     0
102
RTVSPost2010PropOp45
 70
     1
102
RTVSPost2010Prop46
 90
       50
102
RTVSPost2010PropOp46
 70
     1
102
RTVSPost2010Prop47
 90
       50
102
RTVSPost2010PropOp47
 70
     1
102
RTVSPost2010Prop48
 90
       50
102
RTVSPost2010PropOp48
 70
     1
102
RTVSPost2010Prop49
280
     0
102
RTVSPost2010PropOp49
 70
     1
102
RTVSPost2010Prop50
 90
       50
102
RTVSPost2010PropOp50
 70
     1
102
RTVSPost2010Prop51ColorIndex
 90
      256
102
RTVSPost2010Prop51ColorRGB
 90
-16777216
102
RTVSPost2010PropOp51
 70
     0
102
RTVSPost2010Prop52
140
1.0
102
RTVSPost2010PropOp52
 70
     0
102
RTVSPost2010Prop53
 90
        2
102
RTVSPost2010PropOp53
 70
     1
102
RTVSPost2010Prop54
  1
strokes_ogs.tif
102
RTVSPost2010PropOp54
 70
     1
102
RTVSPost2010Prop55
280
     0
102
RTVSPost2010PropOp55
 70
     1
102
RTVSPost2010Prop56
140
1.0
102
RTVSPost2010PropOp56
 70
     1
102
RTVSPost2010Prop57
140
1.0
102
RTVSPost2010PropOp57
 70
     1
  0
XRECORD
  5
113
102
{ACAD_REACTORS
330
112
102
}
330
112
100
AcDbXrecord
280
     1
102
RTVSPost2010Prop28
280
     0
102
RTVSPost2010PropOp28
 70
     1
102
RTVSPost2010Prop29
280
     1
102
RTVSPost2010PropOp29
 70
     1
102
RTVSPost2010Prop30
280
     1
102
RTVSPost2010PropOp30
 70
     1
102
RTVSPost2010Prop31
280
     0
102
RTVSPost2010PropOp31
 70
     1
102
RTVSPost2010Prop32
280
     0
102
RTVSPost2010PropOp32
 70
     1
102
RTVSPost2010Prop33
280
     0
102
RTVSPost2010PropOp33
 70
     1
102
RTVSPost2010Prop34
280
     0
102
RTVSPost2010PropOp34
 70
     1
102
RTVSPost2010Prop35
280
     0
102
RTVSPost2010PropOp35
 70
     1
102
RTVSPost2010Prop36
280
     0
102
RTVSPost2010PropOp36
 70
     1
102
RTVSPost2010Prop37
 90
       50
102
RTVSPost2010PropOp37
 70
     1
102
RTVSPost2010Prop38
140
0.0
102
RTVSPost2010PropOp38
 70
     1
102
RTVSPost2010Prop39
140
1.0
102
RTVSPost2010PropOp39
 70
     1
102
RTVSPost2010Prop40
 90
        0
102
RTVSPost2010PropOp40
 70
     1
102
RTVSPost2010Prop41ColorIndex
 90
       18
102
RTVSPost2010Prop41ColorRGB
 90
        0
102
RTVSPost2010PropOp41
 70
     1
102
RTVSPost2010Prop42
 90
       50
102
RTVSPost2010PropOp42
 70
     1
102
RTVSPost2010Prop43
 90
        3
102
RTVSPost2010PropOp43
 70
     1
102
RTVSPost2010Prop44ColorIndex
 90
        5
102
RTVSPost2010Prop44ColorRGB
 90
      255
102
RTVSPost2010PropOp44
 70
     1
102
RTVSPost2010Prop45
280
     0
102
RTVSPost2010PropOp45
 70
     1
102
RTVSPost2010Prop46
 90
       50
102
RTVSPost2010PropOp46
 70
     1
102
RTVSPost2010Prop47
 90
       50
102
RTVSPost2010PropOp47
 70
     1
102
RTVSPost2010Prop48
 90
       50
102
RTVSPost2010PropOp48
 70
     1
102
RTVSPost2010Prop49
280
     0
102
RTVSPost2010PropOp49
 70
     1
102
RTVSPost2010Prop50
 90
       50
102
RTVSPost2010PropOp50
 70
     1
102
RTVSPost2010Prop51ColorIndex
 90
      256
102
RTVSPost2010Prop51ColorRGB
 90
-16777216
102
RTVSPost2010PropOp51
 70
     0
102
RTVSPost2010Prop52
140
1.0
102
RTVSPost2010PropOp52
 70
     0
102
RTVSPost2010Prop53
 90
        2
102
RTVSPost2010PropOp53
 70
     1
102
RTVSPost2010Prop54
  1
strokes_ogs.tif
102
RTVSPost2010PropOp54
 70
     1
102
RTVSPost2010Prop55
280
     0
102
RTVSPost2010PropOp55
 70
     1
102
RTVSPost2010Prop56
140
1.0
102
RTVSPost2010PropOp56
 70
     1
102
RTVSPost2010Prop57
140
1.0
102
RTVSPost2010PropOp57
 70
     1
  0
XRECORD
  5
12D
102
{ACAD_REACTORS
330
12C
102
}
330
12C
100
AcDbXrecord
280
     1
102
RTVSPost2010Prop28
280
     0
102
RTVSPost2010PropOp28
 70
     0
102
RTVSPost2010Prop29
280
     1
102
RTVSPost2010PropOp29
 70
     0
102
RTVSPost2010Prop30
280
     1
102
RTVSPost2010PropOp30
 70
     0
102
RTVSPost2010Prop31
280
     0
102
RTVSPost2010PropOp31
 70
     0
102
RTVSPost2010Prop32
280
     0
102
RTVSPost2010PropOp32
 70
     0
102
RTVSPost2010Prop33
280
     0
102
RTVSPost2010PropOp33
 70
     0
102
RTVSPost2010Prop34
280
     0
102
RTVSPost2010PropOp34
 70
     0
102
RTVSPost2010Prop35
280
     0
102
RTVSPost2010PropOp35
 70
     0
102
RTVSPost2010Prop36
280
     0
102
RTVSPost2010PropOp36
 70
     0
102
RTVSPost2010Prop37
 90
       50
102
RTVSPost2010PropOp37
 70
     0
102
RTVSPost2010Prop38
140
0.0
102
RTVSPost2010PropOp38
 70
     0
102
RTVSPost2010Prop39
140
1.0
102
RTVSPost2010PropOp39
 70
     0
102
RTVSPost2010Prop40
 90
        0
102
RTVSPost2010PropOp40
 70
     0
102
RTVSPost2010Prop41ColorIndex
 90
       18
102
RTVSPost2010Prop41ColorRGB
 90
        0
102
RTVSPost2010PropOp41
 70
     0
102
RTVSPost2010Prop42
 90
       50
102
RTVSPost2010PropOp42
 70
     0
102
RTVSPost2010Prop43
 90
        3
102
RTVSPost2010PropOp43
 70
     0
102
RTVSPost2010Prop44ColorIndex
 90
        5
102
RTVSPost2010Prop44ColorRGB
 90
      255
102
RTVSPost2010PropOp44
 70
     0
102
RTVSPost2010Prop45
280
     0
102
RTVSPost2010PropOp45
 70
     0
102
RTVSPost2010Prop46
 90
       50
102
RTVSPost2010PropOp46
 70
     0
102
RTVSPost2010Prop47
 90
       50
102
RTVSPost2010PropOp47
 70
     0
102
RTVSPost2010Prop48
 90
       50
102
RTVSPost2010PropOp48
 70
     0
102
RTVSPost2010Prop49
280
     0
102
RTVSPost2010PropOp49
 70
     0
102
RTVSPost2010Prop50
 90
       50
102
RTVSPost2010PropOp50
 70
     0
102
RTVSPost2010Prop51ColorIndex
 90
      256
102
RTVSPost2010Prop51ColorRGB
 90
-16777216
102
RTVSPost2010PropOp51
 70
     0
102
RTVSPost2010Prop52
140
1.0
102
RTVSPost2010PropOp52
 70
     0
102
RTVSPost2010Prop53
 90
        2
102
RTVSPost2010PropOp53
 70
     0
102
RTVSPost2010Prop54
  1
strokes_ogs.tif
102
RTVSPost2010PropOp54
 70
     0
102
RTVSPost2010Prop55
280
     0
102
RTVSPost2010PropOp55
 70
     0
102
RTVSPost2010Prop56
140
1.0
102
RTVSPost2010PropOp56
 70
     0
102
RTVSPost2010Prop57
140
1.0
102
RTVSPost2010PropOp57
 70
     0
  0
XRECORD
  5
11B
102
{ACAD_REACTORS
330
11A
102
}
330
11A
100
AcDbXrecord
280
     1
102
RTVSPost2010Prop28
280
     0
102
RTVSPost2010PropOp28
 70
     1
102
RTVSPost2010Prop29
280
     1
102
RTVSPost2010PropOp29
 70
     1
102
RTVSPost2010Prop30
280
     1
102
RTVSPost2010PropOp30
 70
     1
102
RTVSPost2010Prop31
280
     0
102
RTVSPost2010PropOp31
 70
     1
102
RTVSPost2010Prop32
280
     0
102
RTVSPost2010PropOp32
 70
     1
102
RTVSPost2010Prop33
280
     0
102
RTVSPost2010PropOp33
 70
     1
102
RTVSPost2010Prop34
280
     0
102
RTVSPost2010PropOp34
 70
     1
102
RTVSPost2010Prop35
280
     0
102
RTVSPost2010PropOp35
 70
     1
102
RTVSPost2010Prop36
280
     0
102
RTVSPost2010PropOp36
 70
     1
102
RTVSPost2010Prop37
 90
       50
102
RTVSPost2010PropOp37
 70
     1
102
RTVSPost2010Prop38
140
0.0
102
RTVSPost2010PropOp38
 70
     1
102
RTVSPost2010Prop39
140
1.0
102
RTVSPost2010PropOp39
 70
     1
102
RTVSPost2010Prop40
 90
        0
102
RTVSPost2010PropOp40
 70
     1
102
RTVSPost2010Prop41ColorIndex
 90
       18
102
RTVSPost2010Prop41ColorRGB
 90
        0
102
RTVSPost2010PropOp41
 70
     1
102
RTVSPost2010Prop42
 90
       50
102
RTVSPost2010PropOp42
 70
     1
102
RTVSPost2010Prop43
 90
        3
102
RTVSPost2010PropOp43
 70
     1
102
RTVSPost2010Prop44ColorIndex
 90
        5
102
RTVSPost2010Prop44ColorRGB
 90
      255
102
RTVSPost2010PropOp44
 70
     1
102
RTVSPost2010Prop45
280
     0
102
RTVSPost2010PropOp45
 70
     1
102
RTVSPost2010Prop46
 90
       50
102
RTVSPost2010PropOp46
 70
     1
102
RTVSPost2010Prop47
 90
       50
102
RTVSPost2010PropOp47
 70
     1
102
RTVSPost2010Prop48
 90
       50
102
RTVSPost2010PropOp48
 70
     1
102
RTVSPost2010Prop49
280
     0
102
RTVSPost2010PropOp49
 70
     1
102
RTVSPost2010Prop50
 90
       50
102
RTVSPost2010PropOp50
 70
     1
102
RTVSPost2010Prop51ColorIndex
 90
      256
102
RTVSPost2010Prop51ColorRGB
 90
-16777216
102
RTVSPost2010PropOp51
 70
     0
102
RTVSPost2010Prop52
140
1.0
102
RTVSPost2010PropOp52
 70
     0
102
RTVSPost2010Prop53
 90
        2
102
RTVSPost2010PropOp53
 70
     1
102
RTVSPost2010Prop54
  1
strokes_ogs.tif
102
RTVSPost2010PropOp54
 70
     1
102
RTVSPost2010Prop55
280
     0
102
RTVSPost2010PropOp55
 70
     1
102
RTVSPost2010Prop56
140
1.0
102
RTVSPost2010PropOp56
 70
     1
102
RTVSPost2010Prop57
140
1.0
102
RTVSPost2010PropOp57
 70
     1
  0
XRECORD
  5
FF
102
{ACAD_REACTORS
330
FE
102
}
330
FE
100
AcDbXrecord
280
     1
102
RTVSPost2010Prop28
280
     0
102
RTVSPost2010PropOp28
 70
     1
102
RTVSPost2010Prop29
280
     1
102
RTVSPost2010PropOp29
 70
     1
102
RTVSPost2010Prop30
280
     1
102
RTVSPost2010PropOp30
 70
     1
102
RTVSPost2010Prop31
280
     0
102
RTVSPost2010PropOp31
 70
     1
102
RTVSPost2010Prop32
280
     0
102
RTVSPost2010PropOp32
 70
     1
102
RTVSPost2010Prop33
280
     0
102
RTVSPost2010PropOp33
 70
     1
102
RTVSPost2010Prop34
280
     0
102
RTVSPost2010PropOp34
 70
     1
102
RTVSPost2010Prop35
280
     0
102
RTVSPost2010PropOp35
 70
     1
102
RTVSPost2010Prop36
280
     0
102
RTVSPost2010PropOp36
 70
     1
102
RTVSPost2010Prop37
 90
       50
102
RTVSPost2010PropOp37
 70
     1
102
RTVSPost2010Prop38
140
0.0
102
RTVSPost2010PropOp38
 70
     1
102
RTVSPost2010Prop39
140
1.0
102
RTVSPost2010PropOp39
 70
     1
102
RTVSPost2010Prop40
 90
        0
102
RTVSPost2010PropOp40
 70
     1
102
RTVSPost2010Prop41ColorIndex
 90
       18
102
RTVSPost2010Prop41ColorRGB
 90
        0
102
RTVSPost2010PropOp41
 70
     1
102
RTVSPost2010Prop42
 90
       50
102
RTVSPost2010PropOp42
 70
     1
102
RTVSPost2010Prop43
 90
        3
102
RTVSPost2010PropOp43
 70
     1
102
RTVSPost2010Prop44ColorIndex
 90
        5
102
RTVSPost2010Prop44ColorRGB
 90
      255
102
RTVSPost2010PropOp44
 70
     1
102
RTVSPost2010Prop45
280
     0
102
RTVSPost2010PropOp45
 70
     1
102
RTVSPost2010Prop46
 90
       50
102
RTVSPost2010PropOp46
 70
     1
102
RTVSPost2010Prop47
 90
       50
102
RTVSPost2010PropOp47
 70
     1
102
RTVSPost2010Prop48
 90
       50
102
RTVSPost2010PropOp48
 70
     1
102
RTVSPost2010Prop49
280
     0
102
RTVSPost2010PropOp49
 70
     1
102
RTVSPost2010Prop50
 90
       50
102
RTVSPost2010PropOp50
 70
     1
102
RTVSPost2010Prop51ColorIndex
 90
      256
102
RTVSPost2010Prop51ColorRGB
 90
-16777216
102
RTVSPost2010PropOp51
 70
     0
102
RTVSPost2010Prop52
140
1.0
102
RTVSPost2010PropOp52
 70
     0
102
RTVSPost2010Prop53
 90
        2
102
RTVSPost2010PropOp53
 70
     1
102
RTVSPost2010Prop54
  1
strokes_ogs.tif
102
RTVSPost2010PropOp54
 70
     1
102
RTVSPost2010Prop55
280
     0
102
RTVSPost2010PropOp55
 70
     1
102
RTVSPost2010Prop56
140
1.0
102
RTVSPost2010PropOp56
 70
     1
102
RTVSPost2010Prop57
140
1.0
102
RTVSPost2010PropOp57
 70
     1
  0
XRECORD
  5
101
102
{ACAD_REACTORS
330
100
102
}
330
100
100
AcDbXrecord
280
     1
102
RTVSPost2010Prop28
280
     0
102
RTVSPost2010PropOp28
 70
     1
102
RTVSPost2010Prop29
280
     1
102
RTVSPost2010PropOp29
 70
     1
102
RTVSPost2010Prop30
280
     1
102
RTVSPost2010PropOp30
 70
     1
102
RTVSPost2010Prop31
280
     0
102
RTVSPost2010PropOp31
 70
     1
102
RTVSPost2010Prop32
280
     0
102
RTVSPost2010PropOp32
 70
     1
102
RTVSPost2010Prop33
280
     0
102
RTVSPost2010PropOp33
 70
     1
102
RTVSPost2010Prop34
280
     0
102
RTVSPost2010PropOp34
 70
     1
102
RTVSPost2010Prop35
280
     0
102
RTVSPost2010PropOp35
 70
     1
102
RTVSPost2010Prop36
280
     0
102
RTVSPost2010PropOp36
 70
     1
102
RTVSPost2010Prop37
 90
       50
102
RTVSPost2010PropOp37
 70
     1
102
RTVSPost2010Prop38
140
0.0
102
RTVSPost2010PropOp38
 70
     1
102
RTVSPost2010Prop39
140
1.0
102
RTVSPost2010PropOp39
 70
     1
102
RTVSPost2010Prop40
 90
        0
102
RTVSPost2010PropOp40
 70
     1
102
RTVSPost2010Prop41ColorIndex
 90
       18
102
RTVSPost2010Prop41ColorRGB
 90
        0
102
RTVSPost2010PropOp41
 70
     1
102
RTVSPost2010Prop42
 90
       50
102
RTVSPost2010PropOp42
 70
     1
102
RTVSPost2010Prop43
 90
        3
102
RTVSPost2010PropOp43
 70
     1
102
RTVSPost2010Prop44ColorIndex
 90
        5
102
RTVSPost2010Prop44ColorRGB
 90
      255
102
RTVSPost2010PropOp44
 70
     1
102
RTVSPost2010Prop45
280
     0
102
RTVSPost2010PropOp45
 70
     1
102
RTVSPost2010Prop46
 90
       50
102
RTVSPost2010PropOp46
 70
     1
102
RTVSPost2010Prop47
 90
       50
102
RTVSPost2010PropOp47
 70
     1
102
RTVSPost2010Prop48
 90
       50
102
RTVSPost2010PropOp48
 70
     1
102
RTVSPost2010Prop49
280
     0
102
RTVSPost2010PropOp49
 70
     1
102
RTVSPost2010Prop50
 90
       50
102
RTVSPost2010PropOp50
 70
     1
102
RTVSPost2010Prop51ColorIndex
 90
      256
102
RTVSPost2010Prop51ColorRGB
 90
-16777216
102
RTVSPost2010PropOp51
 70
     0
102
RTVSPost2010Prop52
140
1.0
102
RTVSPost2010PropOp52
 70
     0
102
RTVSPost2010Prop53
 90
        2
102
RTVSPost2010PropOp53
 70
     1
102
RTVSPost2010Prop54
  1
strokes_ogs.tif
102
RTVSPost2010PropOp54
 70
     1
102
RTVSPost2010Prop55
280
     0
102
RTVSPost2010PropOp55
 70
     1
102
RTVSPost2010Prop56
140
1.0
102
RTVSPost2010PropOp56
 70
     1
102
RTVSPost2010Prop57
140
1.0
102
RTVSPost2010PropOp57
 70
     1
  0
XRECORD
  5
103
102
{ACAD_REACTORS
330
102
102
}
330
102
100
AcDbXrecord
280
     1
102
RTVSPost2010Prop28
280
     0
102
RTVSPost2010PropOp28
 70
     1
102
RTVSPost2010Prop29
280
     1
102
RTVSPost2010PropOp29
 70
     1
102
RTVSPost2010Prop30
280
     1
102
RTVSPost2010PropOp30
 70
     1
102
RTVSPost2010Prop31
280
     0
102
RTVSPost2010PropOp31
 70
     1
102
RTVSPost2010Prop32
280
     0
102
RTVSPost2010PropOp32
 70
     1
102
RTVSPost2010Prop33
280
     0
102
RTVSPost2010PropOp33
 70
     1
102
RTVSPost2010Prop34
280
     0
102
RTVSPost2010PropOp34
 70
     1
102
RTVSPost2010Prop35
280
     0
102
RTVSPost2010PropOp35
 70
     1
102
RTVSPost2010Prop36
280
     0
102
RTVSPost2010PropOp36
 70
     1
102
RTVSPost2010Prop37
 90
       50
102
RTVSPost2010PropOp37
 70
     1
102
RTVSPost2010Prop38
140
0.0
102
RTVSPost2010PropOp38
 70
     1
102
RTVSPost2010Prop39
140
1.0
102
RTVSPost2010PropOp39
 70
     1
102
RTVSPost2010Prop40
 90
        0
102
RTVSPost2010PropOp40
 70
     1
102
RTVSPost2010Prop41ColorIndex
 90
       18
102
RTVSPost2010Prop41ColorRGB
 90
        0
102
RTVSPost2010PropOp41
 70
     1
102
RTVSPost2010Prop42
 90
       50
102
RTVSPost2010PropOp42
 70
     1
102
RTVSPost2010Prop43
 90
        3
102
RTVSPost2010PropOp43
 70
     1
102
RTVSPost2010Prop44ColorIndex
 90
        5
102
RTVSPost2010Prop44ColorRGB
 90
      255
102
RTVSPost2010PropOp44
 70
     1
102
RTVSPost2010Prop45
280
     0
102
RTVSPost2010PropOp45
 70
     1
102
RTVSPost2010Prop46
 90
       50
102
RTVSPost2010PropOp46
 70
     1
102
RTVSPost2010Prop47
 90
       50
102
RTVSPost2010PropOp47
 70
     1
102
RTVSPost2010Prop48
 90
       50
102
RTVSPost2010PropOp48
 70
     1
102
RTVSPost2010Prop49
280
     0
102
RTVSPost2010PropOp49
 70
     1
102
RTVSPost2010Prop50
 90
       50
102
RTVSPost2010PropOp50
 70
     1
102
RTVSPost2010Prop51ColorIndex
 90
      256
102
RTVSPost2010Prop51ColorRGB
 90
-16777216
102
RTVSPost2010PropOp51
 70
     0
102
RTVSPost2010Prop52
140
1.0
102
RTVSPost2010PropOp52
 70
     0
102
RTVSPost2010Prop53
 90
        2
102
RTVSPost2010PropOp53
 70
     1
102
RTVSPost2010Prop54
  1
strokes_ogs.tif
102
RTVSPost2010PropOp54
 70
     1
102
RTVSPost2010Prop55
280
     0
102
RTVSPost2010PropOp55
 70
     1
102
RTVSPost2010Prop56
140
1.0
102
RTVSPost2010PropOp56
 70
     1
102
RTVSPost2010Prop57
140
1.0
102
RTVSPost2010PropOp57
 70
     1
  0
XRECORD
  5
105
102
{ACAD_REACTORS
330
104
102
}
330
104
100
AcDbXrecord
280
     1
102
RTVSPost2010Prop28
280
     0
102
RTVSPost2010PropOp28
 70
     1
102
RTVSPost2010Prop29
280
     1
102
RTVSPost2010PropOp29
 70
     1
102
RTVSPost2010Prop30
280
     1
102
RTVSPost2010PropOp30
 70
     1
102
RTVSPost2010Prop31
280
     0
102
RTVSPost2010PropOp31
 70
     1
102
RTVSPost2010Prop32
280
     0
102
RTVSPost2010PropOp32
 70
     1
102
RTVSPost2010Prop33
280
     0
102
RTVSPost2010PropOp33
 70
     1
102
RTVSPost2010Prop34
280
     0
102
RTVSPost2010PropOp34
 70
     1
102
RTVSPost2010Prop35
280
     0
102
RTVSPost2010PropOp35
 70
     1
102
RTVSPost2010Prop36
280
     0
102
RTVSPost2010PropOp36
 70
     1
102
RTVSPost2010Prop37
 90
       50
102
RTVSPost2010PropOp37
 70
     1
102
RTVSPost2010Prop38
140
0.0
102
RTVSPost2010PropOp38
 70
     1
102
RTVSPost2010Prop39
140
1.0
102
RTVSPost2010PropOp39
 70
     1
102
RTVSPost2010Prop40
 90
        0
102
RTVSPost2010PropOp40
 70
     1
102
RTVSPost2010Prop41ColorIndex
 90
       18
102
RTVSPost2010Prop41ColorRGB
 90
        0
102
RTVSPost2010PropOp41
 70
     1
102
RTVSPost2010Prop42
 90
       50
102
RTVSPost2010PropOp42
 70
     1
102
RTVSPost2010Prop43
 90
        3
102
RTVSPost2010PropOp43
 70
     1
102
RTVSPost2010Prop44ColorIndex
 90
        5
102
RTVSPost2010Prop44ColorRGB
 90
      255
102
RTVSPost2010PropOp44
 70
     1
102
RTVSPost2010Prop45
280
     0
102
RTVSPost2010PropOp45
 70
     1
102
RTVSPost2010Prop46
 90
       50
102
RTVSPost2010PropOp46
 70
     1
102
RTVSPost2010Prop47
 90
       50
102
RTVSPost2010PropOp47
 70
     1
102
RTVSPost2010Prop48
 90
       50
102
RTVSPost2010PropOp48
 70
     1
102
RTVSPost2010Prop49
280
     0
102
RTVSPost2010PropOp49
 70
     1
102
RTVSPost2010Prop50
 90
       50
102
RTVSPost2010PropOp50
 70
     1
102
RTVSPost2010Prop51ColorIndex
 90
      256
102
RTVSPost2010Prop51ColorRGB
 90
-16777216
102
RTVSPost2010PropOp51
 70
     0
102
RTVSPost2010Prop52
140
1.0
102
RTVSPost2010PropOp52
 70
     0
102
RTVSPost2010Prop53
 90
        2
102
RTVSPost2010PropOp53
 70
     1
102
RTVSPost2010Prop54
  1
strokes_ogs.tif
102
RTVSPost2010PropOp54
 70
     1
102
RTVSPost2010Prop55
280
     0
102
RTVSPost2010PropOp55
 70
     1
102
RTVSPost2010Prop56
140
1.0
102
RTVSPost2010PropOp56
 70
     1
102
RTVSPost2010Prop57
140
1.0
102
RTVSPost2010PropOp57
 70
     1
  0
XRECORD
  5
10D
102
{ACAD_REACTORS
330
10C
102
}
330
10C
100
AcDbXrecord
280
     1
102
RTVSPost2010Prop28
280
     0
102
RTVSPost2010PropOp28
 70
     1
102
RTVSPost2010Prop29
280
     1
102
RTVSPost2010PropOp29
 70
     1
102
RTVSPost2010Prop30
280
     1
102
RTVSPost2010PropOp30
 70
     1
102
RTVSPost2010Prop31
280
     0
102
RTVSPost2010PropOp31
 70
     1
102
RTVSPost2010Prop32
280
     0
102
RTVSPost2010PropOp32
 70
     1
102
RTVSPost2010Prop33
280
     0
102
RTVSPost2010PropOp33
 70
     1
102
RTVSPost2010Prop34
280
     0
102
RTVSPost2010PropOp34
 70
     1
102
RTVSPost2010Prop35
280
     0
102
RTVSPost2010PropOp35
 70
     1
102
RTVSPost2010Prop36
280
     0
102
RTVSPost2010PropOp36
 70
     1
102
RTVSPost2010Prop37
 90
       50
102
RTVSPost2010PropOp37
 70
     1
102
RTVSPost2010Prop38
140
0.0
102
RTVSPost2010PropOp38
 70
     1
102
RTVSPost2010Prop39
140
1.0
102
RTVSPost2010PropOp39
 70
     1
102
RTVSPost2010Prop40
 90
        0
102
RTVSPost2010PropOp40
 70
     1
102
RTVSPost2010Prop41ColorIndex
 90
       18
102
RTVSPost2010Prop41ColorRGB
 90
        0
102
RTVSPost2010PropOp41
 70
     1
102
RTVSPost2010Prop42
 90
       50
102
RTVSPost2010PropOp42
 70
     1
102
RTVSPost2010Prop43
 90
        3
102
RTVSPost2010PropOp43
 70
     1
102
RTVSPost2010Prop44ColorIndex
 90
        5
102
RTVSPost2010Prop44ColorRGB
 90
      255
102
RTVSPost2010PropOp44
 70
     1
102
RTVSPost2010Prop45
280
     0
102
RTVSPost2010PropOp45
 70
     1
102
RTVSPost2010Prop46
 90
       50
102
RTVSPost2010PropOp46
 70
     1
102
RTVSPost2010Prop47
 90
       50
102
RTVSPost2010PropOp47
 70
     1
102
RTVSPost2010Prop48
 90
       50
102
RTVSPost2010PropOp48
 70
     1
102
RTVSPost2010Prop49
280
     0
102
RTVSPost2010PropOp49
 70
     1
102
RTVSPost2010Prop50
 90
       50
102
RTVSPost2010PropOp50
 70
     1
102
RTVSPost2010Prop51ColorIndex
 90
      256
102
RTVSPost2010Prop51ColorRGB
 90
-16777216
102
RTVSPost2010PropOp51
 70
     0
102
RTVSPost2010Prop52
140
1.0
102
RTVSPost2010PropOp52
 70
     0
102
RTVSPost2010Prop53
 90
        2
102
RTVSPost2010PropOp53
 70
     1
102
RTVSPost2010Prop54
  1
strokes_ogs.tif
102
RTVSPost2010PropOp54
 70
     1
102
RTVSPost2010Prop55
280
     0
102
RTVSPost2010PropOp55
 70
     1
102
RTVSPost2010Prop56
140
1.0
102
RTVSPost2010PropOp56
 70
     1
102
RTVSPost2010Prop57
140
1.0
102
RTVSPost2010PropOp57
 70
     1
  0
XRECORD
  5
129
102
{ACAD_REACTORS
330
128
102
}
330
128
100
AcDbXrecord
280
     1
102
RTVSPost2010Prop28
280
     0
102
RTVSPost2010PropOp28
 70
     0
102
RTVSPost2010Prop29
280
     1
102
RTVSPost2010PropOp29
 70
     0
102
RTVSPost2010Prop30
280
     1
102
RTVSPost2010PropOp30
 70
     0
102
RTVSPost2010Prop31
280
     0
102
RTVSPost2010PropOp31
 70
     0
102
RTVSPost2010Prop32
280
     0
102
RTVSPost2010PropOp32
 70
     0
102
RTVSPost2010Prop33
280
     0
102
RTVSPost2010PropOp33
 70
     0
102
RTVSPost2010Prop34
280
     0
102
RTVSPost2010PropOp34
 70
     0
102
RTVSPost2010Prop35
280
     0
102
RTVSPost2010PropOp35
 70
     0
102
RTVSPost2010Prop36
280
     0
102
RTVSPost2010PropOp36
 70
     0
102
RTVSPost2010Prop37
 90
       50
102
RTVSPost2010PropOp37
 70
     0
102
RTVSPost2010Prop38
140
0.0
102
RTVSPost2010PropOp38
 70
     0
102
RTVSPost2010Prop39
140
1.0
102
RTVSPost2010PropOp39
 70
     0
102
RTVSPost2010Prop40
 90
        0
102
RTVSPost2010PropOp40
 70
     0
102
RTVSPost2010Prop41ColorIndex
 90
       18
102
RTVSPost2010Prop41ColorRGB
 90
        0
102
RTVSPost2010PropOp41
 70
     0
102
RTVSPost2010Prop42
 90
       50
102
RTVSPost2010PropOp42
 70
     0
102
RTVSPost2010Prop43
 90
        3
102
RTVSPost2010PropOp43
 70
     0
102
RTVSPost2010Prop44ColorIndex
 90
        5
102
RTVSPost2010Prop44ColorRGB
 90
      255
102
RTVSPost2010PropOp44
 70
     0
102
RTVSPost2010Prop45
280
     0
102
RTVSPost2010PropOp45
 70
     0
102
RTVSPost2010Prop46
 90
       50
102
RTVSPost2010PropOp46
 70
     0
102
RTVSPost2010Prop47
 90
       50
102
RTVSPost2010PropOp47
 70
     0
102
RTVSPost2010Prop48
 90
       50
102
RTVSPost2010PropOp48
 70
     0
102
RTVSPost2010Prop49
280
     0
102
RTVSPost2010PropOp49
 70
     0
102
RTVSPost2010Prop50
 90
       50
102
RTVSPost2010PropOp50
 70
     0
102
RTVSPost2010Prop51ColorIndex
 90
      256
102
RTVSPost2010Prop51ColorRGB
 90
-16777216
102
RTVSPost2010PropOp51
 70
     0
102
RTVSPost2010Prop52
140
1.0
102
RTVSPost2010PropOp52
 70
     0
102
RTVSPost2010Prop53
 90
        2
102
RTVSPost2010PropOp53
 70
     0
102
RTVSPost2010Prop54
  1
strokes_ogs.tif
102
RTVSPost2010PropOp54
 70
     0
102
RTVSPost2010Prop55
280
     0
102
RTVSPost2010PropOp55
 70
     0
102
RTVSPost2010Prop56
140
1.0
102
RTVSPost2010PropOp56
 70
     0
102
RTVSPost2010Prop57
140
1.0
102
RTVSPost2010PropOp57
 70
     0
  0
XRECORD
  5
119
102
{ACAD_REACTORS
330
118
102
}
330
118
100
AcDbXrecord
280
     1
102
RTVSPost2010Prop28
280
     0
102
RTVSPost2010PropOp28
 70
     1
102
RTVSPost2010Prop29
280
     1
102
RTVSPost2010PropOp29
 70
     1
102
RTVSPost2010Prop30
280
     1
102
RTVSPost2010PropOp30
 70
     1
102
RTVSPost2010Prop31
280
     0
102
RTVSPost2010PropOp31
 70
     1
102
RTVSPost2010Prop32
280
     0
102
RTVSPost2010PropOp32
 70
     1
102
RTVSPost2010Prop33
280
     0
102
RTVSPost2010PropOp33
 70
     1
102
RTVSPost2010Prop34
280
     0
102
RTVSPost2010PropOp34
 70
     1
102
RTVSPost2010Prop35
280
     0
102
RTVSPost2010PropOp35
 70
     1
102
RTVSPost2010Prop36
280
     0
102
RTVSPost2010PropOp36
 70
     1
102
RTVSPost2010Prop37
 90
       50
102
RTVSPost2010PropOp37
 70
     1
102
RTVSPost2010Prop38
140
0.0
102
RTVSPost2010PropOp38
 70
     1
102
RTVSPost2010Prop39
140
1.0
102
RTVSPost2010PropOp39
 70
     1
102
RTVSPost2010Prop40
 90
        0
102
RTVSPost2010PropOp40
 70
     1
102
RTVSPost2010Prop41ColorIndex
 90
       18
102
RTVSPost2010Prop41ColorRGB
 90
        0
102
RTVSPost2010PropOp41
 70
     1
102
RTVSPost2010Prop42
 90
       50
102
RTVSPost2010PropOp42
 70
     1
102
RTVSPost2010Prop43
 90
        3
102
RTVSPost2010PropOp43
 70
     1
102
RTVSPost2010Prop44ColorIndex
 90
        5
102
RTVSPost2010Prop44ColorRGB
 90
      255
102
RTVSPost2010PropOp44
 70
     1
102
RTVSPost2010Prop45
280
     0
102
RTVSPost2010PropOp45
 70
     1
102
RTVSPost2010Prop46
 90
       50
102
RTVSPost2010PropOp46
 70
     1
102
RTVSPost2010Prop47
 90
       50
102
RTVSPost2010PropOp47
 70
     1
102
RTVSPost2010Prop48
 90
       50
102
RTVSPost2010PropOp48
 70
     1
102
RTVSPost2010Prop49
280
     0
102
RTVSPost2010PropOp49
 70
     1
102
RTVSPost2010Prop50
 90
       50
102
RTVSPost2010PropOp50
 70
     1
102
RTVSPost2010Prop51ColorIndex
 90
      256
102
RTVSPost2010Prop51ColorRGB
 90
-16777216
102
RTVSPost2010PropOp51
 70
     0
102
RTVSPost2010Prop52
140
1.0
102
RTVSPost2010PropOp52
 70
     0
102
RTVSPost2010Prop53
 90
        2
102
RTVSPost2010PropOp53
 70
     1
102
RTVSPost2010Prop54
  1
strokes_ogs.tif
102
RTVSPost2010PropOp54
 70
     1
102
RTVSPost2010Prop55
280
     0
102
RTVSPost2010PropOp55
 70
     1
102
RTVSPost2010Prop56
140
1.0
102
RTVSPost2010PropOp56
 70
     1
102
RTVSPost2010Prop57
140
1.0
102
RTVSPost2010PropOp57
 70
     1
  0
XRECORD
  5
12B
102
{ACAD_REACTORS
330
12A
102
}
330
12A
100
AcDbXrecord
280
     1
102
RTVSPost2010Prop28
280
     0
102
RTVSPost2010PropOp28
 70
     0
102
RTVSPost2010Prop29
280
     1
102
RTVSPost2010PropOp29
 70
     0
102
RTVSPost2010Prop30
280
     1
102
RTVSPost2010PropOp30
 70
     0
102
RTVSPost2010Prop31
280
     0
102
RTVSPost2010PropOp31
 70
     0
102
RTVSPost2010Prop32
280
     0
102
RTVSPost2010PropOp32
 70
     0
102
RTVSPost2010Prop33
280
     0
102
RTVSPost2010PropOp33
 70
     0
102
RTVSPost2010Prop34
280
     0
102
RTVSPost2010PropOp34
 70
     0
102
RTVSPost2010Prop35
280
     0
102
RTVSPost2010PropOp35
 70
     0
102
RTVSPost2010Prop36
280
     0
102
RTVSPost2010PropOp36
 70
     0
102
RTVSPost2010Prop37
 90
       50
102
RTVSPost2010PropOp37
 70
     0
102
RTVSPost2010Prop38
140
0.0
102
RTVSPost2010PropOp38
 70
     0
102
RTVSPost2010Prop39
140
1.0
102
RTVSPost2010PropOp39
 70
     0
102
RTVSPost2010Prop40
 90
        0
102
RTVSPost2010PropOp40
 70
     0
102
RTVSPost2010Prop41ColorIndex
 90
       18
102
RTVSPost2010Prop41ColorRGB
 90
        0
102
RTVSPost2010PropOp41
 70
     0
102
RTVSPost2010Prop42
 90
       50
102
RTVSPost2010PropOp42
 70
     0
102
RTVSPost2010Prop43
 90
        3
102
RTVSPost2010PropOp43
 70
     0
102
RTVSPost2010Prop44ColorIndex
 90
        5
102
RTVSPost2010Prop44ColorRGB
 90
      255
102
RTVSPost2010PropOp44
 70
     0
102
RTVSPost2010Prop45
280
     0
102
RTVSPost2010PropOp45
 70
     0
102
RTVSPost2010Prop46
 90
       50
102
RTVSPost2010PropOp46
 70
     0
102
RTVSPost2010Prop47
 90
       50
102
RTVSPost2010PropOp47
 70
     0
102
RTVSPost2010Prop48
 90
       50
102
RTVSPost2010PropOp48
 70
     0
102
RTVSPost2010Prop49
280
     0
102
RTVSPost2010PropOp49
 70
     0
102
RTVSPost2010Prop50
 90
       50
102
RTVSPost2010PropOp50
 70
     0
102
RTVSPost2010Prop51ColorIndex
 90
      256
102
RTVSPost2010Prop51ColorRGB
 90
-16777216
102
RTVSPost2010PropOp51
 70
     0
102
RTVSPost2010Prop52
140
1.0
102
RTVSPost2010PropOp52
 70
     0
102
RTVSPost2010Prop53
 90
        2
102
RTVSPost2010PropOp53
 70
     0
102
RTVSPost2010Prop54
  1
strokes_ogs.tif
102
RTVSPost2010PropOp54
 70
     0
102
RTVSPost2010Prop55
280
     0
102
RTVSPost2010PropOp55
 70
     0
102
RTVSPost2010Prop56
140
1.0
102
RTVSPost2010PropOp56
 70
     0
102
RTVSPost2010Prop57
140
1.0
102
RTVSPost2010PropOp57
 70
     0
  0
XRECORD
  5
111
102
{ACAD_REACTORS
330
110
102
}
330
110
100
AcDbXrecord
280
     1
102
RTVSPost2010Prop28
280
     0
102
RTVSPost2010PropOp28
 70
     1
102
RTVSPost2010Prop29
280
     1
102
RTVSPost2010PropOp29
 70
     1
102
RTVSPost2010Prop30
280
     1
102
RTVSPost2010PropOp30
 70
     1
102
RTVSPost2010Prop31
280
     0
102
RTVSPost2010PropOp31
 70
     1
102
RTVSPost2010Prop32
280
     0
102
RTVSPost2010PropOp32
 70
     1
102
RTVSPost2010Prop33
280
     0
102
RTVSPost2010PropOp33
 70
     1
102
RTVSPost2010Prop34
280
     0
102
RTVSPost2010PropOp34
 70
     1
102
RTVSPost2010Prop35
280
     0
102
RTVSPost2010PropOp35
 70
     1
102
RTVSPost2010Prop36
280
     0
102
RTVSPost2010PropOp36
 70
     1
102
RTVSPost2010Prop37
 90
       50
102
RTVSPost2010PropOp37
 70
     1
102
RTVSPost2010Prop38
140
0.0
102
RTVSPost2010PropOp38
 70
     1
102
RTVSPost2010Prop39
140
1.0
102
RTVSPost2010PropOp39
 70
     1
102
RTVSPost2010Prop40
 90
        0
102
RTVSPost2010PropOp40
 70
     1
102
RTVSPost2010Prop41ColorIndex
 90
       18
102
RTVSPost2010Prop41ColorRGB
 90
        0
102
RTVSPost2010PropOp41
 70
     1
102
RTVSPost2010Prop42
 90
       50
102
RTVSPost2010PropOp42
 70
     1
102
RTVSPost2010Prop43
 90
        3
102
RTVSPost2010PropOp43
 70
     1
102
RTVSPost2010Prop44ColorIndex
 90
        5
102
RTVSPost2010Prop44ColorRGB
 90
      255
102
RTVSPost2010PropOp44
 70
     1
102
RTVSPost2010Prop45
280
     0
102
RTVSPost2010PropOp45
 70
     1
102
RTVSPost2010Prop46
 90
       50
102
RTVSPost2010PropOp46
 70
     1
102
RTVSPost2010Prop47
 90
       50
102
RTVSPost2010PropOp47
 70
     1
102
RTVSPost2010Prop48
 90
       50
102
RTVSPost2010PropOp48
 70
     1
102
RTVSPost2010Prop49
280
     0
102
RTVSPost2010PropOp49
 70
     1
102
RTVSPost2010Prop50
 90
       50
102
RTVSPost2010PropOp50
 70
     1
102
RTVSPost2010Prop51ColorIndex
 90
      256
102
RTVSPost2010Prop51ColorRGB
 90
-16777216
102
RTVSPost2010PropOp51
 70
     0
102
RTVSPost2010Prop52
140
1.0
102
RTVSPost2010PropOp52
 70
     0
102
RTVSPost2010Prop53
 90
        2
102
RTVSPost2010PropOp53
 70
     1
102
RTVSPost2010Prop54
  1
strokes_ogs.tif
102
RTVSPost2010PropOp54
 70
     1
102
RTVSPost2010Prop55
280
     0
102
RTVSPost2010PropOp55
 70
     1
102
RTVSPost2010Prop56
140
1.0
102
RTVSPost2010PropOp56
 70
     1
102
RTVSPost2010Prop57
140
1.0
102
RTVSPost2010PropOp57
 70
     1
  0
XRECORD
  5
127
102
{ACAD_REACTORS
330
126
102
}
330
126
100
AcDbXrecord
280
     1
102
RTVSPost2010Prop28
280
     0
102
RTVSPost2010PropOp28
 70
     1
102
RTVSPost2010Prop29
280
     1
102
RTVSPost2010PropOp29
 70
     1
102
RTVSPost2010Prop30
280
     1
102
RTVSPost2010PropOp30
 70
     1
102
RTVSPost2010Prop31
280
     0
102
RTVSPost2010PropOp31
 70
     1
102
RTVSPost2010Prop32
280
     0
102
RTVSPost2010PropOp32
 70
     1
102
RTVSPost2010Prop33
280
     0
102
RTVSPost2010PropOp33
 70
     1
102
RTVSPost2010Prop34
280
     0
102
RTVSPost2010PropOp34
 70
     1
102
RTVSPost2010Prop35
280
     0
102
RTVSPost2010PropOp35
 70
     1
102
RTVSPost2010Prop36
280
     0
102
RTVSPost2010PropOp36
 70
     1
102
RTVSPost2010Prop37
 90
       50
102
RTVSPost2010PropOp37
 70
     1
102
RTVSPost2010Prop38
140
0.0
102
RTVSPost2010PropOp38
 70
     1
102
RTVSPost2010Prop39
140
1.0
102
RTVSPost2010PropOp39
 70
     1
102
RTVSPost2010Prop40
 90
        0
102
RTVSPost2010PropOp40
 70
     1
102
RTVSPost2010Prop41ColorIndex
 90
       18
102
RTVSPost2010Prop41ColorRGB
 90
        0
102
RTVSPost2010PropOp41
 70
     1
102
RTVSPost2010Prop42
 90
       50
102
RTVSPost2010PropOp42
 70
     1
102
RTVSPost2010Prop43
 90
        3
102
RTVSPost2010PropOp43
 70
     1
102
RTVSPost2010Prop44ColorIndex
 90
        5
102
RTVSPost2010Prop44ColorRGB
 90
      255
102
RTVSPost2010PropOp44
 70
     1
102
RTVSPost2010Prop45
280
     0
102
RTVSPost2010PropOp45
 70
     1
102
RTVSPost2010Prop46
 90
       50
102
RTVSPost2010PropOp46
 70
     1
102
RTVSPost2010Prop47
 90
       50
102
RTVSPost2010PropOp47
 70
     1
102
RTVSPost2010Prop48
 90
       50
102
RTVSPost2010PropOp48
 70
     1
102
RTVSPost2010Prop49
280
     0
102
RTVSPost2010PropOp49
 70
     1
102
RTVSPost2010Prop50
 90
       50
102
RTVSPost2010PropOp50
 70
     1
102
RTVSPost2010Prop51ColorIndex
 90
      256
102
RTVSPost2010Prop51ColorRGB
 90
-16777216
102
RTVSPost2010PropOp51
 70
     0
102
RTVSPost2010Prop52
140
1.0
102
RTVSPost2010PropOp52
 70
     0
102
RTVSPost2010Prop53
 90
        2
102
RTVSPost2010PropOp53
 70
     1
102
RTVSPost2010Prop54
  1
strokes_ogs.tif
102
RTVSPost2010PropOp54
 70
     1
102
RTVSPost2010Prop55
280
     0
102
RTVSPost2010PropOp55
 70
     1
102
RTVSPost2010Prop56
140
1.0
102
RTVSPost2010PropOp56
 70
     1
102
RTVSPost2010Prop57
140
1.0
102
RTVSPost2010PropOp57
 70
     1
  0
XRECORD
  5
125
102
{ACAD_REACTORS
330
124
102
}
330
124
100
AcDbXrecord
280
     1
102
RTVSPost2010Prop28
280
     0
102
RTVSPost2010PropOp28
 70
     1
102
RTVSPost2010Prop29
280
     1
102
RTVSPost2010PropOp29
 70
     1
102
RTVSPost2010Prop30
280
     1
102
RTVSPost2010PropOp30
 70
     1
102
RTVSPost2010Prop31
280
     0
102
RTVSPost2010PropOp31
 70
     1
102
RTVSPost2010Prop32
280
     0
102
RTVSPost2010PropOp32
 70
     1
102
RTVSPost2010Prop33
280
     0
102
RTVSPost2010PropOp33
 70
     1
102
RTVSPost2010Prop34
280
     0
102
RTVSPost2010PropOp34
 70
     1
102
RTVSPost2010Prop35
280
     0
102
RTVSPost2010PropOp35
 70
     1
102
RTVSPost2010Prop36
280
     0
102
RTVSPost2010PropOp36
 70
     1
102
RTVSPost2010Prop37
 90
       50
102
RTVSPost2010PropOp37
 70
     1
102
RTVSPost2010Prop38
140
0.0
102
RTVSPost2010PropOp38
 70
     1
102
RTVSPost2010Prop39
140
1.0
102
RTVSPost2010PropOp39
 70
     1
102
RTVSPost2010Prop40
 90
        0
102
RTVSPost2010PropOp40
 70
     1
102
RTVSPost2010Prop41ColorIndex
 90
       18
102
RTVSPost2010Prop41ColorRGB
 90
        0
102
RTVSPost2010PropOp41
 70
     1
102
RTVSPost2010Prop42
 90
       50
102
RTVSPost2010PropOp42
 70
     1
102
RTVSPost2010Prop43
 90
        3
102
RTVSPost2010PropOp43
 70
     1
102
RTVSPost2010Prop44ColorIndex
 90
        5
102
RTVSPost2010Prop44ColorRGB
 90
      255
102
RTVSPost2010PropOp44
 70
     1
102
RTVSPost2010Prop45
280
     0
102
RTVSPost2010PropOp45
 70
     1
102
RTVSPost2010Prop46
 90
       50
102
RTVSPost2010PropOp46
 70
     1
102
RTVSPost2010Prop47
 90
       50
102
RTVSPost2010PropOp47
 70
     1
102
RTVSPost2010Prop48
 90
       50
102
RTVSPost2010PropOp48
 70
     1
102
RTVSPost2010Prop49
280
     0
102
RTVSPost2010PropOp49
 70
     1
102
RTVSPost2010Prop50
 90
       50
102
RTVSPost2010PropOp50
 70
     1
102
RTVSPost2010Prop51ColorIndex
 90
      256
102
RTVSPost2010Prop51ColorRGB
 90
-16777216
102
RTVSPost2010PropOp51
 70
     0
102
RTVSPost2010Prop52
140
1.0
102
RTVSPost2010PropOp52
 70
     0
102
RTVSPost2010Prop53
 90
        2
102
RTVSPost2010PropOp53
 70
     1
102
RTVSPost2010Prop54
  1
strokes_ogs.tif
102
RTVSPost2010PropOp54
 70
     1
102
RTVSPost2010Prop55
280
     0
102
RTVSPost2010PropOp55
 70
     1
102
RTVSPost2010Prop56
140
1.0
102
RTVSPost2010PropOp56
 70
     1
102
RTVSPost2010Prop57
140
1.0
102
RTVSPost2010PropOp57
 70
     1
  0
XRECORD
  5
11F
102
{ACAD_REACTORS
330
11E
102
}
330
11E
100
AcDbXrecord
280
     1
102
RTVSPost2010Prop28
280
     0
102
RTVSPost2010PropOp28
 70
     1
102
RTVSPost2010Prop29
280
     1
102
RTVSPost2010PropOp29
 70
     1
102
RTVSPost2010Prop30
280
     1
102
RTVSPost2010PropOp30
 70
     1
102
RTVSPost2010Prop31
280
     0
102
RTVSPost2010PropOp31
 70
     1
102
RTVSPost2010Prop32
280
     0
102
RTVSPost2010PropOp32
 70
     1
102
RTVSPost2010Prop33
280
     0
102
RTVSPost2010PropOp33
 70
     1
102
RTVSPost2010Prop34
280
     0
102
RTVSPost2010PropOp34
 70
     1
102
RTVSPost2010Prop35
280
     0
102
RTVSPost2010PropOp35
 70
     1
102
RTVSPost2010Prop36
280
     0
102
RTVSPost2010PropOp36
 70
     1
102
RTVSPost2010Prop37
 90
       50
102
RTVSPost2010PropOp37
 70
     1
102
RTVSPost2010Prop38
140
0.0
102
RTVSPost2010PropOp38
 70
     1
102
RTVSPost2010Prop39
140
1.0
102
RTVSPost2010PropOp39
 70
     1
102
RTVSPost2010Prop40
 90
        0
102
RTVSPost2010PropOp40
 70
     1
102
RTVSPost2010Prop41ColorIndex
 90
       18
102
RTVSPost2010Prop41ColorRGB
 90
        0
102
RTVSPost2010PropOp41
 70
     1
102
RTVSPost2010Prop42
 90
       50
102
RTVSPost2010PropOp42
 70
     1
102
RTVSPost2010Prop43
 90
        3
102
RTVSPost2010PropOp43
 70
     1
102
RTVSPost2010Prop44ColorIndex
 90
        5
102
RTVSPost2010Prop44ColorRGB
 90
      255
102
RTVSPost2010PropOp44
 70
     1
102
RTVSPost2010Prop45
280
     0
102
RTVSPost2010PropOp45
 70
     1
102
RTVSPost2010Prop46
 90
       50
102
RTVSPost2010PropOp46
 70
     1
102
RTVSPost2010Prop47
 90
       50
102
RTVSPost2010PropOp47
 70
     1
102
RTVSPost2010Prop48
 90
       50
102
RTVSPost2010PropOp48
 70
     1
102
RTVSPost2010Prop49
280
     0
102
RTVSPost2010PropOp49
 70
     1
102
RTVSPost2010Prop50
 90
       50
102
RTVSPost2010PropOp50
 70
     1
102
RTVSPost2010Prop51ColorIndex
 90
      256
102
RTVSPost2010Prop51ColorRGB
 90
-16777216
102
RTVSPost2010PropOp51
 70
     0
102
RTVSPost2010Prop52
140
1.0
102
RTVSPost2010PropOp52
 70
     0
102
RTVSPost2010Prop53
 90
        2
102
RTVSPost2010PropOp53
 70
     1
102
RTVSPost2010Prop54
  1
strokes_ogs.tif
102
RTVSPost2010PropOp54
 70
     1
102
RTVSPost2010Prop55
280
     0
102
RTVSPost2010PropOp55
 70
     1
102
RTVSPost2010Prop56
140
1.0
102
RTVSPost2010PropOp56
 70
     1
102
RTVSPost2010Prop57
140
1.0
102
RTVSPost2010PropOp57
 70
     1
  0
XRECORD
  5
121
102
{ACAD_REACTORS
330
120
102
}
330
120
100
AcDbXrecord
280
     1
102
RTVSPost2010Prop28
280
     0
102
RTVSPost2010PropOp28
 70
     1
102
RTVSPost2010Prop29
280
     1
102
RTVSPost2010PropOp29
 70
     1
102
RTVSPost2010Prop30
280
     1
102
RTVSPost2010PropOp30
 70
     1
102
RTVSPost2010Prop31
280
     0
102
RTVSPost2010PropOp31
 70
     1
102
RTVSPost2010Prop32
280
     0
102
RTVSPost2010PropOp32
 70
     1
102
RTVSPost2010Prop33
280
     0
102
RTVSPost2010PropOp33
 70
     1
102
RTVSPost2010Prop34
280
     0
102
RTVSPost2010PropOp34
 70
     1
102
RTVSPost2010Prop35
280
     0
102
RTVSPost2010PropOp35
 70
     1
102
RTVSPost2010Prop36
280
     0
102
RTVSPost2010PropOp36
 70
     1
102
RTVSPost2010Prop37
 90
       50
102
RTVSPost2010PropOp37
 70
     1
102
RTVSPost2010Prop38
140
0.0
102
RTVSPost2010PropOp38
 70
     1
102
RTVSPost2010Prop39
140
1.0
102
RTVSPost2010PropOp39
 70
     1
102
RTVSPost2010Prop40
 90
        0
102
RTVSPost2010PropOp40
 70
     1
102
RTVSPost2010Prop41ColorIndex
 90
       18
102
RTVSPost2010Prop41ColorRGB
 90
        0
102
RTVSPost2010PropOp41
 70
     1
102
RTVSPost2010Prop42
 90
       50
102
RTVSPost2010PropOp42
 70
     1
102
RTVSPost2010Prop43
 90
        3
102
RTVSPost2010PropOp43
 70
     1
102
RTVSPost2010Prop44ColorIndex
 90
        5
102
RTVSPost2010Prop44ColorRGB
 90
      255
102
RTVSPost2010PropOp44
 70
     1
102
RTVSPost2010Prop45
280
     0
102
RTVSPost2010PropOp45
 70
     1
102
RTVSPost2010Prop46
 90
       50
102
RTVSPost2010PropOp46
 70
     1
102
RTVSPost2010Prop47
 90
       50
102
RTVSPost2010PropOp47
 70
     1
102
RTVSPost2010Prop48
 90
       50
102
RTVSPost2010PropOp48
 70
     1
102
RTVSPost2010Prop49
280
     0
102
RTVSPost2010PropOp49
 70
     1
102
RTVSPost2010Prop50
 90
       50
102
RTVSPost2010PropOp50
 70
     1
102
RTVSPost2010Prop51ColorIndex
 90
      256
102
RTVSPost2010Prop51ColorRGB
 90
-16777216
102
RTVSPost2010PropOp51
 70
     0
102
RTVSPost2010Prop52
140
1.0
102
RTVSPost2010PropOp52
 70
     0
102
RTVSPost2010Prop53
 90
        2
102
RTVSPost2010PropOp53
 70
     1
102
RTVSPost2010Prop54
  1
strokes_ogs.tif
102
RTVSPost2010PropOp54
 70
     1
102
RTVSPost2010Prop55
280
     0
102
RTVSPost2010PropOp55
 70
     1
102
RTVSPost2010Prop56
140
1.0
102
RTVSPost2010PropOp56
 70
     1
102
RTVSPost2010Prop57
140
1.0
102
RTVSPost2010PropOp57
 70
     1
  0
XRECORD
  5
117
102
{ACAD_REACTORS
330
116
102
}
330
116
100
AcDbXrecord
280
     1
102
RTVSPost2010Prop28
280
     0
102
RTVSPost2010PropOp28
 70
     1
102
RTVSPost2010Prop29
280
     1
102
RTVSPost2010PropOp29
 70
     1
102
RTVSPost2010Prop30
280
     1
102
RTVSPost2010PropOp30
 70
     1
102
RTVSPost2010Prop31
280
     0
102
RTVSPost2010PropOp31
 70
     1
102
RTVSPost2010Prop32
280
     0
102
RTVSPost2010PropOp32
 70
     1
102
RTVSPost2010Prop33
280
     0
102
RTVSPost2010PropOp33
 70
     1
102
RTVSPost2010Prop34
280
     0
102
RTVSPost2010PropOp34
 70
     1
102
RTVSPost2010Prop35
280
     0
102
RTVSPost2010PropOp35
 70
     1
102
RTVSPost2010Prop36
280
     0
102
RTVSPost2010PropOp36
 70
     1
102
RTVSPost2010Prop37
 90
       50
102
RTVSPost2010PropOp37
 70
     1
102
RTVSPost2010Prop38
140
0.0
102
RTVSPost2010PropOp38
 70
     1
102
RTVSPost2010Prop39
140
1.0
102
RTVSPost2010PropOp39
 70
     1
102
RTVSPost2010Prop40
 90
        0
102
RTVSPost2010PropOp40
 70
     1
102
RTVSPost2010Prop41ColorIndex
 90
       18
102
RTVSPost2010Prop41ColorRGB
 90
        0
102
RTVSPost2010PropOp41
 70
     1
102
RTVSPost2010Prop42
 90
       50
102
RTVSPost2010PropOp42
 70
     1
102
RTVSPost2010Prop43
 90
        3
102
RTVSPost2010PropOp43
 70
     1
102
RTVSPost2010Prop44ColorIndex
 90
        5
102
RTVSPost2010Prop44ColorRGB
 90
      255
102
RTVSPost2010PropOp44
 70
     1
102
RTVSPost2010Prop45
280
     0
102
RTVSPost2010PropOp45
 70
     1
102
RTVSPost2010Prop46
 90
       50
102
RTVSPost2010PropOp46
 70
     1
102
RTVSPost2010Prop47
 90
       50
102
RTVSPost2010PropOp47
 70
     1
102
RTVSPost2010Prop48
 90
       50
102
RTVSPost2010PropOp48
 70
     1
102
RTVSPost2010Prop49
280
     0
102
RTVSPost2010PropOp49
 70
     1
102
RTVSPost2010Prop50
 90
       50
102
RTVSPost2010PropOp50
 70
     1
102
RTVSPost2010Prop51ColorIndex
 90
      256
102
RTVSPost2010Prop51ColorRGB
 90
-16777216
102
RTVSPost2010PropOp51
 70
     0
102
RTVSPost2010Prop52
140
1.0
102
RTVSPost2010PropOp52
 70
     0
102
RTVSPost2010Prop53
 90
        2
102
RTVSPost2010PropOp53
 70
     1
102
RTVSPost2010Prop54
  1
strokes_ogs.tif
102
RTVSPost2010PropOp54
 70
     1
102
RTVSPost2010Prop55
280
     0
102
RTVSPost2010PropOp55
 70
     1
102
RTVSPost2010Prop56
140
1.0
102
RTVSPost2010PropOp56
 70
     1
102
RTVSPost2010Prop57
140
1.0
102
RTVSPost2010PropOp57
 70
     1
  0
XRECORD
  5
10B
102
{ACAD_REACTORS
330
10A
102
}
330
10A
100
AcDbXrecord
280
     1
102
RTVSPost2010Prop28
280
     0
102
RTVSPost2010PropOp28
 70
     1
102
RTVSPost2010Prop29
280
     1
102
RTVSPost2010PropOp29
 70
     1
102
RTVSPost2010Prop30
280
     1
102
RTVSPost2010PropOp30
 70
     1
102
RTVSPost2010Prop31
280
     0
102
RTVSPost2010PropOp31
 70
     1
102
RTVSPost2010Prop32
280
     0
102
RTVSPost2010PropOp32
 70
     1
102
RTVSPost2010Prop33
280
     0
102
RTVSPost2010PropOp33
 70
     1
102
RTVSPost2010Prop34
280
     0
102
RTVSPost2010PropOp34
 70
     1
102
RTVSPost2010Prop35
280
     0
102
RTVSPost2010PropOp35
 70
     1
102
RTVSPost2010Prop36
280
     0
102
RTVSPost2010PropOp36
 70
     1
102
RTVSPost2010Prop37
 90
       50
102
RTVSPost2010PropOp37
 70
     1
102
RTVSPost2010Prop38
140
0.0
102
RTVSPost2010PropOp38
 70
     1
102
RTVSPost2010Prop39
140
1.0
102
RTVSPost2010PropOp39
 70
     1
102
RTVSPost2010Prop40
 90
        0
102
RTVSPost2010PropOp40
 70
     1
102
RTVSPost2010Prop41ColorIndex
 90
       18
102
RTVSPost2010Prop41ColorRGB
 90
        0
102
RTVSPost2010PropOp41
 70
     1
102
RTVSPost2010Prop42
 90
       50
102
RTVSPost2010PropOp42
 70
     1
102
RTVSPost2010Prop43
 90
        3
102
RTVSPost2010PropOp43
 70
     1
102
RTVSPost2010Prop44ColorIndex
 90
        5
102
RTVSPost2010Prop44ColorRGB
 90
      255
102
RTVSPost2010PropOp44
 70
     1
102
RTVSPost2010Prop45
280
     0
102
RTVSPost2010PropOp45
 70
     1
102
RTVSPost2010Prop46
 90
       50
102
RTVSPost2010PropOp46
 70
     1
102
RTVSPost2010Prop47
 90
       50
102
RTVSPost2010PropOp47
 70
     1
102
RTVSPost2010Prop48
 90
       50
102
RTVSPost2010PropOp48
 70
     1
102
RTVSPost2010Prop49
280
     0
102
RTVSPost2010PropOp49
 70
     1
102
RTVSPost2010Prop50
 90
       50
102
RTVSPost2010PropOp50
 70
     1
102
RTVSPost2010Prop51ColorIndex
 90
      256
102
RTVSPost2010Prop51ColorRGB
 90
-16777216
102
RTVSPost2010PropOp51
 70
     0
102
RTVSPost2010Prop52
140
1.0
102
RTVSPost2010PropOp52
 70
     0
102
RTVSPost2010Prop53
 90
        2
102
RTVSPost2010PropOp53
 70
     1
102
RTVSPost2010Prop54
  1
strokes_ogs.tif
102
RTVSPost2010PropOp54
 70
     1
102
RTVSPost2010Prop55
280
     0
102
RTVSPost2010PropOp55
 70
     1
102
RTVSPost2010Prop56
140
1.0
102
RTVSPost2010PropOp56
 70
     1
102
RTVSPost2010Prop57
140
1.0
102
RTVSPost2010PropOp57
 70
     1
  0
XRECORD
  5
123
102
{ACAD_REACTORS
330
122
102
}
330
122
100
AcDbXrecord
280
     1
102
RTVSPost2010Prop28
280
     0
102
RTVSPost2010PropOp28
 70
     1
102
RTVSPost2010Prop29
280
     1
102
RTVSPost2010PropOp29
 70
     1
102
RTVSPost2010Prop30
280
     1
102
RTVSPost2010PropOp30
 70
     1
102
RTVSPost2010Prop31
280
     0
102
RTVSPost2010PropOp31
 70
     1
102
RTVSPost2010Prop32
280
     0
102
RTVSPost2010PropOp32
 70
     1
102
RTVSPost2010Prop33
280
     0
102
RTVSPost2010PropOp33
 70
     1
102
RTVSPost2010Prop34
280
     0
102
RTVSPost2010PropOp34
 70
     1
102
RTVSPost2010Prop35
280
     0
102
RTVSPost2010PropOp35
 70
     1
102
RTVSPost2010Prop36
280
     0
102
RTVSPost2010PropOp36
 70
     1
102
RTVSPost2010Prop37
 90
       50
102
RTVSPost2010PropOp37
 70
     1
102
RTVSPost2010Prop38
140
0.0
102
RTVSPost2010PropOp38
 70
     1
102
RTVSPost2010Prop39
140
1.0
102
RTVSPost2010PropOp39
 70
     1
102
RTVSPost2010Prop40
 90
        0
102
RTVSPost2010PropOp40
 70
     1
102
RTVSPost2010Prop41ColorIndex
 90
       18
102
RTVSPost2010Prop41ColorRGB
 90
        0
102
RTVSPost2010PropOp41
 70
     1
102
RTVSPost2010Prop42
 90
       50
102
RTVSPost2010PropOp42
 70
     1
102
RTVSPost2010Prop43
 90
        3
102
RTVSPost2010PropOp43
 70
     1
102
RTVSPost2010Prop44ColorIndex
 90
        5
102
RTVSPost2010Prop44ColorRGB
 90
      255
102
RTVSPost2010PropOp44
 70
     1
102
RTVSPost2010Prop45
280
     0
102
RTVSPost2010PropOp45
 70
     1
102
RTVSPost2010Prop46
 90
       50
102
RTVSPost2010PropOp46
 70
     1
102
RTVSPost2010Prop47
 90
       50
102
RTVSPost2010PropOp47
 70
     1
102
RTVSPost2010Prop48
 90
       50
102
RTVSPost2010PropOp48
 70
     1
102
RTVSPost2010Prop49
280
     0
102
RTVSPost2010PropOp49
 70
     1
102
RTVSPost2010Prop50
 90
       50
102
RTVSPost2010PropOp50
 70
     1
102
RTVSPost2010Prop51ColorIndex
 90
      256
102
RTVSPost2010Prop51ColorRGB
 90
-16777216
102
RTVSPost2010PropOp51
 70
     0
102
RTVSPost2010Prop52
140
1.0
102
RTVSPost2010PropOp52
 70
     0
102
RTVSPost2010Prop53
 90
        2
102
RTVSPost2010PropOp53
 70
     1
102
RTVSPost2010Prop54
  1
strokes_ogs.tif
102
RTVSPost2010PropOp54
 70
     1
102
RTVSPost2010Prop55
280
     0
102
RTVSPost2010PropOp55
 70
     1
102
RTVSPost2010Prop56
140
1.0
102
RTVSPost2010PropOp56
 70
     1
102
RTVSPost2010Prop57
140
1.0
102
RTVSPost2010PropOp57
 70
     1
  0
ENDSEC
  0
EOF
