  0
SECTION
  2
HEADER
  9
$ACADVER
  1
AC1024
  9
$ACADMAINTVER
 70
   226
  9
$DWGCODEPAGE
  3
ANSI_1252
  9
$INSBASE
 10
0.0
 20
0.0
 30
0.0
  9
$EXTMIN
 10
1.000000000000000E+20
 20
1.000000000000000E+20
 30
1.000000000000000E+20
  9
$EXTMAX
 10
-1.000000000000000E+20
 20
-1.000000000000000E+20
 30
-1.000000000000000E+20
  9
$LIMMIN
 10
0.0
 20
0.0
  9
$LIMMAX
 10
12.0
 20
9.0
  9
$ORTHOMODE
 70
     0
  9
$REGENMODE
 70
     1
  9
$FILLMODE
 70
     1
  9
$QTEXTMODE
 70
     0
  9
$MIRRTEXT
 70
     0
  9
$LTSCALE
 40
1.0
  9
$ATTMODE
 70
     1
  9
$TEXTSIZE
 40
0.2
  9
$TRACEWID
 40
0.05
  9
$TEXTSTYLE
  7
Standard
  9
$CLAYER
  8
0
  9
$CELTYPE
  6
ByLayer
  9
$CECOLOR
 62
   256
  9
$CELTSCALE
 40
1.0
  9
$DISPSILH
 70
     0
  9
$DIMSCALE
 40
1.0
  9
$DIMASZ
 40
0.18
  9
$DIMEXO
 40
0.0625
  9
$DIMDLI
 40
0.38
  9
$DIMRND
 40
0.0
  9
$DIMDLE
 40
0.0
  9
$DIMEXE
 40
0.18
  9
$DIMTP
 40
0.0
  9
$DIMTM
 40
0.0
  9
$DIMTXT
 40
0.18
  9
$DIMCEN
 40
0.09
  9
$DIMTSZ
 40
0.0
  9
$DIMTOL
 70
     0
  9
$DIMLIM
 70
     0
  9
$DIMTIH
 70
     1
  9
$DIMTOH
 70
     1
  9
$DIMSE1
 70
     0
  9
$DIMSE2
 70
     0
  9
$DIMTAD
 70
     0
  9
$DIMZIN
 70
     0
  9
$DIMBLK
  1

  9
$DIMASO
 70
     1
  9
$DIMSHO
 70
     1
  9
$DIMPOST
  1

  9
$DIMAPOST
  1

  9
$DIMALT
 70
     0
  9
$DIMALTD
 70
     2
  9
$DIMALTF
 40
25.4
  9
$DIMLFAC
 40
1.0
  9
$DIMTOFL
 70
     0
  9
$DIMTVP
 40
0.0
  9
$DIMTIX
 70
     0
  9
$DIMSOXD
 70
     0
  9
$DIMSAH
 70
     0
  9
$DIMBLK1
  1

  9
$DIMBLK2
  1

  9
$DIMSTYLE
  2
Standard
  9
$DIMCLRD
 70
     0
  9
$DIMCLRE
 70
     0
  9
$DIMCLRT
 70
     0
  9
$DIMTFAC
 40
1.0
  9
$DIMGAP
 40
0.09
  9
$DIMJUST
 70
     0
  9
$DIMSD1
 70
     0
  9
$DIMSD2
 70
     0
  9
$DIMTOLJ
 70
     1
  9
$DIMTZIN
 70
     0
  9
$DIMALTZ
 70
     0
  9
$DIMALTTZ
 70
     0
  9
$DIMUPT
 70
     0
  9
$DIMDEC
 70
     4
  9
$DIMTDEC
 70
     4
  9
$DIMALTU
 70
     2
  9
$DIMALTTD
 70
     2
  9
$DIMTXSTY
  7
Standard
  9
$DIMAUNIT
 70
     0
  9
$DIMADEC
 70
     0
  9
$DIMALTRND
 40
0.0
  9
$DIMAZIN
 70
     0
  9
$DIMDSEP
 70
    46
  9
$DIMATFIT
 70
     3
  9
$DIMFRAC
 70
     0
  9
$DIMLDRBLK
  1

  9
$DIMLUNIT
 70
     2
  9
$DIMLWD
 70
    -2
  9
$DIMLWE
 70
    -2
  9
$DIMTMOVE
 70
     0
  9
$DIMFXL
 40
1.0
  9
$DIMFXLON
 70
     0
  9
$DIMJOGANG
 40
0.7853981633974483
  9
$DIMTFILL
 70
     0
  9
$DIMTFILLCLR
 70
     0
  9
$DIMARCSYM
 70
     0
  9
$DIMLTYPE
  6

  9
$DIMLTEX1
  6

  9
$DIMLTEX2
  6

  9
$DIMTXTDIRECTION
 70
     0
  9
$LUNITS
 70
     2
  9
$LUPREC
 70
     4
  9
$SKETCHINC
 40
0.1
  9
$FILLETRAD
 40
0.0
  9
$AUNITS
 70
     0
  9
$AUPREC
 70
     0
  9
$MENU
  1
.
  9
$ELEVATION
 40
0.0
  9
$PELEVATION
 40
0.0
  9
$THICKNESS
 40
0.0
  9
$LIMCHECK
 70
     0
  9
$CHAMFERA
 40
0.0
  9
$CHAMFERB
 40
0.0
  9
$CHAMFERC
 40
0.0
  9
$CHAMFERD
 40
0.0
  9
$SKPOLY
 70
     0
  9
$TDCREATE
 40
2459620.805428241
  9
$TDUCREATE
 40
2459620.763761574
  9
$TDUPDATE
 40
2459620.805428241
  9
$TDUUPDATE
 40
2459620.763761574
  9
$TDINDWG
 40
0.0000000000
  9
$TDUSRTIMER
 40
0.0000000000
  9
$USRTIMER
 70
     1
  9
$ANGBASE
 50
0.0
  9
$ANGDIR
 70
     0
  9
$PDMODE
 70
     0
  9
$PDSIZE
 40
0.0
  9
$PLINEWID
 40
0.0
  9
$SPLFRAME
 70
     0
  9
$SPLINETYPE
 70
     6
  9
$SPLINESEGS
 70
     8
  9
$HANDSEED
  5
1A6
  9
$SURFTAB1
 70
     6
  9
$SURFTAB2
 70
     6
  9
$SURFTYPE
 70
     6
  9
$SURFU
 70
     6
  9
$SURFV
 70
     6
  9
$UCSBASE
  2

  9
$UCSNAME
  2

  9
$UCSORG
 10
0.0
 20
0.0
 30
0.0
  9
$UCSXDIR
 10
1.0
 20
0.0
 30
0.0
  9
$UCSYDIR
 10
0.0
 20
1.0
 30
0.0
  9
$UCSORTHOREF
  2

  9
$UCSORTHOVIEW
 70
     0
  9
$UCSORGTOP
 10
0.0
 20
0.0
 30
0.0
  9
$UCSORGBOTTOM
 10
0.0
 20
0.0
 30
0.0
  9
$UCSORGLEFT
 10
0.0
 20
0.0
 30
0.0
  9
$UCSORGRIGHT
 10
0.0
 20
0.0
 30
0.0
  9
$UCSORGFRONT
 10
0.0
 20
0.0
 30
0.0
  9
$UCSORGBACK
 10
0.0
 20
0.0
 30
0.0
  9
$PUCSBASE
  2

  9
$PUCSNAME
  2

  9
$PUCSORG
 10
0.0
 20
0.0
 30
0.0
  9
$PUCSXDIR
 10
1.0
 20
0.0
 30
0.0
  9
$PUCSYDIR
 10
0.0
 20
1.0
 30
0.0
  9
$PUCSORTHOREF
  2

  9
$PUCSORTHOVIEW
 70
     0
  9
$PUCSORGTOP
 10
0.0
 20
0.0
 30
0.0
  9
$PUCSORGBOTTOM
 10
0.0
 20
0.0
 30
0.0
  9
$PUCSORGLEFT
 10
0.0
 20
0.0
 30
0.0
  9
$PUCSORGRIGHT
 10
0.0
 20
0.0
 30
0.0
  9
$PUCSORGFRONT
 10
0.0
 20
0.0
 30
0.0
  9
$PUCSORGBACK
 10
0.0
 20
0.0
 30
0.0
  9
$USERI1
 70
     0
  9
$USERI2
 70
     0
  9
$USERI3
 70
     0
  9
$USERI4
 70
     0
  9
$USERI5
 70
     0
  9
$USERR1
 40
0.0
  9
$USERR2
 40
0.0
  9
$USERR3
 40
0.0
  9
$USERR4
 40
0.0
  9
$USERR5
 40
0.0
  9
$WORLDVIEW
 70
     1
  9
$SHADEDGE
 70
     3
  9
$SHADEDIF
 70
    70
  9
$TILEMODE
 70
     1
  9
$MAXACTVP
 70
    64
  9
$PINSBASE
 10
0.0
 20
0.0
 30
0.0
  9
$PLIMCHECK
 70
     0
  9
$PEXTMIN
 10
1.000000000000000E+20
 20
1.000000000000000E+20
 30
1.000000000000000E+20
  9
$PEXTMAX
 10
-1.000000000000000E+20
 20
-1.000000000000000E+20
 30
-1.000000000000000E+20
  9
$PLIMMIN
 10
0.0
 20
0.0
  9
$PLIMMAX
 10
12.0
 20
9.0
  9
$UNITMODE
 70
     0
  9
$VISRETAIN
 70
     1
  9
$PLINEGEN
 70
     0
  9
$PSLTSCALE
 70
     1
  9
$TREEDEPTH
 70
  3020
  9
$CMLSTYLE
  2
Standard
  9
$CMLJUST
 70
     0
  9
$CMLSCALE
 40
1.0
  9
$PROXYGRAPHICS
 70
     1
  9
$MEASUREMENT
 70
     0
  9
$CELWEIGHT
370
    -1
  9
$ENDCAPS
280
     0
  9
$JOINSTYLE
280
     0
  9
$LWDISPLAY
290
     1
  9
$INSUNITS
 70
     4
  9
$HYPERLINKBASE
  1

  9
$STYLESHEET
  1

  9
$XEDIT
290
     1
  9
$CEPSNTYPE
380
     0
  9
$PSTYLEMODE
290
     1
  9
$FINGERPRINTGUID
  2
{E770A29C-54D2-354F-AD14-A78FC66D515B}
  9
$VERSIONGUID
  2
{81B01A47-E043-CC4F-A5EB-817AE2B9BCDB}
  9
$EXTNAMES
290
     1
  9
$PSVPSCALE
 40
0.0
  9
$OLESTARTUP
290
     0
  9
$SORTENTS
280
   127
  9
$INDEXCTL
280
     0
  9
$HIDETEXT
280
     1
  9
$XCLIPFRAME
280
     2
  9
$HALOGAP
280
     0
  9
$OBSCOLOR
 70
   257
  9
$OBSLTYPE
280
     0
  9
$INTERSECTIONDISPLAY
280
     0
  9
$INTERSECTIONCOLOR
 70
   257
  9
$DIMASSOC
280
     2
  9
$PROJECTNAME
  1

  9
$CAMERADISPLAY
290
     0
  9
$LENSLENGTH
 40
50.0
  9
$CAMERAHEIGHT
 40
0.0
  9
$STEPSPERSEC
 40
2.0
  9
$STEPSIZE
 40
6.0
  9
$3DDWFPREC
 40
2.0
  9
$PSOLWIDTH
 40
0.25
  9
$PSOLHEIGHT
 40
4.0
  9
$LOFTANG1
 40
1.570796326794896
  9
$LOFTANG2
 40
1.570796326794896
  9
$LOFTMAG1
 40
0.0
  9
$LOFTMAG2
 40
0.0
  9
$LOFTPARAM
 70
     7
  9
$LOFTNORMALS
280
     1
  9
$LATITUDE
 40
37.795
  9
$LONGITUDE
 40
-122.394
  9
$NORTHDIRECTION
 40
0.0
  9
$TIMEZONE
 70
 -8000
  9
$LIGHTGLYPHDISPLAY
280
     1
  9
$TILEMODELIGHTSYNCH
280
     1
  9
$CMATERIAL
347
11
  9
$SOLIDHIST
280
     0
  9
$SHOWHIST
280
     1
  9
$DWFFRAME
280
     2
  9
$DGNFRAME
280
     0
  9
$REALWORLDSCALE
290
     1
  9
$INTERFERECOLOR
 62
     1
  9
$INTERFEREOBJVS
345
33
  9
$INTERFEREVPVS
346
30
  9
$CSHADOW
280
     0
  9
$SHADOWPLANELOCATION
 40
0.0
  0
ENDSEC
  0
SECTION
  2
CLASSES
  0
CLASS
  1
ACDBDICTIONARYWDFLT
  2
AcDbDictionaryWithDefault
  3
ObjectDBX Classes
 90
        0
 91
        1
280
     0
281
     0
  0
CLASS
  1
MATERIAL
  2
AcDbMaterial
  3
ObjectDBX Classes
 90
     1153
 91
        3
280
     0
281
     0
  0
CLASS
  1
VISUALSTYLE
  2
AcDbVisualStyle
  3
ObjectDBX Classes
 90
     4095
 91
       24
280
     0
281
     0
  0
CLASS
  1
SCALE
  2
AcDbScale
  3
ObjectDBX Classes
 90
     1153
 91
       17
280
     0
281
     0
  0
CLASS
  1
TABLESTYLE
  2
AcDbTableStyle
  3
ObjectDBX Classes
 90
     4095
 91
        1
280
     0
281
     0
  0
CLASS
  1
MLEADERSTYLE
  2
AcDbMLeaderStyle
  3
ACDB_MLEADERSTYLE_CLASS
 90
     4095
 91
        1
280
     0
281
     0
  0
CLASS
  1
ACDBSECTIONVIEWSTYLE
  2
AcDbSectionViewStyle
  3
ObjectDBX Classes
 90
     1025
 91
        1
280
     0
281
     0
  0
CLASS
  1
ACDBDETAILVIEWSTYLE
  2
AcDbDetailViewStyle
  3
ObjectDBX Classes
 90
     1025
 91
        1
280
     0
281
     0
  0
CLASS
  1
DICTIONARYVAR
  2
AcDbDictionaryVar
  3
ObjectDBX Classes
 90
        0
 91
        5
280
     0
281
     0
  0
CLASS
  1
CELLSTYLEMAP
  2
AcDbCellStyleMap
  3
ObjectDBX Classes
 90
     1152
 91
        1
280
     0
281
     0
  0
ENDSEC
  0
SECTION
  2
TABLES
  0
TABLE
  2
VPORT
  5
8
330
0
100
AcDbSymbolTable
 70
     1
  0
VPORT
  5
57
330
8
100
AcDbSymbolTableRecord
100
AcDbViewportTableRecord
  2
*Active
 70
     0
 10
0.0
 20
0.0
 11
1.0
 21
1.0
 12
0.0
 22
0.0
 13
0.0
 23
0.0
 14
1.0
 24
1.0
 15
0.0
 25
0.0
 16
0.0
 26
0.0
 36
1.0
 17
104.9999999737534
 27
-148.4999999628701
 37
0.0
 40
302.939999924255
 41
0.7070707070707534
 42
50.0
 43
0.0
 44
0.0
 50
0.0
 51
0.0
 71
     0
 72
   100
 73
     1
 74
     1
 75
     0
 76
     0
 77
     0
 78
     0
281
     0
 65
     1
110
0.0
120
0.0
130
0.0
111
1.0
121
0.0
131
0.0
112
0.0
122
1.0
132
0.0
 79
     0
146
0.0
 60
     3
 61
     5
292
     1
282
     1
141
0.0
142
0.0
 63
   250
421
  3355443
  0
ENDTAB
  0
TABLE
  2
LTYPE
  5
5
330
0
100
AcDbSymbolTable
 70
     1
  0
LTYPE
  5
5B
330
5
100
AcDbSymbolTableRecord
100
AcDbLinetypeTableRecord
  2
ByBlock
 70
     0
  3

 72
    65
 73
     0
 40
0.0
  0
LTYPE
  5
5C
330
5
100
AcDbSymbolTableRecord
100
AcDbLinetypeTableRecord
  2
ByLayer
 70
     0
  3

 72
    65
 73
     0
 40
0.0
  0
LTYPE
  5
5D
330
5
100
AcDbSymbolTableRecord
100
AcDbLinetypeTableRecord
  2
Continuous
 70
     0
  3
Solid line
 72
    65
 73
     0
 40
0.0
  0
ENDTAB
  0
TABLE
  2
LAYER
  5
2
330
0
100
AcDbSymbolTable
 70
     2
  0
LAYER
  5
54
330
2
100
AcDbSymbolTableRecord
100
AcDbLayerTableRecord
  2
0
 70
     0
 62
     7
  6
Continuous
370
    -3
390
F
347
21
  0
LAYER
  5
78
330
2
100
AcDbSymbolTableRecord
100
AcDbLayerTableRecord
  2
Capa 1
 70
     0
 62
     7
  6
Continuous
370
     0
390
F
347
21
  0
ENDTAB
  0
TABLE
  2
STYLE
  5
3
330
0
100
AcDbSymbolTable
 70
     2
  0
STYLE
  5
55
330
3
100
AcDbSymbolTableRecord
100
AcDbTextStyleTableRecord
  2
Standard
 70
     0
 40
0.0
 41
1.0
 50
0.0
 71
     0
 42
0.2
  3
txt
  4

  0
STYLE
  5
5A
330
3
100
AcDbSymbolTableRecord
100
AcDbTextStyleTableRecord
  2
Annotative
 70
     0
 40
0.0
 41
1.0
 50
0.0
 71
     0
 42
0.2
  3
txt
  4

1001
AcadAnnotative
1000
AnnotativeData
1002
{
1070
     1
1070
     1
1002
}
  0
ENDTAB
  0
TABLE
  2
VIEW
  5
6
330
0
100
AcDbSymbolTable
 70
     0
  0
ENDTAB
  0
TABLE
  2
UCS
  5
7
330
0
100
AcDbSymbolTable
 70
     0
  0
ENDTAB
  0
TABLE
  2
APPID
  5
9
330
0
100
AcDbSymbolTable
 70
     2
  0
APPID
  5
56
330
9
100
AcDbSymbolTableRecord
100
AcDbRegAppTableRecord
  2
ACAD
 70
     0
  0
APPID
  5
5E
330
9
100
AcDbSymbolTableRecord
100
AcDbRegAppTableRecord
  2
AcadAnnotative
 70
     0
  0
ENDTAB
  0
TABLE
  2
DIMSTYLE
  5
A
330
0
100
AcDbSymbolTable
 70
     2
100
AcDbDimStyleTable
 71
     0
  0
DIMSTYLE
105
58
330
A
100
AcDbSymbolTableRecord
100
AcDbDimStyleTableRecord
  2
Standard
 70
     0
340
55
  0
DIMSTYLE
105
59
330
A
100
AcDbSymbolTableRecord
100
AcDbDimStyleTableRecord
  2
Annotative
 70
     0
340
55
1001
AcadAnnotative
1000
AnnotativeData
1002
{
1070
     1
1070
     1
1002
}
  0
ENDTAB
  0
TABLE
  2
BLOCK_RECORD
  5
1
330
0
100
AcDbSymbolTable
 70
     1
  0
BLOCK_RECORD
  5
70
330
1
100
AcDbSymbolTableRecord
100
AcDbBlockTableRecord
  2
*Model_Space
340
73
 70
     0
280
     1
281
     0
  0
BLOCK_RECORD
  5
6C
330
1
100
AcDbSymbolTableRecord
100
AcDbBlockTableRecord
  2
*Paper_Space
340
6F
 70
     0
280
     1
281
     0
  0
BLOCK_RECORD
  5
74
330
1
100
AcDbSymbolTableRecord
100
AcDbBlockTableRecord
  2
*Paper_Space0
340
77
 70
     0
280
     1
281
     0
  0
ENDTAB
  0
ENDSEC
  0
SECTION
  2
BLOCKS
  0
BLOCK
  5
71
330
70
100
AcDbEntity
  8
0
100
AcDbBlockBegin
  2
*Model_Space
 70
     0
 10
0.0
 20
0.0
 30
0.0
  3
*Model_Space
  1

  0
ENDBLK
  5
72
330
70
100
AcDbEntity
  8
0
100
AcDbBlockEnd
  0
BLOCK
  5
6D
330
6C
100
AcDbEntity
 67
     1
  8
0
100
AcDbBlockBegin
  2
*Paper_Space
 70
     0
 10
0.0
 20
0.0
 30
0.0
  3
*Paper_Space
  1

  0
ENDBLK
  5
6E
330
6C
100
AcDbEntity
 67
     1
  8
0
100
AcDbBlockEnd
  0
BLOCK
  5
75
330
74
100
AcDbEntity
 67
     1
  8
0
100
AcDbBlockBegin
  2
*Paper_Space0
 70
     0
 10
0.0
 20
0.0
 30
0.0
  3
*Paper_Space0
  1

  0
ENDBLK
  5
76
330
74
100
AcDbEntity
 67
     1
  8
0
100
AcDbBlockEnd
  0
ENDSEC
  0
SECTION
  2
ENTITIES
  0
MTEXT
  5
79
330
70
100
AcDbEntity
  8
Capa 1
100
AcDbMText
 10
118.7377998467747
 20
-86.98285022310953
 30
0.0
 40
0.2
 41
0.0
 46
0.0
 71
     7
 72
     1
  1
\C18;\c0;\FArial Bold|b1|i0|c1;\H2.499665;\W0.999201;  800  
 11
0.0000000000448963
 21
-1.0
 31
0.0
 73
     1
 44
1.0
  0
MTEXT
  5
7A
330
70
100
AcDbEntity
  8
Capa 1
100
AcDbMText
 10
88.71747451259711
 20
-53.41119665294088
 30
0.0
 40
0.2
 41
0.0
 46
0.0
 71
     7
 72
     1
  1
\C18;\c0;\FArial Bold|b1|i0|c1;\H2.499665;\W0.999201;  400  
 73
     1
 44
1.0
  0
MTEXT
  5
7B
330
70
100
AcDbEntity
  8
Capa 1
100
AcDbMText
 10
89.96970212594508
 20
-222.0230610080488
 30
0.0
 40
0.2
 41
0.0
 46
0.0
 71
     7
 72
     1
  1
\C18;\c0;\FArial Bold|b1|i0|c1;\H2.499665;\W0.999201;  365  
 73
     1
 44
1.0
  0
SPLINE
  5
7C
330
70
100
AcDbEntity
  8
Capa 1
 62
    18
420
        0
370
     9
100
AcDbSpline
210
0.0
220
0.0
230
1.0
 70
    11
 71
     3
 72
    14
 73
    10
 74
     0
 42
0.0000000001
 43
0.0000000001
 40
0.0
 40
0.0
 40
0.0
 40
0.0
 40
1.0
 40
1.0
 40
1.0
 40
2.0
 40
2.0
 40
2.0
 40
3.0
 40
3.0
 40
3.0
 40
3.0
 10
110.1830740464381
 20
-54.41591597145492
 30
0.0
 10
110.1830740464381
 20
-54.41591597145492
 30
0.0
 10
108.1369618592461
 20
-54.73342458411426
 30
0.0
 10
108.1369618592461
 20
-54.73342458411426
 30
0.0
 10
108.1369618592461
 20
-54.73342458411426
 30
0.0
 10
108.1369618592461
 20
-54.09842889064236
 30
0.0
 10
108.1369618592461
 20
-54.09842889064236
 30
0.0
 10
108.1369618592461
 20
-54.09842889064236
 30
0.0
 10
110.1830740464381
 20
-54.41591597145492
 30
0.0
 10
110.1830740464381
 20
-54.41591597145492
 30
0.0
  0
SPLINE
  5
7D
330
70
100
AcDbEntity
  8
Capa 1
 62
    18
420
        0
370
     9
100
AcDbSpline
210
0.0
220
0.0
230
1.0
 70
    11
 71
     3
 72
    14
 73
    10
 74
     0
 42
0.0000000001
 43
0.0000000001
 40
0.0
 40
0.0
 40
0.0
 40
0.0
 40
1.0
 40
1.0
 40
1.0
 40
2.0
 40
2.0
 40
2.0
 40
3.0
 40
3.0
 40
3.0
 40
3.0
 10
76.84557943773416
 20
-54.41591597145492
 30
0.0
 10
76.84557943773416
 20
-54.41591597145492
 30
0.0
 10
78.8916862419644
 20
-54.09842889064236
 30
0.0
 10
78.8916862419644
 20
-54.09842889064236
 30
0.0
 10
78.8916862419644
 20
-54.09842889064236
 30
0.0
 10
78.8916862419644
 20
-54.73342458411426
 30
0.0
 10
78.8916862419644
 20
-54.73342458411426
 30
0.0
 10
78.8916862419644
 20
-54.73342458411426
 30
0.0
 10
76.84557943773416
 20
-54.41591597145492
 30
0.0
 10
76.84557943773416
 20
-54.41591597145492
 30
0.0
  0
SPLINE
  5
7E
330
70
100
AcDbEntity
  8
Capa 1
 62
    18
420
        0
370
     9
100
AcDbSpline
210
0.0
220
0.0
230
1.0
 70
    11
 71
     3
 72
    14
 73
    10
 74
     0
 42
0.0000000001
 43
0.0000000001
 40
0.0
 40
0.0
 40
0.0
 40
0.0
 40
1.0
 40
1.0
 40
1.0
 40
2.0
 40
2.0
 40
2.0
 40
3.0
 40
3.0
 40
3.0
 40
3.0
 10
78.08239476963237
 20
-222.6865227598172
 30
0.0
 10
78.08239476963237
 20
-222.6865227598172
 30
0.0
 10
80.12850695682429
 20
-222.3690141471578
 30
0.0
 10
80.12850695682429
 20
-222.3690141471578
 30
0.0
 10
80.12850695682429
 20
-222.3690141471578
 30
0.0
 10
80.12850695682429
 20
-223.0040206065531
 30
0.0
 10
80.12850695682429
 20
-223.0040206065531
 30
0.0
 10
80.12850695682429
 20
-223.0040206065531
 30
0.0
 10
78.08239476963237
 20
-222.6865227598172
 30
0.0
 10
78.08239476963237
 20
-222.6865227598172
 30
0.0
  0
SPLINE
  5
7F
330
70
100
AcDbEntity
  8
Capa 1
 62
    18
420
        0
370
     9
100
AcDbSpline
210
0.0
220
0.0
230
1.0
 70
    11
 71
     3
 72
    14
 73
    10
 74
     0
 42
0.0000000001
 43
0.0000000001
 40
0.0
 40
0.0
 40
0.0
 40
0.0
 40
1.0
 40
1.0
 40
1.0
 40
2.0
 40
2.0
 40
2.0
 40
3.0
 40
3.0
 40
3.0
 40
3.0
 10
110.2204524703381
 20
-222.6865227598172
 30
0.0
 10
110.2204524703381
 20
-222.6865227598172
 30
0.0
 10
108.1743402831462
 20
-223.0040206065531
 30
0.0
 10
108.1743402831462
 20
-223.0040206065531
 30
0.0
 10
108.1743402831462
 20
-223.0040206065531
 30
0.0
 10
108.1743402831462
 20
-222.3690141471578
 30
0.0
 10
108.1743402831462
 20
-222.3690141471578
 30
0.0
 10
108.1743402831462
 20
-222.3690141471578
 30
0.0
 10
110.2204524703381
 20
-222.6865227598172
 30
0.0
 10
110.2204524703381
 20
-222.6865227598172
 30
0.0
  0
SPLINE
  5
80
330
70
100
AcDbEntity
  8
Capa 1
 62
    18
420
        0
370
     9
100
AcDbSpline
210
0.0
220
0.0
230
1.0
 70
    11
 71
     3
 72
    14
 73
    10
 74
     0
 42
0.0000000001
 43
0.0000000001
 40
0.0
 40
0.0
 40
0.0
 40
0.0
 40
1.0
 40
1.0
 40
1.0
 40
2.0
 40
2.0
 40
2.0
 40
3.0
 40
3.0
 40
3.0
 40
3.0
 10
118.0676541480232
 20
-125.7828776236701
 30
0.0
 10
118.0676541480232
 20
-125.7828776236701
 30
0.0
 10
117.7501563013797
 20
-123.7367600535027
 30
0.0
 10
117.7501563013797
 20
-123.7367600535027
 30
0.0
 10
117.7501563013797
 20
-123.7367600535027
 30
0.0
 10
118.3851573778133
 20
-123.7367600535313
 30
0.0
 10
118.3851573778133
 20
-123.7367600535313
 30
0.0
 10
118.3851573778133
 20
-123.7367600535313
 30
0.0
 10
118.0676541480232
 20
-125.7828776236701
 30
0.0
 10
118.0676541480232
 20
-125.7828776236701
 30
0.0
  0
SPLINE
  5
81
330
70
100
AcDbEntity
  8
Capa 1
 62
    18
420
        0
370
     9
100
AcDbSpline
210
0.0
220
0.0
230
1.0
 70
    11
 71
     3
 72
    14
 73
    10
 74
     0
 42
0.0000000001
 43
0.0000000001
 40
0.0
 40
0.0
 40
0.0
 40
0.0
 40
1.0
 40
1.0
 40
1.0
 40
2.0
 40
2.0
 40
2.0
 40
3.0
 40
3.0
 40
3.0
 40
3.0
 10
118.0676541510174
 20
-59.10787764033921
 30
0.0
 10
118.0676541510174
 20
-59.10787764033921
 30
0.0
 10
118.3851573806214
 20
-61.1892751414609
 30
0.0
 10
118.3851573806214
 20
-61.1892751414609
 30
0.0
 10
118.3851573806214
 20
-61.1892751414609
 30
0.0
 10
117.7501563041878
 20
-61.18927514143234
 30
0.0
 10
117.7501563041878
 20
-61.18927514143234
 30
0.0
 10
117.7501563041878
 20
-61.18927514143234
 30
0.0
 10
118.0676541510174
 20
-59.10787764033921
 30
0.0
 10
118.0676541510174
 20
-59.10787764033921
 30
0.0
  0
SPLINE
  5
82
330
70
100
AcDbEntity
  8
Capa 1
 62
    18
420
        0
370
     9
100
AcDbSpline
210
0.0
220
0.0
230
1.0
 70
    24
 71
     3
 72
     8
 73
     4
 74
     0
 42
0.0000000001
 43
0.0000000001
 40
0.0
 40
0.0
 40
0.0
 40
0.0
 40
1.0
 40
1.0
 40
1.0
 40
1.0
 10
110.1830740464381
 20
-58.12010416904233
 30
0.0
 10
110.1830740464381
 20
-58.12010416904233
 30
0.0
 10
110.1830740464381
 20
-53.42816403214023
 30
0.0
 10
110.1830740464381
 20
-53.42816403214023
 30
0.0
  0
SPLINE
  5
83
330
70
100
AcDbEntity
  8
Capa 1
 62
    18
420
        0
370
     9
100
AcDbSpline
210
0.0
220
0.0
230
1.0
 70
    24
 71
     3
 72
     8
 73
     4
 74
     0
 42
0.0000000001
 43
0.0000000001
 40
0.0
 40
0.0
 40
0.0
 40
0.0
 40
1.0
 40
1.0
 40
1.0
 40
1.0
 10
76.84557943773416
 20
-58.12010416904233
 30
0.0
 10
76.84557943773416
 20
-58.12010416904233
 30
0.0
 10
76.84557943773416
 20
-53.42816403214023
 30
0.0
 10
76.84557943773416
 20
-53.42816403214023
 30
0.0
  0
SPLINE
  5
84
330
70
100
AcDbEntity
  8
Capa 1
 62
    18
420
        0
370
     9
100
AcDbSpline
210
0.0
220
0.0
230
1.0
 70
    24
 71
     3
 72
     8
 73
     4
 74
     0
 42
0.0000000001
 43
0.0000000001
 40
0.0
 40
0.0
 40
0.0
 40
0.0
 40
1.0
 40
1.0
 40
1.0
 40
1.0
 10
110.1830740464381
 20
-54.4159375033017
 30
0.0
 10
110.1830740464381
 20
-54.4159375033017
 30
0.0
 10
76.84557943773416
 20
-54.4159375033017
 30
0.0
 10
76.84557943773416
 20
-54.4159375033017
 30
0.0
  0
SPLINE
  5
85
330
70
100
AcDbEntity
  8
Capa 1
 62
    18
420
        0
370
     9
100
AcDbSpline
210
0.0
220
0.0
230
1.0
 70
    24
 71
     3
 72
     8
 73
     4
 74
     0
 42
0.0000000001
 43
0.0000000001
 40
0.0
 40
0.0
 40
0.0
 40
0.0
 40
1.0
 40
1.0
 40
1.0
 40
1.0
 10
78.08239476963237
 20
-216.2659628994974
 30
0.0
 10
78.08239476963237
 20
-216.2659628994974
 30
0.0
 10
78.08239476963237
 20
-223.6742962309787
 30
0.0
 10
78.08239476963237
 20
-223.6742962309787
 30
0.0
  0
SPLINE
  5
86
330
70
100
AcDbEntity
  8
Capa 1
 62
    18
420
        0
370
     9
100
AcDbSpline
210
0.0
220
0.0
230
1.0
 70
    24
 71
     3
 72
     8
 73
     4
 74
     0
 42
0.0000000001
 43
0.0000000001
 40
0.0
 40
0.0
 40
0.0
 40
0.0
 40
1.0
 40
1.0
 40
1.0
 40
1.0
 10
110.2204524703381
 20
-216.2659628994974
 30
0.0
 10
110.2204524703381
 20
-216.2659628994974
 30
0.0
 10
110.2204524703381
 20
-223.6742962309787
 30
0.0
 10
110.2204524703381
 20
-223.6742962309787
 30
0.0
  0
SPLINE
  5
87
330
70
100
AcDbEntity
  8
Capa 1
 62
    18
420
        0
370
     9
100
AcDbSpline
210
0.0
220
0.0
230
1.0
 70
    24
 71
     3
 72
     8
 73
     4
 74
     0
 42
0.0000000001
 43
0.0000000001
 40
0.0
 40
0.0
 40
0.0
 40
0.0
 40
1.0
 40
1.0
 40
1.0
 40
1.0
 10
78.08239476963237
 20
-222.6865227598172
 30
0.0
 10
78.08239476963237
 20
-222.6865227598172
 30
0.0
 10
110.2204524703381
 20
-222.6865227598172
 30
0.0
 10
110.2204524703381
 20
-222.6865227598172
 30
0.0
  0
SPLINE
  5
88
330
70
100
AcDbEntity
  8
Capa 1
 62
    18
420
        0
370
     9
100
AcDbSpline
210
0.0
220
0.0
230
1.0
 70
    24
 71
     3
 72
     8
 73
     4
 74
     0
 42
0.0000000001
 43
0.0000000001
 40
0.0
 40
0.0
 40
0.0
 40
0.0
 40
1.0
 40
1.0
 40
1.0
 40
1.0
 10
120.4665387299431
 20
-125.7828776237144
 30
0.0
 10
120.4665387299431
 20
-125.7828776237144
 30
0.0
 10
112.4584842529819
 20
-125.782877623355
 30
0.0
 10
112.4584842529819
 20
-125.782877623355
 30
0.0
  0
SPLINE
  5
89
330
70
100
AcDbEntity
  8
Capa 1
 62
    18
420
        0
370
     9
100
AcDbSpline
210
0.0
220
0.0
230
1.0
 70
    24
 71
     3
 72
     8
 73
     4
 74
     0
 42
0.0000000001
 43
0.0000000001
 40
0.0
 40
0.0
 40
0.0
 40
0.0
 40
1.0
 40
1.0
 40
1.0
 40
1.0
 10
120.4665387329372
 20
-59.10787764038349
 30
0.0
 10
120.4665387329372
 20
-59.10787764038349
 30
0.0
 10
112.458484255976
 20
-59.10787764002414
 30
0.0
 10
112.458484255976
 20
-59.10787764002414
 30
0.0
  0
SPLINE
  5
8A
330
70
100
AcDbEntity
  8
Capa 1
 62
    18
420
        0
370
     9
100
AcDbSpline
210
0.0
220
0.0
230
1.0
 70
    24
 71
     3
 72
     8
 73
     4
 74
     0
 42
0.0000000001
 43
0.0000000001
 40
0.0
 40
0.0
 40
0.0
 40
0.0
 40
1.0
 40
1.0
 40
1.0
 40
1.0
 10
118.0676541510174
 20
-59.10787764033921
 30
0.0
 10
118.0676541510174
 20
-59.10787764033921
 30
0.0
 10
118.0676541480232
 20
-125.7828776236701
 30
0.0
 10
118.0676541480232
 20
-125.7828776236701
 30
0.0
  0
SPLINE
  5
8B
330
70
100
AcDbEntity
  8
Capa 1
100
AcDbSpline
210
0.0
220
0.0
230
1.0
 70
     8
 71
     3
 72
    11
 73
     7
 74
     0
 42
0.0000000001
 43
0.0000000001
 40
0.0
 40
0.0
 40
0.0
 40
0.0
 40
1.0
 40
1.0
 40
1.0
 40
2.0
 40
2.0
 40
2.0
 40
2.0
 10
110.1830740464381
 20
-54.41591597145492
 30
0.0
 10
110.1830740464381
 20
-54.41591597145492
 30
0.0
 10
108.1369618592461
 20
-54.73342458411426
 30
0.0
 10
108.1369618592461
 20
-54.73342458411426
 30
0.0
 10
108.1369618592461
 20
-54.73342458411426
 30
0.0
 10
108.1369618592461
 20
-54.09842889064236
 30
0.0
 10
108.1369618592461
 20
-54.09842889064236
 30
0.0
  0
SPLINE
  5
8C
330
70
100
AcDbEntity
  8
Capa 1
100
AcDbSpline
210
0.0
220
0.0
230
1.0
 70
     8
 71
     3
 72
    11
 73
     7
 74
     0
 42
0.0000000001
 43
0.0000000001
 40
0.0
 40
0.0
 40
0.0
 40
0.0
 40
1.0
 40
1.0
 40
1.0
 40
2.0
 40
2.0
 40
2.0
 40
2.0
 10
76.84557943773416
 20
-54.41591597145492
 30
0.0
 10
76.84557943773416
 20
-54.41591597145492
 30
0.0
 10
78.8916862419644
 20
-54.09842889064236
 30
0.0
 10
78.8916862419644
 20
-54.09842889064236
 30
0.0
 10
78.8916862419644
 20
-54.09842889064236
 30
0.0
 10
78.8916862419644
 20
-54.73342458411426
 30
0.0
 10
78.8916862419644
 20
-54.73342458411426
 30
0.0
  0
HATCH
  5
8D
330
70
100
AcDbEntity
  8
Capa 1
 62
    18
420
        0
440
 33554687
100
AcDbHatch
 10
0.0
 20
0.0
 30
0.0
210
0.0
220
0.0
230
1.0
  2
SOLID
 70
     1
 71
     1
 91
        2
 92
        1
 93
        2
 72
     4
 94
        3
 73
     0
 74
     0
 95
       11
 96
        7
 40
0.0
 40
0.0
 40
0.0
 40
0.0
 40
1.0
 40
1.0
 40
1.0
 40
2.0
 40
2.0
 40
2.0
 40
2.0
 10
110.1830740464381
 20
-54.41591597145492
 10
110.1830740464381
 20
-54.41591597145492
 10
108.1369618592461
 20
-54.73342458411426
 10
108.1369618592461
 20
-54.73342458411426
 10
108.1369618592461
 20
-54.73342458411426
 10
108.1369618592461
 20
-54.09842889064236
 10
108.1369618592461
 20
-54.09842889064236
 97
        0
 72
     1
 10
108.1369618592461
 20
-54.09842889064236
 11
110.1830740464381
 21
-54.41591597145492
 97
        0
 92
        1
 93
        2
 72
     4
 94
        3
 73
     0
 74
     0
 95
       11
 96
        7
 40
0.0
 40
0.0
 40
0.0
 40
0.0
 40
1.0
 40
1.0
 40
1.0
 40
2.0
 40
2.0
 40
2.0
 40
2.0
 10
76.84557943773416
 20
-54.41591597145492
 10
76.84557943773416
 20
-54.41591597145492
 10
78.8916862419644
 20
-54.09842889064236
 10
78.8916862419644
 20
-54.09842889064236
 10
78.8916862419644
 20
-54.09842889064236
 10
78.8916862419644
 20
-54.73342458411426
 10
78.8916862419644
 20
-54.73342458411426
 97
        0
 72
     1
 10
78.8916862419644
 20
-54.73342458411426
 11
76.84557943773416
 21
-54.41591597145492
 97
        0
 75
     2
 76
     1
 98
        1
 10
0.0
 20
0.0
450
        0
451
        0
460
0.0
461
0.0
452
        0
462
0.0
453
        0
470

  0
SPLINE
  5
8E
330
70
100
AcDbEntity
  8
Capa 1
100
AcDbSpline
210
0.0
220
0.0
230
1.0
 70
     8
 71
     3
 72
    11
 73
     7
 74
     0
 42
0.0000000001
 43
0.0000000001
 40
0.0
 40
0.0
 40
0.0
 40
0.0
 40
1.0
 40
1.0
 40
1.0
 40
2.0
 40
2.0
 40
2.0
 40
2.0
 10
78.08239476963237
 20
-222.6865227598172
 30
0.0
 10
78.08239476963237
 20
-222.6865227598172
 30
0.0
 10
80.12850695682429
 20
-222.3690141471578
 30
0.0
 10
80.12850695682429
 20
-222.3690141471578
 30
0.0
 10
80.12850695682429
 20
-222.3690141471578
 30
0.0
 10
80.12850695682429
 20
-223.0040206065531
 30
0.0
 10
80.12850695682429
 20
-223.0040206065531
 30
0.0
  0
SPLINE
  5
8F
330
70
100
AcDbEntity
  8
Capa 1
100
AcDbSpline
210
0.0
220
0.0
230
1.0
 70
     8
 71
     3
 72
    11
 73
     7
 74
     0
 42
0.0000000001
 43
0.0000000001
 40
0.0
 40
0.0
 40
0.0
 40
0.0
 40
1.0
 40
1.0
 40
1.0
 40
2.0
 40
2.0
 40
2.0
 40
2.0
 10
110.2204524703381
 20
-222.6865227598172
 30
0.0
 10
110.2204524703381
 20
-222.6865227598172
 30
0.0
 10
108.1743402831462
 20
-223.0040206065531
 30
0.0
 10
108.1743402831462
 20
-223.0040206065531
 30
0.0
 10
108.1743402831462
 20
-223.0040206065531
 30
0.0
 10
108.1743402831462
 20
-222.3690141471578
 30
0.0
 10
108.1743402831462
 20
-222.3690141471578
 30
0.0
  0
HATCH
  5
90
330
70
100
AcDbEntity
  8
Capa 1
 62
    18
420
        0
440
 33554687
100
AcDbHatch
 10
0.0
 20
0.0
 30
0.0
210
0.0
220
0.0
230
1.0
  2
SOLID
 70
     1
 71
     1
 91
        2
 92
        1
 93
        2
 72
     4
 94
        3
 73
     0
 74
     0
 95
       11
 96
        7
 40
0.0
 40
0.0
 40
0.0
 40
0.0
 40
1.0
 40
1.0
 40
1.0
 40
2.0
 40
2.0
 40
2.0
 40
2.0
 10
78.08239476963237
 20
-222.6865227598172
 10
78.08239476963237
 20
-222.6865227598172
 10
80.12850695682429
 20
-222.3690141471578
 10
80.12850695682429
 20
-222.3690141471578
 10
80.12850695682429
 20
-222.3690141471578
 10
80.12850695682429
 20
-223.0040206065531
 10
80.12850695682429
 20
-223.0040206065531
 97
        0
 72
     1
 10
80.12850695682429
 20
-223.0040206065531
 11
78.08239476963237
 21
-222.6865227598172
 97
        0
 92
        1
 93
        2
 72
     4
 94
        3
 73
     0
 74
     0
 95
       11
 96
        7
 40
0.0
 40
0.0
 40
0.0
 40
0.0
 40
1.0
 40
1.0
 40
1.0
 40
2.0
 40
2.0
 40
2.0
 40
2.0
 10
110.2204524703381
 20
-222.6865227598172
 10
110.2204524703381
 20
-222.6865227598172
 10
108.1743402831462
 20
-223.0040206065531
 10
108.1743402831462
 20
-223.0040206065531
 10
108.1743402831462
 20
-223.0040206065531
 10
108.1743402831462
 20
-222.3690141471578
 10
108.1743402831462
 20
-222.3690141471578
 97
        0
 72
     1
 10
108.1743402831462
 20
-222.3690141471578
 11
110.2204524703381
 21
-222.6865227598172
 97
        0
 75
     2
 76
     1
 98
        1
 10
0.0
 20
0.0
450
        0
451
        0
460
0.0
461
0.0
452
        0
462
0.0
453
        0
470

  0
SPLINE
  5
91
330
70
100
AcDbEntity
  8
Capa 1
100
AcDbSpline
210
0.0
220
0.0
230
1.0
 70
     8
 71
     3
 72
    11
 73
     7
 74
     0
 42
0.0000000001
 43
0.0000000001
 40
0.0
 40
0.0
 40
0.0
 40
0.0
 40
1.0
 40
1.0
 40
1.0
 40
2.0
 40
2.0
 40
2.0
 40
2.0
 10
117.7501563013797
 20
-123.7367600535027
 30
0.0
 10
117.7501563013797
 20
-123.7367600535027
 30
0.0
 10
118.3851573778133
 20
-123.7367600535313
 30
0.0
 10
118.3851573778133
 20
-123.7367600535313
 30
0.0
 10
118.3851573778133
 20
-123.7367600535313
 30
0.0
 10
118.0676541480232
 20
-125.7828776236701
 30
0.0
 10
118.0676541480232
 20
-125.7828776236701
 30
0.0
  0
SPLINE
  5
92
330
70
100
AcDbEntity
  8
Capa 1
100
AcDbSpline
210
0.0
220
0.0
230
1.0
 70
     8
 71
     3
 72
    11
 73
     7
 74
     0
 42
0.0000000001
 43
0.0000000001
 40
0.0
 40
0.0
 40
0.0
 40
0.0
 40
1.0
 40
1.0
 40
1.0
 40
2.0
 40
2.0
 40
2.0
 40
2.0
 10
118.3851573806214
 20
-61.1892751414609
 30
0.0
 10
118.3851573806214
 20
-61.1892751414609
 30
0.0
 10
117.7501563041878
 20
-61.18927514143234
 30
0.0
 10
117.7501563041878
 20
-61.18927514143234
 30
0.0
 10
117.7501563041878
 20
-61.18927514143234
 30
0.0
 10
118.0676541510174
 20
-59.10787764033921
 30
0.0
 10
118.0676541510174
 20
-59.10787764033921
 30
0.0
  0
HATCH
  5
93
330
70
100
AcDbEntity
  8
Capa 1
 62
    18
420
        0
440
 33554687
100
AcDbHatch
 10
0.0
 20
0.0
 30
0.0
210
0.0
220
0.0
230
1.0
  2
SOLID
 70
     1
 71
     1
 91
        2
 92
        1
 93
        2
 72
     4
 94
        3
 73
     0
 74
     0
 95
       11
 96
        7
 40
0.0
 40
0.0
 40
0.0
 40
0.0
 40
1.0
 40
1.0
 40
1.0
 40
2.0
 40
2.0
 40
2.0
 40
2.0
 10
117.7501563013797
 20
-123.7367600535027
 10
117.7501563013797
 20
-123.7367600535027
 10
118.3851573778133
 20
-123.7367600535313
 10
118.3851573778133
 20
-123.7367600535313
 10
118.3851573778133
 20
-123.7367600535313
 10
118.0676541480232
 20
-125.7828776236701
 10
118.0676541480232
 20
-125.7828776236701
 97
        0
 72
     1
 10
118.0676541480232
 20
-125.7828776236701
 11
117.7501563013797
 21
-123.7367600535027
 97
        0
 92
        1
 93
        2
 72
     4
 94
        3
 73
     0
 74
     0
 95
       11
 96
        7
 40
0.0
 40
0.0
 40
0.0
 40
0.0
 40
1.0
 40
1.0
 40
1.0
 40
2.0
 40
2.0
 40
2.0
 40
2.0
 10
118.3851573806214
 20
-61.1892751414609
 10
118.3851573806214
 20
-61.1892751414609
 10
117.7501563041878
 20
-61.18927514143234
 10
117.7501563041878
 20
-61.18927514143234
 10
117.7501563041878
 20
-61.18927514143234
 10
118.0676541510174
 20
-59.10787764033921
 10
118.0676541510174
 20
-59.10787764033921
 97
        0
 72
     1
 10
118.0676541510174
 20
-59.10787764033921
 11
118.3851573806214
 21
-61.1892751414609
 97
        0
 75
     2
 76
     1
 98
        1
 10
0.0
 20
0.0
450
        0
451
        0
460
0.0
461
0.0
452
        0
462
0.0
453
        0
470

  0
SPLINE
  5
94
330
70
100
AcDbEntity
  8
Capa 1
 62
    18
420
        0
370
     9
100
AcDbSpline
210
0.0
220
0.0
230
1.0
 70
    24
 71
     3
 72
     8
 73
     4
 74
     0
 42
0.0000000001
 43
0.0000000001
 40
0.0
 40
0.0
 40
0.0
 40
0.0
 40
1.0
 40
1.0
 40
1.0
 40
1.0
 10
110.1830740464381
 20
-59.10787764020381
 30
0.0
 10
110.1830740464381
 20
-59.10787764020381
 30
0.0
 10
76.84557136329162
 20
-59.10787764020381
 30
0.0
 10
76.84557136329162
 20
-59.10787764020381
 30
0.0
  0
SPLINE
  5
95
330
70
100
AcDbEntity
  8
Capa 1
 62
    18
420
        0
370
     9
100
AcDbSpline
210
0.0
220
0.0
230
1.0
 70
    24
 71
     3
 72
     8
 73
     4
 74
     0
 42
0.0000000001
 43
0.0000000001
 40
0.0
 40
0.0
 40
0.0
 40
0.0
 40
1.0
 40
1.0
 40
1.0
 40
1.0
 10
110.1830740464381
 20
-125.7828776235347
 30
0.0
 10
110.1830740464381
 20
-125.7828776235347
 30
0.0
 10
110.1830740464381
 20
-59.10787764020381
 30
0.0
 10
110.1830740464381
 20
-59.10787764020381
 30
0.0
  0
SPLINE
  5
96
330
70
100
AcDbEntity
  8
Capa 1
 62
    18
420
        0
370
     9
100
AcDbSpline
210
0.0
220
0.0
230
1.0
 70
    24
 71
     3
 72
     8
 73
     4
 74
     0
 42
0.0000000001
 43
0.0000000001
 40
0.0
 40
0.0
 40
0.0
 40
0.0
 40
1.0
 40
1.0
 40
1.0
 40
1.0
 10
76.84557136329162
 20
-125.7828776235347
 30
0.0
 10
76.84557136329162
 20
-125.7828776235347
 30
0.0
 10
110.1830740464381
 20
-125.7828776235347
 30
0.0
 10
110.1830740464381
 20
-125.7828776235347
 30
0.0
  0
SPLINE
  5
97
330
70
100
AcDbEntity
  8
Capa 1
 62
    18
420
        0
370
     9
100
AcDbSpline
210
0.0
220
0.0
230
1.0
 70
    24
 71
     3
 72
     8
 73
     4
 74
     0
 42
0.0000000001
 43
0.0000000001
 40
0.0
 40
0.0
 40
0.0
 40
0.0
 40
1.0
 40
1.0
 40
1.0
 40
1.0
 10
76.84557136329162
 20
-59.10787764020381
 30
0.0
 10
76.84557136329162
 20
-59.10787764020381
 30
0.0
 10
76.84557136329162
 20
-125.7828776235347
 30
0.0
 10
76.84557136329162
 20
-125.7828776235347
 30
0.0
  0
SPLINE
  5
98
330
70
100
AcDbEntity
  8
Capa 1
 62
    18
420
        0
370
     9
100
AcDbSpline
210
0.0
220
0.0
230
1.0
 70
    24
 71
     3
 72
    17
 73
    13
 74
     0
 42
0.0000000001
 43
0.0000000001
 40
0.0
 40
0.0
 40
0.0
 40
0.0
 40
1.0
 40
1.0
 40
1.0
 40
2.0
 40
2.0
 40
2.0
 40
3.0
 40
3.0
 40
3.0
 40
4.0
 40
4.0
 40
4.0
 40
4.0
 10
80.05795516935958
 20
-177.4956872845969
 30
0.0
 10
80.05795516935958
 20
-177.4956872845969
 30
0.0
 10
80.05795516935958
 20
-177.4956872845969
 30
0.0
 10
80.05795516935958
 20
-177.4956872845969
 30
0.0
 10
80.05795516935958
 20
-177.4956872845969
 30
0.0
 10
80.05795516935958
 20
-177.4604181195666
 30
0.0
 10
80.05795516935958
 20
-177.4604181195666
 30
0.0
 10
80.05795516935958
 20
-177.4604181195666
 30
0.0
 10
80.05795516935958
 20
-177.425138188613
 30
0.0
 10
80.05795516935958
 20
-177.425138188613
 30
0.0
 10
80.05795516935958
 20
-177.425138188613
 30
0.0
 10
80.05795516935958
 20
-177.3898582576594
 30
0.0
 10
80.05795516935958
 20
-177.3898582576594
 30
0.0
  0
SPLINE
  5
99
330
70
100
AcDbEntity
  8
Capa 1
 62
    18
420
        0
370
     9
100
AcDbSpline
210
0.0
220
0.0
230
1.0
 70
    24
 71
     3
 72
     8
 73
     4
 74
     0
 42
0.0000000001
 43
0.0000000001
 40
0.0
 40
0.0
 40
0.0
 40
0.0
 40
1.0
 40
1.0
 40
1.0
 40
1.0
 10
81.57490069001712
 20
-177.4956872845969
 30
0.0
 10
81.57490069001712
 20
-177.4956872845969
 30
0.0
 10
80.05795516935958
 20
-177.4956872845969
 30
0.0
 10
80.05795516935958
 20
-177.4956872845969
 30
0.0
  0
SPLINE
  5
9A
330
70
100
AcDbEntity
  8
Capa 1
 62
    18
420
        0
370
     9
100
AcDbSpline
210
0.0
220
0.0
230
1.0
 70
    24
 71
     3
 72
    14
 73
    10
 74
     0
 42
0.0000000001
 43
0.0000000001
 40
0.0
 40
0.0
 40
0.0
 40
0.0
 40
1.0
 40
1.0
 40
1.0
 40
2.0
 40
2.0
 40
2.0
 40
3.0
 40
3.0
 40
3.0
 40
3.0
 10
81.57490069001712
 20
-177.3898582576594
 30
0.0
 10
81.57490069001712
 20
-177.3898582576594
 30
0.0
 10
81.57490069001712
 20
-177.425138188613
 30
0.0
 10
81.57490069001712
 20
-177.425138188613
 30
0.0
 10
81.57490069001712
 20
-177.425138188613
 30
0.0
 10
81.57490069001712
 20
-177.4604181195666
 30
0.0
 10
81.57490069001712
 20
-177.4604181195666
 30
0.0
 10
81.57490069001712
 20
-177.4604181195666
 30
0.0
 10
81.57490069001712
 20
-177.4956872845969
 30
0.0
 10
81.57490069001712
 20
-177.4956872845969
 30
0.0
  0
SPLINE
  5
9B
330
70
100
AcDbEntity
  8
Capa 1
 62
    18
420
        0
370
     9
100
AcDbSpline
210
0.0
220
0.0
230
1.0
 70
    24
 71
     3
 72
     8
 73
     4
 74
     0
 42
0.0000000001
 43
0.0000000001
 40
0.0
 40
0.0
 40
0.0
 40
0.0
 40
1.0
 40
1.0
 40
1.0
 40
1.0
 10
80.05795516935958
 20
-177.3898582576594
 30
0.0
 10
80.05795516935958
 20
-177.3898582576594
 30
0.0
 10
81.57490069001712
 20
-177.3898582576594
 30
0.0
 10
81.57490069001712
 20
-177.3898582576594
 30
0.0
  0
SPLINE
  5
9C
330
70
100
AcDbEntity
  8
Capa 1
 62
    18
420
        0
370
     9
100
AcDbSpline
210
0.0
220
0.0
230
1.0
 70
    24
 71
     3
 72
     8
 73
     4
 74
     0
 42
0.0000000001
 43
0.0000000001
 40
0.0
 40
0.0
 40
0.0
 40
0.0
 40
1.0
 40
1.0
 40
1.0
 40
1.0
 10
80.05795516935958
 20
-169.2406894398453
 30
0.0
 10
80.05795516935958
 20
-169.2406894398453
 30
0.0
 10
80.05795516935958
 20
-177.3898582576594
 30
0.0
 10
80.05795516935958
 20
-177.3898582576594
 30
0.0
  0
SPLINE
  5
9D
330
70
100
AcDbEntity
  8
Capa 1
 62
    18
420
        0
370
     9
100
AcDbSpline
210
0.0
220
0.0
230
1.0
 70
    24
 71
     3
 72
     8
 73
     4
 74
     0
 42
0.0000000001
 43
0.0000000001
 40
0.0
 40
0.0
 40
0.0
 40
0.0
 40
1.0
 40
1.0
 40
1.0
 40
1.0
 10
81.57490069001712
 20
-177.3898582576594
 30
0.0
 10
81.57490069001712
 20
-177.3898582576594
 30
0.0
 10
81.57490069001712
 20
-169.2406894398453
 30
0.0
 10
81.57490069001712
 20
-169.2406894398453
 30
0.0
  0
SPLINE
  5
9E
330
70
100
AcDbEntity
  8
Capa 1
 62
    18
420
        0
370
     9
100
AcDbSpline
210
0.0
220
0.0
230
1.0
 70
    24
 71
     3
 72
     8
 73
     4
 74
     0
 42
0.0000000001
 43
0.0000000001
 40
0.0
 40
0.0
 40
0.0
 40
0.0
 40
1.0
 40
1.0
 40
1.0
 40
1.0
 10
81.57490069001712
 20
-169.2406894398453
 30
0.0
 10
81.57490069001712
 20
-169.2406894398453
 30
0.0
 10
80.05795516935958
 20
-169.2406894398453
 30
0.0
 10
80.05795516935958
 20
-169.2406894398453
 30
0.0
  0
SPLINE
  5
9F
330
70
100
AcDbEntity
  8
Capa 1
 62
    18
420
        0
370
     9
100
AcDbSpline
210
0.0
220
0.0
230
1.0
 70
    24
 71
     3
 72
    14
 73
    10
 74
     0
 42
0.0000000001
 43
0.0000000001
 40
0.0
 40
0.0
 40
0.0
 40
0.0
 40
1.0
 40
1.0
 40
1.0
 40
2.0
 40
2.0
 40
2.0
 40
3.0
 40
3.0
 40
3.0
 40
3.0
 10
79.98740069041399
 20
-169.2406894398453
 30
0.0
 10
79.98740069041399
 20
-169.2406894398453
 30
0.0
 10
79.98740069041399
 20
-169.2406894398453
 30
0.0
 10
79.98740069041399
 20
-169.2406894398453
 30
0.0
 10
79.98740069041399
 20
-169.2406894398453
 30
0.0
 10
80.02267792988678
 20
-169.2406894398453
 30
0.0
 10
80.02267792988678
 20
-169.2406894398453
 30
0.0
 10
80.02267792988678
 20
-169.2406894398453
 30
0.0
 10
80.05795516935958
 20
-169.2406894398453
 30
0.0
 10
80.05795516935958
 20
-169.2406894398453
 30
0.0
  0
SPLINE
  5
A0
330
70
100
AcDbEntity
  8
Capa 1
 62
    18
420
        0
370
     9
100
AcDbSpline
210
0.0
220
0.0
230
1.0
 70
    24
 71
     3
 72
     8
 73
     4
 74
     0
 42
0.0000000001
 43
0.0000000001
 40
0.0
 40
0.0
 40
0.0
 40
0.0
 40
1.0
 40
1.0
 40
1.0
 40
1.0
 10
79.98740069041399
 20
-177.3898582576594
 30
0.0
 10
79.98740069041399
 20
-177.3898582576594
 30
0.0
 10
79.98740069041399
 20
-169.2406894398453
 30
0.0
 10
79.98740069041399
 20
-169.2406894398453
 30
0.0
  0
SPLINE
  5
A1
330
70
100
AcDbEntity
  8
Capa 1
 62
    18
420
        0
370
     9
100
AcDbSpline
210
0.0
220
0.0
230
1.0
 70
    24
 71
     3
 72
    14
 73
    10
 74
     0
 42
0.0000000001
 43
0.0000000001
 40
0.0
 40
0.0
 40
0.0
 40
0.0
 40
1.0
 40
1.0
 40
1.0
 40
2.0
 40
2.0
 40
2.0
 40
3.0
 40
3.0
 40
3.0
 40
3.0
 10
79.98740069041399
 20
-177.3898582576594
 30
0.0
 10
79.98740069041399
 20
-177.3898582576594
 30
0.0
 10
79.98740069041399
 20
-177.3898582576594
 30
0.0
 10
79.98740069041399
 20
-177.3898582576594
 30
0.0
 10
79.98740069041399
 20
-177.3898582576594
 30
0.0
 10
80.02267792988678
 20
-177.3898582576594
 30
0.0
 10
80.02267792988678
 20
-177.3898582576594
 30
0.0
 10
80.02267792988678
 20
-177.3898582576594
 30
0.0
 10
80.05795516935958
 20
-177.3898582576594
 30
0.0
 10
80.05795516935958
 20
-177.3898582576594
 30
0.0
  0
SPLINE
  5
A2
330
70
100
AcDbEntity
  8
Capa 1
 62
    18
420
        0
370
     9
100
AcDbSpline
210
0.0
220
0.0
230
1.0
 70
    24
 71
     3
 72
    14
 73
    10
 74
     0
 42
0.0000000001
 43
0.0000000001
 40
0.0
 40
0.0
 40
0.0
 40
0.0
 40
1.0
 40
1.0
 40
1.0
 40
2.0
 40
2.0
 40
2.0
 40
3.0
 40
3.0
 40
3.0
 40
3.0
 10
81.57490069001712
 20
-169.2406894398453
 30
0.0
 10
81.57490069001712
 20
-169.2406894398453
 30
0.0
 10
81.57490069001712
 20
-169.2406894398453
 30
0.0
 10
81.57490069001712
 20
-169.2406894398453
 30
0.0
 10
81.57490069001712
 20
-169.2406894398453
 30
0.0
 10
81.61017792948991
 20
-169.2406894398453
 30
0.0
 10
81.61017792948991
 20
-169.2406894398453
 30
0.0
 10
81.61017792948991
 20
-169.2406894398453
 30
0.0
 10
81.6454551689627
 20
-169.2406894398453
 30
0.0
 10
81.6454551689627
 20
-169.2406894398453
 30
0.0
  0
SPLINE
  5
A3
330
70
100
AcDbEntity
  8
Capa 1
 62
    18
420
        0
370
     9
100
AcDbSpline
210
0.0
220
0.0
230
1.0
 70
    24
 71
     3
 72
    14
 73
    10
 74
     0
 42
0.0000000001
 43
0.0000000001
 40
0.0
 40
0.0
 40
0.0
 40
0.0
 40
1.0
 40
1.0
 40
1.0
 40
2.0
 40
2.0
 40
2.0
 40
3.0
 40
3.0
 40
3.0
 40
3.0
 10
81.57490069001712
 20
-177.3898582576594
 30
0.0
 10
81.57490069001712
 20
-177.3898582576594
 30
0.0
 10
81.57490069001712
 20
-177.3898582576594
 30
0.0
 10
81.57490069001712
 20
-177.3898582576594
 30
0.0
 10
81.57490069001712
 20
-177.3898582576594
 30
0.0
 10
81.61017792948991
 20
-177.3898582576594
 30
0.0
 10
81.61017792948991
 20
-177.3898582576594
 30
0.0
 10
81.61017792948991
 20
-177.3898582576594
 30
0.0
 10
81.6454551689627
 20
-177.3898582576594
 30
0.0
 10
81.6454551689627
 20
-177.3898582576594
 30
0.0
  0
SPLINE
  5
A4
330
70
100
AcDbEntity
  8
Capa 1
 62
    18
420
        0
370
     9
100
AcDbSpline
210
0.0
220
0.0
230
1.0
 70
    24
 71
     3
 72
     8
 73
     4
 74
     0
 42
0.0000000001
 43
0.0000000001
 40
0.0
 40
0.0
 40
0.0
 40
0.0
 40
1.0
 40
1.0
 40
1.0
 40
1.0
 10
81.6454551689627
 20
-169.2406894398453
 30
0.0
 10
81.6454551689627
 20
-169.2406894398453
 30
0.0
 10
81.6454551689627
 20
-177.3898582576594
 30
0.0
 10
81.6454551689627
 20
-177.3898582576594
 30
0.0
  0
SPLINE
  5
A5
330
70
100
AcDbEntity
  8
Capa 1
 62
    18
420
        0
370
     9
100
AcDbSpline
210
0.0
220
0.0
230
1.0
 70
    24
 71
     3
 72
    11
 73
     7
 74
     0
 42
0.0000000001
 43
0.0000000001
 40
0.0
 40
0.0
 40
0.0
 40
0.0
 40
1.0
 40
1.0
 40
1.0
 40
2.0
 40
2.0
 40
2.0
 40
2.0
 10
80.05795516935958
 20
-169.2406894398453
 30
0.0
 10
80.05795516935958
 20
-169.2406894398453
 30
0.0
 10
80.05795516935958
 20
-169.2054095088917
 30
0.0
 10
80.05795516935958
 20
-169.2054095088917
 30
0.0
 10
80.05795516935958
 20
-169.2054095088917
 30
0.0
 10
80.05795516935958
 20
-169.1701403438614
 30
0.0
 10
80.05795516935958
 20
-169.1701403438614
 30
0.0
  0
SPLINE
  5
A6
330
70
100
AcDbEntity
  8
Capa 1
 62
    18
420
        0
370
     9
100
AcDbSpline
210
0.0
220
0.0
230
1.0
 70
    24
 71
     3
 72
    14
 73
    10
 74
     0
 42
0.0000000001
 43
0.0000000001
 40
0.0
 40
0.0
 40
0.0
 40
0.0
 40
1.0
 40
1.0
 40
1.0
 40
2.0
 40
2.0
 40
2.0
 40
3.0
 40
3.0
 40
3.0
 40
3.0
 10
81.57490069001712
 20
-169.1701403438614
 30
0.0
 10
81.57490069001712
 20
-169.1701403438614
 30
0.0
 10
81.57490069001712
 20
-169.1701403438614
 30
0.0
 10
81.57490069001712
 20
-169.1701403438614
 30
0.0
 10
81.57490069001712
 20
-169.1701403438614
 30
0.0
 10
81.57490069001712
 20
-169.2054095088917
 30
0.0
 10
81.57490069001712
 20
-169.2054095088917
 30
0.0
 10
81.57490069001712
 20
-169.2054095088917
 30
0.0
 10
81.57490069001712
 20
-169.2406894398453
 30
0.0
 10
81.57490069001712
 20
-169.2406894398453
 30
0.0
  0
SPLINE
  5
A7
330
70
100
AcDbEntity
  8
Capa 1
 62
    18
420
        0
370
     9
100
AcDbSpline
210
0.0
220
0.0
230
1.0
 70
    24
 71
     3
 72
     8
 73
     4
 74
     0
 42
0.0000000001
 43
0.0000000001
 40
0.0
 40
0.0
 40
0.0
 40
0.0
 40
1.0
 40
1.0
 40
1.0
 40
1.0
 10
81.57490069001712
 20
-169.1701403438614
 30
0.0
 10
81.57490069001712
 20
-169.1701403438614
 30
0.0
 10
80.05795516935958
 20
-169.1701403438614
 30
0.0
 10
80.05795516935958
 20
-169.1701403438614
 30
0.0
  0
SPLINE
  5
A8
330
70
100
AcDbEntity
  8
Capa 1
 62
    18
420
        0
370
     9
100
AcDbSpline
210
0.0
220
0.0
230
1.0
 70
     8
 71
     3
 72
    20
 73
    16
 74
     0
 42
0.0000000001
 43
0.0000000001
 40
0.0
 40
0.0
 40
0.0
 40
0.0
 40
1.0
 40
1.0
 40
1.0
 40
2.0
 40
2.0
 40
2.0
 40
3.0
 40
3.0
 40
3.0
 40
4.0
 40
4.0
 40
4.0
 40
5.0
 40
5.0
 40
5.0
 40
5.0
 10
79.98740069041399
 20
-177.3898582576594
 30
0.0
 10
79.98740069041399
 20
-177.3898582576594
 30
0.0
 10
79.98740069041399
 20
-177.425138188613
 30
0.0
 10
79.98740069041399
 20
-177.425138188613
 30
0.0
 10
79.98740069041399
 20
-177.425138188613
 30
0.0
 10
79.98740069041399
 20
-177.4604181195666
 30
0.0
 10
79.98740069041399
 20
-177.4604181195666
 30
0.0
 10
79.98740069041399
 20
-177.4604181195666
 30
0.0
 10
80.02267792988678
 20
-177.4604181195666
 30
0.0
 10
80.02267792988678
 20
-177.4604181195666
 30
0.0
 10
80.02267792988678
 20
-177.4604181195666
 30
0.0
 10
80.02267792988678
 20
-177.4956872845969
 30
0.0
 10
80.02267792988678
 20
-177.4956872845969
 30
0.0
 10
80.02267792988678
 20
-177.4956872845969
 30
0.0
 10
80.05795516935958
 20
-177.4956872845969
 30
0.0
 10
80.05795516935958
 20
-177.4956872845969
 30
0.0
  0
SPLINE
  5
A9
330
70
100
AcDbEntity
  8
Capa 1
 62
    18
420
        0
370
     9
100
AcDbSpline
210
0.0
220
0.0
230
1.0
 70
     8
 71
     3
 72
    23
 73
    19
 74
     0
 42
0.0000000001
 43
0.0000000001
 40
0.0
 40
0.0
 40
0.0
 40
0.0
 40
1.0
 40
1.0
 40
1.0
 40
2.0
 40
2.0
 40
2.0
 40
3.0
 40
3.0
 40
3.0
 40
4.0
 40
4.0
 40
4.0
 40
5.0
 40
5.0
 40
5.0
 40
6.0
 40
6.0
 40
6.0
 40
6.0
 10
81.57490069001712
 20
-177.4956872845969
 30
0.0
 10
81.57490069001712
 20
-177.4956872845969
 30
0.0
 10
81.57490069001712
 20
-177.4956872845969
 30
0.0
 10
81.57490069001712
 20
-177.4956872845969
 30
0.0
 10
81.57490069001712
 20
-177.4956872845969
 30
0.0
 10
81.61017792948991
 20
-177.4956872845969
 30
0.0
 10
81.61017792948991
 20
-177.4956872845969
 30
0.0
 10
81.61017792948991
 20
-177.4956872845969
 30
0.0
 10
81.61017792948991
 20
-177.4604181195666
 30
0.0
 10
81.61017792948991
 20
-177.4604181195666
 30
0.0
 10
81.61017792948991
 20
-177.4604181195666
 30
0.0
 10
81.6454551689627
 20
-177.4604181195666
 30
0.0
 10
81.6454551689627
 20
-177.4604181195666
 30
0.0
 10
81.6454551689627
 20
-177.4604181195666
 30
0.0
 10
81.6454551689627
 20
-177.425138188613
 30
0.0
 10
81.6454551689627
 20
-177.425138188613
 30
0.0
 10
81.6454551689627
 20
-177.425138188613
 30
0.0
 10
81.6454551689627
 20
-177.3898582576594
 30
0.0
 10
81.6454551689627
 20
-177.3898582576594
 30
0.0
  0
SPLINE
  5
AA
330
70
100
AcDbEntity
  8
Capa 1
 62
    18
420
        0
370
     9
100
AcDbSpline
210
0.0
220
0.0
230
1.0
 70
     8
 71
     3
 72
    17
 73
    13
 74
     0
 42
0.0000000001
 43
0.0000000001
 40
0.0
 40
0.0
 40
0.0
 40
0.0
 40
1.0
 40
1.0
 40
1.0
 40
2.0
 40
2.0
 40
2.0
 40
3.0
 40
3.0
 40
3.0
 40
4.0
 40
4.0
 40
4.0
 40
4.0
 10
81.6454551689627
 20
-169.2406894398453
 30
0.0
 10
81.6454551689627
 20
-169.2406894398453
 30
0.0
 10
81.6454551689627
 20
-169.2054095088917
 30
0.0
 10
81.6454551689627
 20
-169.2054095088917
 30
0.0
 10
81.6454551689627
 20
-169.2054095088917
 30
0.0
 10
81.6454551689627
 20
-169.1701403438614
 30
0.0
 10
81.6454551689627
 20
-169.1701403438614
 30
0.0
 10
81.6454551689627
 20
-169.1701403438614
 30
0.0
 10
81.61017792948991
 20
-169.1701403438614
 30
0.0
 10
81.61017792948991
 20
-169.1701403438614
 30
0.0
 10
81.61017792948991
 20
-169.1701403438614
 30
0.0
 10
81.57490069001712
 20
-169.1701403438614
 30
0.0
 10
81.57490069001712
 20
-169.1701403438614
 30
0.0
  0
SPLINE
  5
AB
330
70
100
AcDbEntity
  8
Capa 1
 62
    18
420
        0
370
     9
100
AcDbSpline
210
0.0
220
0.0
230
1.0
 70
     8
 71
     3
 72
    17
 73
    13
 74
     0
 42
0.0000000001
 43
0.0000000001
 40
0.0
 40
0.0
 40
0.0
 40
0.0
 40
1.0
 40
1.0
 40
1.0
 40
2.0
 40
2.0
 40
2.0
 40
3.0
 40
3.0
 40
3.0
 40
4.0
 40
4.0
 40
4.0
 40
4.0
 10
80.05795516935958
 20
-169.1701403438614
 30
0.0
 10
80.05795516935958
 20
-169.1701403438614
 30
0.0
 10
80.05795516935958
 20
-169.1701403438614
 30
0.0
 10
80.05795516935958
 20
-169.1701403438614
 30
0.0
 10
80.05795516935958
 20
-169.1701403438614
 30
0.0
 10
80.02267792988678
 20
-169.1701403438614
 30
0.0
 10
80.02267792988678
 20
-169.1701403438614
 30
0.0
 10
80.02267792988678
 20
-169.1701403438614
 30
0.0
 10
79.98740069041399
 20
-169.2054095088917
 30
0.0
 10
79.98740069041399
 20
-169.2054095088917
 30
0.0
 10
79.98740069041399
 20
-169.2054095088917
 30
0.0
 10
79.98740069041399
 20
-169.2406894398453
 30
0.0
 10
79.98740069041399
 20
-169.2406894398453
 30
0.0
  0
SPLINE
  5
AC
330
70
100
AcDbEntity
  8
Capa 1
 62
    18
420
        0
370
     9
100
AcDbSpline
210
0.0
220
0.0
230
1.0
 70
    24
 71
     3
 72
     8
 73
     4
 74
     0
 42
0.0000000001
 43
0.0000000001
 40
0.0
 40
0.0
 40
0.0
 40
0.0
 40
1.0
 40
1.0
 40
1.0
 40
1.0
 10
78.08240015259407
 20
-215.2781894283359
 30
0.0
 10
78.08240015259407
 20
-215.2781894283359
 30
0.0
 10
78.08240015259407
 20
-166.8770847888791
 30
0.0
 10
78.08240015259407
 20
-166.8770847888791
 30
0.0
  0
SPLINE
  5
AD
330
70
100
AcDbEntity
  8
Capa 1
 62
    18
420
        0
370
     9
100
AcDbSpline
210
0.0
220
0.0
230
1.0
 70
    24
 71
     3
 72
     8
 73
     4
 74
     0
 42
0.0000000001
 43
0.0000000001
 40
0.0
 40
0.0
 40
0.0
 40
0.0
 40
1.0
 40
1.0
 40
1.0
 40
1.0
 10
78.08240015259407
 20
-166.8770847888791
 30
0.0
 10
78.08240015259407
 20
-166.8770847888791
 30
0.0
 10
78.11767739206686
 20
-166.8770847888791
 30
0.0
 10
78.11767739206686
 20
-166.8770847888791
 30
0.0
  0
SPLINE
  5
AE
330
70
100
AcDbEntity
  8
Capa 1
 62
    18
420
        0
370
     9
100
AcDbSpline
210
0.0
220
0.0
230
1.0
 70
    24
 71
     3
 72
     8
 73
     4
 74
     0
 42
0.0000000001
 43
0.0000000001
 40
0.0
 40
0.0
 40
0.0
 40
0.0
 40
1.0
 40
1.0
 40
1.0
 40
1.0
 10
79.38767685345318
 20
-215.2781894283359
 30
0.0
 10
79.38767685345318
 20
-215.2781894283359
 30
0.0
 10
78.08240015259407
 20
-215.2781894283359
 30
0.0
 10
78.08240015259407
 20
-215.2781894283359
 30
0.0
  0
SPLINE
  5
AF
330
70
100
AcDbEntity
  8
Capa 1
 62
    18
420
        0
370
     9
100
AcDbSpline
210
0.0
220
0.0
230
1.0
 70
    24
 71
     3
 72
     8
 73
     4
 74
     0
 42
0.0000000001
 43
0.0000000001
 40
0.0
 40
0.0
 40
0.0
 40
0.0
 40
1.0
 40
1.0
 40
1.0
 40
1.0
 10
79.38767685345318
 20
-215.2781894283359
 30
0.0
 10
79.38767685345318
 20
-215.2781894283359
 30
0.0
 10
79.38767685345318
 20
-215.1370804704448
 30
0.0
 10
79.38767685345318
 20
-215.1370804704448
 30
0.0
  0
SPLINE
  5
B0
330
70
100
AcDbEntity
  8
Capa 1
 62
    18
420
        0
370
     9
100
AcDbSpline
210
0.0
220
0.0
230
1.0
 70
    24
 71
     3
 72
     8
 73
     4
 74
     0
 42
0.0000000001
 43
0.0000000001
 40
0.0
 40
0.0
 40
0.0
 40
0.0
 40
1.0
 40
1.0
 40
1.0
 40
1.0
 10
108.9151757694789
 20
-215.1370804704448
 30
0.0
 10
108.9151757694789
 20
-215.1370804704448
 30
0.0
 10
108.9151757694789
 20
-215.2781894283359
 30
0.0
 10
108.9151757694789
 20
-215.2781894283359
 30
0.0
  0
SPLINE
  5
B1
330
70
100
AcDbEntity
  8
Capa 1
 62
    18
420
        0
370
     9
100
AcDbSpline
210
0.0
220
0.0
230
1.0
 70
    24
 71
     3
 72
     8
 73
     4
 74
     0
 42
0.0000000001
 43
0.0000000001
 40
0.0
 40
0.0
 40
0.0
 40
0.0
 40
1.0
 40
1.0
 40
1.0
 40
1.0
 10
108.9151757694789
 20
-215.2781894283359
 30
0.0
 10
108.9151757694789
 20
-215.2781894283359
 30
0.0
 10
110.2204524703381
 20
-215.2781894283359
 30
0.0
 10
110.2204524703381
 20
-215.2781894283359
 30
0.0
  0
SPLINE
  5
B2
330
70
100
AcDbEntity
  8
Capa 1
 62
    18
420
        0
370
     9
100
AcDbSpline
210
0.0
220
0.0
230
1.0
 70
    24
 71
     3
 72
     8
 73
     4
 74
     0
 42
0.0000000001
 43
0.0000000001
 40
0.0
 40
0.0
 40
0.0
 40
0.0
 40
1.0
 40
1.0
 40
1.0
 40
1.0
 10
110.2204524703381
 20
-215.2781894283359
 30
0.0
 10
110.2204524703381
 20
-215.2781894283359
 30
0.0
 10
110.2204524703381
 20
-166.8770847888791
 30
0.0
 10
110.2204524703381
 20
-166.8770847888791
 30
0.0
  0
SPLINE
  5
B3
330
70
100
AcDbEntity
  8
Capa 1
 62
    18
420
        0
370
     9
100
AcDbSpline
 70
     3
 71
     3
 72
     8
 73
     4
 74
     0
 42
0.0000000001
 43
0.0000000001
 40
0.0
 40
0.0
 40
0.0
 40
0.0
 40
1.0
 40
1.0
 40
1.0
 40
1.0
 10
79.35239961398041
 20
-215.5956872750719
 30
0.0
 10
79.35239961398041
 20
-215.5956872750719
 30
0.0
 10
79.35239961398041
 20
-215.5956872750719
 30
0.0
 10
79.35239961398041
 20
-215.5956872750719
 30
0.0
  0
SPLINE
  5
B4
330
70
100
AcDbEntity
  8
Capa 1
 62
    18
420
        0
370
     9
100
AcDbSpline
210
0.0
220
0.0
230
1.0
 70
    24
 71
     3
 72
     8
 73
     4
 74
     0
 42
0.0000000001
 43
0.0000000001
 40
0.0
 40
0.0
 40
0.0
 40
0.0
 40
1.0
 40
1.0
 40
1.0
 40
1.0
 10
79.31712237450762
 20
-215.5956872750719
 30
0.0
 10
79.31712237450762
 20
-215.5956872750719
 30
0.0
 10
79.35239961398041
 20
-215.5956872750719
 30
0.0
 10
79.35239961398041
 20
-215.5956872750719
 30
0.0
  0
SPLINE
  5
B5
330
70
100
AcDbEntity
  8
Capa 1
 62
    18
420
        0
370
     9
100
AcDbSpline
 70
     3
 71
     3
 72
     8
 73
     4
 74
     0
 42
0.0000000001
 43
0.0000000001
 40
0.0
 40
0.0
 40
0.0
 40
0.0
 40
1.0
 40
1.0
 40
1.0
 40
1.0
 10
78.82323294744603
 20
-215.5956872750719
 30
0.0
 10
78.82323294744603
 20
-215.5956872750719
 30
0.0
 10
78.82323294744603
 20
-215.5956872750719
 30
0.0
 10
78.82323294744603
 20
-215.5956872750719
 30
0.0
  0
SPLINE
  5
B6
330
70
100
AcDbEntity
  8
Capa 1
 62
    18
420
        0
370
     9
100
AcDbSpline
 70
     3
 71
     3
 72
     8
 73
     4
 74
     0
 42
0.0000000001
 43
0.0000000001
 40
0.0
 40
0.0
 40
0.0
 40
0.0
 40
1.0
 40
1.0
 40
1.0
 40
1.0
 10
79.35239961398041
 20
-215.2781894283359
 30
0.0
 10
79.35239961398041
 20
-215.2781894283359
 30
0.0
 10
79.35239961398041
 20
-215.2781894283359
 30
0.0
 10
79.35239961398041
 20
-215.2781894283359
 30
0.0
  0
SPLINE
  5
B7
330
70
100
AcDbEntity
  8
Capa 1
 62
    18
420
        0
370
     9
100
AcDbSpline
 70
     3
 71
     3
 72
     8
 73
     4
 74
     0
 42
0.0000000001
 43
0.0000000001
 40
0.0
 40
0.0
 40
0.0
 40
0.0
 40
1.0
 40
1.0
 40
1.0
 40
1.0
 10
78.78795570797324
 20
-215.5956872750719
 30
0.0
 10
78.78795570797324
 20
-215.5956872750719
 30
0.0
 10
78.78795570797324
 20
-215.5956872750719
 30
0.0
 10
78.78795570797324
 20
-215.5956872750719
 30
0.0
  0
SPLINE
  5
B8
330
70
100
AcDbEntity
  8
Capa 1
 62
    18
420
        0
370
     9
100
AcDbSpline
210
0.0
220
0.0
230
1.0
 70
    24
 71
     3
 72
    11
 73
     7
 74
     0
 42
0.0000000001
 43
0.0000000001
 40
0.0
 40
0.0
 40
0.0
 40
0.0
 40
1.0
 40
1.0
 40
1.0
 40
2.0
 40
2.0
 40
2.0
 40
2.0
 10
78.25878904143886
 20
-215.5956872750719
 30
0.0
 10
78.25878904143886
 20
-215.5956872750719
 30
0.0
 10
78.25878904143886
 20
-215.5956872750719
 30
0.0
 10
78.25878904143886
 20
-215.5956872750719
 30
0.0
 10
78.25878904143886
 20
-215.5956872750719
 30
0.0
 10
78.29406628091165
 20
-215.5956872750719
 30
0.0
 10
78.29406628091165
 20
-215.5956872750719
 30
0.0
  0
SPLINE
  5
B9
330
70
100
AcDbEntity
  8
Capa 1
 62
    18
420
        0
370
     9
100
AcDbSpline
210
0.0
220
0.0
230
1.0
 70
    24
 71
     3
 72
     8
 73
     4
 74
     0
 42
0.0000000001
 43
0.0000000001
 40
0.0
 40
0.0
 40
0.0
 40
0.0
 40
1.0
 40
1.0
 40
1.0
 40
1.0
 10
78.82323294744603
 20
-215.5956872750719
 30
0.0
 10
78.82323294744603
 20
-215.5956872750719
 30
0.0
 10
78.78795570797324
 20
-215.5956872750719
 30
0.0
 10
78.78795570797324
 20
-215.5956872750719
 30
0.0
  0
SPLINE
  5
BA
330
70
100
AcDbEntity
  8
Capa 1
 62
    18
420
        0
370
     9
100
AcDbSpline
210
0.0
220
0.0
230
1.0
 70
    24
 71
     3
 72
     8
 73
     4
 74
     0
 42
0.0000000001
 43
0.0000000001
 40
0.0
 40
0.0
 40
0.0
 40
0.0
 40
1.0
 40
1.0
 40
1.0
 40
1.0
 10
78.82323294744603
 20
-215.5956872750719
 30
0.0
 10
78.82323294744603
 20
-215.5956872750719
 30
0.0
 10
78.78795570797324
 20
-215.5956872750719
 30
0.0
 10
78.78795570797324
 20
-215.5956872750719
 30
0.0
  0
SPLINE
  5
BB
330
70
100
AcDbEntity
  8
Capa 1
 62
    18
420
        0
370
     9
100
AcDbSpline
210
0.0
220
0.0
230
1.0
 70
    24
 71
     3
 72
     8
 73
     4
 74
     0
 42
0.0000000001
 43
0.0000000001
 40
0.0
 40
0.0
 40
0.0
 40
0.0
 40
1.0
 40
1.0
 40
1.0
 40
1.0
 10
79.35239961398041
 20
-215.2781894283359
 30
0.0
 10
79.35239961398041
 20
-215.2781894283359
 30
0.0
 10
79.35239961398041
 20
-215.5956872750719
 30
0.0
 10
79.35239961398041
 20
-215.5956872750719
 30
0.0
  0
SPLINE
  5
BC
330
70
100
AcDbEntity
  8
Capa 1
 62
    18
420
        0
370
     9
100
AcDbSpline
210
0.0
220
0.0
230
1.0
 70
    24
 71
     3
 72
    29
 73
    25
 74
     0
 42
0.0000000001
 43
0.0000000001
 40
0.0
 40
0.0
 40
0.0
 40
0.0
 40
1.0
 40
1.0
 40
1.0
 40
2.0
 40
2.0
 40
2.0
 40
3.0
 40
3.0
 40
3.0
 40
4.0
 40
4.0
 40
4.0
 40
5.0
 40
5.0
 40
5.0
 40
6.0
 40
6.0
 40
6.0
 40
7.0
 40
7.0
 40
7.0
 40
8.0
 40
8.0
 40
8.0
 40
8.0
 10
79.31712237450762
 20
-215.5604073441183
 30
0.0
 10
79.31712237450762
 20
-215.5604073441183
 30
0.0
 10
79.31712237450762
 20
-215.5604073441183
 30
0.0
 10
79.31712237450762
 20
-215.5604073441183
 30
0.0
 10
79.31712237450762
 20
-215.5604073441183
 30
0.0
 10
79.28184513503483
 20
-215.5604073441183
 30
0.0
 10
79.28184513503483
 20
-215.5604073441183
 30
0.0
 10
79.28184513503483
 20
-215.5604073441183
 30
0.0
 10
79.24656520408119
 20
-215.5604073441183
 30
0.0
 10
79.24656520408119
 20
-215.5604073441183
 30
0.0
 10
79.24656520408119
 20
-215.5604073441183
 30
0.0
 10
79.17601072513561
 20
-215.5604073441183
 30
0.0
 10
79.17601072513561
 20
-215.5604073441183
 30
0.0
 10
79.17601072513561
 20
-215.5604073441183
 30
0.0
 10
79.10545624619003
 20
-215.5604073441183
 30
0.0
 10
79.10545624619003
 20
-215.5604073441183
 30
0.0
 10
79.10545624619003
 20
-215.5604073441183
 30
0.0
 10
78.99962183629082
 20
-215.5604073441183
 30
0.0
 10
78.99962183629082
 20
-215.5604073441183
 30
0.0
 10
78.99962183629082
 20
-215.5604073441183
 30
0.0
 10
78.89378742639161
 20
-215.5604073441183
 30
0.0
 10
78.89378742639161
 20
-215.5604073441183
 30
0.0
 10
78.89378742639161
 20
-215.5604073441183
 30
0.0
 10
78.82323294744603
 20
-215.5604073441183
 30
0.0
 10
78.82323294744603
 20
-215.5604073441183
 30
0.0
  0
SPLINE
  5
BD
330
70
100
AcDbEntity
  8
Capa 1
 62
    18
420
        0
370
     9
100
AcDbSpline
210
0.0
220
0.0
230
1.0
 70
    24
 71
     3
 72
    11
 73
     7
 74
     0
 42
0.0000000001
 43
0.0000000001
 40
0.0
 40
0.0
 40
0.0
 40
0.0
 40
1.0
 40
1.0
 40
1.0
 40
2.0
 40
2.0
 40
2.0
 40
2.0
 10
79.31712237450762
 20
-215.5956872750719
 30
0.0
 10
79.31712237450762
 20
-215.5956872750719
 30
0.0
 10
79.31712237450762
 20
-215.5956872750719
 30
0.0
 10
79.31712237450762
 20
-215.5956872750719
 30
0.0
 10
79.31712237450762
 20
-215.5956872750719
 30
0.0
 10
79.31712237450762
 20
-215.5604073441183
 30
0.0
 10
79.31712237450762
 20
-215.5604073441183
 30
0.0
  0
SPLINE
  5
BE
330
70
100
AcDbEntity
  8
Capa 1
 62
    18
420
        0
370
     9
100
AcDbSpline
210
0.0
220
0.0
230
1.0
 70
    24
 71
     3
 72
    23
 73
    19
 74
     0
 42
0.0000000001
 43
0.0000000001
 40
0.0
 40
0.0
 40
0.0
 40
0.0
 40
1.0
 40
1.0
 40
1.0
 40
2.0
 40
2.0
 40
2.0
 40
3.0
 40
3.0
 40
3.0
 40
4.0
 40
4.0
 40
4.0
 40
5.0
 40
5.0
 40
5.0
 40
6.0
 40
6.0
 40
6.0
 40
6.0
 10
78.82323294744603
 20
-215.5956872750719
 30
0.0
 10
78.82323294744603
 20
-215.5956872750719
 30
0.0
 10
78.99962183629082
 20
-215.5956872750719
 30
0.0
 10
78.99962183629082
 20
-215.5956872750719
 30
0.0
 10
78.99962183629082
 20
-215.5956872750719
 30
0.0
 10
79.0701763152364
 20
-215.5956872750719
 30
0.0
 10
79.0701763152364
 20
-215.5956872750719
 30
0.0
 10
79.0701763152364
 20
-215.5956872750719
 30
0.0
 10
79.17601072513561
 20
-215.5956872750719
 30
0.0
 10
79.17601072513561
 20
-215.5956872750719
 30
0.0
 10
79.17601072513561
 20
-215.5956872750719
 30
0.0
 10
79.24656520408119
 20
-215.5956872750719
 30
0.0
 10
79.24656520408119
 20
-215.5956872750719
 30
0.0
 10
79.24656520408119
 20
-215.5956872750719
 30
0.0
 10
79.28184513503483
 20
-215.5956872750719
 30
0.0
 10
79.28184513503483
 20
-215.5956872750719
 30
0.0
 10
79.28184513503483
 20
-215.5956872750719
 30
0.0
 10
79.31712237450762
 20
-215.5956872750719
 30
0.0
 10
79.31712237450762
 20
-215.5956872750719
 30
0.0
  0
SPLINE
  5
BF
330
70
100
AcDbEntity
  8
Capa 1
 62
    18
420
        0
370
     9
100
AcDbSpline
210
0.0
220
0.0
230
1.0
 70
    24
 71
     3
 72
    11
 73
     7
 74
     0
 42
0.0000000001
 43
0.0000000001
 40
0.0
 40
0.0
 40
0.0
 40
0.0
 40
1.0
 40
1.0
 40
1.0
 40
2.0
 40
2.0
 40
2.0
 40
2.0
 10
78.82323294744603
 20
-215.5604073441183
 30
0.0
 10
78.82323294744603
 20
-215.5604073441183
 30
0.0
 10
78.82323294744603
 20
-215.5604073441183
 30
0.0
 10
78.82323294744603
 20
-215.5604073441183
 30
0.0
 10
78.82323294744603
 20
-215.5604073441183
 30
0.0
 10
78.82323294744603
 20
-215.5956872750719
 30
0.0
 10
78.82323294744603
 20
-215.5956872750719
 30
0.0
  0
SPLINE
  5
C0
330
70
100
AcDbEntity
  8
Capa 1
 62
    18
420
        0
370
     9
100
AcDbSpline
210
0.0
220
0.0
230
1.0
 70
    24
 71
     3
 72
    26
 73
    22
 74
     0
 42
0.0000000001
 43
0.0000000001
 40
0.0
 40
0.0
 40
0.0
 40
0.0
 40
1.0
 40
1.0
 40
1.0
 40
2.0
 40
2.0
 40
2.0
 40
3.0
 40
3.0
 40
3.0
 40
4.0
 40
4.0
 40
4.0
 40
5.0
 40
5.0
 40
5.0
 40
6.0
 40
6.0
 40
6.0
 40
7.0
 40
7.0
 40
7.0
 40
7.0
 10
78.75267846850045
 20
-215.5604073441183
 30
0.0
 10
78.75267846850045
 20
-215.5604073441183
 30
0.0
 10
78.64684405860123
 20
-215.5604073441183
 30
0.0
 10
78.64684405860123
 20
-215.5604073441183
 30
0.0
 10
78.64684405860123
 20
-215.5604073441183
 30
0.0
 10
78.57628957965566
 20
-215.5604073441183
 30
0.0
 10
78.57628957965566
 20
-215.5604073441183
 30
0.0
 10
78.57628957965566
 20
-215.5604073441183
 30
0.0
 10
78.47045516975645
 20
-215.5604073441183
 30
0.0
 10
78.47045516975645
 20
-215.5604073441183
 30
0.0
 10
78.47045516975645
 20
-215.5604073441183
 30
0.0
 10
78.39990069081086
 20
-215.5604073441183
 30
0.0
 10
78.39990069081086
 20
-215.5604073441183
 30
0.0
 10
78.39990069081086
 20
-215.5604073441183
 30
0.0
 10
78.32934352038444
 20
-215.5604073441183
 30
0.0
 10
78.32934352038444
 20
-215.5604073441183
 30
0.0
 10
78.32934352038444
 20
-215.5604073441183
 30
0.0
 10
78.29406628091165
 20
-215.5604073441183
 30
0.0
 10
78.29406628091165
 20
-215.5604073441183
 30
0.0
 10
78.29406628091165
 20
-215.5604073441183
 30
0.0
 10
78.25878904143886
 20
-215.5604073441183
 30
0.0
 10
78.25878904143886
 20
-215.5604073441183
 30
0.0
  0
SPLINE
  5
C1
330
70
100
AcDbEntity
  8
Capa 1
 62
    18
420
        0
370
     9
100
AcDbSpline
210
0.0
220
0.0
230
1.0
 70
    24
 71
     3
 72
    11
 73
     7
 74
     0
 42
0.0000000001
 43
0.0000000001
 40
0.0
 40
0.0
 40
0.0
 40
0.0
 40
1.0
 40
1.0
 40
1.0
 40
2.0
 40
2.0
 40
2.0
 40
2.0
 10
78.75267846850045
 20
-215.5956872750719
 30
0.0
 10
78.75267846850045
 20
-215.5956872750719
 30
0.0
 10
78.75267846850045
 20
-215.5956872750719
 30
0.0
 10
78.75267846850045
 20
-215.5956872750719
 30
0.0
 10
78.75267846850045
 20
-215.5956872750719
 30
0.0
 10
78.75267846850045
 20
-215.5604073441183
 30
0.0
 10
78.75267846850045
 20
-215.5604073441183
 30
0.0
  0
SPLINE
  5
C2
330
70
100
AcDbEntity
  8
Capa 1
 62
    18
420
        0
370
     9
100
AcDbSpline
210
0.0
220
0.0
230
1.0
 70
    24
 71
     3
 72
    23
 73
    19
 74
     0
 42
0.0000000001
 43
0.0000000001
 40
0.0
 40
0.0
 40
0.0
 40
0.0
 40
1.0
 40
1.0
 40
1.0
 40
2.0
 40
2.0
 40
2.0
 40
3.0
 40
3.0
 40
3.0
 40
4.0
 40
4.0
 40
4.0
 40
5.0
 40
5.0
 40
5.0
 40
6.0
 40
6.0
 40
6.0
 40
6.0
 10
78.25878904143886
 20
-215.5956872750719
 30
0.0
 10
78.25878904143886
 20
-215.5956872750719
 30
0.0
 10
78.29406628091165
 20
-215.5956872750719
 30
0.0
 10
78.29406628091165
 20
-215.5956872750719
 30
0.0
 10
78.29406628091165
 20
-215.5956872750719
 30
0.0
 10
78.32934352038444
 20
-215.5956872750719
 30
0.0
 10
78.32934352038444
 20
-215.5956872750719
 30
0.0
 10
78.32934352038444
 20
-215.5956872750719
 30
0.0
 10
78.39990069081086
 20
-215.5956872750719
 30
0.0
 10
78.39990069081086
 20
-215.5956872750719
 30
0.0
 10
78.39990069081086
 20
-215.5956872750719
 30
0.0
 10
78.50573240922924
 20
-215.5956872750719
 30
0.0
 10
78.50573240922924
 20
-215.5956872750719
 30
0.0
 10
78.50573240922924
 20
-215.5956872750719
 30
0.0
 10
78.57628957965566
 20
-215.5956872750719
 30
0.0
 10
78.57628957965566
 20
-215.5956872750719
 30
0.0
 10
78.57628957965566
 20
-215.5956872750719
 30
0.0
 10
78.75267846850045
 20
-215.5956872750719
 30
0.0
 10
78.75267846850045
 20
-215.5956872750719
 30
0.0
  0
SPLINE
  5
C3
330
70
100
AcDbEntity
  8
Capa 1
 62
    18
420
        0
370
     9
100
AcDbSpline
210
0.0
220
0.0
230
1.0
 70
    24
 71
     3
 72
    11
 73
     7
 74
     0
 42
0.0000000001
 43
0.0000000001
 40
0.0
 40
0.0
 40
0.0
 40
0.0
 40
1.0
 40
1.0
 40
1.0
 40
2.0
 40
2.0
 40
2.0
 40
2.0
 10
78.25878904143886
 20
-215.5604073441183
 30
0.0
 10
78.25878904143886
 20
-215.5604073441183
 30
0.0
 10
78.25878904143886
 20
-215.5604073441183
 30
0.0
 10
78.25878904143886
 20
-215.5604073441183
 30
0.0
 10
78.25878904143886
 20
-215.5604073441183
 30
0.0
 10
78.25878904143886
 20
-215.5956872750719
 30
0.0
 10
78.25878904143886
 20
-215.5956872750719
 30
0.0
  0
SPLINE
  5
C4
330
70
100
AcDbEntity
  8
Capa 1
 62
    18
420
        0
370
     9
100
AcDbSpline
210
0.0
220
0.0
230
1.0
 70
    24
 71
     3
 72
     8
 73
     4
 74
     0
 42
0.0000000001
 43
0.0000000001
 40
0.0
 40
0.0
 40
0.0
 40
0.0
 40
1.0
 40
1.0
 40
1.0
 40
1.0
 10
78.82323294744603
 20
-215.5604073441183
 30
0.0
 10
78.82323294744603
 20
-215.5604073441183
 30
0.0
 10
78.75267846850045
 20
-215.5604073441183
 30
0.0
 10
78.75267846850045
 20
-215.5604073441183
 30
0.0
  0
SPLINE
  5
C5
330
70
100
AcDbEntity
  8
Capa 1
 62
    18
420
        0
370
     9
100
AcDbSpline
210
0.0
220
0.0
230
1.0
 70
    24
 71
     3
 72
     8
 73
     4
 74
     0
 42
0.0000000001
 43
0.0000000001
 40
0.0
 40
0.0
 40
0.0
 40
0.0
 40
1.0
 40
1.0
 40
1.0
 40
1.0
 10
78.25878904143886
 20
-215.5604073441183
 30
0.0
 10
78.25878904143886
 20
-215.5604073441183
 30
0.0
 10
78.25878904143886
 20
-215.2781894283359
 30
0.0
 10
78.25878904143886
 20
-215.2781894283359
 30
0.0
  0
SPLINE
  5
C6
330
70
100
AcDbEntity
  8
Capa 1
 62
    18
420
        0
370
     9
100
AcDbSpline
210
0.0
220
0.0
230
1.0
 70
    24
 71
     3
 72
     8
 73
     4
 74
     0
 42
0.0000000001
 43
0.0000000001
 40
0.0
 40
0.0
 40
0.0
 40
0.0
 40
1.0
 40
1.0
 40
1.0
 40
1.0
 10
78.82323294744603
 20
-215.5956872750719
 30
0.0
 10
78.82323294744603
 20
-215.5956872750719
 30
0.0
 10
78.75267846850045
 20
-215.5956872750719
 30
0.0
 10
78.75267846850045
 20
-215.5956872750719
 30
0.0
  0
SPLINE
  5
C7
330
70
100
AcDbEntity
  8
Capa 1
 62
    18
420
        0
370
     9
100
AcDbSpline
210
0.0
220
0.0
230
1.0
 70
    24
 71
     3
 72
     8
 73
     4
 74
     0
 42
0.0000000001
 43
0.0000000001
 40
0.0
 40
0.0
 40
0.0
 40
0.0
 40
1.0
 40
1.0
 40
1.0
 40
1.0
 10
79.31712237450762
 20
-215.2781894283359
 30
0.0
 10
79.31712237450762
 20
-215.2781894283359
 30
0.0
 10
79.31712237450762
 20
-215.5604073441183
 30
0.0
 10
79.31712237450762
 20
-215.5604073441183
 30
0.0
  0
SPLINE
  5
C8
330
70
100
AcDbEntity
  8
Capa 1
 62
    18
420
        0
370
     9
100
AcDbSpline
210
0.0
220
0.0
230
1.0
 70
    24
 71
     3
 72
    29
 73
    25
 74
     0
 42
0.0000000001
 43
0.0000000001
 40
0.0
 40
0.0
 40
0.0
 40
0.0
 40
1.0
 40
1.0
 40
1.0
 40
2.0
 40
2.0
 40
2.0
 40
3.0
 40
3.0
 40
3.0
 40
4.0
 40
4.0
 40
4.0
 40
5.0
 40
5.0
 40
5.0
 40
6.0
 40
6.0
 40
6.0
 40
7.0
 40
7.0
 40
7.0
 40
8.0
 40
8.0
 40
8.0
 40
8.0
 10
110.1146234434005
 20
-215.5956872750719
 30
0.0
 10
110.1146234434005
 20
-215.5956872750719
 30
0.0
 10
110.0793435124469
 20
-215.5956872750719
 30
0.0
 10
110.0793435124469
 20
-215.5956872750719
 30
0.0
 10
110.0793435124469
 20
-215.5956872750719
 30
0.0
 10
110.0440635814933
 20
-215.5956872750719
 30
0.0
 10
110.0440635814933
 20
-215.5956872750719
 30
0.0
 10
110.0440635814933
 20
-215.5956872750719
 30
0.0
 10
110.0087890335013
 20
-215.5956872750719
 30
0.0
 10
110.0087890335013
 20
-215.5956872750719
 30
0.0
 10
110.0087890335013
 20
-215.5956872750719
 30
0.0
 10
109.9382345545558
 20
-215.5956872750719
 30
0.0
 10
109.9382345545558
 20
-215.5956872750719
 30
0.0
 10
109.9382345545558
 20
-215.5956872750719
 30
0.0
 10
109.8676746926485
 20
-215.5956872750719
 30
0.0
 10
109.8676746926485
 20
-215.5956872750719
 30
0.0
 10
109.8676746926485
 20
-215.5956872750719
 30
0.0
 10
109.761845665711
 20
-215.5956872750719
 30
0.0
 10
109.761845665711
 20
-215.5956872750719
 30
0.0
 10
109.761845665711
 20
-215.5956872750719
 30
0.0
 10
109.6912858038037
 20
-215.5956872750719
 30
0.0
 10
109.6912858038037
 20
-215.5956872750719
 30
0.0
 10
109.6912858038037
 20
-215.5956872750719
 30
0.0
 10
109.5854567768662
 20
-215.5956872750719
 30
0.0
 10
109.5854567768662
 20
-215.5956872750719
 30
0.0
  0
SPLINE
  5
C9
330
70
100
AcDbEntity
  8
Capa 1
 62
    18
420
        0
370
     9
100
AcDbSpline
210
0.0
220
0.0
230
1.0
 70
    24
 71
     3
 72
    11
 73
     7
 74
     0
 42
0.0000000001
 43
0.0000000001
 40
0.0
 40
0.0
 40
0.0
 40
0.0
 40
1.0
 40
1.0
 40
1.0
 40
2.0
 40
2.0
 40
2.0
 40
2.0
 10
110.0793435124469
 20
-215.5956872750719
 30
0.0
 10
110.0793435124469
 20
-215.5956872750719
 30
0.0
 10
110.0793435124469
 20
-215.5956872750719
 30
0.0
 10
110.0793435124469
 20
-215.5956872750719
 30
0.0
 10
110.0793435124469
 20
-215.5956872750719
 30
0.0
 10
110.1146234434005
 20
-215.5956872750719
 30
0.0
 10
110.1146234434005
 20
-215.5956872750719
 30
0.0
  0
SPLINE
  5
CA
330
70
100
AcDbEntity
  8
Capa 1
 62
    18
420
        0
370
     9
100
AcDbSpline
210
0.0
220
0.0
230
1.0
 70
    24
 71
     3
 72
    23
 73
    19
 74
     0
 42
0.0000000001
 43
0.0000000001
 40
0.0
 40
0.0
 40
0.0
 40
0.0
 40
1.0
 40
1.0
 40
1.0
 40
2.0
 40
2.0
 40
2.0
 40
3.0
 40
3.0
 40
3.0
 40
4.0
 40
4.0
 40
4.0
 40
5.0
 40
5.0
 40
5.0
 40
6.0
 40
6.0
 40
6.0
 40
6.0
 10
109.5854567768662
 20
-215.5956872750719
 30
0.0
 10
109.5854567768662
 20
-215.5956872750719
 30
0.0
 10
109.761845665711
 20
-215.5956872750719
 30
0.0
 10
109.761845665711
 20
-215.5956872750719
 30
0.0
 10
109.761845665711
 20
-215.5956872750719
 30
0.0
 10
109.8676746926485
 20
-215.5956872750719
 30
0.0
 10
109.8676746926485
 20
-215.5956872750719
 30
0.0
 10
109.8676746926485
 20
-215.5956872750719
 30
0.0
 10
109.9382345545558
 20
-215.5956872750719
 30
0.0
 10
109.9382345545558
 20
-215.5956872750719
 30
0.0
 10
109.9382345545558
 20
-215.5956872750719
 30
0.0
 10
110.0087890335013
 20
-215.5956872750719
 30
0.0
 10
110.0087890335013
 20
-215.5956872750719
 30
0.0
 10
110.0087890335013
 20
-215.5956872750719
 30
0.0
 10
110.0440635814933
 20
-215.5956872750719
 30
0.0
 10
110.0440635814933
 20
-215.5956872750719
 30
0.0
 10
110.0440635814933
 20
-215.5956872750719
 30
0.0
 10
110.0793435124469
 20
-215.5956872750719
 30
0.0
 10
110.0793435124469
 20
-215.5956872750719
 30
0.0
  0
SPLINE
  5
CB
330
70
100
AcDbEntity
  8
Capa 1
 62
    18
420
        0
370
     9
100
AcDbSpline
 70
     3
 71
     3
 72
     8
 73
     4
 74
     0
 42
0.0000000001
 43
0.0000000001
 40
0.0
 40
0.0
 40
0.0
 40
0.0
 40
1.0
 40
1.0
 40
1.0
 40
1.0
 10
109.5854567768662
 20
-215.5956872750719
 30
0.0
 10
109.5854567768662
 20
-215.5956872750719
 30
0.0
 10
109.5854567768662
 20
-215.5956872750719
 30
0.0
 10
109.5854567768662
 20
-215.5956872750719
 30
0.0
  0
SPLINE
  5
CC
330
70
100
AcDbEntity
  8
Capa 1
 62
    18
420
        0
370
     9
100
AcDbSpline
210
0.0
220
0.0
230
1.0
 70
    24
 71
     3
 72
    11
 73
     7
 74
     0
 42
0.0000000001
 43
0.0000000001
 40
0.0
 40
0.0
 40
0.0
 40
0.0
 40
1.0
 40
1.0
 40
1.0
 40
2.0
 40
2.0
 40
2.0
 40
2.0
 10
110.1146234434005
 20
-215.2781894283359
 30
0.0
 10
110.1146234434005
 20
-215.2781894283359
 30
0.0
 10
110.1146234434005
 20
-215.2781894283359
 30
0.0
 10
110.1146234434005
 20
-215.2781894283359
 30
0.0
 10
110.1146234434005
 20
-215.2781894283359
 30
0.0
 10
110.0793435124469
 20
-215.2781894283359
 30
0.0
 10
110.0793435124469
 20
-215.2781894283359
 30
0.0
  0
SPLINE
  5
CD
330
70
100
AcDbEntity
  8
Capa 1
 62
    18
420
        0
370
     9
100
AcDbSpline
210
0.0
220
0.0
230
1.0
 70
    24
 71
     3
 72
    29
 73
    25
 74
     0
 42
0.0000000001
 43
0.0000000001
 40
0.0
 40
0.0
 40
0.0
 40
0.0
 40
1.0
 40
1.0
 40
1.0
 40
2.0
 40
2.0
 40
2.0
 40
3.0
 40
3.0
 40
3.0
 40
4.0
 40
4.0
 40
4.0
 40
5.0
 40
5.0
 40
5.0
 40
6.0
 40
6.0
 40
6.0
 40
7.0
 40
7.0
 40
7.0
 40
8.0
 40
8.0
 40
8.0
 40
8.0
 10
109.5854567768662
 20
-215.2781894283359
 30
0.0
 10
109.5854567768662
 20
-215.2781894283359
 30
0.0
 10
109.6912858038037
 20
-215.2781894283359
 30
0.0
 10
109.6912858038037
 20
-215.2781894283359
 30
0.0
 10
109.6912858038037
 20
-215.2781894283359
 30
0.0
 10
109.761845665711
 20
-215.2781894283359
 30
0.0
 10
109.761845665711
 20
-215.2781894283359
 30
0.0
 10
109.761845665711
 20
-215.2781894283359
 30
0.0
 10
109.8676746926485
 20
-215.2781894283359
 30
0.0
 10
109.8676746926485
 20
-215.2781894283359
 30
0.0
 10
109.8676746926485
 20
-215.2781894283359
 30
0.0
 10
109.9382345545558
 20
-215.2781894283359
 30
0.0
 10
109.9382345545558
 20
-215.2781894283359
 30
0.0
 10
109.9382345545558
 20
-215.2781894283359
 30
0.0
 10
110.0087890335013
 20
-215.2781894283359
 30
0.0
 10
110.0087890335013
 20
-215.2781894283359
 30
0.0
 10
110.0087890335013
 20
-215.2781894283359
 30
0.0
 10
110.0440635814933
 20
-215.2781894283359
 30
0.0
 10
110.0440635814933
 20
-215.2781894283359
 30
0.0
 10
110.0440635814933
 20
-215.2781894283359
 30
0.0
 10
110.0793435124469
 20
-215.2781894283359
 30
0.0
 10
110.0793435124469
 20
-215.2781894283359
 30
0.0
 10
110.0793435124469
 20
-215.2781894283359
 30
0.0
 10
110.1146234434005
 20
-215.2781894283359
 30
0.0
 10
110.1146234434005
 20
-215.2781894283359
 30
0.0
  0
SPLINE
  5
CE
330
70
100
AcDbEntity
  8
Capa 1
 62
    18
420
        0
370
     9
100
AcDbSpline
 70
     3
 71
     3
 72
     8
 73
     4
 74
     0
 42
0.0000000001
 43
0.0000000001
 40
0.0
 40
0.0
 40
0.0
 40
0.0
 40
1.0
 40
1.0
 40
1.0
 40
1.0
 10
109.5854567768662
 20
-215.2781894283359
 30
0.0
 10
109.5854567768662
 20
-215.2781894283359
 30
0.0
 10
109.5854567768662
 20
-215.2781894283359
 30
0.0
 10
109.5854567768662
 20
-215.2781894283359
 30
0.0
  0
SPLINE
  5
CF
330
70
100
AcDbEntity
  8
Capa 1
 62
    18
420
        0
370
     9
100
AcDbSpline
210
0.0
220
0.0
230
1.0
 70
    24
 71
     3
 72
    26
 73
    22
 74
     0
 42
0.0000000001
 43
0.0000000001
 40
0.0
 40
0.0
 40
0.0
 40
0.0
 40
1.0
 40
1.0
 40
1.0
 40
2.0
 40
2.0
 40
2.0
 40
3.0
 40
3.0
 40
3.0
 40
4.0
 40
4.0
 40
4.0
 40
5.0
 40
5.0
 40
5.0
 40
6.0
 40
6.0
 40
6.0
 40
7.0
 40
7.0
 40
7.0
 40
7.0
 10
109.5501768459125
 20
-215.5956872750719
 30
0.0
 10
109.5501768459125
 20
-215.5956872750719
 30
0.0
 10
109.4443424360133
 20
-215.5956872750719
 30
0.0
 10
109.4443424360133
 20
-215.5956872750719
 30
0.0
 10
109.4443424360133
 20
-215.5956872750719
 30
0.0
 10
109.3385080261141
 20
-215.5956872750719
 30
0.0
 10
109.3385080261141
 20
-215.5956872750719
 30
0.0
 10
109.3385080261141
 20
-215.5956872750719
 30
0.0
 10
109.2326789991766
 20
-215.5956872750719
 30
0.0
 10
109.2326789991766
 20
-215.5956872750719
 30
0.0
 10
109.2326789991766
 20
-215.5956872750719
 30
0.0
 10
109.1621191372693
 20
-215.5956872750719
 30
0.0
 10
109.1621191372693
 20
-215.5956872750719
 30
0.0
 10
109.1621191372693
 20
-215.5956872750719
 30
0.0
 10
109.0915646583237
 20
-215.5956872750719
 30
0.0
 10
109.0915646583237
 20
-215.5956872750719
 30
0.0
 10
109.0915646583237
 20
-215.5956872750719
 30
0.0
 10
109.0562901103318
 20
-215.5956872750719
 30
0.0
 10
109.0562901103318
 20
-215.5956872750719
 30
0.0
 10
109.0562901103318
 20
-215.5956872750719
 30
0.0
 10
109.0210101793782
 20
-215.5956872750719
 30
0.0
 10
109.0210101793782
 20
-215.5956872750719
 30
0.0
  0
SPLINE
  5
D0
330
70
100
AcDbEntity
  8
Capa 1
 62
    18
420
        0
370
     9
100
AcDbSpline
 70
     3
 71
     3
 72
     8
 73
     4
 74
     0
 42
0.0000000001
 43
0.0000000001
 40
0.0
 40
0.0
 40
0.0
 40
0.0
 40
1.0
 40
1.0
 40
1.0
 40
1.0
 10
109.5501768459125
 20
-215.5956872750719
 30
0.0
 10
109.5501768459125
 20
-215.5956872750719
 30
0.0
 10
109.5501768459125
 20
-215.5956872750719
 30
0.0
 10
109.5501768459125
 20
-215.5956872750719
 30
0.0
  0
SPLINE
  5
D1
330
70
100
AcDbEntity
  8
Capa 1
 62
    18
420
        0
370
     9
100
AcDbSpline
210
0.0
220
0.0
230
1.0
 70
    24
 71
     3
 72
    23
 73
    19
 74
     0
 42
0.0000000001
 43
0.0000000001
 40
0.0
 40
0.0
 40
0.0
 40
0.0
 40
1.0
 40
1.0
 40
1.0
 40
2.0
 40
2.0
 40
2.0
 40
3.0
 40
3.0
 40
3.0
 40
4.0
 40
4.0
 40
4.0
 40
5.0
 40
5.0
 40
5.0
 40
6.0
 40
6.0
 40
6.0
 40
6.0
 10
109.0210101793782
 20
-215.5956872750719
 30
0.0
 10
109.0210101793782
 20
-215.5956872750719
 30
0.0
 10
109.0562901103318
 20
-215.5956872750719
 30
0.0
 10
109.0562901103318
 20
-215.5956872750719
 30
0.0
 10
109.0562901103318
 20
-215.5956872750719
 30
0.0
 10
109.1268445892774
 20
-215.5956872750719
 30
0.0
 10
109.1268445892774
 20
-215.5956872750719
 30
0.0
 10
109.1268445892774
 20
-215.5956872750719
 30
0.0
 10
109.1621191372693
 20
-215.5956872750719
 30
0.0
 10
109.1621191372693
 20
-215.5956872750719
 30
0.0
 10
109.1621191372693
 20
-215.5956872750719
 30
0.0
 10
109.2679535471685
 20
-215.5956872750719
 30
0.0
 10
109.2679535471685
 20
-215.5956872750719
 30
0.0
 10
109.2679535471685
 20
-215.5956872750719
 30
0.0
 10
109.3385080261141
 20
-215.5956872750719
 30
0.0
 10
109.3385080261141
 20
-215.5956872750719
 30
0.0
 10
109.3385080261141
 20
-215.5956872750719
 30
0.0
 10
109.5501768459125
 20
-215.5956872750719
 30
0.0
 10
109.5501768459125
 20
-215.5956872750719
 30
0.0
  0
SPLINE
  5
D2
330
70
100
AcDbEntity
  8
Capa 1
 62
    18
420
        0
370
     9
100
AcDbSpline
 70
     3
 71
     3
 72
     8
 73
     4
 74
     0
 42
0.0000000001
 43
0.0000000001
 40
0.0
 40
0.0
 40
0.0
 40
0.0
 40
1.0
 40
1.0
 40
1.0
 40
1.0
 10
109.0210101793782
 20
-215.5956872750719
 30
0.0
 10
109.0210101793782
 20
-215.5956872750719
 30
0.0
 10
109.0210101793782
 20
-215.5956872750719
 30
0.0
 10
109.0210101793782
 20
-215.5956872750719
 30
0.0
  0
SPLINE
  5
D3
330
70
100
AcDbEntity
  8
Capa 1
 62
    18
420
        0
370
     9
100
AcDbSpline
 70
     3
 71
     3
 72
     8
 73
     4
 74
     0
 42
0.0000000001
 43
0.0000000001
 40
0.0
 40
0.0
 40
0.0
 40
0.0
 40
1.0
 40
1.0
 40
1.0
 40
1.0
 10
109.5501768459125
 20
-215.2781894283359
 30
0.0
 10
109.5501768459125
 20
-215.2781894283359
 30
0.0
 10
109.5501768459125
 20
-215.2781894283359
 30
0.0
 10
109.5501768459125
 20
-215.2781894283359
 30
0.0
  0
SPLINE
  5
D4
330
70
100
AcDbEntity
  8
Capa 1
 62
    18
420
        0
370
     9
100
AcDbSpline
210
0.0
220
0.0
230
1.0
 70
    24
 71
     3
 72
    29
 73
    25
 74
     0
 42
0.0000000001
 43
0.0000000001
 40
0.0
 40
0.0
 40
0.0
 40
0.0
 40
1.0
 40
1.0
 40
1.0
 40
2.0
 40
2.0
 40
2.0
 40
3.0
 40
3.0
 40
3.0
 40
4.0
 40
4.0
 40
4.0
 40
5.0
 40
5.0
 40
5.0
 40
6.0
 40
6.0
 40
6.0
 40
7.0
 40
7.0
 40
7.0
 40
8.0
 40
8.0
 40
8.0
 40
8.0
 10
109.0210101793782
 20
-215.2781894283359
 30
0.0
 10
109.0210101793782
 20
-215.2781894283359
 30
0.0
 10
109.0210101793782
 20
-215.2781894283359
 30
0.0
 10
109.0210101793782
 20
-215.2781894283359
 30
0.0
 10
109.0210101793782
 20
-215.2781894283359
 30
0.0
 10
109.0562901103318
 20
-215.2781894283359
 30
0.0
 10
109.0562901103318
 20
-215.2781894283359
 30
0.0
 10
109.0562901103318
 20
-215.2781894283359
 30
0.0
 10
109.0915646583237
 20
-215.2781894283359
 30
0.0
 10
109.0915646583237
 20
-215.2781894283359
 30
0.0
 10
109.0915646583237
 20
-215.2781894283359
 30
0.0
 10
109.1621191372693
 20
-215.2781894283359
 30
0.0
 10
109.1621191372693
 20
-215.2781894283359
 30
0.0
 10
109.1621191372693
 20
-215.2781894283359
 30
0.0
 10
109.2326789991766
 20
-215.2781894283359
 30
0.0
 10
109.2326789991766
 20
-215.2781894283359
 30
0.0
 10
109.2326789991766
 20
-215.2781894283359
 30
0.0
 10
109.3385080261141
 20
-215.2781894283359
 30
0.0
 10
109.3385080261141
 20
-215.2781894283359
 30
0.0
 10
109.3385080261141
 20
-215.2781894283359
 30
0.0
 10
109.4443424360133
 20
-215.2781894283359
 30
0.0
 10
109.4443424360133
 20
-215.2781894283359
 30
0.0
 10
109.4443424360133
 20
-215.2781894283359
 30
0.0
 10
109.5501768459125
 20
-215.2781894283359
 30
0.0
 10
109.5501768459125
 20
-215.2781894283359
 30
0.0
  0
SPLINE
  5
D5
330
70
100
AcDbEntity
  8
Capa 1
 62
    18
420
        0
370
     9
100
AcDbSpline
 70
     3
 71
     3
 72
     8
 73
     4
 74
     0
 42
0.0000000001
 43
0.0000000001
 40
0.0
 40
0.0
 40
0.0
 40
0.0
 40
1.0
 40
1.0
 40
1.0
 40
1.0
 10
109.0210101793782
 20
-215.2781894283359
 30
0.0
 10
109.0210101793782
 20
-215.2781894283359
 30
0.0
 10
109.0210101793782
 20
-215.2781894283359
 30
0.0
 10
109.0210101793782
 20
-215.2781894283359
 30
0.0
  0
SPLINE
  5
D6
330
70
100
AcDbEntity
  8
Capa 1
 62
    18
420
        0
370
     9
100
AcDbSpline
210
0.0
220
0.0
230
1.0
 70
    24
 71
     3
 72
     8
 73
     4
 74
     0
 42
0.0000000001
 43
0.0000000001
 40
0.0
 40
0.0
 40
0.0
 40
0.0
 40
1.0
 40
1.0
 40
1.0
 40
1.0
 10
109.5854567768662
 20
-215.5956872750719
 30
0.0
 10
109.5854567768662
 20
-215.5956872750719
 30
0.0
 10
109.5501768459125
 20
-215.5956872750719
 30
0.0
 10
109.5501768459125
 20
-215.5956872750719
 30
0.0
  0
SPLINE
  5
D7
330
70
100
AcDbEntity
  8
Capa 1
 62
    18
420
        0
370
     9
100
AcDbSpline
210
0.0
220
0.0
230
1.0
 70
    24
 71
     3
 72
     8
 73
     4
 74
     0
 42
0.0000000001
 43
0.0000000001
 40
0.0
 40
0.0
 40
0.0
 40
0.0
 40
1.0
 40
1.0
 40
1.0
 40
1.0
 10
109.5854567768662
 20
-215.5956872750719
 30
0.0
 10
109.5854567768662
 20
-215.5956872750719
 30
0.0
 10
109.5501768459125
 20
-215.5956872750719
 30
0.0
 10
109.5501768459125
 20
-215.5956872750719
 30
0.0
  0
SPLINE
  5
D8
330
70
100
AcDbEntity
  8
Capa 1
 62
    18
420
        0
370
     9
100
AcDbSpline
210
0.0
220
0.0
230
1.0
 70
    24
 71
     3
 72
     8
 73
     4
 74
     0
 42
0.0000000001
 43
0.0000000001
 40
0.0
 40
0.0
 40
0.0
 40
0.0
 40
1.0
 40
1.0
 40
1.0
 40
1.0
 10
109.5854567768662
 20
-215.5956872750719
 30
0.0
 10
109.5854567768662
 20
-215.5956872750719
 30
0.0
 10
109.5854567768662
 20
-215.2781894283359
 30
0.0
 10
109.5854567768662
 20
-215.2781894283359
 30
0.0
  0
SPLINE
  5
D9
330
70
100
AcDbEntity
  8
Capa 1
 62
    18
420
        0
370
     9
100
AcDbSpline
210
0.0
220
0.0
230
1.0
 70
    24
 71
     3
 72
     8
 73
     4
 74
     0
 42
0.0000000001
 43
0.0000000001
 40
0.0
 40
0.0
 40
0.0
 40
0.0
 40
1.0
 40
1.0
 40
1.0
 40
1.0
 10
109.5501768459125
 20
-215.5956872750719
 30
0.0
 10
109.5501768459125
 20
-215.5956872750719
 30
0.0
 10
109.5501768459125
 20
-215.2781894283359
 30
0.0
 10
109.5501768459125
 20
-215.2781894283359
 30
0.0
  0
SPLINE
  5
DA
330
70
100
AcDbEntity
  8
Capa 1
 62
    18
420
        0
370
     9
100
AcDbSpline
210
0.0
220
0.0
230
1.0
 70
    24
 71
     3
 72
     8
 73
     4
 74
     0
 42
0.0000000001
 43
0.0000000001
 40
0.0
 40
0.0
 40
0.0
 40
0.0
 40
1.0
 40
1.0
 40
1.0
 40
1.0
 10
109.5501768459125
 20
-215.2781894283359
 30
0.0
 10
109.5501768459125
 20
-215.2781894283359
 30
0.0
 10
109.5854567768662
 20
-215.2781894283359
 30
0.0
 10
109.5854567768662
 20
-215.2781894283359
 30
0.0
  0
SPLINE
  5
DB
330
70
100
AcDbEntity
  8
Capa 1
 62
    18
420
        0
370
     9
100
AcDbSpline
210
0.0
220
0.0
230
1.0
 70
    24
 71
     3
 72
     8
 73
     4
 74
     0
 42
0.0000000001
 43
0.0000000001
 40
0.0
 40
0.0
 40
0.0
 40
0.0
 40
1.0
 40
1.0
 40
1.0
 40
1.0
 10
109.0210101793782
 20
-215.5956872750719
 30
0.0
 10
109.0210101793782
 20
-215.5956872750719
 30
0.0
 10
109.0210101793782
 20
-215.2781894283359
 30
0.0
 10
109.0210101793782
 20
-215.2781894283359
 30
0.0
  0
SPLINE
  5
DC
330
70
100
AcDbEntity
  8
Capa 1
 62
    18
420
        0
370
     9
100
AcDbSpline
210
0.0
220
0.0
230
1.0
 70
    24
 71
     3
 72
     8
 73
     4
 74
     0
 42
0.0000000001
 43
0.0000000001
 40
0.0
 40
0.0
 40
0.0
 40
0.0
 40
1.0
 40
1.0
 40
1.0
 40
1.0
 10
110.1146234434005
 20
-215.2781894283359
 30
0.0
 10
110.1146234434005
 20
-215.2781894283359
 30
0.0
 10
110.1146234434005
 20
-215.5956872750719
 30
0.0
 10
110.1146234434005
 20
-215.5956872750719
 30
0.0
  0
SPLINE
  5
DD
330
70
100
AcDbEntity
  8
Capa 1
 62
    18
420
        0
370
     9
100
AcDbSpline
210
0.0
220
0.0
230
1.0
 70
    24
 71
     3
 72
     8
 73
     4
 74
     0
 42
0.0000000001
 43
0.0000000001
 40
0.0
 40
0.0
 40
0.0
 40
0.0
 40
1.0
 40
1.0
 40
1.0
 40
1.0
 10
79.38767685345318
 20
-215.2076295664286
 30
0.0
 10
79.38767685345318
 20
-215.2076295664286
 30
0.0
 10
108.9151757694789
 20
-215.2076295664286
 30
0.0
 10
108.9151757694789
 20
-215.2076295664286
 30
0.0
  0
SPLINE
  5
DE
330
70
100
AcDbEntity
  8
Capa 1
 62
    18
420
        0
370
     9
100
AcDbSpline
210
0.0
220
0.0
230
1.0
 70
    24
 71
     3
 72
     8
 73
     4
 74
     0
 42
0.0000000001
 43
0.0000000001
 40
0.0
 40
0.0
 40
0.0
 40
0.0
 40
1.0
 40
1.0
 40
1.0
 40
1.0
 10
108.9151757694789
 20
-215.1370804704448
 30
0.0
 10
108.9151757694789
 20
-215.1370804704448
 30
0.0
 10
108.9151757694789
 20
-215.2076295664286
 30
0.0
 10
108.9151757694789
 20
-215.2076295664286
 30
0.0
  0
SPLINE
  5
DF
330
70
100
AcDbEntity
  8
Capa 1
 62
    18
420
        0
370
     9
100
AcDbSpline
210
0.0
220
0.0
230
1.0
 70
    24
 71
     3
 72
    14
 73
    10
 74
     0
 42
0.0000000001
 43
0.0000000001
 40
0.0
 40
0.0
 40
0.0
 40
0.0
 40
1.0
 40
1.0
 40
1.0
 40
2.0
 40
2.0
 40
2.0
 40
3.0
 40
3.0
 40
3.0
 40
3.0
 10
78.15295463153964
 20
-166.7359650650646
 30
0.0
 10
78.15295463153964
 20
-166.7359650650646
 30
0.0
 10
78.15295463153964
 20
-166.7359650650646
 30
0.0
 10
78.15295463153964
 20
-166.7359650650646
 30
0.0
 10
78.15295463153964
 20
-166.7359650650646
 30
0.0
 10
78.18823187101243
 20
-166.7359650650646
 30
0.0
 10
78.18823187101243
 20
-166.7359650650646
 30
0.0
 10
78.18823187101243
 20
-166.7359650650646
 30
0.0
 10
78.22351180196607
 20
-166.7359650650646
 30
0.0
 10
78.22351180196607
 20
-166.7359650650646
 30
0.0
  0
SPLINE
  5
E0
330
70
100
AcDbEntity
  8
Capa 1
 62
    18
420
        0
370
     9
100
AcDbSpline
210
0.0
220
0.0
230
1.0
 70
     8
 71
     3
 72
    17
 73
    13
 74
     0
 42
0.0000000001
 43
0.0000000001
 40
0.0
 40
0.0
 40
0.0
 40
0.0
 40
1.0
 40
1.0
 40
1.0
 40
2.0
 40
2.0
 40
2.0
 40
3.0
 40
3.0
 40
3.0
 40
4.0
 40
4.0
 40
4.0
 40
4.0
 10
78.22351180196607
 20
-166.6654159690807
 30
0.0
 10
78.22351180196607
 20
-166.6654159690807
 30
0.0
 10
78.22351180196607
 20
-166.6654159690807
 30
0.0
 10
78.22351180196607
 20
-166.6654159690807
 30
0.0
 10
78.22351180196607
 20
-166.6654159690807
 30
0.0
 10
78.18823187101243
 20
-166.6654159690807
 30
0.0
 10
78.18823187101243
 20
-166.6654159690807
 30
0.0
 10
78.18823187101243
 20
-166.6654159690807
 30
0.0
 10
78.15295463153964
 20
-166.7006959000343
 30
0.0
 10
78.15295463153964
 20
-166.7006959000343
 30
0.0
 10
78.15295463153964
 20
-166.7006959000343
 30
0.0
 10
78.15295463153964
 20
-166.7359650650646
 30
0.0
 10
78.15295463153964
 20
-166.7359650650646
 30
0.0
  0
SPLINE
  5
E1
330
70
100
AcDbEntity
  8
Capa 1
 62
    18
420
        0
370
     9
100
AcDbSpline
210
0.0
220
0.0
230
1.0
 70
    24
 71
     3
 72
    14
 73
    10
 74
     0
 42
0.0000000001
 43
0.0000000001
 40
0.0
 40
0.0
 40
0.0
 40
0.0
 40
1.0
 40
1.0
 40
1.0
 40
2.0
 40
2.0
 40
2.0
 40
3.0
 40
3.0
 40
3.0
 40
3.0
 10
78.22351180196607
 20
-166.7359650650646
 30
0.0
 10
78.22351180196607
 20
-166.7359650650646
 30
0.0
 10
78.22351180196607
 20
-166.7359650650646
 30
0.0
 10
78.22351180196607
 20
-166.7359650650646
 30
0.0
 10
78.22351180196607
 20
-166.7359650650646
 30
0.0
 10
78.22351180196607
 20
-166.7006959000343
 30
0.0
 10
78.22351180196607
 20
-166.7006959000343
 30
0.0
 10
78.22351180196607
 20
-166.7006959000343
 30
0.0
 10
78.22351180196607
 20
-166.6654159690807
 30
0.0
 10
78.22351180196607
 20
-166.6654159690807
 30
0.0
  0
SPLINE
  5
E2
330
70
100
AcDbEntity
  8
Capa 1
 62
    18
420
        0
370
     9
100
AcDbSpline
210
0.0
220
0.0
230
1.0
 70
    24
 71
     3
 72
    14
 73
    10
 74
     0
 42
0.0000000001
 43
0.0000000001
 40
0.0
 40
0.0
 40
0.0
 40
0.0
 40
1.0
 40
1.0
 40
1.0
 40
2.0
 40
2.0
 40
2.0
 40
3.0
 40
3.0
 40
3.0
 40
3.0
 10
110.0793435124469
 20
-166.6654159690807
 30
0.0
 10
110.0793435124469
 20
-166.6654159690807
 30
0.0
 10
110.0793435124469
 20
-166.6654159690807
 30
0.0
 10
110.0793435124469
 20
-166.6654159690807
 30
0.0
 10
110.0793435124469
 20
-166.6654159690807
 30
0.0
 10
110.0793435124469
 20
-166.7006959000343
 30
0.0
 10
110.0793435124469
 20
-166.7006959000343
 30
0.0
 10
110.0793435124469
 20
-166.7006959000343
 30
0.0
 10
110.0793435124469
 20
-166.7359650650646
 30
0.0
 10
110.0793435124469
 20
-166.7359650650646
 30
0.0
  0
SPLINE
  5
E3
330
70
100
AcDbEntity
  8
Capa 1
 62
    18
420
        0
370
     9
100
AcDbSpline
210
0.0
220
0.0
230
1.0
 70
     8
 71
     3
 72
    17
 73
    13
 74
     0
 42
0.0000000001
 43
0.0000000001
 40
0.0
 40
0.0
 40
0.0
 40
0.0
 40
1.0
 40
1.0
 40
1.0
 40
2.0
 40
2.0
 40
2.0
 40
3.0
 40
3.0
 40
3.0
 40
4.0
 40
4.0
 40
4.0
 40
4.0
 10
110.1498979913925
 20
-166.7359650650646
 30
0.0
 10
110.1498979913925
 20
-166.7359650650646
 30
0.0
 10
110.1498979913925
 20
-166.7359650650646
 30
0.0
 10
110.1498979913925
 20
-166.7359650650646
 30
0.0
 10
110.1498979913925
 20
-166.7359650650646
 30
0.0
 10
110.1498979913925
 20
-166.7006959000343
 30
0.0
 10
110.1498979913925
 20
-166.7006959000343
 30
0.0
 10
110.1498979913925
 20
-166.7006959000343
 30
0.0
 10
110.1146234434005
 20
-166.6654159690807
 30
0.0
 10
110.1146234434005
 20
-166.6654159690807
 30
0.0
 10
110.1146234434005
 20
-166.6654159690807
 30
0.0
 10
110.0793435124469
 20
-166.6654159690807
 30
0.0
 10
110.0793435124469
 20
-166.6654159690807
 30
0.0
  0
SPLINE
  5
E4
330
70
100
AcDbEntity
  8
Capa 1
 62
    18
420
        0
370
     9
100
AcDbSpline
210
0.0
220
0.0
230
1.0
 70
    24
 71
     3
 72
    14
 73
    10
 74
     0
 42
0.0000000001
 43
0.0000000001
 40
0.0
 40
0.0
 40
0.0
 40
0.0
 40
1.0
 40
1.0
 40
1.0
 40
2.0
 40
2.0
 40
2.0
 40
3.0
 40
3.0
 40
3.0
 40
3.0
 10
110.0793435124469
 20
-166.7359650650646
 30
0.0
 10
110.0793435124469
 20
-166.7359650650646
 30
0.0
 10
110.0793435124469
 20
-166.7359650650646
 30
0.0
 10
110.0793435124469
 20
-166.7359650650646
 30
0.0
 10
110.0793435124469
 20
-166.7359650650646
 30
0.0
 10
110.1146234434005
 20
-166.7359650650646
 30
0.0
 10
110.1146234434005
 20
-166.7359650650646
 30
0.0
 10
110.1146234434005
 20
-166.7359650650646
 30
0.0
 10
110.1498979913925
 20
-166.7359650650646
 30
0.0
 10
110.1498979913925
 20
-166.7359650650646
 30
0.0
  0
SPLINE
  5
E5
330
70
100
AcDbEntity
  8
Capa 1
 62
    18
420
        0
370
     9
100
AcDbSpline
210
0.0
220
0.0
230
1.0
 70
    24
 71
     3
 72
    14
 73
    10
 74
     0
 42
0.0000000001
 43
0.0000000001
 40
0.0
 40
0.0
 40
0.0
 40
0.0
 40
1.0
 40
1.0
 40
1.0
 40
2.0
 40
2.0
 40
2.0
 40
3.0
 40
3.0
 40
3.0
 40
3.0
 10
78.22351180196607
 20
-215.0665206085375
 30
0.0
 10
78.22351180196607
 20
-215.0665206085375
 30
0.0
 10
78.22351180196607
 20
-215.0665206085375
 30
0.0
 10
78.22351180196607
 20
-215.0665206085375
 30
0.0
 10
78.22351180196607
 20
-215.0665206085375
 30
0.0
 10
78.18823187101243
 20
-215.0665206085375
 30
0.0
 10
78.18823187101243
 20
-215.0665206085375
 30
0.0
 10
78.18823187101243
 20
-215.0665206085375
 30
0.0
 10
78.15295463153964
 20
-215.0665206085375
 30
0.0
 10
78.15295463153964
 20
-215.0665206085375
 30
0.0
  0
SPLINE
  5
E6
330
70
100
AcDbEntity
  8
Capa 1
 62
    18
420
        0
370
     9
100
AcDbSpline
210
0.0
220
0.0
230
1.0
 70
    24
 71
     3
 72
     8
 73
     4
 74
     0
 42
0.0000000001
 43
0.0000000001
 40
0.0
 40
0.0
 40
0.0
 40
0.0
 40
1.0
 40
1.0
 40
1.0
 40
1.0
 10
78.15295463153964
 20
-166.7359650650646
 30
0.0
 10
78.15295463153964
 20
-166.7359650650646
 30
0.0
 10
78.15295463153964
 20
-215.0665206085375
 30
0.0
 10
78.15295463153964
 20
-215.0665206085375
 30
0.0
  0
SPLINE
  5
E7
330
70
100
AcDbEntity
  8
Capa 1
 62
    18
420
        0
370
     9
100
AcDbSpline
210
0.0
220
0.0
230
1.0
 70
    24
 71
     3
 72
     8
 73
     4
 74
     0
 42
0.0000000001
 43
0.0000000001
 40
0.0
 40
0.0
 40
0.0
 40
0.0
 40
1.0
 40
1.0
 40
1.0
 40
1.0
 10
78.22351180196607
 20
-166.7359650650646
 30
0.0
 10
78.22351180196607
 20
-166.7359650650646
 30
0.0
 10
78.22351180196607
 20
-215.0665206085375
 30
0.0
 10
78.22351180196607
 20
-215.0665206085375
 30
0.0
  0
SPLINE
  5
E8
330
70
100
AcDbEntity
  8
Capa 1
 62
    18
420
        0
370
     9
100
AcDbSpline
210
0.0
220
0.0
230
1.0
 70
    24
 71
     3
 72
     8
 73
     4
 74
     0
 42
0.0000000001
 43
0.0000000001
 40
0.0
 40
0.0
 40
0.0
 40
0.0
 40
1.0
 40
1.0
 40
1.0
 40
1.0
 10
110.1498979913925
 20
-215.0665206085375
 30
0.0
 10
110.1498979913925
 20
-215.0665206085375
 30
0.0
 10
110.1498979913925
 20
-166.7359650650646
 30
0.0
 10
110.1498979913925
 20
-166.7359650650646
 30
0.0
  0
SPLINE
  5
E9
330
70
100
AcDbEntity
  8
Capa 1
 62
    18
420
        0
370
     9
100
AcDbSpline
210
0.0
220
0.0
230
1.0
 70
    24
 71
     3
 72
    14
 73
    10
 74
     0
 42
0.0000000001
 43
0.0000000001
 40
0.0
 40
0.0
 40
0.0
 40
0.0
 40
1.0
 40
1.0
 40
1.0
 40
2.0
 40
2.0
 40
2.0
 40
3.0
 40
3.0
 40
3.0
 40
3.0
 10
110.1498979913925
 20
-215.0665206085375
 30
0.0
 10
110.1498979913925
 20
-215.0665206085375
 30
0.0
 10
110.1498979913925
 20
-215.0665206085375
 30
0.0
 10
110.1498979913925
 20
-215.0665206085375
 30
0.0
 10
110.1498979913925
 20
-215.0665206085375
 30
0.0
 10
110.1146234434005
 20
-215.0665206085375
 30
0.0
 10
110.1146234434005
 20
-215.0665206085375
 30
0.0
 10
110.1146234434005
 20
-215.0665206085375
 30
0.0
 10
110.0793435124469
 20
-215.0665206085375
 30
0.0
 10
110.0793435124469
 20
-215.0665206085375
 30
0.0
  0
SPLINE
  5
EA
330
70
100
AcDbEntity
  8
Capa 1
 62
    18
420
        0
370
     9
100
AcDbSpline
210
0.0
220
0.0
230
1.0
 70
    24
 71
     3
 72
     8
 73
     4
 74
     0
 42
0.0000000001
 43
0.0000000001
 40
0.0
 40
0.0
 40
0.0
 40
0.0
 40
1.0
 40
1.0
 40
1.0
 40
1.0
 10
110.0793435124469
 20
-215.0665206085375
 30
0.0
 10
110.0793435124469
 20
-215.0665206085375
 30
0.0
 10
110.0793435124469
 20
-166.7359650650646
 30
0.0
 10
110.0793435124469
 20
-166.7359650650646
 30
0.0
  0
SPLINE
  5
EB
330
70
100
AcDbEntity
  8
Capa 1
 62
    18
420
        0
370
     9
100
AcDbSpline
210
0.0
220
0.0
230
1.0
 70
    24
 71
     3
 72
     8
 73
     4
 74
     0
 42
0.0000000001
 43
0.0000000001
 40
0.0
 40
0.0
 40
0.0
 40
0.0
 40
1.0
 40
1.0
 40
1.0
 40
1.0
 10
110.0793435124469
 20
-166.7359650650646
 30
0.0
 10
110.0793435124469
 20
-166.7359650650646
 30
0.0
 10
78.22351180196607
 20
-166.7359650650646
 30
0.0
 10
78.22351180196607
 20
-166.7359650650646
 30
0.0
  0
SPLINE
  5
EC
330
70
100
AcDbEntity
  8
Capa 1
 62
    18
420
        0
370
     9
100
AcDbSpline
210
0.0
220
0.0
230
1.0
 70
    24
 71
     3
 72
     8
 73
     4
 74
     0
 42
0.0000000001
 43
0.0000000001
 40
0.0
 40
0.0
 40
0.0
 40
0.0
 40
1.0
 40
1.0
 40
1.0
 40
1.0
 10
110.0793435124469
 20
-166.6654159690807
 30
0.0
 10
110.0793435124469
 20
-166.6654159690807
 30
0.0
 10
78.22351180196607
 20
-166.6654159690807
 30
0.0
 10
78.22351180196607
 20
-166.6654159690807
 30
0.0
  0
SPLINE
  5
ED
330
70
100
AcDbEntity
  8
Capa 1
 62
    18
420
        0
370
     9
100
AcDbSpline
210
0.0
220
0.0
230
1.0
 70
    24
 71
     3
 72
     8
 73
     4
 74
     0
 42
0.0000000001
 43
0.0000000001
 40
0.0
 40
0.0
 40
0.0
 40
0.0
 40
1.0
 40
1.0
 40
1.0
 40
1.0
 10
78.22351180196607
 20
-215.0665206085375
 30
0.0
 10
78.22351180196607
 20
-215.0665206085375
 30
0.0
 10
110.0793435124469
 20
-215.0665206085375
 30
0.0
 10
110.0793435124469
 20
-215.0665206085375
 30
0.0
  0
SPLINE
  5
EE
330
70
100
AcDbEntity
  8
Capa 1
 62
    18
420
        0
370
     9
100
AcDbSpline
210
0.0
220
0.0
230
1.0
 70
    24
 71
     3
 72
    11
 73
     7
 74
     0
 42
0.0000000001
 43
0.0000000001
 40
0.0
 40
0.0
 40
0.0
 40
0.0
 40
1.0
 40
1.0
 40
1.0
 40
2.0
 40
2.0
 40
2.0
 40
2.0
 10
110.0793435124469
 20
-215.0665206085375
 30
0.0
 10
110.0793435124469
 20
-215.0665206085375
 30
0.0
 10
110.0793435124469
 20
-215.1018005394912
 30
0.0
 10
110.0793435124469
 20
-215.1018005394912
 30
0.0
 10
110.0793435124469
 20
-215.1018005394912
 30
0.0
 10
110.0793435124469
 20
-215.1370804704448
 30
0.0
 10
110.0793435124469
 20
-215.1370804704448
 30
0.0
  0
SPLINE
  5
EF
330
70
100
AcDbEntity
  8
Capa 1
 62
    18
420
        0
370
     9
100
AcDbSpline
210
0.0
220
0.0
230
1.0
 70
    24
 71
     3
 72
     8
 73
     4
 74
     0
 42
0.0000000001
 43
0.0000000001
 40
0.0
 40
0.0
 40
0.0
 40
0.0
 40
1.0
 40
1.0
 40
1.0
 40
1.0
 10
78.22351180196607
 20
-215.1370804704448
 30
0.0
 10
78.22351180196607
 20
-215.1370804704448
 30
0.0
 10
110.0793435124469
 20
-215.1370804704448
 30
0.0
 10
110.0793435124469
 20
-215.1370804704448
 30
0.0
  0
SPLINE
  5
F0
330
70
100
AcDbEntity
  8
Capa 1
 62
    18
420
        0
370
     9
100
AcDbSpline
210
0.0
220
0.0
230
1.0
 70
    24
 71
     3
 72
    14
 73
    10
 74
     0
 42
0.0000000001
 43
0.0000000001
 40
0.0
 40
0.0
 40
0.0
 40
0.0
 40
1.0
 40
1.0
 40
1.0
 40
2.0
 40
2.0
 40
2.0
 40
3.0
 40
3.0
 40
3.0
 40
3.0
 10
78.22351180196607
 20
-215.1370804704448
 30
0.0
 10
78.22351180196607
 20
-215.1370804704448
 30
0.0
 10
78.22351180196607
 20
-215.1370804704448
 30
0.0
 10
78.22351180196607
 20
-215.1370804704448
 30
0.0
 10
78.22351180196607
 20
-215.1370804704448
 30
0.0
 10
78.22351180196607
 20
-215.1018005394912
 30
0.0
 10
78.22351180196607
 20
-215.1018005394912
 30
0.0
 10
78.22351180196607
 20
-215.1018005394912
 30
0.0
 10
78.22351180196607
 20
-215.0665206085375
 30
0.0
 10
78.22351180196607
 20
-215.0665206085375
 30
0.0
  0
SPLINE
  5
F1
330
70
100
AcDbEntity
  8
Capa 1
 62
    18
420
        0
370
     9
100
AcDbSpline
210
0.0
220
0.0
230
1.0
 70
     8
 71
     3
 72
    14
 73
    10
 74
     0
 42
0.0000000001
 43
0.0000000001
 40
0.0
 40
0.0
 40
0.0
 40
0.0
 40
1.0
 40
1.0
 40
1.0
 40
2.0
 40
2.0
 40
2.0
 40
3.0
 40
3.0
 40
3.0
 40
3.0
 10
78.15295463153964
 20
-215.0665206085375
 30
0.0
 10
78.15295463153964
 20
-215.0665206085375
 30
0.0
 10
78.15295463153964
 20
-215.1018005394912
 30
0.0
 10
78.15295463153964
 20
-215.1018005394912
 30
0.0
 10
78.15295463153964
 20
-215.1018005394912
 30
0.0
 10
78.18823187101243
 20
-215.1370804704448
 30
0.0
 10
78.18823187101243
 20
-215.1370804704448
 30
0.0
 10
78.18823187101243
 20
-215.1370804704448
 30
0.0
 10
78.22351180196607
 20
-215.1370804704448
 30
0.0
 10
78.22351180196607
 20
-215.1370804704448
 30
0.0
  0
SPLINE
  5
F2
330
70
100
AcDbEntity
  8
Capa 1
 62
    18
420
        0
370
     9
100
AcDbSpline
210
0.0
220
0.0
230
1.0
 70
     8
 71
     3
 72
    17
 73
    13
 74
     0
 42
0.0000000001
 43
0.0000000001
 40
0.0
 40
0.0
 40
0.0
 40
0.0
 40
1.0
 40
1.0
 40
1.0
 40
2.0
 40
2.0
 40
2.0
 40
3.0
 40
3.0
 40
3.0
 40
4.0
 40
4.0
 40
4.0
 40
4.0
 10
110.0793435124469
 20
-215.1370804704448
 30
0.0
 10
110.0793435124469
 20
-215.1370804704448
 30
0.0
 10
110.0793435124469
 20
-215.1370804704448
 30
0.0
 10
110.0793435124469
 20
-215.1370804704448
 30
0.0
 10
110.0793435124469
 20
-215.1370804704448
 30
0.0
 10
110.1146234434005
 20
-215.1370804704448
 30
0.0
 10
110.1146234434005
 20
-215.1370804704448
 30
0.0
 10
110.1146234434005
 20
-215.1370804704448
 30
0.0
 10
110.1498979913925
 20
-215.1018005394912
 30
0.0
 10
110.1498979913925
 20
-215.1018005394912
 30
0.0
 10
110.1498979913925
 20
-215.1018005394912
 30
0.0
 10
110.1498979913925
 20
-215.0665206085375
 30
0.0
 10
110.1498979913925
 20
-215.0665206085375
 30
0.0
  0
SPLINE
  5
F3
330
70
100
AcDbEntity
  8
Capa 1
 62
    18
420
        0
370
     9
100
AcDbSpline
 70
     3
 71
     3
 72
     8
 73
     4
 74
     0
 42
0.0000000001
 43
0.0000000001
 40
0.0
 40
0.0
 40
0.0
 40
0.0
 40
1.0
 40
1.0
 40
1.0
 40
1.0
 10
79.35239961398041
 20
-215.5956872750719
 30
0.0
 10
79.35239961398041
 20
-215.5956872750719
 30
0.0
 10
79.35239961398041
 20
-215.5956872750719
 30
0.0
 10
79.35239961398041
 20
-215.5956872750719
 30
0.0
  0
SPLINE
  5
F4
330
70
100
AcDbEntity
  8
Capa 1
 62
    18
420
        0
370
     9
100
AcDbSpline
210
0.0
220
0.0
230
1.0
 70
    24
 71
     3
 72
     8
 73
     4
 74
     0
 42
0.0000000001
 43
0.0000000001
 40
0.0
 40
0.0
 40
0.0
 40
0.0
 40
1.0
 40
1.0
 40
1.0
 40
1.0
 10
79.31712237450762
 20
-215.2781894283359
 30
0.0
 10
79.31712237450762
 20
-215.2781894283359
 30
0.0
 10
79.35239961398041
 20
-215.2781894283359
 30
0.0
 10
79.35239961398041
 20
-215.2781894283359
 30
0.0
  0
SPLINE
  5
F5
330
70
100
AcDbEntity
  8
Capa 1
 62
    18
420
        0
370
     9
100
AcDbSpline
 70
     3
 71
     3
 72
     8
 73
     4
 74
     0
 42
0.0000000001
 43
0.0000000001
 40
0.0
 40
0.0
 40
0.0
 40
0.0
 40
1.0
 40
1.0
 40
1.0
 40
1.0
 10
78.78795570797324
 20
-215.5956872750719
 30
0.0
 10
78.78795570797324
 20
-215.5956872750719
 30
0.0
 10
78.78795570797324
 20
-215.5956872750719
 30
0.0
 10
78.78795570797324
 20
-215.5956872750719
 30
0.0
  0
SPLINE
  5
F6
330
70
100
AcDbEntity
  8
Capa 1
 62
    18
420
        0
370
     9
100
AcDbSpline
210
0.0
220
0.0
230
1.0
 70
    24
 71
     3
 72
     8
 73
     4
 74
     0
 42
0.0000000001
 43
0.0000000001
 40
0.0
 40
0.0
 40
0.0
 40
0.0
 40
1.0
 40
1.0
 40
1.0
 40
1.0
 10
78.82323294744603
 20
-215.5604073441183
 30
0.0
 10
78.82323294744603
 20
-215.5604073441183
 30
0.0
 10
78.82323294744603
 20
-215.2781894283359
 30
0.0
 10
78.82323294744603
 20
-215.2781894283359
 30
0.0
  0
SPLINE
  5
F7
330
70
100
AcDbEntity
  8
Capa 1
 62
    18
420
        0
370
     9
100
AcDbSpline
210
0.0
220
0.0
230
1.0
 70
    24
 71
     3
 72
     8
 73
     4
 74
     0
 42
0.0000000001
 43
0.0000000001
 40
0.0
 40
0.0
 40
0.0
 40
0.0
 40
1.0
 40
1.0
 40
1.0
 40
1.0
 10
78.75267846850045
 20
-215.5604073441183
 30
0.0
 10
78.75267846850045
 20
-215.5604073441183
 30
0.0
 10
78.75267846850045
 20
-215.2781894283359
 30
0.0
 10
78.75267846850045
 20
-215.2781894283359
 30
0.0
  0
MTEXT
  5
F8
330
70
100
AcDbEntity
  8
Capa 1
100
AcDbMText
 10
118.3851939456959
 20
-143.9068273267996
 30
0.0
 40
0.2
 41
0.0
 46
0.0
 71
     7
 72
     1
  1
\C18;\c0;\FArial Bold|b1|i0|c1;\H2.499665;\W0.999201;  230  
 11
-0.0000000000897932
 21
-1.0
 31
0.0
 73
     1
 44
1.0
  0
LWPOLYLINE
  5
F9
330
70
100
AcDbEntity
  8
Capa 1
 62
    18
420
        0
370
     9
100
AcDbPolyline
 90
        4
 70
     0
 43
0.0
 10
117.6443165084264
 20
-137.0629451812127
 10
117.961819738124
 20
-139.1090519854429
 10
117.3268186616905
 20
-139.1090519854429
 10
117.6443165084264
 20
-137.0629451812127
  0
LWPOLYLINE
  5
FA
330
70
100
AcDbEntity
  8
Capa 1
 62
    18
420
        0
370
     9
100
AcDbPolyline
 90
        4
 70
     0
 43
0.0
 10
117.6443165084264
 20
-156.1834996553958
 10
117.3268186616905
 20
-154.1373874682039
 10
117.961819738124
 20
-154.1373874682039
 10
117.6443165084264
 20
-156.1834996553958
  0
LINE
  5
FB
330
70
100
AcDbEntity
  8
Capa 1
 62
    18
420
        0
370
     9
100
AcDbLine
 10
117.6443218913881
 20
-156.1834996553958
 30
0.0
 11
117.6443218913881
 21
-137.0629451812127
 31
0.0
  0
LINE
  5
FC
330
70
100
AcDbEntity
  8
Capa 1
 62
    18
420
        0
370
     9
100
AcDbLine
 10
119.0907129331
 20
-137.0629451812127
 30
0.0
 11
112.0704319273003
 21
-137.0629451812127
 31
0.0
  0
LINE
  5
FD
330
70
100
AcDbEntity
  8
Capa 1
 62
    18
420
        0
370
     9
100
AcDbLine
 10
119.4787652587816
 20
-156.1834996553958
 30
0.0
 11
112.0704319273003
 21
-156.1834996553958
 31
0.0
  0
LWPOLYLINE
  5
FE
330
70
100
AcDbEntity
  8
Capa 1
100
AcDbPolyline
 90
        3
 70
     0
 43
0.0
 10
117.6443165084264
 20
-137.0629451812127
 10
117.961819738124
 20
-139.1090519854429
 10
117.3268186616905
 20
-139.1090519854429
  0
HATCH
  5
FF
330
70
100
AcDbEntity
  8
Capa 1
 62
    18
420
        0
440
 33554687
100
AcDbHatch
 10
0.0
 20
0.0
 30
0.0
210
0.0
220
0.0
230
1.0
  2
SOLID
 70
     1
 71
     1
 91
        1
 92
        3
 72
     0
 73
     1
 93
        3
 10
117.6443165084264
 20
-137.0629451812127
 10
117.961819738124
 20
-139.1090519854429
 10
117.3268186616905
 20
-139.1090519854429
 97
        0
 75
     2
 76
     1
 98
        1
 10
0.0
 20
0.0
450
        0
451
        0
460
0.0
461
0.0
452
        0
462
0.0
453
        0
470

  0
LWPOLYLINE
  5
100
330
70
100
AcDbEntity
  8
Capa 1
100
AcDbPolyline
 90
        3
 70
     0
 43
0.0
 10
117.6443165084264
 20
-156.1834996553958
 10
117.3268186616905
 20
-154.1373874682039
 10
117.961819738124
 20
-154.1373874682039
  0
HATCH
  5
101
330
70
100
AcDbEntity
  8
Capa 1
 62
    18
420
        0
440
 33554687
100
AcDbHatch
 10
0.0
 20
0.0
 30
0.0
210
0.0
220
0.0
230
1.0
  2
SOLID
 70
     1
 71
     1
 91
        1
 92
        3
 72
     0
 73
     1
 93
        3
 10
117.6443165084264
 20
-156.1834996553958
 10
117.3268186616905
 20
-154.1373874682039
 10
117.961819738124
 20
-154.1373874682039
 97
        0
 75
     2
 76
     1
 98
        1
 10
0.0
 20
0.0
450
        0
451
        0
460
0.0
461
0.0
452
        0
462
0.0
453
        0
470

  0
SPLINE
  5
102
330
70
100
AcDbEntity
  8
Capa 1
 62
    18
420
        0
370
     9
100
AcDbSpline
210
0.0
220
0.0
230
1.0
 70
    24
 71
     3
 72
     8
 73
     4
 74
     0
 42
0.0000000001
 43
0.0000000001
 40
0.0
 40
0.0
 40
0.0
 40
0.0
 40
1.0
 40
1.0
 40
1.0
 40
1.0
 10
76.47515631160607
 20
-137.4510001983751
 30
0.0
 10
76.47515631160607
 20
-137.4510001983751
 30
0.0
 10
76.47515631160607
 20
-155.7954446382334
 30
0.0
 10
76.47515631160607
 20
-155.7954446382334
 30
0.0
  0
SPLINE
  5
103
330
70
100
AcDbEntity
  8
Capa 1
 62
    18
420
        0
370
     9
100
AcDbSpline
210
0.0
220
0.0
230
1.0
 70
    24
 71
     3
 72
     8
 73
     4
 74
     0
 42
0.0000000001
 43
0.0000000001
 40
0.0
 40
0.0
 40
0.0
 40
0.0
 40
1.0
 40
1.0
 40
1.0
 40
1.0
 10
76.86321132876845
 20
-156.1835023468766
 30
0.0
 10
76.86321132876845
 20
-156.1835023468766
 30
0.0
 10
109.3893240466365
 20
-156.1835023468766
 30
0.0
 10
109.3893240466365
 20
-156.1835023468766
 30
0.0
  0
SPLINE
  5
104
330
70
100
AcDbEntity
  8
Capa 1
 62
    18
420
        0
370
     9
100
AcDbSpline
210
0.0
220
0.0
230
1.0
 70
    24
 71
     3
 72
     8
 73
     4
 74
     0
 42
0.0000000001
 43
0.0000000001
 40
0.0
 40
0.0
 40
0.0
 40
0.0
 40
1.0
 40
1.0
 40
1.0
 40
1.0
 10
109.8126563032717
 20
-155.7954446382334
 30
0.0
 10
109.8126563032717
 20
-155.7954446382334
 30
0.0
 10
109.8126563032717
 20
-137.4510001983751
 30
0.0
 10
109.8126563032717
 20
-137.4510001983751
 30
0.0
  0
SPLINE
  5
105
330
70
100
AcDbEntity
  8
Capa 1
 62
    18
420
        0
370
     9
100
AcDbSpline
210
0.0
220
0.0
230
1.0
 70
     8
 71
     3
 72
    29
 73
    25
 74
     0
 42
0.0000000001
 43
0.0000000001
 40
0.0
 40
0.0
 40
0.0
 40
0.0
 40
1.0
 40
1.0
 40
1.0
 40
2.0
 40
2.0
 40
2.0
 40
3.0
 40
3.0
 40
3.0
 40
4.0
 40
4.0
 40
4.0
 40
5.0
 40
5.0
 40
5.0
 40
6.0
 40
6.0
 40
6.0
 40
7.0
 40
7.0
 40
7.0
 40
8.0
 40
8.0
 40
8.0
 40
8.0
 10
76.47515631160607
 20
-155.7954446382334
 30
0.0
 10
76.47515631160607
 20
-155.7954446382334
 30
0.0
 10
76.47515631160607
 20
-155.8660045001407
 30
0.0
 10
76.47515631160607
 20
-155.8660045001407
 30
0.0
 10
76.47515631160607
 20
-155.8660045001407
 30
0.0
 10
76.51043355107886
 20
-155.9365589790863
 30
0.0
 10
76.51043355107886
 20
-155.9365589790863
 30
0.0
 10
76.51043355107886
 20
-155.9365589790863
 30
0.0
 10
76.54571079055165
 20
-156.0071134580319
 30
0.0
 10
76.54571079055165
 20
-156.0071134580319
 30
0.0
 10
76.54571079055165
 20
-156.0071134580319
 30
0.0
 10
76.58098803002443
 20
-156.0776679369774
 30
0.0
 10
76.58098803002443
 20
-156.0776679369774
 30
0.0
 10
76.58098803002443
 20
-156.0776679369774
 30
0.0
 10
76.65154520045085
 20
-156.1129478679311
 30
0.0
 10
76.65154520045085
 20
-156.1129478679311
 30
0.0
 10
76.65154520045085
 20
-156.1129478679311
 30
0.0
 10
76.72209967939643
 20
-156.148222415923
 30
0.0
 10
76.72209967939643
 20
-156.148222415923
 30
0.0
 10
76.72209967939643
 20
-156.148222415923
 30
0.0
 10
76.79265415834201
 20
-156.1835023468766
 30
0.0
 10
76.79265415834201
 20
-156.1835023468766
 30
0.0
 10
76.79265415834201
 20
-156.1835023468766
 30
0.0
 10
76.86321132876845
 20
-156.1835023468766
 30
0.0
 10
76.86321132876845
 20
-156.1835023468766
 30
0.0
  0
SPLINE
  5
106
330
70
100
AcDbEntity
  8
Capa 1
 62
    18
420
        0
370
     9
100
AcDbSpline
210
0.0
220
0.0
230
1.0
 70
     8
 71
     3
 72
    29
 73
    25
 74
     0
 42
0.0000000001
 43
0.0000000001
 40
0.0
 40
0.0
 40
0.0
 40
0.0
 40
1.0
 40
1.0
 40
1.0
 40
2.0
 40
2.0
 40
2.0
 40
3.0
 40
3.0
 40
3.0
 40
4.0
 40
4.0
 40
4.0
 40
5.0
 40
5.0
 40
5.0
 40
6.0
 40
6.0
 40
6.0
 40
7.0
 40
7.0
 40
7.0
 40
8.0
 40
8.0
 40
8.0
 40
8.0
 10
109.3893240466365
 20
-156.1835023468766
 30
0.0
 10
109.3893240466365
 20
-156.1835023468766
 30
0.0
 10
109.495153073574
 20
-156.1835023468766
 30
0.0
 10
109.495153073574
 20
-156.1835023468766
 30
0.0
 10
109.495153073574
 20
-156.1835023468766
 30
0.0
 10
109.5657129354813
 20
-156.148222415923
 30
0.0
 10
109.5657129354813
 20
-156.148222415923
 30
0.0
 10
109.5657129354813
 20
-156.148222415923
 30
0.0
 10
109.6362674144269
 20
-156.1129478679311
 30
0.0
 10
109.6362674144269
 20
-156.1129478679311
 30
0.0
 10
109.6362674144269
 20
-156.1129478679311
 30
0.0
 10
109.7068218933725
 20
-156.0776679369774
 30
0.0
 10
109.7068218933725
 20
-156.0776679369774
 30
0.0
 10
109.7068218933725
 20
-156.0776679369774
 30
0.0
 10
109.7421018243261
 20
-156.0071134580319
 30
0.0
 10
109.7421018243261
 20
-156.0071134580319
 30
0.0
 10
109.7421018243261
 20
-156.0071134580319
 30
0.0
 10
109.777376372318
 20
-155.9365589790863
 30
0.0
 10
109.777376372318
 20
-155.9365589790863
 30
0.0
 10
109.777376372318
 20
-155.9365589790863
 30
0.0
 10
109.8126563032717
 20
-155.8660045001407
 30
0.0
 10
109.8126563032717
 20
-155.8660045001407
 30
0.0
 10
109.8126563032717
 20
-155.8660045001407
 30
0.0
 10
109.8126563032717
 20
-155.7954446382334
 30
0.0
 10
109.8126563032717
 20
-155.7954446382334
 30
0.0
  0
SPLINE
  5
107
330
70
100
AcDbEntity
  8
Capa 1
 62
    18
420
        0
370
     9
100
AcDbSpline
210
0.0
220
0.0
230
1.0
 70
    24
 71
     3
 72
     8
 73
     4
 74
     0
 42
0.0000000001
 43
0.0000000001
 40
0.0
 40
0.0
 40
0.0
 40
0.0
 40
1.0
 40
1.0
 40
1.0
 40
1.0
 10
109.8126563032717
 20
-137.4510001983751
 30
0.0
 10
109.8126563032717
 20
-137.4510001983751
 30
0.0
 10
109.8126563032717
 20
-137.3804457194295
 30
0.0
 10
109.8126563032717
 20
-137.3804457194295
 30
0.0
  0
SPLINE
  5
108
330
70
100
AcDbEntity
  8
Capa 1
 62
    18
420
        0
370
     9
100
AcDbSpline
210
0.0
220
0.0
230
1.0
 70
    24
 71
     3
 72
    11
 73
     7
 74
     0
 42
0.0000000001
 43
0.0000000001
 40
0.0
 40
0.0
 40
0.0
 40
0.0
 40
1.0
 40
1.0
 40
1.0
 40
2.0
 40
2.0
 40
2.0
 40
2.0
 10
76.47515631160607
 20
-137.3451711714376
 30
0.0
 10
76.47515631160607
 20
-137.3451711714376
 30
0.0
 10
76.47515631160607
 20
-137.3804457194295
 30
0.0
 10
76.47515631160607
 20
-137.3804457194295
 30
0.0
 10
76.47515631160607
 20
-137.3804457194295
 30
0.0
 10
76.47515631160607
 20
-137.4510001983751
 30
0.0
 10
76.47515631160607
 20
-137.4510001983751
 30
0.0
  0
SPLINE
  5
109
330
70
100
AcDbEntity
  8
Capa 1
 62
    18
420
        0
370
     9
100
AcDbSpline
210
0.0
220
0.0
230
1.0
 70
    24
 71
     3
 72
     8
 73
     4
 74
     0
 42
0.0000000001
 43
0.0000000001
 40
0.0
 40
0.0
 40
0.0
 40
0.0
 40
1.0
 40
1.0
 40
1.0
 40
1.0
 10
76.47515631160607
 20
-137.3804457194295
 30
0.0
 10
76.47515631160607
 20
-137.3804457194295
 30
0.0
 10
76.47515631160607
 20
-137.0629478726935
 30
0.0
 10
76.47515631160607
 20
-137.0629478726935
 30
0.0
  0
SPLINE
  5
10A
330
70
100
AcDbEntity
  8
Capa 1
 62
    18
420
        0
370
     9
100
AcDbSpline
210
0.0
220
0.0
230
1.0
 70
    24
 71
     3
 72
     8
 73
     4
 74
     0
 42
0.0000000001
 43
0.0000000001
 40
0.0
 40
0.0
 40
0.0
 40
0.0
 40
1.0
 40
1.0
 40
1.0
 40
1.0
 10
109.8126563032717
 20
-137.0629478726935
 30
0.0
 10
109.8126563032717
 20
-137.0629478726935
 30
0.0
 10
76.47515631160607
 20
-137.0629478726935
 30
0.0
 10
76.47515631160607
 20
-137.0629478726935
 30
0.0
  0
SPLINE
  5
10B
330
70
100
AcDbEntity
  8
Capa 1
 62
    18
420
        0
370
     9
100
AcDbSpline
210
0.0
220
0.0
230
1.0
 70
    24
 71
     3
 72
     8
 73
     4
 74
     0
 42
0.0000000001
 43
0.0000000001
 40
0.0
 40
0.0
 40
0.0
 40
0.0
 40
1.0
 40
1.0
 40
1.0
 40
1.0
 10
109.8126563032717
 20
-137.3804457194295
 30
0.0
 10
109.8126563032717
 20
-137.3804457194295
 30
0.0
 10
109.8126563032717
 20
-137.0629478726935
 30
0.0
 10
109.8126563032717
 20
-137.0629478726935
 30
0.0
  0
SPLINE
  5
10C
330
70
100
AcDbEntity
  8
Capa 1
 62
    18
420
        0
370
     9
100
AcDbSpline
210
0.0
220
0.0
230
1.0
 70
     8
 71
     3
 72
    29
 73
    25
 74
     0
 42
0.0000000001
 43
0.0000000001
 40
0.0
 40
0.0
 40
0.0
 40
0.0
 40
1.0
 40
1.0
 40
1.0
 40
2.0
 40
2.0
 40
2.0
 40
3.0
 40
3.0
 40
3.0
 40
4.0
 40
4.0
 40
4.0
 40
5.0
 40
5.0
 40
5.0
 40
6.0
 40
6.0
 40
6.0
 40
7.0
 40
7.0
 40
7.0
 40
8.0
 40
8.0
 40
8.0
 40
8.0
 10
77.1454319360316
 20
-140.2026679409462
 30
0.0
 10
77.1454319360316
 20
-140.2026679409462
 30
0.0
 10
77.21598910645802
 20
-139.9204446422022
 30
0.0
 10
77.21598910645802
 20
-139.9204446422022
 30
0.0
 10
77.21598910645802
 20
-139.9204446422022
 30
0.0
 10
77.35710075583003
 20
-139.6735012744118
 30
0.0
 10
77.35710075583003
 20
-139.6735012744118
 30
0.0
 10
77.35710075583003
 20
-139.6735012744118
 30
0.0
 10
77.5687668841476
 20
-139.4618378375751
 30
0.0
 10
77.5687668841476
 20
-139.4618378375751
 30
0.0
 10
77.5687668841476
 20
-139.4618378375751
 30
0.0
 10
77.85098749141076
 20
-139.3560034276759
 30
0.0
 10
77.85098749141076
 20
-139.3560034276759
 30
0.0
 10
77.85098749141076
 20
-139.3560034276759
 30
0.0
 10
78.16848802962756
 20
-139.2501690177766
 30
0.0
 10
78.16848802962756
 20
-139.2501690177766
 30
0.0
 10
78.16848802962756
 20
-139.2501690177766
 30
0.0
 10
78.48598856784436
 20
-139.214889086823
 30
0.0
 10
78.48598856784436
 20
-139.214889086823
 30
0.0
 10
78.48598856784436
 20
-139.214889086823
 30
0.0
 10
78.80348910606115
 20
-139.1796145388311
 30
0.0
 10
78.80348910606115
 20
-139.1796145388311
 30
0.0
 10
78.80348910606115
 20
-139.1796145388311
 30
0.0
 10
79.15626688375073
 20
-139.1796145388311
 30
0.0
 10
79.15626688375073
 20
-139.1796145388311
 30
0.0
  0
SPLINE
  5
10D
330
70
100
AcDbEntity
  8
Capa 1
 62
    18
420
        0
370
     9
100
AcDbSpline
210
0.0
220
0.0
230
1.0
 70
     8
 71
     3
 72
    29
 73
    25
 74
     0
 42
0.0000000001
 43
0.0000000001
 40
0.0
 40
0.0
 40
0.0
 40
0.0
 40
1.0
 40
1.0
 40
1.0
 40
2.0
 40
2.0
 40
2.0
 40
3.0
 40
3.0
 40
3.0
 40
4.0
 40
4.0
 40
4.0
 40
5.0
 40
5.0
 40
5.0
 40
6.0
 40
6.0
 40
6.0
 40
7.0
 40
7.0
 40
7.0
 40
8.0
 40
8.0
 40
8.0
 40
8.0
 10
79.01515523437872
 20
-155.3015579026527
 30
0.0
 10
79.01515523437872
 20
-155.3015579026527
 30
0.0
 10
78.69765469616194
 20
-155.3015579026527
 30
0.0
 10
78.69765469616194
 20
-155.3015579026527
 30
0.0
 10
78.69765469616194
 20
-155.3015579026527
 30
0.0
 10
78.38015415794514
 20
-155.266277971699
 30
0.0
 10
78.38015415794514
 20
-155.266277971699
 30
0.0
 10
78.38015415794514
 20
-155.266277971699
 30
0.0
 10
78.06265631120919
 20
-155.2310034237071
 30
0.0
 10
78.06265631120919
 20
-155.2310034237071
 30
0.0
 10
78.06265631120919
 20
-155.2310034237071
 30
0.0
 10
77.78043301246518
 20
-155.1251690138079
 30
0.0
 10
77.78043301246518
 20
-155.1251690138079
 30
0.0
 10
77.78043301246518
 20
-155.1251690138079
 30
0.0
 10
77.53348964467481
 20
-155.0193346039087
 30
0.0
 10
77.53348964467481
 20
-155.0193346039087
 30
0.0
 10
77.53348964467481
 20
-155.0193346039087
 30
0.0
 10
77.32182082487639
 20
-154.8076711670719
 30
0.0
 10
77.32182082487639
 20
-154.8076711670719
 30
0.0
 10
77.32182082487639
 20
-154.8076711670719
 30
0.0
 10
77.18071186698523
 20
-154.5960023472735
 30
0.0
 10
77.18071186698523
 20
-154.5960023472735
 30
0.0
 10
77.18071186698523
 20
-154.5960023472735
 30
0.0
 10
77.1454319360316
 20
-154.3137790485295
 30
0.0
 10
77.1454319360316
 20
-154.3137790485295
 30
0.0
  0
SPLINE
  5
10E
330
70
100
AcDbEntity
  8
Capa 1
 62
    18
420
        0
370
     9
100
AcDbSpline
210
0.0
220
0.0
230
1.0
 70
    24
 71
     3
 72
     8
 73
     4
 74
     0
 42
0.0000000001
 43
0.0000000001
 40
0.0
 40
0.0
 40
0.0
 40
0.0
 40
1.0
 40
1.0
 40
1.0
 40
1.0
 10
109.3893240466365
 20
-137.4510001983751
 30
0.0
 10
109.3893240466365
 20
-137.4510001983751
 30
0.0
 10
76.86321132876845
 20
-137.4510001983751
 30
0.0
 10
76.86321132876845
 20
-137.4510001983751
 30
0.0
  0
SPLINE
  5
10F
330
70
100
AcDbEntity
  8
Capa 1
 62
    18
420
        0
370
     9
100
AcDbSpline
210
0.0
220
0.0
230
1.0
 70
    24
 71
     3
 72
     8
 73
     4
 74
     0
 42
0.0000000001
 43
0.0000000001
 40
0.0
 40
0.0
 40
0.0
 40
0.0
 40
1.0
 40
1.0
 40
1.0
 40
1.0
 10
77.1454319360316
 20
-140.2026679409462
 30
0.0
 10
77.1454319360316
 20
-140.2026679409462
 30
0.0
 10
77.1454319360316
 20
-154.3137790485295
 30
0.0
 10
77.1454319360316
 20
-154.3137790485295
 30
0.0
  0
SPLINE
  5
110
330
70
100
AcDbEntity
  8
Capa 1
 62
    18
420
        0
370
     9
100
AcDbSpline
210
0.0
220
0.0
230
1.0
 70
    24
 71
     3
 72
     8
 73
     4
 74
     0
 42
0.0000000001
 43
0.0000000001
 40
0.0
 40
0.0
 40
0.0
 40
0.0
 40
1.0
 40
1.0
 40
1.0
 40
1.0
 10
108.154601824723
 20
-139.1796145388311
 30
0.0
 10
108.154601824723
 20
-139.1796145388311
 30
0.0
 10
79.15626688375073
 20
-139.1796145388311
 30
0.0
 10
79.15626688375073
 20
-139.1796145388311
 30
0.0
  0
SPLINE
  5
111
330
70
100
AcDbEntity
  8
Capa 1
 62
    18
420
        0
370
     9
100
AcDbSpline
210
0.0
220
0.0
230
1.0
 70
    24
 71
     3
 72
     8
 73
     4
 74
     0
 42
0.0000000001
 43
0.0000000001
 40
0.0
 40
0.0
 40
0.0
 40
0.0
 40
1.0
 40
1.0
 40
1.0
 40
1.0
 10
79.01515523437872
 20
-155.3015579026527
 30
0.0
 10
79.01515523437872
 20
-155.3015579026527
 30
0.0
 10
108.154601824723
 20
-155.3015579026527
 30
0.0
 10
108.154601824723
 20
-155.3015579026527
 30
0.0
  0
SPLINE
  5
112
330
70
100
AcDbEntity
  8
Capa 1
 62
    18
420
        0
370
     9
100
AcDbSpline
210
0.0
220
0.0
230
1.0
 70
    24
 71
     3
 72
     8
 73
     4
 74
     0
 42
0.0000000001
 43
0.0000000001
 40
0.0
 40
0.0
 40
0.0
 40
0.0
 40
1.0
 40
1.0
 40
1.0
 40
1.0
 10
108.9659864070396
 20
-154.4901679373743
 30
0.0
 10
108.9659864070396
 20
-154.4901679373743
 30
0.0
 10
108.9659864070396
 20
-139.9910045041094
 30
0.0
 10
108.9659864070396
 20
-139.9910045041094
 30
0.0
  0
SPLINE
  5
113
330
70
100
AcDbEntity
  8
Capa 1
 62
    18
420
        0
370
     9
100
AcDbSpline
210
0.0
220
0.0
230
1.0
 70
    24
 71
     3
 72
     8
 73
     4
 74
     0
 42
0.0000000001
 43
0.0000000001
 40
0.0
 40
0.0
 40
0.0
 40
0.0
 40
1.0
 40
1.0
 40
1.0
 40
1.0
 10
108.154601824723
 20
-139.1796145388311
 30
0.0
 10
108.154601824723
 20
-139.1796145388311
 30
0.0
 10
108.3309907135678
 20
-139.214889086823
 30
0.0
 10
108.3309907135678
 20
-139.214889086823
 30
0.0
  0
SPLINE
  5
114
330
70
100
AcDbEntity
  8
Capa 1
 62
    18
420
        0
370
     9
100
AcDbSpline
210
0.0
220
0.0
230
1.0
 70
     8
 71
     3
 72
    17
 73
    13
 74
     0
 42
0.0000000001
 43
0.0000000001
 40
0.0
 40
0.0
 40
0.0
 40
0.0
 40
1.0
 40
1.0
 40
1.0
 40
2.0
 40
2.0
 40
2.0
 40
3.0
 40
3.0
 40
3.0
 40
4.0
 40
4.0
 40
4.0
 40
4.0
 10
108.3309907135678
 20
-139.214889086823
 30
0.0
 10
108.3309907135678
 20
-139.214889086823
 30
0.0
 10
108.5779340813581
 20
-139.3207234967222
 30
0.0
 10
108.5779340813581
 20
-139.3207234967222
 30
0.0
 10
108.5779340813581
 20
-139.3207234967222
 30
0.0
 10
108.7895975181949
 20
-139.497112385567
 30
0.0
 10
108.7895975181949
 20
-139.497112385567
 30
0.0
 10
108.7895975181949
 20
-139.497112385567
 30
0.0
 10
108.8954319280941
 20
-139.7087812053654
 30
0.0
 10
108.8954319280941
 20
-139.7087812053654
 30
0.0
 10
108.8954319280941
 20
-139.7087812053654
 30
0.0
 10
108.9659864070396
 20
-139.9910045041094
 30
0.0
 10
108.9659864070396
 20
-139.9910045041094
 30
0.0
  0
SPLINE
  5
115
330
70
100
AcDbEntity
  8
Capa 1
 62
    18
420
        0
370
     9
100
AcDbSpline
210
0.0
220
0.0
230
1.0
 70
     8
 71
     3
 72
    11
 73
     7
 74
     0
 42
0.0000000001
 43
0.0000000001
 40
0.0
 40
0.0
 40
0.0
 40
0.0
 40
1.0
 40
1.0
 40
1.0
 40
2.0
 40
2.0
 40
2.0
 40
2.0
 10
108.6132086293501
 20
-155.1251690138079
 30
0.0
 10
108.6132086293501
 20
-155.1251690138079
 30
0.0
 10
108.4015451925133
 20
-155.266277971699
 30
0.0
 10
108.4015451925133
 20
-155.266277971699
 30
0.0
 10
108.4015451925133
 20
-155.266277971699
 30
0.0
 10
108.154601824723
 20
-155.3015579026527
 30
0.0
 10
108.154601824723
 20
-155.3015579026527
 30
0.0
  0
SPLINE
  5
116
330
70
100
AcDbEntity
  8
Capa 1
 62
    18
420
        0
370
     9
100
AcDbSpline
210
0.0
220
0.0
230
1.0
 70
     8
 71
     3
 72
    17
 73
    13
 74
     0
 42
0.0000000001
 43
0.0000000001
 40
0.0
 40
0.0
 40
0.0
 40
0.0
 40
1.0
 40
1.0
 40
1.0
 40
2.0
 40
2.0
 40
2.0
 40
3.0
 40
3.0
 40
3.0
 40
4.0
 40
4.0
 40
4.0
 40
4.0
 10
108.9659864070396
 20
-154.4901679373743
 30
0.0
 10
108.9659864070396
 20
-154.4901679373743
 30
0.0
 10
108.9307118590477
 20
-154.6665568262191
 30
0.0
 10
108.9307118590477
 20
-154.6665568262191
 30
0.0
 10
108.9307118590477
 20
-154.6665568262191
 30
0.0
 10
108.8601573801021
 20
-154.8429457150639
 30
0.0
 10
108.8601573801021
 20
-154.8429457150639
 30
0.0
 10
108.8601573801021
 20
-154.8429457150639
 30
0.0
 10
108.7543229702029
 20
-155.0193346039087
 30
0.0
 10
108.7543229702029
 20
-155.0193346039087
 30
0.0
 10
108.7543229702029
 20
-155.0193346039087
 30
0.0
 10
108.6132086293501
 20
-155.1251690138079
 30
0.0
 10
108.6132086293501
 20
-155.1251690138079
 30
0.0
  0
SPLINE
  5
117
330
70
100
AcDbEntity
  8
Capa 1
 62
    18
420
        0
370
     9
100
AcDbSpline
210
0.0
220
0.0
230
1.0
 70
    24
 71
     3
 72
    26
 73
    22
 74
     0
 42
0.0000000001
 43
0.0000000001
 40
0.0
 40
0.0
 40
0.0
 40
0.0
 40
1.0
 40
1.0
 40
1.0
 40
2.0
 40
2.0
 40
2.0
 40
3.0
 40
3.0
 40
3.0
 40
4.0
 40
4.0
 40
4.0
 40
5.0
 40
5.0
 40
5.0
 40
6.0
 40
6.0
 40
6.0
 40
7.0
 40
7.0
 40
7.0
 40
7.0
 10
76.86321132876845
 20
-137.4510001983751
 30
0.0
 10
76.86321132876845
 20
-137.4510001983751
 30
0.0
 10
76.79265415834201
 20
-137.4510001983751
 30
0.0
 10
76.79265415834201
 20
-137.4510001983751
 30
0.0
 10
76.79265415834201
 20
-137.4510001983751
 30
0.0
 10
76.72209967939643
 20
-137.4510001983751
 30
0.0
 10
76.72209967939643
 20
-137.4510001983751
 30
0.0
 10
76.72209967939643
 20
-137.4510001983751
 30
0.0
 10
76.65154520045085
 20
-137.4510001983751
 30
0.0
 10
76.65154520045085
 20
-137.4510001983751
 30
0.0
 10
76.65154520045085
 20
-137.4510001983751
 30
0.0
 10
76.58098803002443
 20
-137.4510001983751
 30
0.0
 10
76.58098803002443
 20
-137.4510001983751
 30
0.0
 10
76.58098803002443
 20
-137.4510001983751
 30
0.0
 10
76.54571079055165
 20
-137.4510001983751
 30
0.0
 10
76.54571079055165
 20
-137.4510001983751
 30
0.0
 10
76.54571079055165
 20
-137.4510001983751
 30
0.0
 10
76.51043355107886
 20
-137.4510001983751
 30
0.0
 10
76.51043355107886
 20
-137.4510001983751
 30
0.0
 10
76.51043355107886
 20
-137.4510001983751
 30
0.0
 10
76.47515631160607
 20
-137.4510001983751
 30
0.0
 10
76.47515631160607
 20
-137.4510001983751
 30
0.0
  0
SPLINE
  5
118
330
70
100
AcDbEntity
  8
Capa 1
 62
    18
420
        0
370
     9
100
AcDbSpline
210
0.0
220
0.0
230
1.0
 70
    24
 71
     3
 72
    29
 73
    25
 74
     0
 42
0.0000000001
 43
0.0000000001
 40
0.0
 40
0.0
 40
0.0
 40
0.0
 40
1.0
 40
1.0
 40
1.0
 40
2.0
 40
2.0
 40
2.0
 40
3.0
 40
3.0
 40
3.0
 40
4.0
 40
4.0
 40
4.0
 40
5.0
 40
5.0
 40
5.0
 40
6.0
 40
6.0
 40
6.0
 40
7.0
 40
7.0
 40
7.0
 40
8.0
 40
8.0
 40
8.0
 40
8.0
 10
109.8126563032717
 20
-137.4510001983751
 30
0.0
 10
109.8126563032717
 20
-137.4510001983751
 30
0.0
 10
109.8126563032717
 20
-137.4510001983751
 30
0.0
 10
109.8126563032717
 20
-137.4510001983751
 30
0.0
 10
109.8126563032717
 20
-137.4510001983751
 30
0.0
 10
109.777376372318
 20
-137.4510001983751
 30
0.0
 10
109.777376372318
 20
-137.4510001983751
 30
0.0
 10
109.777376372318
 20
-137.4510001983751
 30
0.0
 10
109.7421018243261
 20
-137.4510001983751
 30
0.0
 10
109.7421018243261
 20
-137.4510001983751
 30
0.0
 10
109.7421018243261
 20
-137.4510001983751
 30
0.0
 10
109.7068218933725
 20
-137.4510001983751
 30
0.0
 10
109.7068218933725
 20
-137.4510001983751
 30
0.0
 10
109.7068218933725
 20
-137.4510001983751
 30
0.0
 10
109.6362674144269
 20
-137.4510001983751
 30
0.0
 10
109.6362674144269
 20
-137.4510001983751
 30
0.0
 10
109.6362674144269
 20
-137.4510001983751
 30
0.0
 10
109.5657129354813
 20
-137.4510001983751
 30
0.0
 10
109.5657129354813
 20
-137.4510001983751
 30
0.0
 10
109.5657129354813
 20
-137.4510001983751
 30
0.0
 10
109.495153073574
 20
-137.4510001983751
 30
0.0
 10
109.495153073574
 20
-137.4510001983751
 30
0.0
 10
109.495153073574
 20
-137.4510001983751
 30
0.0
 10
109.3893240466365
 20
-137.4510001983751
 30
0.0
 10
109.3893240466365
 20
-137.4510001983751
 30
0.0
  0
SPLINE
  5
119
330
70
100
AcDbEntity
  8
Capa 1
 62
    18
420
        0
370
     9
100
AcDbSpline
210
0.0
220
0.0
230
1.0
 70
    24
 71
     3
 72
     8
 73
     4
 74
     0
 42
0.0000000001
 43
0.0000000001
 40
0.0
 40
0.0
 40
0.0
 40
0.0
 40
1.0
 40
1.0
 40
1.0
 40
1.0
 10
108.154601824723
 20
-139.1796145388311
 30
0.0
 10
108.154601824723
 20
-139.1796145388311
 30
0.0
 10
108.3309907135678
 20
-139.214889086823
 30
0.0
 10
108.3309907135678
 20
-139.214889086823
 30
0.0
  0
SPLINE
  5
11A
330
70
100
AcDbEntity
  8
Capa 1
 62
    18
420
        0
370
     9
100
AcDbSpline
210
0.0
220
0.0
230
1.0
 70
     8
 71
     3
 72
    11
 73
     7
 74
     0
 42
0.0000000001
 43
0.0000000001
 40
0.0
 40
0.0
 40
0.0
 40
0.0
 40
1.0
 40
1.0
 40
1.0
 40
2.0
 40
2.0
 40
2.0
 40
2.0
 10
108.6132086293501
 20
-155.1251690138079
 30
0.0
 10
108.6132086293501
 20
-155.1251690138079
 30
0.0
 10
108.4015451925133
 20
-155.2310034237071
 30
0.0
 10
108.4015451925133
 20
-155.2310034237071
 30
0.0
 10
108.4015451925133
 20
-155.2310034237071
 30
0.0
 10
108.1898763727149
 20
-155.266277971699
 30
0.0
 10
108.1898763727149
 20
-155.266277971699
 30
0.0
  0
SPLINE
  5
11B
330
70
100
AcDbEntity
  8
Capa 1
 62
    18
420
        0
370
     9
100
AcDbSpline
210
0.0
220
0.0
230
1.0
 70
    24
 71
     3
 72
     8
 73
     4
 74
     0
 42
0.0000000001
 43
0.0000000001
 40
0.0
 40
0.0
 40
0.0
 40
0.0
 40
1.0
 40
1.0
 40
1.0
 40
1.0
 10
108.154601824723
 20
-155.266277971699
 30
0.0
 10
108.154601824723
 20
-155.266277971699
 30
0.0
 10
108.154601824723
 20
-155.3015579026527
 30
0.0
 10
108.154601824723
 20
-155.3015579026527
 30
0.0
  0
SPLINE
  5
11C
330
70
100
AcDbEntity
  8
Capa 1
 62
    18
420
        0
370
     9
100
AcDbSpline
210
0.0
220
0.0
230
1.0
 70
    24
 71
     3
 72
     8
 73
     4
 74
     0
 42
0.0000000001
 43
0.0000000001
 40
0.0
 40
0.0
 40
0.0
 40
0.0
 40
1.0
 40
1.0
 40
1.0
 40
1.0
 10
108.1898763727149
 20
-155.266277971699
 30
0.0
 10
108.1898763727149
 20
-155.266277971699
 30
0.0
 10
108.154601824723
 20
-155.266277971699
 30
0.0
 10
108.154601824723
 20
-155.266277971699
 30
0.0
  0
SPLINE
  5
11D
330
70
100
AcDbEntity
  8
Capa 1
 62
    18
420
        0
370
     9
100
AcDbSpline
 70
     3
 71
     3
 72
     8
 73
     4
 74
     0
 42
0.0000000001
 43
0.0000000001
 40
0.0
 40
0.0
 40
0.0
 40
0.0
 40
1.0
 40
1.0
 40
1.0
 40
1.0
 10
108.154601824723
 20
-139.1796145388311
 30
0.0
 10
108.154601824723
 20
-139.1796145388311
 30
0.0
 10
108.154601824723
 20
-139.1796145388311
 30
0.0
 10
108.154601824723
 20
-139.1796145388311
 30
0.0
  0
SPLINE
  5
11E
330
70
100
AcDbEntity
  8
Capa 1
 62
    18
420
        0
370
     9
100
AcDbSpline
210
0.0
220
0.0
230
1.0
 70
    24
 71
     3
 72
     8
 73
     4
 74
     0
 42
0.0000000001
 43
0.0000000001
 40
0.0
 40
0.0
 40
0.0
 40
0.0
 40
1.0
 40
1.0
 40
1.0
 40
1.0
 10
108.154601824723
 20
-154.6312822782271
 30
0.0
 10
108.154601824723
 20
-154.6312822782271
 30
0.0
 10
108.1898763727149
 20
-154.6312822782271
 30
0.0
 10
108.1898763727149
 20
-154.6312822782271
 30
0.0
  0
SPLINE
  5
11F
330
70
100
AcDbEntity
  8
Capa 1
 62
    18
420
        0
370
     9
100
AcDbSpline
210
0.0
220
0.0
230
1.0
 70
    11
 71
     3
 72
   137
 73
   133
 74
     0
 42
0.0000000001
 43
0.0000000001
 40
0.0
 40
0.0
 40
0.0
 40
0.0
 40
1.0
 40
1.0
 40
1.0
 40
2.0
 40
2.0
 40
2.0
 40
3.0
 40
3.0
 40
3.0
 40
4.0
 40
4.0
 40
4.0
 40
5.0
 40
5.0
 40
5.0
 40
6.0
 40
6.0
 40
6.0
 40
7.0
 40
7.0
 40
7.0
 40
8.0
 40
8.0
 40
8.0
 40
9.0
 40
9.0
 40
9.0
 40
10.0
 40
10.0
 40
10.0
 40
11.0
 40
11.0
 40
11.0
 40
12.0
 40
12.0
 40
12.0
 40
13.0
 40
13.0
 40
13.0
 40
14.0
 40
14.0
 40
14.0
 40
15.0
 40
15.0
 40
15.0
 40
16.0
 40
16.0
 40
16.0
 40
17.0
 40
17.0
 40
17.0
 40
18.0
 40
18.0
 40
18.0
 40
19.0
 40
19.0
 40
19.0
 40
20.0
 40
20.0
 40
20.0
 40
21.0
 40
21.0
 40
21.0
 40
22.0
 40
22.0
 40
22.0
 40
23.0
 40
23.0
 40
23.0
 40
24.0
 40
24.0
 40
24.0
 40
25.0
 40
25.0
 40
25.0
 40
26.0
 40
26.0
 40
26.0
 40
27.0
 40
27.0
 40
27.0
 40
28.0
 40
28.0
 40
28.0
 40
29.0
 40
29.0
 40
29.0
 40
30.0
 40
30.0
 40
30.0
 40
31.0
 40
31.0
 40
31.0
 40
32.0
 40
32.0
 40
32.0
 40
33.0
 40
33.0
 40
33.0
 40
34.0
 40
34.0
 40
34.0
 40
35.0
 40
35.0
 40
35.0
 40
36.0
 40
36.0
 40
36.0
 40
37.0
 40
37.0
 40
37.0
 40
38.0
 40
38.0
 40
38.0
 40
39.0
 40
39.0
 40
39.0
 40
40.0
 40
40.0
 40
40.0
 40
41.0
 40
41.0
 40
41.0
 40
42.0
 40
42.0
 40
42.0
 40
43.0
 40
43.0
 40
43.0
 40
44.0
 40
44.0
 40
44.0
 40
44.0
 10
105.6851573808959
 20
-147.1171145368467
 30
0.0
 10
105.6851573808959
 20
-147.1171145368467
 30
0.0
 10
105.6851573808959
 20
-146.9054457170483
 30
0.0
 10
105.6851573808959
 20
-146.9054457170483
 30
0.0
 10
105.6851573808959
 20
-146.9054457170483
 30
0.0
 10
105.6145975189886
 20
-146.7290568282034
 30
0.0
 10
105.6145975189886
 20
-146.7290568282034
 30
0.0
 10
105.6145975189886
 20
-146.7290568282034
 30
0.0
 10
105.544043040043
 20
-146.5173933913668
 30
0.0
 10
105.544043040043
 20
-146.5173933913668
 30
0.0
 10
105.544043040043
 20
-146.5173933913668
 30
0.0
 10
105.4382086301441
 20
-146.3410045025219
 30
0.0
 10
105.4382086301441
 20
-146.3410045025219
 30
0.0
 10
105.4382086301441
 20
-146.3410045025219
 30
0.0
 10
105.3323796032066
 20
-146.1646156136771
 30
0.0
 10
105.3323796032066
 20
-146.1646156136771
 30
0.0
 10
105.3323796032066
 20
-146.1646156136771
 30
0.0
 10
105.1912652623538
 20
-146.0235012728243
 30
0.0
 10
105.1912652623538
 20
-146.0235012728243
 30
0.0
 10
105.1912652623538
 20
-146.0235012728243
 30
0.0
 10
105.014876373509
 20
-145.9176668629251
 30
0.0
 10
105.014876373509
 20
-145.9176668629251
 30
0.0
 10
105.014876373509
 20
-145.9176668629251
 30
0.0
 10
104.8384874846642
 20
-145.8118378359876
 30
0.0
 10
104.8384874846642
 20
-145.8118378359876
 30
0.0
 10
104.8384874846642
 20
-145.8118378359876
 30
0.0
 10
104.6620985958194
 20
-145.7412779740803
 30
0.0
 10
104.6620985958194
 20
-145.7412779740803
 30
0.0
 10
104.6620985958194
 20
-145.7412779740803
 30
0.0
 10
104.4504351589827
 20
-145.7060034260884
 30
0.0
 10
104.4504351589827
 20
-145.7060034260884
 30
0.0
 10
104.4504351589827
 20
-145.7060034260884
 30
0.0
 10
104.2387663391842
 20
-145.6707234951347
 30
0.0
 10
104.2387663391842
 20
-145.6707234951347
 30
0.0
 10
104.2387663391842
 20
-145.6707234951347
 30
0.0
 10
104.0270975193858
 20
-145.7060034260884
 30
0.0
 10
104.0270975193858
 20
-145.7060034260884
 30
0.0
 10
104.0270975193858
 20
-145.7060034260884
 30
0.0
 10
103.850708630541
 20
-145.7412779740803
 30
0.0
 10
103.850708630541
 20
-145.7412779740803
 30
0.0
 10
103.850708630541
 20
-145.7412779740803
 30
0.0
 10
103.6390451937043
 20
-145.8118378359876
 30
0.0
 10
103.6390451937043
 20
-145.8118378359876
 30
0.0
 10
103.6390451937043
 20
-145.8118378359876
 30
0.0
 10
103.4626563048595
 20
-145.9176668629251
 30
0.0
 10
103.4626563048595
 20
-145.9176668629251
 30
0.0
 10
103.4626563048595
 20
-145.9176668629251
 30
0.0
 10
103.2862674160147
 20
-146.0235012728243
 30
0.0
 10
103.2862674160147
 20
-146.0235012728243
 30
0.0
 10
103.2862674160147
 20
-146.0235012728243
 30
0.0
 10
103.1451530751618
 20
-146.1646156136771
 30
0.0
 10
103.1451530751618
 20
-146.1646156136771
 30
0.0
 10
103.1451530751618
 20
-146.1646156136771
 30
0.0
 10
103.0393240482243
 20
-146.3410045025219
 30
0.0
 10
103.0393240482243
 20
-146.3410045025219
 30
0.0
 10
103.0393240482243
 20
-146.3410045025219
 30
0.0
 10
102.9334896383251
 20
-146.5173933913668
 30
0.0
 10
102.9334896383251
 20
-146.5173933913668
 30
0.0
 10
102.9334896383251
 20
-146.5173933913668
 30
0.0
 10
102.8629351593795
 20
-146.7290568282034
 30
0.0
 10
102.8629351593795
 20
-146.7290568282034
 30
0.0
 10
102.8629351593795
 20
-146.7290568282034
 30
0.0
 10
102.8276552284259
 20
-146.9054457170483
 30
0.0
 10
102.8276552284259
 20
-146.9054457170483
 30
0.0
 10
102.8276552284259
 20
-146.9054457170483
 30
0.0
 10
102.7923752974723
 20
-147.1171145368467
 30
0.0
 10
102.7923752974723
 20
-147.1171145368467
 30
0.0
 10
102.7923752974723
 20
-147.1171145368467
 30
0.0
 10
102.8276552284259
 20
-147.3287779736834
 30
0.0
 10
102.8276552284259
 20
-147.3287779736834
 30
0.0
 10
102.8276552284259
 20
-147.3287779736834
 30
0.0
 10
102.8629351593795
 20
-147.5404467934818
 30
0.0
 10
102.8629351593795
 20
-147.5404467934818
 30
0.0
 10
102.8629351593795
 20
-147.5404467934818
 30
0.0
 10
102.9334896383251
 20
-147.7168356823266
 30
0.0
 10
102.9334896383251
 20
-147.7168356823266
 30
0.0
 10
102.9334896383251
 20
-147.7168356823266
 30
0.0
 10
103.0393240482243
 20
-147.8932245711714
 30
0.0
 10
103.0393240482243
 20
-147.8932245711714
 30
0.0
 10
103.0393240482243
 20
-147.8932245711714
 30
0.0
 10
103.1451530751618
 20
-148.0696134600162
 30
0.0
 10
103.1451530751618
 20
-148.0696134600162
 30
0.0
 10
103.1451530751618
 20
-148.0696134600162
 30
0.0
 10
103.2862674160147
 20
-148.2107224179074
 30
0.0
 10
103.2862674160147
 20
-148.2107224179074
 30
0.0
 10
103.2862674160147
 20
-148.2107224179074
 30
0.0
 10
103.4626563048595
 20
-148.3165568278066
 30
0.0
 10
103.4626563048595
 20
-148.3165568278066
 30
0.0
 10
103.4626563048595
 20
-148.3165568278066
 30
0.0
 10
103.6390451937043
 20
-148.4223912377058
 30
0.0
 10
103.6390451937043
 20
-148.4223912377058
 30
0.0
 10
103.6390451937043
 20
-148.4223912377058
 30
0.0
 10
103.850708630541
 20
-148.4929457166514
 30
0.0
 10
103.850708630541
 20
-148.4929457166514
 30
0.0
 10
103.850708630541
 20
-148.4929457166514
 30
0.0
 10
104.0270975193858
 20
-148.563500195597
 30
0.0
 10
104.0270975193858
 20
-148.563500195597
 30
0.0
 10
104.0270975193858
 20
-148.563500195597
 30
0.0
 10
104.2387663391842
 20
-148.563500195597
 30
0.0
 10
104.2387663391842
 20
-148.563500195597
 30
0.0
 10
104.2387663391842
 20
-148.563500195597
 30
0.0
 10
104.4504351589827
 20
-148.563500195597
 30
0.0
 10
104.4504351589827
 20
-148.563500195597
 30
0.0
 10
104.4504351589827
 20
-148.563500195597
 30
0.0
 10
104.6620985958194
 20
-148.4929457166514
 30
0.0
 10
104.6620985958194
 20
-148.4929457166514
 30
0.0
 10
104.6620985958194
 20
-148.4929457166514
 30
0.0
 10
104.8384874846642
 20
-148.4223912377058
 30
0.0
 10
104.8384874846642
 20
-148.4223912377058
 30
0.0
 10
104.8384874846642
 20
-148.4223912377058
 30
0.0
 10
105.014876373509
 20
-148.3165568278066
 30
0.0
 10
105.014876373509
 20
-148.3165568278066
 30
0.0
 10
105.014876373509
 20
-148.3165568278066
 30
0.0
 10
105.1912652623538
 20
-148.2107224179074
 30
0.0
 10
105.1912652623538
 20
-148.2107224179074
 30
0.0
 10
105.1912652623538
 20
-148.2107224179074
 30
0.0
 10
105.3323796032066
 20
-148.0696134600162
 30
0.0
 10
105.3323796032066
 20
-148.0696134600162
 30
0.0
 10
105.3323796032066
 20
-148.0696134600162
 30
0.0
 10
105.4382086301441
 20
-147.8932245711714
 30
0.0
 10
105.4382086301441
 20
-147.8932245711714
 30
0.0
 10
105.4382086301441
 20
-147.8932245711714
 30
0.0
 10
105.544043040043
 20
-147.7168356823266
 30
0.0
 10
105.544043040043
 20
-147.7168356823266
 30
0.0
 10
105.544043040043
 20
-147.7168356823266
 30
0.0
 10
105.6145975189886
 20
-147.5404467934818
 30
0.0
 10
105.6145975189886
 20
-147.5404467934818
 30
0.0
 10
105.6145975189886
 20
-147.5404467934818
 30
0.0
 10
105.6851573808959
 20
-147.3287779736834
 30
0.0
 10
105.6851573808959
 20
-147.3287779736834
 30
0.0
 10
105.6851573808959
 20
-147.3287779736834
 30
0.0
 10
105.6851573808959
 20
-147.1171145368467
 30
0.0
 10
105.6851573808959
 20
-147.1171145368467
 30
0.0
  0
SPLINE
  5
120
330
70
100
AcDbEntity
  8
Capa 1
 62
    18
420
        0
370
     9
100
AcDbSpline
210
0.0
220
0.0
230
1.0
 70
    11
 71
     3
 72
   155
 73
   151
 74
     0
 42
0.0000000001
 43
0.0000000001
 40
0.0
 40
0.0
 40
0.0
 40
0.0
 40
1.0
 40
1.0
 40
1.0
 40
2.0
 40
2.0
 40
2.0
 40
3.0
 40
3.0
 40
3.0
 40
4.0
 40
4.0
 40
4.0
 40
5.0
 40
5.0
 40
5.0
 40
6.0
 40
6.0
 40
6.0
 40
7.0
 40
7.0
 40
7.0
 40
8.0
 40
8.0
 40
8.0
 40
9.0
 40
9.0
 40
9.0
 40
10.0
 40
10.0
 40
10.0
 40
11.0
 40
11.0
 40
11.0
 40
12.0
 40
12.0
 40
12.0
 40
13.0
 40
13.0
 40
13.0
 40
14.0
 40
14.0
 40
14.0
 40
15.0
 40
15.0
 40
15.0
 40
16.0
 40
16.0
 40
16.0
 40
17.0
 40
17.0
 40
17.0
 40
18.0
 40
18.0
 40
18.0
 40
19.0
 40
19.0
 40
19.0
 40
20.0
 40
20.0
 40
20.0
 40
21.0
 40
21.0
 40
21.0
 40
22.0
 40
22.0
 40
22.0
 40
23.0
 40
23.0
 40
23.0
 40
24.0
 40
24.0
 40
24.0
 40
25.0
 40
25.0
 40
25.0
 40
26.0
 40
26.0
 40
26.0
 40
27.0
 40
27.0
 40
27.0
 40
28.0
 40
28.0
 40
28.0
 40
29.0
 40
29.0
 40
29.0
 40
30.0
 40
30.0
 40
30.0
 40
31.0
 40
31.0
 40
31.0
 40
32.0
 40
32.0
 40
32.0
 40
33.0
 40
33.0
 40
33.0
 40
34.0
 40
34.0
 40
34.0
 40
35.0
 40
35.0
 40
35.0
 40
36.0
 40
36.0
 40
36.0
 40
37.0
 40
37.0
 40
37.0
 40
38.0
 40
38.0
 40
38.0
 40
39.0
 40
39.0
 40
39.0
 40
40.0
 40
40.0
 40
40.0
 40
41.0
 40
41.0
 40
41.0
 40
42.0
 40
42.0
 40
42.0
 40
43.0
 40
43.0
 40
43.0
 40
44.0
 40
44.0
 40
44.0
 40
45.0
 40
45.0
 40
45.0
 40
46.0
 40
46.0
 40
46.0
 40
47.0
 40
47.0
 40
47.0
 40
48.0
 40
48.0
 40
48.0
 40
49.0
 40
49.0
 40
49.0
 40
50.0
 40
50.0
 40
50.0
 40
50.0
 10
91.25654304361525
 20
-147.1171145368467
 30
0.0
 10
91.25654304361525
 20
-147.1171145368467
 30
0.0
 10
91.25654304361525
 20
-147.364057904637
 30
0.0
 10
91.25654304361525
 20
-147.364057904637
 30
0.0
 10
91.25654304361525
 20
-147.364057904637
 30
0.0
 10
91.29182297456889
 20
-147.6110012724274
 30
0.0
 10
91.29182297456889
 20
-147.6110012724274
 30
0.0
 10
91.29182297456889
 20
-147.6110012724274
 30
0.0
 10
91.39765200150641
 20
-147.8226700922258
 30
0.0
 10
91.39765200150641
 20
-147.8226700922258
 30
0.0
 10
91.39765200150641
 20
-147.8226700922258
 30
0.0
 10
91.46821186341368
 20
-148.0343335290626
 30
0.0
 10
91.46821186341368
 20
-148.0343335290626
 30
0.0
 10
91.46821186341368
 20
-148.0343335290626
 30
0.0
 10
91.60932082130484
 20
-148.246002348861
 30
0.0
 10
91.60932082130484
 20
-148.246002348861
 30
0.0
 10
91.60932082130484
 20
-148.246002348861
 30
0.0
 10
91.750429779196
 20
-148.4223912377058
 30
0.0
 10
91.750429779196
 20
-148.4223912377058
 30
0.0
 10
91.750429779196
 20
-148.4223912377058
 30
0.0
 10
91.92681866804077
 20
-148.563500195597
 30
0.0
 10
91.92681866804077
 20
-148.563500195597
 30
0.0
 10
91.92681866804077
 20
-148.563500195597
 30
0.0
 10
92.13848748783922
 20
-148.7046145364498
 30
0.0
 10
92.13848748783922
 20
-148.7046145364498
 30
0.0
 10
92.13848748783922
 20
-148.7046145364498
 30
0.0
 10
92.35015630763763
 20
-148.845723494341
 30
0.0
 10
92.35015630763763
 20
-148.845723494341
 30
0.0
 10
92.35015630763763
 20
-148.845723494341
 30
0.0
 10
92.56181974447438
 20
-148.9162779732865
 30
0.0
 10
92.56181974447438
 20
-148.9162779732865
 30
0.0
 10
92.56181974447438
 20
-148.9162779732865
 30
0.0
 10
92.77348856427279
 20
-148.9868378351938
 30
0.0
 10
92.77348856427279
 20
-148.9868378351938
 30
0.0
 10
92.77348856427279
 20
-148.9868378351938
 30
0.0
 10
93.02043193206317
 20
-149.0221123831857
 30
0.0
 10
93.02043193206317
 20
-149.0221123831857
 30
0.0
 10
93.02043193206317
 20
-149.0221123831857
 30
0.0
 10
93.26737529985354
 20
-149.0221123831857
 30
0.0
 10
93.26737529985354
 20
-149.0221123831857
 30
0.0
 10
93.26737529985354
 20
-149.0221123831857
 30
0.0
 10
93.47904411965197
 20
-148.9868378351938
 30
0.0
 10
93.47904411965197
 20
-148.9868378351938
 30
0.0
 10
93.47904411965197
 20
-148.9868378351938
 30
0.0
 10
93.72598748744234
 20
-148.9162779732865
 30
0.0
 10
93.72598748744234
 20
-148.9162779732865
 30
0.0
 10
93.72598748744234
 20
-148.9162779732865
 30
0.0
 10
93.93765630724077
 20
-148.845723494341
 30
0.0
 10
93.93765630724077
 20
-148.845723494341
 30
0.0
 10
93.93765630724077
 20
-148.845723494341
 30
0.0
 10
94.1493197440775
 20
-148.7046145364498
 30
0.0
 10
94.1493197440775
 20
-148.7046145364498
 30
0.0
 10
94.1493197440775
 20
-148.7046145364498
 30
0.0
 10
94.36098856387593
 20
-148.563500195597
 30
0.0
 10
94.36098856387593
 20
-148.563500195597
 30
0.0
 10
94.36098856387593
 20
-148.563500195597
 30
0.0
 10
94.53737745272071
 20
-148.4223912377058
 30
0.0
 10
94.53737745272071
 20
-148.4223912377058
 30
0.0
 10
94.53737745272071
 20
-148.4223912377058
 30
0.0
 10
94.67848641061186
 20
-148.246002348861
 30
0.0
 10
94.67848641061186
 20
-148.246002348861
 30
0.0
 10
94.67848641061186
 20
-148.246002348861
 30
0.0
 10
94.78432082051108
 20
-148.0343335290626
 30
0.0
 10
94.78432082051108
 20
-148.0343335290626
 30
0.0
 10
94.78432082051108
 20
-148.0343335290626
 30
0.0
 10
94.89015523041031
 20
-147.8226700922258
 30
0.0
 10
94.89015523041031
 20
-147.8226700922258
 30
0.0
 10
94.89015523041031
 20
-147.8226700922258
 30
0.0
 10
94.96070970935589
 20
-147.6110012724274
 30
0.0
 10
94.96070970935589
 20
-147.6110012724274
 30
0.0
 10
94.96070970935589
 20
-147.6110012724274
 30
0.0
 10
95.03126418830145
 20
-147.364057904637
 30
0.0
 10
95.03126418830145
 20
-147.364057904637
 30
0.0
 10
95.03126418830145
 20
-147.364057904637
 30
0.0
 10
95.03126418830145
 20
-147.1171145368467
 30
0.0
 10
95.03126418830145
 20
-147.1171145368467
 30
0.0
 10
95.03126418830145
 20
-147.1171145368467
 30
0.0
 10
95.03126418830145
 20
-146.8701711690563
 30
0.0
 10
95.03126418830145
 20
-146.8701711690563
 30
0.0
 10
95.03126418830145
 20
-146.8701711690563
 30
0.0
 10
94.96070970935589
 20
-146.6585023492579
 30
0.0
 10
94.96070970935589
 20
-146.6585023492579
 30
0.0
 10
94.96070970935589
 20
-146.6585023492579
 30
0.0
 10
94.89015523041031
 20
-146.4115589814675
 30
0.0
 10
94.89015523041031
 20
-146.4115589814675
 30
0.0
 10
94.89015523041031
 20
-146.4115589814675
 30
0.0
 10
94.78432082051108
 20
-146.1998901616691
 30
0.0
 10
94.78432082051108
 20
-146.1998901616691
 30
0.0
 10
94.78432082051108
 20
-146.1998901616691
 30
0.0
 10
94.67848641061186
 20
-146.0235012728243
 30
0.0
 10
94.67848641061186
 20
-146.0235012728243
 30
0.0
 10
94.67848641061186
 20
-146.0235012728243
 30
0.0
 10
94.53737745272071
 20
-145.8118378359876
 30
0.0
 10
94.53737745272071
 20
-145.8118378359876
 30
0.0
 10
94.53737745272071
 20
-145.8118378359876
 30
0.0
 10
94.36098856387593
 20
-145.6707234951347
 30
0.0
 10
94.36098856387593
 20
-145.6707234951347
 30
0.0
 10
94.36098856387593
 20
-145.6707234951347
 30
0.0
 10
94.1493197440775
 20
-145.5296145372436
 30
0.0
 10
94.1493197440775
 20
-145.5296145372436
 30
0.0
 10
94.1493197440775
 20
-145.5296145372436
 30
0.0
 10
93.93765630724077
 20
-145.4237801273444
 30
0.0
 10
93.93765630724077
 20
-145.4237801273444
 30
0.0
 10
93.93765630724077
 20
-145.4237801273444
 30
0.0
 10
93.72598748744234
 20
-145.3179457174451
 30
0.0
 10
93.72598748744234
 20
-145.3179457174451
 30
0.0
 10
93.72598748744234
 20
-145.3179457174451
 30
0.0
 10
93.47904411965197
 20
-145.2473912384995
 30
0.0
 10
93.47904411965197
 20
-145.2473912384995
 30
0.0
 10
93.47904411965197
 20
-145.2473912384995
 30
0.0
 10
93.26737529985354
 20
-145.2473912384995
 30
0.0
 10
93.26737529985354
 20
-145.2473912384995
 30
0.0
 10
93.26737529985354
 20
-145.2473912384995
 30
0.0
 10
93.02043193206317
 20
-145.2473912384995
 30
0.0
 10
93.02043193206317
 20
-145.2473912384995
 30
0.0
 10
93.02043193206317
 20
-145.2473912384995
 30
0.0
 10
92.77348856427279
 20
-145.2473912384995
 30
0.0
 10
92.77348856427279
 20
-145.2473912384995
 30
0.0
 10
92.77348856427279
 20
-145.2473912384995
 30
0.0
 10
92.56181974447438
 20
-145.3179457174451
 30
0.0
 10
92.56181974447438
 20
-145.3179457174451
 30
0.0
 10
92.56181974447438
 20
-145.3179457174451
 30
0.0
 10
92.35015630763763
 20
-145.4237801273444
 30
0.0
 10
92.35015630763763
 20
-145.4237801273444
 30
0.0
 10
92.35015630763763
 20
-145.4237801273444
 30
0.0
 10
92.13848748783922
 20
-145.5296145372436
 30
0.0
 10
92.13848748783922
 20
-145.5296145372436
 30
0.0
 10
92.13848748783922
 20
-145.5296145372436
 30
0.0
 10
91.92681866804077
 20
-145.6707234951347
 30
0.0
 10
91.92681866804077
 20
-145.6707234951347
 30
0.0
 10
91.92681866804077
 20
-145.6707234951347
 30
0.0
 10
91.750429779196
 20
-145.8118378359876
 30
0.0
 10
91.750429779196
 20
-145.8118378359876
 30
0.0
 10
91.750429779196
 20
-145.8118378359876
 30
0.0
 10
91.60932082130484
 20
-146.0235012728243
 30
0.0
 10
91.60932082130484
 20
-146.0235012728243
 30
0.0
 10
91.60932082130484
 20
-146.0235012728243
 30
0.0
 10
91.46821186341368
 20
-146.1998901616691
 30
0.0
 10
91.46821186341368
 20
-146.1998901616691
 30
0.0
 10
91.46821186341368
 20
-146.1998901616691
 30
0.0
 10
91.39765200150641
 20
-146.4115589814675
 30
0.0
 10
91.39765200150641
 20
-146.4115589814675
 30
0.0
 10
91.39765200150641
 20
-146.4115589814675
 30
0.0
 10
91.29182297456889
 20
-146.6585023492579
 30
0.0
 10
91.29182297456889
 20
-146.6585023492579
 30
0.0
 10
91.29182297456889
 20
-146.6585023492579
 30
0.0
 10
91.25654304361525
 20
-146.8701711690563
 30
0.0
 10
91.25654304361525
 20
-146.8701711690563
 30
0.0
 10
91.25654304361525
 20
-146.8701711690563
 30
0.0
 10
91.25654304361525
 20
-147.1171145368467
 30
0.0
 10
91.25654304361525
 20
-147.1171145368467
 30
0.0
  0
SPLINE
  5
121
330
70
100
AcDbEntity
  8
Capa 1
 62
    18
420
        0
370
     9
100
AcDbSpline
 70
     3
 71
     3
 72
     8
 73
     4
 74
     0
 42
0.0000000001
 43
0.0000000001
 40
0.0
 40
0.0
 40
0.0
 40
0.0
 40
1.0
 40
1.0
 40
1.0
 40
1.0
 10
106.6376563040654
 20
-136.992393393748
 30
0.0
 10
106.6376563040654
 20
-136.992393393748
 30
0.0
 10
106.6376563040654
 20
-136.992393393748
 30
0.0
 10
106.6376563040654
 20
-136.992393393748
 30
0.0
  0
SPLINE
  5
122
330
70
100
AcDbEntity
  8
Capa 1
 62
    18
420
        0
370
     9
100
AcDbSpline
210
0.0
220
0.0
230
1.0
 70
     8
 71
     3
 72
    17
 73
    13
 74
     0
 42
0.0000000001
 43
0.0000000001
 40
0.0
 40
0.0
 40
0.0
 40
0.0
 40
1.0
 40
1.0
 40
1.0
 40
2.0
 40
2.0
 40
2.0
 40
3.0
 40
3.0
 40
3.0
 40
4.0
 40
4.0
 40
4.0
 40
4.0
 10
106.5318218941662
 20
-137.0629478726935
 30
0.0
 10
106.5318218941662
 20
-137.0629478726935
 30
0.0
 10
106.5318218941662
 20
-137.0276679417399
 30
0.0
 10
106.5318218941662
 20
-137.0276679417399
 30
0.0
 10
106.5318218941662
 20
-137.0276679417399
 30
0.0
 10
106.5671018251198
 20
-137.0276679417399
 30
0.0
 10
106.5671018251198
 20
-137.0276679417399
 30
0.0
 10
106.5671018251198
 20
-137.0276679417399
 30
0.0
 10
106.6023763731118
 20
-136.992393393748
 30
0.0
 10
106.6023763731118
 20
-136.992393393748
 30
0.0
 10
106.6023763731118
 20
-136.992393393748
 30
0.0
 10
106.6376563040654
 20
-136.992393393748
 30
0.0
 10
106.6376563040654
 20
-136.992393393748
 30
0.0
  0
SPLINE
  5
123
330
70
100
AcDbEntity
  8
Capa 1
 62
    18
420
        0
370
     9
100
AcDbSpline
210
0.0
220
0.0
230
1.0
 70
    24
 71
     3
 72
     8
 73
     4
 74
     0
 42
0.0000000001
 43
0.0000000001
 40
0.0
 40
0.0
 40
0.0
 40
0.0
 40
1.0
 40
1.0
 40
1.0
 40
1.0
 10
106.4965419632126
 20
-137.0629478726935
 30
0.0
 10
106.4965419632126
 20
-137.0629478726935
 30
0.0
 10
106.5318218941662
 20
-137.0276679417399
 30
0.0
 10
106.5318218941662
 20
-137.0276679417399
 30
0.0
  0
SPLINE
  5
124
330
70
100
AcDbEntity
  8
Capa 1
 62
    18
420
        0
370
     9
100
AcDbSpline
210
0.0
220
0.0
230
1.0
 70
    24
 71
     3
 72
    11
 73
     7
 74
     0
 42
0.0000000001
 43
0.0000000001
 40
0.0
 40
0.0
 40
0.0
 40
0.0
 40
1.0
 40
1.0
 40
1.0
 40
2.0
 40
2.0
 40
2.0
 40
2.0
 10
106.5318218941662
 20
-137.0276679417399
 30
0.0
 10
106.5318218941662
 20
-137.0276679417399
 30
0.0
 10
106.5318218941662
 20
-137.0276679417399
 30
0.0
 10
106.5318218941662
 20
-137.0276679417399
 30
0.0
 10
106.5318218941662
 20
-137.0276679417399
 30
0.0
 10
106.5671018251198
 20
-137.0276679417399
 30
0.0
 10
106.5671018251198
 20
-137.0276679417399
 30
0.0
  0
SPLINE
  5
125
330
70
100
AcDbEntity
  8
Capa 1
 62
    18
420
        0
370
     9
100
AcDbSpline
210
0.0
220
0.0
230
1.0
 70
    24
 71
     3
 72
     8
 73
     4
 74
     0
 42
0.0000000001
 43
0.0000000001
 40
0.0
 40
0.0
 40
0.0
 40
0.0
 40
1.0
 40
1.0
 40
1.0
 40
1.0
 10
107.6959896371342
 20
-136.992393393748
 30
0.0
 10
107.6959896371342
 20
-136.992393393748
 30
0.0
 10
107.7665441160797
 20
-137.0276679417399
 30
0.0
 10
107.7665441160797
 20
-137.0276679417399
 30
0.0
  0
SPLINE
  5
126
330
70
100
AcDbEntity
  8
Capa 1
 62
    18
420
        0
370
     9
100
AcDbSpline
210
0.0
220
0.0
230
1.0
 70
    24
 71
     3
 72
    11
 73
     7
 74
     0
 42
0.0000000001
 43
0.0000000001
 40
0.0
 40
0.0
 40
0.0
 40
0.0
 40
1.0
 40
1.0
 40
1.0
 40
2.0
 40
2.0
 40
2.0
 40
2.0
 10
107.7665441160797
 20
-137.0276679417399
 30
0.0
 10
107.7665441160797
 20
-137.0276679417399
 30
0.0
 10
107.7665441160797
 20
-137.0276679417399
 30
0.0
 10
107.7665441160797
 20
-137.0276679417399
 30
0.0
 10
107.7665441160797
 20
-137.0276679417399
 30
0.0
 10
107.8018240470334
 20
-137.0276679417399
 30
0.0
 10
107.8018240470334
 20
-137.0276679417399
 30
0.0
  0
SPLINE
  5
127
330
70
100
AcDbEntity
  8
Capa 1
 62
    18
420
        0
370
     9
100
AcDbSpline
210
0.0
220
0.0
230
1.0
 70
    24
 71
     3
 72
     8
 73
     4
 74
     0
 42
0.0000000001
 43
0.0000000001
 40
0.0
 40
0.0
 40
0.0
 40
0.0
 40
1.0
 40
1.0
 40
1.0
 40
1.0
 10
107.8018240470334
 20
-137.0276679417399
 30
0.0
 10
107.8018240470334
 20
-137.0276679417399
 30
0.0
 10
107.8018240470334
 20
-137.0629478726935
 30
0.0
 10
107.8018240470334
 20
-137.0629478726935
 30
0.0
  0
SPLINE
  5
128
330
70
100
AcDbEntity
  8
Capa 1
 62
    18
420
        0
370
     9
100
AcDbSpline
210
0.0
220
0.0
230
1.0
 70
     8
 71
     3
 72
    17
 73
    13
 74
     0
 42
0.0000000001
 43
0.0000000001
 40
0.0
 40
0.0
 40
0.0
 40
0.0
 40
1.0
 40
1.0
 40
1.0
 40
2.0
 40
2.0
 40
2.0
 40
3.0
 40
3.0
 40
3.0
 40
4.0
 40
4.0
 40
4.0
 40
4.0
 10
107.6959896371342
 20
-136.992393393748
 30
0.0
 10
107.6959896371342
 20
-136.992393393748
 30
0.0
 10
107.7312641851261
 20
-136.992393393748
 30
0.0
 10
107.7312641851261
 20
-136.992393393748
 30
0.0
 10
107.7312641851261
 20
-136.992393393748
 30
0.0
 10
107.7665441160797
 20
-137.0276679417399
 30
0.0
 10
107.7665441160797
 20
-137.0276679417399
 30
0.0
 10
107.7665441160797
 20
-137.0276679417399
 30
0.0
 10
107.8018240470334
 20
-137.0276679417399
 30
0.0
 10
107.8018240470334
 20
-137.0276679417399
 30
0.0
 10
107.8018240470334
 20
-137.0276679417399
 30
0.0
 10
107.8018240470334
 20
-137.0629478726935
 30
0.0
 10
107.8018240470334
 20
-137.0629478726935
 30
0.0
  0
SPLINE
  5
129
330
70
100
AcDbEntity
  8
Capa 1
 62
    18
420
        0
370
     9
100
AcDbSpline
 70
     3
 71
     3
 72
     8
 73
     4
 74
     0
 42
0.0000000001
 43
0.0000000001
 40
0.0
 40
0.0
 40
0.0
 40
0.0
 40
1.0
 40
1.0
 40
1.0
 40
1.0
 10
107.6959896371342
 20
-136.992393393748
 30
0.0
 10
107.6959896371342
 20
-136.992393393748
 30
0.0
 10
107.6959896371342
 20
-136.992393393748
 30
0.0
 10
107.6959896371342
 20
-136.992393393748
 30
0.0
  0
SPLINE
  5
12A
330
70
100
AcDbEntity
  8
Capa 1
 62
    18
420
        0
370
     9
100
AcDbSpline
210
0.0
220
0.0
230
1.0
 70
    24
 71
     3
 72
     8
 73
     4
 74
     0
 42
0.0000000001
 43
0.0000000001
 40
0.0
 40
0.0
 40
0.0
 40
0.0
 40
1.0
 40
1.0
 40
1.0
 40
1.0
 10
106.4965419632126
 20
-136.992393393748
 30
0.0
 10
106.4965419632126
 20
-136.992393393748
 30
0.0
 10
106.5318218941662
 20
-136.992393393748
 30
0.0
 10
106.5318218941662
 20
-136.992393393748
 30
0.0
  0
SPLINE
  5
12B
330
70
100
AcDbEntity
  8
Capa 1
 62
    18
420
        0
370
     9
100
AcDbSpline
 70
     3
 71
     3
 72
     8
 73
     4
 74
     0
 42
0.0000000001
 43
0.0000000001
 40
0.0
 40
0.0
 40
0.0
 40
0.0
 40
1.0
 40
1.0
 40
1.0
 40
1.0
 10
106.4965419632126
 20
-136.992393393748
 30
0.0
 10
106.4965419632126
 20
-136.992393393748
 30
0.0
 10
106.4965419632126
 20
-136.992393393748
 30
0.0
 10
106.4965419632126
 20
-136.992393393748
 30
0.0
  0
SPLINE
  5
12C
330
70
100
AcDbEntity
  8
Capa 1
 62
    18
420
        0
370
     9
100
AcDbSpline
210
0.0
220
0.0
230
1.0
 70
    24
 71
     3
 72
     8
 73
     4
 74
     0
 42
0.0000000001
 43
0.0000000001
 40
0.0
 40
0.0
 40
0.0
 40
0.0
 40
1.0
 40
1.0
 40
1.0
 40
1.0
 10
106.708210783011
 20
-136.992393393748
 30
0.0
 10
106.708210783011
 20
-136.992393393748
 30
0.0
 10
106.4965419632126
 20
-136.992393393748
 30
0.0
 10
106.4965419632126
 20
-136.992393393748
 30
0.0
  0
SPLINE
  5
12D
330
70
100
AcDbEntity
  8
Capa 1
 62
    18
420
        0
370
     9
100
AcDbSpline
 70
     3
 71
     3
 72
     8
 73
     4
 74
     0
 42
0.0000000001
 43
0.0000000001
 40
0.0
 40
0.0
 40
0.0
 40
0.0
 40
1.0
 40
1.0
 40
1.0
 40
1.0
 10
106.708210783011
 20
-136.992393393748
 30
0.0
 10
106.708210783011
 20
-136.992393393748
 30
0.0
 10
106.708210783011
 20
-136.992393393748
 30
0.0
 10
106.708210783011
 20
-136.992393393748
 30
0.0
  0
SPLINE
  5
12E
330
70
100
AcDbEntity
  8
Capa 1
 62
    18
420
        0
370
     9
100
AcDbSpline
210
0.0
220
0.0
230
1.0
 70
    24
 71
     3
 72
    11
 73
     7
 74
     0
 42
0.0000000001
 43
0.0000000001
 40
0.0
 40
0.0
 40
0.0
 40
0.0
 40
1.0
 40
1.0
 40
1.0
 40
2.0
 40
2.0
 40
2.0
 40
2.0
 10
106.708210783011
 20
-136.992393393748
 30
0.0
 10
106.708210783011
 20
-136.992393393748
 30
0.0
 10
106.708210783011
 20
-136.992393393748
 30
0.0
 10
106.708210783011
 20
-136.992393393748
 30
0.0
 10
106.708210783011
 20
-136.992393393748
 30
0.0
 10
106.7434907139646
 20
-136.992393393748
 30
0.0
 10
106.7434907139646
 20
-136.992393393748
 30
0.0
  0
SPLINE
  5
12F
330
70
100
AcDbEntity
  8
Capa 1
 62
    18
420
        0
370
     9
100
AcDbSpline
210
0.0
220
0.0
230
1.0
 70
    24
 71
     3
 72
     8
 73
     4
 74
     0
 42
0.0000000001
 43
0.0000000001
 40
0.0
 40
0.0
 40
0.0
 40
0.0
 40
1.0
 40
1.0
 40
1.0
 40
1.0
 10
107.590155227235
 20
-136.992393393748
 30
0.0
 10
107.590155227235
 20
-136.992393393748
 30
0.0
 10
106.7434907139646
 20
-136.992393393748
 30
0.0
 10
106.7434907139646
 20
-136.992393393748
 30
0.0
  0
SPLINE
  5
130
330
70
100
AcDbEntity
  8
Capa 1
 62
    18
420
        0
370
     9
100
AcDbSpline
210
0.0
220
0.0
230
1.0
 70
    24
 71
     3
 72
    11
 73
     7
 74
     0
 42
0.0000000001
 43
0.0000000001
 40
0.0
 40
0.0
 40
0.0
 40
0.0
 40
1.0
 40
1.0
 40
1.0
 40
2.0
 40
2.0
 40
2.0
 40
2.0
 10
107.590155227235
 20
-136.992393393748
 30
0.0
 10
107.590155227235
 20
-136.992393393748
 30
0.0
 10
107.590155227235
 20
-136.992393393748
 30
0.0
 10
107.590155227235
 20
-136.992393393748
 30
0.0
 10
107.590155227235
 20
-136.992393393748
 30
0.0
 10
107.6254351581886
 20
-136.992393393748
 30
0.0
 10
107.6254351581886
 20
-136.992393393748
 30
0.0
  0
SPLINE
  5
131
330
70
100
AcDbEntity
  8
Capa 1
 62
    18
420
        0
370
     9
100
AcDbSpline
 70
     3
 71
     3
 72
     8
 73
     4
 74
     0
 42
0.0000000001
 43
0.0000000001
 40
0.0
 40
0.0
 40
0.0
 40
0.0
 40
1.0
 40
1.0
 40
1.0
 40
1.0
 10
107.6254351581886
 20
-136.992393393748
 30
0.0
 10
107.6254351581886
 20
-136.992393393748
 30
0.0
 10
107.6254351581886
 20
-136.992393393748
 30
0.0
 10
107.6254351581886
 20
-136.992393393748
 30
0.0
  0
SPLINE
  5
132
330
70
100
AcDbEntity
  8
Capa 1
 62
    18
420
        0
370
     9
100
AcDbSpline
210
0.0
220
0.0
230
1.0
 70
    24
 71
     3
 72
     8
 73
     4
 74
     0
 42
0.0000000001
 43
0.0000000001
 40
0.0
 40
0.0
 40
0.0
 40
0.0
 40
1.0
 40
1.0
 40
1.0
 40
1.0
 10
107.8370985950253
 20
-136.992393393748
 30
0.0
 10
107.8370985950253
 20
-136.992393393748
 30
0.0
 10
107.6254351581886
 20
-136.992393393748
 30
0.0
 10
107.6254351581886
 20
-136.992393393748
 30
0.0
  0
SPLINE
  5
133
330
70
100
AcDbEntity
  8
Capa 1
 62
    18
420
        0
370
     9
100
AcDbSpline
 70
     3
 71
     3
 72
     8
 73
     4
 74
     0
 42
0.0000000001
 43
0.0000000001
 40
0.0
 40
0.0
 40
0.0
 40
0.0
 40
1.0
 40
1.0
 40
1.0
 40
1.0
 10
107.8370985950253
 20
-136.992393393748
 30
0.0
 10
107.8370985950253
 20
-136.992393393748
 30
0.0
 10
107.8370985950253
 20
-136.992393393748
 30
0.0
 10
107.8370985950253
 20
-136.992393393748
 30
0.0
  0
SPLINE
  5
134
330
70
100
AcDbEntity
  8
Capa 1
 62
    18
420
        0
370
     9
100
AcDbSpline
210
0.0
220
0.0
230
1.0
 70
    24
 71
     3
 72
     8
 73
     4
 74
     0
 42
0.0000000001
 43
0.0000000001
 40
0.0
 40
0.0
 40
0.0
 40
0.0
 40
1.0
 40
1.0
 40
1.0
 40
1.0
 10
107.8018240470334
 20
-136.992393393748
 30
0.0
 10
107.8018240470334
 20
-136.992393393748
 30
0.0
 10
107.8370985950253
 20
-136.992393393748
 30
0.0
 10
107.8370985950253
 20
-136.992393393748
 30
0.0
  0
SPLINE
  5
135
330
70
100
AcDbEntity
  8
Capa 1
 62
    18
420
        0
370
     9
100
AcDbSpline
210
0.0
220
0.0
230
1.0
 70
    24
 71
     3
 72
    11
 73
     7
 74
     0
 42
0.0000000001
 43
0.0000000001
 40
0.0
 40
0.0
 40
0.0
 40
0.0
 40
1.0
 40
1.0
 40
1.0
 40
2.0
 40
2.0
 40
2.0
 40
2.0
 10
107.8018240470334
 20
-136.992393393748
 30
0.0
 10
107.8018240470334
 20
-136.992393393748
 30
0.0
 10
107.8018240470334
 20
-136.992393393748
 30
0.0
 10
107.8018240470334
 20
-136.992393393748
 30
0.0
 10
107.8018240470334
 20
-136.992393393748
 30
0.0
 10
107.7665441160797
 20
-136.992393393748
 30
0.0
 10
107.7665441160797
 20
-136.992393393748
 30
0.0
  0
SPLINE
  5
136
330
70
100
AcDbEntity
  8
Capa 1
 62
    18
420
        0
370
     9
100
AcDbSpline
210
0.0
220
0.0
230
1.0
 70
    24
 71
     3
 72
     8
 73
     4
 74
     0
 42
0.0000000001
 43
0.0000000001
 40
0.0
 40
0.0
 40
0.0
 40
0.0
 40
1.0
 40
1.0
 40
1.0
 40
1.0
 10
107.6959896371342
 20
-136.992393393748
 30
0.0
 10
107.6959896371342
 20
-136.992393393748
 30
0.0
 10
107.7665441160797
 20
-136.992393393748
 30
0.0
 10
107.7665441160797
 20
-136.992393393748
 30
0.0
  0
SPLINE
  5
137
330
70
100
AcDbEntity
  8
Capa 1
 62
    18
420
        0
370
     9
100
AcDbSpline
210
0.0
220
0.0
230
1.0
 70
    24
 71
     3
 72
     8
 73
     4
 74
     0
 42
0.0000000001
 43
0.0000000001
 40
0.0
 40
0.0
 40
0.0
 40
0.0
 40
1.0
 40
1.0
 40
1.0
 40
1.0
 10
106.6376563040654
 20
-136.992393393748
 30
0.0
 10
106.6376563040654
 20
-136.992393393748
 30
0.0
 10
107.6959896371342
 20
-136.992393393748
 30
0.0
 10
107.6959896371342
 20
-136.992393393748
 30
0.0
  0
SPLINE
  5
138
330
70
100
AcDbEntity
  8
Capa 1
 62
    18
420
        0
370
     9
100
AcDbSpline
210
0.0
220
0.0
230
1.0
 70
    24
 71
     3
 72
     8
 73
     4
 74
     0
 42
0.0000000001
 43
0.0000000001
 40
0.0
 40
0.0
 40
0.0
 40
0.0
 40
1.0
 40
1.0
 40
1.0
 40
1.0
 10
106.5318218941662
 20
-136.992393393748
 30
0.0
 10
106.5318218941662
 20
-136.992393393748
 30
0.0
 10
106.6376563040654
 20
-136.992393393748
 30
0.0
 10
106.6376563040654
 20
-136.992393393748
 30
0.0
  0
SPLINE
  5
139
330
70
100
AcDbEntity
  8
Capa 1
 62
    18
420
        0
370
     9
100
AcDbSpline
 70
     3
 71
     3
 72
     8
 73
     4
 74
     0
 42
0.0000000001
 43
0.0000000001
 40
0.0
 40
0.0
 40
0.0
 40
0.0
 40
1.0
 40
1.0
 40
1.0
 40
1.0
 10
106.5318218941662
 20
-136.992393393748
 30
0.0
 10
106.5318218941662
 20
-136.992393393748
 30
0.0
 10
106.5318218941662
 20
-136.992393393748
 30
0.0
 10
106.5318218941662
 20
-136.992393393748
 30
0.0
  0
SPLINE
  5
13A
330
70
100
AcDbEntity
  8
Capa 1
 62
    18
420
        0
370
     9
100
AcDbSpline
210
0.0
220
0.0
230
1.0
 70
    24
 71
     3
 72
     8
 73
     4
 74
     0
 42
0.0000000001
 43
0.0000000001
 40
0.0
 40
0.0
 40
0.0
 40
0.0
 40
1.0
 40
1.0
 40
1.0
 40
1.0
 10
106.5318218941662
 20
-136.992393393748
 30
0.0
 10
106.5318218941662
 20
-136.992393393748
 30
0.0
 10
106.5671018251198
 20
-136.992393393748
 30
0.0
 10
106.5671018251198
 20
-136.992393393748
 30
0.0
  0
SPLINE
  5
13B
330
70
100
AcDbEntity
  8
Capa 1
 62
    18
420
        0
370
     9
100
AcDbSpline
210
0.0
220
0.0
230
1.0
 70
    24
 71
     3
 72
    11
 73
     7
 74
     0
 42
0.0000000001
 43
0.0000000001
 40
0.0
 40
0.0
 40
0.0
 40
0.0
 40
1.0
 40
1.0
 40
1.0
 40
2.0
 40
2.0
 40
2.0
 40
2.0
 10
106.5671018251198
 20
-137.0276679417399
 30
0.0
 10
106.5671018251198
 20
-137.0276679417399
 30
0.0
 10
106.5671018251198
 20
-137.0276679417399
 30
0.0
 10
106.5671018251198
 20
-137.0276679417399
 30
0.0
 10
106.5671018251198
 20
-137.0276679417399
 30
0.0
 10
106.5671018251198
 20
-136.992393393748
 30
0.0
 10
106.5671018251198
 20
-136.992393393748
 30
0.0
  0
SPLINE
  5
13C
330
70
100
AcDbEntity
  8
Capa 1
 62
    18
420
        0
370
     9
100
AcDbSpline
210
0.0
220
0.0
230
1.0
 70
     8
 71
     3
 72
    11
 73
     7
 74
     0
 42
0.0000000001
 43
0.0000000001
 40
0.0
 40
0.0
 40
0.0
 40
0.0
 40
1.0
 40
1.0
 40
1.0
 40
2.0
 40
2.0
 40
2.0
 40
2.0
 10
107.7665441160797
 20
-136.992393393748
 30
0.0
 10
107.7665441160797
 20
-136.992393393748
 30
0.0
 10
107.7312641851261
 20
-136.992393393748
 30
0.0
 10
107.7312641851261
 20
-136.992393393748
 30
0.0
 10
107.7312641851261
 20
-136.992393393748
 30
0.0
 10
107.7665441160797
 20
-137.0276679417399
 30
0.0
 10
107.7665441160797
 20
-137.0276679417399
 30
0.0
  0
SPLINE
  5
13D
330
70
100
AcDbEntity
  8
Capa 1
 62
    18
420
        0
370
     9
100
AcDbSpline
 70
     3
 71
     3
 72
     8
 73
     4
 74
     0
 42
0.0000000001
 43
0.0000000001
 40
0.0
 40
0.0
 40
0.0
 40
0.0
 40
1.0
 40
1.0
 40
1.0
 40
1.0
 10
107.7665441160797
 20
-136.992393393748
 30
0.0
 10
107.7665441160797
 20
-136.992393393748
 30
0.0
 10
107.7665441160797
 20
-136.992393393748
 30
0.0
 10
107.7665441160797
 20
-136.992393393748
 30
0.0
  0
SPLINE
  5
13E
330
70
100
AcDbEntity
  8
Capa 1
 62
    18
420
        0
370
     9
100
AcDbSpline
210
0.0
220
0.0
230
1.0
 70
    24
 71
     3
 72
    11
 73
     7
 74
     0
 42
0.0000000001
 43
0.0000000001
 40
0.0
 40
0.0
 40
0.0
 40
0.0
 40
1.0
 40
1.0
 40
1.0
 40
2.0
 40
2.0
 40
2.0
 40
2.0
 10
107.6959896371342
 20
-136.992393393748
 30
0.0
 10
107.6959896371342
 20
-136.992393393748
 30
0.0
 10
107.7312641851261
 20
-136.992393393748
 30
0.0
 10
107.7312641851261
 20
-136.992393393748
 30
0.0
 10
107.7312641851261
 20
-136.992393393748
 30
0.0
 10
107.7665441160797
 20
-136.992393393748
 30
0.0
 10
107.7665441160797
 20
-136.992393393748
 30
0.0
  0
SPLINE
  5
13F
330
70
100
AcDbEntity
  8
Capa 1
 62
    18
420
        0
370
     9
100
AcDbSpline
210
0.0
220
0.0
230
1.0
 70
    24
 71
     3
 72
    11
 73
     7
 74
     0
 42
0.0000000001
 43
0.0000000001
 40
0.0
 40
0.0
 40
0.0
 40
0.0
 40
1.0
 40
1.0
 40
1.0
 40
2.0
 40
2.0
 40
2.0
 40
2.0
 10
106.5671018251198
 20
-136.992393393748
 30
0.0
 10
106.5671018251198
 20
-136.992393393748
 30
0.0
 10
106.6023763731118
 20
-136.992393393748
 30
0.0
 10
106.6023763731118
 20
-136.992393393748
 30
0.0
 10
106.6023763731118
 20
-136.992393393748
 30
0.0
 10
106.6376563040654
 20
-136.992393393748
 30
0.0
 10
106.6376563040654
 20
-136.992393393748
 30
0.0
  0
SPLINE
  5
140
330
70
100
AcDbEntity
  8
Capa 1
 62
    18
420
        0
370
     9
100
AcDbSpline
210
0.0
220
0.0
230
1.0
 70
    24
 71
     3
 72
     8
 73
     4
 74
     0
 42
0.0000000001
 43
0.0000000001
 40
0.0
 40
0.0
 40
0.0
 40
0.0
 40
1.0
 40
1.0
 40
1.0
 40
1.0
 10
107.8370985950253
 20
-137.0629478726935
 30
0.0
 10
107.8370985950253
 20
-137.0629478726935
 30
0.0
 10
107.8370985950253
 20
-136.992393393748
 30
0.0
 10
107.8370985950253
 20
-136.992393393748
 30
0.0
  0
SPLINE
  5
141
330
70
100
AcDbEntity
  8
Capa 1
 62
    18
420
        0
370
     9
100
AcDbSpline
210
0.0
220
0.0
230
1.0
 70
    24
 71
     3
 72
     8
 73
     4
 74
     0
 42
0.0000000001
 43
0.0000000001
 40
0.0
 40
0.0
 40
0.0
 40
0.0
 40
1.0
 40
1.0
 40
1.0
 40
1.0
 10
106.4965419632126
 20
-136.992393393748
 30
0.0
 10
106.4965419632126
 20
-136.992393393748
 30
0.0
 10
106.4965419632126
 20
-137.0629478726935
 30
0.0
 10
106.4965419632126
 20
-137.0629478726935
 30
0.0
  0
SPLINE
  5
142
330
70
100
AcDbEntity
  8
Capa 1
 62
    18
420
        0
370
     9
100
AcDbSpline
210
0.0
220
0.0
230
1.0
 70
    24
 71
     3
 72
     8
 73
     4
 74
     0
 42
0.0000000001
 43
0.0000000001
 40
0.0
 40
0.0
 40
0.0
 40
0.0
 40
1.0
 40
1.0
 40
1.0
 40
1.0
 10
106.5318218941662
 20
-136.992393393748
 30
0.0
 10
106.5318218941662
 20
-136.992393393748
 30
0.0
 10
106.5318218941662
 20
-137.0276679417399
 30
0.0
 10
106.5318218941662
 20
-137.0276679417399
 30
0.0
  0
SPLINE
  5
143
330
70
100
AcDbEntity
  8
Capa 1
 62
    18
420
        0
370
     9
100
AcDbSpline
210
0.0
220
0.0
230
1.0
 70
    24
 71
     3
 72
     8
 73
     4
 74
     0
 42
0.0000000001
 43
0.0000000001
 40
0.0
 40
0.0
 40
0.0
 40
0.0
 40
1.0
 40
1.0
 40
1.0
 40
1.0
 10
107.8018240470334
 20
-137.0276679417399
 30
0.0
 10
107.8018240470334
 20
-137.0276679417399
 30
0.0
 10
107.8018240470334
 20
-136.992393393748
 30
0.0
 10
107.8018240470334
 20
-136.992393393748
 30
0.0
  0
SPLINE
  5
144
330
70
100
AcDbEntity
  8
Capa 1
 62
     9
420
 12830930
370
     9
100
AcDbSpline
210
0.0
220
0.0
230
1.0
 70
     8
 71
     3
 72
    47
 73
    43
 74
     0
 42
0.0000000001
 43
0.0000000001
 40
0.0
 40
0.0
 40
0.0
 40
0.0
 40
1.0
 40
1.0
 40
1.0
 40
2.0
 40
2.0
 40
2.0
 40
3.0
 40
3.0
 40
3.0
 40
4.0
 40
4.0
 40
4.0
 40
5.0
 40
5.0
 40
5.0
 40
6.0
 40
6.0
 40
6.0
 40
7.0
 40
7.0
 40
7.0
 40
8.0
 40
8.0
 40
8.0
 40
9.0
 40
9.0
 40
9.0
 40
10.0
 40
10.0
 40
10.0
 40
11.0
 40
11.0
 40
11.0
 40
12.0
 40
12.0
 40
12.0
 40
13.0
 40
13.0
 40
13.0
 40
14.0
 40
14.0
 40
14.0
 40
14.0
 10
84.76543408731128
 20
-139.9557245731558
 30
0.0
 10
84.76543408731128
 20
-139.9557245731558
 30
0.0
 10
84.51848802804006
 20
-140.0262844350631
 30
0.0
 10
84.51848802804006
 20
-140.0262844350631
 30
0.0
 10
84.51848802804006
 20
-140.0262844350631
 30
0.0
 10
84.30682189972248
 20
-140.1321134620006
 30
0.0
 10
84.30682189972248
 20
-140.1321134620006
 30
0.0
 10
84.30682189972248
 20
-140.1321134620006
 30
0.0
 10
84.0951557714049
 20
-140.2732278028535
 30
0.0
 10
84.0951557714049
 20
-140.2732278028535
 30
0.0
 10
84.0951557714049
 20
-140.2732278028535
 30
0.0
 10
83.88348964308731
 20
-140.4496166916982
 30
0.0
 10
83.88348964308731
 20
-140.4496166916982
 30
0.0
 10
83.88348964308731
 20
-140.4496166916982
 30
0.0
 10
83.6718208232889
 20
-140.626005580543
 30
0.0
 10
83.6718208232889
 20
-140.626005580543
 30
0.0
 10
83.6718208232889
 20
-140.626005580543
 30
0.0
 10
83.4601546949713
 20
-140.8376690173798
 30
0.0
 10
83.4601546949713
 20
-140.8376690173798
 30
0.0
 10
83.4601546949713
 20
-140.8376690173798
 30
0.0
 10
83.28376580612653
 20
-141.0846177681318
 30
0.0
 10
83.28376580612653
 20
-141.0846177681318
 30
0.0
 10
83.28376580612653
 20
-141.0846177681318
 30
0.0
 10
83.10737691728173
 20
-141.3315611359222
 30
0.0
 10
83.10737691728173
 20
-141.3315611359222
 30
0.0
 10
83.10737691728173
 20
-141.3315611359222
 30
0.0
 10
82.96626526790971
 20
-141.6137844346662
 30
0.0
 10
82.96626526790971
 20
-141.6137844346662
 30
0.0
 10
82.96626526790971
 20
-141.6137844346662
 30
0.0
 10
82.82515631001857
 20
-141.8960023504485
 30
0.0
 10
82.82515631001857
 20
-141.8960023504485
 30
0.0
 10
82.82515631001857
 20
-141.8960023504485
 30
0.0
 10
82.71932190011936
 20
-142.2135055801462
 30
0.0
 10
82.71932190011936
 20
-142.2135055801462
 30
0.0
 10
82.71932190011936
 20
-142.2135055801462
 30
0.0
 10
82.61348749022014
 20
-142.5310034268821
 30
0.0
 10
82.61348749022014
 20
-142.5310034268821
 30
0.0
 10
82.61348749022014
 20
-142.5310034268821
 30
0.0
 10
82.54293301127455
 20
-142.8485066565797
 30
0.0
 10
82.54293301127455
 20
-142.8485066565797
 30
0.0
 10
82.54293301127455
 20
-142.8485066565797
 30
0.0
 10
82.50765577180178
 20
-143.1660045033157
 30
0.0
 10
82.50765577180178
 20
-143.1660045033157
 30
0.0
  0
SPLINE
  5
145
330
70
100
AcDbEntity
  8
Capa 1
 62
     9
420
 12830930
370
     9
100
AcDbSpline
210
0.0
220
0.0
230
1.0
 70
     8
 71
     3
 72
    47
 73
    43
 74
     0
 42
0.0000000001
 43
0.0000000001
 40
0.0
 40
0.0
 40
0.0
 40
0.0
 40
1.0
 40
1.0
 40
1.0
 40
2.0
 40
2.0
 40
2.0
 40
3.0
 40
3.0
 40
3.0
 40
4.0
 40
4.0
 40
4.0
 40
5.0
 40
5.0
 40
5.0
 40
6.0
 40
6.0
 40
6.0
 40
7.0
 40
7.0
 40
7.0
 40
8.0
 40
8.0
 40
8.0
 40
9.0
 40
9.0
 40
9.0
 40
10.0
 40
10.0
 40
10.0
 40
11.0
 40
11.0
 40
11.0
 40
12.0
 40
12.0
 40
12.0
 40
13.0
 40
13.0
 40
13.0
 40
14.0
 40
14.0
 40
14.0
 40
14.0
 10
82.50765577180178
 20
-151.138784432285
 30
0.0
 10
82.50765577180178
 20
-151.138784432285
 30
0.0
 10
82.54293301127455
 20
-151.4562822790209
 30
0.0
 10
82.54293301127455
 20
-151.4562822790209
 30
0.0
 10
82.54293301127455
 20
-151.4562822790209
 30
0.0
 10
82.64876742117378
 20
-151.7737801257569
 30
0.0
 10
82.64876742117378
 20
-151.7737801257569
 30
0.0
 10
82.64876742117378
 20
-151.7737801257569
 30
0.0
 10
82.71932190011936
 20
-152.0560034245009
 30
0.0
 10
82.71932190011936
 20
-152.0560034245009
 30
0.0
 10
82.71932190011936
 20
-152.0560034245009
 30
0.0
 10
82.86043354949136
 20
-152.3735066541985
 30
0.0
 10
82.86043354949136
 20
-152.3735066541985
 30
0.0
 10
82.86043354949136
 20
-152.3735066541985
 30
0.0
 10
83.00154519886335
 20
-152.6557245699808
 30
0.0
 10
83.00154519886335
 20
-152.6557245699808
 30
0.0
 10
83.00154519886335
 20
-152.6557245699808
 30
0.0
 10
83.14265415675452
 20
-152.9379478687248
 30
0.0
 10
83.14265415675452
 20
-152.9379478687248
 30
0.0
 10
83.14265415675452
 20
-152.9379478687248
 30
0.0
 10
83.3190430455993
 20
-153.1848912365152
 30
0.0
 10
83.3190430455993
 20
-153.1848912365152
 30
0.0
 10
83.3190430455993
 20
-153.1848912365152
 30
0.0
 10
83.49543193444409
 20
-153.3965600563136
 30
0.0
 10
83.49543193444409
 20
-153.3965600563136
 30
0.0
 10
83.49543193444409
 20
-153.3965600563136
 30
0.0
 10
83.6718208232889
 20
-153.6082288761121
 30
0.0
 10
83.6718208232889
 20
-153.6082288761121
 30
0.0
 10
83.6718208232889
 20
-153.6082288761121
 30
0.0
 10
83.88348964308731
 20
-153.8198923129488
 30
0.0
 10
83.88348964308731
 20
-153.8198923129488
 30
0.0
 10
83.88348964308731
 20
-153.8198923129488
 30
0.0
 10
84.0951557714049
 20
-153.9610066538016
 30
0.0
 10
84.0951557714049
 20
-153.9610066538016
 30
0.0
 10
84.0951557714049
 20
-153.9610066538016
 30
0.0
 10
84.30682189972248
 20
-154.1021156116928
 30
0.0
 10
84.30682189972248
 20
-154.1021156116928
 30
0.0
 10
84.30682189972248
 20
-154.1021156116928
 30
0.0
 10
84.51848802804006
 20
-154.207950021592
 30
0.0
 10
84.51848802804006
 20
-154.207950021592
 30
0.0
 10
84.51848802804006
 20
-154.207950021592
 30
0.0
 10
84.76543408731128
 20
-154.3137844314912
 30
0.0
 10
84.76543408731128
 20
-154.3137844314912
 30
0.0
  0
SPLINE
  5
146
330
70
100
AcDbEntity
  8
Capa 1
 62
     9
420
 12830930
370
     9
100
AcDbSpline
210
0.0
220
0.0
230
1.0
 70
     8
 71
     3
 72
    20
 73
    16
 74
     0
 42
0.0000000001
 43
0.0000000001
 40
0.0
 40
0.0
 40
0.0
 40
0.0
 40
1.0
 40
1.0
 40
1.0
 40
2.0
 40
2.0
 40
2.0
 40
3.0
 40
3.0
 40
3.0
 40
4.0
 40
4.0
 40
4.0
 40
5.0
 40
5.0
 40
5.0
 40
5.0
 10
82.50765577180178
 20
-143.1660045033157
 30
0.0
 10
82.50765577180178
 20
-143.1660045033157
 30
0.0
 10
82.54293301127455
 20
-144.7535045029188
 30
0.0
 10
82.54293301127455
 20
-144.7535045029188
 30
0.0
 10
82.54293301127455
 20
-144.7535045029188
 30
0.0
 10
82.57821025074735
 20
-146.3410045025219
 30
0.0
 10
82.57821025074735
 20
-146.3410045025219
 30
0.0
 10
82.57821025074735
 20
-146.3410045025219
 30
0.0
 10
82.57821025074735
 20
-147.9637844330787
 30
0.0
 10
82.57821025074735
 20
-147.9637844330787
 30
0.0
 10
82.57821025074735
 20
-147.9637844330787
 30
0.0
 10
82.54293301127455
 20
-149.5512844326818
 30
0.0
 10
82.54293301127455
 20
-149.5512844326818
 30
0.0
 10
82.54293301127455
 20
-149.5512844326818
 30
0.0
 10
82.50765577180178
 20
-151.138784432285
 30
0.0
 10
82.50765577180178
 20
-151.138784432285
 30
0.0
  0
SPLINE
  5
147
330
70
100
AcDbEntity
  8
Capa 1
 62
     9
420
 12830930
370
     9
100
AcDbSpline
210
0.0
220
0.0
230
1.0
 70
     8
 71
     3
 72
    20
 73
    16
 74
     0
 42
0.0000000001
 43
0.0000000001
 40
0.0
 40
0.0
 40
0.0
 40
0.0
 40
1.0
 40
1.0
 40
1.0
 40
2.0
 40
2.0
 40
2.0
 40
3.0
 40
3.0
 40
3.0
 40
4.0
 40
4.0
 40
4.0
 40
5.0
 40
5.0
 40
5.0
 40
5.0
 10
108.3309907135678
 20
-139.9910045041094
 30
0.0
 10
108.3309907135678
 20
-139.9910045041094
 30
0.0
 10
108.3309907135678
 20
-139.9204500251639
 30
0.0
 10
108.3309907135678
 20
-139.9204500251639
 30
0.0
 10
108.3309907135678
 20
-139.9204500251639
 30
0.0
 10
108.2957107826141
 20
-139.8851700942102
 30
0.0
 10
108.2957107826141
 20
-139.8851700942102
 30
0.0
 10
108.2957107826141
 20
-139.8851700942102
 30
0.0
 10
108.2251563036686
 20
-139.8498955462183
 30
0.0
 10
108.2251563036686
 20
-139.8498955462183
 30
0.0
 10
108.2251563036686
 20
-139.8498955462183
 30
0.0
 10
108.1898763727149
 20
-139.8146156152646
 30
0.0
 10
108.1898763727149
 20
-139.8146156152646
 30
0.0
 10
108.1898763727149
 20
-139.8146156152646
 30
0.0
 10
108.154601824723
 20
-139.8146156152646
 30
0.0
 10
108.154601824723
 20
-139.8146156152646
 30
0.0
  0
SPLINE
  5
148
330
70
100
AcDbEntity
  8
Capa 1
 62
     9
420
 12830930
370
     9
100
AcDbSpline
210
0.0
220
0.0
230
1.0
 70
     8
 71
     3
 72
    17
 73
    13
 74
     0
 42
0.0000000001
 43
0.0000000001
 40
0.0
 40
0.0
 40
0.0
 40
0.0
 40
1.0
 40
1.0
 40
1.0
 40
2.0
 40
2.0
 40
2.0
 40
3.0
 40
3.0
 40
3.0
 40
4.0
 40
4.0
 40
4.0
 40
4.0
 10
108.1898763727149
 20
-154.6312822782271
 30
0.0
 10
108.1898763727149
 20
-154.6312822782271
 30
0.0
 10
108.2251563036686
 20
-154.6312822782271
 30
0.0
 10
108.2251563036686
 20
-154.6312822782271
 30
0.0
 10
108.2251563036686
 20
-154.6312822782271
 30
0.0
 10
108.2957107826141
 20
-154.5960023472735
 30
0.0
 10
108.2957107826141
 20
-154.5960023472735
 30
0.0
 10
108.2957107826141
 20
-154.5960023472735
 30
0.0
 10
108.3309907135678
 20
-154.525447868328
 30
0.0
 10
108.3309907135678
 20
-154.525447868328
 30
0.0
 10
108.3309907135678
 20
-154.525447868328
 30
0.0
 10
108.3309907135678
 20
-154.490173320336
 30
0.0
 10
108.3309907135678
 20
-154.490173320336
 30
0.0
  0
SPLINE
  5
149
330
70
100
AcDbEntity
  8
Capa 1
 62
     9
420
 12830930
370
     9
100
AcDbSpline
210
0.0
220
0.0
230
1.0
 70
     8
 71
     3
 72
    17
 73
    13
 74
     0
 42
0.0000000001
 43
0.0000000001
 40
0.0
 40
0.0
 40
0.0
 40
0.0
 40
1.0
 40
1.0
 40
1.0
 40
2.0
 40
2.0
 40
2.0
 40
3.0
 40
3.0
 40
3.0
 40
4.0
 40
4.0
 40
4.0
 40
4.0
 10
86.88210075344878
 20
-154.0315611327472
 30
0.0
 10
86.88210075344878
 20
-154.0315611327472
 30
0.0
 10
86.28237691648797
 20
-154.0668356807391
 30
0.0
 10
86.28237691648797
 20
-154.0668356807391
 30
0.0
 10
86.28237691648797
 20
-154.0668356807391
 30
0.0
 10
85.7179330104808
 20
-154.1021156116928
 30
0.0
 10
85.7179330104808
 20
-154.1021156116928
 30
0.0
 10
85.7179330104808
 20
-154.1021156116928
 30
0.0
 10
85.22404358341923
 20
-154.207950021592
 30
0.0
 10
85.22404358341923
 20
-154.207950021592
 30
0.0
 10
85.22404358341923
 20
-154.207950021592
 30
0.0
 10
84.76543408731128
 20
-154.3137844314912
 30
0.0
 10
84.76543408731128
 20
-154.3137844314912
 30
0.0
  0
SPLINE
  5
14A
330
70
100
AcDbEntity
  8
Capa 1
 62
     9
420
 12830930
370
     9
100
AcDbSpline
210
0.0
220
0.0
230
1.0
 70
     8
 71
     3
 72
    44
 73
    40
 74
     0
 42
0.0000000001
 43
0.0000000001
 40
0.0
 40
0.0
 40
0.0
 40
0.0
 40
1.0
 40
1.0
 40
1.0
 40
2.0
 40
2.0
 40
2.0
 40
3.0
 40
3.0
 40
3.0
 40
4.0
 40
4.0
 40
4.0
 40
5.0
 40
5.0
 40
5.0
 40
6.0
 40
6.0
 40
6.0
 40
7.0
 40
7.0
 40
7.0
 40
8.0
 40
8.0
 40
8.0
 40
9.0
 40
9.0
 40
9.0
 40
10.0
 40
10.0
 40
10.0
 40
11.0
 40
11.0
 40
11.0
 40
12.0
 40
12.0
 40
12.0
 40
13.0
 40
13.0
 40
13.0
 40
13.0
 10
96.30126634116862
 20
-153.9962812017936
 30
0.0
 10
96.30126634116862
 20
-153.9962812017936
 30
0.0
 10
95.48987637589025
 20
-153.9962812017936
 30
0.0
 10
95.48987637589025
 20
-153.9962812017936
 30
0.0
 10
95.48987637589025
 20
-153.9962812017936
 30
0.0
 10
94.7137663415655
 20
-153.9962812017936
 30
0.0
 10
94.7137663415655
 20
-153.9962812017936
 30
0.0
 10
94.7137663415655
 20
-153.9962812017936
 30
0.0
 10
94.00821078618633
 20
-153.9962812017936
 30
0.0
 10
94.00821078618633
 20
-153.9962812017936
 30
0.0
 10
94.00821078618633
 20
-153.9962812017936
 30
0.0
 10
93.30265523080717
 20
-153.9610066538016
 30
0.0
 10
93.30265523080717
 20
-153.9610066538016
 30
0.0
 10
93.30265523080717
 20
-153.9610066538016
 30
0.0
 10
92.56181974447438
 20
-153.9610066538016
 30
0.0
 10
92.56181974447438
 20
-153.9610066538016
 30
0.0
 10
92.56181974447438
 20
-153.9610066538016
 30
0.0
 10
91.78570971014963
 20
-153.9962812017936
 30
0.0
 10
91.78570971014963
 20
-153.9962812017936
 30
0.0
 10
91.78570971014963
 20
-153.9962812017936
 30
0.0
 10
91.08015415477046
 20
-153.9962812017936
 30
0.0
 10
91.08015415477046
 20
-153.9962812017936
 30
0.0
 10
91.08015415477046
 20
-153.9962812017936
 30
0.0
 10
90.44515576981771
 20
-153.9962812017936
 30
0.0
 10
90.44515576981771
 20
-153.9962812017936
 30
0.0
 10
90.44515576981771
 20
-153.9962812017936
 30
0.0
 10
89.70432297496577
 20
-153.9962812017936
 30
0.0
 10
89.70432297496577
 20
-153.9962812017936
 30
0.0
 10
89.70432297496577
 20
-153.9962812017936
 30
0.0
 10
88.9987674195866
 20
-153.9962812017936
 30
0.0
 10
88.9987674195866
 20
-153.9962812017936
 30
0.0
 10
88.9987674195866
 20
-153.9962812017936
 30
0.0
 10
88.3637663431527
 20
-153.9962812017936
 30
0.0
 10
88.3637663431527
 20
-153.9962812017936
 30
0.0
 10
88.3637663431527
 20
-153.9962812017936
 30
0.0
 10
87.65821078777353
 20
-154.0315611327472
 30
0.0
 10
87.65821078777353
 20
-154.0315611327472
 30
0.0
 10
87.65821078777353
 20
-154.0315611327472
 30
0.0
 10
86.88210075344878
 20
-154.0315611327472
 30
0.0
 10
86.88210075344878
 20
-154.0315611327472
 30
0.0
  0
SPLINE
  5
14B
330
70
100
AcDbEntity
  8
Capa 1
 62
     9
420
 12830930
370
     9
100
AcDbSpline
210
0.0
220
0.0
230
1.0
 70
     8
 71
     3
 72
    44
 73
    40
 74
     0
 42
0.0000000001
 43
0.0000000001
 40
0.0
 40
0.0
 40
0.0
 40
0.0
 40
1.0
 40
1.0
 40
1.0
 40
2.0
 40
2.0
 40
2.0
 40
3.0
 40
3.0
 40
3.0
 40
4.0
 40
4.0
 40
4.0
 40
5.0
 40
5.0
 40
5.0
 40
6.0
 40
6.0
 40
6.0
 40
7.0
 40
7.0
 40
7.0
 40
8.0
 40
8.0
 40
8.0
 40
9.0
 40
9.0
 40
9.0
 40
10.0
 40
10.0
 40
10.0
 40
11.0
 40
11.0
 40
11.0
 40
12.0
 40
12.0
 40
12.0
 40
13.0
 40
13.0
 40
13.0
 40
13.0
 10
96.30126634116862
 20
-140.2026733239079
 30
0.0
 10
96.30126634116862
 20
-140.2026733239079
 30
0.0
 10
95.48987637589025
 20
-140.2379478718998
 30
0.0
 10
95.48987637589025
 20
-140.2379478718998
 30
0.0
 10
95.48987637589025
 20
-140.2379478718998
 30
0.0
 10
94.7137663415655
 20
-140.2379478718998
 30
0.0
 10
94.7137663415655
 20
-140.2379478718998
 30
0.0
 10
94.7137663415655
 20
-140.2379478718998
 30
0.0
 10
94.00821078618633
 20
-140.2379478718998
 30
0.0
 10
94.00821078618633
 20
-140.2379478718998
 30
0.0
 10
94.00821078618633
 20
-140.2379478718998
 30
0.0
 10
93.30265523080717
 20
-140.2379478718998
 30
0.0
 10
93.30265523080717
 20
-140.2379478718998
 30
0.0
 10
93.30265523080717
 20
-140.2379478718998
 30
0.0
 10
92.52654519648244
 20
-140.2379478718998
 30
0.0
 10
92.52654519648244
 20
-140.2379478718998
 30
0.0
 10
92.52654519648244
 20
-140.2379478718998
 30
0.0
 10
91.78570971014963
 20
-140.2379478718998
 30
0.0
 10
91.78570971014963
 20
-140.2379478718998
 30
0.0
 10
91.78570971014963
 20
-140.2379478718998
 30
0.0
 10
91.08015415477046
 20
-140.2379478718998
 30
0.0
 10
91.08015415477046
 20
-140.2379478718998
 30
0.0
 10
91.08015415477046
 20
-140.2379478718998
 30
0.0
 10
90.40987853034492
 20
-140.2379478718998
 30
0.0
 10
90.40987853034492
 20
-140.2379478718998
 30
0.0
 10
90.40987853034492
 20
-140.2379478718998
 30
0.0
 10
89.66904304401213
 20
-140.2026733239079
 30
0.0
 10
89.66904304401213
 20
-140.2026733239079
 30
0.0
 10
89.66904304401213
 20
-140.2026733239079
 30
0.0
 10
88.96348748863296
 20
-140.2026733239079
 30
0.0
 10
88.96348748863296
 20
-140.2026733239079
 30
0.0
 10
88.96348748863296
 20
-140.2026733239079
 30
0.0
 10
88.32848910367991
 20
-140.2026733239079
 30
0.0
 10
88.32848910367991
 20
-140.2026733239079
 30
0.0
 10
88.32848910367991
 20
-140.2026733239079
 30
0.0
 10
87.62293354830074
 20
-140.2026733239079
 30
0.0
 10
87.62293354830074
 20
-140.2026733239079
 30
0.0
 10
87.62293354830074
 20
-140.2026733239079
 30
0.0
 10
86.88210075344878
 20
-140.2026733239079
 30
0.0
 10
86.88210075344878
 20
-140.2026733239079
 30
0.0
  0
SPLINE
  5
14C
330
70
100
AcDbEntity
  8
Capa 1
 62
     9
420
 12830930
370
     9
100
AcDbSpline
210
0.0
220
0.0
230
1.0
 70
     8
 71
     3
 72
    17
 73
    13
 74
     0
 42
0.0000000001
 43
0.0000000001
 40
0.0
 40
0.0
 40
0.0
 40
0.0
 40
1.0
 40
1.0
 40
1.0
 40
2.0
 40
2.0
 40
2.0
 40
3.0
 40
3.0
 40
3.0
 40
4.0
 40
4.0
 40
4.0
 40
4.0
 10
86.88210075344878
 20
-140.2026733239079
 30
0.0
 10
86.88210075344878
 20
-140.2026733239079
 30
0.0
 10
86.28237691648797
 20
-140.1673933929543
 30
0.0
 10
86.28237691648797
 20
-140.1673933929543
 30
0.0
 10
86.28237691648797
 20
-140.1673933929543
 30
0.0
 10
85.7179330104808
 20
-140.1321134620006
 30
0.0
 10
85.7179330104808
 20
-140.1321134620006
 30
0.0
 10
85.7179330104808
 20
-140.1321134620006
 30
0.0
 10
85.22404358341923
 20
-140.061558983055
 30
0.0
 10
85.22404358341923
 20
-140.061558983055
 30
0.0
 10
85.22404358341923
 20
-140.061558983055
 30
0.0
 10
84.76543408731128
 20
-139.9557245731558
 30
0.0
 10
84.76543408731128
 20
-139.9557245731558
 30
0.0
  0
SPLINE
  5
14D
330
70
100
AcDbEntity
  8
Capa 1
 62
     9
420
 12830930
370
     9
100
AcDbSpline
210
0.0
220
0.0
230
1.0
 70
    24
 71
     3
 72
     8
 73
     4
 74
     0
 42
0.0000000001
 43
0.0000000001
 40
0.0
 40
0.0
 40
0.0
 40
0.0
 40
1.0
 40
1.0
 40
1.0
 40
1.0
 10
108.3309907135678
 20
-154.490173320336
 30
0.0
 10
108.3309907135678
 20
-154.490173320336
 30
0.0
 10
108.3309907135678
 20
-139.9910045041094
 30
0.0
 10
108.3309907135678
 20
-139.9910045041094
 30
0.0
  0
SPLINE
  5
14E
330
70
100
AcDbEntity
  8
Capa 1
 62
     9
420
 12830930
370
     9
100
AcDbSpline
210
0.0
220
0.0
230
1.0
 70
    24
 71
     3
 72
     8
 73
     4
 74
     0
 42
0.0000000001
 43
0.0000000001
 40
0.0
 40
0.0
 40
0.0
 40
0.0
 40
1.0
 40
1.0
 40
1.0
 40
1.0
 10
108.154601824723
 20
-139.8146156152646
 30
0.0
 10
108.154601824723
 20
-139.8146156152646
 30
0.0
 10
100.781543041234
 20
-139.8498955462183
 30
0.0
 10
100.781543041234
 20
-139.8498955462183
 30
0.0
  0
SPLINE
  5
14F
330
70
100
AcDbEntity
  8
Capa 1
 62
     9
420
 12830930
370
     9
100
AcDbSpline
210
0.0
220
0.0
230
1.0
 70
    24
 71
     3
 72
     8
 73
     4
 74
     0
 42
0.0000000001
 43
0.0000000001
 40
0.0
 40
0.0
 40
0.0
 40
0.0
 40
1.0
 40
1.0
 40
1.0
 40
1.0
 10
100.781543041234
 20
-154.5960023472735
 30
0.0
 10
100.781543041234
 20
-154.5960023472735
 30
0.0
 10
108.154601824723
 20
-154.6312822782271
 30
0.0
 10
108.154601824723
 20
-154.6312822782271
 30
0.0
  0
SPLINE
  5
150
330
70
100
AcDbEntity
  8
Capa 1
 62
     9
420
 12830930
370
     9
100
AcDbSpline
210
0.0
220
0.0
230
1.0
 70
    24
 71
     3
 72
     8
 73
     4
 74
     0
 42
0.0000000001
 43
0.0000000001
 40
0.0
 40
0.0
 40
0.0
 40
0.0
 40
1.0
 40
1.0
 40
1.0
 40
1.0
 10
100.3582107845988
 20
-154.3843389104368
 30
0.0
 10
100.3582107845988
 20
-154.3843389104368
 30
0.0
 10
100.3582107845988
 20
-140.061558983055
 30
0.0
 10
100.3582107845988
 20
-140.061558983055
 30
0.0
  0
SPLINE
  5
151
330
70
100
AcDbEntity
  8
Capa 1
 62
     9
420
 12830930
370
     9
100
AcDbSpline
210
0.0
220
0.0
230
1.0
 70
     8
 71
     3
 72
    29
 73
    25
 74
     0
 42
0.0000000001
 43
0.0000000001
 40
0.0
 40
0.0
 40
0.0
 40
0.0
 40
1.0
 40
1.0
 40
1.0
 40
2.0
 40
2.0
 40
2.0
 40
3.0
 40
3.0
 40
3.0
 40
4.0
 40
4.0
 40
4.0
 40
5.0
 40
5.0
 40
5.0
 40
6.0
 40
6.0
 40
6.0
 40
7.0
 40
7.0
 40
7.0
 40
8.0
 40
8.0
 40
8.0
 40
8.0
 10
99.2998774515301
 20
-142.7779467946725
 30
0.0
 10
99.2998774515301
 20
-142.7779467946725
 30
0.0
 10
99.08820863173167
 20
-142.2487801281381
 30
0.0
 10
99.08820863173167
 20
-142.2487801281381
 30
0.0
 10
99.08820863173167
 20
-142.2487801281381
 30
0.0
 10
98.80598533298766
 20
-141.7548933925574
 30
0.0
 10
98.80598533298766
 20
-141.7548933925574
 30
0.0
 10
98.80598533298766
 20
-141.7548933925574
 30
0.0
 10
98.45320755529808
 20
-141.2962812049685
 30
0.0
 10
98.45320755529808
 20
-141.2962812049685
 30
0.0
 10
98.45320755529808
 20
-141.2962812049685
 30
0.0
 10
98.06515522961655
 20
-140.943503427279
 30
0.0
 10
98.06515522961655
 20
-140.943503427279
 30
0.0
 10
98.06515522961655
 20
-140.943503427279
 30
0.0
 10
97.64182297298139
 20
-140.661280128535
 30
0.0
 10
97.64182297298139
 20
-140.661280128535
 30
0.0
 10
97.64182297298139
 20
-140.661280128535
 30
0.0
 10
97.21848533338453
 20
-140.4496166916982
 30
0.0
 10
97.21848533338453
 20
-140.4496166916982
 30
0.0
 10
97.21848533338453
 20
-140.4496166916982
 30
0.0
 10
96.75987852875742
 20
-140.3085023508454
 30
0.0
 10
96.75987852875742
 20
-140.3085023508454
 30
0.0
 10
96.75987852875742
 20
-140.3085023508454
 30
0.0
 10
96.30126634116862
 20
-140.2026733239079
 30
0.0
 10
96.30126634116862
 20
-140.2026733239079
 30
0.0
  0
SPLINE
  5
152
330
70
100
AcDbEntity
  8
Capa 1
 62
     9
420
 12830930
370
     9
100
AcDbSpline
210
0.0
220
0.0
230
1.0
 70
     8
 71
     3
 72
    11
 73
     7
 74
     0
 42
0.0000000001
 43
0.0000000001
 40
0.0
 40
0.0
 40
0.0
 40
0.0
 40
1.0
 40
1.0
 40
1.0
 40
2.0
 40
2.0
 40
2.0
 40
2.0
 10
99.40571186142932
 20
-143.4835023500516
 30
0.0
 10
99.40571186142932
 20
-143.4835023500516
 30
0.0
 10
99.37043193047568
 20
-143.1307245723621
 30
0.0
 10
99.37043193047568
 20
-143.1307245723621
 30
0.0
 10
99.37043193047568
 20
-143.1307245723621
 30
0.0
 10
99.2998774515301
 20
-142.7779467946725
 30
0.0
 10
99.2998774515301
 20
-142.7779467946725
 30
0.0
  0
SPLINE
  5
153
330
70
100
AcDbEntity
  8
Capa 1
 62
     9
420
 12830930
370
     9
100
AcDbSpline
210
0.0
220
0.0
230
1.0
 70
     8
 71
     3
 72
    11
 73
     7
 74
     0
 42
0.0000000001
 43
0.0000000001
 40
0.0
 40
0.0
 40
0.0
 40
0.0
 40
1.0
 40
1.0
 40
1.0
 40
2.0
 40
2.0
 40
2.0
 40
2.0
 10
99.22932297258451
 20
-151.5621166889201
 30
0.0
 10
99.22932297258451
 20
-151.5621166889201
 30
0.0
 10
99.33515199952204
 20
-151.138784432285
 30
0.0
 10
99.33515199952204
 20
-151.138784432285
 30
0.0
 10
99.33515199952204
 20
-151.138784432285
 30
0.0
 10
99.40571186142932
 20
-150.7507267236417
 30
0.0
 10
99.40571186142932
 20
-150.7507267236417
 30
0.0
  0
SPLINE
  5
154
330
70
100
AcDbEntity
  8
Capa 1
 62
     9
420
 12830930
370
     9
100
AcDbSpline
210
0.0
220
0.0
230
1.0
 70
     8
 71
     3
 72
    29
 73
    25
 74
     0
 42
0.0000000001
 43
0.0000000001
 40
0.0
 40
0.0
 40
0.0
 40
0.0
 40
1.0
 40
1.0
 40
1.0
 40
2.0
 40
2.0
 40
2.0
 40
3.0
 40
3.0
 40
3.0
 40
4.0
 40
4.0
 40
4.0
 40
5.0
 40
5.0
 40
5.0
 40
6.0
 40
6.0
 40
6.0
 40
7.0
 40
7.0
 40
7.0
 40
8.0
 40
8.0
 40
8.0
 40
8.0
 10
96.30126634116862
 20
-153.9962812017936
 30
0.0
 10
96.30126634116862
 20
-153.9962812017936
 30
0.0
 10
96.75987852875742
 20
-153.925726722848
 30
0.0
 10
96.75987852875742
 20
-153.925726722848
 30
0.0
 10
96.75987852875742
 20
-153.925726722848
 30
0.0
 10
97.18321078539259
 20
-153.7846177649568
 30
0.0
 10
97.18321078539259
 20
-153.7846177649568
 30
0.0
 10
97.18321078539259
 20
-153.7846177649568
 30
0.0
 10
97.60654304202775
 20
-153.5729489451584
 30
0.0
 10
97.60654304202775
 20
-153.5729489451584
 30
0.0
 10
97.60654304202775
 20
-153.5729489451584
 30
0.0
 10
98.02987529866292
 20
-153.2907256464144
 30
0.0
 10
98.02987529866292
 20
-153.2907256464144
 30
0.0
 10
98.02987529866292
 20
-153.2907256464144
 30
0.0
 10
98.41793300730614
 20
-152.9379478687248
 30
0.0
 10
98.41793300730614
 20
-152.9379478687248
 30
0.0
 10
98.41793300730614
 20
-152.9379478687248
 30
0.0
 10
98.73543085404207
 20
-152.5498955430433
 30
0.0
 10
98.73543085404207
 20
-152.5498955430433
 30
0.0
 10
98.73543085404207
 20
-152.5498955430433
 30
0.0
 10
99.0176541527861
 20
-152.0560034245009
 30
0.0
 10
99.0176541527861
 20
-152.0560034245009
 30
0.0
 10
99.0176541527861
 20
-152.0560034245009
 30
0.0
 10
99.22932297258451
 20
-151.5621166889201
 30
0.0
 10
99.22932297258451
 20
-151.5621166889201
 30
0.0
  0
SPLINE
  5
155
330
70
100
AcDbEntity
  8
Capa 1
 62
     9
420
 12830930
370
     9
100
AcDbSpline
210
0.0
220
0.0
230
1.0
 70
     8
 71
     3
 72
    26
 73
    22
 74
     0
 42
0.0000000001
 43
0.0000000001
 40
0.0
 40
0.0
 40
0.0
 40
0.0
 40
1.0
 40
1.0
 40
1.0
 40
2.0
 40
2.0
 40
2.0
 40
3.0
 40
3.0
 40
3.0
 40
4.0
 40
4.0
 40
4.0
 40
5.0
 40
5.0
 40
5.0
 40
6.0
 40
6.0
 40
6.0
 40
7.0
 40
7.0
 40
7.0
 40
7.0
 10
99.40571186142932
 20
-143.4835023500516
 30
0.0
 10
99.40571186142932
 20
-143.4835023500516
 30
0.0
 10
99.37043193047568
 20
-144.5418356831204
 30
0.0
 10
99.37043193047568
 20
-144.5418356831204
 30
0.0
 10
99.37043193047568
 20
-144.5418356831204
 30
0.0
 10
99.37043193047568
 20
-145.5648944681972
 30
0.0
 10
99.37043193047568
 20
-145.5648944681972
 30
0.0
 10
99.37043193047568
 20
-145.5648944681972
 30
0.0
 10
99.37043193047568
 20
-146.5879478703123
 30
0.0
 10
99.37043193047568
 20
-146.5879478703123
 30
0.0
 10
99.37043193047568
 20
-146.5879478703123
 30
0.0
 10
99.37043193047568
 20
-147.6462812033811
 30
0.0
 10
99.37043193047568
 20
-147.6462812033811
 30
0.0
 10
99.37043193047568
 20
-147.6462812033811
 30
0.0
 10
99.37043193047568
 20
-148.6693399884579
 30
0.0
 10
99.37043193047568
 20
-148.6693399884579
 30
0.0
 10
99.37043193047568
 20
-148.6693399884579
 30
0.0
 10
99.37043193047568
 20
-149.692393390573
 30
0.0
 10
99.37043193047568
 20
-149.692393390573
 30
0.0
 10
99.37043193047568
 20
-149.692393390573
 30
0.0
 10
99.40571186142932
 20
-150.7507267236417
 30
0.0
 10
99.40571186142932
 20
-150.7507267236417
 30
0.0
  0
SPLINE
  5
156
330
70
100
AcDbEntity
  8
Capa 1
 62
     9
420
 12830930
370
     9
100
AcDbSpline
210
0.0
220
0.0
230
1.0
 70
    11
 71
     3
 72
   200
 73
   196
 74
     0
 42
0.0000000001
 43
0.0000000001
 40
0.0
 40
0.0
 40
0.0
 40
0.0
 40
1.0
 40
1.0
 40
1.0
 40
2.0
 40
2.0
 40
2.0
 40
3.0
 40
3.0
 40
3.0
 40
4.0
 40
4.0
 40
4.0
 40
5.0
 40
5.0
 40
5.0
 40
6.0
 40
6.0
 40
6.0
 40
7.0
 40
7.0
 40
7.0
 40
8.0
 40
8.0
 40
8.0
 40
9.0
 40
9.0
 40
9.0
 40
10.0
 40
10.0
 40
10.0
 40
11.0
 40
11.0
 40
11.0
 40
12.0
 40
12.0
 40
12.0
 40
13.0
 40
13.0
 40
13.0
 40
14.0
 40
14.0
 40
14.0
 40
15.0
 40
15.0
 40
15.0
 40
16.0
 40
16.0
 40
16.0
 40
17.0
 40
17.0
 40
17.0
 40
18.0
 40
18.0
 40
18.0
 40
19.0
 40
19.0
 40
19.0
 40
20.0
 40
20.0
 40
20.0
 40
21.0
 40
21.0
 40
21.0
 40
22.0
 40
22.0
 40
22.0
 40
23.0
 40
23.0
 40
23.0
 40
24.0
 40
24.0
 40
24.0
 40
25.0
 40
25.0
 40
25.0
 40
26.0
 40
26.0
 40
26.0
 40
27.0
 40
27.0
 40
27.0
 40
28.0
 40
28.0
 40
28.0
 40
29.0
 40
29.0
 40
29.0
 40
30.0
 40
30.0
 40
30.0
 40
31.0
 40
31.0
 40
31.0
 40
32.0
 40
32.0
 40
32.0
 40
33.0
 40
33.0
 40
33.0
 40
34.0
 40
34.0
 40
34.0
 40
35.0
 40
35.0
 40
35.0
 40
36.0
 40
36.0
 40
36.0
 40
37.0
 40
37.0
 40
37.0
 40
38.0
 40
38.0
 40
38.0
 40
39.0
 40
39.0
 40
39.0
 40
40.0
 40
40.0
 40
40.0
 40
41.0
 40
41.0
 40
41.0
 40
42.0
 40
42.0
 40
42.0
 40
43.0
 40
43.0
 40
43.0
 40
44.0
 40
44.0
 40
44.0
 40
45.0
 40
45.0
 40
45.0
 40
46.0
 40
46.0
 40
46.0
 40
47.0
 40
47.0
 40
47.0
 40
48.0
 40
48.0
 40
48.0
 40
49.0
 40
49.0
 40
49.0
 40
50.0
 40
50.0
 40
50.0
 40
51.0
 40
51.0
 40
51.0
 40
52.0
 40
52.0
 40
52.0
 40
53.0
 40
53.0
 40
53.0
 40
54.0
 40
54.0
 40
54.0
 40
55.0
 40
55.0
 40
55.0
 40
56.0
 40
56.0
 40
56.0
 40
57.0
 40
57.0
 40
57.0
 40
58.0
 40
58.0
 40
58.0
 40
59.0
 40
59.0
 40
59.0
 40
60.0
 40
60.0
 40
60.0
 40
61.0
 40
61.0
 40
61.0
 40
62.0
 40
62.0
 40
62.0
 40
63.0
 40
63.0
 40
63.0
 40
64.0
 40
64.0
 40
64.0
 40
65.0
 40
65.0
 40
65.0
 40
65.0
 10
89.91598910328335
 20
-147.1171145368467
 30
0.0
 10
89.91598910328335
 20
-147.1171145368467
 30
0.0
 10
89.95126634275612
 20
-146.7996166901107
 30
0.0
 10
89.95126634275612
 20
-146.7996166901107
 30
0.0
 10
89.95126634275612
 20
-146.7996166901107
 30
0.0
 10
89.98654358222891
 20
-146.5173933913668
 30
0.0
 10
89.98654358222891
 20
-146.5173933913668
 30
0.0
 10
89.98654358222891
 20
-146.5173933913668
 30
0.0
 10
90.05710075265534
 20
-146.1998955446308
 30
0.0
 10
90.05710075265534
 20
-146.1998955446308
 30
0.0
 10
90.05710075265534
 20
-146.1998955446308
 30
0.0
 10
90.16293247107372
 20
-145.9176722458868
 30
0.0
 10
90.16293247107372
 20
-145.9176722458868
 30
0.0
 10
90.16293247107372
 20
-145.9176722458868
 30
0.0
 10
90.30404412044573
 20
-145.6354489471428
 30
0.0
 10
90.30404412044573
 20
-145.6354489471428
 30
0.0
 10
90.30404412044573
 20
-145.6354489471428
 30
0.0
 10
90.44515576981771
 20
-145.3532256483988
 30
0.0
 10
90.44515576981771
 20
-145.3532256483988
 30
0.0
 10
90.44515576981771
 20
-145.3532256483988
 30
0.0
 10
90.62154465866251
 20
-145.1062822806084
 30
0.0
 10
90.62154465866251
 20
-145.1062822806084
 30
0.0
 10
90.62154465866251
 20
-145.1062822806084
 30
0.0
 10
90.83321078698009
 20
-144.89461346081
 30
0.0
 10
90.83321078698009
 20
-144.89461346081
 30
0.0
 10
90.83321078698009
 20
-144.89461346081
 30
0.0
 10
91.08015415477046
 20
-144.6829500239732
 30
0.0
 10
91.08015415477046
 20
-144.6829500239732
 30
0.0
 10
91.08015415477046
 20
-144.6829500239732
 30
0.0
 10
91.32709752256083
 20
-144.4712812041748
 30
0.0
 10
91.32709752256083
 20
-144.4712812041748
 30
0.0
 10
91.32709752256083
 20
-144.4712812041748
 30
0.0
 10
91.5740408903512
 20
-144.3301722462836
 30
0.0
 10
91.5740408903512
 20
-144.3301722462836
 30
0.0
 10
91.5740408903512
 20
-144.3301722462836
 30
0.0
 10
91.85626418909519
 20
-144.1890579054308
 30
0.0
 10
91.85626418909519
 20
-144.1890579054308
 30
0.0
 10
91.85626418909519
 20
-144.1890579054308
 30
0.0
 10
92.13848748783922
 20
-144.0832288784933
 30
0.0
 10
92.13848748783922
 20
-144.0832288784933
 30
0.0
 10
92.13848748783922
 20
-144.0832288784933
 30
0.0
 10
92.45598533457515
 20
-143.9773944685941
 30
0.0
 10
92.45598533457515
 20
-143.9773944685941
 30
0.0
 10
92.45598533457515
 20
-143.9773944685941
 30
0.0
 10
92.73820863331916
 20
-143.9421145376404
 30
0.0
 10
92.73820863331916
 20
-143.9421145376404
 30
0.0
 10
92.73820863331916
 20
-143.9421145376404
 30
0.0
 10
93.05571186301682
 20
-143.9068399896485
 30
0.0
 10
93.05571186301682
 20
-143.9068399896485
 30
0.0
 10
93.05571186301682
 20
-143.9068399896485
 30
0.0
 10
93.37320970975275
 20
-143.9068399896485
 30
0.0
 10
93.37320970975275
 20
-143.9068399896485
 30
0.0
 10
93.37320970975275
 20
-143.9068399896485
 30
0.0
 10
93.6907075564887
 20
-143.9421145376404
 30
0.0
 10
93.6907075564887
 20
-143.9421145376404
 30
0.0
 10
93.6907075564887
 20
-143.9421145376404
 30
0.0
 10
93.97293085523271
 20
-144.012669016586
 30
0.0
 10
93.97293085523271
 20
-144.012669016586
 30
0.0
 10
93.97293085523271
 20
-144.012669016586
 30
0.0
 10
94.29043408493035
 20
-144.1185034264852
 30
0.0
 10
94.29043408493035
 20
-144.1185034264852
 30
0.0
 10
94.29043408493035
 20
-144.1185034264852
 30
0.0
 10
94.57265200071267
 20
-144.2243378363845
 30
0.0
 10
94.57265200071267
 20
-144.2243378363845
 30
0.0
 10
94.57265200071267
 20
-144.2243378363845
 30
0.0
 10
94.81960075146472
 20
-144.4007267252292
 30
0.0
 10
94.81960075146472
 20
-144.4007267252292
 30
0.0
 10
94.81960075146472
 20
-144.4007267252292
 30
0.0
 10
95.10181866724703
 20
-144.577115614074
 30
0.0
 10
95.10181866724703
 20
-144.577115614074
 30
0.0
 10
95.10181866724703
 20
-144.577115614074
 30
0.0
 10
95.31348748704546
 20
-144.7535045029188
 30
0.0
 10
95.31348748704546
 20
-144.7535045029188
 30
0.0
 10
95.31348748704546
 20
-144.7535045029188
 30
0.0
 10
95.56043085483583
 20
-145.0004478707092
 30
0.0
 10
95.56043085483583
 20
-145.0004478707092
 30
0.0
 10
95.56043085483583
 20
-145.0004478707092
 30
0.0
 10
95.73681974368062
 20
-145.2473912384995
 30
0.0
 10
95.73681974368062
 20
-145.2473912384995
 30
0.0
 10
95.73681974368062
 20
-145.2473912384995
 30
0.0
 10
95.91320863252541
 20
-145.4943399892516
 30
0.0
 10
95.91320863252541
 20
-145.4943399892516
 30
0.0
 10
95.91320863252541
 20
-145.4943399892516
 30
0.0
 10
96.05432297337827
 20
-145.7765579050339
 30
0.0
 10
96.05432297337827
 20
-145.7765579050339
 30
0.0
 10
96.05432297337827
 20
-145.7765579050339
 30
0.0
 10
96.16015200031579
 20
-146.0587812037779
 30
0.0
 10
96.16015200031579
 20
-146.0587812037779
 30
0.0
 10
96.16015200031579
 20
-146.0587812037779
 30
0.0
 10
96.265986410215
 20
-146.3410045025219
 30
0.0
 10
96.265986410215
 20
-146.3410045025219
 30
0.0
 10
96.265986410215
 20
-146.3410045025219
 30
0.0
 10
96.33654088916058
 20
-146.6585023492579
 30
0.0
 10
96.33654088916058
 20
-146.6585023492579
 30
0.0
 10
96.33654088916058
 20
-146.6585023492579
 30
0.0
 10
96.33654088916058
 20
-146.9760055789555
 30
0.0
 10
96.33654088916058
 20
-146.9760055789555
 30
0.0
 10
96.33654088916058
 20
-146.9760055789555
 30
0.0
 10
96.33654088916058
 20
-147.2935034256915
 30
0.0
 10
96.33654088916058
 20
-147.2935034256915
 30
0.0
 10
96.33654088916058
 20
-147.2935034256915
 30
0.0
 10
96.33654088916058
 20
-147.5757267244355
 30
0.0
 10
96.33654088916058
 20
-147.5757267244355
 30
0.0
 10
96.33654088916058
 20
-147.5757267244355
 30
0.0
 10
96.265986410215
 20
-147.8932245711714
 30
0.0
 10
96.265986410215
 20
-147.8932245711714
 30
0.0
 10
96.265986410215
 20
-147.8932245711714
 30
0.0
 10
96.16015200031579
 20
-148.1754478699154
 30
0.0
 10
96.16015200031579
 20
-148.1754478699154
 30
0.0
 10
96.16015200031579
 20
-148.1754478699154
 30
0.0
 10
96.05432297337827
 20
-148.4929510996131
 30
0.0
 10
96.05432297337827
 20
-148.4929510996131
 30
0.0
 10
96.05432297337827
 20
-148.4929510996131
 30
0.0
 10
95.91320863252541
 20
-148.7398944674034
 30
0.0
 10
95.91320863252541
 20
-148.7398944674034
 30
0.0
 10
95.91320863252541
 20
-148.7398944674034
 30
0.0
 10
95.73681974368062
 20
-149.0221177661475
 30
0.0
 10
95.73681974368062
 20
-149.0221177661475
 30
0.0
 10
95.73681974368062
 20
-149.0221177661475
 30
0.0
 10
95.56043085483583
 20
-149.2690611339378
 30
0.0
 10
95.56043085483583
 20
-149.2690611339378
 30
0.0
 10
95.56043085483583
 20
-149.2690611339378
 30
0.0
 10
95.31348748704546
 20
-149.4807245707746
 30
0.0
 10
95.31348748704546
 20
-149.4807245707746
 30
0.0
 10
95.31348748704546
 20
-149.4807245707746
 30
0.0
 10
95.10181866724703
 20
-149.692393390573
 30
0.0
 10
95.10181866724703
 20
-149.692393390573
 30
0.0
 10
95.10181866724703
 20
-149.692393390573
 30
0.0
 10
94.81960075146472
 20
-149.8687822794178
 30
0.0
 10
94.81960075146472
 20
-149.8687822794178
 30
0.0
 10
94.81960075146472
 20
-149.8687822794178
 30
0.0
 10
94.57265200071267
 20
-150.0098912373089
 30
0.0
 10
94.57265200071267
 20
-150.0098912373089
 30
0.0
 10
94.57265200071267
 20
-150.0098912373089
 30
0.0
 10
94.29043408493035
 20
-150.1157256472081
 30
0.0
 10
94.29043408493035
 20
-150.1157256472081
 30
0.0
 10
94.29043408493035
 20
-150.1157256472081
 30
0.0
 10
93.97293085523271
 20
-150.2215600571074
 30
0.0
 10
93.97293085523271
 20
-150.2215600571074
 30
0.0
 10
93.97293085523271
 20
-150.2215600571074
 30
0.0
 10
93.6907075564887
 20
-150.2921145360529
 30
0.0
 10
93.6907075564887
 20
-150.2921145360529
 30
0.0
 10
93.6907075564887
 20
-150.2921145360529
 30
0.0
 10
93.37320970975275
 20
-150.3273944670066
 30
0.0
 10
93.37320970975275
 20
-150.3273944670066
 30
0.0
 10
93.37320970975275
 20
-150.3273944670066
 30
0.0
 10
93.05571186301682
 20
-150.3273944670066
 30
0.0
 10
93.05571186301682
 20
-150.3273944670066
 30
0.0
 10
93.05571186301682
 20
-150.3273944670066
 30
0.0
 10
92.73820863331916
 20
-150.3273944670066
 30
0.0
 10
92.73820863331916
 20
-150.3273944670066
 30
0.0
 10
92.73820863331916
 20
-150.3273944670066
 30
0.0
 10
92.45598533457515
 20
-150.256839988061
 30
0.0
 10
92.45598533457515
 20
-150.256839988061
 30
0.0
 10
92.45598533457515
 20
-150.256839988061
 30
0.0
 10
92.13848748783922
 20
-150.1862801261537
 30
0.0
 10
92.13848748783922
 20
-150.1862801261537
 30
0.0
 10
92.13848748783922
 20
-150.1862801261537
 30
0.0
 10
91.85626418909519
 20
-150.0804510992162
 30
0.0
 10
91.85626418909519
 20
-150.0804510992162
 30
0.0
 10
91.85626418909519
 20
-150.0804510992162
 30
0.0
 10
91.5740408903512
 20
-149.9393367583633
 30
0.0
 10
91.5740408903512
 20
-149.9393367583633
 30
0.0
 10
91.5740408903512
 20
-149.9393367583633
 30
0.0
 10
91.32709752256083
 20
-149.7629478695186
 30
0.0
 10
91.32709752256083
 20
-149.7629478695186
 30
0.0
 10
91.32709752256083
 20
-149.7629478695186
 30
0.0
 10
91.08015415477046
 20
-149.5865589806738
 30
0.0
 10
91.08015415477046
 20
-149.5865589806738
 30
0.0
 10
91.08015415477046
 20
-149.5865589806738
 30
0.0
 10
90.83321078698009
 20
-149.374895543837
 30
0.0
 10
90.83321078698009
 20
-149.374895543837
 30
0.0
 10
90.83321078698009
 20
-149.374895543837
 30
0.0
 10
90.62154465866251
 20
-149.127946793085
 30
0.0
 10
90.62154465866251
 20
-149.127946793085
 30
0.0
 10
90.62154465866251
 20
-149.127946793085
 30
0.0
 10
90.44515576981771
 20
-148.8810034252946
 30
0.0
 10
90.44515576981771
 20
-148.8810034252946
 30
0.0
 10
90.44515576981771
 20
-148.8810034252946
 30
0.0
 10
90.30404412044573
 20
-148.6340600575042
 30
0.0
 10
90.30404412044573
 20
-148.6340600575042
 30
0.0
 10
90.30404412044573
 20
-148.6340600575042
 30
0.0
 10
90.16293247107372
 20
-148.3518367587602
 30
0.0
 10
90.16293247107372
 20
-148.3518367587602
 30
0.0
 10
90.16293247107372
 20
-148.3518367587602
 30
0.0
 10
90.05710075265534
 20
-148.0343389120243
 30
0.0
 10
90.05710075265534
 20
-148.0343389120243
 30
0.0
 10
90.05710075265534
 20
-148.0343389120243
 30
0.0
 10
89.98654358222891
 20
-147.7521156132803
 30
0.0
 10
89.98654358222891
 20
-147.7521156132803
 30
0.0
 10
89.98654358222891
 20
-147.7521156132803
 30
0.0
 10
89.95126634275612
 20
-147.4346177665443
 30
0.0
 10
89.95126634275612
 20
-147.4346177665443
 30
0.0
 10
89.95126634275612
 20
-147.4346177665443
 30
0.0
 10
89.91598910328335
 20
-147.1171145368467
 30
0.0
 10
89.91598910328335
 20
-147.1171145368467
 30
0.0
  0
MTEXT
  5
157
330
70
100
AcDbEntity
  8
Capa 1
100
AcDbMText
 10
119.4004635787179
 20
-190.2617713381347
 30
0.0
 40
0.2
 41
0.0
 46
0.0
 71
     7
 72
     1
  1
\C18;\c0;\FArial Bold|b1|i0|c1;\H2.499665;\W0.999201;  585  
 11
-0.0000000000897932
 21
-1.0
 31
0.0
 73
     1
 44
1.0
  0
LWPOLYLINE
  5
158
330
70
100
AcDbEntity
  8
Capa 1
 62
    18
420
        0
370
     9
100
AcDbPolyline
 90
        4
 70
     0
 43
0.0
 10
118.1807270879922
 20
-166.5243070113262
 10
118.4982357005605
 20
-168.5704138155712
 10
117.8632292411652
 20
-168.5704138155423
 10
118.1807270879922
 20
-166.5243070113262
  0
LWPOLYLINE
  5
159
330
70
100
AcDbEntity
  8
Capa 1
 62
    18
420
        0
370
     9
100
AcDbPolyline
 90
        4
 70
     0
 43
0.0
 10
118.1807270858041
 20
-215.2781894284726
 10
117.8632292391592
 20
-213.2320826242283
 10
118.4982356985545
 20
-213.2320826242572
 10
118.1807270858041
 20
-215.2781894284726
  0
LWPOLYLINE
  5
15A
330
70
100
AcDbEntity
  8
Capa 1
 62
    18
420
        0
370
     9
100
AcDbPolyline
 90
        4
 70
     0
 43
0.0
 10
118.1807270879922
 20
-166.5242962454028
 10
118.4982357005605
 20
-168.5704138155712
 10
117.8632292411652
 20
-168.5704138155423
 10
118.1807270879922
 20
-166.5242962454028
  0
LINE
  5
15B
330
70
100
AcDbEntity
  8
Capa 1
 62
    18
420
        0
370
     9
100
AcDbLine
 10
118.1807270879922
 20
-166.5243070113262
 30
0.0
 11
118.1807270858041
 21
-215.2781894284726
 31
0.0
  0
LINE
  5
15C
330
70
100
AcDbEntity
  8
Capa 1
 62
    18
420
        0
370
     9
100
AcDbLine
 10
119.1685005591537
 20
-166.5243070113711
 30
0.0
 11
111.4073894499829
 21
-166.5243070110227
 31
0.0
  0
LINE
  5
15D
330
70
100
AcDbEntity
  8
Capa 1
 62
    18
420
        0
370
     9
100
AcDbLine
 10
119.1685005569655
 20
-215.2781894285176
 30
0.0
 11
111.4073894477947
 21
-215.2781894281691
 31
0.0
  0
LINE
  5
15E
330
70
100
AcDbEntity
  8
Capa 1
 62
    18
420
        0
370
     9
100
AcDbLine
 10
118.1807270878151
 20
-170.4754116618955
 30
0.0
 11
118.1807270879922
 21
-166.5242962454028
 31
0.0
  0
LINE
  5
15F
330
70
100
AcDbEntity
  8
Capa 1
 62
    18
420
        0
370
     9
100
AcDbLine
 10
119.1685113250771
 20
-166.5242962454478
 30
0.0
 11
111.089891603247
 21
-166.5242962450846
 31
0.0
  0
LWPOLYLINE
  5
160
330
70
100
AcDbEntity
  8
Capa 1
100
AcDbPolyline
 90
        3
 70
     0
 43
0.0
 10
118.4982357005605
 20
-168.5704138155712
 10
117.8632292411652
 20
-168.5704138155423
 10
118.1807270879922
 20
-166.5243070113262
  0
HATCH
  5
161
330
70
100
AcDbEntity
  8
Capa 1
 62
    18
420
        0
440
 33554687
100
AcDbHatch
 10
0.0
 20
0.0
 30
0.0
210
0.0
220
0.0
230
1.0
  2
SOLID
 70
     1
 71
     1
 91
        1
 92
        3
 72
     0
 73
     1
 93
        3
 10
118.4982357005605
 20
-168.5704138155712
 10
117.8632292411652
 20
-168.5704138155423
 10
118.1807270879922
 20
-166.5243070113262
 97
        0
 75
     2
 76
     1
 98
        1
 10
0.0
 20
0.0
450
        0
451
        0
460
0.0
461
0.0
452
        0
462
0.0
453
        0
470

  0
LWPOLYLINE
  5
162
330
70
100
AcDbEntity
  8
Capa 1
100
AcDbPolyline
 90
        3
 70
     0
 43
0.0
 10
117.8632292391592
 20
-213.2320826242283
 10
118.4982356985545
 20
-213.2320826242572
 10
118.1807270858041
 20
-215.2781894284726
  0
HATCH
  5
163
330
70
100
AcDbEntity
  8
Capa 1
 62
    18
420
        0
440
 33554687
100
AcDbHatch
 10
0.0
 20
0.0
 30
0.0
210
0.0
220
0.0
230
1.0
  2
SOLID
 70
     1
 71
     1
 91
        1
 92
        3
 72
     0
 73
     1
 93
        3
 10
117.8632292391592
 20
-213.2320826242283
 10
118.4982356985545
 20
-213.2320826242572
 10
118.1807270858041
 20
-215.2781894284726
 97
        0
 75
     2
 76
     1
 98
        1
 10
0.0
 20
0.0
450
        0
451
        0
460
0.0
461
0.0
452
        0
462
0.0
453
        0
470

  0
LWPOLYLINE
  5
164
330
70
100
AcDbEntity
  8
Capa 1
100
AcDbPolyline
 90
        3
 70
     0
 43
0.0
 10
118.4982357005605
 20
-168.5704138155712
 10
117.8632292411652
 20
-168.5704138155423
 10
118.1807270879922
 20
-166.5242962454028
  0
HATCH
  5
165
330
70
100
AcDbEntity
  8
Capa 1
 62
    18
420
        0
440
 33554687
100
AcDbHatch
 10
0.0
 20
0.0
 30
0.0
210
0.0
220
0.0
230
1.0
  2
SOLID
 70
     1
 71
     1
 91
        1
 92
        3
 72
     0
 73
     1
 93
        3
 10
118.4982357005605
 20
-168.5704138155712
 10
117.8632292411652
 20
-168.5704138155423
 10
118.1807270879922
 20
-166.5242962454028
 97
        0
 75
     2
 76
     1
 98
        1
 10
0.0
 20
0.0
450
        0
451
        0
460
0.0
461
0.0
452
        0
462
0.0
453
        0
470

  0
ENDSEC
  0
SECTION
  2
OBJECTS
  0
DICTIONARY
  5
C
330
0
100
AcDbDictionary
281
     1
  3
ACAD_COLOR
350
63
  3
ACAD_DETAILVIEWSTYLE
350
6A
  3
ACAD_GROUP
350
D
  3
ACAD_LAYOUT
350
62
  3
ACAD_MATERIAL
350
10
  3
ACAD_MLEADERSTYLE
350
66
  3
ACAD_MLINESTYLE
350
5F
  3
ACAD_PLOTSETTINGS
350
61
  3
ACAD_PLOTSTYLENAME
350
E
  3
ACAD_SCALELIST
350
42
  3
ACAD_SECTIONVIEWSTYLE
350
68
  3
ACAD_TABLESTYLE
350
64
  3
ACAD_VISUALSTYLE
350
29
  3
ACDB_RECOMPOSE_DATA
350
16F
  3
AcDbVariableDictionary
350
166
  0
DICTIONARY
  5
63
102
{ACAD_REACTORS
330
C
102
}
330
C
100
AcDbDictionary
281
     1
  0
DICTIONARY
  5
6A
102
{ACAD_REACTORS
330
C
102
}
330
C
100
AcDbDictionary
281
     1
  3
Imperial24
350
6B
  0
DICTIONARY
  5
D
102
{ACAD_REACTORS
330
C
102
}
330
C
100
AcDbDictionary
281
     1
  0
DICTIONARY
  5
62
102
{ACAD_REACTORS
330
C
102
}
330
C
100
AcDbDictionary
281
     1
  3
Layout1
350
6F
  3
Layout2
350
77
  3
Model
350
73
  0
DICTIONARY
  5
10
102
{ACAD_REACTORS
330
C
102
}
330
C
100
AcDbDictionary
281
     1
  3
ByBlock
350
19
  3
ByLayer
350
11
  3
Global
350
21
  0
DICTIONARY
  5
66
102
{ACAD_REACTORS
330
C
102
}
330
C
100
AcDbDictionary
281
     1
  3
Standard
350
67
  0
DICTIONARY
  5
5F
102
{ACAD_REACTORS
330
C
102
}
330
C
100
AcDbDictionary
281
     1
  3
Standard
350
60
  0
DICTIONARY
  5
61
102
{ACAD_REACTORS
330
C
102
}
330
C
100
AcDbDictionary
281
     1
  0
ACDBDICTIONARYWDFLT
  5
E
102
{ACAD_REACTORS
330
C
102
}
330
C
100
AcDbDictionary
281
     1
  3
Normal
350
F
100
AcDbDictionaryWithDefault
340
F
  0
DICTIONARY
  5
42
102
{ACAD_REACTORS
330
C
102
}
330
C
100
AcDbDictionary
281
     1
  3
A0
350
43
  3
A1
350
44
  3
A2
350
45
  3
A3
350
46
  3
A4
350
47
  3
A5
350
48
  3
A6
350
49
  3
A7
350
4A
  3
A8
350
4B
  3
A9
350
4C
  3
B0
350
4D
  3
B1
350
4E
  3
B2
350
4F
  3
B3
350
50
  3
B4
350
51
  3
B5
350
52
  3
B6
350
53
  0
DICTIONARY
  5
68
102
{ACAD_REACTORS
330
C
102
}
330
C
100
AcDbDictionary
281
     1
  3
Imperial24
350
69
  0
DICTIONARY
  5
64
102
{ACAD_REACTORS
330
C
102
}
330
C
100
AcDbDictionary
281
     1
  3
Standard
350
65
  0
DICTIONARY
  5
29
102
{ACAD_REACTORS
330
C
102
}
330
C
100
AcDbDictionary
281
     1
  3
2dWireframe
350
2F
  3
Basic
350
2E
  3
Brighten
350
35
  3
ColorChange
350
39
  3
Conceptual
350
32
  3
Dim
350
34
  3
EdgeColorOff
350
41
  3
Facepattern
350
38
  3
Flat
350
2A
  3
FlatWithEdges
350
2B
  3
Gouraud
350
2C
  3
GouraudWithEdges
350
2D
  3
Hidden
350
31
  3
JitterOff
350
3F
  3
Linepattern
350
37
  3
OverhangOff
350
40
  3
Realistic
350
33
  3
Shaded
350
3E
  3
Shaded with edges
350
3D
  3
Shades of Gray
350
3A
  3
Sketchy
350
3B
  3
Thicken
350
36
  3
Wireframe
350
30
  3
X-Ray
350
3C
  0
XRECORD
  5
16F
102
{ACAD_REACTORS
330
C
102
}
330
C
100
AcDbXrecord
280
     1
 90
        1
330
65
  0
DICTIONARY
  5
166
102
{ACAD_REACTORS
330
C
102
}
330
C
100
AcDbDictionary
281
     1
  3
CANNOSCALE
350
16B
  3
CMLEADERSTYLE
350
168
  3
CTABLESTYLE
350
167
  3
CVIEWDETAILSTYLE
350
169
  3
CVIEWSECTIONSTYLE
350
16A
  0
ACDBDETAILVIEWSTYLE
  5
6B
102
{ACAD_XDICTIONARY
360
1A4
102
}
102
{ACAD_REACTORS
330
6A
102
}
330
6A
100
AcDbModelDocViewStyle
 70
     0
  3
Imperial24
290
     0
100
AcDbDetailViewStyle
 70
     0
 71
     0
 90
        3
 71
     1
340
55
 62
   256
 40
0.24
340
0
 62
   256
 40
0.24
300

 40
0.36
280
     3
 71
     2
340
5D
 90
       25
 62
   256
 71
     3
340
55
 62
   256
 40
0.24
 90
        1
 40
0.75
 90
        1
300
%<\AcVar ViewType \f "%tc1">% %<\AcVar ViewDetailId>%\PSCALE %<\AcVar ViewScale \f "%sn">%
 71
     4
340
5D
 90
       25
 62
   256
340
5D
 90
       25
 62
   256
280
     0
  0
LAYOUT
  5
6F
102
{ACAD_REACTORS
330
62
102
}
330
62
100
AcDbPlotSettings
  1

  2

  4

  6

 40
0.0
 41
0.0
 42
0.0
 43
0.0
 44
0.0
 45
0.0
 46
0.0
 47
0.0
 48
0.0
 49
0.0
140
0.0
141
0.0
142
1.0
143
1.0
 70
   688
 72
     0
 73
     0
 74
     5
  7

 75
    16
147
1.0
 76
     0
 77
     2
 78
   300
148
0.0
149
0.0
100
AcDbLayout
  1
Layout1
 70
     1
 71
     1
 10
0.0
 20
0.0
 11
12.0
 21
9.0
 12
0.0
 22
0.0
 32
0.0
 14
0.0
 24
0.0
 34
0.0
 15
0.0
 25
0.0
 35
0.0
146
0.0
 13
0.0
 23
0.0
 33
0.0
 16
1.0
 26
0.0
 36
0.0
 17
0.0
 27
1.0
 37
0.0
 76
     0
330
6C
  0
LAYOUT
  5
77
102
{ACAD_REACTORS
330
62
102
}
330
62
100
AcDbPlotSettings
  1

  2

  4

  6

 40
0.0
 41
0.0
 42
0.0
 43
0.0
 44
0.0
 45
0.0
 46
0.0
 47
0.0
 48
0.0
 49
0.0
140
0.0
141
0.0
142
1.0
143
1.0
 70
   688
 72
     0
 73
     0
 74
     5
  7

 75
    16
147
1.0
 76
     0
 77
     2
 78
   300
148
0.0
149
0.0
100
AcDbLayout
  1
Layout2
 70
     1
 71
     2
 10
0.0
 20
0.0
 11
12.0
 21
9.0
 12
0.0
 22
0.0
 32
0.0
 14
0.0
 24
0.0
 34
0.0
 15
0.0
 25
0.0
 35
0.0
146
0.0
 13
0.0
 23
0.0
 33
0.0
 16
1.0
 26
0.0
 36
0.0
 17
0.0
 27
1.0
 37
0.0
 76
     0
330
74
  0
LAYOUT
  5
73
102
{ACAD_REACTORS
330
62
102
}
330
62
100
AcDbPlotSettings
  1

  2

  4

  6

 40
0.0
 41
0.0
 42
0.0
 43
0.0
 44
0.0
 45
0.0
 46
0.0
 47
0.0
 48
0.0
 49
0.0
140
0.0
141
0.0
142
1.0
143
1.0
 70
  1712
 72
     0
 73
     0
 74
     0
  7

 75
     0
147
1.0
 76
     0
 77
     2
 78
   300
148
0.0
149
0.0
100
AcDbLayout
  1
Model
 70
     1
 71
     0
 10
0.0
 20
0.0
 11
12.0
 21
9.0
 12
0.0
 22
0.0
 32
0.0
 14
0.0
 24
0.0
 34
0.0
 15
0.0
 25
0.0
 35
0.0
146
0.0
 13
0.0
 23
0.0
 33
0.0
 16
1.0
 26
0.0
 36
0.0
 17
0.0
 27
1.0
 37
0.0
 76
     0
330
70
  0
MATERIAL
  5
19
102
{ACAD_XDICTIONARY
360
1A
102
}
102
{ACAD_REACTORS
330
10
102
}
330
10
100
AcDbMaterial
  1
ByBlock
 72
     0
 43
0.0208333333333333
 43
0.0
 43
0.0
 43
0.0
 43
0.0
 43
0.0208333333333333
 43
0.0
 43
0.0
 43
0.0
 43
0.0
 43
1.0
 43
0.0
 43
0.0
 43
0.0
 43
0.0
 43
1.0
 77
     0
 47
0.0208333333333333
 47
0.0
 47
0.0
 47
0.0
 47
0.0
 47
0.0208333333333333
 47
0.0
 47
0.0
 47
0.0
 47
0.0
 47
1.0
 47
0.0
 47
0.0
 47
0.0
 47
0.0
 47
1.0
171
     0
 49
0.0208333333333333
 49
0.0
 49
0.0
 49
0.0
 49
0.0
 49
0.0208333333333333
 49
0.0
 49
0.0
 49
0.0
 49
0.0
 49
1.0
 49
0.0
 49
0.0
 49
0.0
 49
0.0
 49
1.0
175
     0
142
0.0208333333333333
142
0.0
142
0.0
142
0.0
142
0.0
142
0.0208333333333333
142
0.0
142
0.0
142
0.0
142
0.0
142
1.0
142
0.0
142
0.0
142
0.0
142
0.0
142
1.0
179
     0
144
0.0208333333333333
144
0.0
144
0.0
144
0.0
144
0.0
144
0.0208333333333333
144
0.0
144
0.0
144
0.0
144
0.0
144
1.0
144
0.0
144
0.0
144
0.0
144
0.0
144
1.0
147
0.0208333333333333
147
0.0
147
0.0
147
0.0
147
0.0
147
0.0208333333333333
147
0.0
147
0.0
147
0.0
147
0.0
147
1.0
147
0.0
147
0.0
147
0.0
147
0.0
147
1.0
  0
MATERIAL
  5
11
102
{ACAD_XDICTIONARY
360
12
102
}
102
{ACAD_REACTORS
330
10
102
}
330
10
100
AcDbMaterial
  1
ByLayer
 72
     0
 43
0.0208333333333333
 43
0.0
 43
0.0
 43
0.0
 43
0.0
 43
0.0208333333333333
 43
0.0
 43
0.0
 43
0.0
 43
0.0
 43
1.0
 43
0.0
 43
0.0
 43
0.0
 43
0.0
 43
1.0
 77
     0
 47
0.0208333333333333
 47
0.0
 47
0.0
 47
0.0
 47
0.0
 47
0.0208333333333333
 47
0.0
 47
0.0
 47
0.0
 47
0.0
 47
1.0
 47
0.0
 47
0.0
 47
0.0
 47
0.0
 47
1.0
171
     0
 49
0.0208333333333333
 49
0.0
 49
0.0
 49
0.0
 49
0.0
 49
0.0208333333333333
 49
0.0
 49
0.0
 49
0.0
 49
0.0
 49
1.0
 49
0.0
 49
0.0
 49
0.0
 49
0.0
 49
1.0
175
     0
142
0.0208333333333333
142
0.0
142
0.0
142
0.0
142
0.0
142
0.0208333333333333
142
0.0
142
0.0
142
0.0
142
0.0
142
1.0
142
0.0
142
0.0
142
0.0
142
0.0
142
1.0
179
     0
144
0.0208333333333333
144
0.0
144
0.0
144
0.0
144
0.0
144
0.0208333333333333
144
0.0
144
0.0
144
0.0
144
0.0
144
1.0
144
0.0
144
0.0
144
0.0
144
0.0
144
1.0
147
0.0208333333333333
147
0.0
147
0.0
147
0.0
147
0.0
147
0.0208333333333333
147
0.0
147
0.0
147
0.0
147
0.0
147
1.0
147
0.0
147
0.0
147
0.0
147
0.0
147
1.0
  0
MATERIAL
  5
21
102
{ACAD_XDICTIONARY
360
22
102
}
102
{ACAD_REACTORS
330
10
102
}
330
10
100
AcDbMaterial
  1
Global
 72
     0
 43
0.0208333333333333
 43
0.0
 43
0.0
 43
0.0
 43
0.0
 43
0.0208333333333333
 43
0.0
 43
0.0
 43
0.0
 43
0.0
 43
1.0
 43
0.0
 43
0.0
 43
0.0
 43
0.0
 43
1.0
 77
     0
 47
0.0208333333333333
 47
0.0
 47
0.0
 47
0.0
 47
0.0
 47
0.0208333333333333
 47
0.0
 47
0.0
 47
0.0
 47
0.0
 47
1.0
 47
0.0
 47
0.0
 47
0.0
 47
0.0
 47
1.0
171
     0
 49
0.0208333333333333
 49
0.0
 49
0.0
 49
0.0
 49
0.0
 49
0.0208333333333333
 49
0.0
 49
0.0
 49
0.0
 49
0.0
 49
1.0
 49
0.0
 49
0.0
 49
0.0
 49
0.0
 49
1.0
175
     0
142
0.0208333333333333
142
0.0
142
0.0
142
0.0
142
0.0
142
0.0208333333333333
142
0.0
142
0.0
142
0.0
142
0.0
142
1.0
142
0.0
142
0.0
142
0.0
142
0.0
142
1.0
179
     0
144
0.0208333333333333
144
0.0
144
0.0
144
0.0
144
0.0
144
0.0208333333333333
144
0.0
144
0.0
144
0.0
144
0.0
144
1.0
144
0.0
144
0.0
144
0.0
144
0.0
144
1.0
147
0.0208333333333333
147
0.0
147
0.0
147
0.0
147
0.0
147
0.0208333333333333
147
0.0
147
0.0
147
0.0
147
0.0
147
1.0
147
0.0
147
0.0
147
0.0
147
0.0
147
1.0
  0
MLEADERSTYLE
  5
67
102
{ACAD_XDICTIONARY
360
1A0
102
}
102
{ACAD_REACTORS
330
66
102
}
330
66
100
AcDbMLeaderStyle
179
     2
170
     2
171
     1
172
     0
 90
        2
 40
0.0
 41
0.0
173
     1
 91
-1056964608
340
5B
 92
       -2
290
     1
 42
0.09
291
     1
 43
0.36
  3
Standard
 44
0.18
300

342
55
174
     1
178
     6
175
     1
176
     0
 93
-1056964608
 45
0.18
292
     0
297
     0
 46
0.18
 94
-1056964608
 47
1.0
 49
1.0
140
1.0
293
     1
141
0.0
294
     1
177
     0
142
1.0
295
     0
296
     0
143
0.125
271
     0
272
     9
273
     9
  0
MLINESTYLE
  5
60
102
{ACAD_REACTORS
330
5F
102
}
330
5F
100
AcDbMlineStyle
  2
STANDARD
 70
     0
  3

 62
   256
 51
90.0
 52
90.0
 71
     2
 49
0.5
 62
   256
  6
BYLAYER
 49
-0.5
 62
   256
  6
BYLAYER
  0
ACDBPLACEHOLDER
  5
F
102
{ACAD_REACTORS
330
E
102
}
330
E
  0
SCALE
  5
43
102
{ACAD_REACTORS
330
42
102
}
330
42
100
AcDbScale
 70
     0
300
1:1
140
1.0
141
1.0
290
     1
  0
SCALE
  5
44
102
{ACAD_REACTORS
330
42
102
}
330
42
100
AcDbScale
 70
     0
300
1/128" = 1'-0"
140
0.0078125
141
12.0
290
     0
  0
SCALE
  5
45
102
{ACAD_REACTORS
330
42
102
}
330
42
100
AcDbScale
 70
     0
300
1/64" = 1'-0"
140
0.015625
141
12.0
290
     0
  0
SCALE
  5
46
102
{ACAD_REACTORS
330
42
102
}
330
42
100
AcDbScale
 70
     0
300
1/32" = 1'-0"
140
0.03125
141
12.0
290
     0
  0
SCALE
  5
47
102
{ACAD_REACTORS
330
42
102
}
330
42
100
AcDbScale
 70
     0
300
1/16" = 1'-0"
140
0.0625
141
12.0
290
     0
  0
SCALE
  5
48
102
{ACAD_REACTORS
330
42
102
}
330
42
100
AcDbScale
 70
     0
300
3/32" = 1'-0"
140
0.09375
141
12.0
290
     0
  0
SCALE
  5
49
102
{ACAD_REACTORS
330
42
102
}
330
42
100
AcDbScale
 70
     0
300
1/8" = 1'-0"
140
0.125
141
12.0
290
     0
  0
SCALE
  5
4A
102
{ACAD_REACTORS
330
42
102
}
330
42
100
AcDbScale
 70
     0
300
3/16" = 1'-0"
140
0.1875
141
12.0
290
     0
  0
SCALE
  5
4B
102
{ACAD_REACTORS
330
42
102
}
330
42
100
AcDbScale
 70
     0
300
1/4" = 1'-0"
140
0.25
141
12.0
290
     0
  0
SCALE
  5
4C
102
{ACAD_REACTORS
330
42
102
}
330
42
100
AcDbScale
 70
     0
300
3/8" = 1'-0"
140
0.375
141
12.0
290
     0
  0
SCALE
  5
4D
102
{ACAD_REACTORS
330
42
102
}
330
42
100
AcDbScale
 70
     0
300
1/2" = 1'-0"
140
0.5
141
12.0
290
     0
  0
SCALE
  5
4E
102
{ACAD_REACTORS
330
42
102
}
330
42
100
AcDbScale
 70
     0
300
3/4" = 1'-0"
140
0.75
141
12.0
290
     0
  0
SCALE
  5
4F
102
{ACAD_REACTORS
330
42
102
}
330
42
100
AcDbScale
 70
     0
300
1" = 1'-0"
140
1.0
141
12.0
290
     0
  0
SCALE
  5
50
102
{ACAD_REACTORS
330
42
102
}
330
42
100
AcDbScale
 70
     0
300
1-1/2" = 1'-0"
140
1.5
141
12.0
290
     0
  0
SCALE
  5
51
102
{ACAD_REACTORS
330
42
102
}
330
42
100
AcDbScale
 70
     0
300
3" = 1'-0"
140
3.0
141
12.0
290
     0
  0
SCALE
  5
52
102
{ACAD_REACTORS
330
42
102
}
330
42
100
AcDbScale
 70
     0
300
6" = 1'-0"
140
6.0
141
12.0
290
     0
  0
SCALE
  5
53
102
{ACAD_REACTORS
330
42
102
}
330
42
100
AcDbScale
 70
     0
300
1'-0" = 1'-0"
140
12.0
141
12.0
290
     0
  0
ACDBSECTIONVIEWSTYLE
  5
69
102
{ACAD_XDICTIONARY
360
1A2
102
}
102
{ACAD_REACTORS
330
68
102
}
330
68
100
AcDbModelDocViewStyle
 70
     0
  3
Imperial24
290
     0
100
AcDbSectionViewStyle
 70
     0
 71
     0
 90
       78
 71
     1
340
55
 62
   256
 40
0.24
340
0
340
0
 62
   256
 40
0.24
300
I, O, Q, S, X, Z
 40
0.48
 90
        3
 40
0.18
 90
        1
 71
     2
340
5D
 90
       25
 62
   256
340
5D
 90
       50
 62
   256
 40
0.24
 40
0.0
 40
0.24
 71
     3
340
55
 62
   256
 40
0.24
 90
        1
 40
0.75
 90
        1
300
%<\AcVar ViewType \f "%tc1">% %<\AcVar ViewSectionStartId>%-%<\AcVar ViewSectionEndId>%\PSCALE %<\AcVar ViewScale \f "%sn">%
 71
     4
 62
   256
 62
   257
300
ANSI31
 40
1.0
 90
        0
290
     0
290
     0
 90
        6
 40
0.0
 40
1.570796326794896
 40
0.2617993877991494
 40
1.308996938995747
 40
-0.2617993877991494
 40
1.832595714594046
  0
TABLESTYLE
  5
65
102
{ACAD_XDICTIONARY
360
16C
102
}
102
{ACAD_REACTORS
330
64
102
}
330
64
100
AcDbTableStyle
280
     0
  3
Standard
 70
     0
 71
     0
 40
0.06
 41
0.06
280
     0
281
     0
  7
Standard
140
0.18
170
     2
 62
     0
 63
     7
283
     0
 90
      512
 91
        0
  1

274
    -2
284
     1
 64
     0
275
    -2
285
     1
 65
     0
276
    -2
286
     1
 66
     0
277
    -2
287
     1
 67
     0
278
    -2
288
     1
 68
     0
279
    -2
289
     1
 69
     0
  7
Standard
140
0.25
170
     5
 62
     0
 63
     7
283
     0
 90
      512
 91
        0
  1

274
    -2
284
     1
 64
     0
275
    -2
285
     1
 65
     0
276
    -2
286
     1
 66
     0
277
    -2
287
     1
 67
     0
278
    -2
288
     1
 68
     0
279
    -2
289
     1
 69
     0
  7
Standard
140
0.18
170
     5
 62
     0
 63
     7
283
     0
 90
      512
 91
        0
  1

274
    -2
284
     1
 64
     0
275
    -2
285
     1
 65
     0
276
    -2
286
     1
 66
     0
277
    -2
287
     1
 67
     0
278
    -2
288
     1
 68
     0
279
    -2
289
     1
 69
     0
  0
VISUALSTYLE
  5
2F
102
{ACAD_XDICTIONARY
360
17A
102
}
102
{ACAD_REACTORS
330
29
102
}
330
29
100
AcDbVisualStyle
  2
2dWireframe
 70
     4
177
     2
291
     0
 71
     0
176
     1
 72
     2
176
     1
 73
     0
176
     1
 90
        0
176
     1
 40
0.6
176
     1
 41
30.0
176
     1
 63
     7
421
 16777215
176
     1
 74
     1
176
     1
 91
        4
176
     1
 64
     7
176
     1
 65
   257
176
     1
 75
     1
176
     1
175
     1
176
     1
 42
1.0
176
     1
 92
        0
176
     1
 66
   257
176
     1
 43
1.0
176
     1
 76
     1
176
     1
 77
     6
176
     1
 78
     2
176
     1
 67
     7
176
     1
 79
     5
176
     1
170
     0
176
     1
171
     0
176
     1
290
     0
176
     1
 93
        1
176
     1
 44
0.0
176
     1
173
     0
176
     1
1001
ACAD
1000
AcDbSavedByObjectVersion
1070
     0
  0
VISUALSTYLE
  5
2E
102
{ACAD_XDICTIONARY
360
178
102
}
102
{ACAD_REACTORS
330
29
102
}
330
29
100
AcDbVisualStyle
  2
Basic
 70
     7
177
     2
291
     1
 71
     1
176
     1
 72
     0
176
     1
 73
     1
176
     1
 90
        0
176
     1
 40
0.6
176
     1
 41
30.0
176
     1
 63
     7
421
 16777215
176
     1
 74
     0
176
     1
 91
        4
176
     1
 64
     7
176
     1
 65
   257
176
     1
 75
     1
176
     1
175
     1
176
     1
 42
1.0
176
     1
 92
        8
176
     1
 66
     7
176
     1
 43
1.0
176
     1
 76
     1
176
     1
 77
     6
176
     1
 78
     2
176
     1
 67
     7
176
     1
 79
     5
176
     1
170
     0
176
     1
171
     0
176
     1
290
     0
176
     1
 93
        1
176
     1
 44
0.0
176
     1
173
     0
176
     1
1001
ACAD
1000
AcDbSavedByObjectVersion
1070
     0
  0
VISUALSTYLE
  5
35
102
{ACAD_XDICTIONARY
360
186
102
}
102
{ACAD_REACTORS
330
29
102
}
330
29
100
AcDbVisualStyle
  2
Brighten
 70
    12
177
     2
291
     1
 71
     2
176
     1
 72
     2
176
     1
 73
     0
176
     1
 90
        0
176
     1
 40
0.6
176
     1
 41
30.0
176
     1
 63
     7
421
 16777215
176
     1
 74
     1
176
     1
 91
        4
176
     1
 64
     7
176
     1
 65
   257
176
     1
 75
     1
176
     1
175
     1
176
     1
 42
1.0
176
     1
 92
        8
176
     1
 66
     7
176
     1
 43
1.0
176
     1
 76
     1
176
     1
 77
     6
176
     1
 78
     2
176
     1
 67
     7
176
     1
 79
     5
176
     1
170
     0
176
     1
171
     0
176
     1
290
     0
176
     1
 93
        1
176
     1
 44
50.0
176
     1
173
     0
176
     1
1001
ACAD
1000
AcDbSavedByObjectVersion
1070
     0
  0
VISUALSTYLE
  5
39
102
{ACAD_XDICTIONARY
360
18E
102
}
102
{ACAD_REACTORS
330
29
102
}
330
29
100
AcDbVisualStyle
  2
ColorChange
 70
    16
177
     2
291
     1
 71
     2
176
     1
 72
     2
176
     1
 73
     3
176
     1
 90
        0
176
     1
 40
0.6
176
     1
 41
30.0
176
     1
 63
     8
421
  8421504
176
     1
 74
     1
176
     1
 91
        4
176
     1
 64
     7
176
     1
 65
   257
176
     1
 75
     1
176
     1
175
     1
176
     1
 42
1.0
176
     1
 92
        8
176
     1
 66
     8
424
  8421504
176
     1
 43
1.0
176
     1
 76
     1
176
     1
 77
     6
176
     1
 78
     2
176
     1
 67
     7
176
     1
 79
     5
176
     1
170
     0
176
     1
171
     0
176
     1
290
     0
176
     1
 93
        1
176
     1
 44
0.0
176
     1
173
     0
176
     1
1001
ACAD
1000
AcDbSavedByObjectVersion
1070
     0
  0
VISUALSTYLE
  5
32
102
{ACAD_XDICTIONARY
360
180
102
}
102
{ACAD_REACTORS
330
29
102
}
330
29
100
AcDbVisualStyle
  2
Conceptual
 70
     9
177
     2
291
     0
 71
     3
176
     1
 72
     2
176
     1
 73
     0
176
     1
 90
        0
176
     1
 40
0.6
176
     1
 41
30.0
176
     1
 63
     7
421
 16777215
176
     1
 74
     2
176
     1
 91
        2
176
     1
 64
     7
176
     1
 65
   257
176
     1
 75
     1
176
     1
175
     1
176
     1
 42
179.0
176
     1
 92
        8
176
     1
 66
     7
176
     1
 43
1.0
176
     1
 76
     1
176
     1
 77
     6
176
     1
 78
     2
176
     1
 67
     7
176
     1
 79
     3
176
     1
170
     0
176
     1
171
     0
176
     1
290
     0
176
     1
 93
        1
176
     1
 44
0.0
176
     1
173
     0
176
     1
1001
ACAD
1000
AcDbSavedByObjectVersion
1070
     0
  0
VISUALSTYLE
  5
34
102
{ACAD_XDICTIONARY
360
184
102
}
102
{ACAD_REACTORS
330
29
102
}
330
29
100
AcDbVisualStyle
  2
Dim
 70
    11
177
     2
291
     1
 71
     2
176
     1
 72
     2
176
     1
 73
     0
176
     1
 90
        0
176
     1
 40
0.6
176
     1
 41
30.0
176
     1
 63
     7
421
 16777215
176
     1
 74
     1
176
     1
 91
        4
176
     1
 64
     7
176
     1
 65
   257
176
     1
 75
     1
176
     1
175
     1
176
     1
 42
1.0
176
     1
 92
        8
176
     1
 66
     7
176
     1
 43
1.0
176
     1
 76
     1
176
     1
 77
     6
176
     1
 78
     2
176
     1
 67
     7
176
     1
 79
     5
176
     1
170
     0
176
     1
171
     0
176
     1
290
     0
176
     1
 93
        1
176
     1
 44
-50.0
176
     1
173
     0
176
     1
1001
ACAD
1000
AcDbSavedByObjectVersion
1070
     0
  0
VISUALSTYLE
  5
41
102
{ACAD_XDICTIONARY
360
19E
102
}
102
{ACAD_REACTORS
330
29
102
}
330
29
100
AcDbVisualStyle
  2
EdgeColorOff
 70
    22
177
     2
291
     1
 71
     2
176
     0
 72
     2
176
     0
 73
     0
176
     0
 90
        0
176
     0
 40
0.6
176
     0
 41
30.0
176
     0
 63
     7
421
 16777215
176
     0
 74
     1
176
     0
 91
        4
176
     0
 64
     7
176
     0
 65
   257
176
     0
 75
     1
176
     0
175
     1
176
     0
 42
1.0
176
     0
 92
        8
176
     2
 66
     7
176
     0
 43
1.0
176
     0
 76
     1
176
     0
 77
     6
176
     0
 78
     2
176
     0
 67
     7
176
     0
 79
     5
176
     0
170
     0
176
     0
171
     0
176
     0
290
     0
176
     0
 93
        1
176
     0
 44
0.0
176
     0
173
     0
176
     0
1001
ACAD
1000
AcDbSavedByObjectVersion
1070
     0
  0
VISUALSTYLE
  5
38
102
{ACAD_XDICTIONARY
360
18C
102
}
102
{ACAD_REACTORS
330
29
102
}
330
29
100
AcDbVisualStyle
  2
Facepattern
 70
    15
177
     2
291
     1
 71
     2
176
     1
 72
     2
176
     1
 73
     0
176
     1
 90
        0
176
     1
 40
0.6
176
     1
 41
30.0
176
     1
 63
     7
421
 16777215
176
     1
 74
     1
176
     1
 91
        4
176
     1
 64
     7
176
     1
 65
   257
176
     1
 75
     1
176
     1
175
     1
176
     1
 42
1.0
176
     1
 92
        8
176
     1
 66
     7
176
     1
 43
1.0
176
     1
 76
     1
176
     1
 77
     6
176
     1
 78
     2
176
     1
 67
     7
176
     1
 79
     5
176
     1
170
     0
176
     1
171
     0
176
     1
290
     0
176
     1
 93
        1
176
     1
 44
0.0
176
     1
173
     0
176
     1
1001
ACAD
1000
AcDbSavedByObjectVersion
1070
     0
  0
VISUALSTYLE
  5
2A
102
{ACAD_XDICTIONARY
360
170
102
}
102
{ACAD_REACTORS
330
29
102
}
330
29
100
AcDbVisualStyle
  2
Flat
 70
     0
177
     2
291
     1
 71
     2
176
     1
 72
     1
176
     1
 73
     1
176
     1
 90
        2
176
     1
 40
0.6
176
     1
 41
30.0
176
     1
 63
     7
421
 16777215
176
     1
 74
     0
176
     1
 91
        0
176
     1
 64
     7
176
     1
 65
   257
176
     1
 75
     1
176
     1
175
     1
176
     1
 42
1.0
176
     1
 92
        8
176
     1
 66
     7
176
     1
 43
1.0
176
     1
 76
     1
176
     1
 77
     6
176
     1
 78
     2
176
     1
 67
     7
176
     1
 79
     5
176
     1
170
     0
176
     1
171
     0
176
     1
290
     0
176
     1
 93
       13
176
     1
 44
0.0
176
     1
173
     0
176
     1
1001
ACAD
1000
AcDbSavedByObjectVersion
1070
     0
  0
VISUALSTYLE
  5
2B
102
{ACAD_XDICTIONARY
360
172
102
}
102
{ACAD_REACTORS
330
29
102
}
330
29
100
AcDbVisualStyle
  2
FlatWithEdges
 70
     1
177
     2
291
     1
 71
     2
176
     1
 72
     1
176
     1
 73
     1
176
     1
 90
        2
176
     1
 40
0.6
176
     1
 41
30.0
176
     1
 63
     7
421
 16777215
176
     1
 74
     1
176
     1
 91
        0
176
     1
 64
     7
176
     1
 65
   257
176
     1
 75
     1
176
     1
175
     1
176
     1
 42
1.0
176
     1
 92
        0
176
     1
 66
   257
176
     1
 43
1.0
176
     1
 76
     1
176
     1
 77
     6
176
     1
 78
     2
176
     1
 67
     7
176
     1
 79
     5
176
     1
170
     0
176
     1
171
     0
176
     1
290
     0
176
     1
 93
       13
176
     1
 44
0.0
176
     1
173
     0
176
     1
1001
ACAD
1000
AcDbSavedByObjectVersion
1070
     0
  0
VISUALSTYLE
  5
2C
102
{ACAD_XDICTIONARY
360
174
102
}
102
{ACAD_REACTORS
330
29
102
}
330
29
100
AcDbVisualStyle
  2
Gouraud
 70
     2
177
     2
291
     1
 71
     2
176
     1
 72
     2
176
     1
 73
     1
176
     1
 90
        2
176
     1
 40
0.6
176
     1
 41
30.0
176
     1
 63
     7
421
 16777215
176
     1
 74
     0
176
     1
 91
        0
176
     1
 64
     7
176
     1
 65
   257
176
     1
 75
     1
176
     1
175
     1
176
     1
 42
1.0
176
     1
 92
        0
176
     1
 66
     7
176
     1
 43
1.0
176
     1
 76
     1
176
     1
 77
     6
176
     1
 78
     2
176
     1
 67
     7
176
     1
 79
     5
176
     1
170
     0
176
     1
171
     0
176
     1
290
     0
176
     1
 93
       13
176
     1
 44
0.0
176
     1
173
     0
176
     1
1001
ACAD
1000
AcDbSavedByObjectVersion
1070
     0
  0
VISUALSTYLE
  5
2D
102
{ACAD_XDICTIONARY
360
176
102
}
102
{ACAD_REACTORS
330
29
102
}
330
29
100
AcDbVisualStyle
  2
GouraudWithEdges
 70
     3
177
     2
291
     1
 71
     2
176
     1
 72
     2
176
     1
 73
     1
176
     1
 90
        2
176
     1
 40
0.6
176
     1
 41
30.0
176
     1
 63
     7
421
 16777215
176
     1
 74
     1
176
     1
 91
        0
176
     1
 64
     7
176
     1
 65
   257
176
     1
 75
     1
176
     1
175
     1
176
     1
 42
1.0
176
     1
 92
        0
176
     1
 66
   257
176
     1
 43
1.0
176
     1
 76
     1
176
     1
 77
     6
176
     1
 78
     2
176
     1
 67
     7
176
     1
 79
     5
176
     1
170
     0
176
     1
171
     0
176
     1
290
     0
176
     1
 93
       13
176
     1
 44
0.0
176
     1
173
     0
176
     1
1001
ACAD
1000
AcDbSavedByObjectVersion
1070
     0
  0
VISUALSTYLE
  5
31
102
{ACAD_XDICTIONARY
360
17E
102
}
102
{ACAD_REACTORS
330
29
102
}
330
29
100
AcDbVisualStyle
  2
Hidden
 70
     6
177
     2
291
     0
 71
     1
176
     1
 72
     2
176
     1
 73
     2
176
     1
 90
        0
176
     1
 40
0.6
176
     1
 41
30.0
176
     1
 63
     7
421
 16777215
176
     1
 74
     2
176
     1
 91
        2
176
     1
 64
     7
176
     1
 65
   257
176
     1
 75
     2
176
     1
175
     1
176
     1
 42
40.0
176
     1
 92
        0
176
     1
 66
   257
176
     1
 43
1.0
176
     1
 76
     1
176
     1
 77
     6
176
     1
 78
     2
176
     1
 67
     7
176
     1
 79
     3
176
     1
170
     0
176
     1
171
     0
176
     1
290
     0
176
     1
 93
        1
176
     1
 44
0.0
176
     1
173
     0
176
     1
1001
ACAD
1000
AcDbSavedByObjectVersion
1070
     0
  0
VISUALSTYLE
  5
3F
102
{ACAD_XDICTIONARY
360
19A
102
}
102
{ACAD_REACTORS
330
29
102
}
330
29
100
AcDbVisualStyle
  2
JitterOff
 70
    20
177
     2
291
     1
 71
     2
176
     0
 72
     2
176
     0
 73
     0
176
     0
 90
        0
176
     0
 40
0.6
176
     0
 41
30.0
176
     0
 63
     7
421
 16777215
176
     0
 74
     1
176
     0
 91
        4
176
     0
 64
     7
176
     0
 65
   257
176
     0
 75
     1
176
     0
175
     1
176
     0
 42
1.0
176
     0
 92
       10
176
     2
 66
     7
176
     0
 43
1.0
176
     0
 76
     1
176
     0
 77
     6
176
     0
 78
     2
176
     0
 67
     7
176
     0
 79
     5
176
     0
170
     0
176
     0
171
     0
176
     0
290
     0
176
     0
 93
        1
176
     0
 44
0.0
176
     0
173
     0
176
     0
1001
ACAD
1000
AcDbSavedByObjectVersion
1070
     0
  0
VISUALSTYLE
  5
37
102
{ACAD_XDICTIONARY
360
18A
102
}
102
{ACAD_REACTORS
330
29
102
}
330
29
100
AcDbVisualStyle
  2
Linepattern
 70
    14
177
     2
291
     1
 71
     2
176
     1
 72
     2
176
     1
 73
     0
176
     1
 90
        0
176
     1
 40
0.6
176
     1
 41
30.0
176
     1
 63
     7
421
 16777215
176
     1
 74
     1
176
     1
 91
        4
176
     1
 64
     7
176
     1
 65
   257
176
     1
 75
     7
176
     1
175
     7
176
     1
 42
1.0
176
     1
 92
        8
176
     1
 66
     7
176
     1
 43
1.0
176
     1
 76
     1
176
     1
 77
     6
176
     1
 78
     2
176
     1
 67
     7
176
     1
 79
     5
176
     1
170
     0
176
     1
171
     0
176
     1
290
     0
176
     1
 93
        1
176
     1
 44
0.0
176
     1
173
     0
176
     1
1001
ACAD
1000
AcDbSavedByObjectVersion
1070
     0
  0
VISUALSTYLE
  5
40
102
{ACAD_XDICTIONARY
360
19C
102
}
102
{ACAD_REACTORS
330
29
102
}
330
29
100
AcDbVisualStyle
  2
OverhangOff
 70
    21
177
     2
291
     1
 71
     2
176
     0
 72
     2
176
     0
 73
     0
176
     0
 90
        0
176
     0
 40
0.6
176
     0
 41
30.0
176
     0
 63
     7
421
 16777215
176
     0
 74
     1
176
     0
 91
        4
176
     0
 64
     7
176
     0
 65
   257
176
     0
 75
     1
176
     0
175
     1
176
     0
 42
1.0
176
     0
 92
        9
176
     2
 66
     7
176
     0
 43
1.0
176
     0
 76
     1
176
     0
 77
     6
176
     0
 78
     2
176
     0
 67
     7
176
     0
 79
     5
176
     0
170
     0
176
     0
171
     0
176
     0
290
     0
176
     0
 93
        1
176
     0
 44
0.0
176
     0
173
     0
176
     0
1001
ACAD
1000
AcDbSavedByObjectVersion
1070
     0
  0
VISUALSTYLE
  5
33
102
{ACAD_XDICTIONARY
360
182
102
}
102
{ACAD_REACTORS
330
29
102
}
330
29
100
AcDbVisualStyle
  2
Realistic
 70
     8
177
     2
291
     0
 71
     2
176
     1
 72
     3
176
     1
 73
     0
176
     1
 90
        2
176
     1
 40
0.6
176
     1
 41
30.0
176
     1
 63
     7
421
 16777215
176
     1
 74
     0
176
     1
 91
        0
176
     1
 64
     7
176
     1
 65
   257
176
     1
 75
     1
176
     1
175
     1
176
     1
 42
1.0
176
     1
 92
        8
176
     1
 66
   257
176
     1
 43
1.0
176
     1
 76
     1
176
     1
 77
     6
176
     1
 78
     2
176
     1
 67
     7
176
     1
 79
     3
176
     1
170
     0
176
     1
171
     0
176
     1
290
     0
176
     1
 93
       13
176
     1
 44
0.0
176
     1
173
     0
176
     1
1001
ACAD
1000
AcDbSavedByObjectVersion
1070
     0
  0
VISUALSTYLE
  5
3E
102
{ACAD_XDICTIONARY
360
198
102
}
102
{ACAD_REACTORS
330
29
102
}
330
29
100
AcDbVisualStyle
  2
Shaded
 70
    27
177
     2
291
     0
 71
     2
176
     1
 72
     2
176
     1
 73
     1
176
     1
 90
        2
176
     1
 40
0.6
176
     1
 41
30.0
176
     1
 63
     7
421
 16777215
176
     1
 74
     0
176
     1
 91
        4
176
     1
 64
     7
176
     1
 65
   257
176
     1
 75
     1
176
     1
175
     1
176
     1
 42
1.0
176
     1
 92
        8
176
     1
 66
   257
176
     1
 43
1.0
176
     1
 76
     1
176
     1
 77
     6
176
     1
 78
     2
176
     1
 67
     8
425
  7895160
176
     1
 79
     3
176
     1
170
     0
176
     1
171
     0
176
     1
290
     0
176
     1
 93
        5
176
     1
 44
0.0
176
     1
173
     0
176
     1
1001
ACAD
1000
AcDbSavedByObjectVersion
1070
     0
  0
VISUALSTYLE
  5
3D
102
{ACAD_XDICTIONARY
360
196
102
}
102
{ACAD_REACTORS
330
29
102
}
330
29
100
AcDbVisualStyle
  2
Shaded with edges
 70
    26
177
     2
291
     0
 71
     2
176
     1
 72
     2
176
     1
 73
     1
176
     1
 90
        2
176
     1
 40
0.6
176
     1
 41
30.0
176
     1
 63
     7
421
 16777215
176
     1
 74
     1
176
     1
 91
        2
176
     1
 64
     7
176
     1
 65
   257
176
     1
 75
     2
176
     1
175
     1
176
     1
 42
1.0
176
     1
 92
        8
176
     1
 66
   257
176
     1
 43
1.0
176
     1
 76
     1
176
     1
 77
     6
176
     1
 78
     2
176
     1
 67
     7
176
     1
 79
     3
176
     1
170
     0
176
     1
171
     0
176
     1
290
     0
176
     1
 93
        5
176
     1
 44
0.0
176
     1
173
     0
176
     1
1001
ACAD
1000
AcDbSavedByObjectVersion
1070
     0
  0
VISUALSTYLE
  5
3A
102
{ACAD_XDICTIONARY
360
190
102
}
102
{ACAD_REACTORS
330
29
102
}
330
29
100
AcDbVisualStyle
  2
Shades of Gray
 70
    23
177
     2
291
     0
 71
     2
176
     1
 72
     2
176
     1
 73
     3
176
     1
 90
        0
176
     1
 40
0.6
176
     1
 41
30.0
176
     1
 63
     7
421
 16777215
176
     1
 74
     2
176
     1
 91
        2
176
     1
 64
     7
176
     1
 65
     7
176
     1
 75
     1
176
     1
175
     1
176
     1
 42
40.0
176
     1
 92
        8
176
     1
 66
     7
176
     1
 43
1.0
176
     1
 76
     1
176
     1
 77
     6
176
     1
 78
     2
176
     1
 67
     7
176
     1
 79
     3
176
     1
170
     0
176
     1
171
     0
176
     1
290
     0
176
     1
 93
        1
176
     1
 44
0.0
176
     1
173
     0
176
     1
1001
ACAD
1000
AcDbSavedByObjectVersion
1070
     0
  0
VISUALSTYLE
  5
3B
102
{ACAD_XDICTIONARY
360
192
102
}
102
{ACAD_REACTORS
330
29
102
}
330
29
100
AcDbVisualStyle
  2
Sketchy
 70
    24
177
     2
291
     0
 71
     1
176
     1
 72
     2
176
     1
 73
     2
176
     1
 90
        0
176
     1
 40
0.6
176
     1
 41
30.0
176
     1
 63
     7
421
 16777215
176
     1
 74
     2
176
     1
 91
        2
176
     1
 64
     7
176
     1
 65
     7
176
     1
 75
     1
176
     1
175
     1
176
     1
 42
40.0
176
     1
 92
       11
176
     1
 66
     7
176
     1
 43
1.0
176
     1
 76
     1
176
     1
 77
     6
176
     1
 78
     2
176
     1
 67
     7
176
     1
 79
     6
176
     1
170
     0
176
     1
171
     0
176
     1
290
     0
176
     1
 93
        1
176
     1
 44
0.0
176
     1
173
     0
176
     1
1001
ACAD
1000
AcDbSavedByObjectVersion
1070
     0
  0
VISUALSTYLE
  5
36
102
{ACAD_XDICTIONARY
360
188
102
}
102
{ACAD_REACTORS
330
29
102
}
330
29
100
AcDbVisualStyle
  2
Thicken
 70
    13
177
     2
291
     1
 71
     2
176
     1
 72
     2
176
     1
 73
     0
176
     1
 90
        0
176
     1
 40
0.6
176
     1
 41
30.0
176
     1
 63
     7
421
 16777215
176
     1
 74
     1
176
     1
 91
        4
176
     1
 64
     7
176
     1
 65
   257
176
     1
 75
     1
176
     1
175
     1
176
     1
 42
1.0
176
     1
 92
       12
176
     1
 66
     7
176
     1
 43
1.0
176
     1
 76
     1
176
     1
 77
     6
176
     1
 78
     2
176
     1
 67
     7
176
     1
 79
     5
176
     1
170
     0
176
     1
171
     0
176
     1
290
     0
176
     1
 93
        1
176
     1
 44
0.0
176
     1
173
     0
176
     1
1001
ACAD
1000
AcDbSavedByObjectVersion
1070
     0
  0
VISUALSTYLE
  5
30
102
{ACAD_XDICTIONARY
360
17C
102
}
102
{ACAD_REACTORS
330
29
102
}
330
29
100
AcDbVisualStyle
  2
Wireframe
 70
     5
177
     2
291
     0
 71
     0
176
     1
 72
     2
176
     1
 73
     0
176
     1
 90
        0
176
     1
 40
0.6
176
     1
 41
30.0
176
     1
 63
     7
421
 16777215
176
     1
 74
     1
176
     1
 91
        4
176
     1
 64
     7
176
     1
 65
   257
176
     1
 75
     1
176
     1
175
     1
176
     1
 42
1.0
176
     1
 92
        0
176
     1
 66
   257
176
     1
 43
1.0
176
     1
 76
     1
176
     1
 77
     6
176
     1
 78
     2
176
     1
 67
     7
176
     1
 79
     3
176
     1
170
     0
176
     1
171
     0
176
     1
290
     0
176
     1
 93
        1
176
     1
 44
0.0
176
     1
173
     0
176
     1
1001
ACAD
1000
AcDbSavedByObjectVersion
1070
     0
  0
VISUALSTYLE
  5
3C
102
{ACAD_XDICTIONARY
360
194
102
}
102
{ACAD_REACTORS
330
29
102
}
330
29
100
AcDbVisualStyle
  2
X-Ray
 70
    25
177
     2
291
     0
 71
     2
176
     1
 72
     2
176
     1
 73
     1
176
     1
 90
        1
176
     1
 40
0.5
176
     1
 41
30.0
176
     1
 63
     7
421
 16777215
176
     1
 74
     1
176
     1
 91
        0
176
     1
 64
     7
176
     1
 65
   257
176
     1
 75
     1
176
     1
175
     1
176
     1
 42
1.0
176
     1
 92
        8
176
     1
 66
     7
176
     1
 43
1.0
176
     1
 76
     1
176
     1
 77
     6
176
     1
 78
     2
176
     1
 67
     7
176
     1
 79
     3
176
     1
170
     0
176
     1
171
     0
176
     1
290
     0
176
     1
 93
       13
176
     1
 44
0.0
176
     1
173
     0
176
     1
1001
ACAD
1000
AcDbSavedByObjectVersion
1070
     0
  0
DICTIONARYVAR
  5
16B
102
{ACAD_REACTORS
330
166
102
}
330
166
100
DictionaryVariables
280
     0
  1
1:1
  0
DICTIONARYVAR
  5
168
102
{ACAD_REACTORS
330
166
102
}
330
166
100
DictionaryVariables
280
     0
  1
STANDARD
  0
DICTIONARYVAR
  5
167
102
{ACAD_REACTORS
330
166
102
}
330
166
100
DictionaryVariables
280
     0
  1
STANDARD
  0
DICTIONARYVAR
  5
169
102
{ACAD_REACTORS
330
166
102
}
330
166
100
DictionaryVariables
280
     0
  1
Imperial24
  0
DICTIONARYVAR
  5
16A
102
{ACAD_REACTORS
330
166
102
}
330
166
100
DictionaryVariables
280
     0
  1
Imperial24
  0
DICTIONARY
  5
1A4
330
6B
100
AcDbDictionary
280
     1
281
     1
  3
ACAD_XREC_ROUNDTRIP
360
1A5
  0
DICTIONARY
  5
1A
330
19
100
AcDbDictionary
280
     1
281
     1
  3
BUMPTILE
360
1C
  3
DIFFUSETILE
360
1B
  3
OPACITYTILE
360
1F
  3
REFLECTIONTILE
360
1E
  3
REFRACTIONTILE
360
20
  3
SPECULARTILE
360
1D
  0
DICTIONARY
  5
12
330
11
100
AcDbDictionary
280
     1
281
     1
  3
BUMPTILE
360
14
  3
DIFFUSETILE
360
13
  3
OPACITYTILE
360
17
  3
REFLECTIONTILE
360
16
  3
REFRACTIONTILE
360
18
  3
SPECULARTILE
360
15
  0
DICTIONARY
  5
22
330
21
100
AcDbDictionary
280
     1
281
     1
  3
BUMPTILE
360
24
  3
DIFFUSETILE
360
23
  3
OPACITYTILE
360
27
  3
REFLECTIONTILE
360
26
  3
REFRACTIONTILE
360
28
  3
SPECULARTILE
360
25
  0
DICTIONARY
  5
1A0
330
67
100
AcDbDictionary
280
     1
281
     1
  3
ACAD_XREC_ROUNDTRIP
360
1A1
  0
DICTIONARY
  5
1A2
330
69
100
AcDbDictionary
280
     1
281
     1
  3
ACAD_XREC_ROUNDTRIP
360
1A3
  0
DICTIONARY
  5
16C
330
65
100
AcDbDictionary
280
     1
281
     1
  3
ACAD_ROUNDTRIP_2008_TABLESTYLE_CELLSTYLEMAP
360
16D
  0
DICTIONARY
  5
17A
330
2F
100
AcDbDictionary
280
     1
281
     1
  3
ACAD_XREC_ROUNDTRIP
360
17B
  0
DICTIONARY
  5
178
330
2E
100
AcDbDictionary
280
     1
281
     1
  3
ACAD_XREC_ROUNDTRIP
360
179
  0
DICTIONARY
  5
186
330
35
100
AcDbDictionary
280
     1
281
     1
  3
ACAD_XREC_ROUNDTRIP
360
187
  0
DICTIONARY
  5
18E
330
39
100
AcDbDictionary
280
     1
281
     1
  3
ACAD_XREC_ROUNDTRIP
360
18F
  0
DICTIONARY
  5
180
330
32
100
AcDbDictionary
280
     1
281
     1
  3
ACAD_XREC_ROUNDTRIP
360
181
  0
DICTIONARY
  5
184
330
34
100
AcDbDictionary
280
     1
281
     1
  3
ACAD_XREC_ROUNDTRIP
360
185
  0
DICTIONARY
  5
19E
330
41
100
AcDbDictionary
280
     1
281
     1
  3
ACAD_XREC_ROUNDTRIP
360
19F
  0
DICTIONARY
  5
18C
330
38
100
AcDbDictionary
280
     1
281
     1
  3
ACAD_XREC_ROUNDTRIP
360
18D
  0
DICTIONARY
  5
170
330
2A
100
AcDbDictionary
280
     1
281
     1
  3
ACAD_XREC_ROUNDTRIP
360
171
  0
DICTIONARY
  5
172
330
2B
100
AcDbDictionary
280
     1
281
     1
  3
ACAD_XREC_ROUNDTRIP
360
173
  0
DICTIONARY
  5
174
330
2C
100
AcDbDictionary
280
     1
281
     1
  3
ACAD_XREC_ROUNDTRIP
360
175
  0
DICTIONARY
  5
176
330
2D
100
AcDbDictionary
280
     1
281
     1
  3
ACAD_XREC_ROUNDTRIP
360
177
  0
DICTIONARY
  5
17E
330
31
100
AcDbDictionary
280
     1
281
     1
  3
ACAD_XREC_ROUNDTRIP
360
17F
  0
DICTIONARY
  5
19A
330
3F
100
AcDbDictionary
280
     1
281
     1
  3
ACAD_XREC_ROUNDTRIP
360
19B
  0
DICTIONARY
  5
18A
330
37
100
AcDbDictionary
280
     1
281
     1
  3
ACAD_XREC_ROUNDTRIP
360
18B
  0
DICTIONARY
  5
19C
330
40
100
AcDbDictionary
280
     1
281
     1
  3
ACAD_XREC_ROUNDTRIP
360
19D
  0
DICTIONARY
  5
182
330
33
100
AcDbDictionary
280
     1
281
     1
  3
ACAD_XREC_ROUNDTRIP
360
183
  0
DICTIONARY
  5
198
330
3E
100
AcDbDictionary
280
     1
281
     1
  3
ACAD_XREC_ROUNDTRIP
360
199
  0
DICTIONARY
  5
196
330
3D
100
AcDbDictionary
280
     1
281
     1
  3
ACAD_XREC_ROUNDTRIP
360
197
  0
DICTIONARY
  5
190
330
3A
100
AcDbDictionary
280
     1
281
     1
  3
ACAD_XREC_ROUNDTRIP
360
191
  0
DICTIONARY
  5
192
330
3B
100
AcDbDictionary
280
     1
281
     1
  3
ACAD_XREC_ROUNDTRIP
360
193
  0
DICTIONARY
  5
188
330
36
100
AcDbDictionary
280
     1
281
     1
  3
ACAD_XREC_ROUNDTRIP
360
189
  0
DICTIONARY
  5
17C
330
30
100
AcDbDictionary
280
     1
281
     1
  3
ACAD_XREC_ROUNDTRIP
360
17D
  0
DICTIONARY
  5
194
330
3C
100
AcDbDictionary
280
     1
281
     1
  3
ACAD_XREC_ROUNDTRIP
360
195
  0
XRECORD
  5
1A5
102
{ACAD_REACTORS
330
1A4
102
}
330
1A4
100
AcDbXrecord
280
     1
102
DISPLAYNAME
  1
Imperial24
102
FLAGS
 90
        0
  0
XRECORD
  5
1C
102
{ACAD_REACTORS
330
1A
102
}
330
1A
100
AcDbXrecord
280
     1
270
     1
271
     1
  0
XRECORD
  5
1B
102
{ACAD_REACTORS
330
1A
102
}
330
1A
100
AcDbXrecord
280
     1
270
     1
271
     1
  0
XRECORD
  5
1F
102
{ACAD_REACTORS
330
1A
102
}
330
1A
100
AcDbXrecord
280
     1
270
     1
271
     1
  0
XRECORD
  5
1E
102
{ACAD_REACTORS
330
1A
102
}
330
1A
100
AcDbXrecord
280
     1
270
     1
271
     1
  0
XRECORD
  5
20
102
{ACAD_REACTORS
330
1A
102
}
330
1A
100
AcDbXrecord
280
     1
270
     1
271
     1
  0
XRECORD
  5
1D
102
{ACAD_REACTORS
330
1A
102
}
330
1A
100
AcDbXrecord
280
     1
270
     1
271
     1
  0
XRECORD
  5
14
102
{ACAD_REACTORS
330
12
102
}
330
12
100
AcDbXrecord
280
     1
270
     1
271
     1
  0
XRECORD
  5
13
102
{ACAD_REACTORS
330
12
102
}
330
12
100
AcDbXrecord
280
     1
270
     1
271
     1
  0
XRECORD
  5
17
102
{ACAD_REACTORS
330
12
102
}
330
12
100
AcDbXrecord
280
     1
270
     1
271
     1
  0
XRECORD
  5
16
102
{ACAD_REACTORS
330
12
102
}
330
12
100
AcDbXrecord
280
     1
270
     1
271
     1
  0
XRECORD
  5
18
102
{ACAD_REACTORS
330
12
102
}
330
12
100
AcDbXrecord
280
     1
270
     1
271
     1
  0
XRECORD
  5
15
102
{ACAD_REACTORS
330
12
102
}
330
12
100
AcDbXrecord
280
     1
270
     1
271
     1
  0
XRECORD
  5
24
102
{ACAD_REACTORS
330
22
102
}
330
22
100
AcDbXrecord
280
     1
270
     1
271
     1
  0
XRECORD
  5
23
102
{ACAD_REACTORS
330
22
102
}
330
22
100
AcDbXrecord
280
     1
270
     1
271
     1
  0
XRECORD
  5
27
102
{ACAD_REACTORS
330
22
102
}
330
22
100
AcDbXrecord
280
     1
270
     1
271
     1
  0
XRECORD
  5
26
102
{ACAD_REACTORS
330
22
102
}
330
22
100
AcDbXrecord
280
     1
270
     1
271
     1
  0
XRECORD
  5
28
102
{ACAD_REACTORS
330
22
102
}
330
22
100
AcDbXrecord
280
     1
270
     1
271
     1
  0
XRECORD
  5
25
102
{ACAD_REACTORS
330
22
102
}
330
22
100
AcDbXrecord
280
     1
270
     1
271
     1
  0
XRECORD
  5
1A1
102
{ACAD_REACTORS
330
1A0
102
}
330
1A0
100
AcDbXrecord
280
     1
102
ACAD_ROUNDTRIP_2012_MLEADER_STYLE
298
     1
  0
XRECORD
  5
1A3
102
{ACAD_REACTORS
330
1A2
102
}
330
1A2
100
AcDbXrecord
280
     1
102
DISPLAYNAME
  1
Imperial24
102
FLAGS
 90
        0
  0
CELLSTYLEMAP
  5
16D
102
{ACAD_REACTORS
330
16C
102
}
330
16C
100
AcDbCellStyleMap
 90
        3
300
CELLSTYLE
  1
TABLEFORMAT_BEGIN
 90
        5
170
     1
 91
        0
 92
    32768
 62
   257
 93
        1
300
CONTENTFORMAT
  1
CONTENTFORMAT_BEGIN
 90
        0
 91
        0
 92
      512
 93
        0
300

 40
0.0
140
1.0
 94
        5
 62
     0
340
55
144
0.25
309
CONTENTFORMAT_END
171
     0
 94
        0
309
TABLEFORMAT_END
  1
CELLSTYLE_BEGIN
 90
        1
 91
        1
300
_TITLE
309
CELLSTYLE_END
300
CELLSTYLE
  1
TABLEFORMAT_BEGIN
 90
        5
170
     1
 91
        0
 92
        0
 62
   257
 93
        1
300
CONTENTFORMAT
  1
CONTENTFORMAT_BEGIN
 90
        0
 91
        0
 92
      512
 93
        0
300

 40
0.0
140
1.0
 94
        5
 62
     0
340
55
144
0.18
309
CONTENTFORMAT_END
171
     0
 94
        0
309
TABLEFORMAT_END
  1
CELLSTYLE_BEGIN
 90
        2
 91
        1
300
_HEADER
309
CELLSTYLE_END
300
CELLSTYLE
  1
TABLEFORMAT_BEGIN
 90
        5
170
     1
 91
        0
 92
        0
 62
   257
 93
        1
300
CONTENTFORMAT
  1
CONTENTFORMAT_BEGIN
 90
        0
 91
        0
 92
      512
 93
        0
300

 40
0.0
140
1.0
 94
        2
 62
     0
340
55
144
0.18
309
CONTENTFORMAT_END
171
     0
 94
        0
309
TABLEFORMAT_END
  1
CELLSTYLE_BEGIN
 90
        3
 91
        2
300
_DATA
309
CELLSTYLE_END
  0
XRECORD
  5
17B
102
{ACAD_REACTORS
330
17A
102
}
330
17A
100
AcDbXrecord
280
     1
102
RTVSPost2010Prop28
280
     1
102
RTVSPost2010PropOp28
 70
     1
102
RTVSPost2010Prop29
280
     1
102
RTVSPost2010PropOp29
 70
     1
102
RTVSPost2010Prop30
280
     0
102
RTVSPost2010PropOp30
 70
     1
102
RTVSPost2010Prop31
280
     0
102
RTVSPost2010PropOp31
 70
     1
102
RTVSPost2010Prop32
280
     0
102
RTVSPost2010PropOp32
 70
     1
102
RTVSPost2010Prop33
280
     0
102
RTVSPost2010PropOp33
 70
     1
102
RTVSPost2010Prop34
280
     0
102
RTVSPost2010PropOp34
 70
     1
102
RTVSPost2010Prop35
280
     0
102
RTVSPost2010PropOp35
 70
     1
102
RTVSPost2010Prop36
280
     0
102
RTVSPost2010PropOp36
 70
     1
102
RTVSPost2010Prop37
 90
       50
102
RTVSPost2010PropOp37
 70
     1
102
RTVSPost2010Prop38
140
0.0
102
RTVSPost2010PropOp38
 70
     1
102
RTVSPost2010Prop39
140
1.0
102
RTVSPost2010PropOp39
 70
     1
102
RTVSPost2010Prop40
 90
        0
102
RTVSPost2010PropOp40
 70
     1
102
RTVSPost2010Prop41ColorIndex
 90
       18
102
RTVSPost2010Prop41ColorRGB
 90
        0
102
RTVSPost2010PropOp41
 70
     1
102
RTVSPost2010Prop42
 90
       50
102
RTVSPost2010PropOp42
 70
     1
102
RTVSPost2010Prop43
 90
        3
102
RTVSPost2010PropOp43
 70
     1
102
RTVSPost2010Prop44ColorIndex
 90
        5
102
RTVSPost2010Prop44ColorRGB
 90
      255
102
RTVSPost2010PropOp44
 70
     1
102
RTVSPost2010Prop45
280
     0
102
RTVSPost2010PropOp45
 70
     1
102
RTVSPost2010Prop46
 90
       50
102
RTVSPost2010PropOp46
 70
     1
102
RTVSPost2010Prop47
 90
       50
102
RTVSPost2010PropOp47
 70
     1
102
RTVSPost2010Prop48
 90
       50
102
RTVSPost2010PropOp48
 70
     1
102
RTVSPost2010Prop49
280
     0
102
RTVSPost2010PropOp49
 70
     1
102
RTVSPost2010Prop50
 90
       50
102
RTVSPost2010PropOp50
 70
     1
102
RTVSPost2010Prop51ColorIndex
 90
      256
102
RTVSPost2010Prop51ColorRGB
 90
-16777216
102
RTVSPost2010PropOp51
 70
     0
102
RTVSPost2010Prop52
140
1.0
102
RTVSPost2010PropOp52
 70
     0
102
RTVSPost2010Prop53
 90
        2
102
RTVSPost2010PropOp53
 70
     1
102
RTVSPost2010Prop54
  1
strokes_ogs.tif
102
RTVSPost2010PropOp54
 70
     1
102
RTVSPost2010Prop55
280
     0
102
RTVSPost2010PropOp55
 70
     1
102
RTVSPost2010Prop56
140
1.0
102
RTVSPost2010PropOp56
 70
     1
102
RTVSPost2010Prop57
140
1.0
102
RTVSPost2010PropOp57
 70
     1
  0
XRECORD
  5
179
102
{ACAD_REACTORS
330
178
102
}
330
178
100
AcDbXrecord
280
     1
102
RTVSPost2010Prop28
280
     0
102
RTVSPost2010PropOp28
 70
     1
102
RTVSPost2010Prop29
280
     1
102
RTVSPost2010PropOp29
 70
     1
102
RTVSPost2010Prop30
280
     1
102
RTVSPost2010PropOp30
 70
     1
102
RTVSPost2010Prop31
280
     0
102
RTVSPost2010PropOp31
 70
     1
102
RTVSPost2010Prop32
280
     0
102
RTVSPost2010PropOp32
 70
     1
102
RTVSPost2010Prop33
280
     0
102
RTVSPost2010PropOp33
 70
     1
102
RTVSPost2010Prop34
280
     0
102
RTVSPost2010PropOp34
 70
     1
102
RTVSPost2010Prop35
280
     0
102
RTVSPost2010PropOp35
 70
     1
102
RTVSPost2010Prop36
280
     0
102
RTVSPost2010PropOp36
 70
     1
102
RTVSPost2010Prop37
 90
       50
102
RTVSPost2010PropOp37
 70
     1
102
RTVSPost2010Prop38
140
0.0
102
RTVSPost2010PropOp38
 70
     1
102
RTVSPost2010Prop39
140
1.0
102
RTVSPost2010PropOp39
 70
     1
102
RTVSPost2010Prop40
 90
        0
102
RTVSPost2010PropOp40
 70
     1
102
RTVSPost2010Prop41ColorIndex
 90
       18
102
RTVSPost2010Prop41ColorRGB
 90
        0
102
RTVSPost2010PropOp41
 70
     1
102
RTVSPost2010Prop42
 90
       50
102
RTVSPost2010PropOp42
 70
     1
102
RTVSPost2010Prop43
 90
        3
102
RTVSPost2010PropOp43
 70
     1
102
RTVSPost2010Prop44ColorIndex
 90
        5
102
RTVSPost2010Prop44ColorRGB
 90
      255
102
RTVSPost2010PropOp44
 70
     1
102
RTVSPost2010Prop45
280
     0
102
RTVSPost2010PropOp45
 70
     1
102
RTVSPost2010Prop46
 90
       50
102
RTVSPost2010PropOp46
 70
     1
102
RTVSPost2010Prop47
 90
       50
102
RTVSPost2010PropOp47
 70
     1
102
RTVSPost2010Prop48
 90
       50
102
RTVSPost2010PropOp48
 70
     1
102
RTVSPost2010Prop49
280
     0
102
RTVSPost2010PropOp49
 70
     1
102
RTVSPost2010Prop50
 90
       50
102
RTVSPost2010PropOp50
 70
     1
102
RTVSPost2010Prop51ColorIndex
 90
      256
102
RTVSPost2010Prop51ColorRGB
 90
-16777216
102
RTVSPost2010PropOp51
 70
     0
102
RTVSPost2010Prop52
140
1.0
102
RTVSPost2010PropOp52
 70
     0
102
RTVSPost2010Prop53
 90
        2
102
RTVSPost2010PropOp53
 70
     1
102
RTVSPost2010Prop54
  1
strokes_ogs.tif
102
RTVSPost2010PropOp54
 70
     1
102
RTVSPost2010Prop55
280
     0
102
RTVSPost2010PropOp55
 70
     1
102
RTVSPost2010Prop56
140
1.0
102
RTVSPost2010PropOp56
 70
     1
102
RTVSPost2010Prop57
140
1.0
102
RTVSPost2010PropOp57
 70
     1
  0
XRECORD
  5
187
102
{ACAD_REACTORS
330
186
102
}
330
186
100
AcDbXrecord
280
     1
102
RTVSPost2010Prop28
280
     0
102
RTVSPost2010PropOp28
 70
     1
102
RTVSPost2010Prop29
280
     1
102
RTVSPost2010PropOp29
 70
     1
102
RTVSPost2010Prop30
280
     1
102
RTVSPost2010PropOp30
 70
     1
102
RTVSPost2010Prop31
280
     0
102
RTVSPost2010PropOp31
 70
     1
102
RTVSPost2010Prop32
280
     0
102
RTVSPost2010PropOp32
 70
     1
102
RTVSPost2010Prop33
280
     0
102
RTVSPost2010PropOp33
 70
     1
102
RTVSPost2010Prop34
280
     0
102
RTVSPost2010PropOp34
 70
     1
102
RTVSPost2010Prop35
280
     0
102
RTVSPost2010PropOp35
 70
     1
102
RTVSPost2010Prop36
280
     0
102
RTVSPost2010PropOp36
 70
     1
102
RTVSPost2010Prop37
 90
       50
102
RTVSPost2010PropOp37
 70
     1
102
RTVSPost2010Prop38
140
0.0
102
RTVSPost2010PropOp38
 70
     1
102
RTVSPost2010Prop39
140
1.0
102
RTVSPost2010PropOp39
 70
     1
102
RTVSPost2010Prop40
 90
        0
102
RTVSPost2010PropOp40
 70
     1
102
RTVSPost2010Prop41ColorIndex
 90
       18
102
RTVSPost2010Prop41ColorRGB
 90
        0
102
RTVSPost2010PropOp41
 70
     1
102
RTVSPost2010Prop42
 90
       50
102
RTVSPost2010PropOp42
 70
     1
102
RTVSPost2010Prop43
 90
        3
102
RTVSPost2010PropOp43
 70
     1
102
RTVSPost2010Prop44ColorIndex
 90
        5
102
RTVSPost2010Prop44ColorRGB
 90
      255
102
RTVSPost2010PropOp44
 70
     1
102
RTVSPost2010Prop45
280
     0
102
RTVSPost2010PropOp45
 70
     1
102
RTVSPost2010Prop46
 90
       50
102
RTVSPost2010PropOp46
 70
     1
102
RTVSPost2010Prop47
 90
       50
102
RTVSPost2010PropOp47
 70
     1
102
RTVSPost2010Prop48
 90
       50
102
RTVSPost2010PropOp48
 70
     1
102
RTVSPost2010Prop49
280
     0
102
RTVSPost2010PropOp49
 70
     1
102
RTVSPost2010Prop50
 90
       50
102
RTVSPost2010PropOp50
 70
     1
102
RTVSPost2010Prop51ColorIndex
 90
      256
102
RTVSPost2010Prop51ColorRGB
 90
-16777216
102
RTVSPost2010PropOp51
 70
     0
102
RTVSPost2010Prop52
140
1.0
102
RTVSPost2010PropOp52
 70
     0
102
RTVSPost2010Prop53
 90
        2
102
RTVSPost2010PropOp53
 70
     1
102
RTVSPost2010Prop54
  1
strokes_ogs.tif
102
RTVSPost2010PropOp54
 70
     1
102
RTVSPost2010Prop55
280
     0
102
RTVSPost2010PropOp55
 70
     1
102
RTVSPost2010Prop56
140
1.0
102
RTVSPost2010PropOp56
 70
     1
102
RTVSPost2010Prop57
140
1.0
102
RTVSPost2010PropOp57
 70
     1
  0
XRECORD
  5
18F
102
{ACAD_REACTORS
330
18E
102
}
330
18E
100
AcDbXrecord
280
     1
102
RTVSPost2010Prop28
280
     0
102
RTVSPost2010PropOp28
 70
     1
102
RTVSPost2010Prop29
280
     1
102
RTVSPost2010PropOp29
 70
     1
102
RTVSPost2010Prop30
280
     1
102
RTVSPost2010PropOp30
 70
     1
102
RTVSPost2010Prop31
280
     0
102
RTVSPost2010PropOp31
 70
     1
102
RTVSPost2010Prop32
280
     0
102
RTVSPost2010PropOp32
 70
     1
102
RTVSPost2010Prop33
280
     0
102
RTVSPost2010PropOp33
 70
     1
102
RTVSPost2010Prop34
280
     0
102
RTVSPost2010PropOp34
 70
     1
102
RTVSPost2010Prop35
280
     0
102
RTVSPost2010PropOp35
 70
     1
102
RTVSPost2010Prop36
280
     0
102
RTVSPost2010PropOp36
 70
     1
102
RTVSPost2010Prop37
 90
       50
102
RTVSPost2010PropOp37
 70
     1
102
RTVSPost2010Prop38
140
0.0
102
RTVSPost2010PropOp38
 70
     1
102
RTVSPost2010Prop39
140
1.0
102
RTVSPost2010PropOp39
 70
     1
102
RTVSPost2010Prop40
 90
        0
102
RTVSPost2010PropOp40
 70
     1
102
RTVSPost2010Prop41ColorIndex
 90
       18
102
RTVSPost2010Prop41ColorRGB
 90
        0
102
RTVSPost2010PropOp41
 70
     1
102
RTVSPost2010Prop42
 90
       50
102
RTVSPost2010PropOp42
 70
     1
102
RTVSPost2010Prop43
 90
        3
102
RTVSPost2010PropOp43
 70
     1
102
RTVSPost2010Prop44ColorIndex
 90
        5
102
RTVSPost2010Prop44ColorRGB
 90
      255
102
RTVSPost2010PropOp44
 70
     1
102
RTVSPost2010Prop45
280
     0
102
RTVSPost2010PropOp45
 70
     1
102
RTVSPost2010Prop46
 90
       50
102
RTVSPost2010PropOp46
 70
     1
102
RTVSPost2010Prop47
 90
       50
102
RTVSPost2010PropOp47
 70
     1
102
RTVSPost2010Prop48
 90
       50
102
RTVSPost2010PropOp48
 70
     1
102
RTVSPost2010Prop49
280
     0
102
RTVSPost2010PropOp49
 70
     1
102
RTVSPost2010Prop50
 90
       50
102
RTVSPost2010PropOp50
 70
     1
102
RTVSPost2010Prop51ColorIndex
 90
      256
102
RTVSPost2010Prop51ColorRGB
 90
-16777216
102
RTVSPost2010PropOp51
 70
     0
102
RTVSPost2010Prop52
140
1.0
102
RTVSPost2010PropOp52
 70
     0
102
RTVSPost2010Prop53
 90
        2
102
RTVSPost2010PropOp53
 70
     1
102
RTVSPost2010Prop54
  1
strokes_ogs.tif
102
RTVSPost2010PropOp54
 70
     1
102
RTVSPost2010Prop55
280
     0
102
RTVSPost2010PropOp55
 70
     1
102
RTVSPost2010Prop56
140
1.0
102
RTVSPost2010PropOp56
 70
     1
102
RTVSPost2010Prop57
140
1.0
102
RTVSPost2010PropOp57
 70
     1
  0
XRECORD
  5
181
102
{ACAD_REACTORS
330
180
102
}
330
180
100
AcDbXrecord
280
     1
102
RTVSPost2010Prop28
280
     0
102
RTVSPost2010PropOp28
 70
     1
102
RTVSPost2010Prop29
280
     1
102
RTVSPost2010PropOp29
 70
     1
102
RTVSPost2010Prop30
280
     1
102
RTVSPost2010PropOp30
 70
     1
102
RTVSPost2010Prop31
280
     0
102
RTVSPost2010PropOp31
 70
     1
102
RTVSPost2010Prop32
280
     0
102
RTVSPost2010PropOp32
 70
     1
102
RTVSPost2010Prop33
280
     0
102
RTVSPost2010PropOp33
 70
     1
102
RTVSPost2010Prop34
280
     0
102
RTVSPost2010PropOp34
 70
     1
102
RTVSPost2010Prop35
280
     0
102
RTVSPost2010PropOp35
 70
     1
102
RTVSPost2010Prop36
280
     0
102
RTVSPost2010PropOp36
 70
     1
102
RTVSPost2010Prop37
 90
       50
102
RTVSPost2010PropOp37
 70
     1
102
RTVSPost2010Prop38
140
0.0
102
RTVSPost2010PropOp38
 70
     1
102
RTVSPost2010Prop39
140
1.0
102
RTVSPost2010PropOp39
 70
     1
102
RTVSPost2010Prop40
 90
        0
102
RTVSPost2010PropOp40
 70
     1
102
RTVSPost2010Prop41ColorIndex
 90
       18
102
RTVSPost2010Prop41ColorRGB
 90
        0
102
RTVSPost2010PropOp41
 70
     1
102
RTVSPost2010Prop42
 90
       50
102
RTVSPost2010PropOp42
 70
     1
102
RTVSPost2010Prop43
 90
        3
102
RTVSPost2010PropOp43
 70
     1
102
RTVSPost2010Prop44ColorIndex
 90
        5
102
RTVSPost2010Prop44ColorRGB
 90
      255
102
RTVSPost2010PropOp44
 70
     1
102
RTVSPost2010Prop45
280
     0
102
RTVSPost2010PropOp45
 70
     1
102
RTVSPost2010Prop46
 90
       50
102
RTVSPost2010PropOp46
 70
     1
102
RTVSPost2010Prop47
 90
       50
102
RTVSPost2010PropOp47
 70
     1
102
RTVSPost2010Prop48
 90
       50
102
RTVSPost2010PropOp48
 70
     1
102
RTVSPost2010Prop49
280
     0
102
RTVSPost2010PropOp49
 70
     1
102
RTVSPost2010Prop50
 90
       50
102
RTVSPost2010PropOp50
 70
     1
102
RTVSPost2010Prop51ColorIndex
 90
      256
102
RTVSPost2010Prop51ColorRGB
 90
-16777216
102
RTVSPost2010PropOp51
 70
     0
102
RTVSPost2010Prop52
140
1.0
102
RTVSPost2010PropOp52
 70
     0
102
RTVSPost2010Prop53
 90
        2
102
RTVSPost2010PropOp53
 70
     1
102
RTVSPost2010Prop54
  1
strokes_ogs.tif
102
RTVSPost2010PropOp54
 70
     1
102
RTVSPost2010Prop55
280
     0
102
RTVSPost2010PropOp55
 70
     1
102
RTVSPost2010Prop56
140
1.0
102
RTVSPost2010PropOp56
 70
     1
102
RTVSPost2010Prop57
140
1.0
102
RTVSPost2010PropOp57
 70
     1
  0
XRECORD
  5
185
102
{ACAD_REACTORS
330
184
102
}
330
184
100
AcDbXrecord
280
     1
102
RTVSPost2010Prop28
280
     0
102
RTVSPost2010PropOp28
 70
     1
102
RTVSPost2010Prop29
280
     1
102
RTVSPost2010PropOp29
 70
     1
102
RTVSPost2010Prop30
280
     1
102
RTVSPost2010PropOp30
 70
     1
102
RTVSPost2010Prop31
280
     0
102
RTVSPost2010PropOp31
 70
     1
102
RTVSPost2010Prop32
280
     0
102
RTVSPost2010PropOp32
 70
     1
102
RTVSPost2010Prop33
280
     0
102
RTVSPost2010PropOp33
 70
     1
102
RTVSPost2010Prop34
280
     0
102
RTVSPost2010PropOp34
 70
     1
102
RTVSPost2010Prop35
280
     0
102
RTVSPost2010PropOp35
 70
     1
102
RTVSPost2010Prop36
280
     0
102
RTVSPost2010PropOp36
 70
     1
102
RTVSPost2010Prop37
 90
       50
102
RTVSPost2010PropOp37
 70
     1
102
RTVSPost2010Prop38
140
0.0
102
RTVSPost2010PropOp38
 70
     1
102
RTVSPost2010Prop39
140
1.0
102
RTVSPost2010PropOp39
 70
     1
102
RTVSPost2010Prop40
 90
        0
102
RTVSPost2010PropOp40
 70
     1
102
RTVSPost2010Prop41ColorIndex
 90
       18
102
RTVSPost2010Prop41ColorRGB
 90
        0
102
RTVSPost2010PropOp41
 70
     1
102
RTVSPost2010Prop42
 90
       50
102
RTVSPost2010PropOp42
 70
     1
102
RTVSPost2010Prop43
 90
        3
102
RTVSPost2010PropOp43
 70
     1
102
RTVSPost2010Prop44ColorIndex
 90
        5
102
RTVSPost2010Prop44ColorRGB
 90
      255
102
RTVSPost2010PropOp44
 70
     1
102
RTVSPost2010Prop45
280
     0
102
RTVSPost2010PropOp45
 70
     1
102
RTVSPost2010Prop46
 90
       50
102
RTVSPost2010PropOp46
 70
     1
102
RTVSPost2010Prop47
 90
       50
102
RTVSPost2010PropOp47
 70
     1
102
RTVSPost2010Prop48
 90
       50
102
RTVSPost2010PropOp48
 70
     1
102
RTVSPost2010Prop49
280
     0
102
RTVSPost2010PropOp49
 70
     1
102
RTVSPost2010Prop50
 90
       50
102
RTVSPost2010PropOp50
 70
     1
102
RTVSPost2010Prop51ColorIndex
 90
      256
102
RTVSPost2010Prop51ColorRGB
 90
-16777216
102
RTVSPost2010PropOp51
 70
     0
102
RTVSPost2010Prop52
140
1.0
102
RTVSPost2010PropOp52
 70
     0
102
RTVSPost2010Prop53
 90
        2
102
RTVSPost2010PropOp53
 70
     1
102
RTVSPost2010Prop54
  1
strokes_ogs.tif
102
RTVSPost2010PropOp54
 70
     1
102
RTVSPost2010Prop55
280
     0
102
RTVSPost2010PropOp55
 70
     1
102
RTVSPost2010Prop56
140
1.0
102
RTVSPost2010PropOp56
 70
     1
102
RTVSPost2010Prop57
140
1.0
102
RTVSPost2010PropOp57
 70
     1
  0
XRECORD
  5
19F
102
{ACAD_REACTORS
330
19E
102
}
330
19E
100
AcDbXrecord
280
     1
102
RTVSPost2010Prop28
280
     0
102
RTVSPost2010PropOp28
 70
     0
102
RTVSPost2010Prop29
280
     1
102
RTVSPost2010PropOp29
 70
     0
102
RTVSPost2010Prop30
280
     1
102
RTVSPost2010PropOp30
 70
     0
102
RTVSPost2010Prop31
280
     0
102
RTVSPost2010PropOp31
 70
     0
102
RTVSPost2010Prop32
280
     0
102
RTVSPost2010PropOp32
 70
     0
102
RTVSPost2010Prop33
280
     0
102
RTVSPost2010PropOp33
 70
     0
102
RTVSPost2010Prop34
280
     0
102
RTVSPost2010PropOp34
 70
     0
102
RTVSPost2010Prop35
280
     0
102
RTVSPost2010PropOp35
 70
     0
102
RTVSPost2010Prop36
280
     0
102
RTVSPost2010PropOp36
 70
     0
102
RTVSPost2010Prop37
 90
       50
102
RTVSPost2010PropOp37
 70
     0
102
RTVSPost2010Prop38
140
0.0
102
RTVSPost2010PropOp38
 70
     0
102
RTVSPost2010Prop39
140
1.0
102
RTVSPost2010PropOp39
 70
     0
102
RTVSPost2010Prop40
 90
        0
102
RTVSPost2010PropOp40
 70
     0
102
RTVSPost2010Prop41ColorIndex
 90
       18
102
RTVSPost2010Prop41ColorRGB
 90
        0
102
RTVSPost2010PropOp41
 70
     0
102
RTVSPost2010Prop42
 90
       50
102
RTVSPost2010PropOp42
 70
     0
102
RTVSPost2010Prop43
 90
        3
102
RTVSPost2010PropOp43
 70
     0
102
RTVSPost2010Prop44ColorIndex
 90
        5
102
RTVSPost2010Prop44ColorRGB
 90
      255
102
RTVSPost2010PropOp44
 70
     0
102
RTVSPost2010Prop45
280
     0
102
RTVSPost2010PropOp45
 70
     0
102
RTVSPost2010Prop46
 90
       50
102
RTVSPost2010PropOp46
 70
     0
102
RTVSPost2010Prop47
 90
       50
102
RTVSPost2010PropOp47
 70
     0
102
RTVSPost2010Prop48
 90
       50
102
RTVSPost2010PropOp48
 70
     0
102
RTVSPost2010Prop49
280
     0
102
RTVSPost2010PropOp49
 70
     0
102
RTVSPost2010Prop50
 90
       50
102
RTVSPost2010PropOp50
 70
     0
102
RTVSPost2010Prop51ColorIndex
 90
      256
102
RTVSPost2010Prop51ColorRGB
 90
-16777216
102
RTVSPost2010PropOp51
 70
     0
102
RTVSPost2010Prop52
140
1.0
102
RTVSPost2010PropOp52
 70
     0
102
RTVSPost2010Prop53
 90
        2
102
RTVSPost2010PropOp53
 70
     0
102
RTVSPost2010Prop54
  1
strokes_ogs.tif
102
RTVSPost2010PropOp54
 70
     0
102
RTVSPost2010Prop55
280
     0
102
RTVSPost2010PropOp55
 70
     0
102
RTVSPost2010Prop56
140
1.0
102
RTVSPost2010PropOp56
 70
     0
102
RTVSPost2010Prop57
140
1.0
102
RTVSPost2010PropOp57
 70
     0
  0
XRECORD
  5
18D
102
{ACAD_REACTORS
330
18C
102
}
330
18C
100
AcDbXrecord
280
     1
102
RTVSPost2010Prop28
280
     0
102
RTVSPost2010PropOp28
 70
     1
102
RTVSPost2010Prop29
280
     1
102
RTVSPost2010PropOp29
 70
     1
102
RTVSPost2010Prop30
280
     1
102
RTVSPost2010PropOp30
 70
     1
102
RTVSPost2010Prop31
280
     0
102
RTVSPost2010PropOp31
 70
     1
102
RTVSPost2010Prop32
280
     0
102
RTVSPost2010PropOp32
 70
     1
102
RTVSPost2010Prop33
280
     0
102
RTVSPost2010PropOp33
 70
     1
102
RTVSPost2010Prop34
280
     0
102
RTVSPost2010PropOp34
 70
     1
102
RTVSPost2010Prop35
280
     0
102
RTVSPost2010PropOp35
 70
     1
102
RTVSPost2010Prop36
280
     0
102
RTVSPost2010PropOp36
 70
     1
102
RTVSPost2010Prop37
 90
       50
102
RTVSPost2010PropOp37
 70
     1
102
RTVSPost2010Prop38
140
0.0
102
RTVSPost2010PropOp38
 70
     1
102
RTVSPost2010Prop39
140
1.0
102
RTVSPost2010PropOp39
 70
     1
102
RTVSPost2010Prop40
 90
        0
102
RTVSPost2010PropOp40
 70
     1
102
RTVSPost2010Prop41ColorIndex
 90
       18
102
RTVSPost2010Prop41ColorRGB
 90
        0
102
RTVSPost2010PropOp41
 70
     1
102
RTVSPost2010Prop42
 90
       50
102
RTVSPost2010PropOp42
 70
     1
102
RTVSPost2010Prop43
 90
        3
102
RTVSPost2010PropOp43
 70
     1
102
RTVSPost2010Prop44ColorIndex
 90
        5
102
RTVSPost2010Prop44ColorRGB
 90
      255
102
RTVSPost2010PropOp44
 70
     1
102
RTVSPost2010Prop45
280
     0
102
RTVSPost2010PropOp45
 70
     1
102
RTVSPost2010Prop46
 90
       50
102
RTVSPost2010PropOp46
 70
     1
102
RTVSPost2010Prop47
 90
       50
102
RTVSPost2010PropOp47
 70
     1
102
RTVSPost2010Prop48
 90
       50
102
RTVSPost2010PropOp48
 70
     1
102
RTVSPost2010Prop49
280
     0
102
RTVSPost2010PropOp49
 70
     1
102
RTVSPost2010Prop50
 90
       50
102
RTVSPost2010PropOp50
 70
     1
102
RTVSPost2010Prop51ColorIndex
 90
      256
102
RTVSPost2010Prop51ColorRGB
 90
-16777216
102
RTVSPost2010PropOp51
 70
     0
102
RTVSPost2010Prop52
140
1.0
102
RTVSPost2010PropOp52
 70
     0
102
RTVSPost2010Prop53
 90
        2
102
RTVSPost2010PropOp53
 70
     1
102
RTVSPost2010Prop54
  1
strokes_ogs.tif
102
RTVSPost2010PropOp54
 70
     1
102
RTVSPost2010Prop55
280
     0
102
RTVSPost2010PropOp55
 70
     1
102
RTVSPost2010Prop56
140
1.0
102
RTVSPost2010PropOp56
 70
     1
102
RTVSPost2010Prop57
140
1.0
102
RTVSPost2010PropOp57
 70
     1
  0
XRECORD
  5
171
102
{ACAD_REACTORS
330
170
102
}
330
170
100
AcDbXrecord
280
     1
102
RTVSPost2010Prop28
280
     0
102
RTVSPost2010PropOp28
 70
     1
102
RTVSPost2010Prop29
280
     1
102
RTVSPost2010PropOp29
 70
     1
102
RTVSPost2010Prop30
280
     1
102
RTVSPost2010PropOp30
 70
     1
102
RTVSPost2010Prop31
280
     0
102
RTVSPost2010PropOp31
 70
     1
102
RTVSPost2010Prop32
280
     0
102
RTVSPost2010PropOp32
 70
     1
102
RTVSPost2010Prop33
280
     0
102
RTVSPost2010PropOp33
 70
     1
102
RTVSPost2010Prop34
280
     0
102
RTVSPost2010PropOp34
 70
     1
102
RTVSPost2010Prop35
280
     0
102
RTVSPost2010PropOp35
 70
     1
102
RTVSPost2010Prop36
280
     0
102
RTVSPost2010PropOp36
 70
     1
102
RTVSPost2010Prop37
 90
       50
102
RTVSPost2010PropOp37
 70
     1
102
RTVSPost2010Prop38
140
0.0
102
RTVSPost2010PropOp38
 70
     1
102
RTVSPost2010Prop39
140
1.0
102
RTVSPost2010PropOp39
 70
     1
102
RTVSPost2010Prop40
 90
        0
102
RTVSPost2010PropOp40
 70
     1
102
RTVSPost2010Prop41ColorIndex
 90
       18
102
RTVSPost2010Prop41ColorRGB
 90
        0
102
RTVSPost2010PropOp41
 70
     1
102
RTVSPost2010Prop42
 90
       50
102
RTVSPost2010PropOp42
 70
     1
102
RTVSPost2010Prop43
 90
        3
102
RTVSPost2010PropOp43
 70
     1
102
RTVSPost2010Prop44ColorIndex
 90
        5
102
RTVSPost2010Prop44ColorRGB
 90
      255
102
RTVSPost2010PropOp44
 70
     1
102
RTVSPost2010Prop45
280
     0
102
RTVSPost2010PropOp45
 70
     1
102
RTVSPost2010Prop46
 90
       50
102
RTVSPost2010PropOp46
 70
     1
102
RTVSPost2010Prop47
 90
       50
102
RTVSPost2010PropOp47
 70
     1
102
RTVSPost2010Prop48
 90
       50
102
RTVSPost2010PropOp48
 70
     1
102
RTVSPost2010Prop49
280
     0
102
RTVSPost2010PropOp49
 70
     1
102
RTVSPost2010Prop50
 90
       50
102
RTVSPost2010PropOp50
 70
     1
102
RTVSPost2010Prop51ColorIndex
 90
      256
102
RTVSPost2010Prop51ColorRGB
 90
-16777216
102
RTVSPost2010PropOp51
 70
     0
102
RTVSPost2010Prop52
140
1.0
102
RTVSPost2010PropOp52
 70
     0
102
RTVSPost2010Prop53
 90
        2
102
RTVSPost2010PropOp53
 70
     1
102
RTVSPost2010Prop54
  1
strokes_ogs.tif
102
RTVSPost2010PropOp54
 70
     1
102
RTVSPost2010Prop55
280
     0
102
RTVSPost2010PropOp55
 70
     1
102
RTVSPost2010Prop56
140
1.0
102
RTVSPost2010PropOp56
 70
     1
102
RTVSPost2010Prop57
140
1.0
102
RTVSPost2010PropOp57
 70
     1
  0
XRECORD
  5
173
102
{ACAD_REACTORS
330
172
102
}
330
172
100
AcDbXrecord
280
     1
102
RTVSPost2010Prop28
280
     0
102
RTVSPost2010PropOp28
 70
     1
102
RTVSPost2010Prop29
280
     1
102
RTVSPost2010PropOp29
 70
     1
102
RTVSPost2010Prop30
280
     1
102
RTVSPost2010PropOp30
 70
     1
102
RTVSPost2010Prop31
280
     0
102
RTVSPost2010PropOp31
 70
     1
102
RTVSPost2010Prop32
280
     0
102
RTVSPost2010PropOp32
 70
     1
102
RTVSPost2010Prop33
280
     0
102
RTVSPost2010PropOp33
 70
     1
102
RTVSPost2010Prop34
280
     0
102
RTVSPost2010PropOp34
 70
     1
102
RTVSPost2010Prop35
280
     0
102
RTVSPost2010PropOp35
 70
     1
102
RTVSPost2010Prop36
280
     0
102
RTVSPost2010PropOp36
 70
     1
102
RTVSPost2010Prop37
 90
       50
102
RTVSPost2010PropOp37
 70
     1
102
RTVSPost2010Prop38
140
0.0
102
RTVSPost2010PropOp38
 70
     1
102
RTVSPost2010Prop39
140
1.0
102
RTVSPost2010PropOp39
 70
     1
102
RTVSPost2010Prop40
 90
        0
102
RTVSPost2010PropOp40
 70
     1
102
RTVSPost2010Prop41ColorIndex
 90
       18
102
RTVSPost2010Prop41ColorRGB
 90
        0
102
RTVSPost2010PropOp41
 70
     1
102
RTVSPost2010Prop42
 90
       50
102
RTVSPost2010PropOp42
 70
     1
102
RTVSPost2010Prop43
 90
        3
102
RTVSPost2010PropOp43
 70
     1
102
RTVSPost2010Prop44ColorIndex
 90
        5
102
RTVSPost2010Prop44ColorRGB
 90
      255
102
RTVSPost2010PropOp44
 70
     1
102
RTVSPost2010Prop45
280
     0
102
RTVSPost2010PropOp45
 70
     1
102
RTVSPost2010Prop46
 90
       50
102
RTVSPost2010PropOp46
 70
     1
102
RTVSPost2010Prop47
 90
       50
102
RTVSPost2010PropOp47
 70
     1
102
RTVSPost2010Prop48
 90
       50
102
RTVSPost2010PropOp48
 70
     1
102
RTVSPost2010Prop49
280
     0
102
RTVSPost2010PropOp49
 70
     1
102
RTVSPost2010Prop50
 90
       50
102
RTVSPost2010PropOp50
 70
     1
102
RTVSPost2010Prop51ColorIndex
 90
      256
102
RTVSPost2010Prop51ColorRGB
 90
-16777216
102
RTVSPost2010PropOp51
 70
     0
102
RTVSPost2010Prop52
140
1.0
102
RTVSPost2010PropOp52
 70
     0
102
RTVSPost2010Prop53
 90
        2
102
RTVSPost2010PropOp53
 70
     1
102
RTVSPost2010Prop54
  1
strokes_ogs.tif
102
RTVSPost2010PropOp54
 70
     1
102
RTVSPost2010Prop55
280
     0
102
RTVSPost2010PropOp55
 70
     1
102
RTVSPost2010Prop56
140
1.0
102
RTVSPost2010PropOp56
 70
     1
102
RTVSPost2010Prop57
140
1.0
102
RTVSPost2010PropOp57
 70
     1
  0
XRECORD
  5
175
102
{ACAD_REACTORS
330
174
102
}
330
174
100
AcDbXrecord
280
     1
102
RTVSPost2010Prop28
280
     0
102
RTVSPost2010PropOp28
 70
     1
102
RTVSPost2010Prop29
280
     1
102
RTVSPost2010PropOp29
 70
     1
102
RTVSPost2010Prop30
280
     1
102
RTVSPost2010PropOp30
 70
     1
102
RTVSPost2010Prop31
280
     0
102
RTVSPost2010PropOp31
 70
     1
102
RTVSPost2010Prop32
280
     0
102
RTVSPost2010PropOp32
 70
     1
102
RTVSPost2010Prop33
280
     0
102
RTVSPost2010PropOp33
 70
     1
102
RTVSPost2010Prop34
280
     0
102
RTVSPost2010PropOp34
 70
     1
102
RTVSPost2010Prop35
280
     0
102
RTVSPost2010PropOp35
 70
     1
102
RTVSPost2010Prop36
280
     0
102
RTVSPost2010PropOp36
 70
     1
102
RTVSPost2010Prop37
 90
       50
102
RTVSPost2010PropOp37
 70
     1
102
RTVSPost2010Prop38
140
0.0
102
RTVSPost2010PropOp38
 70
     1
102
RTVSPost2010Prop39
140
1.0
102
RTVSPost2010PropOp39
 70
     1
102
RTVSPost2010Prop40
 90
        0
102
RTVSPost2010PropOp40
 70
     1
102
RTVSPost2010Prop41ColorIndex
 90
       18
102
RTVSPost2010Prop41ColorRGB
 90
        0
102
RTVSPost2010PropOp41
 70
     1
102
RTVSPost2010Prop42
 90
       50
102
RTVSPost2010PropOp42
 70
     1
102
RTVSPost2010Prop43
 90
        3
102
RTVSPost2010PropOp43
 70
     1
102
RTVSPost2010Prop44ColorIndex
 90
        5
102
RTVSPost2010Prop44ColorRGB
 90
      255
102
RTVSPost2010PropOp44
 70
     1
102
RTVSPost2010Prop45
280
     0
102
RTVSPost2010PropOp45
 70
     1
102
RTVSPost2010Prop46
 90
       50
102
RTVSPost2010PropOp46
 70
     1
102
RTVSPost2010Prop47
 90
       50
102
RTVSPost2010PropOp47
 70
     1
102
RTVSPost2010Prop48
 90
       50
102
RTVSPost2010PropOp48
 70
     1
102
RTVSPost2010Prop49
280
     0
102
RTVSPost2010PropOp49
 70
     1
102
RTVSPost2010Prop50
 90
       50
102
RTVSPost2010PropOp50
 70
     1
102
RTVSPost2010Prop51ColorIndex
 90
      256
102
RTVSPost2010Prop51ColorRGB
 90
-16777216
102
RTVSPost2010PropOp51
 70
     0
102
RTVSPost2010Prop52
140
1.0
102
RTVSPost2010PropOp52
 70
     0
102
RTVSPost2010Prop53
 90
        2
102
RTVSPost2010PropOp53
 70
     1
102
RTVSPost2010Prop54
  1
strokes_ogs.tif
102
RTVSPost2010PropOp54
 70
     1
102
RTVSPost2010Prop55
280
     0
102
RTVSPost2010PropOp55
 70
     1
102
RTVSPost2010Prop56
140
1.0
102
RTVSPost2010PropOp56
 70
     1
102
RTVSPost2010Prop57
140
1.0
102
RTVSPost2010PropOp57
 70
     1
  0
XRECORD
  5
177
102
{ACAD_REACTORS
330
176
102
}
330
176
100
AcDbXrecord
280
     1
102
RTVSPost2010Prop28
280
     0
102
RTVSPost2010PropOp28
 70
     1
102
RTVSPost2010Prop29
280
     1
102
RTVSPost2010PropOp29
 70
     1
102
RTVSPost2010Prop30
280
     1
102
RTVSPost2010PropOp30
 70
     1
102
RTVSPost2010Prop31
280
     0
102
RTVSPost2010PropOp31
 70
     1
102
RTVSPost2010Prop32
280
     0
102
RTVSPost2010PropOp32
 70
     1
102
RTVSPost2010Prop33
280
     0
102
RTVSPost2010PropOp33
 70
     1
102
RTVSPost2010Prop34
280
     0
102
RTVSPost2010PropOp34
 70
     1
102
RTVSPost2010Prop35
280
     0
102
RTVSPost2010PropOp35
 70
     1
102
RTVSPost2010Prop36
280
     0
102
RTVSPost2010PropOp36
 70
     1
102
RTVSPost2010Prop37
 90
       50
102
RTVSPost2010PropOp37
 70
     1
102
RTVSPost2010Prop38
140
0.0
102
RTVSPost2010PropOp38
 70
     1
102
RTVSPost2010Prop39
140
1.0
102
RTVSPost2010PropOp39
 70
     1
102
RTVSPost2010Prop40
 90
        0
102
RTVSPost2010PropOp40
 70
     1
102
RTVSPost2010Prop41ColorIndex
 90
       18
102
RTVSPost2010Prop41ColorRGB
 90
        0
102
RTVSPost2010PropOp41
 70
     1
102
RTVSPost2010Prop42
 90
       50
102
RTVSPost2010PropOp42
 70
     1
102
RTVSPost2010Prop43
 90
        3
102
RTVSPost2010PropOp43
 70
     1
102
RTVSPost2010Prop44ColorIndex
 90
        5
102
RTVSPost2010Prop44ColorRGB
 90
      255
102
RTVSPost2010PropOp44
 70
     1
102
RTVSPost2010Prop45
280
     0
102
RTVSPost2010PropOp45
 70
     1
102
RTVSPost2010Prop46
 90
       50
102
RTVSPost2010PropOp46
 70
     1
102
RTVSPost2010Prop47
 90
       50
102
RTVSPost2010PropOp47
 70
     1
102
RTVSPost2010Prop48
 90
       50
102
RTVSPost2010PropOp48
 70
     1
102
RTVSPost2010Prop49
280
     0
102
RTVSPost2010PropOp49
 70
     1
102
RTVSPost2010Prop50
 90
       50
102
RTVSPost2010PropOp50
 70
     1
102
RTVSPost2010Prop51ColorIndex
 90
      256
102
RTVSPost2010Prop51ColorRGB
 90
-16777216
102
RTVSPost2010PropOp51
 70
     0
102
RTVSPost2010Prop52
140
1.0
102
RTVSPost2010PropOp52
 70
     0
102
RTVSPost2010Prop53
 90
        2
102
RTVSPost2010PropOp53
 70
     1
102
RTVSPost2010Prop54
  1
strokes_ogs.tif
102
RTVSPost2010PropOp54
 70
     1
102
RTVSPost2010Prop55
280
     0
102
RTVSPost2010PropOp55
 70
     1
102
RTVSPost2010Prop56
140
1.0
102
RTVSPost2010PropOp56
 70
     1
102
RTVSPost2010Prop57
140
1.0
102
RTVSPost2010PropOp57
 70
     1
  0
XRECORD
  5
17F
102
{ACAD_REACTORS
330
17E
102
}
330
17E
100
AcDbXrecord
280
     1
102
RTVSPost2010Prop28
280
     0
102
RTVSPost2010PropOp28
 70
     1
102
RTVSPost2010Prop29
280
     1
102
RTVSPost2010PropOp29
 70
     1
102
RTVSPost2010Prop30
280
     1
102
RTVSPost2010PropOp30
 70
     1
102
RTVSPost2010Prop31
280
     0
102
RTVSPost2010PropOp31
 70
     1
102
RTVSPost2010Prop32
280
     0
102
RTVSPost2010PropOp32
 70
     1
102
RTVSPost2010Prop33
280
     0
102
RTVSPost2010PropOp33
 70
     1
102
RTVSPost2010Prop34
280
     0
102
RTVSPost2010PropOp34
 70
     1
102
RTVSPost2010Prop35
280
     0
102
RTVSPost2010PropOp35
 70
     1
102
RTVSPost2010Prop36
280
     0
102
RTVSPost2010PropOp36
 70
     1
102
RTVSPost2010Prop37
 90
       50
102
RTVSPost2010PropOp37
 70
     1
102
RTVSPost2010Prop38
140
0.0
102
RTVSPost2010PropOp38
 70
     1
102
RTVSPost2010Prop39
140
1.0
102
RTVSPost2010PropOp39
 70
     1
102
RTVSPost2010Prop40
 90
        0
102
RTVSPost2010PropOp40
 70
     1
102
RTVSPost2010Prop41ColorIndex
 90
       18
102
RTVSPost2010Prop41ColorRGB
 90
        0
102
RTVSPost2010PropOp41
 70
     1
102
RTVSPost2010Prop42
 90
       50
102
RTVSPost2010PropOp42
 70
     1
102
RTVSPost2010Prop43
 90
        3
102
RTVSPost2010PropOp43
 70
     1
102
RTVSPost2010Prop44ColorIndex
 90
        5
102
RTVSPost2010Prop44ColorRGB
 90
      255
102
RTVSPost2010PropOp44
 70
     1
102
RTVSPost2010Prop45
280
     0
102
RTVSPost2010PropOp45
 70
     1
102
RTVSPost2010Prop46
 90
       50
102
RTVSPost2010PropOp46
 70
     1
102
RTVSPost2010Prop47
 90
       50
102
RTVSPost2010PropOp47
 70
     1
102
RTVSPost2010Prop48
 90
       50
102
RTVSPost2010PropOp48
 70
     1
102
RTVSPost2010Prop49
280
     0
102
RTVSPost2010PropOp49
 70
     1
102
RTVSPost2010Prop50
 90
       50
102
RTVSPost2010PropOp50
 70
     1
102
RTVSPost2010Prop51ColorIndex
 90
      256
102
RTVSPost2010Prop51ColorRGB
 90
-16777216
102
RTVSPost2010PropOp51
 70
     0
102
RTVSPost2010Prop52
140
1.0
102
RTVSPost2010PropOp52
 70
     0
102
RTVSPost2010Prop53
 90
        2
102
RTVSPost2010PropOp53
 70
     1
102
RTVSPost2010Prop54
  1
strokes_ogs.tif
102
RTVSPost2010PropOp54
 70
     1
102
RTVSPost2010Prop55
280
     0
102
RTVSPost2010PropOp55
 70
     1
102
RTVSPost2010Prop56
140
1.0
102
RTVSPost2010PropOp56
 70
     1
102
RTVSPost2010Prop57
140
1.0
102
RTVSPost2010PropOp57
 70
     1
  0
XRECORD
  5
19B
102
{ACAD_REACTORS
330
19A
102
}
330
19A
100
AcDbXrecord
280
     1
102
RTVSPost2010Prop28
280
     0
102
RTVSPost2010PropOp28
 70
     0
102
RTVSPost2010Prop29
280
     1
102
RTVSPost2010PropOp29
 70
     0
102
RTVSPost2010Prop30
280
     1
102
RTVSPost2010PropOp30
 70
     0
102
RTVSPost2010Prop31
280
     0
102
RTVSPost2010PropOp31
 70
     0
102
RTVSPost2010Prop32
280
     0
102
RTVSPost2010PropOp32
 70
     0
102
RTVSPost2010Prop33
280
     0
102
RTVSPost2010PropOp33
 70
     0
102
RTVSPost2010Prop34
280
     0
102
RTVSPost2010PropOp34
 70
     0
102
RTVSPost2010Prop35
280
     0
102
RTVSPost2010PropOp35
 70
     0
102
RTVSPost2010Prop36
280
     0
102
RTVSPost2010PropOp36
 70
     0
102
RTVSPost2010Prop37
 90
       50
102
RTVSPost2010PropOp37
 70
     0
102
RTVSPost2010Prop38
140
0.0
102
RTVSPost2010PropOp38
 70
     0
102
RTVSPost2010Prop39
140
1.0
102
RTVSPost2010PropOp39
 70
     0
102
RTVSPost2010Prop40
 90
        0
102
RTVSPost2010PropOp40
 70
     0
102
RTVSPost2010Prop41ColorIndex
 90
       18
102
RTVSPost2010Prop41ColorRGB
 90
        0
102
RTVSPost2010PropOp41
 70
     0
102
RTVSPost2010Prop42
 90
       50
102
RTVSPost2010PropOp42
 70
     0
102
RTVSPost2010Prop43
 90
        3
102
RTVSPost2010PropOp43
 70
     0
102
RTVSPost2010Prop44ColorIndex
 90
        5
102
RTVSPost2010Prop44ColorRGB
 90
      255
102
RTVSPost2010PropOp44
 70
     0
102
RTVSPost2010Prop45
280
     0
102
RTVSPost2010PropOp45
 70
     0
102
RTVSPost2010Prop46
 90
       50
102
RTVSPost2010PropOp46
 70
     0
102
RTVSPost2010Prop47
 90
       50
102
RTVSPost2010PropOp47
 70
     0
102
RTVSPost2010Prop48
 90
       50
102
RTVSPost2010PropOp48
 70
     0
102
RTVSPost2010Prop49
280
     0
102
RTVSPost2010PropOp49
 70
     0
102
RTVSPost2010Prop50
 90
       50
102
RTVSPost2010PropOp50
 70
     0
102
RTVSPost2010Prop51ColorIndex
 90
      256
102
RTVSPost2010Prop51ColorRGB
 90
-16777216
102
RTVSPost2010PropOp51
 70
     0
102
RTVSPost2010Prop52
140
1.0
102
RTVSPost2010PropOp52
 70
     0
102
RTVSPost2010Prop53
 90
        2
102
RTVSPost2010PropOp53
 70
     0
102
RTVSPost2010Prop54
  1
strokes_ogs.tif
102
RTVSPost2010PropOp54
 70
     0
102
RTVSPost2010Prop55
280
     0
102
RTVSPost2010PropOp55
 70
     0
102
RTVSPost2010Prop56
140
1.0
102
RTVSPost2010PropOp56
 70
     0
102
RTVSPost2010Prop57
140
1.0
102
RTVSPost2010PropOp57
 70
     0
  0
XRECORD
  5
18B
102
{ACAD_REACTORS
330
18A
102
}
330
18A
100
AcDbXrecord
280
     1
102
RTVSPost2010Prop28
280
     0
102
RTVSPost2010PropOp28
 70
     1
102
RTVSPost2010Prop29
280
     1
102
RTVSPost2010PropOp29
 70
     1
102
RTVSPost2010Prop30
280
     1
102
RTVSPost2010PropOp30
 70
     1
102
RTVSPost2010Prop31
280
     0
102
RTVSPost2010PropOp31
 70
     1
102
RTVSPost2010Prop32
280
     0
102
RTVSPost2010PropOp32
 70
     1
102
RTVSPost2010Prop33
280
     0
102
RTVSPost2010PropOp33
 70
     1
102
RTVSPost2010Prop34
280
     0
102
RTVSPost2010PropOp34
 70
     1
102
RTVSPost2010Prop35
280
     0
102
RTVSPost2010PropOp35
 70
     1
102
RTVSPost2010Prop36
280
     0
102
RTVSPost2010PropOp36
 70
     1
102
RTVSPost2010Prop37
 90
       50
102
RTVSPost2010PropOp37
 70
     1
102
RTVSPost2010Prop38
140
0.0
102
RTVSPost2010PropOp38
 70
     1
102
RTVSPost2010Prop39
140
1.0
102
RTVSPost2010PropOp39
 70
     1
102
RTVSPost2010Prop40
 90
        0
102
RTVSPost2010PropOp40
 70
     1
102
RTVSPost2010Prop41ColorIndex
 90
       18
102
RTVSPost2010Prop41ColorRGB
 90
        0
102
RTVSPost2010PropOp41
 70
     1
102
RTVSPost2010Prop42
 90
       50
102
RTVSPost2010PropOp42
 70
     1
102
RTVSPost2010Prop43
 90
        3
102
RTVSPost2010PropOp43
 70
     1
102
RTVSPost2010Prop44ColorIndex
 90
        5
102
RTVSPost2010Prop44ColorRGB
 90
      255
102
RTVSPost2010PropOp44
 70
     1
102
RTVSPost2010Prop45
280
     0
102
RTVSPost2010PropOp45
 70
     1
102
RTVSPost2010Prop46
 90
       50
102
RTVSPost2010PropOp46
 70
     1
102
RTVSPost2010Prop47
 90
       50
102
RTVSPost2010PropOp47
 70
     1
102
RTVSPost2010Prop48
 90
       50
102
RTVSPost2010PropOp48
 70
     1
102
RTVSPost2010Prop49
280
     0
102
RTVSPost2010PropOp49
 70
     1
102
RTVSPost2010Prop50
 90
       50
102
RTVSPost2010PropOp50
 70
     1
102
RTVSPost2010Prop51ColorIndex
 90
      256
102
RTVSPost2010Prop51ColorRGB
 90
-16777216
102
RTVSPost2010PropOp51
 70
     0
102
RTVSPost2010Prop52
140
1.0
102
RTVSPost2010PropOp52
 70
     0
102
RTVSPost2010Prop53
 90
        2
102
RTVSPost2010PropOp53
 70
     1
102
RTVSPost2010Prop54
  1
strokes_ogs.tif
102
RTVSPost2010PropOp54
 70
     1
102
RTVSPost2010Prop55
280
     0
102
RTVSPost2010PropOp55
 70
     1
102
RTVSPost2010Prop56
140
1.0
102
RTVSPost2010PropOp56
 70
     1
102
RTVSPost2010Prop57
140
1.0
102
RTVSPost2010PropOp57
 70
     1
  0
XRECORD
  5
19D
102
{ACAD_REACTORS
330
19C
102
}
330
19C
100
AcDbXrecord
280
     1
102
RTVSPost2010Prop28
280
     0
102
RTVSPost2010PropOp28
 70
     0
102
RTVSPost2010Prop29
280
     1
102
RTVSPost2010PropOp29
 70
     0
102
RTVSPost2010Prop30
280
     1
102
RTVSPost2010PropOp30
 70
     0
102
RTVSPost2010Prop31
280
     0
102
RTVSPost2010PropOp31
 70
     0
102
RTVSPost2010Prop32
280
     0
102
RTVSPost2010PropOp32
 70
     0
102
RTVSPost2010Prop33
280
     0
102
RTVSPost2010PropOp33
 70
     0
102
RTVSPost2010Prop34
280
     0
102
RTVSPost2010PropOp34
 70
     0
102
RTVSPost2010Prop35
280
     0
102
RTVSPost2010PropOp35
 70
     0
102
RTVSPost2010Prop36
280
     0
102
RTVSPost2010PropOp36
 70
     0
102
RTVSPost2010Prop37
 90
       50
102
RTVSPost2010PropOp37
 70
     0
102
RTVSPost2010Prop38
140
0.0
102
RTVSPost2010PropOp38
 70
     0
102
RTVSPost2010Prop39
140
1.0
102
RTVSPost2010PropOp39
 70
     0
102
RTVSPost2010Prop40
 90
        0
102
RTVSPost2010PropOp40
 70
     0
102
RTVSPost2010Prop41ColorIndex
 90
       18
102
RTVSPost2010Prop41ColorRGB
 90
        0
102
RTVSPost2010PropOp41
 70
     0
102
RTVSPost2010Prop42
 90
       50
102
RTVSPost2010PropOp42
 70
     0
102
RTVSPost2010Prop43
 90
        3
102
RTVSPost2010PropOp43
 70
     0
102
RTVSPost2010Prop44ColorIndex
 90
        5
102
RTVSPost2010Prop44ColorRGB
 90
      255
102
RTVSPost2010PropOp44
 70
     0
102
RTVSPost2010Prop45
280
     0
102
RTVSPost2010PropOp45
 70
     0
102
RTVSPost2010Prop46
 90
       50
102
RTVSPost2010PropOp46
 70
     0
102
RTVSPost2010Prop47
 90
       50
102
RTVSPost2010PropOp47
 70
     0
102
RTVSPost2010Prop48
 90
       50
102
RTVSPost2010PropOp48
 70
     0
102
RTVSPost2010Prop49
280
     0
102
RTVSPost2010PropOp49
 70
     0
102
RTVSPost2010Prop50
 90
       50
102
RTVSPost2010PropOp50
 70
     0
102
RTVSPost2010Prop51ColorIndex
 90
      256
102
RTVSPost2010Prop51ColorRGB
 90
-16777216
102
RTVSPost2010PropOp51
 70
     0
102
RTVSPost2010Prop52
140
1.0
102
RTVSPost2010PropOp52
 70
     0
102
RTVSPost2010Prop53
 90
        2
102
RTVSPost2010PropOp53
 70
     0
102
RTVSPost2010Prop54
  1
strokes_ogs.tif
102
RTVSPost2010PropOp54
 70
     0
102
RTVSPost2010Prop55
280
     0
102
RTVSPost2010PropOp55
 70
     0
102
RTVSPost2010Prop56
140
1.0
102
RTVSPost2010PropOp56
 70
     0
102
RTVSPost2010Prop57
140
1.0
102
RTVSPost2010PropOp57
 70
     0
  0
XRECORD
  5
183
102
{ACAD_REACTORS
330
182
102
}
330
182
100
AcDbXrecord
280
     1
102
RTVSPost2010Prop28
280
     0
102
RTVSPost2010PropOp28
 70
     1
102
RTVSPost2010Prop29
280
     1
102
RTVSPost2010PropOp29
 70
     1
102
RTVSPost2010Prop30
280
     1
102
RTVSPost2010PropOp30
 70
     1
102
RTVSPost2010Prop31
280
     0
102
RTVSPost2010PropOp31
 70
     1
102
RTVSPost2010Prop32
280
     0
102
RTVSPost2010PropOp32
 70
     1
102
RTVSPost2010Prop33
280
     0
102
RTVSPost2010PropOp33
 70
     1
102
RTVSPost2010Prop34
280
     0
102
RTVSPost2010PropOp34
 70
     1
102
RTVSPost2010Prop35
280
     0
102
RTVSPost2010PropOp35
 70
     1
102
RTVSPost2010Prop36
280
     0
102
RTVSPost2010PropOp36
 70
     1
102
RTVSPost2010Prop37
 90
       50
102
RTVSPost2010PropOp37
 70
     1
102
RTVSPost2010Prop38
140
0.0
102
RTVSPost2010PropOp38
 70
     1
102
RTVSPost2010Prop39
140
1.0
102
RTVSPost2010PropOp39
 70
     1
102
RTVSPost2010Prop40
 90
        0
102
RTVSPost2010PropOp40
 70
     1
102
RTVSPost2010Prop41ColorIndex
 90
       18
102
RTVSPost2010Prop41ColorRGB
 90
        0
102
RTVSPost2010PropOp41
 70
     1
102
RTVSPost2010Prop42
 90
       50
102
RTVSPost2010PropOp42
 70
     1
102
RTVSPost2010Prop43
 90
        3
102
RTVSPost2010PropOp43
 70
     1
102
RTVSPost2010Prop44ColorIndex
 90
        5
102
RTVSPost2010Prop44ColorRGB
 90
      255
102
RTVSPost2010PropOp44
 70
     1
102
RTVSPost2010Prop45
280
     0
102
RTVSPost2010PropOp45
 70
     1
102
RTVSPost2010Prop46
 90
       50
102
RTVSPost2010PropOp46
 70
     1
102
RTVSPost2010Prop47
 90
       50
102
RTVSPost2010PropOp47
 70
     1
102
RTVSPost2010Prop48
 90
       50
102
RTVSPost2010PropOp48
 70
     1
102
RTVSPost2010Prop49
280
     0
102
RTVSPost2010PropOp49
 70
     1
102
RTVSPost2010Prop50
 90
       50
102
RTVSPost2010PropOp50
 70
     1
102
RTVSPost2010Prop51ColorIndex
 90
      256
102
RTVSPost2010Prop51ColorRGB
 90
-16777216
102
RTVSPost2010PropOp51
 70
     0
102
RTVSPost2010Prop52
140
1.0
102
RTVSPost2010PropOp52
 70
     0
102
RTVSPost2010Prop53
 90
        2
102
RTVSPost2010PropOp53
 70
     1
102
RTVSPost2010Prop54
  1
strokes_ogs.tif
102
RTVSPost2010PropOp54
 70
     1
102
RTVSPost2010Prop55
280
     0
102
RTVSPost2010PropOp55
 70
     1
102
RTVSPost2010Prop56
140
1.0
102
RTVSPost2010PropOp56
 70
     1
102
RTVSPost2010Prop57
140
1.0
102
RTVSPost2010PropOp57
 70
     1
  0
XRECORD
  5
199
102
{ACAD_REACTORS
330
198
102
}
330
198
100
AcDbXrecord
280
     1
102
RTVSPost2010Prop28
280
     0
102
RTVSPost2010PropOp28
 70
     1
102
RTVSPost2010Prop29
280
     1
102
RTVSPost2010PropOp29
 70
     1
102
RTVSPost2010Prop30
280
     1
102
RTVSPost2010PropOp30
 70
     1
102
RTVSPost2010Prop31
280
     0
102
RTVSPost2010PropOp31
 70
     1
102
RTVSPost2010Prop32
280
     0
102
RTVSPost2010PropOp32
 70
     1
102
RTVSPost2010Prop33
280
     0
102
RTVSPost2010PropOp33
 70
     1
102
RTVSPost2010Prop34
280
     0
102
RTVSPost2010PropOp34
 70
     1
102
RTVSPost2010Prop35
280
     0
102
RTVSPost2010PropOp35
 70
     1
102
RTVSPost2010Prop36
280
     0
102
RTVSPost2010PropOp36
 70
     1
102
RTVSPost2010Prop37
 90
       50
102
RTVSPost2010PropOp37
 70
     1
102
RTVSPost2010Prop38
140
0.0
102
RTVSPost2010PropOp38
 70
     1
102
RTVSPost2010Prop39
140
1.0
102
RTVSPost2010PropOp39
 70
     1
102
RTVSPost2010Prop40
 90
        0
102
RTVSPost2010PropOp40
 70
     1
102
RTVSPost2010Prop41ColorIndex
 90
       18
102
RTVSPost2010Prop41ColorRGB
 90
        0
102
RTVSPost2010PropOp41
 70
     1
102
RTVSPost2010Prop42
 90
       50
102
RTVSPost2010PropOp42
 70
     1
102
RTVSPost2010Prop43
 90
        3
102
RTVSPost2010PropOp43
 70
     1
102
RTVSPost2010Prop44ColorIndex
 90
        5
102
RTVSPost2010Prop44ColorRGB
 90
      255
102
RTVSPost2010PropOp44
 70
     1
102
RTVSPost2010Prop45
280
     0
102
RTVSPost2010PropOp45
 70
     1
102
RTVSPost2010Prop46
 90
       50
102
RTVSPost2010PropOp46
 70
     1
102
RTVSPost2010Prop47
 90
       50
102
RTVSPost2010PropOp47
 70
     1
102
RTVSPost2010Prop48
 90
       50
102
RTVSPost2010PropOp48
 70
     1
102
RTVSPost2010Prop49
280
     0
102
RTVSPost2010PropOp49
 70
     1
102
RTVSPost2010Prop50
 90
       50
102
RTVSPost2010PropOp50
 70
     1
102
RTVSPost2010Prop51ColorIndex
 90
      256
102
RTVSPost2010Prop51ColorRGB
 90
-16777216
102
RTVSPost2010PropOp51
 70
     0
102
RTVSPost2010Prop52
140
1.0
102
RTVSPost2010PropOp52
 70
     0
102
RTVSPost2010Prop53
 90
        2
102
RTVSPost2010PropOp53
 70
     1
102
RTVSPost2010Prop54
  1
strokes_ogs.tif
102
RTVSPost2010PropOp54
 70
     1
102
RTVSPost2010Prop55
280
     0
102
RTVSPost2010PropOp55
 70
     1
102
RTVSPost2010Prop56
140
1.0
102
RTVSPost2010PropOp56
 70
     1
102
RTVSPost2010Prop57
140
1.0
102
RTVSPost2010PropOp57
 70
     1
  0
XRECORD
  5
197
102
{ACAD_REACTORS
330
196
102
}
330
196
100
AcDbXrecord
280
     1
102
RTVSPost2010Prop28
280
     0
102
RTVSPost2010PropOp28
 70
     1
102
RTVSPost2010Prop29
280
     1
102
RTVSPost2010PropOp29
 70
     1
102
RTVSPost2010Prop30
280
     1
102
RTVSPost2010PropOp30
 70
     1
102
RTVSPost2010Prop31
280
     0
102
RTVSPost2010PropOp31
 70
     1
102
RTVSPost2010Prop32
280
     0
102
RTVSPost2010PropOp32
 70
     1
102
RTVSPost2010Prop33
280
     0
102
RTVSPost2010PropOp33
 70
     1
102
RTVSPost2010Prop34
280
     0
102
RTVSPost2010PropOp34
 70
     1
102
RTVSPost2010Prop35
280
     0
102
RTVSPost2010PropOp35
 70
     1
102
RTVSPost2010Prop36
280
     0
102
RTVSPost2010PropOp36
 70
     1
102
RTVSPost2010Prop37
 90
       50
102
RTVSPost2010PropOp37
 70
     1
102
RTVSPost2010Prop38
140
0.0
102
RTVSPost2010PropOp38
 70
     1
102
RTVSPost2010Prop39
140
1.0
102
RTVSPost2010PropOp39
 70
     1
102
RTVSPost2010Prop40
 90
        0
102
RTVSPost2010PropOp40
 70
     1
102
RTVSPost2010Prop41ColorIndex
 90
       18
102
RTVSPost2010Prop41ColorRGB
 90
        0
102
RTVSPost2010PropOp41
 70
     1
102
RTVSPost2010Prop42
 90
       50
102
RTVSPost2010PropOp42
 70
     1
102
RTVSPost2010Prop43
 90
        3
102
RTVSPost2010PropOp43
 70
     1
102
RTVSPost2010Prop44ColorIndex
 90
        5
102
RTVSPost2010Prop44ColorRGB
 90
      255
102
RTVSPost2010PropOp44
 70
     1
102
RTVSPost2010Prop45
280
     0
102
RTVSPost2010PropOp45
 70
     1
102
RTVSPost2010Prop46
 90
       50
102
RTVSPost2010PropOp46
 70
     1
102
RTVSPost2010Prop47
 90
       50
102
RTVSPost2010PropOp47
 70
     1
102
RTVSPost2010Prop48
 90
       50
102
RTVSPost2010PropOp48
 70
     1
102
RTVSPost2010Prop49
280
     0
102
RTVSPost2010PropOp49
 70
     1
102
RTVSPost2010Prop50
 90
       50
102
RTVSPost2010PropOp50
 70
     1
102
RTVSPost2010Prop51ColorIndex
 90
      256
102
RTVSPost2010Prop51ColorRGB
 90
-16777216
102
RTVSPost2010PropOp51
 70
     0
102
RTVSPost2010Prop52
140
1.0
102
RTVSPost2010PropOp52
 70
     0
102
RTVSPost2010Prop53
 90
        2
102
RTVSPost2010PropOp53
 70
     1
102
RTVSPost2010Prop54
  1
strokes_ogs.tif
102
RTVSPost2010PropOp54
 70
     1
102
RTVSPost2010Prop55
280
     0
102
RTVSPost2010PropOp55
 70
     1
102
RTVSPost2010Prop56
140
1.0
102
RTVSPost2010PropOp56
 70
     1
102
RTVSPost2010Prop57
140
1.0
102
RTVSPost2010PropOp57
 70
     1
  0
XRECORD
  5
191
102
{ACAD_REACTORS
330
190
102
}
330
190
100
AcDbXrecord
280
     1
102
RTVSPost2010Prop28
280
     0
102
RTVSPost2010PropOp28
 70
     1
102
RTVSPost2010Prop29
280
     1
102
RTVSPost2010PropOp29
 70
     1
102
RTVSPost2010Prop30
280
     1
102
RTVSPost2010PropOp30
 70
     1
102
RTVSPost2010Prop31
280
     0
102
RTVSPost2010PropOp31
 70
     1
102
RTVSPost2010Prop32
280
     0
102
RTVSPost2010PropOp32
 70
     1
102
RTVSPost2010Prop33
280
     0
102
RTVSPost2010PropOp33
 70
     1
102
RTVSPost2010Prop34
280
     0
102
RTVSPost2010PropOp34
 70
     1
102
RTVSPost2010Prop35
280
     0
102
RTVSPost2010PropOp35
 70
     1
102
RTVSPost2010Prop36
280
     0
102
RTVSPost2010PropOp36
 70
     1
102
RTVSPost2010Prop37
 90
       50
102
RTVSPost2010PropOp37
 70
     1
102
RTVSPost2010Prop38
140
0.0
102
RTVSPost2010PropOp38
 70
     1
102
RTVSPost2010Prop39
140
1.0
102
RTVSPost2010PropOp39
 70
     1
102
RTVSPost2010Prop40
 90
        0
102
RTVSPost2010PropOp40
 70
     1
102
RTVSPost2010Prop41ColorIndex
 90
       18
102
RTVSPost2010Prop41ColorRGB
 90
        0
102
RTVSPost2010PropOp41
 70
     1
102
RTVSPost2010Prop42
 90
       50
102
RTVSPost2010PropOp42
 70
     1
102
RTVSPost2010Prop43
 90
        3
102
RTVSPost2010PropOp43
 70
     1
102
RTVSPost2010Prop44ColorIndex
 90
        5
102
RTVSPost2010Prop44ColorRGB
 90
      255
102
RTVSPost2010PropOp44
 70
     1
102
RTVSPost2010Prop45
280
     0
102
RTVSPost2010PropOp45
 70
     1
102
RTVSPost2010Prop46
 90
       50
102
RTVSPost2010PropOp46
 70
     1
102
RTVSPost2010Prop47
 90
       50
102
RTVSPost2010PropOp47
 70
     1
102
RTVSPost2010Prop48
 90
       50
102
RTVSPost2010PropOp48
 70
     1
102
RTVSPost2010Prop49
280
     0
102
RTVSPost2010PropOp49
 70
     1
102
RTVSPost2010Prop50
 90
       50
102
RTVSPost2010PropOp50
 70
     1
102
RTVSPost2010Prop51ColorIndex
 90
      256
102
RTVSPost2010Prop51ColorRGB
 90
-16777216
102
RTVSPost2010PropOp51
 70
     0
102
RTVSPost2010Prop52
140
1.0
102
RTVSPost2010PropOp52
 70
     0
102
RTVSPost2010Prop53
 90
        2
102
RTVSPost2010PropOp53
 70
     1
102
RTVSPost2010Prop54
  1
strokes_ogs.tif
102
RTVSPost2010PropOp54
 70
     1
102
RTVSPost2010Prop55
280
     0
102
RTVSPost2010PropOp55
 70
     1
102
RTVSPost2010Prop56
140
1.0
102
RTVSPost2010PropOp56
 70
     1
102
RTVSPost2010Prop57
140
1.0
102
RTVSPost2010PropOp57
 70
     1
  0
XRECORD
  5
193
102
{ACAD_REACTORS
330
192
102
}
330
192
100
AcDbXrecord
280
     1
102
RTVSPost2010Prop28
280
     0
102
RTVSPost2010PropOp28
 70
     1
102
RTVSPost2010Prop29
280
     1
102
RTVSPost2010PropOp29
 70
     1
102
RTVSPost2010Prop30
280
     1
102
RTVSPost2010PropOp30
 70
     1
102
RTVSPost2010Prop31
280
     0
102
RTVSPost2010PropOp31
 70
     1
102
RTVSPost2010Prop32
280
     0
102
RTVSPost2010PropOp32
 70
     1
102
RTVSPost2010Prop33
280
     0
102
RTVSPost2010PropOp33
 70
     1
102
RTVSPost2010Prop34
280
     0
102
RTVSPost2010PropOp34
 70
     1
102
RTVSPost2010Prop35
280
     0
102
RTVSPost2010PropOp35
 70
     1
102
RTVSPost2010Prop36
280
     0
102
RTVSPost2010PropOp36
 70
     1
102
RTVSPost2010Prop37
 90
       50
102
RTVSPost2010PropOp37
 70
     1
102
RTVSPost2010Prop38
140
0.0
102
RTVSPost2010PropOp38
 70
     1
102
RTVSPost2010Prop39
140
1.0
102
RTVSPost2010PropOp39
 70
     1
102
RTVSPost2010Prop40
 90
        0
102
RTVSPost2010PropOp40
 70
     1
102
RTVSPost2010Prop41ColorIndex
 90
       18
102
RTVSPost2010Prop41ColorRGB
 90
        0
102
RTVSPost2010PropOp41
 70
     1
102
RTVSPost2010Prop42
 90
       50
102
RTVSPost2010PropOp42
 70
     1
102
RTVSPost2010Prop43
 90
        3
102
RTVSPost2010PropOp43
 70
     1
102
RTVSPost2010Prop44ColorIndex
 90
        5
102
RTVSPost2010Prop44ColorRGB
 90
      255
102
RTVSPost2010PropOp44
 70
     1
102
RTVSPost2010Prop45
280
     0
102
RTVSPost2010PropOp45
 70
     1
102
RTVSPost2010Prop46
 90
       50
102
RTVSPost2010PropOp46
 70
     1
102
RTVSPost2010Prop47
 90
       50
102
RTVSPost2010PropOp47
 70
     1
102
RTVSPost2010Prop48
 90
       50
102
RTVSPost2010PropOp48
 70
     1
102
RTVSPost2010Prop49
280
     0
102
RTVSPost2010PropOp49
 70
     1
102
RTVSPost2010Prop50
 90
       50
102
RTVSPost2010PropOp50
 70
     1
102
RTVSPost2010Prop51ColorIndex
 90
      256
102
RTVSPost2010Prop51ColorRGB
 90
-16777216
102
RTVSPost2010PropOp51
 70
     0
102
RTVSPost2010Prop52
140
1.0
102
RTVSPost2010PropOp52
 70
     0
102
RTVSPost2010Prop53
 90
        2
102
RTVSPost2010PropOp53
 70
     1
102
RTVSPost2010Prop54
  1
strokes_ogs.tif
102
RTVSPost2010PropOp54
 70
     1
102
RTVSPost2010Prop55
280
     0
102
RTVSPost2010PropOp55
 70
     1
102
RTVSPost2010Prop56
140
1.0
102
RTVSPost2010PropOp56
 70
     1
102
RTVSPost2010Prop57
140
1.0
102
RTVSPost2010PropOp57
 70
     1
  0
XRECORD
  5
189
102
{ACAD_REACTORS
330
188
102
}
330
188
100
AcDbXrecord
280
     1
102
RTVSPost2010Prop28
280
     0
102
RTVSPost2010PropOp28
 70
     1
102
RTVSPost2010Prop29
280
     1
102
RTVSPost2010PropOp29
 70
     1
102
RTVSPost2010Prop30
280
     1
102
RTVSPost2010PropOp30
 70
     1
102
RTVSPost2010Prop31
280
     0
102
RTVSPost2010PropOp31
 70
     1
102
RTVSPost2010Prop32
280
     0
102
RTVSPost2010PropOp32
 70
     1
102
RTVSPost2010Prop33
280
     0
102
RTVSPost2010PropOp33
 70
     1
102
RTVSPost2010Prop34
280
     0
102
RTVSPost2010PropOp34
 70
     1
102
RTVSPost2010Prop35
280
     0
102
RTVSPost2010PropOp35
 70
     1
102
RTVSPost2010Prop36
280
     0
102
RTVSPost2010PropOp36
 70
     1
102
RTVSPost2010Prop37
 90
       50
102
RTVSPost2010PropOp37
 70
     1
102
RTVSPost2010Prop38
140
0.0
102
RTVSPost2010PropOp38
 70
     1
102
RTVSPost2010Prop39
140
1.0
102
RTVSPost2010PropOp39
 70
     1
102
RTVSPost2010Prop40
 90
        0
102
RTVSPost2010PropOp40
 70
     1
102
RTVSPost2010Prop41ColorIndex
 90
       18
102
RTVSPost2010Prop41ColorRGB
 90
        0
102
RTVSPost2010PropOp41
 70
     1
102
RTVSPost2010Prop42
 90
       50
102
RTVSPost2010PropOp42
 70
     1
102
RTVSPost2010Prop43
 90
        3
102
RTVSPost2010PropOp43
 70
     1
102
RTVSPost2010Prop44ColorIndex
 90
        5
102
RTVSPost2010Prop44ColorRGB
 90
      255
102
RTVSPost2010PropOp44
 70
     1
102
RTVSPost2010Prop45
280
     0
102
RTVSPost2010PropOp45
 70
     1
102
RTVSPost2010Prop46
 90
       50
102
RTVSPost2010PropOp46
 70
     1
102
RTVSPost2010Prop47
 90
       50
102
RTVSPost2010PropOp47
 70
     1
102
RTVSPost2010Prop48
 90
       50
102
RTVSPost2010PropOp48
 70
     1
102
RTVSPost2010Prop49
280
     0
102
RTVSPost2010PropOp49
 70
     1
102
RTVSPost2010Prop50
 90
       50
102
RTVSPost2010PropOp50
 70
     1
102
RTVSPost2010Prop51ColorIndex
 90
      256
102
RTVSPost2010Prop51ColorRGB
 90
-16777216
102
RTVSPost2010PropOp51
 70
     0
102
RTVSPost2010Prop52
140
1.0
102
RTVSPost2010PropOp52
 70
     0
102
RTVSPost2010Prop53
 90
        2
102
RTVSPost2010PropOp53
 70
     1
102
RTVSPost2010Prop54
  1
strokes_ogs.tif
102
RTVSPost2010PropOp54
 70
     1
102
RTVSPost2010Prop55
280
     0
102
RTVSPost2010PropOp55
 70
     1
102
RTVSPost2010Prop56
140
1.0
102
RTVSPost2010PropOp56
 70
     1
102
RTVSPost2010Prop57
140
1.0
102
RTVSPost2010PropOp57
 70
     1
  0
XRECORD
  5
17D
102
{ACAD_REACTORS
330
17C
102
}
330
17C
100
AcDbXrecord
280
     1
102
RTVSPost2010Prop28
280
     0
102
RTVSPost2010PropOp28
 70
     1
102
RTVSPost2010Prop29
280
     1
102
RTVSPost2010PropOp29
 70
     1
102
RTVSPost2010Prop30
280
     1
102
RTVSPost2010PropOp30
 70
     1
102
RTVSPost2010Prop31
280
     0
102
RTVSPost2010PropOp31
 70
     1
102
RTVSPost2010Prop32
280
     0
102
RTVSPost2010PropOp32
 70
     1
102
RTVSPost2010Prop33
280
     0
102
RTVSPost2010PropOp33
 70
     1
102
RTVSPost2010Prop34
280
     0
102
RTVSPost2010PropOp34
 70
     1
102
RTVSPost2010Prop35
280
     0
102
RTVSPost2010PropOp35
 70
     1
102
RTVSPost2010Prop36
280
     0
102
RTVSPost2010PropOp36
 70
     1
102
RTVSPost2010Prop37
 90
       50
102
RTVSPost2010PropOp37
 70
     1
102
RTVSPost2010Prop38
140
0.0
102
RTVSPost2010PropOp38
 70
     1
102
RTVSPost2010Prop39
140
1.0
102
RTVSPost2010PropOp39
 70
     1
102
RTVSPost2010Prop40
 90
        0
102
RTVSPost2010PropOp40
 70
     1
102
RTVSPost2010Prop41ColorIndex
 90
       18
102
RTVSPost2010Prop41ColorRGB
 90
        0
102
RTVSPost2010PropOp41
 70
     1
102
RTVSPost2010Prop42
 90
       50
102
RTVSPost2010PropOp42
 70
     1
102
RTVSPost2010Prop43
 90
        3
102
RTVSPost2010PropOp43
 70
     1
102
RTVSPost2010Prop44ColorIndex
 90
        5
102
RTVSPost2010Prop44ColorRGB
 90
      255
102
RTVSPost2010PropOp44
 70
     1
102
RTVSPost2010Prop45
280
     0
102
RTVSPost2010PropOp45
 70
     1
102
RTVSPost2010Prop46
 90
       50
102
RTVSPost2010PropOp46
 70
     1
102
RTVSPost2010Prop47
 90
       50
102
RTVSPost2010PropOp47
 70
     1
102
RTVSPost2010Prop48
 90
       50
102
RTVSPost2010PropOp48
 70
     1
102
RTVSPost2010Prop49
280
     0
102
RTVSPost2010PropOp49
 70
     1
102
RTVSPost2010Prop50
 90
       50
102
RTVSPost2010PropOp50
 70
     1
102
RTVSPost2010Prop51ColorIndex
 90
      256
102
RTVSPost2010Prop51ColorRGB
 90
-16777216
102
RTVSPost2010PropOp51
 70
     0
102
RTVSPost2010Prop52
140
1.0
102
RTVSPost2010PropOp52
 70
     0
102
RTVSPost2010Prop53
 90
        2
102
RTVSPost2010PropOp53
 70
     1
102
RTVSPost2010Prop54
  1
strokes_ogs.tif
102
RTVSPost2010PropOp54
 70
     1
102
RTVSPost2010Prop55
280
     0
102
RTVSPost2010PropOp55
 70
     1
102
RTVSPost2010Prop56
140
1.0
102
RTVSPost2010PropOp56
 70
     1
102
RTVSPost2010Prop57
140
1.0
102
RTVSPost2010PropOp57
 70
     1
  0
XRECORD
  5
195
102
{ACAD_REACTORS
330
194
102
}
330
194
100
AcDbXrecord
280
     1
102
RTVSPost2010Prop28
280
     0
102
RTVSPost2010PropOp28
 70
     1
102
RTVSPost2010Prop29
280
     1
102
RTVSPost2010PropOp29
 70
     1
102
RTVSPost2010Prop30
280
     1
102
RTVSPost2010PropOp30
 70
     1
102
RTVSPost2010Prop31
280
     0
102
RTVSPost2010PropOp31
 70
     1
102
RTVSPost2010Prop32
280
     0
102
RTVSPost2010PropOp32
 70
     1
102
RTVSPost2010Prop33
280
     0
102
RTVSPost2010PropOp33
 70
     1
102
RTVSPost2010Prop34
280
     0
102
RTVSPost2010PropOp34
 70
     1
102
RTVSPost2010Prop35
280
     0
102
RTVSPost2010PropOp35
 70
     1
102
RTVSPost2010Prop36
280
     0
102
RTVSPost2010PropOp36
 70
     1
102
RTVSPost2010Prop37
 90
       50
102
RTVSPost2010PropOp37
 70
     1
102
RTVSPost2010Prop38
140
0.0
102
RTVSPost2010PropOp38
 70
     1
102
RTVSPost2010Prop39
140
1.0
102
RTVSPost2010PropOp39
 70
     1
102
RTVSPost2010Prop40
 90
        0
102
RTVSPost2010PropOp40
 70
     1
102
RTVSPost2010Prop41ColorIndex
 90
       18
102
RTVSPost2010Prop41ColorRGB
 90
        0
102
RTVSPost2010PropOp41
 70
     1
102
RTVSPost2010Prop42
 90
       50
102
RTVSPost2010PropOp42
 70
     1
102
RTVSPost2010Prop43
 90
        3
102
RTVSPost2010PropOp43
 70
     1
102
RTVSPost2010Prop44ColorIndex
 90
        5
102
RTVSPost2010Prop44ColorRGB
 90
      255
102
RTVSPost2010PropOp44
 70
     1
102
RTVSPost2010Prop45
280
     0
102
RTVSPost2010PropOp45
 70
     1
102
RTVSPost2010Prop46
 90
       50
102
RTVSPost2010PropOp46
 70
     1
102
RTVSPost2010Prop47
 90
       50
102
RTVSPost2010PropOp47
 70
     1
102
RTVSPost2010Prop48
 90
       50
102
RTVSPost2010PropOp48
 70
     1
102
RTVSPost2010Prop49
280
     0
102
RTVSPost2010PropOp49
 70
     1
102
RTVSPost2010Prop50
 90
       50
102
RTVSPost2010PropOp50
 70
     1
102
RTVSPost2010Prop51ColorIndex
 90
      256
102
RTVSPost2010Prop51ColorRGB
 90
-16777216
102
RTVSPost2010PropOp51
 70
     0
102
RTVSPost2010Prop52
140
1.0
102
RTVSPost2010PropOp52
 70
     0
102
RTVSPost2010Prop53
 90
        2
102
RTVSPost2010PropOp53
 70
     1
102
RTVSPost2010Prop54
  1
strokes_ogs.tif
102
RTVSPost2010PropOp54
 70
     1
102
RTVSPost2010Prop55
280
     0
102
RTVSPost2010PropOp55
 70
     1
102
RTVSPost2010Prop56
140
1.0
102
RTVSPost2010PropOp56
 70
     1
102
RTVSPost2010Prop57
140
1.0
102
RTVSPost2010PropOp57
 70
     1
  0
ENDSEC
  0
EOF
