  0
SECTION
  2
HEADER
  9
$ACADVER
  1
AC1024
  9
$ACADMAINTVER
 70
   226
  9
$DWGCODEPAGE
  3
ANSI_1252
  9
$INSBASE
 10
0.0
 20
0.0
 30
0.0
  9
$EXTMIN
 10
1.000000000000000E+20
 20
1.000000000000000E+20
 30
1.000000000000000E+20
  9
$EXTMAX
 10
-1.000000000000000E+20
 20
-1.000000000000000E+20
 30
-1.000000000000000E+20
  9
$LIMMIN
 10
0.0
 20
0.0
  9
$LIMMAX
 10
12.0
 20
9.0
  9
$ORTHOMODE
 70
     0
  9
$REGENMODE
 70
     1
  9
$FILLMODE
 70
     1
  9
$QTEXTMODE
 70
     0
  9
$MIRRTEXT
 70
     0
  9
$LTSCALE
 40
1.0
  9
$ATTMODE
 70
     1
  9
$TEXTSIZE
 40
0.2
  9
$TRACEWID
 40
0.05
  9
$TEXTSTYLE
  7
Standard
  9
$CLAYER
  8
0
  9
$CELTYPE
  6
ByLayer
  9
$CECOLOR
 62
   256
  9
$CELTSCALE
 40
1.0
  9
$DISPSILH
 70
     0
  9
$DIMSCALE
 40
1.0
  9
$DIMASZ
 40
0.18
  9
$DIMEXO
 40
0.0625
  9
$DIMDLI
 40
0.38
  9
$DIMRND
 40
0.0
  9
$DIMDLE
 40
0.0
  9
$DIMEXE
 40
0.18
  9
$DIMTP
 40
0.0
  9
$DIMTM
 40
0.0
  9
$DIMTXT
 40
0.18
  9
$DIMCEN
 40
0.09
  9
$DIMTSZ
 40
0.0
  9
$DIMTOL
 70
     0
  9
$DIMLIM
 70
     0
  9
$DIMTIH
 70
     1
  9
$DIMTOH
 70
     1
  9
$DIMSE1
 70
     0
  9
$DIMSE2
 70
     0
  9
$DIMTAD
 70
     0
  9
$DIMZIN
 70
     0
  9
$DIMBLK
  1

  9
$DIMASO
 70
     1
  9
$DIMSHO
 70
     1
  9
$DIMPOST
  1

  9
$DIMAPOST
  1

  9
$DIMALT
 70
     0
  9
$DIMALTD
 70
     2
  9
$DIMALTF
 40
25.4
  9
$DIMLFAC
 40
1.0
  9
$DIMTOFL
 70
     0
  9
$DIMTVP
 40
0.0
  9
$DIMTIX
 70
     0
  9
$DIMSOXD
 70
     0
  9
$DIMSAH
 70
     0
  9
$DIMBLK1
  1

  9
$DIMBLK2
  1

  9
$DIMSTYLE
  2
Standard
  9
$DIMCLRD
 70
     0
  9
$DIMCLRE
 70
     0
  9
$DIMCLRT
 70
     0
  9
$DIMTFAC
 40
1.0
  9
$DIMGAP
 40
0.09
  9
$DIMJUST
 70
     0
  9
$DIMSD1
 70
     0
  9
$DIMSD2
 70
     0
  9
$DIMTOLJ
 70
     1
  9
$DIMTZIN
 70
     0
  9
$DIMALTZ
 70
     0
  9
$DIMALTTZ
 70
     0
  9
$DIMUPT
 70
     0
  9
$DIMDEC
 70
     4
  9
$DIMTDEC
 70
     4
  9
$DIMALTU
 70
     2
  9
$DIMALTTD
 70
     2
  9
$DIMTXSTY
  7
Standard
  9
$DIMAUNIT
 70
     0
  9
$DIMADEC
 70
     0
  9
$DIMALTRND
 40
0.0
  9
$DIMAZIN
 70
     0
  9
$DIMDSEP
 70
    46
  9
$DIMATFIT
 70
     3
  9
$DIMFRAC
 70
     0
  9
$DIMLDRBLK
  1

  9
$DIMLUNIT
 70
     2
  9
$DIMLWD
 70
    -2
  9
$DIMLWE
 70
    -2
  9
$DIMTMOVE
 70
     0
  9
$DIMFXL
 40
1.0
  9
$DIMFXLON
 70
     0
  9
$DIMJOGANG
 40
0.7853981633974483
  9
$DIMTFILL
 70
     0
  9
$DIMTFILLCLR
 70
     0
  9
$DIMARCSYM
 70
     0
  9
$DIMLTYPE
  6

  9
$DIMLTEX1
  6

  9
$DIMLTEX2
  6

  9
$DIMTXTDIRECTION
 70
     0
  9
$LUNITS
 70
     2
  9
$LUPREC
 70
     4
  9
$SKETCHINC
 40
0.1
  9
$FILLETRAD
 40
0.0
  9
$AUNITS
 70
     0
  9
$AUPREC
 70
     0
  9
$MENU
  1
.
  9
$ELEVATION
 40
0.0
  9
$PELEVATION
 40
0.0
  9
$THICKNESS
 40
0.0
  9
$LIMCHECK
 70
     0
  9
$CHAMFERA
 40
0.0
  9
$CHAMFERB
 40
0.0
  9
$CHAMFERC
 40
0.0
  9
$CHAMFERD
 40
0.0
  9
$SKPOLY
 70
     0
  9
$TDCREATE
 40
2460298.945891204
  9
$TDUCREATE
 40
2460298.904224537
  9
$TDUPDATE
 40
2460298.945891204
  9
$TDUUPDATE
 40
2460298.904224537
  9
$TDINDWG
 40
0.0000000000
  9
$TDUSRTIMER
 40
0.0000000000
  9
$USRTIMER
 70
     1
  9
$ANGBASE
 50
0.0
  9
$ANGDIR
 70
     0
  9
$PDMODE
 70
     0
  9
$PDSIZE
 40
0.0
  9
$PLINEWID
 40
0.0
  9
$SPLFRAME
 70
     0
  9
$SPLINETYPE
 70
     6
  9
$SPLINESEGS
 70
     8
  9
$HANDSEED
  5
16F
  9
$SURFTAB1
 70
     6
  9
$SURFTAB2
 70
     6
  9
$SURFTYPE
 70
     6
  9
$SURFU
 70
     6
  9
$SURFV
 70
     6
  9
$UCSBASE
  2

  9
$UCSNAME
  2

  9
$UCSORG
 10
0.0
 20
0.0
 30
0.0
  9
$UCSXDIR
 10
1.0
 20
0.0
 30
0.0
  9
$UCSYDIR
 10
0.0
 20
1.0
 30
0.0
  9
$UCSORTHOREF
  2

  9
$UCSORTHOVIEW
 70
     0
  9
$UCSORGTOP
 10
0.0
 20
0.0
 30
0.0
  9
$UCSORGBOTTOM
 10
0.0
 20
0.0
 30
0.0
  9
$UCSORGLEFT
 10
0.0
 20
0.0
 30
0.0
  9
$UCSORGRIGHT
 10
0.0
 20
0.0
 30
0.0
  9
$UCSORGFRONT
 10
0.0
 20
0.0
 30
0.0
  9
$UCSORGBACK
 10
0.0
 20
0.0
 30
0.0
  9
$PUCSBASE
  2

  9
$PUCSNAME
  2

  9
$PUCSORG
 10
0.0
 20
0.0
 30
0.0
  9
$PUCSXDIR
 10
1.0
 20
0.0
 30
0.0
  9
$PUCSYDIR
 10
0.0
 20
1.0
 30
0.0
  9
$PUCSORTHOREF
  2

  9
$PUCSORTHOVIEW
 70
     0
  9
$PUCSORGTOP
 10
0.0
 20
0.0
 30
0.0
  9
$PUCSORGBOTTOM
 10
0.0
 20
0.0
 30
0.0
  9
$PUCSORGLEFT
 10
0.0
 20
0.0
 30
0.0
  9
$PUCSORGRIGHT
 10
0.0
 20
0.0
 30
0.0
  9
$PUCSORGFRONT
 10
0.0
 20
0.0
 30
0.0
  9
$PUCSORGBACK
 10
0.0
 20
0.0
 30
0.0
  9
$USERI1
 70
     0
  9
$USERI2
 70
     0
  9
$USERI3
 70
     0
  9
$USERI4
 70
     0
  9
$USERI5
 70
     0
  9
$USERR1
 40
0.0
  9
$USERR2
 40
0.0
  9
$USERR3
 40
0.0
  9
$USERR4
 40
0.0
  9
$USERR5
 40
0.0
  9
$WORLDVIEW
 70
     1
  9
$SHADEDGE
 70
     3
  9
$SHADEDIF
 70
    70
  9
$TILEMODE
 70
     1
  9
$MAXACTVP
 70
    64
  9
$PINSBASE
 10
0.0
 20
0.0
 30
0.0
  9
$PLIMCHECK
 70
     0
  9
$PEXTMIN
 10
1.000000000000000E+20
 20
1.000000000000000E+20
 30
1.000000000000000E+20
  9
$PEXTMAX
 10
-1.000000000000000E+20
 20
-1.000000000000000E+20
 30
-1.000000000000000E+20
  9
$PLIMMIN
 10
0.0
 20
0.0
  9
$PLIMMAX
 10
12.0
 20
9.0
  9
$UNITMODE
 70
     0
  9
$VISRETAIN
 70
     1
  9
$PLINEGEN
 70
     0
  9
$PSLTSCALE
 70
     1
  9
$TREEDEPTH
 70
  3020
  9
$CMLSTYLE
  2
Standard
  9
$CMLJUST
 70
     0
  9
$CMLSCALE
 40
1.0
  9
$PROXYGRAPHICS
 70
     1
  9
$MEASUREMENT
 70
     0
  9
$CELWEIGHT
370
    -1
  9
$ENDCAPS
280
     0
  9
$JOINSTYLE
280
     0
  9
$LWDISPLAY
290
     1
  9
$INSUNITS
 70
     4
  9
$HYPERLINKBASE
  1

  9
$STYLESHEET
  1

  9
$XEDIT
290
     1
  9
$CEPSNTYPE
380
     0
  9
$PSTYLEMODE
290
     1
  9
$FINGERPRINTGUID
  2
{BC1910B0-281E-8745-B37D-49EC68D3A279}
  9
$VERSIONGUID
  2
{2E643E65-F037-7440-A2BB-2FA72A21458C}
  9
$EXTNAMES
290
     1
  9
$PSVPSCALE
 40
0.0
  9
$OLESTARTUP
290
     0
  9
$SORTENTS
280
   127
  9
$INDEXCTL
280
     0
  9
$HIDETEXT
280
     1
  9
$XCLIPFRAME
280
     2
  9
$HALOGAP
280
     0
  9
$OBSCOLOR
 70
   257
  9
$OBSLTYPE
280
     0
  9
$INTERSECTIONDISPLAY
280
     0
  9
$INTERSECTIONCOLOR
 70
   257
  9
$DIMASSOC
280
     2
  9
$PROJECTNAME
  1

  9
$CAMERADISPLAY
290
     0
  9
$LENSLENGTH
 40
50.0
  9
$CAMERAHEIGHT
 40
0.0
  9
$STEPSPERSEC
 40
2.0
  9
$STEPSIZE
 40
6.0
  9
$3DDWFPREC
 40
2.0
  9
$PSOLWIDTH
 40
0.25
  9
$PSOLHEIGHT
 40
4.0
  9
$LOFTANG1
 40
1.570796326794896
  9
$LOFTANG2
 40
1.570796326794896
  9
$LOFTMAG1
 40
0.0
  9
$LOFTMAG2
 40
0.0
  9
$LOFTPARAM
 70
     7
  9
$LOFTNORMALS
280
     1
  9
$LATITUDE
 40
37.795
  9
$LONGITUDE
 40
-122.394
  9
$NORTHDIRECTION
 40
0.0
  9
$TIMEZONE
 70
 -8000
  9
$LIGHTGLYPHDISPLAY
280
     1
  9
$TILEMODELIGHTSYNCH
280
     1
  9
$CMATERIAL
347
11
  9
$SOLIDHIST
280
     0
  9
$SHOWHIST
280
     1
  9
$DWFFRAME
280
     2
  9
$DGNFRAME
280
     0
  9
$REALWORLDSCALE
290
     1
  9
$INTERFERECOLOR
 62
     1
  9
$INTERFEREOBJVS
345
33
  9
$INTERFEREVPVS
346
30
  9
$CSHADOW
280
     0
  9
$SHADOWPLANELOCATION
 40
0.0
  0
ENDSEC
  0
SECTION
  2
CLASSES
  0
CLASS
  1
ACDBDICTIONARYWDFLT
  2
AcDbDictionaryWithDefault
  3
ObjectDBX Classes
 90
        0
 91
        1
280
     0
281
     0
  0
CLASS
  1
MATERIAL
  2
AcDbMaterial
  3
ObjectDBX Classes
 90
     1153
 91
        3
280
     0
281
     0
  0
CLASS
  1
VISUALSTYLE
  2
AcDbVisualStyle
  3
ObjectDBX Classes
 90
     4095
 91
       24
280
     0
281
     0
  0
CLASS
  1
SCALE
  2
AcDbScale
  3
ObjectDBX Classes
 90
     1153
 91
       17
280
     0
281
     0
  0
CLASS
  1
TABLESTYLE
  2
AcDbTableStyle
  3
ObjectDBX Classes
 90
     4095
 91
        1
280
     0
281
     0
  0
CLASS
  1
MLEADERSTYLE
  2
AcDbMLeaderStyle
  3
ACDB_MLEADERSTYLE_CLASS
 90
     4095
 91
        1
280
     0
281
     0
  0
CLASS
  1
ACDBSECTIONVIEWSTYLE
  2
AcDbSectionViewStyle
  3
ObjectDBX Classes
 90
     1025
 91
        1
280
     0
281
     0
  0
CLASS
  1
ACDBDETAILVIEWSTYLE
  2
AcDbDetailViewStyle
  3
ObjectDBX Classes
 90
     1025
 91
        1
280
     0
281
     0
  0
CLASS
  1
DICTIONARYVAR
  2
AcDbDictionaryVar
  3
ObjectDBX Classes
 90
        0
 91
        5
280
     0
281
     0
  0
CLASS
  1
CELLSTYLEMAP
  2
AcDbCellStyleMap
  3
ObjectDBX Classes
 90
     1152
 91
        1
280
     0
281
     0
  0
ENDSEC
  0
SECTION
  2
TABLES
  0
TABLE
  2
VPORT
  5
8
330
0
100
AcDbSymbolTable
 70
     1
  0
VPORT
  5
57
330
8
100
AcDbSymbolTableRecord
100
AcDbViewportTableRecord
  2
*Active
 70
     0
 10
0.0
 20
0.0
 11
1.0
 21
1.0
 12
0.0
 22
0.0
 13
0.0
 23
0.0
 14
1.0
 24
1.0
 15
0.0
 25
0.0
 16
0.0
 26
0.0
 36
1.0
 17
104.9999970067687
 27
148.5000119155985
 37
0.0
 40
302.940024307821
 41
0.7070706301791173
 42
50.0
 43
0.0
 44
0.0
 50
0.0
 51
0.0
 71
     0
 72
   100
 73
     1
 74
     1
 75
     0
 76
     0
 77
     0
 78
     0
281
     0
 65
     1
110
0.0
120
0.0
130
0.0
111
1.0
121
0.0
131
0.0
112
0.0
122
1.0
132
0.0
 79
     0
146
0.0
 60
     3
 61
     5
292
     1
282
     1
141
0.0
142
0.0
 63
   250
421
  3355443
  0
ENDTAB
  0
TABLE
  2
LTYPE
  5
5
330
0
100
AcDbSymbolTable
 70
     1
  0
LTYPE
  5
5B
330
5
100
AcDbSymbolTableRecord
100
AcDbLinetypeTableRecord
  2
ByBlock
 70
     0
  3

 72
    65
 73
     0
 40
0.0
  0
LTYPE
  5
5C
330
5
100
AcDbSymbolTableRecord
100
AcDbLinetypeTableRecord
  2
ByLayer
 70
     0
  3

 72
    65
 73
     0
 40
0.0
  0
LTYPE
  5
5D
330
5
100
AcDbSymbolTableRecord
100
AcDbLinetypeTableRecord
  2
Continuous
 70
     0
  3
Solid line
 72
    65
 73
     0
 40
0.0
  0
ENDTAB
  0
TABLE
  2
LAYER
  5
2
330
0
100
AcDbSymbolTable
 70
     7
  0
LAYER
  5
54
330
2
100
AcDbSymbolTableRecord
100
AcDbLayerTableRecord
  2
0
 70
     0
 62
     7
  6
Continuous
370
     0
390
F
347
21
  0
LAYER
  5
78
330
2
100
AcDbSymbolTableRecord
100
AcDbLayerTableRecord
  2
CAJETIN
 70
     0
 62
     7
  6
Continuous
370
     0
390
F
347
21
  0
LAYER
  5
79
330
2
100
AcDbSymbolTableRecord
100
AcDbLayerTableRecord
  2
TITULOS
 70
     0
 62
     7
  6
Continuous
370
     0
390
F
347
21
  0
LAYER
  5
7A
330
2
100
AcDbSymbolTableRecord
100
AcDbLayerTableRecord
  2
TEXTO
 70
     0
 62
     7
  6
Continuous
370
     0
390
F
347
21
  0
LAYER
  5
7B
330
2
100
AcDbSymbolTableRecord
100
AcDbLayerTableRecord
  2
REVISÕES
 70
     0
 62
     7
  6
Continuous
370
     0
390
F
347
21
  0
LAYER
  5
11B
330
2
100
AcDbSymbolTableRecord
100
AcDbLayerTableRecord
  2
COTAS
 70
     0
 62
     7
  6
Continuous
370
     0
390
F
347
21
  0
LAYER
  5
12B
330
2
100
AcDbSymbolTableRecord
100
AcDbLayerTableRecord
  2
Capa 7
 70
     0
 62
     7
  6
Continuous
370
     0
390
F
347
21
  0
ENDTAB
  0
TABLE
  2
STYLE
  5
3
330
0
100
AcDbSymbolTable
 70
     2
  0
STYLE
  5
55
330
3
100
AcDbSymbolTableRecord
100
AcDbTextStyleTableRecord
  2
Standard
 70
     0
 40
0.0
 41
1.0
 50
0.0
 71
     0
 42
0.2
  3
txt
  4

  0
STYLE
  5
5A
330
3
100
AcDbSymbolTableRecord
100
AcDbTextStyleTableRecord
  2
Annotative
 70
     0
 40
0.0
 41
1.0
 50
0.0
 71
     0
 42
0.2
  3
txt
  4

1001
AcadAnnotative
1000
AnnotativeData
1002
{
1070
     1
1070
     1
1002
}
  0
ENDTAB
  0
TABLE
  2
VIEW
  5
6
330
0
100
AcDbSymbolTable
 70
     0
  0
ENDTAB
  0
TABLE
  2
UCS
  5
7
330
0
100
AcDbSymbolTable
 70
     0
  0
ENDTAB
  0
TABLE
  2
APPID
  5
9
330
0
100
AcDbSymbolTable
 70
     2
  0
APPID
  5
56
330
9
100
AcDbSymbolTableRecord
100
AcDbRegAppTableRecord
  2
ACAD
 70
     0
  0
APPID
  5
5E
330
9
100
AcDbSymbolTableRecord
100
AcDbRegAppTableRecord
  2
AcadAnnotative
 70
     0
  0
ENDTAB
  0
TABLE
  2
DIMSTYLE
  5
A
330
0
100
AcDbSymbolTable
 70
     2
100
AcDbDimStyleTable
 71
     0
  0
DIMSTYLE
105
58
330
A
100
AcDbSymbolTableRecord
100
AcDbDimStyleTableRecord
  2
Standard
 70
     0
340
55
  0
DIMSTYLE
105
59
330
A
100
AcDbSymbolTableRecord
100
AcDbDimStyleTableRecord
  2
Annotative
 70
     0
340
55
1001
AcadAnnotative
1000
AnnotativeData
1002
{
1070
     1
1070
     1
1002
}
  0
ENDTAB
  0
TABLE
  2
BLOCK_RECORD
  5
1
330
0
100
AcDbSymbolTable
 70
     1
  0
BLOCK_RECORD
  5
70
330
1
100
AcDbSymbolTableRecord
100
AcDbBlockTableRecord
  2
*Model_Space
340
73
 70
     0
280
     1
281
     0
  0
BLOCK_RECORD
  5
6C
330
1
100
AcDbSymbolTableRecord
100
AcDbBlockTableRecord
  2
*Paper_Space
340
6F
 70
     0
280
     1
281
     0
  0
BLOCK_RECORD
  5
74
330
1
100
AcDbSymbolTableRecord
100
AcDbBlockTableRecord
  2
*Paper_Space0
340
77
 70
     0
280
     1
281
     0
  0
ENDTAB
  0
ENDSEC
  0
SECTION
  2
BLOCKS
  0
BLOCK
  5
71
330
70
100
AcDbEntity
  8
0
100
AcDbBlockBegin
  2
*Model_Space
 70
     0
 10
0.0
 20
0.0
 30
0.0
  3
*Model_Space
  1

  0
ENDBLK
  5
72
330
70
100
AcDbEntity
  8
0
100
AcDbBlockEnd
  0
BLOCK
  5
6D
330
6C
100
AcDbEntity
 67
     1
  8
0
100
AcDbBlockBegin
  2
*Paper_Space
 70
     0
 10
0.0
 20
0.0
 30
0.0
  3
*Paper_Space
  1

  0
ENDBLK
  5
6E
330
6C
100
AcDbEntity
 67
     1
  8
0
100
AcDbBlockEnd
  0
BLOCK
  5
75
330
74
100
AcDbEntity
 67
     1
  8
0
100
AcDbBlockBegin
  2
*Paper_Space0
 70
     0
 10
0.0
 20
0.0
 30
0.0
  3
*Paper_Space0
  1

  0
ENDBLK
  5
76
330
74
100
AcDbEntity
 67
     1
  8
0
100
AcDbBlockEnd
  0
ENDSEC
  0
SECTION
  2
ENTITIES
  0
SPLINE
  5
7C
330
70
100
AcDbEntity
  8
0
 62
    98
420
   131843
370
     9
100
AcDbSpline
210
0.0
220
0.0
230
1.0
 70
     8
 71
     3
 72
    23
 73
    19
 74
     0
 42
0.0000000001
 43
0.0000000001
 40
0.0
 40
0.0
 40
0.0
 40
0.0
 40
1.0
 40
1.0
 40
1.0
 40
2.0
 40
2.0
 40
2.0
 40
3.0
 40
3.0
 40
3.0
 40
4.0
 40
4.0
 40
4.0
 40
5.0
 40
5.0
 40
5.0
 40
6.0
 40
6.0
 40
6.0
 40
6.0
 10
92.29397874283824
 20
131.5778100757782
 30
0.0
 10
92.3201058286043
 20
131.5644211066265
 30
0.0
 10
92.34623291437168
 20
131.5510321374722
 30
0.0
 10
92.37366837345252
 20
131.5401621620861
 30
0.0
 10
92.41184346060483
 20
131.5250371278503
 30
0.0
 10
92.45255173498286
 20
131.5147892053254
 30
0.0
 10
92.49408267012572
 20
131.5082085925697
 30
0.0
 10
92.53719597161396
 20
131.5013772524905
 30
0.0
 10
92.58119581635142
 20
131.4984980015995
 30
0.0
 10
92.62498540396576
 20
131.4999526547523
 30
0.0
 10
92.67044328670932
 20
131.5014627272595
 30
0.0
 10
92.71567458640246
 20
131.5076432203172
 30
0.0
 10
92.75940859286306
 20
131.5182138446594
 30
0.0
 10
92.80047144615384
 20
131.5281388442554
 30
0.0
 10
92.8402143217907
 20
131.5419340778637
 30
0.0
 10
92.87718782997892
 20
131.5603426776909
 30
0.0
 10
92.88832201510079
 20
131.5658862349154
 30
0.0
 10
92.89920506007897
 20
131.5718481553468
 30
0.0
 10
92.91008810505585
 20
131.5778100757782
 30
0.0
  0
LINE
  5
7D
330
70
100
AcDbEntity
  8
0
 62
    98
420
   131843
370
     9
100
AcDbLine
 10
92.91008810505585
 20
131.5778100757782
 30
0.0
 11
151.6156140294885
 21
165.4677888234718
 31
0.0
  0
LINE
  5
7E
330
70
100
AcDbEntity
  8
0
 62
    98
420
   131843
370
     9
100
AcDbLine
 10
59.57648337396423
 20
150.4652181224498
 30
0.0
 11
92.29397874283824
 21
131.5778100757782
 31
0.0
  0
SPLINE
  5
7F
330
70
100
AcDbEntity
  8
0
 62
    98
420
   131843
370
     9
100
AcDbSpline
210
0.0
220
0.0
230
1.0
 70
     8
 71
     3
 72
     8
 73
     4
 74
     0
 42
0.0000000001
 43
0.0000000001
 40
0.0
 40
0.0
 40
0.0
 40
0.0
 40
1.0
 40
1.0
 40
1.0
 40
1.0
 10
59.30183047977035
 20
161.6342725443959
 30
0.0
 10
59.13318895967278
 20
161.5369178670949
 30
0.0
 10
59.03171049171437
 20
161.3547459622506
 30
0.0
 10
59.03770089550157
 20
161.1601129471796
 30
0.0
  0
LINE
  5
80
330
70
100
AcDbEntity
  8
0
 62
    98
420
   131843
370
     9
100
AcDbLine
 10
118.4363855416385
 20
195.7719245412552
 30
0.0
 11
59.30183047977035
 21
161.6342725443959
 31
0.0
  0
LINE
  5
81
330
70
100
AcDbEntity
  8
0
 62
    98
420
   131843
370
     9
100
AcDbLine
 10
59.03770089550157
 20
161.1601129471796
 30
0.0
 11
59.3561226825209
 21
150.8143341500868
 31
0.0
  0
SPLINE
  5
82
330
70
100
AcDbEntity
  8
0
 62
    98
420
   131843
370
     9
100
AcDbSpline
210
0.0
220
0.0
230
1.0
 70
     8
 71
     3
 72
    20
 73
    16
 74
     0
 42
0.0000000001
 43
0.0000000001
 40
0.0
 40
0.0
 40
0.0
 40
0.0
 40
1.0
 40
1.0
 40
1.0
 40
2.0
 40
2.0
 40
2.0
 40
3.0
 40
3.0
 40
3.0
 40
4.0
 40
4.0
 40
4.0
 40
5.0
 40
5.0
 40
5.0
 40
5.0
 10
59.35989533192299
 20
150.8114526316239
 30
0.0
 10
59.36107253165483
 20
150.7846692802527
 30
0.0
 10
59.36224973138537
 20
150.757885928879
 30
0.0
 10
59.36757505891393
 20
150.73189977619
 30
0.0
 10
59.37471941536315
 20
150.6970372561773
 30
0.0
 10
59.38932973268119
 20
150.6636095651934
 30
0.0
 10
59.40727189059643
 20
150.6325783249145
 30
0.0
 10
59.42456971067874
 20
150.6026614769113
 30
0.0
 10
59.4449643625569
 20
150.5749720478158
 30
0.0
 10
59.46835990422254
 20
150.5499847955335
 30
0.0
 10
59.4920367617341
 20
150.5246970881386
 30
0.0
 10
59.51878711033497
 20
150.5021769320146
 30
0.0
 10
59.54777032527687
 20
150.4830911252168
 30
0.0
 10
59.5571842965155
 20
150.4768919083025
 30
0.0
 10
59.56683383523923
 20
150.4710550153749
 30
0.0
 10
59.57648337396423
 20
150.4652181224498
 30
0.0
  0
SPLINE
  5
83
330
70
100
AcDbEntity
  8
0
 62
    98
420
   131843
370
     9
100
AcDbSpline
210
0.0
220
0.0
230
1.0
 70
     8
 71
     3
 72
     8
 73
     4
 74
     0
 42
0.0000000001
 43
0.0000000001
 40
0.0
 40
0.0
 40
0.0
 40
0.0
 40
1.0
 40
1.0
 40
1.0
 40
1.0
 10
152.472053092709
 20
176.3308211289287
 30
0.0
 10
152.4726958618431
 20
176.3414487021894
 30
0.0
 10
152.473017466386
 20
176.3520932662881
 30
0.0
 10
152.473017466386
 20
176.3627402595512
 30
0.0
  0
SPLINE
  5
84
330
70
100
AcDbEntity
  8
0
 62
    98
420
   131843
370
     9
100
AcDbSpline
210
0.0
220
0.0
230
1.0
 70
     8
 71
     3
 72
     8
 73
     4
 74
     0
 42
0.0000000001
 43
0.0000000001
 40
0.0
 40
0.0
 40
0.0
 40
0.0
 40
1.0
 40
1.0
 40
1.0
 40
1.0
 10
152.473017466386
 20
176.3627402595512
 30
0.0
 10
152.473017466386
 20
176.5516414021131
 30
0.0
 10
152.372235257675
 20
176.726191851265
 30
0.0
 10
152.2086376380536
 20
176.8206347467962
 30
0.0
  0
LINE
  5
85
330
70
100
AcDbEntity
  8
0
 62
    98
420
   131843
370
     9
100
AcDbLine
 10
151.8354620193879
 20
165.8053962046403
 30
0.0
 11
152.472053092709
 21
176.3308211289287
 31
0.0
  0
LINE
  5
86
330
70
100
AcDbEntity
  8
0
 62
    98
420
   131843
370
     9
100
AcDbLine
 10
152.2086376380536
 20
176.8206347467962
 30
0.0
 11
119.1665844083301
 21
195.8956041955969
 31
0.0
  0
SPLINE
  5
87
330
70
100
AcDbEntity
  8
0
 62
    98
420
   131843
370
     9
100
AcDbSpline
210
0.0
220
0.0
230
1.0
 70
     8
 71
     3
 72
    17
 73
    13
 74
     0
 42
0.0000000001
 43
0.0000000001
 40
0.0
 40
0.0
 40
0.0
 40
0.0
 40
1.0
 40
1.0
 40
1.0
 40
2.0
 40
2.0
 40
2.0
 40
3.0
 40
3.0
 40
3.0
 40
4.0
 40
4.0
 40
4.0
 40
4.0
 10
151.6156140294885
 20
165.4677888234718
 30
0.0
 10
151.6425629758195
 20
165.485344430754
 30
0.0
 10
151.6695119221556
 20
165.5029000380361
 30
0.0
 10
151.6937737156728
 20
165.5236508940787
 30
0.0
 10
151.7216179788202
 20
165.5474657985977
 30
0.0
 10
151.7459229367264
 20
165.5754892321664
 30
0.0
 10
151.7668235678583
 20
165.6061047017487
 30
0.0
 10
151.7872216662583
 20
165.6359840559779
 30
0.0
 10
151.80437717642
 20
165.6683322993776
 30
0.0
 10
151.8151237094708
 20
165.702596647115
 30
0.0
 10
151.8248798372632
 20
165.7337031773339
 30
0.0
 10
151.8293538613539
 20
165.7663889083544
 30
0.0
 10
151.8338278854446
 20
165.7990746393774
 30
0.0
  0
SPLINE
  5
88
330
70
100
AcDbEntity
  8
0
 62
    98
420
   131843
370
     9
100
AcDbSpline
210
0.0
220
0.0
230
1.0
 70
     8
 71
     3
 72
    20
 73
    16
 74
     0
 42
0.0000000001
 43
0.0000000001
 40
0.0
 40
0.0
 40
0.0
 40
0.0
 40
1.0
 40
1.0
 40
1.0
 40
2.0
 40
2.0
 40
2.0
 40
3.0
 40
3.0
 40
3.0
 40
4.0
 40
4.0
 40
4.0
 40
5.0
 40
5.0
 40
5.0
 40
5.0
 10
116.5234993117239
 20
183.5470799974685
 30
0.0
 10
116.5223888625734
 20
183.5694225207566
 30
0.0
 10
116.5212784134281
 20
183.5917650440446
 30
0.0
 10
116.5170406224812
 20
183.6135034214759
 30
0.0
 10
116.5102362162665
 20
183.6484076327342
 30
0.0
 10
116.4953691795551
 20
183.6817542896477
 30
0.0
 10
116.477347656549
 20
183.712741904808
 30
0.0
 10
116.459959372892
 20
183.742640678729
 30
0.0
 10
116.4396343925271
 20
183.7703432820212
 30
0.0
 10
116.4162718586305
 20
183.7953408628884
 30
0.0
 10
116.392609640194
 20
183.8206591019746
 30
0.0
 10
116.3658314395434
 20
183.8432024758017
 30
0.0
 10
116.3368337372704
 20
183.862316828974
 30
0.0
 10
116.3273169052487
 20
183.8685900187101
 30
0.0
 10
116.3175610098207
 20
183.8744938672651
 30
0.0
 10
116.3078051143954
 20
183.8803977158174
 30
0.0
  0
LINE
  5
89
330
70
100
AcDbEntity
  8
0
 62
    98
420
   131843
370
     9
100
AcDbLine
 10
116.5336517005753
 20
183.4592530653593
 30
0.0
 11
116.5278398645475
 21
183.5451246968188
 31
0.0
  0
LINE
  5
8A
330
70
100
AcDbEntity
  8
0
 62
    98
420
   131843
370
     9
100
AcDbLine
 10
116.3078051143954
 20
183.8803977158174
 30
0.0
 11
110.246646745487
 21
187.3870444434706
 31
0.0
  0
LINE
  5
8B
330
70
100
AcDbEntity
  8
0
 62
    98
420
   131843
370
     9
100
AcDbLine
 10
118.6440978329698
 20
195.8918342946894
 30
0.0
 11
118.4363855416385
 21
195.7719245412552
 31
0.0
  0
SPLINE
  5
8C
330
70
100
AcDbEntity
  8
0
 62
    98
420
   131843
370
     9
100
AcDbSpline
210
0.0
220
0.0
230
1.0
 70
     8
 71
     3
 72
     8
 73
     4
 74
     0
 42
0.0000000001
 43
0.0000000001
 40
0.0
 40
0.0
 40
0.0
 40
0.0
 40
1.0
 40
1.0
 40
1.0
 40
1.0
 10
119.1727715548058
 20
195.8918342946894
 30
0.0
 10
119.0091969615919
 20
195.9862638973607
 30
0.0
 10
118.8076724261811
 20
195.9862638973607
 30
0.0
 10
118.6440978329698
 20
195.8918342946894
 30
0.0
  0
LINE
  5
8D
330
70
100
AcDbEntity
  8
0
 62
    98
420
   131843
370
     9
100
AcDbLine
 10
93.21901054336203
 20
130.0161903529555
 30
0.0
 11
152.5130727315787
 21
164.2459238538473
 31
0.0
  0
LINE
  5
8E
330
70
100
AcDbEntity
  8
0
 62
    98
420
   131843
370
     9
100
AcDbLine
 10
93.16614197171611
 20
130.2298671396382
 30
0.0
 11
93.11327268847088
 21
130.1993463520741
 31
0.0
  0
LINE
  5
8F
330
70
100
AcDbEntity
  8
0
 62
    98
420
   131843
370
     9
100
AcDbLine
 10
92.43446544806749
 20
131.5240288323741
 30
0.0
 11
91.99607805522559
 21
131.2709531773516
 31
0.0
  0
SPLINE
  5
90
330
70
100
AcDbEntity
  8
0
 62
    98
420
   131843
370
     9
100
AcDbSpline
210
0.0
220
0.0
230
1.0
 70
     8
 71
     3
 72
     8
 73
     4
 74
     0
 42
0.0000000001
 43
0.0000000001
 40
0.0
 40
0.0
 40
0.0
 40
0.0
 40
1.0
 40
1.0
 40
1.0
 40
1.0
 10
92.2284020125325
 20
141.8744189193454
 30
0.0
 10
92.46068101578517
 20
141.7450077135879
 30
0.0
 10
92.74338583207685
 20
141.7450077135879
 30
0.0
 10
92.97566483532824
 20
141.8744189193454
 30
0.0
  0
SPLINE
  5
91
330
70
100
AcDbEntity
  8
0
 62
    98
420
   131843
370
     9
100
AcDbSpline
210
0.0
220
0.0
230
1.0
 70
     8
 71
     3
 72
     8
 73
     4
 74
     0
 42
0.0000000001
 43
0.0000000001
 40
0.0
 40
0.0
 40
0.0
 40
0.0
 40
1.0
 40
1.0
 40
1.0
 40
1.0
 10
152.317932188534
 20
176.1319806696465
 30
0.0
 10
152.3116099991881
 20
176.4012838148339
 30
0.0
 10
152.1714921471497
 20
176.6497239615556
 30
0.0
 10
151.9443007771368
 20
176.7944590142469
 30
0.0
  0
LINE
  5
92
330
70
100
AcDbEntity
  8
0
 62
    98
420
   131843
370
     9
100
AcDbLine
 10
152.317932188534
 20
176.1319806696465
 30
0.0
 11
92.97566483532824
 21
141.8744189193454
 31
0.0
  0
LINE
  5
93
330
70
100
AcDbEntity
  8
0
 62
    98
420
   131843
370
     9
100
AcDbLine
 10
92.60203342392973
 20
142.5368972639457
 30
0.0
 11
151.9443007771368
 21
176.7944590142469
 31
0.0
  0
SPLINE
  5
94
330
70
100
AcDbEntity
  8
0
 62
    98
420
   131843
370
     9
100
AcDbSpline
210
0.0
220
0.0
230
1.0
 70
     8
 71
     3
 72
    17
 73
    13
 74
     0
 42
0.0000000001
 43
0.0000000001
 40
0.0
 40
0.0
 40
0.0
 40
0.0
 40
1.0
 40
1.0
 40
1.0
 40
2.0
 40
2.0
 40
2.0
 40
3.0
 40
3.0
 40
3.0
 40
4.0
 40
4.0
 40
4.0
 40
4.0
 10
69.9158602643776
 20
155.6294176918909
 30
0.0
 10
70.06528048912271
 20
155.5430154363181
 30
0.0
 10
70.21470071386268
 20
155.4566131807479
 30
0.0
 10
70.36412539318371
 20
155.3702134687725
 30
0.0
 10
70.9618241131334
 20
155.0246146193387
 30
0.0
 10
71.55959410634898
 20
154.6790564674795
 30
0.0
 10
72.15740830059653
 20
154.3335241302204
 30
0.0
 10
74.54866516849365
 20
152.9513947286469
 30
0.0
 10
76.94062925292524
 20
151.5696783607439
 30
0.0
 10
79.33331338779376
 20
150.1883917808396
 30
0.0
 10
83.23594474662636
 20
147.9354189610258
 30
0.0
 10
87.14049171608108
 20
145.6835895423089
 30
0.0
 10
91.04503868553454
 20
143.4317601235894
 30
0.0
  0
SPLINE
  5
95
330
70
100
AcDbEntity
  8
0
 62
    98
420
   131843
370
     9
100
AcDbSpline
210
0.0
220
0.0
230
1.0
 70
     8
 71
     3
 72
    14
 73
    10
 74
     0
 42
0.0000000001
 43
0.0000000001
 40
0.0
 40
0.0
 40
0.0
 40
0.0
 40
1.0
 40
1.0
 40
1.0
 40
2.0
 40
2.0
 40
2.0
 40
3.0
 40
3.0
 40
3.0
 40
3.0
 10
91.04503868553454
 20
143.4317601235894
 30
0.0
 10
91.06577155054479
 20
143.4199767254224
 30
0.0
 10
91.08650441555248
 20
143.4081933272503
 30
0.0
 10
91.10754247093437
 20
143.3965947277725
 30
0.0
 10
91.12859253421735
 20
143.3849895081551
 30
0.0
 10
91.14994813636201
 20
143.3735692982432
 30
0.0
 10
91.17152038980524
 20
143.3622848949055
 30
0.0
 10
91.17411864963729
 20
143.3609257502973
 30
0.0
 10
91.17672005240599
 20
143.3595685758207
 30
0.0
 10
91.17932145517471
 20
143.3582114013415
 30
0.0
  0
LINE
  5
96
330
70
100
AcDbEntity
  8
0
 62
    98
420
   131843
370
     9
100
AcDbLine
 10
91.17932145517471
 20
143.3582114013415
 30
0.0
 11
92.60203342392973
 21
142.5368972639457
 31
0.0
  0
LINE
  5
97
330
70
100
AcDbEntity
  8
0
 62
    98
420
   131843
370
     9
100
AcDbLine
 10
92.2284020125325
 20
141.8744189193454
 30
0.0
 11
59.19253592928988
 21
160.9456184672437
 31
0.0
  0
SPLINE
  5
98
330
70
100
AcDbEntity
  8
0
 62
    98
420
   131843
370
     9
100
AcDbSpline
210
0.0
220
0.0
230
1.0
 70
     8
 71
     3
 72
     8
 73
     4
 74
     0
 42
0.0000000001
 43
0.0000000001
 40
0.0
 40
0.0
 40
0.0
 40
0.0
 40
1.0
 40
1.0
 40
1.0
 40
1.0
 10
59.56616734068711
 20
161.6080968118466
 30
0.0
 10
59.33897597067555
 20
161.4633617591553
 30
0.0
 10
59.19885811863716
 20
161.2149216124286
 30
0.0
 10
59.19253592928988
 20
160.9456184672437
 30
0.0
  0
LINE
  5
99
330
70
100
AcDbEntity
  8
0
 62
    98
420
   131843
370
     9
100
AcDbLine
 10
59.56616734068711
 20
161.6080968118466
 30
0.0
 11
69.80156813631548
 21
155.6993257042761
 31
0.0
  0
SPLINE
  5
9A
330
70
100
AcDbEntity
  8
0
 62
    98
420
   131843
370
     9
100
AcDbSpline
210
0.0
220
0.0
230
1.0
 70
     8
 71
     3
 72
    14
 73
    10
 74
     0
 42
0.0000000001
 43
0.0000000001
 40
0.0
 40
0.0
 40
0.0
 40
0.0
 40
1.0
 40
1.0
 40
1.0
 40
2.0
 40
2.0
 40
2.0
 40
3.0
 40
3.0
 40
3.0
 40
3.0
 10
69.80156813631548
 20
155.6993257042761
 30
0.0
 10
69.80369929332667
 20
155.6979503981002
 30
0.0
 10
69.80583045033914
 20
155.6965750919244
 30
0.0
 10
69.80796521494639
 20
155.6952015468377
 30
0.0
 10
69.82543807774658
 20
155.6839591996825
 30
0.0
 10
69.84315262357256
 20
155.6728348330308
 30
0.0
 10
69.86118180249603
 20
155.6618868098748
 30
0.0
 10
69.87919849157677
 20
155.6509463710445
 30
0.0
 10
69.89752937797847
 20
155.640182031469
 30
0.0
 10
69.9158602643776
 20
155.6294176918909
 30
0.0
  0
LINE
  5
9B
330
70
100
AcDbEntity
  8
0
 62
    98
420
   131843
370
     9
100
AcDbLine
 10
92.97566483532824
 20
141.8744189193454
 30
0.0
 11
92.97566483534492
 21
131.7140910141834
 31
0.0
  0
SPLINE
  5
9C
330
70
100
AcDbEntity
  8
0
 62
    98
420
   131843
370
     9
100
AcDbSpline
210
0.0
220
0.0
230
1.0
 70
     8
 71
     3
 72
     8
 73
     4
 74
     0
 42
0.0000000001
 43
0.0000000001
 40
0.0
 40
0.0
 40
0.0
 40
0.0
 40
1.0
 40
1.0
 40
1.0
 40
1.0
 10
92.22840201255046
 20
131.7140910141834
 30
0.0
 10
92.43482651509397
 20
131.5901163273451
 30
0.0
 10
92.76924033280012
 20
131.5901163273451
 30
0.0
 10
92.97566483534492
 20
131.7140910141834
 30
0.0
  0
LINE
  5
9D
330
70
100
AcDbEntity
  8
0
 62
    98
420
   131843
370
     9
100
AcDbLine
 10
92.22840201255046
 20
131.7140910141834
 30
0.0
 11
92.2284020125325
 21
141.8744189193454
 31
0.0
  0
SPLINE
  5
9E
330
70
100
AcDbEntity
  8
0
 62
    98
420
   131843
370
     9
100
AcDbSpline
210
0.0
220
0.0
230
1.0
 70
     8
 71
     3
 72
     8
 73
     4
 74
     0
 42
0.0000000001
 43
0.0000000001
 40
0.0
 40
0.0
 40
0.0
 40
0.0
 40
1.0
 40
1.0
 40
1.0
 40
1.0
 10
91.34885151769251
 20
143.2850042797484
 30
0.0
 10
92.17479356484338
 20
142.965619544272
 30
0.0
 10
93.13309385776257
 20
142.9625228715598
 30
0.0
 10
93.67866720666501
 20
143.2774756619236
 30
0.0
  0
LINE
  5
9F
330
70
100
AcDbEntity
  8
0
 62
    98
420
   131843
370
     9
100
AcDbLine
 10
150.6614423644734
 20
176.1729315610599
 30
0.0
 11
93.67866720666501
 21
143.2774756619236
 31
0.0
  0
SPLINE
  5
A0
330
70
100
AcDbEntity
  8
0
 62
    98
420
   131843
370
     9
100
AcDbSpline
210
0.0
220
0.0
230
1.0
 70
     8
 71
     3
 72
     8
 73
     4
 74
     0
 42
0.0000000001
 43
0.0000000001
 40
0.0
 40
0.0
 40
0.0
 40
0.0
 40
1.0
 40
1.0
 40
1.0
 40
1.0
 10
150.6614423644734
 20
176.1729315610599
 30
0.0
 10
151.1466457969344
 20
176.4530335404805
 30
0.0
 10
151.2012370659658
 20
176.9262442422678
 30
0.0
 10
150.7996425180217
 20
177.3708848750066
 30
0.0
  0
SPLINE
  5
A1
330
70
100
AcDbEntity
  8
0
 62
    98
420
   131843
370
     9
100
AcDbSpline
210
0.0
220
0.0
230
1.0
 70
     8
 71
     3
 72
    11
 73
     7
 74
     0
 42
0.0000000001
 43
0.0000000001
 40
0.0
 40
0.0
 40
0.0
 40
0.0
 40
1.0
 40
1.0
 40
1.0
 40
2.0
 40
2.0
 40
2.0
 40
2.0
 10
150.4410214950537
 20
177.6533129176369
 30
0.0
 10
150.5092623272733
 20
177.6106507498911
 30
0.0
 10
150.5775031594903
 20
177.5679885821427
 30
0.0
 10
150.6367351932823
 20
177.5215073652594
 30
0.0
 10
150.6973212156411
 20
177.4739636314872
 30
0.0
 10
150.7484818668314
 20
177.4224242532482
 30
0.0
 10
150.7996425180217
 20
177.3708848750066
 30
0.0
  0
LINE
  5
A2
330
70
100
AcDbEntity
  8
0
 62
    98
420
   131843
370
     9
100
AcDbLine
 10
147.6724438450306
 20
179.2605495289304
 30
0.0
 11
150.4410214950537
 21
177.6533129176369
 31
0.0
  0
LINE
  5
A3
330
70
100
AcDbEntity
  8
0
 62
    98
420
   131843
370
     9
100
AcDbLine
 10
151.9443007771368
 20
176.7944590142469
 30
0.0
 11
147.6724438450306
 21
179.2605495289304
 31
0.0
  0
LINE
  5
A4
330
70
100
AcDbEntity
  8
0
 62
    98
420
   131843
370
     9
100
AcDbLine
 10
91.34885151769251
 20
143.2850042797484
 30
0.0
 11
91.17932145517471
 21
143.3582114013415
 31
0.0
  0
LINE
  5
A5
330
70
100
AcDbEntity
  8
0
 62
    98
420
   131843
370
     9
100
AcDbLine
 10
151.6811907597763
 20
165.6040697618769
 30
0.0
 11
152.317932188534
 21
176.1319806696465
 31
0.0
  0
LINE
  5
A6
330
70
100
AcDbEntity
  8
0
 62
    98
420
   131843
370
     9
100
AcDbLine
 10
92.97566483534492
 20
131.7140910141834
 30
0.0
 11
151.6811907597763
 21
165.6040697618769
 31
0.0
  0
LINE
  5
A7
330
70
100
AcDbEntity
  8
0
 62
    98
420
   131843
370
     9
100
AcDbLine
 10
59.51090664367646
 20
150.6014990608549
 30
0.0
 11
92.22840201255046
 21
131.7140910141834
 31
0.0
  0
LINE
  5
A8
330
70
100
AcDbEntity
  8
0
 62
    98
420
   131843
370
     9
100
AcDbLine
 10
59.19253592928988
 20
160.9456184672437
 30
0.0
 11
59.51090664367646
 21
150.6014990608549
 31
0.0
  0
SPLINE
  5
A9
330
70
100
AcDbEntity
  8
0
 62
    98
420
   131843
370
     9
100
AcDbSpline
210
0.0
220
0.0
230
1.0
 70
     8
 71
     3
 72
    20
 73
    16
 74
     0
 42
0.0000000001
 43
0.0000000001
 40
0.0
 40
0.0
 40
0.0
 40
0.0
 40
1.0
 40
1.0
 40
1.0
 40
2.0
 40
2.0
 40
2.0
 40
3.0
 40
3.0
 40
3.0
 40
4.0
 40
4.0
 40
4.0
 40
5.0
 40
5.0
 40
5.0
 40
5.0
 10
70.71080944425536
 20
155.7264453663894
 30
0.0
 10
70.67300933191536
 20
155.7005723349918
 30
0.0
 10
70.63520921957025
 20
155.6746993035917
 30
0.0
 10
70.60838339971478
 20
155.6450446320983
 30
0.0
 10
70.58155399851772
 20
155.6153860016041
 30
0.0
 10
70.5657018202188
 20
155.5819447212236
 30
0.0
 10
70.55943335405628
 20
155.5480904035072
 30
0.0
 10
70.55315751868744
 20
155.5141962866487
 30
0.0
 10
70.55648794193061
 20
155.47988816075
 30
0.0
 10
70.56936123289294
 20
155.4464008231371
 30
0.0
 10
70.58227924349044
 20
155.4127971561791
 30
0.0
 10
70.60480653758194
 20
155.3800199899732
 30
0.0
 10
70.63724963628685
 20
155.3511447653306
 30
0.0
 10
70.65914425327193
 20
155.3316579712474
 30
0.0
 10
70.68555491264298
 20
155.3139482728365
 30
0.0
 10
70.71196557201274
 20
155.2962385744255
 30
0.0
  0
SPLINE
  5
AA
330
70
100
AcDbEntity
  8
0
 62
    98
420
   131843
370
     9
100
AcDbSpline
210
0.0
220
0.0
230
1.0
 70
     8
 71
     3
 72
    14
 73
    10
 74
     0
 42
0.0000000001
 43
0.0000000001
 40
0.0
 40
0.0
 40
0.0
 40
0.0
 40
1.0
 40
1.0
 40
1.0
 40
2.0
 40
2.0
 40
2.0
 40
3.0
 40
3.0
 40
3.0
 40
3.0
 10
80.9599227934842
 20
161.4889292517028
 30
0.0
 10
80.56100223418676
 20
161.2630652340071
 30
0.0
 10
80.16208167489059
 20
161.0372012163115
 30
0.0
 10
79.76314511311041
 20
160.8116108992268
 30
0.0
 10
78.16739674360734
 20
159.9092484307182
 30
0.0
 10
76.57139233370674
 20
159.0112651836222
 30
0.0
 10
74.97517432777915
 20
158.1155595468201
 30
0.0
 10
73.55383227200448
 20
157.3179842241127
 30
0.0
 10
72.13232085812991
 20
156.5222147952524
 30
0.0
 10
70.71080944425536
 20
155.7264453663894
 30
0.0
  0
LINE
  5
AB
330
70
100
AcDbEntity
  8
0
 62
    98
420
   131843
370
     9
100
AcDbLine
 10
81.13736513164981
 20
161.3657802898769
 30
0.0
 11
80.9599227934842
 21
161.4889292517028
 31
0.0
  0
SPLINE
  5
AC
330
70
100
AcDbEntity
  8
0
 62
    98
420
   131843
370
     9
100
AcDbSpline
210
0.0
220
0.0
230
1.0
 70
     8
 71
     3
 72
    23
 73
    19
 74
     0
 42
0.0000000001
 43
0.0000000001
 40
0.0
 40
0.0
 40
0.0
 40
0.0
 40
1.0
 40
1.0
 40
1.0
 40
2.0
 40
2.0
 40
2.0
 40
3.0
 40
3.0
 40
3.0
 40
4.0
 40
4.0
 40
4.0
 40
5.0
 40
5.0
 40
5.0
 40
6.0
 40
6.0
 40
6.0
 40
6.0
 10
102.0935372397314
 20
149.2764400654454
 30
0.0
 10
100.143271026275
 20
150.4306277245992
 30
0.0
 10
98.19300481281606
 20
151.5848153837557
 30
0.0
 10
96.22470594463999
 20
152.7407957319661
 30
0.0
 10
95.24021911636195
 20
153.318984057406
 30
0.0
 10
94.2512210328241
 20
153.8976208624544
 30
0.0
 10
93.25451896258206
 20
154.4764826999824
 30
0.0
 10
92.25783850599832
 20
155.0553319847915
 30
0.0
 10
91.25345439683535
 20
155.6344062923237
 30
0.0
 10
90.24106748606774
 20
156.213616830424
 30
0.0
 10
89.49147227777773
 20
156.6424780092257
 30
0.0
 10
88.73748971615947
 20
157.0714138733251
 30
0.0
 10
87.98126486788888
 20
157.5004822014141
 30
0.0
 10
87.22503209633952
 20
157.9295550250259
 30
0.0
 10
86.46655699115004
 20
158.3587603154046
 30
0.0
 10
85.70679226501299
 20
158.7881182129804
 30
0.0
 10
84.18708966022382
 20
159.6469318599973
 30
0.0
 10
82.66222739593747
 20
160.5063560749384
 30
0.0
 10
81.13736513164981
 20
161.3657802898769
 30
0.0
  0
SPLINE
  5
AD
330
70
100
AcDbEntity
  8
0
 62
    98
420
   131843
370
     9
100
AcDbSpline
210
0.0
220
0.0
230
1.0
 70
     8
 71
     3
 72
    17
 73
    13
 74
     0
 42
0.0000000001
 43
0.0000000001
 40
0.0
 40
0.0
 40
0.0
 40
0.0
 40
1.0
 40
1.0
 40
1.0
 40
2.0
 40
2.0
 40
2.0
 40
3.0
 40
3.0
 40
3.0
 40
4.0
 40
4.0
 40
4.0
 40
4.0
 10
103.059493136057
 20
148.9725544064168
 30
0.0
 10
102.9765281883715
 20
148.9829571718157
 30
0.0
 10
102.893563240686
 20
148.9933599372197
 30
0.0
 10
102.8131936679667
 20
149.0083422389773
 30
0.0
 10
102.7307913713421
 20
149.0237034762203
 30
0.0
 10
102.6511173954533
 20
149.0438788324981
 30
0.0
 10
102.5743072108014
 20
149.0670244461484
 30
0.0
 10
102.4856160200066
 20
149.0937502253624
 30
0.0
 10
102.4007430822806
 20
149.1244362074687
 30
0.0
 10
102.3221990153583
 20
149.159445589565
 30
0.0
 10
102.2415275172398
 20
149.1954032298139
 30
0.0
 10
102.1675323784843
 20
149.2359216476309
 30
0.0
 10
102.0935372397314
 20
149.2764400654454
 30
0.0
  0
SPLINE
  5
AE
330
70
100
AcDbEntity
  8
0
 62
    98
420
   131843
370
     9
100
AcDbSpline
210
0.0
220
0.0
230
1.0
 70
     8
 71
     3
 72
     8
 73
     4
 74
     0
 42
0.0000000001
 43
0.0000000001
 40
0.0
 40
0.0
 40
0.0
 40
0.0
 40
1.0
 40
1.0
 40
1.0
 40
1.0
 10
81.66280897649178
 20
161.5207937717272
 30
0.0
 10
81.47618043731965
 20
161.5222572455286
 30
0.0
 10
81.29331443876967
 20
161.468309149219
 30
0.0
 10
81.13736513164981
 20
161.3657802898769
 30
0.0
  0
SPLINE
  5
AF
330
70
100
AcDbEntity
  8
0
 62
    98
420
   131843
370
     9
100
AcDbSpline
210
0.0
220
0.0
230
1.0
 70
     8
 71
     3
 72
    11
 73
     7
 74
     0
 42
0.0000000001
 43
0.0000000001
 40
0.0
 40
0.0
 40
0.0
 40
0.0
 40
1.0
 40
1.0
 40
1.0
 40
2.0
 40
2.0
 40
2.0
 40
2.0
 10
93.3778462784481
 20
159.0394424791919
 30
0.0
 10
93.77951491979706
 20
158.8264978337253
 30
0.0
 10
94.18118356114216
 20
158.613553188256
 30
0.0
 10
94.57338710996738
 20
158.4008091593726
 30
0.0
 10
94.96623688458113
 20
158.1877145964904
 30
0.0
 10
95.34959035010095
 20
157.9748213118396
 30
0.0
 10
95.7329438156182
 20
157.7619280271889
 30
0.0
  0
LINE
  5
B0
330
70
100
AcDbEntity
  8
0
 62
    98
420
   131843
370
     9
100
AcDbLine
 10
95.7329438156182
 20
157.7619280271889
 30
0.0
 11
96.84962357071363
 21
157.1172824928082
 31
0.0
  0
SPLINE
  5
B1
330
70
100
AcDbEntity
  8
0
 62
    98
420
   131843
370
     9
100
AcDbSpline
210
0.0
220
0.0
230
1.0
 70
     8
 71
     3
 72
    23
 73
    19
 74
     0
 42
0.0000000001
 43
0.0000000001
 40
0.0
 40
0.0
 40
0.0
 40
0.0
 40
1.0
 40
1.0
 40
1.0
 40
2.0
 40
2.0
 40
2.0
 40
3.0
 40
3.0
 40
3.0
 40
4.0
 40
4.0
 40
4.0
 40
5.0
 40
5.0
 40
5.0
 40
6.0
 40
6.0
 40
6.0
 40
6.0
 10
96.84962357071363
 20
157.1172824928082
 30
0.0
 10
97.2270349027498
 20
156.8899534471546
 30
0.0
 10
97.60444623478594
 20
156.6626244015009
 30
0.0
 10
97.96958099691345
 20
156.4367712816825
 30
0.0
 10
98.33485176278877
 20
156.2108340371119
 30
0.0
 10
98.68783681160902
 20
155.9863738180716
 30
0.0
 10
99.03732693512699
 20
155.7624519743095
 30
0.0
 10
99.38824750376562
 20
155.5376136299442
 30
0.0
 10
99.73564447945152
 20
155.3133180769582
 30
0.0
 10
100.0799791577756
 20
155.089466150018
 30
0.0
 10
100.42432725349
 20
154.8656055004294
 30
0.0
 10
100.7656128131845
 20
154.6421885114538
 30
0.0
 10
101.1056163475921
 20
154.4189704587212
 30
0.0
 10
101.7619342964505
 20
153.9880866599018
 30
0.0
 10
102.4134752117608
 20
153.5579441296922
 30
0.0
 10
103.0624272489047
 20
153.1282067929691
 30
0.0
 10
103.7114153992047
 20
152.6984455420429
 30
0.0
 10
104.3578143831923
 20
152.2690895297018
 30
0.0
 10
105.004213367185
 20
151.8397335173633
 30
0.0
  0
SPLINE
  5
B2
330
70
100
AcDbEntity
  8
0
 62
    98
420
   131843
370
     9
100
AcDbSpline
210
0.0
220
0.0
230
1.0
 70
     8
 71
     3
 72
    44
 73
    40
 74
     0
 42
0.0000000001
 43
0.0000000001
 40
0.0
 40
0.0
 40
0.0
 40
0.0
 40
1.0
 40
1.0
 40
1.0
 40
2.0
 40
2.0
 40
2.0
 40
3.0
 40
3.0
 40
3.0
 40
4.0
 40
4.0
 40
4.0
 40
5.0
 40
5.0
 40
5.0
 40
6.0
 40
6.0
 40
6.0
 40
7.0
 40
7.0
 40
7.0
 40
8.0
 40
8.0
 40
8.0
 40
9.0
 40
9.0
 40
9.0
 40
10.0
 40
10.0
 40
10.0
 40
11.0
 40
11.0
 40
11.0
 40
12.0
 40
12.0
 40
12.0
 40
13.0
 40
13.0
 40
13.0
 40
13.0
 10
81.66280897649178
 20
161.5207937717272
 30
0.0
 10
81.92666352649496
 20
161.4838822527122
 30
0.0
 10
82.19051807649817
 20
161.4469707337022
 30
0.0
 10
82.4683082694308
 20
161.4007008581567
 30
0.0
 10
82.75028760125998
 20
161.3537332224285
 30
0.0
 10
83.04662605045589
 20
161.2971228496873
 30
0.0
 10
83.34893275978222
 20
161.2358790796503
 30
0.0
 10
83.65677295981802
 20
161.1735142897263
 30
0.0
 10
83.97080190839533
 20
161.1063449285972
 30
0.0
 10
84.2897623882197
 20
161.0352117049534
 30
0.0
 10
84.61415060458927
 20
160.9628680103526
 30
0.0
 10
84.94363961956054
 20
160.8864243996421
 30
0.0
 10
85.27587709542062
 20
160.8075820028141
 30
0.0
 10
85.61236489825978
 20
160.7277309721293
 30
0.0
 10
85.95167193413418
 20
160.6454193872027
 30
0.0
 10
86.29235682205862
 20
160.5618732419833
 30
0.0
 10
86.63538762461199
 20
160.4777518081926
 30
0.0
 10
86.97981531999035
 20
160.3923787535059
 30
0.0
 10
87.32428150881242
 20
160.306968691209
 30
0.0
 10
87.66882958868626
 20
160.2215383241043
 30
0.0
 10
88.01341618030765
 20
160.1360709317967
 30
0.0
 10
88.3567310963556
 20
160.0517516192368
 30
0.0
 10
88.66956157181272
 20
159.9749193891068
 30
0.0
 10
88.98133618056862
 20
159.8990404046093
 30
0.0
 10
89.29086155074864
 20
159.8251150306649
 30
0.0
 10
89.59702603852681
 20
159.7519923517937
 30
0.0
 10
89.90098986781797
 20
159.6807810884935
 30
0.0
 10
90.20140382854306
 20
159.6125226296792
 30
0.0
 10
90.49741118056537
 20
159.5452654170075
 30
0.0
 10
90.78997204239525
 20
159.4808750179957
 30
0.0
 10
91.07686568498108
 20
159.4208167951607
 30
0.0
 10
91.35902035627161
 20
159.3617506270536
 30
0.0
 10
91.63569348671883
 20
159.3068746975227
 30
0.0
 10
91.90575487528954
 20
159.256839905988
 30
0.0
 10
92.17165588409477
 20
159.2075759159933
 30
0.0
 10
92.43114729378781
 20
159.1630050544377
 30
0.0
 10
92.67657915470165
 20
159.1274343410372
 30
0.0
 10
92.91951848237257
 20
159.0922248732609
 30
0.0
 10
93.14868238041098
 20
159.0658336762264
 30
0.0
 10
93.3778462784481
 20
159.0394424791919
 30
0.0
  0
SPLINE
  5
B3
330
70
100
AcDbEntity
  8
0
 62
    98
420
   131843
370
     9
100
AcDbSpline
210
0.0
220
0.0
230
1.0
 70
     8
 71
     3
 72
    32
 73
    28
 74
     0
 42
0.0000000001
 43
0.0000000001
 40
0.0
 40
0.0
 40
0.0
 40
0.0
 40
1.0
 40
1.0
 40
1.0
 40
2.0
 40
2.0
 40
2.0
 40
3.0
 40
3.0
 40
3.0
 40
4.0
 40
4.0
 40
4.0
 40
5.0
 40
5.0
 40
5.0
 40
6.0
 40
6.0
 40
6.0
 40
7.0
 40
7.0
 40
7.0
 40
8.0
 40
8.0
 40
8.0
 40
9.0
 40
9.0
 40
9.0
 40
9.0
 10
69.80156813631548
 20
155.6993257042761
 30
0.0
 10
69.71911714232253
 20
155.766959964611
 30
0.0
 10
69.63666614832829
 20
155.8345942249484
 30
0.0
 10
69.57552105978731
 20
155.9086552421649
 30
0.0
 10
69.53497253935366
 20
155.9577689934352
 30
0.0
 10
69.50379374431427
 20
156.0097090478306
 30
0.0
 10
69.47967790341086
 20
156.0625958695704
 30
0.0
 10
69.45556221015469
 20
156.1154823675192
 30
0.0
 10
69.43850938455013
 20
156.1693156212183
 30
0.0
 10
69.42968380588038
 20
156.2236105886162
 30
0.0
 10
69.42483938055119
 20
156.2534134973209
 30
0.0
 10
69.42247381912929
 20
156.2833555200502
 30
0.0
 10
69.42254004351871
 20
156.3133065719368
 30
0.0
 10
69.42266630861348
 20
156.3704120052736
 30
0.0
 10
69.4316326502241
 20
156.4275502615856
 30
0.0
 10
69.44907116589455
 20
156.4838173670999
 30
0.0
 10
69.46650957940651
 20
156.5400841429863
 30
0.0
 10
69.49242006771514
 20
156.5954797782857
 30
0.0
 10
69.52681478448479
 20
156.6490260745236
 30
0.0
 10
69.5595898856569
 20
156.7000509248944
 30
0.0
 10
69.60006899902407
 20
156.7493965028665
 30
0.0
 10
69.64705259646665
 20
156.7966572661385
 30
0.0
 10
69.69403612053993
 20
156.8439179556099
 30
0.0
 10
69.74752410837499
 20
156.8890938368906
 30
0.0
 10
69.80827103645983
 20
156.9306384865729
 30
0.0
 10
69.84144603028406
 20
156.9533267695881
 30
0.0
 10
69.87678596618633
 20
156.9749320562156
 30
0.0
 10
69.91212590209116
 20
156.9965373428456
 30
0.0
  0
LINE
  5
B4
330
70
100
AcDbEntity
  8
0
 62
    98
420
   131843
370
     9
100
AcDbLine
 10
118.9084346938865
 20
195.8656585621401
 30
0.0
 11
118.7007224025553
 21
195.7457488087085
 31
0.0
  0
LINE
  5
B5
330
70
100
AcDbEntity
  8
0
 62
    98
420
   131843
370
     9
100
AcDbLine
 10
122.9758990940781
 20
193.5175613445735
 30
0.0
 11
118.9084346938865
 21
195.8656585621401
 31
0.0
  0
LINE
  5
B6
330
70
100
AcDbEntity
  8
0
 62
    98
420
   131843
370
     9
100
AcDbLine
 10
120.0907691066954
 20
195.1737638533103
 30
0.0
 11
122.9758990940781
 21
193.5175613445735
 31
0.0
  0
SPLINE
  5
B7
330
70
100
AcDbEntity
  8
0
 62
    98
420
   131843
370
     9
100
AcDbSpline
210
0.0
220
0.0
230
1.0
 70
     8
 71
     3
 72
    38
 73
    34
 74
     0
 42
0.0000000001
 43
0.0000000001
 40
0.0
 40
0.0
 40
0.0
 40
0.0
 40
1.0
 40
1.0
 40
1.0
 40
2.0
 40
2.0
 40
2.0
 40
3.0
 40
3.0
 40
3.0
 40
4.0
 40
4.0
 40
4.0
 40
5.0
 40
5.0
 40
5.0
 40
6.0
 40
6.0
 40
6.0
 40
7.0
 40
7.0
 40
7.0
 40
8.0
 40
8.0
 40
8.0
 40
9.0
 40
9.0
 40
9.0
 40
10.0
 40
10.0
 40
10.0
 40
11.0
 40
11.0
 40
11.0
 40
11.0
 10
117.7524932484109
 20
195.1734855000092
 30
0.0
 10
117.7611186690067
 20
195.1783680720682
 30
0.0
 10
117.7697440895974
 20
195.1832506441247
 30
0.0
 10
117.7784703217438
 20
195.1880742299529
 30
0.0
 10
117.8457466870321
 20
195.2252624821998
 30
0.0
 10
117.9190151904341
 20
195.2589446517461
 30
0.0
 10
117.9964741449789
 20
195.2889657053282
 30
0.0
 10
118.0739331040284
 20
195.3189867606584
 30
0.0
 10
118.1555825147085
 20
195.3453466995983
 30
0.0
 10
118.2405626242159
 20
195.3674649020176
 30
0.0
 10
118.3255439456848
 20
195.3895834198782
 30
0.0
 10
118.4138560609832
 20
195.407460080227
 30
0.0
 10
118.5041298633563
 20
195.4210131260607
 30
0.0
 10
118.5944036679369
 20
195.4345661722254
 30
0.0
 10
118.6866391596897
 20
195.443795603662
 30
0.0
 10
118.7794724498101
 20
195.4484464721947
 30
0.0
 10
118.8267596489571
 20
195.4508155204821
 30
0.0
 10
118.8742019561822
 20
195.4519965894384
 30
0.0
 10
118.9216674838645
 20
195.451982242706
 30
0.0
 10
119.0206139891284
 20
195.4519523355471
 30
0.0
 10
119.1196613999389
 20
195.4467276952091
 30
0.0
 10
119.2171566139883
 20
195.4365606587224
 30
0.0
 10
119.3146518243415
 20
195.4263936226233
 30
0.0
 10
119.4105948380492
 20
195.4112841907528
 30
0.0
 10
119.5032689944209
 20
195.3912255394169
 30
0.0
 10
119.5905461235313
 20
195.3723350356263
 30
0.0
 10
119.6749240432089
 20
195.3490549784629
 30
0.0
 10
119.7557001870733
 20
195.3220674109131
 30
0.0
 10
119.8364763259017
 20
195.2950798450394
 30
0.0
 10
119.9136506893687
 20
195.264384769239
 30
0.0
 10
119.9846267993581
 20
195.2295828319915
 30
0.0
 10
120.0210986822938
 20
195.2116994599481
 30
0.0
 10
120.0559338944959
 20
195.1927316566292
 30
0.0
 10
120.0907691066954
 20
195.1737638533103
 30
0.0
  0
SPLINE
  5
B8
330
70
100
AcDbEntity
  8
0
 62
    98
420
   131843
370
     9
100
AcDbSpline
210
0.0
220
0.0
230
1.0
 70
     8
 71
     3
 72
    14
 73
    10
 74
     0
 42
0.0000000001
 43
0.0000000001
 40
0.0
 40
0.0
 40
0.0
 40
0.0
 40
1.0
 40
1.0
 40
1.0
 40
2.0
 40
2.0
 40
2.0
 40
3.0
 40
3.0
 40
3.0
 40
3.0
 10
108.3374441877301
 20
189.7562024419224
 30
0.0
 10
109.3563879785099
 20
190.3434839764472
 30
0.0
 10
110.3753317692872
 20
190.9307655109721
 30
0.0
 10
111.3946656799046
 20
191.5178213813134
 30
0.0
 10
111.9436418866887
 20
191.8339883424217
 30
0.0
 10
112.4927312480479
 20
192.1500898494452
 30
0.0
 10
113.0419730512563
 20
192.4661030211799
 30
0.0
 10
114.6113167487573
 20
193.3690446335928
 30
0.0
 10
116.1819049985854
 20
194.271265066801
 30
0.0
 10
117.7524932484109
 20
195.1734855000092
 30
0.0
  0
SPLINE
  5
B9
330
70
100
AcDbEntity
  8
0
 62
    98
420
   131843
370
     9
100
AcDbSpline
210
0.0
220
0.0
230
1.0
 70
     8
 71
     3
 72
    38
 73
    34
 74
     0
 42
0.0000000001
 43
0.0000000001
 40
0.0
 40
0.0
 40
0.0
 40
0.0
 40
1.0
 40
1.0
 40
1.0
 40
2.0
 40
2.0
 40
2.0
 40
3.0
 40
3.0
 40
3.0
 40
4.0
 40
4.0
 40
4.0
 40
5.0
 40
5.0
 40
5.0
 40
6.0
 40
6.0
 40
6.0
 40
7.0
 40
7.0
 40
7.0
 40
8.0
 40
8.0
 40
8.0
 40
9.0
 40
9.0
 40
9.0
 40
10.0
 40
10.0
 40
10.0
 40
11.0
 40
11.0
 40
11.0
 40
11.0
 10
108.3337988877068
 20
188.3858816978127
 30
0.0
 10
108.3276069585172
 20
188.3895101078809
 30
0.0
 10
108.3214150293276
 20
188.3931385179517
 30
0.0
 10
108.315275772248
 20
188.3967973505658
 30
0.0
 10
108.2496301803405
 20
188.4359203632871
 30
0.0
 10
108.1900068583259
 20
188.4785217404624
 30
0.0
 10
108.1368042472791
 20
188.5236107646107
 30
0.0
 10
108.0836016365685
 20
188.568699788474
 30
0.0
 10
108.0368197367462
 20
188.6162764592899
 30
0.0
 10
107.99745212608
 20
188.6658257454459
 30
0.0
 10
107.9580847685974
 20
188.7153747129317
 30
0.0
 10
107.9261316049016
 20
188.7668962703875
 30
0.0
 10
107.9017546432527
 20
188.8195929440733
 30
0.0
 10
107.8773776807285
 20
188.8722896196406
 30
0.0
 10
107.8605769207927
 20
188.9261614115201
 30
0.0
 10
107.8518015930973
 20
188.9804182292761
 30
0.0
 10
107.846907215085
 20
189.0106795921643
 30
0.0
 10
107.8445093669238
 20
189.0410607278676
 30
0.0
 10
107.8446238596107
 20
189.0714537310631
 30
0.0
 10
107.8448389332473
 20
189.1285467542024
 30
0.0
 10
107.8539193879529
 20
189.1856816545747
 30
0.0
 10
107.8714463619489
 20
189.2419385376693
 30
0.0
 10
107.8889733372385
 20
189.2981954249144
 30
0.0
 10
107.9149468330685
 20
189.3535742947534
 30
0.0
 10
107.9493864034639
 20
189.4071063087524
 30
0.0
 10
107.9822580680337
 20
189.4582012088204
 30
0.0
 10
108.0228424964093
 20
189.5076135861609
 30
0.0
 10
108.0699315857704
 20
189.5549394262372
 30
0.0
 10
108.1170206777009
 20
189.6022652688983
 30
0.0
 10
108.1706144313278
 20
189.6475045740719
 30
0.0
 10
108.2314810262627
 20
189.6891026680463
 30
0.0
 10
108.2653048129475
 20
189.7122188791417
 30
0.0
 10
108.3013745003401
 20
189.7342106605333
 30
0.0
 10
108.3374441877301
 20
189.7562024419224
 30
0.0
  0
SPLINE
  5
BA
330
70
100
AcDbEntity
  8
0
 62
    98
420
   131843
370
     9
100
AcDbSpline
210
0.0
220
0.0
230
1.0
 70
     8
 71
     3
 72
    11
 73
     7
 74
     0
 42
0.0000000001
 43
0.0000000001
 40
0.0
 40
0.0
 40
0.0
 40
0.0
 40
1.0
 40
1.0
 40
1.0
 40
2.0
 40
2.0
 40
2.0
 40
2.0
 10
115.2729767594142
 20
184.3705269167421
 30
0.0
 10
113.5062539393718
 20
185.3912900599667
 30
0.0
 10
111.7395311193345
 20
186.4120532031913
 30
0.0
 10
109.9752958881066
 20
187.4342480946707
 30
0.0
 10
109.427970609369
 20
187.75136743001
 30
0.0
 10
108.8808847485379
 20
188.0686245639113
 30
0.0
 10
108.3337988877068
 20
188.3858816978127
 30
0.0
  0
LINE
  5
BB
330
70
100
AcDbEntity
  8
0
 62
    98
420
   131843
370
     9
100
AcDbLine
 10
116.1492029978427
 20
183.8646922762894
 30
0.0
 11
115.2729767594142
 21
184.3705269167421
 31
0.0
  0
SPLINE
  5
BC
330
70
100
AcDbEntity
  8
0
 62
    98
420
   131843
370
     9
100
AcDbSpline
210
0.0
220
0.0
230
1.0
 70
     8
 71
     3
 72
     8
 73
     4
 74
     0
 42
0.0000000001
 43
0.0000000001
 40
0.0
 40
0.0
 40
0.0
 40
0.0
 40
1.0
 40
1.0
 40
1.0
 40
1.0
 10
116.1496967990629
 20
183.6917477733288
 30
0.0
 10
116.232287483307
 20
183.7394263604775
 30
0.0
 10
116.2320664009701
 20
183.8168562518825
 30
0.0
 10
116.1492029978427
 20
183.8646922762894
 30
0.0
  0
LINE
  5
BD
330
70
100
AcDbEntity
  8
0
 62
    98
420
   131843
370
     9
100
AcDbLine
 10
74.45078021528179
 20
159.6194756222331
 30
0.0
 11
116.1496967990629
 21
183.6917477733288
 31
0.0
  0
SPLINE
  5
BE
330
70
100
AcDbEntity
  8
0
 62
    98
420
   131843
370
     9
100
AcDbSpline
210
0.0
220
0.0
230
1.0
 70
     8
 71
     3
 72
    11
 73
     7
 74
     0
 42
0.0000000001
 43
0.0000000001
 40
0.0
 40
0.0
 40
0.0
 40
0.0
 40
1.0
 40
1.0
 40
1.0
 40
2.0
 40
2.0
 40
2.0
 40
2.0
 10
69.91212590209116
 20
156.9965373428456
 30
0.0
 10
70.45989558193928
 20
157.3134009554681
 30
0.0
 10
71.00766526178867
 20
157.6302645680931
 30
0.0
 10
71.55560822226194
 20
157.9470282718329
 30
0.0
 10
72.520307479976
 20
158.504717177269
 30
0.0
 10
73.4855438476289
 20
159.0620963997498
 30
0.0
 10
74.45078021528179
 20
159.6194756222331
 30
0.0
  0
LINE
  5
BF
330
70
100
AcDbEntity
  8
0
 62
    98
420
   131843
370
     9
100
AcDbLine
 10
118.7007224025553
 20
195.7457488087085
 30
0.0
 11
59.56616734068711
 21
161.6080968118466
 31
0.0
  0
LWPOLYLINE
  5
C0
330
70
100
AcDbEntity
  8
0
 62
    98
420
   131843
370
     9
100
AcDbPolyline
 90
       45
 70
     0
 43
0.0
 10
95.03211793984133
 20
175.3916010838096
 10
95.20501919359061
 20
175.5067923140554
 10
95.34776324636556
 20
175.6350160440897
 10
95.45744424089159
 20
175.7736620085383
 10
95.53182938841171
 20
175.9199077753793
 10
95.56940442183485
 20
176.0707762025463
 10
95.56940442183485
 20
176.2231960439274
 10
95.53182938841171
 20
176.3740644710943
 10
95.45744424089159
 20
176.5203102379354
 10
95.34776324636556
 20
176.6589562023814
 10
95.20501919359061
 20
176.7871799324183
 10
95.03211793984133
 20
176.9023711626615
 10
94.83257925603652
 20
177.002184931857
 10
94.61046517435756
 20
177.0845893194964
 10
94.3702972969813
 20
177.147906809886
 10
94.11696474930792
 20
177.1908484415112
 10
93.85562465145318
 20
177.2125400465853
 10
93.59159713417033
 20
177.2125400465853
 10
93.33025703631689
 20
177.1908484415112
 10
93.07692448864351
 20
177.147906809886
 10
92.83675661126595
 20
177.0845893194964
 10
92.61464252958829
 20
177.002184931857
 10
92.41510384578345
 20
176.9023711626615
 10
92.2422025920329
 20
176.7871799324157
 10
92.09945853925926
 20
176.6589562023788
 10
91.98977754473322
 20
176.5203102379354
 10
91.9153923972131
 20
176.3740644710892
 10
91.87781736379124
 20
176.2231960439223
 10
91.87781736379124
 20
176.0707762025437
 10
91.9153923972131
 20
175.9199077753768
 10
91.98977754473322
 20
175.7736620085357
 10
92.09945853925926
 20
175.6350160440897
 10
92.2422025920329
 20
175.5067923140529
 10
92.41510384578345
 20
175.391601083807
 10
92.61464252958829
 20
175.2917873146141
 10
92.83675661126853
 20
175.2093829269746
 10
93.07692448864351
 20
175.1460654365851
 10
93.33025703631689
 20
175.1031238049624
 10
93.59159713417033
 20
175.0814321998858
 10
93.85562465145318
 20
175.0814321998884
 10
94.11696474930792
 20
175.1031238049624
 10
94.3702972969813
 20
175.1460654365876
 10
94.61046517435756
 20
175.2093829269746
 10
94.83257925603652
 20
175.2917873146141
 10
95.03211793984133
 20
175.3916010838096
  0
LWPOLYLINE
  5
C1
330
70
100
AcDbEntity
  8
0
 62
    98
420
   131843
370
     9
100
AcDbPolyline
 90
       36
 70
     0
 43
0.0
 10
98.85596011465032
 20
169.6749974463976
 10
99.00174990292891
 20
169.7756103657385
 10
99.14071089184334
 20
169.9046529100743
 10
99.26837676086906
 20
170.0579775458484
 10
99.38064422393416
 20
170.2306562931176
 10
99.47390491239929
 20
170.4171391148573
 10
99.54516135100378
 20
170.6114322997415
 10
99.59212329917892
 20
170.8072911049427
 10
99.61328136127395
 20
170.9984204673118
 10
99.60795549976067
 20
171.1786773318761
 10
99.57631689221113
 20
171.3422680946917
 10
99.5193824295061
 20
171.4839348140434
 10
99.43898203211894
 20
171.5991242050078
 10
99.33769983497951
 20
171.6841339857752
 10
99.21879113123571
 20
171.7362318720479
 10
99.08607774446734
 20
171.7537433948987
 10
98.94382519211994
 20
171.7361057195713
 10
98.79660558827112
 20
171.6838857354616
 10
98.6491506921234
 20
171.5987618358276
 10
98.50619982536166
 20
171.4834699728472
 10
98.37234754647038
 20
171.3417157218501
 10
98.25189597782248
 20
171.1780551811071
 10
98.1487165319414
 20
170.997748535056
 10
98.06612548111781
 20
170.8065909876582
 10
98.00677736967811
 20
170.6107264997679
 10
97.97257969475708
 20
170.4164503171875
 10
97.96463159776584
 20
170.2300066362785
 10
97.98318853707828
 20
170.057387910347
 10
98.02765407740217
 20
169.9041422472749
 10
98.09659905967542
 20
169.7751950887678
 10
98.18780753544656
 20
169.6746909025954
 10
98.29834798925762
 20
169.6058599760005
 10
98.42466755996884
 20
169.5709145915967
 10
98.56270623264006
 20
169.5709779227897
 10
98.70802733075764
 20
169.6060479340616
 10
98.85596011465032
 20
169.6749974463976
  0
LWPOLYLINE
  5
C2
330
70
100
AcDbEntity
  8
0
 62
    98
420
   131843
370
     9
100
AcDbPolyline
 90
       65
 70
     0
 43
0.0
 10
102.5918289011964
 20
162.3739347406356
 10
102.8720200446163
 20
162.5205372146818
 10
103.1757534879561
 20
162.6505793966774
 10
103.5001041121187
 20
162.76280890932
 10
103.8419482432828
 20
162.8561449210523
 10
104.1979937355912
 20
162.9296885550581
 10
104.5648116763256
 20
162.9827315459382
 10
104.9388694081877
 20
163.0147630606965
 10
105.3165645507454
 20
163.0254746183365
 10
105.6942596933005
 20
163.0147630606965
 10
106.0683174251653
 20
162.9827315459382
 10
106.4351353658997
 20
162.9296885550581
 10
106.7911808582106
 20
162.8561449210523
 10
107.1330249893747
 20
162.76280890932
 10
107.4573756135348
 20
162.6505793966774
 10
107.7611090568719
 20
162.5205372146818
 10
108.0413002002945
 20
162.3739347406356
 10
108.295250649918
 20
162.2121838365045
 10
108.5205147240924
 20
162.0368422519127
 10
108.7149230066395
 20
161.8495986221792
 10
108.8766032395261
 20
161.6522562058111
 10
109.0039983537194
 20
161.4467155181562
 10
109.0958814646405
 20
161.2349560283986
 10
109.1513676876924
 20
161.0190170961839
 10
109.1699226602178
 20
160.8009783314709
 10
109.1513676876924
 20
160.582939566758
 10
109.0958814646405
 20
160.3670006345433
 10
109.0039983537194
 20
160.1552411447857
 10
108.8766032395261
 20
159.9497004571283
 10
108.7149230066369
 20
159.7523580407601
 10
108.5205147240924
 20
159.5651144110267
 10
108.295250649918
 20
159.3897728264348
 10
108.0413002002945
 20
159.2280219223038
 10
107.7611090568719
 20
159.0814194482575
 10
107.4573756135348
 20
158.9513772662644
 10
107.1330249893747
 20
158.839147753622
 10
106.7911808582106
 20
158.7458117418895
 10
106.4351353658997
 20
158.6722681078837
 10
106.0683174251653
 20
158.6192251170037
 10
105.6942596933005
 20
158.5871936022454
 10
105.3165645507454
 20
158.5764820446054
 10
104.9388694081877
 20
158.5871936022454
 10
104.5648116763256
 20
158.6192251170037
 10
104.1979937355912
 20
158.6722681078837
 10
103.8419482432828
 20
158.7458117418895
 10
103.5001041121187
 20
158.839147753622
 10
103.1757534879561
 20
158.9513772662644
 10
102.8720200446163
 20
159.0814194482575
 10
102.5918289011964
 20
159.2280219223038
 10
102.3378784515729
 20
159.3897728264348
 10
102.1126143773985
 20
159.5651144110267
 10
101.9182060948514
 20
159.7523580407601
 10
101.7565258619672
 20
159.9497004571283
 10
101.6291307477688
 20
160.1552411447857
 10
101.5372476368529
 20
160.3670006345433
 10
101.481761413801
 20
160.582939566758
 10
101.463206441273
 20
160.8009783314709
 10
101.481761413801
 20
161.0190170961839
 10
101.5372476368529
 20
161.2349560283986
 10
101.6291307477688
 20
161.4467155181562
 10
101.7565258619672
 20
161.6522562058111
 10
101.9182060948514
 20
161.8495986221792
 10
102.1126143773985
 20
162.0368422519127
 10
102.3378784515729
 20
162.2121838365045
 10
102.5918289011964
 20
162.3739347406356
  0
SPLINE
  5
C3
330
70
100
AcDbEntity
  8
0
 62
    98
420
   131843
370
     9
100
AcDbSpline
210
0.0
220
0.0
230
1.0
 70
     8
 71
     3
 72
    26
 73
    22
 74
     0
 42
0.0000000001
 43
0.0000000001
 40
0.0
 40
0.0
 40
0.0
 40
0.0
 40
1.0
 40
1.0
 40
1.0
 40
2.0
 40
2.0
 40
2.0
 40
3.0
 40
3.0
 40
3.0
 40
4.0
 40
4.0
 40
4.0
 40
5.0
 40
5.0
 40
5.0
 40
6.0
 40
6.0
 40
6.0
 40
7.0
 40
7.0
 40
7.0
 40
7.0
 10
98.20580042873551
 20
160.2214274140154
 30
0.0
 10
98.5901827551654
 20
160.4243433370138
 30
0.0
 10
98.97456508159658
 20
160.6272592600148
 30
0.0
 10
99.35634662741193
 20
160.8350227039742
 30
0.0
 10
99.74868300267639
 20
161.0485300288059
 30
0.0
 10
100.138272805829
 20
161.2671566112178
 30
0.0
 10
100.528681910869
 20
161.4907423441809
 30
0.0
 10
100.923437659686
 20
161.7168173826549
 30
0.0
 10
101.3190310554469
 20
161.9479626124139
 30
0.0
 10
101.7227060322169
 20
162.182393297596
 30
0.0
 10
102.1345747581049
 20
162.4215824303658
 30
0.0
 10
102.5548564726912
 20
162.6641917477922
 30
0.0
 10
102.9828573280907
 20
162.9098436413594
 30
0.0
 10
103.4017804070593
 20
163.1502853281197
 30
0.0
 10
103.828098657758
 20
163.3936418953786
 30
0.0
 10
104.2547310331143
 20
163.6417697924283
 30
0.0
 10
104.6766688224711
 20
163.8871673346846
 30
0.0
 10
105.098913861381
 20
164.1372317787501
 30
0.0
 10
105.5182382466364
 20
164.3922918259664
 30
0.0
 10
105.9259121456666
 20
164.6402652985144
 30
0.0
 10
106.3308254310216
 20
164.892960635416
 30
0.0
 10
106.7357387163766
 20
165.1456559723176
 30
0.0
  0
SPLINE
  5
C4
330
70
100
AcDbEntity
  8
0
 62
    98
420
   131843
370
     9
100
AcDbSpline
210
0.0
220
0.0
230
1.0
 70
     8
 71
     3
 72
    29
 73
    25
 74
     0
 42
0.0000000001
 43
0.0000000001
 40
0.0
 40
0.0
 40
0.0
 40
0.0
 40
1.0
 40
1.0
 40
1.0
 40
2.0
 40
2.0
 40
2.0
 40
3.0
 40
3.0
 40
3.0
 40
4.0
 40
4.0
 40
4.0
 40
5.0
 40
5.0
 40
5.0
 40
6.0
 40
6.0
 40
6.0
 40
7.0
 40
7.0
 40
7.0
 40
8.0
 40
8.0
 40
8.0
 40
8.0
 10
125.3291462506785
 20
163.573067519966
 30
0.0
 10
124.1214383231721
 20
163.990120299942
 30
0.0
 10
122.9137303956657
 20
164.4071730799204
 30
0.0
 10
121.7092022208762
 20
164.8294701909799
 30
0.0
 10
120.9081387074518
 20
165.1103160977618
 30
0.0
 10
120.1084815437238
 20
165.3934814815906
 30
0.0
 10
119.3139584088488
 20
165.6851061610428
 30
0.0
 10
118.5195686303718
 20
165.9766818928807
 30
0.0
 10
117.7303111574573
 20
166.2767140808905
 30
0.0
 10
116.953984010795
 20
166.5963721294968
 30
0.0
 10
116.5993077519102
 20
166.7424125214766
 30
0.0
 10
116.2473303767521
 20
166.8925493233073
 30
0.0
 10
115.900470412775
 20
167.0500991657917
 30
0.0
 10
115.5536914722546
 20
167.207612206007
 30
0.0
 10
115.212027552435
 20
167.372534824037
 30
0.0
 10
114.879045371622
 20
167.5487681673935
 30
0.0
 10
114.5032751148248
 20
167.7476474243181
 30
0.0
 10
114.1385611511098
 20
167.9609310182078
 30
0.0
 10
113.783757735977
 20
168.1856436959934
 30
0.0
 10
113.4285138919124
 20
168.4106353168761
 30
0.0
 10
113.0832052162739
 20
168.6470844138445
 30
0.0
 10
112.7468318398073
 20
168.8928871603012
 30
0.0
 10
112.4105387438972
 20
169.1386312422416
 30
0.0
 10
112.0831766825838
 20
169.3937245094214
 30
0.0
 10
111.7558146212704
 20
169.6488177766012
 30
0.0
  0
SPLINE
  5
C5
330
70
100
AcDbEntity
  8
0
 62
    98
420
   131843
370
     9
100
AcDbSpline
210
0.0
220
0.0
230
1.0
 70
     8
 71
     3
 72
    44
 73
    40
 74
     0
 42
0.0000000001
 43
0.0000000001
 40
0.0
 40
0.0
 40
0.0
 40
0.0
 40
1.0
 40
1.0
 40
1.0
 40
2.0
 40
2.0
 40
2.0
 40
3.0
 40
3.0
 40
3.0
 40
4.0
 40
4.0
 40
4.0
 40
5.0
 40
5.0
 40
5.0
 40
6.0
 40
6.0
 40
6.0
 40
7.0
 40
7.0
 40
7.0
 40
8.0
 40
8.0
 40
8.0
 40
9.0
 40
9.0
 40
9.0
 40
10.0
 40
10.0
 40
10.0
 40
11.0
 40
11.0
 40
11.0
 40
12.0
 40
12.0
 40
12.0
 40
13.0
 40
13.0
 40
13.0
 40
13.0
 10
111.7558146212704
 20
169.6488177766012
 30
0.0
 10
111.9643754382335
 20
169.9420837746901
 30
0.0
 10
112.1729362551991
 20
170.2353497727765
 30
0.0
 10
112.3611716577468
 20
170.5364514204328
 30
0.0
 10
112.551676135596
 20
170.8411826845309
 30
0.0
 10
112.721362221931
 20
171.153939645773
 30
0.0
 10
112.879177440973
 20
171.4691924298807
 30
0.0
 10
113.0398019180326
 20
171.7900570074353
 30
0.0
 10
113.1881291412367
 20
172.1135070546615
 30
0.0
 10
113.3258074783451
 20
172.4387912031715
 30
0.0
 10
113.4659981426106
 20
172.7700110727013
 30
0.0
 10
113.5951477373439
 20
173.1031325908733
 30
0.0
 10
113.7170372772745
 20
173.4369981385369
 30
0.0
 10
113.8407637568366
 20
173.7758952160321
 30
0.0
 10
113.9570097069789
 20
174.1155589178401
 30
0.0
 10
114.0688423451649
 20
174.4555636342111
 30
0.0
 10
114.1817589019344
 20
174.7988637877468
 30
0.0
 10
114.2901761816257
 20
175.1425115983314
 30
0.0
 10
114.3971981894173
 20
175.4862380884233
 30
0.0
 10
114.5045615439383
 20
175.8310608942674
 30
0.0
 10
114.6105207119252
 20
176.1759628823181
 30
0.0
 10
114.7180803174406
 20
176.5207718994025
 30
0.0
 10
114.8163528290367
 20
176.8358088314132
 30
0.0
 10
114.9159613344157
 20
177.1507681542475
 30
0.0
 10
115.0193010210853
 20
177.46543915802
 30
0.0
 10
115.1217408808698
 20
177.7773701744857
 30
0.0
 10
115.2278472265715
 20
178.089017871087
 30
0.0
 10
115.3399707994666
 20
178.4000630973667
 30
0.0
 10
115.4506126367476
 20
178.7069977982957
 30
0.0
 10
115.5671137143384
 20
179.0133458472207
 30
0.0
 10
115.6923948611182
 20
179.3182894234933
 30
0.0
 10
115.8156535623583
 20
179.6183102177594
 30
0.0
 10
115.9474111431201
 20
179.9169715188822
 30
0.0
 10
116.0888784145841
 20
180.2137638424402
 30
0.0
 10
116.2279993843567
 20
180.5056337247645
 30
0.0
 10
116.3765106361187
 20
180.7956961111683
 30
0.0
 10
116.5417266684009
 20
181.0801320602527
 30
0.0
 10
116.7047263246995
 20
181.3607522960644
 30
0.0
 10
116.8839855779047
 20
181.6358960395192
 30
0.0
 10
117.0632448311124
 20
181.9110397829765
 30
0.0
  0
SPLINE
  5
C6
330
70
100
AcDbEntity
  8
0
 62
    98
420
   131843
370
     9
100
AcDbSpline
210
0.0
220
0.0
230
1.0
 70
     8
 71
     3
 72
    23
 73
    19
 74
     0
 42
0.0000000001
 43
0.0000000001
 40
0.0
 40
0.0
 40
0.0
 40
0.0
 40
1.0
 40
1.0
 40
1.0
 40
2.0
 40
2.0
 40
2.0
 40
3.0
 40
3.0
 40
3.0
 40
4.0
 40
4.0
 40
4.0
 40
5.0
 40
5.0
 40
5.0
 40
6.0
 40
6.0
 40
6.0
 40
6.0
 10
93.3778462784481
 20
159.0394424791919
 30
0.0
 10
93.66073241936398
 20
159.0304268185093
 30
0.0
 10
93.94361856027986
 20
159.0214111578241
 30
0.0
 10
94.23343705637872
 20
159.0348127289978
 30
0.0
 10
94.52325434341135
 20
159.048214244259
 30
0.0
 10
94.8200039277842
 20
159.0840328043367
 30
0.0
 10
95.12056610626425
 20
159.1362712473788
 30
0.0
 10
95.42994025152333
 20
159.1900412318422
 30
0.0
 10
95.74335382546809
 20
159.2612080186995
 30
0.0
 10
96.06021011457199
 20
159.3514060948004
 30
0.0
 10
96.37706482263595
 20
159.4416037208316
 30
0.0
 10
96.69736221150252
 20
159.5508324461917
 30
0.0
 10
97.01961875272486
 20
159.6771634837388
 30
0.0
 10
97.21587799760222
 20
159.7541010501265
 30
0.0
 10
97.41286389197234
 20
159.8373818630961
 30
0.0
 10
97.61040620679576
 20
159.9290068175183
 30
0.0
 10
97.80849793422097
 20
160.0208866029368
 30
0.0
 10
98.00714918147889
 20
160.1211570084748
 30
0.0
 10
98.20580042873551
 20
160.2214274140154
 30
0.0
  0
SPLINE
  5
C7
330
70
100
AcDbEntity
  8
0
 62
    98
420
   131843
370
     9
100
AcDbSpline
210
0.0
220
0.0
230
1.0
 70
     8
 71
     3
 72
    23
 73
    19
 74
     0
 42
0.0000000001
 43
0.0000000001
 40
0.0
 40
0.0
 40
0.0
 40
0.0
 40
1.0
 40
1.0
 40
1.0
 40
2.0
 40
2.0
 40
2.0
 40
3.0
 40
3.0
 40
3.0
 40
4.0
 40
4.0
 40
4.0
 40
5.0
 40
5.0
 40
5.0
 40
6.0
 40
6.0
 40
6.0
 40
6.0
 10
106.7357387163766
 20
165.1456559723176
 30
0.0
 10
107.0642170202688
 20
165.3613617987832
 30
0.0
 10
107.392695324161
 20
165.5770676252512
 30
0.0
 10
107.7183714054855
 20
165.8111053831343
 30
0.0
 10
108.0440489287461
 20
166.0451441772176
 30
0.0
 10
108.3669242046181
 20
166.2975150650478
 30
0.0
 10
108.6863909830235
 20
166.5622497401355
 30
0.0
 10
109.0150907676887
 20
166.8346355923591
 30
0.0
 10
109.340182187783
 20
167.1201102182634
 30
0.0
 10
109.6603045285452
 20
167.4191234324271
 30
0.0
 10
109.9804283884709
 20
167.7181380655773
 30
0.0
 10
110.2955831219074
 20
168.0306914154909
 30
0.0
 10
110.6051106866802
 20
168.3544987492533
 30
0.0
 10
110.8019874777548
 20
168.5604582696693
 30
0.0
 10
110.9965877024643
 20
168.770970779817
 30
0.0
 10
111.1877192754738
 20
168.9871220379591
 30
0.0
 10
111.3794103842828
 20
169.2039060767843
 30
0.0
 10
111.5676125027766
 20
169.4263619266927
 30
0.0
 10
111.7558146212704
 20
169.6488177766012
 30
0.0
  0
SPLINE
  5
C8
330
70
100
AcDbEntity
  8
0
 62
    98
420
   131843
370
     9
100
AcDbSpline
210
0.0
220
0.0
230
1.0
 70
     8
 71
     3
 72
    17
 73
    13
 74
     0
 42
0.0000000001
 43
0.0000000001
 40
0.0
 40
0.0
 40
0.0
 40
0.0
 40
1.0
 40
1.0
 40
1.0
 40
2.0
 40
2.0
 40
2.0
 40
3.0
 40
3.0
 40
3.0
 40
4.0
 40
4.0
 40
4.0
 40
4.0
 10
138.9137458520169
 20
170.5562543055294
 30
0.0
 10
138.9853561039744
 20
170.5157419540604
 30
0.0
 10
139.0569663559344
 20
170.4752296025888
 30
0.0
 10
139.1209457895358
 20
170.4309661282179
 30
0.0
 10
139.1864832147666
 20
170.3856247743032
 30
0.0
 10
139.2440136537219
 20
170.3363473825805
 30
0.0
 10
139.2941018323657
 20
170.2846616910595
 30
0.0
 10
139.334891633911
 20
170.2425709391724
 30
0.0
 10
139.3707458626579
 20
170.1988830463007
 30
0.0
 10
139.3985633323473
 20
170.1535926426506
 30
0.0
 10
139.4270664594367
 20
170.1071859009266
 30
0.0
 10
139.4471317575169
 20
170.0590966760242
 30
0.0
 10
139.4671970556023
 20
170.0110074511217
 30
0.0
  0
LWPOLYLINE
  5
C9
330
70
100
AcDbEntity
  8
0
 62
    98
420
   131843
370
     9
100
AcDbPolyline
 90
       40
 70
     0
 43
0.0
 10
106.9471497848269
 20
158.7854619270995
 10
107.0363166696992
 20
158.8343964339118
 10
107.2382980045724
 20
158.9666546958238
 10
107.4099724548922
 20
159.112484085152
 10
107.5486326120217
 20
159.2695847853145
 10
107.652091722453
 20
159.4354792244265
 10
107.7187181742073
 20
159.6075511480775
 10
107.7474612283452
 20
159.7830868792425
 10
107.7378675897304
 20
159.9593181145792
 10
107.6900885557754
 20
160.1334655822349
 10
107.6048776303834
 20
160.3027828726096
 10
107.4835786407553
 20
160.4645997508944
 10
107.3281045444161
 20
160.6163642682483
 10
107.1409072607411
 20
160.7556830075729
 10
106.9249390027186
 20
160.8803588291301
 10
106.683605718794
 20
160.9884255207324
 10
106.420713379018
 20
161.078178806096
 10
106.1404079526362
 20
161.1482032222968
 10
105.8471100236621
 20
161.1973944424603
 10
105.5454450756482
 20
161.2249766916582
 10
105.2401705450313
 20
161.2305149813447
 10
104.9361007935214
 20
161.2139219693835
 10
104.6380311827358
 20
161.1754593374858
 10
104.3506624485046
 20
161.1157336643281
 10
104.0785265674261
 20
161.0356868594647
 10
103.8259152849131
 20
160.9365813088167
 10
103.5968124317942
 20
160.8199799661206
 10
103.3948310969184
 20
160.6877217042112
 10
103.2231566465986
 20
160.541892314883
 10
103.0844964894691
 20
160.3847916147179
 10
102.9810373790378
 20
160.2188971756085
 10
102.9144109272835
 20
160.0468252519575
 10
102.8856678731431
 20
159.8712895207925
 10
102.8952615117604
 20
159.6950582854533
 10
102.943040545718
 20
159.5209108178026
 10
103.0282514711074
 20
159.3515935274228
 10
103.1495504607356
 20
159.1897766491406
 10
103.3050245570748
 20
159.0380121317867
 10
103.4922218407523
 20
158.8986933924595
 10
103.6859793166665
 20
158.7854619270969
  0
SPLINE
  5
CA
330
70
100
AcDbEntity
  8
0
 62
    98
420
   131843
370
     9
100
AcDbSpline
210
0.0
220
0.0
230
1.0
 70
     8
 71
     3
 72
    14
 73
    10
 74
     0
 42
0.0000000001
 43
0.0000000001
 40
0.0
 40
0.0
 40
0.0
 40
0.0
 40
1.0
 40
1.0
 40
1.0
 40
2.0
 40
2.0
 40
2.0
 40
3.0
 40
3.0
 40
3.0
 40
3.0
 10
139.4671970556023
 20
170.0110074511217
 30
0.0
 10
139.8671995587509
 20
170.2422709634628
 30
0.0
 10
140.2672020618995
 20
170.4735344758038
 30
0.0
 10
140.6674135618795
 20
170.7049768387047
 30
0.0
 10
142.268265587153
 20
171.6307497747806
 30
0.0
 10
143.8724615868956
 20
172.5593843413824
 30
0.0
 10
145.4792282938667
 20
173.4900999472223
 30
0.0
 10
146.9084663684832
 20
174.3179825357371
 30
0.0
 10
148.3397384673388
 20
175.1475117078085
 30
0.0
 10
149.7710105661969
 20
175.9770408798799
 30
0.0
  0
SPLINE
  5
CB
330
70
100
AcDbEntity
  8
0
 62
    98
420
   131843
370
     9
100
AcDbSpline
210
0.0
220
0.0
230
1.0
 70
     8
 71
     3
 72
    20
 73
    16
 74
     0
 42
0.0000000001
 43
0.0000000001
 40
0.0
 40
0.0
 40
0.0
 40
0.0
 40
1.0
 40
1.0
 40
1.0
 40
2.0
 40
2.0
 40
2.0
 40
3.0
 40
3.0
 40
3.0
 40
4.0
 40
4.0
 40
4.0
 40
5.0
 40
5.0
 40
5.0
 40
5.0
 10
109.1424645954055
 20
188.4868533527155
 30
0.0
 10
109.1045380507286
 20
188.4599118755843
 30
0.0
 10
109.0666115060491
 20
188.4329703984504
 30
0.0
 10
109.0397042492517
 20
188.4022152915046
 30
0.0
 10
109.0128022374584
 20
188.3714661796269
 30
0.0
 10
108.9969152180062
 20
188.336904924564
 30
0.0
 10
108.9906809008681
 20
188.3019832555213
 30
0.0
 10
108.984447270194
 20
188.2670654317164
 30
0.0
 10
108.9878642162212
 20
188.2317872732947
 30
0.0
 10
109.0009157482822
 20
188.1974374407111
 30
0.0
 10
109.0139673957078
 20
188.1630873045115
 30
0.0
 10
109.0366537994791
 20
188.1296655105595
 30
0.0
 10
109.0692696166295
 20
188.1003500295661
 30
0.0
 10
109.0907291761079
 20
188.0810619244946
 30
0.0
 10
109.1164871538118
 20
188.0635514320405
 30
0.0
 10
109.1422451315183
 20
188.0460409395838
 30
0.0
  0
SPLINE
  5
CC
330
70
100
AcDbEntity
  8
0
 62
    98
420
   131843
370
     9
100
AcDbSpline
210
0.0
220
0.0
230
1.0
 70
     8
 71
     3
 72
    14
 73
    10
 74
     0
 42
0.0000000001
 43
0.0000000001
 40
0.0
 40
0.0
 40
0.0
 40
0.0
 40
1.0
 40
1.0
 40
1.0
 40
2.0
 40
2.0
 40
2.0
 40
3.0
 40
3.0
 40
3.0
 40
3.0
 10
118.5466803692268
 20
194.0022325968599
 30
0.0
 10
118.1478212404881
 20
193.766977120114
 30
0.0
 10
117.7489621117495
 20
193.5317216433681
 30
0.0
 10
117.3500996725368
 20
193.2966057091683
 30
0.0
 10
115.7546481158152
 20
192.3561409114017
 30
0.0
 10
114.1591435913349
 20
191.4179087993675
 30
0.0
 10
112.5636949694264
 20
190.4842673459252
 30
0.0
 10
111.4232658027993
 20
189.8168989768914
 30
0.0
 10
110.2828651991024
 20
189.1518761648034
 30
0.0
 10
109.1424645954055
 20
188.4868533527155
 30
0.0
  0
SPLINE
  5
CD
330
70
100
AcDbEntity
  8
0
 62
    98
420
   131843
370
     9
100
AcDbSpline
210
0.0
220
0.0
230
1.0
 70
     8
 71
     3
 72
    20
 73
    16
 74
     0
 42
0.0000000001
 43
0.0000000001
 40
0.0
 40
0.0
 40
0.0
 40
0.0
 40
1.0
 40
1.0
 40
1.0
 40
2.0
 40
2.0
 40
2.0
 40
3.0
 40
3.0
 40
3.0
 40
4.0
 40
4.0
 40
4.0
 40
5.0
 40
5.0
 40
5.0
 40
5.0
 10
119.294778318433
 20
194.0015335209888
 30
0.0
 10
119.2485943532904
 20
194.0239853272943
 30
0.0
 10
119.202410388148
 20
194.0464371335971
 30
0.0
 10
119.1498940476883
 20
194.0623786308953
 30
0.0
 10
119.0973701664153
 20
194.078322417234
 30
0.0
 10
119.0385120911601
 20
194.0877540248007
 30
0.0
 10
118.9791675628293
 20
194.0914818448872
 30
0.0
 10
118.9198249638307
 20
194.0952095437772
 30
0.0
 10
118.859995943382
 20
194.0932338260505
 30
0.0
 10
118.8018642903593
 20
194.085564839143
 30
0.0
 10
118.7437385850012
 20
194.0778966368795
 30
0.0
 10
118.6873098997612
 20
194.0645363303755
 30
0.0
 10
118.6379682569443
 20
194.0453018489766
 30
0.0
 10
118.6054921675882
 20
194.0326419393968
 30
0.0
 10
118.576086268405
 20
194.0174372681283
 30
0.0
 10
118.5466803692268
 20
194.0022325968599
 30
0.0
  0
SPLINE
  5
CE
330
70
100
AcDbEntity
  8
0
 62
    98
420
   131843
370
     9
100
AcDbSpline
210
0.0
220
0.0
230
1.0
 70
     8
 71
     3
 72
    20
 73
    16
 74
     0
 42
0.0000000001
 43
0.0000000001
 40
0.0
 40
0.0
 40
0.0
 40
0.0
 40
1.0
 40
1.0
 40
1.0
 40
2.0
 40
2.0
 40
2.0
 40
3.0
 40
3.0
 40
3.0
 40
4.0
 40
4.0
 40
4.0
 40
5.0
 40
5.0
 40
5.0
 40
5.0
 10
149.6550747527939
 20
176.4734290026526
 30
0.0
 10
146.3577249023555
 20
178.3320900919556
 30
0.0
 10
143.0603750519196
 20
180.1907511812613
 30
0.0
 10
139.7625190264811
 20
182.0715255381332
 30
0.0
 10
138.0575393564014
 20
183.0438790968549
 30
0.0
 10
136.3524243931991
 20
184.0221432062776
 30
0.0
 10
134.6470719618236
 20
185.0064373241062
 30
0.0
 10
132.9417197122029
 20
185.9907313370273
 30
0.0
 10
131.2361299944603
 20
186.9810553570684
 30
0.0
 10
129.5304196210427
 20
187.9767827138432
 30
0.0
 10
127.8245206822962
 20
188.9726201477148
 30
0.0
 10
126.1185010612005
 20
189.9738621130558
 30
0.0
 10
124.4125424920625
 20
190.9788869597107
 30
0.0
 10
122.7065803993756
 20
191.9839138821773
 30
0.0
 10
121.000679358903
 20
192.9927237015843
 30
0.0
 10
119.294778318433
 20
194.0015335209888
 30
0.0
  0
SPLINE
  5
CF
330
70
100
AcDbEntity
  8
0
 62
    98
420
   131843
370
     9
100
AcDbSpline
210
0.0
220
0.0
230
1.0
 70
     8
 71
     3
 72
    20
 73
    16
 74
     0
 42
0.0000000001
 43
0.0000000001
 40
0.0
 40
0.0
 40
0.0
 40
0.0
 40
1.0
 40
1.0
 40
1.0
 40
2.0
 40
2.0
 40
2.0
 40
3.0
 40
3.0
 40
3.0
 40
4.0
 40
4.0
 40
4.0
 40
5.0
 40
5.0
 40
5.0
 40
5.0
 10
149.7710105661969
 20
175.9770408798799
 30
0.0
 10
149.8021279708222
 20
175.9993604752459
 30
0.0
 10
149.8332453754552
 20
176.0216800706119
 30
0.0
 10
149.8549519163003
 20
176.0468652830256
 30
0.0
 10
149.876585128384
 20
176.071965415074
 30
0.0
 10
149.8888709526118
 20
176.0999118356895
 30
0.0
 10
149.8946306331282
 20
176.127935108202
 30
0.0
 10
149.9022838170341
 20
176.1651710724794
 30
0.0
 10
149.8984145692386
 20
176.2025427249632
 30
0.0
 10
149.885726680536
 20
176.2389091084109
 30
0.0
 10
149.8692053516811
 20
176.2862630058409
 30
0.0
 10
149.8377315545501
 20
176.3319124168843
 30
0.0
 10
149.7938203891329
 20
176.3724099883714
 30
0.0
 10
149.7542911474436
 20
176.4088662808875
 30
0.0
 10
149.7046829501174
 20
176.4411476417726
 30
0.0
 10
149.6550747527939
 20
176.4734290026526
 30
0.0
  0
SPLINE
  5
D0
330
70
100
AcDbEntity
  8
0
 62
    98
420
   131843
370
     9
100
AcDbSpline
210
0.0
220
0.0
230
1.0
 70
     8
 71
     3
 72
    26
 73
    22
 74
     0
 42
0.0000000001
 43
0.0000000001
 40
0.0
 40
0.0
 40
0.0
 40
0.0
 40
1.0
 40
1.0
 40
1.0
 40
2.0
 40
2.0
 40
2.0
 40
3.0
 40
3.0
 40
3.0
 40
4.0
 40
4.0
 40
4.0
 40
5.0
 40
5.0
 40
5.0
 40
6.0
 40
6.0
 40
6.0
 40
7.0
 40
7.0
 40
7.0
 40
7.0
 10
117.6246847615349
 20
182.3825004800695
 30
0.0
 10
118.7439532968247
 20
181.6763928925318
 30
0.0
 10
119.8632218321171
 20
180.9702853049916
 30
0.0
 10
120.9886126597428
 20
180.2721871678872
 30
0.0
 10
121.5514742173452
 20
179.9230350376565
 30
0.0
 10
122.1158672520167
 20
179.5758864526598
 30
0.0
 10
122.6857870524791
 20
179.2348717148886
 30
0.0
 10
123.2556694171434
 20
178.8938793770419
 30
0.0
 10
123.8310778215675
 20
178.5590200806264
 30
0.0
 10
124.4118970661865
 20
178.2304774792297
 30
0.0
 10
125.2014310229019
 20
177.7838746119314
 30
0.0
 10
126.0009632376033
 20
177.3489438591473
 30
0.0
 10
126.8039458954095
 20
176.9186385662603
 30
0.0
 10
127.6069883608264
 20
176.4883012234555
 30
0.0
 10
128.4134817833592
 20
176.0625900295965
 30
0.0
 10
129.2209225830586
 20
175.6382885703708
 30
0.0
 10
130.0283692402869
 20
175.2139840330687
 30
0.0
 10
130.8367632884294
 20
174.7910892508547
 30
0.0
 10
131.6448873566938
 20
174.3679954978153
 30
0.0
 10
134.0694603360718
 20
173.0986091230631
 30
0.0
 10
136.4916030940444
 20
171.8274317142962
 30
0.0
 10
138.9137458520169
 20
170.5562543055294
 30
0.0
  0
LINE
  5
D1
330
70
100
AcDbEntity
  8
0
 62
    98
420
   131843
370
     9
100
AcDbLine
 10
117.2964269236277
 20
182.5327144589179
 30
0.0
 11
117.6246847615349
 21
182.3825004800695
 31
0.0
  0
SPLINE
  5
D2
330
70
100
AcDbEntity
  8
0
 62
    98
420
   131843
370
     9
100
AcDbSpline
210
0.0
220
0.0
230
1.0
 70
     8
 71
     3
 72
     8
 73
     4
 74
     0
 42
0.0000000001
 43
0.0000000001
 40
0.0
 40
0.0
 40
0.0
 40
0.0
 40
1.0
 40
1.0
 40
1.0
 40
1.0
 10
117.6246847615349
 20
182.3825004800695
 30
0.0
 10
117.4112765389318
 20
182.2595757562023
 30
0.0
 10
117.2212192228286
 20
182.0999779971516
 30
0.0
 10
117.0632448311124
 20
181.9110397829765
 30
0.0
  0
SPLINE
  5
D3
330
70
100
AcDbEntity
  8
0
 62
    98
420
   131843
370
     9
100
AcDbSpline
210
0.0
220
0.0
230
1.0
 70
     8
 71
     3
 72
     8
 73
     4
 74
     0
 42
0.0000000001
 43
0.0000000001
 40
0.0
 40
0.0
 40
0.0
 40
0.0
 40
1.0
 40
1.0
 40
1.0
 40
1.0
 10
98.00136556115544
 20
169.9810993048834
 30
0.0
 10
98.6320624569986
 20
170.3029744488306
 30
0.0
 10
98.97150899815304
 20
171.0052277189639
 30
0.0
 10
98.83194684650975
 20
171.6994211995945
 30
0.0
  0
LWPOLYLINE
  5
D4
330
70
100
AcDbEntity
  8
0
 62
    98
420
   131843
370
     9
100
AcDbPolyline
 90
       18
 70
     0
 43
0.0
 10
95.38122104430648
 20
175.6720954930688
 10
95.34776324636556
 20
175.7091749420017
 10
95.20501919359061
 20
175.837398672036
 10
95.03211793984133
 20
175.9525899022818
 10
94.83257925603652
 20
176.0524036714747
 10
94.61046517435756
 20
176.1348080591167
 10
94.3702972969813
 20
176.1981255495038
 10
94.11696474930922
 20
176.241067181129
 10
93.85562465145318
 20
176.2627587862081
 10
93.59159713417161
 20
176.2627587862081
 10
93.33025703631689
 20
176.241067181129
 10
93.07692448864351
 20
176.1981255495038
 10
92.83675661126853
 20
176.1348080591167
 10
92.61464252958829
 20
176.0524036714747
 10
92.41510384578345
 20
175.9525899022818
 10
92.24220259203418
 20
175.837398672036
 10
92.09945853925926
 20
175.7091749420017
 10
92.06600074132088
 20
175.6720954930714
  0
SPLINE
  5
D5
330
70
100
AcDbEntity
  8
0
 62
    98
420
   131843
370
     9
100
AcDbSpline
210
0.0
220
0.0
230
1.0
 70
     8
 71
     3
 72
    35
 73
    31
 74
     0
 42
0.0000000001
 43
0.0000000001
 40
0.0
 40
0.0
 40
0.0
 40
0.0
 40
1.0
 40
1.0
 40
1.0
 40
2.0
 40
2.0
 40
2.0
 40
3.0
 40
3.0
 40
3.0
 40
4.0
 40
4.0
 40
4.0
 40
5.0
 40
5.0
 40
5.0
 40
6.0
 40
6.0
 40
6.0
 40
7.0
 40
7.0
 40
7.0
 40
8.0
 40
8.0
 40
8.0
 40
9.0
 40
9.0
 40
9.0
 40
10.0
 40
10.0
 40
10.0
 40
10.0
 10
147.6724438450306
 20
179.2605495289304
 30
0.0
 10
147.579218008326
 20
179.3145112070107
 30
0.0
 10
147.4859921716241
 20
179.3684728850961
 30
0.0
 10
147.3927638589572
 20
179.4224330578942
 30
0.0
 10
147.2434155955513
 20
179.5088752327019
 30
0.0
 10
147.0940609781211
 20
179.5953135445326
 30
0.0
 10
146.9447012843561
 20
179.6817487885209
 30
0.0
 10
146.3472625043115
 20
180.0274897673538
 30
0.0
 10
145.749742502905
 20
180.3731816607433
 30
0.0
 10
145.1521479213214
 20
180.718830079182
 30
0.0
 10
142.7617694027517
 20
182.1014238641328
 30
0.0
 10
140.3701976011211
 20
183.4833220497993
 30
0.0
 10
137.9779668871361
 20
184.8648572056155
 30
0.0
 10
137.0958152083918
 20
185.3743078826825
 30
0.0
 10
136.2135739296417
 20
185.8837091943429
 30
0.0
 10
135.3312496005028
 20
186.3930641743727
 30
0.0
 10
135.1817059319979
 20
186.4793938943755
 30
0.0
 10
135.0321598777613
 20
186.565722283438
 30
0.0
 10
134.8826113972914
 20
186.6520493229355
 30
0.0
 10
134.3727327384571
 20
186.9463773895454
 30
0.0
 10
133.862825876162
 20
187.240689768272
 30
0.0
 10
133.3528902760198
 20
187.5349862279315
 30
0.0
 10
131.4315630947348
 20
188.6438317118447
 30
0.0
 10
129.5098279454003
 20
189.7524512055603
 30
0.0
 10
127.5874387011489
 20
190.8606964032927
 30
0.0
 10
126.1441489863282
 20
191.6927437631943
 30
0.0
 10
124.7004905782831
 20
192.5245801439407
 30
0.0
 10
123.2563203454244
 20
193.3561053116569
 30
0.0
 10
123.1628480243902
 20
193.4099248584514
 30
0.0
 10
123.0693735592342
 20
193.4637431015112
 30
0.0
 10
122.9758990940781
 20
193.5175613445735
 30
0.0
  0
SPLINE
  5
D6
330
70
100
AcDbEntity
  8
0
 62
    98
420
   131843
370
     9
100
AcDbSpline
210
0.0
220
0.0
230
1.0
 70
     8
 71
     3
 72
     8
 73
     4
 74
     0
 42
0.0000000001
 43
0.0000000001
 40
0.0
 40
0.0
 40
0.0
 40
0.0
 40
1.0
 40
1.0
 40
1.0
 40
1.0
 10
116.5055701863851
 20
183.3262147689952
 30
0.0
 10
116.5772122359442
 20
182.9223035524103
 30
0.0
 10
116.8927570315116
 20
182.6057039948177
 30
0.0
 10
117.2964269236277
 20
182.5327144589179
 30
0.0
  0
SPLINE
  5
D7
330
70
100
AcDbEntity
  8
0
 62
    98
420
   131843
370
     9
100
AcDbSpline
210
0.0
220
0.0
230
1.0
 70
     8
 71
     3
 72
    17
 73
    13
 74
     0
 42
0.0000000001
 43
0.0000000001
 40
0.0
 40
0.0
 40
0.0
 40
0.0
 40
1.0
 40
1.0
 40
1.0
 40
2.0
 40
2.0
 40
2.0
 40
3.0
 40
3.0
 40
3.0
 40
4.0
 40
4.0
 40
4.0
 40
4.0
 10
93.24091380245073
 20
130.4790537027896
 30
0.0
 10
93.2395650765785
 20
130.4934093815029
 30
0.0
 10
93.23821635070627
 20
130.5077650602188
 30
0.0
 10
93.23408380234447
 20
130.522647365471
 30
0.0
 10
93.22995125398012
 20
130.5375296707232
 30
0.0
 10
93.22303488312622
 20
130.5529386025091
 30
0.0
 10
93.21463360765063
 20
130.5674900384396
 30
0.0
 10
93.20623233217377
 20
130.5820414743701
 30
0.0
 10
93.19634615207521
 20
130.5957354144427
 30
0.0
 10
93.18552433419355
 20
130.6067548312473
 30
0.0
 10
93.17470251630934
 20
130.6177742480545
 30
0.0
 10
93.1629450606433
 20
130.6261191415885
 30
0.0
 10
93.151187604976
 20
130.6344640351303
 30
0.0
  0
LINE
  5
D8
330
70
100
AcDbEntity
  8
0
 62
    98
420
   131843
370
     9
100
AcDbLine
 10
93.24091380245073
 20
130.0646036995345
 30
0.0
 11
93.24091380245073
 21
130.4790537014523
 31
0.0
  0
SPLINE
  5
D9
330
70
100
AcDbEntity
  8
0
 62
    98
420
   131843
370
     9
100
AcDbSpline
210
0.0
220
0.0
230
1.0
 70
     8
 71
     3
 72
    29
 73
    25
 74
     0
 42
0.0000000001
 43
0.0000000001
 40
0.0
 40
0.0
 40
0.0
 40
0.0
 40
1.0
 40
1.0
 40
1.0
 40
2.0
 40
2.0
 40
2.0
 40
3.0
 40
3.0
 40
3.0
 40
4.0
 40
4.0
 40
4.0
 40
5.0
 40
5.0
 40
5.0
 40
6.0
 40
6.0
 40
6.0
 40
7.0
 40
7.0
 40
7.0
 40
8.0
 40
8.0
 40
8.0
 40
8.0
 10
93.09137013993424
 20
130.150933417032
 30
0.0
 10
93.09249407815938
 20
130.1389837316583
 30
0.0
 10
93.09361801638326
 20
130.1270340462871
 30
0.0
 10
93.09706180668603
 20
130.1146053647757
 30
0.0
 10
93.10050559698881
 20
130.1021766832644
 30
0.0
 10
93.10626923937176
 20
130.0892690056128
 30
0.0
 10
93.11327030227323
 20
130.0772364706095
 30
0.0
 10
93.12027136517597
 20
130.0652039356088
 30
0.0
 10
93.1285098485972
 20
130.054046543259
 30
0.0
 10
93.13752803017145
 20
130.0445158099211
 30
0.0
 10
93.14654621174954
 20
130.0349850765831
 30
0.0
 10
93.15634409147936
 20
130.0270810022546
 30
0.0
 10
93.16614197120918
 20
130.0214248066839
 30
0.0
 10
93.1759398509377
 20
130.0157686111159
 30
0.0
 10
93.18573773066624
 20
130.012360294303
 30
0.0
 10
93.19475591224177
 20
130.0114788568284
 30
0.0
 10
93.20377409381601
 20
130.0105974193539
 30
0.0
 10
93.21201257723725
 20
130.0122428612175
 30
0.0
 10
93.21901364013486
 20
130.0161921410524
 30
0.0
 10
93.22601470303373
 20
130.0201414208898
 30
0.0
 10
93.23177834541285
 20
130.0263945386983
 30
0.0
 10
93.23522213571306
 20
130.0348471045672
 30
0.0
 10
93.23866592601069
 20
130.043299670431
 30
0.0
 10
93.23978986423199
 20
130.0539516843526
 30
0.0
 10
93.24091380245073
 20
130.0646036982742
 30
0.0
  0
SPLINE
  5
DA
330
70
100
AcDbEntity
  8
0
 62
    98
420
   131843
370
     9
100
AcDbSpline
210
0.0
220
0.0
230
1.0
 70
     8
 71
     3
 72
    17
 73
    13
 74
     0
 42
0.0000000001
 43
0.0000000001
 40
0.0
 40
0.0
 40
0.0
 40
0.0
 40
1.0
 40
1.0
 40
1.0
 40
2.0
 40
2.0
 40
2.0
 40
3.0
 40
3.0
 40
3.0
 40
4.0
 40
4.0
 40
4.0
 40
4.0
 10
93.16614197122072
 20
130.1941123085555
 30
0.0
 10
93.15634409149218
 20
130.1984706217552
 30
0.0
 10
93.14654621176236
 20
130.202828934955
 30
0.0
 10
93.13752803018557
 20
130.2040582584367
 30
0.0
 10
93.12850984861004
 20
130.2052875819159
 30
0.0
 10
93.12027136518622
 20
130.203387915677
 30
0.0
 10
93.11327030228477
 20
130.1993449742333
 30
0.0
 10
93.10626923937817
 20
130.1953020327895
 30
0.0
 10
93.10050559699524
 20
130.1891158161408
 30
0.0
 10
93.09706180669245
 20
130.1806900107415
 30
0.0
 10
93.09361801638456
 20
130.1722642053422
 30
0.0
 10
93.09249407815938
 20
130.1615988111948
 30
0.0
 10
93.09137013993424
 20
130.1509334170449
 30
0.0
  0
LINE
  5
DB
330
70
100
AcDbEntity
  8
0
 62
    98
420
   131843
370
     9
100
AcDbLine
 10
93.16614197171611
 20
130.522218560545
 30
0.0
 11
93.16614197171611
 21
130.1941123087044
 31
0.0
  0
SPLINE
  5
DC
330
70
100
AcDbEntity
  8
0
 62
    98
420
   131843
370
     9
100
AcDbSpline
210
0.0
220
0.0
230
1.0
 70
     8
 71
     3
 72
    17
 73
    13
 74
     0
 42
0.0000000001
 43
0.0000000001
 40
0.0
 40
0.0
 40
0.0
 40
0.0
 40
1.0
 40
1.0
 40
1.0
 40
2.0
 40
2.0
 40
2.0
 40
3.0
 40
3.0
 40
3.0
 40
4.0
 40
4.0
 40
4.0
 40
4.0
 10
93.16614197119248
 20
130.5222185621518
 30
0.0
 10
93.16591718354798
 20
130.5246111752682
 30
0.0
 10
93.16569239590217
 20
130.5270037883871
 30
0.0
 10
93.16500363784058
 20
130.5294841725949
 30
0.0
 10
93.16431487978029
 20
130.5319645568053
 30
0.0
 10
93.1631621513055
 20
130.5345327121021
 30
0.0
 10
93.16176193872495
 20
130.5369579514256
 30
0.0
 10
93.16036172614825
 20
130.5393831907465
 30
0.0
 10
93.15871402946324
 20
130.5416655140914
 30
0.0
 10
93.15691039314941
 20
130.5435020835576
 30
0.0
 10
93.15510675683688
 20
130.5453386530263
 30
0.0
 10
93.15314718089039
 20
130.5467294686162
 30
0.0
 10
93.15118760494776
 20
130.5481202842061
 30
0.0
  0
LINE
  5
DD
330
70
100
AcDbEntity
  8
0
 62
    98
420
   131843
370
     9
100
AcDbLine
 10
92.05951886818876
 20
131.1783272324679
 30
0.0
 11
93.15118760531611
 21
130.5481202848555
 31
0.0
  0
SPLINE
  5
DE
330
70
100
AcDbEntity
  8
0
 62
    98
420
   131843
370
     9
100
AcDbSpline
210
0.0
220
0.0
230
1.0
 70
     8
 71
     3
 72
    17
 73
    13
 74
     0
 42
0.0000000001
 43
0.0000000001
 40
0.0
 40
0.0
 40
0.0
 40
0.0
 40
1.0
 40
1.0
 40
1.0
 40
2.0
 40
2.0
 40
2.0
 40
3.0
 40
3.0
 40
3.0
 40
4.0
 40
4.0
 40
4.0
 40
4.0
 10
92.05951886856864
 20
131.1783272313873
 30
0.0
 10
92.05755929262217
 20
131.1791988940246
 30
0.0
 10
92.05559971667568
 20
131.1800705566646
 30
0.0
 10
92.05379608036059
 20
131.1803164213594
 30
0.0
 10
92.05199244404548
 20
131.1805622860568
 30
0.0
 10
92.0503447473656
 20
131.180182352809
 30
0.0
 10
92.04894453478248
 20
131.1793737645208
 30
0.0
 10
92.04754432220065
 20
131.1785651762325
 30
0.0
 10
92.04639159372586
 20
131.1773279329013
 30
0.0
 10
92.04570283566171
 20
131.1756427718229
 30
0.0
 10
92.0450140776027
 20
131.173957610742
 30
0.0
 10
92.04478928995689
 20
131.1718245319115
 30
0.0
 10
92.04456450231109
 20
131.1696914530836
 30
0.0
  0
LINE
  5
DF
330
70
100
AcDbEntity
  8
0
 62
    98
420
   131843
370
     9
100
AcDbLine
 10
92.04456450178875
 20
128.8125070540343
 30
0.0
 11
92.04456450178875
 21
131.1696914520877
 31
0.0
  0
SPLINE
  5
E0
330
70
100
AcDbEntity
  8
0
 62
    98
420
   131843
370
     9
100
AcDbSpline
210
0.0
220
0.0
230
1.0
 70
     8
 71
     3
 72
    17
 73
    13
 74
     0
 42
0.0000000001
 43
0.0000000001
 40
0.0
 40
0.0
 40
0.0
 40
0.0
 40
1.0
 40
1.0
 40
1.0
 40
2.0
 40
2.0
 40
2.0
 40
3.0
 40
3.0
 40
3.0
 40
4.0
 40
4.0
 40
4.0
 40
4.0
 10
92.19410816485966
 20
128.5534898317518
 30
0.0
 10
92.17451240540004
 20
128.5673979876454
 30
0.0
 10
92.1549166459404
 20
128.5813061435389
 30
0.0
 10
92.13688028278935
 20
128.5996718382184
 30
0.0
 10
92.11884391963829
 20
128.6180375329004
 30
0.0
 10
92.10236695279325
 20
128.6408607663658
 30
0.0
 10
92.08836482698904
 20
128.6651131595979
 30
0.0
 10
92.07436270118614
 20
128.68936555283
 30
0.0
 10
92.06283541642022
 20
128.7150471058287
 30
0.0
 10
92.05594783581339
 20
128.7398509479302
 30
0.0
 10
92.04906025520914
 20
128.7646547900292
 30
0.0
 10
92.04681237876013
 20
128.7885809212361
 30
0.0
 10
92.04456450231109
 20
128.8125070524378
 30
0.0
  0
LINE
  5
E1
330
70
100
AcDbEntity
  8
0
 62
    98
420
   131843
370
     9
100
AcDbLine
 10
92.19410816482758
 20
128.5534898317672
 30
0.0
 11
92.19410816482758
 21
128.5103179562987
 31
0.0
  0
LINE
  5
E2
330
70
100
AcDbEntity
  8
0
 62
    98
420
   131843
370
     9
100
AcDbLine
 10
92.04456450178875
 20
128.596647674959
 30
0.0
 11
92.19410816452983
 21
128.5103179560394
 31
0.0
  0
LINE
  5
E3
330
70
100
AcDbEntity
  8
0
 62
    98
420
   131843
370
     9
100
AcDbLine
 10
92.04456450231109
 20
128.5966476750899
 30
0.0
 11
92.04456450231109
 21
127.38783516194
 31
0.0
  0
LINE
  5
E4
330
70
100
AcDbEntity
  8
0
 62
    98
420
   131843
370
     9
100
AcDbLine
 10
92.04456450231109
 20
127.38783516194
 30
0.0
 11
91.96979267105284
 21
127.4310000213357
 31
0.0
  0
LINE
  5
E5
330
70
100
AcDbEntity
  8
0
 62
    98
420
   131843
370
     9
100
AcDbLine
 10
91.96979267105284
 20
127.4310000213357
 30
0.0
 11
91.96979267105284
 21
131.2128563124767
 31
0.0
  0
SPLINE
  5
E6
330
70
100
AcDbEntity
  8
0
 62
    98
420
   131843
370
     9
100
AcDbSpline
210
0.0
220
0.0
230
1.0
 70
     8
 71
     3
 72
    17
 73
    13
 74
     0
 42
0.0000000001
 43
0.0000000001
 40
0.0
 40
0.0
 40
0.0
 40
0.0
 40
1.0
 40
1.0
 40
1.0
 40
2.0
 40
2.0
 40
2.0
 40
3.0
 40
3.0
 40
3.0
 40
4.0
 40
4.0
 40
4.0
 40
4.0
 10
92.05951886859688
 20
131.2646709823064
 30
0.0
 10
92.04776141292059
 20
131.2699009581486
 30
0.0
 10
92.03600395724429
 20
131.2751309339883
 30
0.0
 10
92.02518213935752
 20
131.2766061221648
 30
0.0
 10
92.01436032146302
 20
131.2780813103388
 30
0.0
 10
92.00447414135549
 20
131.2758017108522
 30
0.0
 10
91.99607286587092
 20
131.2709501811176
 30
0.0
 10
91.98767159038634
 20
131.2660986513856
 30
0.0
 10
91.98075521952731
 20
131.2586751914083
 30
0.0
 10
91.97662267116038
 20
131.248564224928
 30
0.0
 10
91.97249012279476
 20
131.2384532584504
 30
0.0
 10
91.97114139692379
 20
131.2256547854725
 30
0.0
 10
91.96979267105284
 20
131.2128563124946
 30
0.0
  0
LINE
  5
E7
330
70
100
AcDbEntity
  8
0
 62
    98
420
   131843
370
     9
100
AcDbLine
 10
93.15118760531611
 20
130.6344640349327
 30
0.0
 11
92.05951886818876
 21
131.2646709825425
 31
0.0
  0
LINE
  5
E8
330
70
100
AcDbEntity
  8
0
 62
    98
420
   131843
370
     9
100
AcDbLine
 10
152.4452497931914
 20
164.8641975360222
 30
0.0
 11
93.151187604976
 21
130.6344640351303
 31
0.0
  0
SPLINE
  5
E9
330
70
100
AcDbEntity
  8
0
 62
    98
420
   131843
370
     9
100
AcDbSpline
210
0.0
220
0.0
230
1.0
 70
     8
 71
     3
 72
    17
 73
    13
 74
     0
 42
0.0000000001
 43
0.0000000001
 40
0.0
 40
0.0
 40
0.0
 40
0.0
 40
1.0
 40
1.0
 40
1.0
 40
2.0
 40
2.0
 40
2.0
 40
3.0
 40
3.0
 40
3.0
 40
4.0
 40
4.0
 40
4.0
 40
4.0
 10
152.4452497931914
 20
164.8641975360222
 30
0.0
 10
152.45700724886
 20
164.855852642483
 30
0.0
 10
152.4687647045261
 20
164.8475077489463
 30
0.0
 10
152.4795865224116
 20
164.8364883321417
 30
0.0
 10
152.4904083402919
 20
164.8254689153371
 30
0.0
 10
152.5002945203918
 20
164.8117749752645
 30
0.0
 10
152.5086957958674
 20
164.797223539334
 30
0.0
 10
152.517097071343
 20
164.7826721034035
 30
0.0
 10
152.5240134421968
 20
164.767263171615
 30
0.0
 10
152.5281459905612
 20
164.7523808663629
 30
0.0
 10
152.532278538923
 20
164.7374985611133
 30
0.0
 10
152.5336272647952
 20
164.7231428823974
 30
0.0
 10
152.5349759906674
 20
164.7087872036815
 30
0.0
  0
LINE
  5
EA
330
70
100
AcDbEntity
  8
0
 62
    98
420
   131843
370
     9
100
AcDbLine
 10
93.24091380245073
 20
130.4790537027896
 30
0.0
 11
152.5349759906674
 21
164.7087872036815
 31
0.0
  0
LINE
  5
EB
330
70
100
AcDbEntity
  8
0
 62
    98
420
   131843
370
     9
100
AcDbLine
 10
152.5349759906674
 20
164.2943371991301
 30
0.0
 11
152.5349759906674
 21
164.7087872036404
 31
0.0
  0
LINE
  5
EC
330
70
100
AcDbEntity
  8
0
 62
    98
420
   131843
370
     9
100
AcDbLine
 10
152.5349759906674
 20
164.294337199166
 30
0.0
 11
93.24091380245073
 21
130.0646036982742
 31
0.0
  0
LINE
  5
ED
330
70
100
AcDbEntity
  8
0
 62
    98
420
   131843
370
     9
100
AcDbLine
 10
152.4452497931581
 20
164.8641975360401
 30
0.0
 11
151.5076498783844
 21
165.4054624456959
 31
0.0
  0
SPLINE
  5
EE
330
70
100
AcDbEntity
  8
0
 62
    98
420
   131843
370
     9
100
AcDbSpline
210
0.0
220
0.0
230
1.0
 70
     8
 71
     3
 72
    14
 73
    10
 74
     0
 42
0.0000000001
 43
0.0000000001
 40
0.0
 40
0.0
 40
0.0
 40
0.0
 40
1.0
 40
1.0
 40
1.0
 40
2.0
 40
2.0
 40
2.0
 40
3.0
 40
3.0
 40
3.0
 40
3.0
 10
152.5130722569833
 20
164.2459249480289
 30
0.0
 10
152.5130722569833
 20
164.2459249480289
 30
0.0
 10
152.5130758283516
 20
164.2459256419468
 30
0.0
 10
152.5130758283516
 20
164.2459256419468
 30
0.0
 10
152.5211614337274
 20
164.2474973628657
 30
0.0
 10
152.5261504029061
 20
164.2554487370461
 30
0.0
 10
152.5292843239272
 20
164.2645806054591
 30
0.0
 10
152.5324182449483
 20
164.2737124738721
 30
0.0
 10
152.5336971178092
 20
164.2840248365178
 30
0.0
 10
152.5349759906674
 20
164.294337199166
 30
0.0
  0
LINE
  5
EF
330
70
100
AcDbEntity
  8
0
 62
    98
420
   131843
370
     9
100
AcDbLine
 10
151.3386266905278
 20
163.0422405533322
 30
0.0
 11
151.3386266905278
 21
163.5679305858386
 31
0.0
  0
LINE
  5
F0
330
70
100
AcDbEntity
  8
0
 62
    98
420
   131843
370
     9
100
AcDbLine
 10
151.3386266905278
 20
163.0422405533322
 30
0.0
 11
92.04456450231109
 21
128.8125070524378
 31
0.0
  0
LINE
  5
F1
330
70
100
AcDbEntity
  8
0
 62
    98
420
   131843
370
     9
100
AcDbLine
 10
92.19410816485966
 20
128.5534898317518
 30
0.0
 11
151.4881703530777
 21
162.7832233326437
 31
0.0
  0
SPLINE
  5
F2
330
70
100
AcDbEntity
  8
0
 62
    98
420
   131843
370
     9
100
AcDbSpline
210
0.0
220
0.0
230
1.0
 70
     8
 71
     3
 72
    17
 73
    13
 74
     0
 42
0.0000000001
 43
0.0000000001
 40
0.0
 40
0.0
 40
0.0
 40
0.0
 40
1.0
 40
1.0
 40
1.0
 40
2.0
 40
2.0
 40
2.0
 40
3.0
 40
3.0
 40
3.0
 40
4.0
 40
4.0
 40
4.0
 40
4.0
 10
151.4881703530777
 20
162.7832233326437
 30
0.0
 10
151.4685745936155
 20
162.7971314885398
 30
0.0
 10
151.4489788341584
 20
162.8110396444333
 30
0.0
 10
151.4309424710074
 20
162.8294053391128
 30
0.0
 10
151.4129061078537
 20
162.8477710337948
 30
0.0
 10
151.3964291410113
 20
162.8705942672602
 30
0.0
 10
151.3824270152058
 20
162.8948466604898
 30
0.0
 10
151.3684248894029
 20
162.9190990537244
 30
0.0
 10
151.356897604637
 20
162.9447806067232
 30
0.0
 10
151.3500100240314
 20
162.9695844488247
 30
0.0
 10
151.3431224434233
 20
162.9943882909236
 30
0.0
 10
151.3408745669781
 20
163.0183144221279
 30
0.0
 10
151.3386266905278
 20
163.0422405533322
 30
0.0
  0
LINE
  5
F3
330
70
100
AcDbEntity
  8
0
 62
    98
420
   131843
370
     9
100
AcDbLine
 10
151.4881703530443
 20
162.7400514571931
 30
0.0
 11
92.19410816482758
 21
128.5103179562987
 31
0.0
  0
LINE
  5
F4
330
70
100
AcDbEntity
  8
0
 62
    98
420
   131843
370
     9
100
AcDbLine
 10
151.4881703530443
 20
162.7400514571931
 30
0.0
 11
151.4881703530443
 21
162.7832233326617
 31
0.0
  0
LINE
  5
F5
330
70
100
AcDbEntity
  8
0
 62
    98
420
   131843
370
     9
100
AcDbLine
 10
92.04456450231109
 20
128.5966476750899
 30
0.0
 11
92.04456450231109
 21
107.269741193093
 31
0.0
  0
LINE
  5
F6
330
70
100
AcDbEntity
  8
0
 62
    98
420
   131843
370
     9
100
AcDbLine
 10
93.24091380245073
 20
127.9060099247574
 30
0.0
 11
92.04456450231109
 21
128.5966476750899
 31
0.0
  0
LINE
  5
F7
330
70
100
AcDbEntity
  8
0
 62
    98
420
   131843
370
     9
100
AcDbLine
 10
93.24091380245073
 20
127.9060099247574
 30
0.0
 11
93.24091380245073
 21
106.5791034427579
 31
0.0
  0
LINE
  5
F8
330
70
100
AcDbEntity
  8
0
 62
    98
420
   131843
370
     9
100
AcDbLine
 10
92.04456450231109
 20
107.269741193093
 30
0.0
 11
93.24091380245073
 21
106.5791034427579
 31
0.0
  0
LINE
  5
F9
330
70
100
AcDbEntity
  8
0
 62
    98
420
   131843
370
     9
100
AcDbLine
 10
152.5349759906674
 20
162.1357434256493
 30
0.0
 11
93.24091380245073
 21
127.9060099247574
 31
0.0
  0
LINE
  5
FA
330
70
100
AcDbEntity
  8
0
 62
    98
420
   131843
370
     9
100
AcDbLine
 10
152.5349759906674
 20
140.8088369436524
 30
0.0
 11
152.5349759906674
 21
162.1357434256493
 31
0.0
  0
LINE
  5
FB
330
70
100
AcDbEntity
  8
0
 62
    98
420
   131843
370
     9
100
AcDbLine
 10
93.24091380245073
 20
106.5791034427579
 30
0.0
 11
152.5349759906674
 21
140.8088369436524
 31
0.0
  0
LINE
  5
FC
330
70
100
AcDbEntity
  8
0
 62
    98
420
   131843
370
     9
100
AcDbLine
 10
152.5349759906674
 20
162.1357434256493
 30
0.0
 11
151.4881703530443
 21
162.7400514571931
 31
0.0
  0
LINE
  5
FD
330
70
100
AcDbEntity
  8
0
 62
    98
420
   131843
370
     9
100
AcDbLine
 10
91.82024900853507
 20
107.226562301549
 30
0.0
 11
92.04456450231109
 21
107.3560568797359
 31
0.0
  0
LINE
  5
FE
330
70
100
AcDbEntity
  8
0
 62
    98
420
   131843
370
     9
100
AcDbLine
 10
91.82024900853507
 20
107.226562301549
 30
0.0
 11
91.82024900853507
 21
131.7481875682999
 31
0.0
  0
LINE
  5
FF
330
70
100
AcDbEntity
  8
0
 62
    98
420
   131843
370
     9
100
AcDbLine
 10
91.90954664971526
 20
131.7997379992709
 30
0.0
 11
91.82024900853507
 21
131.7481875682999
 31
0.0
  0
LINE
  5
100
330
70
100
AcDbEntity
  8
0
 62
    98
420
   131843
370
     9
100
AcDbLine
 10
59.44404607348081
 20
125.9169464199454
 30
0.0
 11
91.82024900853507
 21
107.226562301549
 31
0.0
  0
LINE
  5
101
330
70
100
AcDbEntity
  8
0
 62
    98
420
   131843
370
     9
100
AcDbLine
 10
59.44404607348081
 20
150.4385716866937
 30
0.0
 11
59.44404607348081
 21
125.9169464199454
 31
0.0
  0
LINE
  5
102
330
70
100
AcDbEntity
  8
0
 62
    98
420
   131843
370
     9
100
AcDbLine
 10
91.82024900853507
 20
131.7481875682999
 30
0.0
 11
59.44404607348081
 21
150.4385716866937
 31
0.0
  0
LINE
  5
103
330
70
100
AcDbEntity
  8
0
 62
    98
420
   131843
370
     9
100
AcDbLine
 10
59.44404607348081
 20
150.4385716866937
 30
0.0
 11
59.53695137921275
 21
150.4922047780811
 31
0.0
  0
SPLINE
  5
104
330
70
100
AcDbEntity
  8
0
 62
    98
420
   131843
370
     9
100
AcDbSpline
210
0.0
220
0.0
230
1.0
 70
     8
 71
     3
 72
    11
 73
     7
 74
     0
 42
0.0000000001
 43
0.0000000001
 40
0.0
 40
0.0
 40
0.0
 40
0.0
 40
1.0
 40
1.0
 40
1.0
 40
2.0
 40
2.0
 40
2.0
 40
2.0
 10
70.71196557201274
 20
155.2962385744255
 30
0.0
 10
71.11063670397803
 20
155.0616915678142
 30
0.0
 10
71.50930783594589
 20
154.8271445612029
 30
0.0
 10
71.90799273285867
 20
154.5932811972518
 30
0.0
 10
72.4150686511367
 20
154.2958370729665
 30
0.0
 10
72.92216683637654
 20
153.9994988479212
 30
0.0
 10
88.44153995761415
 20
145.0351201949377
 30
0.0
  0
LINE
  5
105
330
70
100
AcDbEntity
  8
0
 62
    98
420
   131843
370
     9
100
AcDbLine
 10
88.44153995761415
 20
145.0351201949377
 30
0.0
 11
91.7417765215017
 21
143.1598847219219
 31
0.0
  0
SPLINE
  5
106
330
70
100
AcDbEntity
  8
0
 62
    98
420
   131843
370
     9
100
AcDbSpline
210
0.0
220
0.0
230
1.0
 70
     8
 71
     3
 72
    14
 73
    10
 74
     0
 42
0.0000000001
 43
0.0000000001
 40
0.0
 40
0.0
 40
0.0
 40
0.0
 40
1.0
 40
1.0
 40
1.0
 40
2.0
 40
2.0
 40
2.0
 40
3.0
 40
3.0
 40
3.0
 40
3.0
 10
92.74309562169186
 20
143.0454246572478
 30
0.0
 10
93.20618375637144
 20
143.3107657205531
 30
0.0
 10
93.54967868144507
 20
143.5080236343648
 30
0.0
 10
93.89321092713036
 20
143.7053059796123
 30
0.0
 10
95.46915367368169
 20
144.6103321741582
 30
0.0
 10
97.04588182694967
 20
145.5158725247052
 30
0.0
 10
98.62538679477616
 20
146.4235422841314
 30
0.0
 10
100.1018047865837
 20
147.271972640943
 30
0.0
 10
101.5806489613178
 20
148.1222635236786
 30
0.0
 10
103.059493136057
 20
148.9725544064168
 30
0.0
  0
SPLINE
  5
107
330
70
100
AcDbEntity
  8
0
 62
    98
420
   131843
370
     9
100
AcDbSpline
210
0.0
220
0.0
230
1.0
 70
     8
 71
     3
 72
     8
 73
     4
 74
     0
 42
0.0000000001
 43
0.0000000001
 40
0.0
 40
0.0
 40
0.0
 40
0.0
 40
1.0
 40
1.0
 40
1.0
 40
1.0
 10
103.059493136057
 20
148.9725544064168
 30
0.0
 10
103.1159563469462
 20
148.9404371165359
 30
0.0
 10
103.1772121786381
 20
148.917598380076
 30
0.0
 10
103.2409196740756
 20
148.9049110037418
 30
0.0
  0
SPLINE
  5
108
330
70
100
AcDbEntity
  8
0
 62
    98
420
   131843
370
     9
100
AcDbSpline
210
0.0
220
0.0
230
1.0
 70
     8
 71
     3
 72
     8
 73
     4
 74
     0
 42
0.0000000001
 43
0.0000000001
 40
0.0
 40
0.0
 40
0.0
 40
0.0
 40
1.0
 40
1.0
 40
1.0
 40
1.0
 10
92.90997119634889
 20
131.5777426852227
 30
0.0
 10
92.95413828197855
 20
131.6086345158925
 30
0.0
 10
92.97903002642728
 20
131.6602977790644
 30
0.0
 10
92.97566483534492
 20
131.7140910141834
 30
0.0
  0
SPLINE
  5
109
330
70
100
AcDbEntity
  8
0
 62
    98
420
   131843
370
     9
100
AcDbSpline
210
0.0
220
0.0
230
1.0
 70
     8
 71
     3
 72
     8
 73
     4
 74
     0
 42
0.0000000001
 43
0.0000000001
 40
0.0
 40
0.0
 40
0.0
 40
0.0
 40
1.0
 40
1.0
 40
1.0
 40
1.0
 10
92.22840201255046
 20
131.7140910141834
 30
0.0
 10
92.22503508771794
 20
131.6602872537191
 30
0.0
 10
92.24993822828343
 20
131.6086150275363
 30
0.0
 10
92.2941214938808
 20
131.5777278155467
 30
0.0
  0
SPLINE
  5
10A
330
70
100
AcDbEntity
  8
0
 62
    98
420
   131843
370
     9
100
AcDbSpline
210
0.0
220
0.0
230
1.0
 70
     8
 71
     3
 72
     8
 73
     4
 74
     0
 42
0.0000000001
 43
0.0000000001
 40
0.0
 40
0.0
 40
0.0
 40
0.0
 40
1.0
 40
1.0
 40
1.0
 40
1.0
 10
151.6156140294885
 20
165.4677888234718
 30
0.0
 10
151.6597078987452
 20
165.4987014751526
 30
0.0
 10
151.684548107669
 20
165.5503241615433
 30
0.0
 10
151.6811907597763
 20
165.6040697618769
 30
0.0
  0
SPLINE
  5
10B
330
70
100
AcDbEntity
  8
0
 62
    98
420
   131843
370
     9
100
AcDbSpline
210
0.0
220
0.0
230
1.0
 70
     8
 71
     3
 72
     8
 73
     4
 74
     0
 42
0.0000000001
 43
0.0000000001
 40
0.0
 40
0.0
 40
0.0
 40
0.0
 40
1.0
 40
1.0
 40
1.0
 40
1.0
 10
59.51090664367646
 20
150.6014990608549
 30
0.0
 10
59.50754929578243
 20
150.5477534605213
 30
0.0
 10
59.53238950470495
 20
150.4961307741306
 30
0.0
 10
59.57648337396423
 20
150.4652181224498
 30
0.0
  0
SPLINE
  5
10C
330
70
100
AcDbEntity
  8
0
 62
    98
420
   131843
370
     9
100
AcDbSpline
210
0.0
220
0.0
230
1.0
 70
     8
 71
     3
 72
    17
 73
    13
 74
     0
 42
0.0000000001
 43
0.0000000001
 40
0.0
 40
0.0
 40
0.0
 40
0.0
 40
1.0
 40
1.0
 40
1.0
 40
2.0
 40
2.0
 40
2.0
 40
3.0
 40
3.0
 40
3.0
 40
4.0
 40
4.0
 40
4.0
 40
4.0
 10
105.004213367185
 20
151.8397335173633
 30
0.0
 10
105.2231817453565
 20
151.7510656966238
 30
0.0
 10
105.4421501235229
 20
151.6623978758869
 30
0.0
 10
105.6659031427053
 20
151.5916837859149
 30
0.0
 10
105.8947314447465
 20
151.5193657220161
 30
0.0
 10
106.1285639049339
 20
151.465825097815
 30
0.0
 10
106.3640829078034
 20
151.423357890558
 30
0.0
 10
106.6032177804659
 20
151.3802386939065
 30
0.0
 10
106.8440913795542
 20
151.3485355395985
 30
0.0
 10
107.0846677058744
 20
151.3432871584007
 30
0.0
 10
107.2155198163236
 20
151.3404325061286
 30
0.0
 10
107.3462839818425
 20
151.3454042121555
 30
0.0
 10
107.4770481473639
 20
151.3503759181876
 30
0.0
  0
SPLINE
  5
10D
330
70
100
AcDbEntity
  8
0
 62
    98
420
   131843
370
     9
100
AcDbSpline
210
0.0
220
0.0
230
1.0
 70
     8
 71
     3
 72
     8
 73
     4
 74
     0
 42
0.0000000001
 43
0.0000000001
 40
0.0
 40
0.0
 40
0.0
 40
0.0
 40
1.0
 40
1.0
 40
1.0
 40
1.0
 10
59.03770089550157
 20
161.1601129471796
 30
0.0
 10
59.04841174071706
 20
161.0665196166171
 30
0.0
 10
59.10707506981729
 20
160.9852527356095
 30
0.0
 10
59.19253592928988
 20
160.9456184672437
 30
0.0
  0
SPLINE
  5
10E
330
70
100
AcDbEntity
  8
0
 62
    98
420
   131843
370
     9
100
AcDbSpline
210
0.0
220
0.0
230
1.0
 70
     8
 71
     3
 72
     8
 73
     4
 74
     0
 42
0.0000000001
 43
0.0000000001
 40
0.0
 40
0.0
 40
0.0
 40
0.0
 40
1.0
 40
1.0
 40
1.0
 40
1.0
 10
59.56616734068711
 20
161.6080968118466
 30
0.0
 10
59.48903431414521
 20
161.6633544349187
 30
0.0
 10
59.38830290505869
 20
161.6733292769217
 30
0.0
 10
59.30183047977035
 20
161.6342725443959
 30
0.0
  0
SPLINE
  5
10F
330
70
100
AcDbEntity
  8
0
 62
    98
420
   131843
370
     9
100
AcDbSpline
210
0.0
220
0.0
230
1.0
 70
     8
 71
     3
 72
     8
 73
     4
 74
     0
 42
0.0000000001
 43
0.0000000001
 40
0.0
 40
0.0
 40
0.0
 40
0.0
 40
1.0
 40
1.0
 40
1.0
 40
1.0
 10
59.3561226825209
 20
150.8143341500868
 30
0.0
 10
59.35860485681881
 20
150.7336863198361
 30
0.0
 10
59.41409196547947
 20
150.6573889849272
 30
0.0
 10
59.51090664367646
 20
150.6014990608549
 30
0.0
  0
SPLINE
  5
110
330
70
100
AcDbEntity
  8
0
 62
    98
420
   131843
370
     9
100
AcDbSpline
210
0.0
220
0.0
230
1.0
 70
     8
 71
     3
 72
     8
 73
     4
 74
     0
 42
0.0000000001
 43
0.0000000001
 40
0.0
 40
0.0
 40
0.0
 40
0.0
 40
1.0
 40
1.0
 40
1.0
 40
1.0
 10
139.4671970556023
 20
170.0110074511217
 30
0.0
 10
139.5310715208859
 20
169.9733039163815
 30
0.0
 10
139.601713523969
 20
169.9484787053452
 30
0.0
 10
139.6751323124852
 20
169.9379342594079
 30
0.0
  0
LINE
  5
111
330
70
100
AcDbEntity
  8
0
 62
    98
420
   131843
370
     9
100
AcDbLine
 10
109.1422451315183
 20
188.0460409395838
 30
0.0
 11
110.246646745487
 21
187.3870444434706
 31
0.0
  0
SPLINE
  5
112
330
70
100
AcDbEntity
  8
0
 62
    98
420
   131843
370
     9
100
AcDbSpline
210
0.0
220
0.0
230
1.0
 70
     8
 71
     3
 72
     8
 73
     4
 74
     0
 42
0.0000000001
 43
0.0000000001
 40
0.0
 40
0.0
 40
0.0
 40
0.0
 40
1.0
 40
1.0
 40
1.0
 40
1.0
 10
152.2086376380536
 20
176.8206347467962
 30
0.0
 10
152.122199335068
 20
176.859898570107
 30
0.0
 10
152.0213597283595
 20
176.8499130139271
 30
0.0
 10
151.9443007771368
 20
176.7944590142469
 30
0.0
  0
SPLINE
  5
113
330
70
100
AcDbEntity
  8
0
 62
    98
420
   131843
370
     9
100
AcDbSpline
210
0.0
220
0.0
230
1.0
 70
     8
 71
     3
 72
     8
 73
     4
 74
     0
 42
0.0000000001
 43
0.0000000001
 40
0.0
 40
0.0
 40
0.0
 40
0.0
 40
1.0
 40
1.0
 40
1.0
 40
1.0
 10
152.317932188534
 20
176.1319806696465
 30
0.0
 10
152.400534791347
 20
176.1667592045766
 30
0.0
 10
152.458973984425
 20
176.2421550508025
 30
0.0
 10
152.472053092709
 20
176.3308211289287
 30
0.0
  0
SPLINE
  5
114
330
70
100
AcDbEntity
  8
0
 62
    98
420
   131843
370
     9
100
AcDbSpline
210
0.0
220
0.0
230
1.0
 70
     8
 71
     3
 72
     8
 73
     4
 74
     0
 42
0.0000000001
 43
0.0000000001
 40
0.0
 40
0.0
 40
0.0
 40
0.0
 40
1.0
 40
1.0
 40
1.0
 40
1.0
 10
151.6811907597763
 20
165.6040697618769
 30
0.0
 10
151.7756769587603
 20
165.6564113475851
 30
0.0
 10
151.8308022077113
 20
165.7283506725484
 30
0.0
 10
151.8354620193879
 20
165.8053962046403
 30
0.0
  0
SPLINE
  5
115
330
70
100
AcDbEntity
  8
0
 62
    98
420
   131843
370
     9
100
AcDbSpline
210
0.0
220
0.0
230
1.0
 70
     8
 71
     3
 72
    11
 73
     7
 74
     0
 42
0.0000000001
 43
0.0000000001
 40
0.0
 40
0.0
 40
0.0
 40
0.0
 40
1.0
 40
1.0
 40
1.0
 40
2.0
 40
2.0
 40
2.0
 40
2.0
 10
116.5055701863851
 20
183.3262147689952
 30
0.0
 10
116.5241119462195
 20
183.3650477283347
 30
0.0
 10
116.5426537060513
 20
183.4038806876716
 30
0.0
 10
116.5342396627182
 20
183.4446616022217
 30
0.0
 10
116.533327801979
 20
183.4490811795171
 30
0.0
 10
116.5320993493239
 20
183.4535236352595
 30
0.0
 10
116.5308708966688
 20
183.4579660909994
 30
0.0
  0
SPLINE
  5
116
330
70
100
AcDbEntity
  8
0
 62
    98
420
   131843
370
     9
100
AcDbSpline
210
0.0
220
0.0
230
1.0
 70
     8
 71
     3
 72
     8
 73
     4
 74
     0
 42
0.0000000001
 43
0.0000000001
 40
0.0
 40
0.0
 40
0.0
 40
0.0
 40
1.0
 40
1.0
 40
1.0
 40
1.0
 10
116.3078517764676
 20
183.880370762525
 30
0.0
 10
116.2562475505314
 20
183.9055025250715
 30
0.0
 10
116.194889741214
 20
183.8994388315678
 30
0.0
 10
116.1492029978427
 20
183.8646922762894
 30
0.0
  0
LINE
  5
117
330
70
100
AcDbEntity
  8
0
 62
    98
420
   131843
370
     9
100
AcDbLine
 10
92.485383066223
 20
131.510517150653
 30
0.0
 11
92.05951886856224
 21
131.2646709823269
 31
0.0
  0
SPLINE
  5
118
330
70
100
AcDbEntity
  8
0
 62
    98
420
   131843
370
     9
100
AcDbSpline
210
0.0
220
0.0
230
1.0
 70
     8
 71
     3
 72
     8
 73
     4
 74
     0
 42
0.0000000001
 43
0.0000000001
 40
0.0
 40
0.0
 40
0.0
 40
0.0
 40
1.0
 40
1.0
 40
1.0
 40
1.0
 10
92.97566483532824
 20
141.8744189193428
 30
0.0
 10
92.96934264598094
 20
142.1437220645277
 30
0.0
 10
92.82922479394128
 20
142.3921622112519
 30
0.0
 10
92.60203342392973
 20
142.5368972639457
 30
0.0
  0
SPLINE
  5
119
330
70
100
AcDbEntity
  8
0
 62
    98
420
   131843
370
     9
100
AcDbSpline
210
0.0
220
0.0
230
1.0
 70
     8
 71
     3
 72
     8
 73
     4
 74
     0
 42
0.0000000001
 43
0.0000000001
 40
0.0
 40
0.0
 40
0.0
 40
0.0
 40
1.0
 40
1.0
 40
1.0
 40
1.0
 10
92.60203342392973
 20
142.5368972639457
 30
0.0
 10
92.37484205391945
 20
142.3921622112519
 30
0.0
 10
92.23472420187849
 20
142.1437220645277
 30
0.0
 10
92.2284020125325
 20
141.8744189193428
 30
0.0
  0
SPLINE
  5
11A
330
70
100
AcDbEntity
  8
0
 62
    98
420
   131843
370
     9
100
AcDbSpline
210
0.0
220
0.0
230
1.0
 70
     8
 71
     3
 72
    17
 73
    13
 74
     0
 42
0.0000000001
 43
0.0000000001
 40
0.0
 40
0.0
 40
0.0
 40
0.0
 40
1.0
 40
1.0
 40
1.0
 40
2.0
 40
2.0
 40
2.0
 40
3.0
 40
3.0
 40
3.0
 40
4.0
 40
4.0
 40
4.0
 40
4.0
 10
125.3291462506785
 20
163.573067519966
 30
0.0
 10
125.54811462885
 20
163.4843996992291
 30
0.0
 10
125.767083007019
 20
163.3957318784922
 30
0.0
 10
125.9908360261988
 20
163.3250177885176
 30
0.0
 10
126.2196643282399
 20
163.2526997246189
 30
0.0
 10
126.45349678843
 20
163.1991591004203
 30
0.0
 10
126.6890157912994
 20
163.1566918931607
 30
0.0
 10
126.9281506639594
 20
163.1135726965092
 30
0.0
 10
127.1690242630502
 20
163.0818695422012
 30
0.0
 10
127.4096005893704
 20
163.076621161006
 30
0.0
 10
127.5404526998196
 20
163.0737665087313
 30
0.0
 10
127.6712168653411
 20
163.0787382147608
 30
0.0
 10
127.8019810308574
 20
163.0837099207903
 30
0.0
  0
LINE
  5
11C
330
70
100
AcDbEntity
  8
COTAS
 62
    98
420
   131843
370
     9
100
AcDbLine
 10
58.30565597248702
 20
122.8528271578316
 30
0.0
 11
86.76553074136439
 21
106.5690195142103
 31
0.0
  0
LWPOLYLINE
  5
11D
330
70
100
AcDbEntity
  8
COTAS
 62
    98
420
   131843
370
     9
100
AcDbPolyline
 90
        4
 70
     1
 43
0.0
 10
58.55572495507682
 20
123.2898829179991
 10
58.05558698989466
 20
122.4157713976641
 10
55.68332141147434
 20
124.3532410533755
 10
55.68332141147434
 20
124.3532410533755
  0
HATCH
  5
11E
330
70
100
AcDbEntity
  8
COTAS
 62
    18
420
        0
440
 33554687
100
AcDbHatch
 10
0.0
 20
0.0
 30
0.0
210
0.0
220
0.0
230
1.0
  2
SOLID
 70
     1
 71
     1
 91
        1
 92
        1
 93
        3
 72
     1
 10
58.55572495507682
 20
123.2898829179991
 11
58.05558698989466
 21
122.4157713976641
 72
     1
 10
58.05558698989466
 20
122.4157713976641
 11
55.68332141147434
 21
124.3532410533755
 72
     1
 10
55.68332141147434
 20
124.3532410533755
 11
58.55572495507682
 21
123.2898829179991
 97
        1
330
11D
 75
     2
 76
     1
 98
        1
 10
0.0
 20
0.0
450
        0
451
        0
460
0.0
461
0.0
452
        0
462
0.0
453
        0
470

  0
LWPOLYLINE
  5
11F
330
70
100
AcDbEntity
  8
COTAS
 62
    98
420
   131843
370
     9
100
AcDbPolyline
 90
        4
 70
     1
 43
0.0
 10
87.01559972395418
 20
107.0060752743803
 10
86.51546175877202
 20
106.1319637540428
 10
89.38786530237576
 20
105.0686056186638
 10
89.38786530237576
 20
105.0686056186638
  0
HATCH
  5
120
330
70
100
AcDbEntity
  8
COTAS
 62
    18
420
        0
440
 33554687
100
AcDbHatch
 10
0.0
 20
0.0
 30
0.0
210
0.0
220
0.0
230
1.0
  2
SOLID
 70
     1
 71
     1
 91
        1
 92
        1
 93
        3
 72
     1
 10
87.01559972395418
 20
107.0060752743803
 11
86.51546175877202
 21
106.1319637540428
 72
     1
 10
86.51546175877202
 20
106.1319637540428
 11
89.38786530237576
 21
105.0686056186638
 72
     1
 10
89.38786530237576
 20
105.0686056186638
 11
87.01559972395418
 21
107.0060752743803
 97
        1
330
11F
 75
     2
 76
     1
 98
        1
 10
0.0
 20
0.0
450
        0
451
        0
460
0.0
461
0.0
452
        0
462
0.0
453
        0
470

  0
LINE
  5
121
330
70
100
AcDbEntity
  8
COTAS
 62
    98
420
   131843
370
     9
100
AcDbLine
 10
55.17978170742842
 20
128.9381846442209
 30
0.0
 11
55.17978170742842
 21
158.5942641953656
 31
0.0
  0
LWPOLYLINE
  5
122
330
70
100
AcDbEntity
  8
COTAS
 62
    98
420
   131843
370
     9
100
AcDbPolyline
 90
        4
 70
     1
 43
0.0
 10
54.67624200338248
 20
128.9381846442209
 10
55.68332141147434
 20
128.9381846442209
 10
55.17978170742842
 20
125.9169464199454
 10
55.17978170742842
 20
125.9169464199454
  0
HATCH
  5
123
330
70
100
AcDbEntity
  8
COTAS
 62
    18
420
        0
440
 33554687
100
AcDbHatch
 10
0.0
 20
0.0
 30
0.0
210
0.0
220
0.0
230
1.0
  2
SOLID
 70
     1
 71
     1
 91
        1
 92
        1
 93
        3
 72
     1
 10
54.67624200338248
 20
128.9381846442209
 11
55.68332141147434
 21
128.9381846442209
 72
     1
 10
55.68332141147434
 20
128.9381846442209
 11
55.17978170742842
 21
125.9169464199454
 72
     1
 10
55.17978170742842
 20
125.9169464199454
 11
54.67624200338248
 21
128.9381846442209
 97
        1
330
122
 75
     2
 76
     1
 98
        1
 10
0.0
 20
0.0
450
        0
451
        0
460
0.0
461
0.0
452
        0
462
0.0
453
        0
470

  0
LWPOLYLINE
  5
124
330
70
100
AcDbEntity
  8
COTAS
 62
    98
420
   131843
370
     9
100
AcDbPolyline
 90
        4
 70
     1
 43
0.0
 10
54.67624200338248
 20
158.5942641953656
 10
55.68332141147434
 20
158.5942641953656
 10
55.17978170742842
 20
161.6155024196413
 10
55.17978170742842
 20
161.6155024196413
  0
HATCH
  5
125
330
70
100
AcDbEntity
  8
COTAS
 62
    18
420
        0
440
 33554687
100
AcDbHatch
 10
0.0
 20
0.0
 30
0.0
210
0.0
220
0.0
230
1.0
  2
SOLID
 70
     1
 71
     1
 91
        1
 92
        1
 93
        3
 72
     1
 10
54.67624200338248
 20
158.5942641953656
 11
55.68332141147434
 21
158.5942641953656
 72
     1
 10
55.68332141147434
 20
158.5942641953656
 11
55.17978170742842
 21
161.6155024196413
 72
     1
 10
55.17978170742842
 20
161.6155024196413
 11
54.67624200338248
 21
158.5942641953656
 97
        1
330
124
 75
     2
 76
     1
 98
        1
 10
0.0
 20
0.0
450
        0
451
        0
460
0.0
461
0.0
452
        0
462
0.0
453
        0
470

  0
LINE
  5
126
330
70
100
AcDbEntity
  8
COTAS
 62
    98
420
   131843
370
     9
100
AcDbLine
 10
57.79640686501876
 20
167.1939945429847
 30
0.0
 11
112.3186862329108
 21
198.6649346849336
 31
0.0
  0
LWPOLYLINE
  5
127
330
70
100
AcDbEntity
  8
COTAS
 62
    98
420
   131843
370
     9
100
AcDbPolyline
 90
        4
 70
     1
 43
0.0
 10
57.54468208185511
 20
167.6300987359168
 10
58.04813164817984
 20
166.7578903500525
 10
55.17978170742842
 20
165.6836458440079
 10
55.17978170742842
 20
165.6836458440079
  0
HATCH
  5
128
330
70
100
AcDbEntity
  8
COTAS
 62
    18
420
        0
440
 33554687
100
AcDbHatch
 10
0.0
 20
0.0
 30
0.0
210
0.0
220
0.0
230
1.0
  2
SOLID
 70
     1
 71
     1
 91
        1
 92
        1
 93
        3
 72
     1
 10
57.54468208185511
 20
167.6300987359168
 11
58.04813164817984
 21
166.7578903500525
 72
     1
 10
58.04813164817984
 20
166.7578903500525
 11
55.17978170742842
 21
165.6836458440079
 72
     1
 10
55.17978170742842
 20
165.6836458440079
 11
57.54468208185511
 21
167.6300987359168
 97
        1
330
127
 75
     2
 76
     1
 98
        1
 10
0.0
 20
0.0
450
        0
451
        0
460
0.0
461
0.0
452
        0
462
0.0
453
        0
470

  0
LWPOLYLINE
  5
129
330
70
100
AcDbEntity
  8
COTAS
 62
    98
420
   131843
370
     9
100
AcDbPolyline
 90
        4
 70
     1
 43
0.0
 10
112.0669614497484
 20
199.1010388778632
 10
112.5704110160731
 20
198.2288304920014
 10
114.9353113904985
 20
200.1752833839077
 10
114.9353113904985
 20
200.1752833839077
  0
HATCH
  5
12A
330
70
100
AcDbEntity
  8
COTAS
 62
    18
420
        0
440
 33554687
100
AcDbHatch
 10
0.0
 20
0.0
 30
0.0
210
0.0
220
0.0
230
1.0
  2
SOLID
 70
     1
 71
     1
 91
        1
 92
        1
 93
        3
 72
     1
 10
112.0669614497484
 20
199.1010388778632
 11
112.5704110160731
 21
198.2288304920014
 72
     1
 10
112.5704110160731
 20
198.2288304920014
 11
114.9353113904985
 21
200.1752833839077
 72
     1
 10
114.9353113904985
 20
200.1752833839077
 11
112.0669614497484
 21
199.1010388778632
 97
        1
330
129
 75
     2
 76
     1
 98
        1
 10
0.0
 20
0.0
450
        0
451
        0
460
0.0
461
0.0
452
        0
462
0.0
453
        0
470

  0
MTEXT
  5
12C
330
70
100
AcDbEntity
  8
Capa 7
100
AcDbMText
 10
63.05166817634733
 20
110.9696820832624
 30
0.0
 40
0.2
 41
0.0
 46
0.0
 71
     7
 72
     1
  1
\C18;\c0;\FArial Bold|b1|i0|c1;\H2.497667;\W1.000000;450
 11
0.8679685399689029
 21
-0.4966191837054332
 31
0.0
 73
     1
 44
1.0
  0
MTEXT
  5
12D
330
70
100
AcDbEntity
  8
Capa 7
100
AcDbMText
 10
53.26285299453069
 20
136.7936985733523
 30
0.0
 40
0.2
 41
0.0
 46
0.0
 71
     7
 72
     1
  1
\C18;\c0;\FArial Bold|b1|i0|c1;\H2.497667;\W1.000000;415
 11
0.0000000000000001
 21
1.0
 31
0.0
 73
     1
 44
1.0
  0
MTEXT
  5
12E
330
70
100
AcDbEntity
  8
Capa 7
100
AcDbMText
 10
77.9317437391167
 20
181.8474575167673
 30
0.0
 40
0.2
 41
0.0
 46
0.0
 71
     7
 72
     1
  1
\C18;\c0;\FArial Bold|b1|i0|c1;\H2.497667;\W1.000000;810
 11
0.866078002755132
 21
0.4999088848417096
 31
0.0
 73
     1
 44
1.0
  0
ENDSEC
  0
SECTION
  2
OBJECTS
  0
DICTIONARY
  5
C
330
0
100
AcDbDictionary
281
     1
  3
ACAD_COLOR
350
63
  3
ACAD_DETAILVIEWSTYLE
350
6A
  3
ACAD_GROUP
350
D
  3
ACAD_LAYOUT
350
62
  3
ACAD_MATERIAL
350
10
  3
ACAD_MLEADERSTYLE
350
66
  3
ACAD_MLINESTYLE
350
5F
  3
ACAD_PLOTSETTINGS
350
61
  3
ACAD_PLOTSTYLENAME
350
E
  3
ACAD_SCALELIST
350
42
  3
ACAD_SECTIONVIEWSTYLE
350
68
  3
ACAD_TABLESTYLE
350
64
  3
ACAD_VISUALSTYLE
350
29
  3
ACDB_RECOMPOSE_DATA
350
138
  3
AcDbVariableDictionary
350
12F
  0
DICTIONARY
  5
63
102
{ACAD_REACTORS
330
C
102
}
330
C
100
AcDbDictionary
281
     1
  0
DICTIONARY
  5
6A
102
{ACAD_REACTORS
330
C
102
}
330
C
100
AcDbDictionary
281
     1
  3
Imperial24
350
6B
  0
DICTIONARY
  5
D
102
{ACAD_REACTORS
330
C
102
}
330
C
100
AcDbDictionary
281
     1
  0
DICTIONARY
  5
62
102
{ACAD_REACTORS
330
C
102
}
330
C
100
AcDbDictionary
281
     1
  3
Layout1
350
6F
  3
Layout2
350
77
  3
Model
350
73
  0
DICTIONARY
  5
10
102
{ACAD_REACTORS
330
C
102
}
330
C
100
AcDbDictionary
281
     1
  3
ByBlock
350
19
  3
ByLayer
350
11
  3
Global
350
21
  0
DICTIONARY
  5
66
102
{ACAD_REACTORS
330
C
102
}
330
C
100
AcDbDictionary
281
     1
  3
Standard
350
67
  0
DICTIONARY
  5
5F
102
{ACAD_REACTORS
330
C
102
}
330
C
100
AcDbDictionary
281
     1
  3
Standard
350
60
  0
DICTIONARY
  5
61
102
{ACAD_REACTORS
330
C
102
}
330
C
100
AcDbDictionary
281
     1
  0
ACDBDICTIONARYWDFLT
  5
E
102
{ACAD_REACTORS
330
C
102
}
330
C
100
AcDbDictionary
281
     1
  3
Normal
350
F
100
AcDbDictionaryWithDefault
340
F
  0
DICTIONARY
  5
42
102
{ACAD_REACTORS
330
C
102
}
330
C
100
AcDbDictionary
281
     1
  3
A0
350
43
  3
A1
350
44
  3
A2
350
45
  3
A3
350
46
  3
A4
350
47
  3
A5
350
48
  3
A6
350
49
  3
A7
350
4A
  3
A8
350
4B
  3
A9
350
4C
  3
B0
350
4D
  3
B1
350
4E
  3
B2
350
4F
  3
B3
350
50
  3
B4
350
51
  3
B5
350
52
  3
B6
350
53
  0
DICTIONARY
  5
68
102
{ACAD_REACTORS
330
C
102
}
330
C
100
AcDbDictionary
281
     1
  3
Imperial24
350
69
  0
DICTIONARY
  5
64
102
{ACAD_REACTORS
330
C
102
}
330
C
100
AcDbDictionary
281
     1
  3
Standard
350
65
  0
DICTIONARY
  5
29
102
{ACAD_REACTORS
330
C
102
}
330
C
100
AcDbDictionary
281
     1
  3
2dWireframe
350
2F
  3
Basic
350
2E
  3
Brighten
350
35
  3
ColorChange
350
39
  3
Conceptual
350
32
  3
Dim
350
34
  3
EdgeColorOff
350
41
  3
Facepattern
350
38
  3
Flat
350
2A
  3
FlatWithEdges
350
2B
  3
Gouraud
350
2C
  3
GouraudWithEdges
350
2D
  3
Hidden
350
31
  3
JitterOff
350
3F
  3
Linepattern
350
37
  3
OverhangOff
350
40
  3
Realistic
350
33
  3
Shaded
350
3E
  3
Shaded with edges
350
3D
  3
Shades of Gray
350
3A
  3
Sketchy
350
3B
  3
Thicken
350
36
  3
Wireframe
350
30
  3
X-Ray
350
3C
  0
XRECORD
  5
138
102
{ACAD_REACTORS
330
C
102
}
330
C
100
AcDbXrecord
280
     1
 90
        1
330
65
  0
DICTIONARY
  5
12F
102
{ACAD_REACTORS
330
C
102
}
330
C
100
AcDbDictionary
281
     1
  3
CANNOSCALE
350
134
  3
CMLEADERSTYLE
350
131
  3
CTABLESTYLE
350
130
  3
CVIEWDETAILSTYLE
350
132
  3
CVIEWSECTIONSTYLE
350
133
  0
ACDBDETAILVIEWSTYLE
  5
6B
102
{ACAD_XDICTIONARY
360
16D
102
}
102
{ACAD_REACTORS
330
6A
102
}
330
6A
100
AcDbModelDocViewStyle
 70
     0
  3
Imperial24
290
     0
100
AcDbDetailViewStyle
 70
     0
 71
     0
 90
        3
 71
     1
340
55
 62
   256
 40
0.24
340
0
 62
   256
 40
0.24
300

 40
0.36
280
     3
 71
     2
340
5D
 90
       25
 62
   256
 71
     3
340
55
 62
   256
 40
0.24
 90
        1
 40
0.75
 90
        1
300
%<\AcVar ViewType \f "%tc1">% %<\AcVar ViewDetailId>%\PSCALE %<\AcVar ViewScale \f "%sn">%
 71
     4
340
5D
 90
       25
 62
   256
340
5D
 90
       25
 62
   256
280
     0
  0
LAYOUT
  5
6F
102
{ACAD_REACTORS
330
62
102
}
330
62
100
AcDbPlotSettings
  1

  2

  4

  6

 40
0.0
 41
0.0
 42
0.0
 43
0.0
 44
0.0
 45
0.0
 46
0.0
 47
0.0
 48
0.0
 49
0.0
140
0.0
141
0.0
142
1.0
143
1.0
 70
   688
 72
     0
 73
     0
 74
     5
  7

 75
    16
147
1.0
 76
     0
 77
     2
 78
   300
148
0.0
149
0.0
100
AcDbLayout
  1
Layout1
 70
     1
 71
     1
 10
0.0
 20
0.0
 11
12.0
 21
9.0
 12
0.0
 22
0.0
 32
0.0
 14
0.0
 24
0.0
 34
0.0
 15
0.0
 25
0.0
 35
0.0
146
0.0
 13
0.0
 23
0.0
 33
0.0
 16
1.0
 26
0.0
 36
0.0
 17
0.0
 27
1.0
 37
0.0
 76
     0
330
6C
  0
LAYOUT
  5
77
102
{ACAD_REACTORS
330
62
102
}
330
62
100
AcDbPlotSettings
  1

  2

  4

  6

 40
0.0
 41
0.0
 42
0.0
 43
0.0
 44
0.0
 45
0.0
 46
0.0
 47
0.0
 48
0.0
 49
0.0
140
0.0
141
0.0
142
1.0
143
1.0
 70
   688
 72
     0
 73
     0
 74
     5
  7

 75
    16
147
1.0
 76
     0
 77
     2
 78
   300
148
0.0
149
0.0
100
AcDbLayout
  1
Layout2
 70
     1
 71
     2
 10
0.0
 20
0.0
 11
12.0
 21
9.0
 12
0.0
 22
0.0
 32
0.0
 14
0.0
 24
0.0
 34
0.0
 15
0.0
 25
0.0
 35
0.0
146
0.0
 13
0.0
 23
0.0
 33
0.0
 16
1.0
 26
0.0
 36
0.0
 17
0.0
 27
1.0
 37
0.0
 76
     0
330
74
  0
LAYOUT
  5
73
102
{ACAD_REACTORS
330
62
102
}
330
62
100
AcDbPlotSettings
  1

  2

  4

  6

 40
0.0
 41
0.0
 42
0.0
 43
0.0
 44
0.0
 45
0.0
 46
0.0
 47
0.0
 48
0.0
 49
0.0
140
0.0
141
0.0
142
1.0
143
1.0
 70
  1712
 72
     0
 73
     0
 74
     0
  7

 75
     0
147
1.0
 76
     0
 77
     2
 78
   300
148
0.0
149
0.0
100
AcDbLayout
  1
Model
 70
     1
 71
     0
 10
0.0
 20
0.0
 11
12.0
 21
9.0
 12
0.0
 22
0.0
 32
0.0
 14
0.0
 24
0.0
 34
0.0
 15
0.0
 25
0.0
 35
0.0
146
0.0
 13
0.0
 23
0.0
 33
0.0
 16
1.0
 26
0.0
 36
0.0
 17
0.0
 27
1.0
 37
0.0
 76
     0
330
70
  0
MATERIAL
  5
19
102
{ACAD_XDICTIONARY
360
1A
102
}
102
{ACAD_REACTORS
330
10
102
}
330
10
100
AcDbMaterial
  1
ByBlock
 72
     0
 43
0.0208333333333333
 43
0.0
 43
0.0
 43
0.0
 43
0.0
 43
0.0208333333333333
 43
0.0
 43
0.0
 43
0.0
 43
0.0
 43
1.0
 43
0.0
 43
0.0
 43
0.0
 43
0.0
 43
1.0
 77
     0
 47
0.0208333333333333
 47
0.0
 47
0.0
 47
0.0
 47
0.0
 47
0.0208333333333333
 47
0.0
 47
0.0
 47
0.0
 47
0.0
 47
1.0
 47
0.0
 47
0.0
 47
0.0
 47
0.0
 47
1.0
171
     0
 49
0.0208333333333333
 49
0.0
 49
0.0
 49
0.0
 49
0.0
 49
0.0208333333333333
 49
0.0
 49
0.0
 49
0.0
 49
0.0
 49
1.0
 49
0.0
 49
0.0
 49
0.0
 49
0.0
 49
1.0
175
     0
142
0.0208333333333333
142
0.0
142
0.0
142
0.0
142
0.0
142
0.0208333333333333
142
0.0
142
0.0
142
0.0
142
0.0
142
1.0
142
0.0
142
0.0
142
0.0
142
0.0
142
1.0
179
     0
144
0.0208333333333333
144
0.0
144
0.0
144
0.0
144
0.0
144
0.0208333333333333
144
0.0
144
0.0
144
0.0
144
0.0
144
1.0
144
0.0
144
0.0
144
0.0
144
0.0
144
1.0
147
0.0208333333333333
147
0.0
147
0.0
147
0.0
147
0.0
147
0.0208333333333333
147
0.0
147
0.0
147
0.0
147
0.0
147
1.0
147
0.0
147
0.0
147
0.0
147
0.0
147
1.0
  0
MATERIAL
  5
11
102
{ACAD_XDICTIONARY
360
12
102
}
102
{ACAD_REACTORS
330
10
102
}
330
10
100
AcDbMaterial
  1
ByLayer
 72
     0
 43
0.0208333333333333
 43
0.0
 43
0.0
 43
0.0
 43
0.0
 43
0.0208333333333333
 43
0.0
 43
0.0
 43
0.0
 43
0.0
 43
1.0
 43
0.0
 43
0.0
 43
0.0
 43
0.0
 43
1.0
 77
     0
 47
0.0208333333333333
 47
0.0
 47
0.0
 47
0.0
 47
0.0
 47
0.0208333333333333
 47
0.0
 47
0.0
 47
0.0
 47
0.0
 47
1.0
 47
0.0
 47
0.0
 47
0.0
 47
0.0
 47
1.0
171
     0
 49
0.0208333333333333
 49
0.0
 49
0.0
 49
0.0
 49
0.0
 49
0.0208333333333333
 49
0.0
 49
0.0
 49
0.0
 49
0.0
 49
1.0
 49
0.0
 49
0.0
 49
0.0
 49
0.0
 49
1.0
175
     0
142
0.0208333333333333
142
0.0
142
0.0
142
0.0
142
0.0
142
0.0208333333333333
142
0.0
142
0.0
142
0.0
142
0.0
142
1.0
142
0.0
142
0.0
142
0.0
142
0.0
142
1.0
179
     0
144
0.0208333333333333
144
0.0
144
0.0
144
0.0
144
0.0
144
0.0208333333333333
144
0.0
144
0.0
144
0.0
144
0.0
144
1.0
144
0.0
144
0.0
144
0.0
144
0.0
144
1.0
147
0.0208333333333333
147
0.0
147
0.0
147
0.0
147
0.0
147
0.0208333333333333
147
0.0
147
0.0
147
0.0
147
0.0
147
1.0
147
0.0
147
0.0
147
0.0
147
0.0
147
1.0
  0
MATERIAL
  5
21
102
{ACAD_XDICTIONARY
360
22
102
}
102
{ACAD_REACTORS
330
10
102
}
330
10
100
AcDbMaterial
  1
Global
 72
     0
 43
0.0208333333333333
 43
0.0
 43
0.0
 43
0.0
 43
0.0
 43
0.0208333333333333
 43
0.0
 43
0.0
 43
0.0
 43
0.0
 43
1.0
 43
0.0
 43
0.0
 43
0.0
 43
0.0
 43
1.0
 77
     0
 47
0.0208333333333333
 47
0.0
 47
0.0
 47
0.0
 47
0.0
 47
0.0208333333333333
 47
0.0
 47
0.0
 47
0.0
 47
0.0
 47
1.0
 47
0.0
 47
0.0
 47
0.0
 47
0.0
 47
1.0
171
     0
 49
0.0208333333333333
 49
0.0
 49
0.0
 49
0.0
 49
0.0
 49
0.0208333333333333
 49
0.0
 49
0.0
 49
0.0
 49
0.0
 49
1.0
 49
0.0
 49
0.0
 49
0.0
 49
0.0
 49
1.0
175
     0
142
0.0208333333333333
142
0.0
142
0.0
142
0.0
142
0.0
142
0.0208333333333333
142
0.0
142
0.0
142
0.0
142
0.0
142
1.0
142
0.0
142
0.0
142
0.0
142
0.0
142
1.0
179
     0
144
0.0208333333333333
144
0.0
144
0.0
144
0.0
144
0.0
144
0.0208333333333333
144
0.0
144
0.0
144
0.0
144
0.0
144
1.0
144
0.0
144
0.0
144
0.0
144
0.0
144
1.0
147
0.0208333333333333
147
0.0
147
0.0
147
0.0
147
0.0
147
0.0208333333333333
147
0.0
147
0.0
147
0.0
147
0.0
147
1.0
147
0.0
147
0.0
147
0.0
147
0.0
147
1.0
  0
MLEADERSTYLE
  5
67
102
{ACAD_XDICTIONARY
360
169
102
}
102
{ACAD_REACTORS
330
66
102
}
330
66
100
AcDbMLeaderStyle
179
     2
170
     2
171
     1
172
     0
 90
        2
 40
0.0
 41
0.0
173
     1
 91
-1056964608
340
5B
 92
       -2
290
     1
 42
0.09
291
     1
 43
0.36
  3
Standard
 44
0.18
300

342
55
174
     1
178
     6
175
     1
176
     0
 93
-1056964608
 45
0.18
292
     0
297
     0
 46
0.18
 94
-1056964608
 47
1.0
 49
1.0
140
1.0
293
     1
141
0.0
294
     1
177
     0
142
1.0
295
     0
296
     0
143
0.125
271
     0
272
     9
273
     9
  0
MLINESTYLE
  5
60
102
{ACAD_REACTORS
330
5F
102
}
330
5F
100
AcDbMlineStyle
  2
STANDARD
 70
     0
  3

 62
   256
 51
90.0
 52
90.0
 71
     2
 49
0.5
 62
   256
  6
BYLAYER
 49
-0.5
 62
   256
  6
BYLAYER
  0
ACDBPLACEHOLDER
  5
F
102
{ACAD_REACTORS
330
E
102
}
330
E
  0
SCALE
  5
43
102
{ACAD_REACTORS
330
42
102
}
330
42
100
AcDbScale
 70
     0
300
1:1
140
1.0
141
1.0
290
     1
  0
SCALE
  5
44
102
{ACAD_REACTORS
330
42
102
}
330
42
100
AcDbScale
 70
     0
300
1/128" = 1'-0"
140
0.0078125
141
12.0
290
     0
  0
SCALE
  5
45
102
{ACAD_REACTORS
330
42
102
}
330
42
100
AcDbScale
 70
     0
300
1/64" = 1'-0"
140
0.015625
141
12.0
290
     0
  0
SCALE
  5
46
102
{ACAD_REACTORS
330
42
102
}
330
42
100
AcDbScale
 70
     0
300
1/32" = 1'-0"
140
0.03125
141
12.0
290
     0
  0
SCALE
  5
47
102
{ACAD_REACTORS
330
42
102
}
330
42
100
AcDbScale
 70
     0
300
1/16" = 1'-0"
140
0.0625
141
12.0
290
     0
  0
SCALE
  5
48
102
{ACAD_REACTORS
330
42
102
}
330
42
100
AcDbScale
 70
     0
300
3/32" = 1'-0"
140
0.09375
141
12.0
290
     0
  0
SCALE
  5
49
102
{ACAD_REACTORS
330
42
102
}
330
42
100
AcDbScale
 70
     0
300
1/8" = 1'-0"
140
0.125
141
12.0
290
     0
  0
SCALE
  5
4A
102
{ACAD_REACTORS
330
42
102
}
330
42
100
AcDbScale
 70
     0
300
3/16" = 1'-0"
140
0.1875
141
12.0
290
     0
  0
SCALE
  5
4B
102
{ACAD_REACTORS
330
42
102
}
330
42
100
AcDbScale
 70
     0
300
1/4" = 1'-0"
140
0.25
141
12.0
290
     0
  0
SCALE
  5
4C
102
{ACAD_REACTORS
330
42
102
}
330
42
100
AcDbScale
 70
     0
300
3/8" = 1'-0"
140
0.375
141
12.0
290
     0
  0
SCALE
  5
4D
102
{ACAD_REACTORS
330
42
102
}
330
42
100
AcDbScale
 70
     0
300
1/2" = 1'-0"
140
0.5
141
12.0
290
     0
  0
SCALE
  5
4E
102
{ACAD_REACTORS
330
42
102
}
330
42
100
AcDbScale
 70
     0
300
3/4" = 1'-0"
140
0.75
141
12.0
290
     0
  0
SCALE
  5
4F
102
{ACAD_REACTORS
330
42
102
}
330
42
100
AcDbScale
 70
     0
300
1" = 1'-0"
140
1.0
141
12.0
290
     0
  0
SCALE
  5
50
102
{ACAD_REACTORS
330
42
102
}
330
42
100
AcDbScale
 70
     0
300
1-1/2" = 1'-0"
140
1.5
141
12.0
290
     0
  0
SCALE
  5
51
102
{ACAD_REACTORS
330
42
102
}
330
42
100
AcDbScale
 70
     0
300
3" = 1'-0"
140
3.0
141
12.0
290
     0
  0
SCALE
  5
52
102
{ACAD_REACTORS
330
42
102
}
330
42
100
AcDbScale
 70
     0
300
6" = 1'-0"
140
6.0
141
12.0
290
     0
  0
SCALE
  5
53
102
{ACAD_REACTORS
330
42
102
}
330
42
100
AcDbScale
 70
     0
300
1'-0" = 1'-0"
140
12.0
141
12.0
290
     0
  0
ACDBSECTIONVIEWSTYLE
  5
69
102
{ACAD_XDICTIONARY
360
16B
102
}
102
{ACAD_REACTORS
330
68
102
}
330
68
100
AcDbModelDocViewStyle
 70
     0
  3
Imperial24
290
     0
100
AcDbSectionViewStyle
 70
     0
 71
     0
 90
       78
 71
     1
340
55
 62
   256
 40
0.24
340
0
340
0
 62
   256
 40
0.24
300
I, O, Q, S, X, Z
 40
0.48
 90
        3
 40
0.18
 90
        1
 71
     2
340
5D
 90
       25
 62
   256
340
5D
 90
       50
 62
   256
 40
0.24
 40
0.0
 40
0.24
 71
     3
340
55
 62
   256
 40
0.24
 90
        1
 40
0.75
 90
        1
300
%<\AcVar ViewType \f "%tc1">% %<\AcVar ViewSectionStartId>%-%<\AcVar ViewSectionEndId>%\PSCALE %<\AcVar ViewScale \f "%sn">%
 71
     4
 62
   256
 62
   257
300
ANSI31
 40
1.0
 90
        0
290
     0
290
     0
 90
        6
 40
0.0
 40
1.570796326794896
 40
0.2617993877991494
 40
1.308996938995747
 40
-0.2617993877991494
 40
1.832595714594046
  0
TABLESTYLE
  5
65
102
{ACAD_XDICTIONARY
360
135
102
}
102
{ACAD_REACTORS
330
64
102
}
330
64
100
AcDbTableStyle
280
     0
  3
Standard
 70
     0
 71
     0
 40
0.06
 41
0.06
280
     0
281
     0
  7
Standard
140
0.18
170
     2
 62
     0
 63
     7
283
     0
 90
      512
 91
        0
  1

274
    -2
284
     1
 64
     0
275
    -2
285
     1
 65
     0
276
    -2
286
     1
 66
     0
277
    -2
287
     1
 67
     0
278
    -2
288
     1
 68
     0
279
    -2
289
     1
 69
     0
  7
Standard
140
0.25
170
     5
 62
     0
 63
     7
283
     0
 90
      512
 91
        0
  1

274
    -2
284
     1
 64
     0
275
    -2
285
     1
 65
     0
276
    -2
286
     1
 66
     0
277
    -2
287
     1
 67
     0
278
    -2
288
     1
 68
     0
279
    -2
289
     1
 69
     0
  7
Standard
140
0.18
170
     5
 62
     0
 63
     7
283
     0
 90
      512
 91
        0
  1

274
    -2
284
     1
 64
     0
275
    -2
285
     1
 65
     0
276
    -2
286
     1
 66
     0
277
    -2
287
     1
 67
     0
278
    -2
288
     1
 68
     0
279
    -2
289
     1
 69
     0
  0
VISUALSTYLE
  5
2F
102
{ACAD_XDICTIONARY
360
143
102
}
102
{ACAD_REACTORS
330
29
102
}
330
29
100
AcDbVisualStyle
  2
2dWireframe
 70
     4
177
     2
291
     0
 71
     0
176
     1
 72
     2
176
     1
 73
     0
176
     1
 90
        0
176
     1
 40
0.6
176
     1
 41
30.0
176
     1
 63
     7
421
 16777215
176
     1
 74
     1
176
     1
 91
        4
176
     1
 64
     7
176
     1
 65
   257
176
     1
 75
     1
176
     1
175
     1
176
     1
 42
1.0
176
     1
 92
        0
176
     1
 66
   257
176
     1
 43
1.0
176
     1
 76
     1
176
     1
 77
     6
176
     1
 78
     2
176
     1
 67
     7
176
     1
 79
     5
176
     1
170
     0
176
     1
171
     0
176
     1
290
     0
176
     1
 93
        1
176
     1
 44
0.0
176
     1
173
     0
176
     1
1001
ACAD
1000
AcDbSavedByObjectVersion
1070
     0
  0
VISUALSTYLE
  5
2E
102
{ACAD_XDICTIONARY
360
141
102
}
102
{ACAD_REACTORS
330
29
102
}
330
29
100
AcDbVisualStyle
  2
Basic
 70
     7
177
     2
291
     1
 71
     1
176
     1
 72
     0
176
     1
 73
     1
176
     1
 90
        0
176
     1
 40
0.6
176
     1
 41
30.0
176
     1
 63
     7
421
 16777215
176
     1
 74
     0
176
     1
 91
        4
176
     1
 64
     7
176
     1
 65
   257
176
     1
 75
     1
176
     1
175
     1
176
     1
 42
1.0
176
     1
 92
        8
176
     1
 66
     7
176
     1
 43
1.0
176
     1
 76
     1
176
     1
 77
     6
176
     1
 78
     2
176
     1
 67
     7
176
     1
 79
     5
176
     1
170
     0
176
     1
171
     0
176
     1
290
     0
176
     1
 93
        1
176
     1
 44
0.0
176
     1
173
     0
176
     1
1001
ACAD
1000
AcDbSavedByObjectVersion
1070
     0
  0
VISUALSTYLE
  5
35
102
{ACAD_XDICTIONARY
360
14F
102
}
102
{ACAD_REACTORS
330
29
102
}
330
29
100
AcDbVisualStyle
  2
Brighten
 70
    12
177
     2
291
     1
 71
     2
176
     1
 72
     2
176
     1
 73
     0
176
     1
 90
        0
176
     1
 40
0.6
176
     1
 41
30.0
176
     1
 63
     7
421
 16777215
176
     1
 74
     1
176
     1
 91
        4
176
     1
 64
     7
176
     1
 65
   257
176
     1
 75
     1
176
     1
175
     1
176
     1
 42
1.0
176
     1
 92
        8
176
     1
 66
     7
176
     1
 43
1.0
176
     1
 76
     1
176
     1
 77
     6
176
     1
 78
     2
176
     1
 67
     7
176
     1
 79
     5
176
     1
170
     0
176
     1
171
     0
176
     1
290
     0
176
     1
 93
        1
176
     1
 44
50.0
176
     1
173
     0
176
     1
1001
ACAD
1000
AcDbSavedByObjectVersion
1070
     0
  0
VISUALSTYLE
  5
39
102
{ACAD_XDICTIONARY
360
157
102
}
102
{ACAD_REACTORS
330
29
102
}
330
29
100
AcDbVisualStyle
  2
ColorChange
 70
    16
177
     2
291
     1
 71
     2
176
     1
 72
     2
176
     1
 73
     3
176
     1
 90
        0
176
     1
 40
0.6
176
     1
 41
30.0
176
     1
 63
     8
421
  8421504
176
     1
 74
     1
176
     1
 91
        4
176
     1
 64
     7
176
     1
 65
   257
176
     1
 75
     1
176
     1
175
     1
176
     1
 42
1.0
176
     1
 92
        8
176
     1
 66
     8
424
  8421504
176
     1
 43
1.0
176
     1
 76
     1
176
     1
 77
     6
176
     1
 78
     2
176
     1
 67
     7
176
     1
 79
     5
176
     1
170
     0
176
     1
171
     0
176
     1
290
     0
176
     1
 93
        1
176
     1
 44
0.0
176
     1
173
     0
176
     1
1001
ACAD
1000
AcDbSavedByObjectVersion
1070
     0
  0
VISUALSTYLE
  5
32
102
{ACAD_XDICTIONARY
360
149
102
}
102
{ACAD_REACTORS
330
29
102
}
330
29
100
AcDbVisualStyle
  2
Conceptual
 70
     9
177
     2
291
     0
 71
     3
176
     1
 72
     2
176
     1
 73
     0
176
     1
 90
        0
176
     1
 40
0.6
176
     1
 41
30.0
176
     1
 63
     7
421
 16777215
176
     1
 74
     2
176
     1
 91
        2
176
     1
 64
     7
176
     1
 65
   257
176
     1
 75
     1
176
     1
175
     1
176
     1
 42
179.0
176
     1
 92
        8
176
     1
 66
     7
176
     1
 43
1.0
176
     1
 76
     1
176
     1
 77
     6
176
     1
 78
     2
176
     1
 67
     7
176
     1
 79
     3
176
     1
170
     0
176
     1
171
     0
176
     1
290
     0
176
     1
 93
        1
176
     1
 44
0.0
176
     1
173
     0
176
     1
1001
ACAD
1000
AcDbSavedByObjectVersion
1070
     0
  0
VISUALSTYLE
  5
34
102
{ACAD_XDICTIONARY
360
14D
102
}
102
{ACAD_REACTORS
330
29
102
}
330
29
100
AcDbVisualStyle
  2
Dim
 70
    11
177
     2
291
     1
 71
     2
176
     1
 72
     2
176
     1
 73
     0
176
     1
 90
        0
176
     1
 40
0.6
176
     1
 41
30.0
176
     1
 63
     7
421
 16777215
176
     1
 74
     1
176
     1
 91
        4
176
     1
 64
     7
176
     1
 65
   257
176
     1
 75
     1
176
     1
175
     1
176
     1
 42
1.0
176
     1
 92
        8
176
     1
 66
     7
176
     1
 43
1.0
176
     1
 76
     1
176
     1
 77
     6
176
     1
 78
     2
176
     1
 67
     7
176
     1
 79
     5
176
     1
170
     0
176
     1
171
     0
176
     1
290
     0
176
     1
 93
        1
176
     1
 44
-50.0
176
     1
173
     0
176
     1
1001
ACAD
1000
AcDbSavedByObjectVersion
1070
     0
  0
VISUALSTYLE
  5
41
102
{ACAD_XDICTIONARY
360
167
102
}
102
{ACAD_REACTORS
330
29
102
}
330
29
100
AcDbVisualStyle
  2
EdgeColorOff
 70
    22
177
     2
291
     1
 71
     2
176
     0
 72
     2
176
     0
 73
     0
176
     0
 90
        0
176
     0
 40
0.6
176
     0
 41
30.0
176
     0
 63
     7
421
 16777215
176
     0
 74
     1
176
     0
 91
        4
176
     0
 64
     7
176
     0
 65
   257
176
     0
 75
     1
176
     0
175
     1
176
     0
 42
1.0
176
     0
 92
        8
176
     2
 66
     7
176
     0
 43
1.0
176
     0
 76
     1
176
     0
 77
     6
176
     0
 78
     2
176
     0
 67
     7
176
     0
 79
     5
176
     0
170
     0
176
     0
171
     0
176
     0
290
     0
176
     0
 93
        1
176
     0
 44
0.0
176
     0
173
     0
176
     0
1001
ACAD
1000
AcDbSavedByObjectVersion
1070
     0
  0
VISUALSTYLE
  5
38
102
{ACAD_XDICTIONARY
360
155
102
}
102
{ACAD_REACTORS
330
29
102
}
330
29
100
AcDbVisualStyle
  2
Facepattern
 70
    15
177
     2
291
     1
 71
     2
176
     1
 72
     2
176
     1
 73
     0
176
     1
 90
        0
176
     1
 40
0.6
176
     1
 41
30.0
176
     1
 63
     7
421
 16777215
176
     1
 74
     1
176
     1
 91
        4
176
     1
 64
     7
176
     1
 65
   257
176
     1
 75
     1
176
     1
175
     1
176
     1
 42
1.0
176
     1
 92
        8
176
     1
 66
     7
176
     1
 43
1.0
176
     1
 76
     1
176
     1
 77
     6
176
     1
 78
     2
176
     1
 67
     7
176
     1
 79
     5
176
     1
170
     0
176
     1
171
     0
176
     1
290
     0
176
     1
 93
        1
176
     1
 44
0.0
176
     1
173
     0
176
     1
1001
ACAD
1000
AcDbSavedByObjectVersion
1070
     0
  0
VISUALSTYLE
  5
2A
102
{ACAD_XDICTIONARY
360
139
102
}
102
{ACAD_REACTORS
330
29
102
}
330
29
100
AcDbVisualStyle
  2
Flat
 70
     0
177
     2
291
     1
 71
     2
176
     1
 72
     1
176
     1
 73
     1
176
     1
 90
        2
176
     1
 40
0.6
176
     1
 41
30.0
176
     1
 63
     7
421
 16777215
176
     1
 74
     0
176
     1
 91
        0
176
     1
 64
     7
176
     1
 65
   257
176
     1
 75
     1
176
     1
175
     1
176
     1
 42
1.0
176
     1
 92
        8
176
     1
 66
     7
176
     1
 43
1.0
176
     1
 76
     1
176
     1
 77
     6
176
     1
 78
     2
176
     1
 67
     7
176
     1
 79
     5
176
     1
170
     0
176
     1
171
     0
176
     1
290
     0
176
     1
 93
       13
176
     1
 44
0.0
176
     1
173
     0
176
     1
1001
ACAD
1000
AcDbSavedByObjectVersion
1070
     0
  0
VISUALSTYLE
  5
2B
102
{ACAD_XDICTIONARY
360
13B
102
}
102
{ACAD_REACTORS
330
29
102
}
330
29
100
AcDbVisualStyle
  2
FlatWithEdges
 70
     1
177
     2
291
     1
 71
     2
176
     1
 72
     1
176
     1
 73
     1
176
     1
 90
        2
176
     1
 40
0.6
176
     1
 41
30.0
176
     1
 63
     7
421
 16777215
176
     1
 74
     1
176
     1
 91
        0
176
     1
 64
     7
176
     1
 65
   257
176
     1
 75
     1
176
     1
175
     1
176
     1
 42
1.0
176
     1
 92
        0
176
     1
 66
   257
176
     1
 43
1.0
176
     1
 76
     1
176
     1
 77
     6
176
     1
 78
     2
176
     1
 67
     7
176
     1
 79
     5
176
     1
170
     0
176
     1
171
     0
176
     1
290
     0
176
     1
 93
       13
176
     1
 44
0.0
176
     1
173
     0
176
     1
1001
ACAD
1000
AcDbSavedByObjectVersion
1070
     0
  0
VISUALSTYLE
  5
2C
102
{ACAD_XDICTIONARY
360
13D
102
}
102
{ACAD_REACTORS
330
29
102
}
330
29
100
AcDbVisualStyle
  2
Gouraud
 70
     2
177
     2
291
     1
 71
     2
176
     1
 72
     2
176
     1
 73
     1
176
     1
 90
        2
176
     1
 40
0.6
176
     1
 41
30.0
176
     1
 63
     7
421
 16777215
176
     1
 74
     0
176
     1
 91
        0
176
     1
 64
     7
176
     1
 65
   257
176
     1
 75
     1
176
     1
175
     1
176
     1
 42
1.0
176
     1
 92
        0
176
     1
 66
     7
176
     1
 43
1.0
176
     1
 76
     1
176
     1
 77
     6
176
     1
 78
     2
176
     1
 67
     7
176
     1
 79
     5
176
     1
170
     0
176
     1
171
     0
176
     1
290
     0
176
     1
 93
       13
176
     1
 44
0.0
176
     1
173
     0
176
     1
1001
ACAD
1000
AcDbSavedByObjectVersion
1070
     0
  0
VISUALSTYLE
  5
2D
102
{ACAD_XDICTIONARY
360
13F
102
}
102
{ACAD_REACTORS
330
29
102
}
330
29
100
AcDbVisualStyle
  2
GouraudWithEdges
 70
     3
177
     2
291
     1
 71
     2
176
     1
 72
     2
176
     1
 73
     1
176
     1
 90
        2
176
     1
 40
0.6
176
     1
 41
30.0
176
     1
 63
     7
421
 16777215
176
     1
 74
     1
176
     1
 91
        0
176
     1
 64
     7
176
     1
 65
   257
176
     1
 75
     1
176
     1
175
     1
176
     1
 42
1.0
176
     1
 92
        0
176
     1
 66
   257
176
     1
 43
1.0
176
     1
 76
     1
176
     1
 77
     6
176
     1
 78
     2
176
     1
 67
     7
176
     1
 79
     5
176
     1
170
     0
176
     1
171
     0
176
     1
290
     0
176
     1
 93
       13
176
     1
 44
0.0
176
     1
173
     0
176
     1
1001
ACAD
1000
AcDbSavedByObjectVersion
1070
     0
  0
VISUALSTYLE
  5
31
102
{ACAD_XDICTIONARY
360
147
102
}
102
{ACAD_REACTORS
330
29
102
}
330
29
100
AcDbVisualStyle
  2
Hidden
 70
     6
177
     2
291
     0
 71
     1
176
     1
 72
     2
176
     1
 73
     2
176
     1
 90
        0
176
     1
 40
0.6
176
     1
 41
30.0
176
     1
 63
     7
421
 16777215
176
     1
 74
     2
176
     1
 91
        2
176
     1
 64
     7
176
     1
 65
   257
176
     1
 75
     2
176
     1
175
     1
176
     1
 42
40.0
176
     1
 92
        0
176
     1
 66
   257
176
     1
 43
1.0
176
     1
 76
     1
176
     1
 77
     6
176
     1
 78
     2
176
     1
 67
     7
176
     1
 79
     3
176
     1
170
     0
176
     1
171
     0
176
     1
290
     0
176
     1
 93
        1
176
     1
 44
0.0
176
     1
173
     0
176
     1
1001
ACAD
1000
AcDbSavedByObjectVersion
1070
     0
  0
VISUALSTYLE
  5
3F
102
{ACAD_XDICTIONARY
360
163
102
}
102
{ACAD_REACTORS
330
29
102
}
330
29
100
AcDbVisualStyle
  2
JitterOff
 70
    20
177
     2
291
     1
 71
     2
176
     0
 72
     2
176
     0
 73
     0
176
     0
 90
        0
176
     0
 40
0.6
176
     0
 41
30.0
176
     0
 63
     7
421
 16777215
176
     0
 74
     1
176
     0
 91
        4
176
     0
 64
     7
176
     0
 65
   257
176
     0
 75
     1
176
     0
175
     1
176
     0
 42
1.0
176
     0
 92
       10
176
     2
 66
     7
176
     0
 43
1.0
176
     0
 76
     1
176
     0
 77
     6
176
     0
 78
     2
176
     0
 67
     7
176
     0
 79
     5
176
     0
170
     0
176
     0
171
     0
176
     0
290
     0
176
     0
 93
        1
176
     0
 44
0.0
176
     0
173
     0
176
     0
1001
ACAD
1000
AcDbSavedByObjectVersion
1070
     0
  0
VISUALSTYLE
  5
37
102
{ACAD_XDICTIONARY
360
153
102
}
102
{ACAD_REACTORS
330
29
102
}
330
29
100
AcDbVisualStyle
  2
Linepattern
 70
    14
177
     2
291
     1
 71
     2
176
     1
 72
     2
176
     1
 73
     0
176
     1
 90
        0
176
     1
 40
0.6
176
     1
 41
30.0
176
     1
 63
     7
421
 16777215
176
     1
 74
     1
176
     1
 91
        4
176
     1
 64
     7
176
     1
 65
   257
176
     1
 75
     7
176
     1
175
     7
176
     1
 42
1.0
176
     1
 92
        8
176
     1
 66
     7
176
     1
 43
1.0
176
     1
 76
     1
176
     1
 77
     6
176
     1
 78
     2
176
     1
 67
     7
176
     1
 79
     5
176
     1
170
     0
176
     1
171
     0
176
     1
290
     0
176
     1
 93
        1
176
     1
 44
0.0
176
     1
173
     0
176
     1
1001
ACAD
1000
AcDbSavedByObjectVersion
1070
     0
  0
VISUALSTYLE
  5
40
102
{ACAD_XDICTIONARY
360
165
102
}
102
{ACAD_REACTORS
330
29
102
}
330
29
100
AcDbVisualStyle
  2
OverhangOff
 70
    21
177
     2
291
     1
 71
     2
176
     0
 72
     2
176
     0
 73
     0
176
     0
 90
        0
176
     0
 40
0.6
176
     0
 41
30.0
176
     0
 63
     7
421
 16777215
176
     0
 74
     1
176
     0
 91
        4
176
     0
 64
     7
176
     0
 65
   257
176
     0
 75
     1
176
     0
175
     1
176
     0
 42
1.0
176
     0
 92
        9
176
     2
 66
     7
176
     0
 43
1.0
176
     0
 76
     1
176
     0
 77
     6
176
     0
 78
     2
176
     0
 67
     7
176
     0
 79
     5
176
     0
170
     0
176
     0
171
     0
176
     0
290
     0
176
     0
 93
        1
176
     0
 44
0.0
176
     0
173
     0
176
     0
1001
ACAD
1000
AcDbSavedByObjectVersion
1070
     0
  0
VISUALSTYLE
  5
33
102
{ACAD_XDICTIONARY
360
14B
102
}
102
{ACAD_REACTORS
330
29
102
}
330
29
100
AcDbVisualStyle
  2
Realistic
 70
     8
177
     2
291
     0
 71
     2
176
     1
 72
     3
176
     1
 73
     0
176
     1
 90
        2
176
     1
 40
0.6
176
     1
 41
30.0
176
     1
 63
     7
421
 16777215
176
     1
 74
     0
176
     1
 91
        0
176
     1
 64
     7
176
     1
 65
   257
176
     1
 75
     1
176
     1
175
     1
176
     1
 42
1.0
176
     1
 92
        8
176
     1
 66
   257
176
     1
 43
1.0
176
     1
 76
     1
176
     1
 77
     6
176
     1
 78
     2
176
     1
 67
     7
176
     1
 79
     3
176
     1
170
     0
176
     1
171
     0
176
     1
290
     0
176
     1
 93
       13
176
     1
 44
0.0
176
     1
173
     0
176
     1
1001
ACAD
1000
AcDbSavedByObjectVersion
1070
     0
  0
VISUALSTYLE
  5
3E
102
{ACAD_XDICTIONARY
360
161
102
}
102
{ACAD_REACTORS
330
29
102
}
330
29
100
AcDbVisualStyle
  2
Shaded
 70
    27
177
     2
291
     0
 71
     2
176
     1
 72
     2
176
     1
 73
     1
176
     1
 90
        2
176
     1
 40
0.6
176
     1
 41
30.0
176
     1
 63
     7
421
 16777215
176
     1
 74
     0
176
     1
 91
        4
176
     1
 64
     7
176
     1
 65
   257
176
     1
 75
     1
176
     1
175
     1
176
     1
 42
1.0
176
     1
 92
        8
176
     1
 66
   257
176
     1
 43
1.0
176
     1
 76
     1
176
     1
 77
     6
176
     1
 78
     2
176
     1
 67
     8
425
  7895160
176
     1
 79
     3
176
     1
170
     0
176
     1
171
     0
176
     1
290
     0
176
     1
 93
        5
176
     1
 44
0.0
176
     1
173
     0
176
     1
1001
ACAD
1000
AcDbSavedByObjectVersion
1070
     0
  0
VISUALSTYLE
  5
3D
102
{ACAD_XDICTIONARY
360
15F
102
}
102
{ACAD_REACTORS
330
29
102
}
330
29
100
AcDbVisualStyle
  2
Shaded with edges
 70
    26
177
     2
291
     0
 71
     2
176
     1
 72
     2
176
     1
 73
     1
176
     1
 90
        2
176
     1
 40
0.6
176
     1
 41
30.0
176
     1
 63
     7
421
 16777215
176
     1
 74
     1
176
     1
 91
        2
176
     1
 64
     7
176
     1
 65
   257
176
     1
 75
     2
176
     1
175
     1
176
     1
 42
1.0
176
     1
 92
        8
176
     1
 66
   257
176
     1
 43
1.0
176
     1
 76
     1
176
     1
 77
     6
176
     1
 78
     2
176
     1
 67
     7
176
     1
 79
     3
176
     1
170
     0
176
     1
171
     0
176
     1
290
     0
176
     1
 93
        5
176
     1
 44
0.0
176
     1
173
     0
176
     1
1001
ACAD
1000
AcDbSavedByObjectVersion
1070
     0
  0
VISUALSTYLE
  5
3A
102
{ACAD_XDICTIONARY
360
159
102
}
102
{ACAD_REACTORS
330
29
102
}
330
29
100
AcDbVisualStyle
  2
Shades of Gray
 70
    23
177
     2
291
     0
 71
     2
176
     1
 72
     2
176
     1
 73
     3
176
     1
 90
        0
176
     1
 40
0.6
176
     1
 41
30.0
176
     1
 63
     7
421
 16777215
176
     1
 74
     2
176
     1
 91
        2
176
     1
 64
     7
176
     1
 65
     7
176
     1
 75
     1
176
     1
175
     1
176
     1
 42
40.0
176
     1
 92
        8
176
     1
 66
     7
176
     1
 43
1.0
176
     1
 76
     1
176
     1
 77
     6
176
     1
 78
     2
176
     1
 67
     7
176
     1
 79
     3
176
     1
170
     0
176
     1
171
     0
176
     1
290
     0
176
     1
 93
        1
176
     1
 44
0.0
176
     1
173
     0
176
     1
1001
ACAD
1000
AcDbSavedByObjectVersion
1070
     0
  0
VISUALSTYLE
  5
3B
102
{ACAD_XDICTIONARY
360
15B
102
}
102
{ACAD_REACTORS
330
29
102
}
330
29
100
AcDbVisualStyle
  2
Sketchy
 70
    24
177
     2
291
     0
 71
     1
176
     1
 72
     2
176
     1
 73
     2
176
     1
 90
        0
176
     1
 40
0.6
176
     1
 41
30.0
176
     1
 63
     7
421
 16777215
176
     1
 74
     2
176
     1
 91
        2
176
     1
 64
     7
176
     1
 65
     7
176
     1
 75
     1
176
     1
175
     1
176
     1
 42
40.0
176
     1
 92
       11
176
     1
 66
     7
176
     1
 43
1.0
176
     1
 76
     1
176
     1
 77
     6
176
     1
 78
     2
176
     1
 67
     7
176
     1
 79
     6
176
     1
170
     0
176
     1
171
     0
176
     1
290
     0
176
     1
 93
        1
176
     1
 44
0.0
176
     1
173
     0
176
     1
1001
ACAD
1000
AcDbSavedByObjectVersion
1070
     0
  0
VISUALSTYLE
  5
36
102
{ACAD_XDICTIONARY
360
151
102
}
102
{ACAD_REACTORS
330
29
102
}
330
29
100
AcDbVisualStyle
  2
Thicken
 70
    13
177
     2
291
     1
 71
     2
176
     1
 72
     2
176
     1
 73
     0
176
     1
 90
        0
176
     1
 40
0.6
176
     1
 41
30.0
176
     1
 63
     7
421
 16777215
176
     1
 74
     1
176
     1
 91
        4
176
     1
 64
     7
176
     1
 65
   257
176
     1
 75
     1
176
     1
175
     1
176
     1
 42
1.0
176
     1
 92
       12
176
     1
 66
     7
176
     1
 43
1.0
176
     1
 76
     1
176
     1
 77
     6
176
     1
 78
     2
176
     1
 67
     7
176
     1
 79
     5
176
     1
170
     0
176
     1
171
     0
176
     1
290
     0
176
     1
 93
        1
176
     1
 44
0.0
176
     1
173
     0
176
     1
1001
ACAD
1000
AcDbSavedByObjectVersion
1070
     0
  0
VISUALSTYLE
  5
30
102
{ACAD_XDICTIONARY
360
145
102
}
102
{ACAD_REACTORS
330
29
102
}
330
29
100
AcDbVisualStyle
  2
Wireframe
 70
     5
177
     2
291
     0
 71
     0
176
     1
 72
     2
176
     1
 73
     0
176
     1
 90
        0
176
     1
 40
0.6
176
     1
 41
30.0
176
     1
 63
     7
421
 16777215
176
     1
 74
     1
176
     1
 91
        4
176
     1
 64
     7
176
     1
 65
   257
176
     1
 75
     1
176
     1
175
     1
176
     1
 42
1.0
176
     1
 92
        0
176
     1
 66
   257
176
     1
 43
1.0
176
     1
 76
     1
176
     1
 77
     6
176
     1
 78
     2
176
     1
 67
     7
176
     1
 79
     3
176
     1
170
     0
176
     1
171
     0
176
     1
290
     0
176
     1
 93
        1
176
     1
 44
0.0
176
     1
173
     0
176
     1
1001
ACAD
1000
AcDbSavedByObjectVersion
1070
     0
  0
VISUALSTYLE
  5
3C
102
{ACAD_XDICTIONARY
360
15D
102
}
102
{ACAD_REACTORS
330
29
102
}
330
29
100
AcDbVisualStyle
  2
X-Ray
 70
    25
177
     2
291
     0
 71
     2
176
     1
 72
     2
176
     1
 73
     1
176
     1
 90
        1
176
     1
 40
0.5
176
     1
 41
30.0
176
     1
 63
     7
421
 16777215
176
     1
 74
     1
176
     1
 91
        0
176
     1
 64
     7
176
     1
 65
   257
176
     1
 75
     1
176
     1
175
     1
176
     1
 42
1.0
176
     1
 92
        8
176
     1
 66
     7
176
     1
 43
1.0
176
     1
 76
     1
176
     1
 77
     6
176
     1
 78
     2
176
     1
 67
     7
176
     1
 79
     3
176
     1
170
     0
176
     1
171
     0
176
     1
290
     0
176
     1
 93
       13
176
     1
 44
0.0
176
     1
173
     0
176
     1
1001
ACAD
1000
AcDbSavedByObjectVersion
1070
     0
  0
DICTIONARYVAR
  5
134
102
{ACAD_REACTORS
330
12F
102
}
330
12F
100
DictionaryVariables
280
     0
  1
1:1
  0
DICTIONARYVAR
  5
131
102
{ACAD_REACTORS
330
12F
102
}
330
12F
100
DictionaryVariables
280
     0
  1
STANDARD
  0
DICTIONARYVAR
  5
130
102
{ACAD_REACTORS
330
12F
102
}
330
12F
100
DictionaryVariables
280
     0
  1
STANDARD
  0
DICTIONARYVAR
  5
132
102
{ACAD_REACTORS
330
12F
102
}
330
12F
100
DictionaryVariables
280
     0
  1
Imperial24
  0
DICTIONARYVAR
  5
133
102
{ACAD_REACTORS
330
12F
102
}
330
12F
100
DictionaryVariables
280
     0
  1
Imperial24
  0
DICTIONARY
  5
16D
330
6B
100
AcDbDictionary
280
     1
281
     1
  3
ACAD_XREC_ROUNDTRIP
360
16E
  0
DICTIONARY
  5
1A
330
19
100
AcDbDictionary
280
     1
281
     1
  3
BUMPTILE
360
1C
  3
DIFFUSETILE
360
1B
  3
OPACITYTILE
360
1F
  3
REFLECTIONTILE
360
1E
  3
REFRACTIONTILE
360
20
  3
SPECULARTILE
360
1D
  0
DICTIONARY
  5
12
330
11
100
AcDbDictionary
280
     1
281
     1
  3
BUMPTILE
360
14
  3
DIFFUSETILE
360
13
  3
OPACITYTILE
360
17
  3
REFLECTIONTILE
360
16
  3
REFRACTIONTILE
360
18
  3
SPECULARTILE
360
15
  0
DICTIONARY
  5
22
330
21
100
AcDbDictionary
280
     1
281
     1
  3
BUMPTILE
360
24
  3
DIFFUSETILE
360
23
  3
OPACITYTILE
360
27
  3
REFLECTIONTILE
360
26
  3
REFRACTIONTILE
360
28
  3
SPECULARTILE
360
25
  0
DICTIONARY
  5
169
330
67
100
AcDbDictionary
280
     1
281
     1
  3
ACAD_XREC_ROUNDTRIP
360
16A
  0
DICTIONARY
  5
16B
330
69
100
AcDbDictionary
280
     1
281
     1
  3
ACAD_XREC_ROUNDTRIP
360
16C
  0
DICTIONARY
  5
135
330
65
100
AcDbDictionary
280
     1
281
     1
  3
ACAD_ROUNDTRIP_2008_TABLESTYLE_CELLSTYLEMAP
360
136
  0
DICTIONARY
  5
143
330
2F
100
AcDbDictionary
280
     1
281
     1
  3
ACAD_XREC_ROUNDTRIP
360
144
  0
DICTIONARY
  5
141
330
2E
100
AcDbDictionary
280
     1
281
     1
  3
ACAD_XREC_ROUNDTRIP
360
142
  0
DICTIONARY
  5
14F
330
35
100
AcDbDictionary
280
     1
281
     1
  3
ACAD_XREC_ROUNDTRIP
360
150
  0
DICTIONARY
  5
157
330
39
100
AcDbDictionary
280
     1
281
     1
  3
ACAD_XREC_ROUNDTRIP
360
158
  0
DICTIONARY
  5
149
330
32
100
AcDbDictionary
280
     1
281
     1
  3
ACAD_XREC_ROUNDTRIP
360
14A
  0
DICTIONARY
  5
14D
330
34
100
AcDbDictionary
280
     1
281
     1
  3
ACAD_XREC_ROUNDTRIP
360
14E
  0
DICTIONARY
  5
167
330
41
100
AcDbDictionary
280
     1
281
     1
  3
ACAD_XREC_ROUNDTRIP
360
168
  0
DICTIONARY
  5
155
330
38
100
AcDbDictionary
280
     1
281
     1
  3
ACAD_XREC_ROUNDTRIP
360
156
  0
DICTIONARY
  5
139
330
2A
100
AcDbDictionary
280
     1
281
     1
  3
ACAD_XREC_ROUNDTRIP
360
13A
  0
DICTIONARY
  5
13B
330
2B
100
AcDbDictionary
280
     1
281
     1
  3
ACAD_XREC_ROUNDTRIP
360
13C
  0
DICTIONARY
  5
13D
330
2C
100
AcDbDictionary
280
     1
281
     1
  3
ACAD_XREC_ROUNDTRIP
360
13E
  0
DICTIONARY
  5
13F
330
2D
100
AcDbDictionary
280
     1
281
     1
  3
ACAD_XREC_ROUNDTRIP
360
140
  0
DICTIONARY
  5
147
330
31
100
AcDbDictionary
280
     1
281
     1
  3
ACAD_XREC_ROUNDTRIP
360
148
  0
DICTIONARY
  5
163
330
3F
100
AcDbDictionary
280
     1
281
     1
  3
ACAD_XREC_ROUNDTRIP
360
164
  0
DICTIONARY
  5
153
330
37
100
AcDbDictionary
280
     1
281
     1
  3
ACAD_XREC_ROUNDTRIP
360
154
  0
DICTIONARY
  5
165
330
40
100
AcDbDictionary
280
     1
281
     1
  3
ACAD_XREC_ROUNDTRIP
360
166
  0
DICTIONARY
  5
14B
330
33
100
AcDbDictionary
280
     1
281
     1
  3
ACAD_XREC_ROUNDTRIP
360
14C
  0
DICTIONARY
  5
161
330
3E
100
AcDbDictionary
280
     1
281
     1
  3
ACAD_XREC_ROUNDTRIP
360
162
  0
DICTIONARY
  5
15F
330
3D
100
AcDbDictionary
280
     1
281
     1
  3
ACAD_XREC_ROUNDTRIP
360
160
  0
DICTIONARY
  5
159
330
3A
100
AcDbDictionary
280
     1
281
     1
  3
ACAD_XREC_ROUNDTRIP
360
15A
  0
DICTIONARY
  5
15B
330
3B
100
AcDbDictionary
280
     1
281
     1
  3
ACAD_XREC_ROUNDTRIP
360
15C
  0
DICTIONARY
  5
151
330
36
100
AcDbDictionary
280
     1
281
     1
  3
ACAD_XREC_ROUNDTRIP
360
152
  0
DICTIONARY
  5
145
330
30
100
AcDbDictionary
280
     1
281
     1
  3
ACAD_XREC_ROUNDTRIP
360
146
  0
DICTIONARY
  5
15D
330
3C
100
AcDbDictionary
280
     1
281
     1
  3
ACAD_XREC_ROUNDTRIP
360
15E
  0
XRECORD
  5
16E
102
{ACAD_REACTORS
330
16D
102
}
330
16D
100
AcDbXrecord
280
     1
102
DISPLAYNAME
  1
Imperial24
102
FLAGS
 90
        0
  0
XRECORD
  5
1C
102
{ACAD_REACTORS
330
1A
102
}
330
1A
100
AcDbXrecord
280
     1
270
     1
271
     1
  0
XRECORD
  5
1B
102
{ACAD_REACTORS
330
1A
102
}
330
1A
100
AcDbXrecord
280
     1
270
     1
271
     1
  0
XRECORD
  5
1F
102
{ACAD_REACTORS
330
1A
102
}
330
1A
100
AcDbXrecord
280
     1
270
     1
271
     1
  0
XRECORD
  5
1E
102
{ACAD_REACTORS
330
1A
102
}
330
1A
100
AcDbXrecord
280
     1
270
     1
271
     1
  0
XRECORD
  5
20
102
{ACAD_REACTORS
330
1A
102
}
330
1A
100
AcDbXrecord
280
     1
270
     1
271
     1
  0
XRECORD
  5
1D
102
{ACAD_REACTORS
330
1A
102
}
330
1A
100
AcDbXrecord
280
     1
270
     1
271
     1
  0
XRECORD
  5
14
102
{ACAD_REACTORS
330
12
102
}
330
12
100
AcDbXrecord
280
     1
270
     1
271
     1
  0
XRECORD
  5
13
102
{ACAD_REACTORS
330
12
102
}
330
12
100
AcDbXrecord
280
     1
270
     1
271
     1
  0
XRECORD
  5
17
102
{ACAD_REACTORS
330
12
102
}
330
12
100
AcDbXrecord
280
     1
270
     1
271
     1
  0
XRECORD
  5
16
102
{ACAD_REACTORS
330
12
102
}
330
12
100
AcDbXrecord
280
     1
270
     1
271
     1
  0
XRECORD
  5
18
102
{ACAD_REACTORS
330
12
102
}
330
12
100
AcDbXrecord
280
     1
270
     1
271
     1
  0
XRECORD
  5
15
102
{ACAD_REACTORS
330
12
102
}
330
12
100
AcDbXrecord
280
     1
270
     1
271
     1
  0
XRECORD
  5
24
102
{ACAD_REACTORS
330
22
102
}
330
22
100
AcDbXrecord
280
     1
270
     1
271
     1
  0
XRECORD
  5
23
102
{ACAD_REACTORS
330
22
102
}
330
22
100
AcDbXrecord
280
     1
270
     1
271
     1
  0
XRECORD
  5
27
102
{ACAD_REACTORS
330
22
102
}
330
22
100
AcDbXrecord
280
     1
270
     1
271
     1
  0
XRECORD
  5
26
102
{ACAD_REACTORS
330
22
102
}
330
22
100
AcDbXrecord
280
     1
270
     1
271
     1
  0
XRECORD
  5
28
102
{ACAD_REACTORS
330
22
102
}
330
22
100
AcDbXrecord
280
     1
270
     1
271
     1
  0
XRECORD
  5
25
102
{ACAD_REACTORS
330
22
102
}
330
22
100
AcDbXrecord
280
     1
270
     1
271
     1
  0
XRECORD
  5
16A
102
{ACAD_REACTORS
330
169
102
}
330
169
100
AcDbXrecord
280
     1
102
ACAD_ROUNDTRIP_2012_MLEADER_STYLE
298
     1
  0
XRECORD
  5
16C
102
{ACAD_REACTORS
330
16B
102
}
330
16B
100
AcDbXrecord
280
     1
102
DISPLAYNAME
  1
Imperial24
102
FLAGS
 90
        0
  0
CELLSTYLEMAP
  5
136
102
{ACAD_REACTORS
330
135
102
}
330
135
100
AcDbCellStyleMap
 90
        3
300
CELLSTYLE
  1
TABLEFORMAT_BEGIN
 90
        5
170
     1
 91
        0
 92
    32768
 62
   257
 93
        1
300
CONTENTFORMAT
  1
CONTENTFORMAT_BEGIN
 90
        0
 91
        0
 92
      512
 93
        0
300

 40
0.0
140
1.0
 94
        5
 62
     0
340
55
144
0.25
309
CONTENTFORMAT_END
171
     0
 94
        0
309
TABLEFORMAT_END
  1
CELLSTYLE_BEGIN
 90
        1
 91
        1
300
_TITLE
309
CELLSTYLE_END
300
CELLSTYLE
  1
TABLEFORMAT_BEGIN
 90
        5
170
     1
 91
        0
 92
        0
 62
   257
 93
        1
300
CONTENTFORMAT
  1
CONTENTFORMAT_BEGIN
 90
        0
 91
        0
 92
      512
 93
        0
300

 40
0.0
140
1.0
 94
        5
 62
     0
340
55
144
0.18
309
CONTENTFORMAT_END
171
     0
 94
        0
309
TABLEFORMAT_END
  1
CELLSTYLE_BEGIN
 90
        2
 91
        1
300
_HEADER
309
CELLSTYLE_END
300
CELLSTYLE
  1
TABLEFORMAT_BEGIN
 90
        5
170
     1
 91
        0
 92
        0
 62
   257
 93
        1
300
CONTENTFORMAT
  1
CONTENTFORMAT_BEGIN
 90
        0
 91
        0
 92
      512
 93
        0
300

 40
0.0
140
1.0
 94
        2
 62
     0
340
55
144
0.18
309
CONTENTFORMAT_END
171
     0
 94
        0
309
TABLEFORMAT_END
  1
CELLSTYLE_BEGIN
 90
        3
 91
        2
300
_DATA
309
CELLSTYLE_END
  0
XRECORD
  5
144
102
{ACAD_REACTORS
330
143
102
}
330
143
100
AcDbXrecord
280
     1
102
RTVSPost2010Prop28
280
     1
102
RTVSPost2010PropOp28
 70
     1
102
RTVSPost2010Prop29
280
     1
102
RTVSPost2010PropOp29
 70
     1
102
RTVSPost2010Prop30
280
     0
102
RTVSPost2010PropOp30
 70
     1
102
RTVSPost2010Prop31
280
     0
102
RTVSPost2010PropOp31
 70
     1
102
RTVSPost2010Prop32
280
     0
102
RTVSPost2010PropOp32
 70
     1
102
RTVSPost2010Prop33
280
     0
102
RTVSPost2010PropOp33
 70
     1
102
RTVSPost2010Prop34
280
     0
102
RTVSPost2010PropOp34
 70
     1
102
RTVSPost2010Prop35
280
     0
102
RTVSPost2010PropOp35
 70
     1
102
RTVSPost2010Prop36
280
     0
102
RTVSPost2010PropOp36
 70
     1
102
RTVSPost2010Prop37
 90
       50
102
RTVSPost2010PropOp37
 70
     1
102
RTVSPost2010Prop38
140
0.0
102
RTVSPost2010PropOp38
 70
     1
102
RTVSPost2010Prop39
140
1.0
102
RTVSPost2010PropOp39
 70
     1
102
RTVSPost2010Prop40
 90
        0
102
RTVSPost2010PropOp40
 70
     1
102
RTVSPost2010Prop41ColorIndex
 90
       18
102
RTVSPost2010Prop41ColorRGB
 90
        0
102
RTVSPost2010PropOp41
 70
     1
102
RTVSPost2010Prop42
 90
       50
102
RTVSPost2010PropOp42
 70
     1
102
RTVSPost2010Prop43
 90
        3
102
RTVSPost2010PropOp43
 70
     1
102
RTVSPost2010Prop44ColorIndex
 90
        5
102
RTVSPost2010Prop44ColorRGB
 90
      255
102
RTVSPost2010PropOp44
 70
     1
102
RTVSPost2010Prop45
280
     0
102
RTVSPost2010PropOp45
 70
     1
102
RTVSPost2010Prop46
 90
       50
102
RTVSPost2010PropOp46
 70
     1
102
RTVSPost2010Prop47
 90
       50
102
RTVSPost2010PropOp47
 70
     1
102
RTVSPost2010Prop48
 90
       50
102
RTVSPost2010PropOp48
 70
     1
102
RTVSPost2010Prop49
280
     0
102
RTVSPost2010PropOp49
 70
     1
102
RTVSPost2010Prop50
 90
       50
102
RTVSPost2010PropOp50
 70
     1
102
RTVSPost2010Prop51ColorIndex
 90
      256
102
RTVSPost2010Prop51ColorRGB
 90
-16777216
102
RTVSPost2010PropOp51
 70
     0
102
RTVSPost2010Prop52
140
1.0
102
RTVSPost2010PropOp52
 70
     0
102
RTVSPost2010Prop53
 90
        2
102
RTVSPost2010PropOp53
 70
     1
102
RTVSPost2010Prop54
  1
strokes_ogs.tif
102
RTVSPost2010PropOp54
 70
     1
102
RTVSPost2010Prop55
280
     0
102
RTVSPost2010PropOp55
 70
     1
102
RTVSPost2010Prop56
140
1.0
102
RTVSPost2010PropOp56
 70
     1
102
RTVSPost2010Prop57
140
1.0
102
RTVSPost2010PropOp57
 70
     1
  0
XRECORD
  5
142
102
{ACAD_REACTORS
330
141
102
}
330
141
100
AcDbXrecord
280
     1
102
RTVSPost2010Prop28
280
     0
102
RTVSPost2010PropOp28
 70
     1
102
RTVSPost2010Prop29
280
     1
102
RTVSPost2010PropOp29
 70
     1
102
RTVSPost2010Prop30
280
     1
102
RTVSPost2010PropOp30
 70
     1
102
RTVSPost2010Prop31
280
     0
102
RTVSPost2010PropOp31
 70
     1
102
RTVSPost2010Prop32
280
     0
102
RTVSPost2010PropOp32
 70
     1
102
RTVSPost2010Prop33
280
     0
102
RTVSPost2010PropOp33
 70
     1
102
RTVSPost2010Prop34
280
     0
102
RTVSPost2010PropOp34
 70
     1
102
RTVSPost2010Prop35
280
     0
102
RTVSPost2010PropOp35
 70
     1
102
RTVSPost2010Prop36
280
     0
102
RTVSPost2010PropOp36
 70
     1
102
RTVSPost2010Prop37
 90
       50
102
RTVSPost2010PropOp37
 70
     1
102
RTVSPost2010Prop38
140
0.0
102
RTVSPost2010PropOp38
 70
     1
102
RTVSPost2010Prop39
140
1.0
102
RTVSPost2010PropOp39
 70
     1
102
RTVSPost2010Prop40
 90
        0
102
RTVSPost2010PropOp40
 70
     1
102
RTVSPost2010Prop41ColorIndex
 90
       18
102
RTVSPost2010Prop41ColorRGB
 90
        0
102
RTVSPost2010PropOp41
 70
     1
102
RTVSPost2010Prop42
 90
       50
102
RTVSPost2010PropOp42
 70
     1
102
RTVSPost2010Prop43
 90
        3
102
RTVSPost2010PropOp43
 70
     1
102
RTVSPost2010Prop44ColorIndex
 90
        5
102
RTVSPost2010Prop44ColorRGB
 90
      255
102
RTVSPost2010PropOp44
 70
     1
102
RTVSPost2010Prop45
280
     0
102
RTVSPost2010PropOp45
 70
     1
102
RTVSPost2010Prop46
 90
       50
102
RTVSPost2010PropOp46
 70
     1
102
RTVSPost2010Prop47
 90
       50
102
RTVSPost2010PropOp47
 70
     1
102
RTVSPost2010Prop48
 90
       50
102
RTVSPost2010PropOp48
 70
     1
102
RTVSPost2010Prop49
280
     0
102
RTVSPost2010PropOp49
 70
     1
102
RTVSPost2010Prop50
 90
       50
102
RTVSPost2010PropOp50
 70
     1
102
RTVSPost2010Prop51ColorIndex
 90
      256
102
RTVSPost2010Prop51ColorRGB
 90
-16777216
102
RTVSPost2010PropOp51
 70
     0
102
RTVSPost2010Prop52
140
1.0
102
RTVSPost2010PropOp52
 70
     0
102
RTVSPost2010Prop53
 90
        2
102
RTVSPost2010PropOp53
 70
     1
102
RTVSPost2010Prop54
  1
strokes_ogs.tif
102
RTVSPost2010PropOp54
 70
     1
102
RTVSPost2010Prop55
280
     0
102
RTVSPost2010PropOp55
 70
     1
102
RTVSPost2010Prop56
140
1.0
102
RTVSPost2010PropOp56
 70
     1
102
RTVSPost2010Prop57
140
1.0
102
RTVSPost2010PropOp57
 70
     1
  0
XRECORD
  5
150
102
{ACAD_REACTORS
330
14F
102
}
330
14F
100
AcDbXrecord
280
     1
102
RTVSPost2010Prop28
280
     0
102
RTVSPost2010PropOp28
 70
     1
102
RTVSPost2010Prop29
280
     1
102
RTVSPost2010PropOp29
 70
     1
102
RTVSPost2010Prop30
280
     1
102
RTVSPost2010PropOp30
 70
     1
102
RTVSPost2010Prop31
280
     0
102
RTVSPost2010PropOp31
 70
     1
102
RTVSPost2010Prop32
280
     0
102
RTVSPost2010PropOp32
 70
     1
102
RTVSPost2010Prop33
280
     0
102
RTVSPost2010PropOp33
 70
     1
102
RTVSPost2010Prop34
280
     0
102
RTVSPost2010PropOp34
 70
     1
102
RTVSPost2010Prop35
280
     0
102
RTVSPost2010PropOp35
 70
     1
102
RTVSPost2010Prop36
280
     0
102
RTVSPost2010PropOp36
 70
     1
102
RTVSPost2010Prop37
 90
       50
102
RTVSPost2010PropOp37
 70
     1
102
RTVSPost2010Prop38
140
0.0
102
RTVSPost2010PropOp38
 70
     1
102
RTVSPost2010Prop39
140
1.0
102
RTVSPost2010PropOp39
 70
     1
102
RTVSPost2010Prop40
 90
        0
102
RTVSPost2010PropOp40
 70
     1
102
RTVSPost2010Prop41ColorIndex
 90
       18
102
RTVSPost2010Prop41ColorRGB
 90
        0
102
RTVSPost2010PropOp41
 70
     1
102
RTVSPost2010Prop42
 90
       50
102
RTVSPost2010PropOp42
 70
     1
102
RTVSPost2010Prop43
 90
        3
102
RTVSPost2010PropOp43
 70
     1
102
RTVSPost2010Prop44ColorIndex
 90
        5
102
RTVSPost2010Prop44ColorRGB
 90
      255
102
RTVSPost2010PropOp44
 70
     1
102
RTVSPost2010Prop45
280
     0
102
RTVSPost2010PropOp45
 70
     1
102
RTVSPost2010Prop46
 90
       50
102
RTVSPost2010PropOp46
 70
     1
102
RTVSPost2010Prop47
 90
       50
102
RTVSPost2010PropOp47
 70
     1
102
RTVSPost2010Prop48
 90
       50
102
RTVSPost2010PropOp48
 70
     1
102
RTVSPost2010Prop49
280
     0
102
RTVSPost2010PropOp49
 70
     1
102
RTVSPost2010Prop50
 90
       50
102
RTVSPost2010PropOp50
 70
     1
102
RTVSPost2010Prop51ColorIndex
 90
      256
102
RTVSPost2010Prop51ColorRGB
 90
-16777216
102
RTVSPost2010PropOp51
 70
     0
102
RTVSPost2010Prop52
140
1.0
102
RTVSPost2010PropOp52
 70
     0
102
RTVSPost2010Prop53
 90
        2
102
RTVSPost2010PropOp53
 70
     1
102
RTVSPost2010Prop54
  1
strokes_ogs.tif
102
RTVSPost2010PropOp54
 70
     1
102
RTVSPost2010Prop55
280
     0
102
RTVSPost2010PropOp55
 70
     1
102
RTVSPost2010Prop56
140
1.0
102
RTVSPost2010PropOp56
 70
     1
102
RTVSPost2010Prop57
140
1.0
102
RTVSPost2010PropOp57
 70
     1
  0
XRECORD
  5
158
102
{ACAD_REACTORS
330
157
102
}
330
157
100
AcDbXrecord
280
     1
102
RTVSPost2010Prop28
280
     0
102
RTVSPost2010PropOp28
 70
     1
102
RTVSPost2010Prop29
280
     1
102
RTVSPost2010PropOp29
 70
     1
102
RTVSPost2010Prop30
280
     1
102
RTVSPost2010PropOp30
 70
     1
102
RTVSPost2010Prop31
280
     0
102
RTVSPost2010PropOp31
 70
     1
102
RTVSPost2010Prop32
280
     0
102
RTVSPost2010PropOp32
 70
     1
102
RTVSPost2010Prop33
280
     0
102
RTVSPost2010PropOp33
 70
     1
102
RTVSPost2010Prop34
280
     0
102
RTVSPost2010PropOp34
 70
     1
102
RTVSPost2010Prop35
280
     0
102
RTVSPost2010PropOp35
 70
     1
102
RTVSPost2010Prop36
280
     0
102
RTVSPost2010PropOp36
 70
     1
102
RTVSPost2010Prop37
 90
       50
102
RTVSPost2010PropOp37
 70
     1
102
RTVSPost2010Prop38
140
0.0
102
RTVSPost2010PropOp38
 70
     1
102
RTVSPost2010Prop39
140
1.0
102
RTVSPost2010PropOp39
 70
     1
102
RTVSPost2010Prop40
 90
        0
102
RTVSPost2010PropOp40
 70
     1
102
RTVSPost2010Prop41ColorIndex
 90
       18
102
RTVSPost2010Prop41ColorRGB
 90
        0
102
RTVSPost2010PropOp41
 70
     1
102
RTVSPost2010Prop42
 90
       50
102
RTVSPost2010PropOp42
 70
     1
102
RTVSPost2010Prop43
 90
        3
102
RTVSPost2010PropOp43
 70
     1
102
RTVSPost2010Prop44ColorIndex
 90
        5
102
RTVSPost2010Prop44ColorRGB
 90
      255
102
RTVSPost2010PropOp44
 70
     1
102
RTVSPost2010Prop45
280
     0
102
RTVSPost2010PropOp45
 70
     1
102
RTVSPost2010Prop46
 90
       50
102
RTVSPost2010PropOp46
 70
     1
102
RTVSPost2010Prop47
 90
       50
102
RTVSPost2010PropOp47
 70
     1
102
RTVSPost2010Prop48
 90
       50
102
RTVSPost2010PropOp48
 70
     1
102
RTVSPost2010Prop49
280
     0
102
RTVSPost2010PropOp49
 70
     1
102
RTVSPost2010Prop50
 90
       50
102
RTVSPost2010PropOp50
 70
     1
102
RTVSPost2010Prop51ColorIndex
 90
      256
102
RTVSPost2010Prop51ColorRGB
 90
-16777216
102
RTVSPost2010PropOp51
 70
     0
102
RTVSPost2010Prop52
140
1.0
102
RTVSPost2010PropOp52
 70
     0
102
RTVSPost2010Prop53
 90
        2
102
RTVSPost2010PropOp53
 70
     1
102
RTVSPost2010Prop54
  1
strokes_ogs.tif
102
RTVSPost2010PropOp54
 70
     1
102
RTVSPost2010Prop55
280
     0
102
RTVSPost2010PropOp55
 70
     1
102
RTVSPost2010Prop56
140
1.0
102
RTVSPost2010PropOp56
 70
     1
102
RTVSPost2010Prop57
140
1.0
102
RTVSPost2010PropOp57
 70
     1
  0
XRECORD
  5
14A
102
{ACAD_REACTORS
330
149
102
}
330
149
100
AcDbXrecord
280
     1
102
RTVSPost2010Prop28
280
     0
102
RTVSPost2010PropOp28
 70
     1
102
RTVSPost2010Prop29
280
     1
102
RTVSPost2010PropOp29
 70
     1
102
RTVSPost2010Prop30
280
     1
102
RTVSPost2010PropOp30
 70
     1
102
RTVSPost2010Prop31
280
     0
102
RTVSPost2010PropOp31
 70
     1
102
RTVSPost2010Prop32
280
     0
102
RTVSPost2010PropOp32
 70
     1
102
RTVSPost2010Prop33
280
     0
102
RTVSPost2010PropOp33
 70
     1
102
RTVSPost2010Prop34
280
     0
102
RTVSPost2010PropOp34
 70
     1
102
RTVSPost2010Prop35
280
     0
102
RTVSPost2010PropOp35
 70
     1
102
RTVSPost2010Prop36
280
     0
102
RTVSPost2010PropOp36
 70
     1
102
RTVSPost2010Prop37
 90
       50
102
RTVSPost2010PropOp37
 70
     1
102
RTVSPost2010Prop38
140
0.0
102
RTVSPost2010PropOp38
 70
     1
102
RTVSPost2010Prop39
140
1.0
102
RTVSPost2010PropOp39
 70
     1
102
RTVSPost2010Prop40
 90
        0
102
RTVSPost2010PropOp40
 70
     1
102
RTVSPost2010Prop41ColorIndex
 90
       18
102
RTVSPost2010Prop41ColorRGB
 90
        0
102
RTVSPost2010PropOp41
 70
     1
102
RTVSPost2010Prop42
 90
       50
102
RTVSPost2010PropOp42
 70
     1
102
RTVSPost2010Prop43
 90
        3
102
RTVSPost2010PropOp43
 70
     1
102
RTVSPost2010Prop44ColorIndex
 90
        5
102
RTVSPost2010Prop44ColorRGB
 90
      255
102
RTVSPost2010PropOp44
 70
     1
102
RTVSPost2010Prop45
280
     0
102
RTVSPost2010PropOp45
 70
     1
102
RTVSPost2010Prop46
 90
       50
102
RTVSPost2010PropOp46
 70
     1
102
RTVSPost2010Prop47
 90
       50
102
RTVSPost2010PropOp47
 70
     1
102
RTVSPost2010Prop48
 90
       50
102
RTVSPost2010PropOp48
 70
     1
102
RTVSPost2010Prop49
280
     0
102
RTVSPost2010PropOp49
 70
     1
102
RTVSPost2010Prop50
 90
       50
102
RTVSPost2010PropOp50
 70
     1
102
RTVSPost2010Prop51ColorIndex
 90
      256
102
RTVSPost2010Prop51ColorRGB
 90
-16777216
102
RTVSPost2010PropOp51
 70
     0
102
RTVSPost2010Prop52
140
1.0
102
RTVSPost2010PropOp52
 70
     0
102
RTVSPost2010Prop53
 90
        2
102
RTVSPost2010PropOp53
 70
     1
102
RTVSPost2010Prop54
  1
strokes_ogs.tif
102
RTVSPost2010PropOp54
 70
     1
102
RTVSPost2010Prop55
280
     0
102
RTVSPost2010PropOp55
 70
     1
102
RTVSPost2010Prop56
140
1.0
102
RTVSPost2010PropOp56
 70
     1
102
RTVSPost2010Prop57
140
1.0
102
RTVSPost2010PropOp57
 70
     1
  0
XRECORD
  5
14E
102
{ACAD_REACTORS
330
14D
102
}
330
14D
100
AcDbXrecord
280
     1
102
RTVSPost2010Prop28
280
     0
102
RTVSPost2010PropOp28
 70
     1
102
RTVSPost2010Prop29
280
     1
102
RTVSPost2010PropOp29
 70
     1
102
RTVSPost2010Prop30
280
     1
102
RTVSPost2010PropOp30
 70
     1
102
RTVSPost2010Prop31
280
     0
102
RTVSPost2010PropOp31
 70
     1
102
RTVSPost2010Prop32
280
     0
102
RTVSPost2010PropOp32
 70
     1
102
RTVSPost2010Prop33
280
     0
102
RTVSPost2010PropOp33
 70
     1
102
RTVSPost2010Prop34
280
     0
102
RTVSPost2010PropOp34
 70
     1
102
RTVSPost2010Prop35
280
     0
102
RTVSPost2010PropOp35
 70
     1
102
RTVSPost2010Prop36
280
     0
102
RTVSPost2010PropOp36
 70
     1
102
RTVSPost2010Prop37
 90
       50
102
RTVSPost2010PropOp37
 70
     1
102
RTVSPost2010Prop38
140
0.0
102
RTVSPost2010PropOp38
 70
     1
102
RTVSPost2010Prop39
140
1.0
102
RTVSPost2010PropOp39
 70
     1
102
RTVSPost2010Prop40
 90
        0
102
RTVSPost2010PropOp40
 70
     1
102
RTVSPost2010Prop41ColorIndex
 90
       18
102
RTVSPost2010Prop41ColorRGB
 90
        0
102
RTVSPost2010PropOp41
 70
     1
102
RTVSPost2010Prop42
 90
       50
102
RTVSPost2010PropOp42
 70
     1
102
RTVSPost2010Prop43
 90
        3
102
RTVSPost2010PropOp43
 70
     1
102
RTVSPost2010Prop44ColorIndex
 90
        5
102
RTVSPost2010Prop44ColorRGB
 90
      255
102
RTVSPost2010PropOp44
 70
     1
102
RTVSPost2010Prop45
280
     0
102
RTVSPost2010PropOp45
 70
     1
102
RTVSPost2010Prop46
 90
       50
102
RTVSPost2010PropOp46
 70
     1
102
RTVSPost2010Prop47
 90
       50
102
RTVSPost2010PropOp47
 70
     1
102
RTVSPost2010Prop48
 90
       50
102
RTVSPost2010PropOp48
 70
     1
102
RTVSPost2010Prop49
280
     0
102
RTVSPost2010PropOp49
 70
     1
102
RTVSPost2010Prop50
 90
       50
102
RTVSPost2010PropOp50
 70
     1
102
RTVSPost2010Prop51ColorIndex
 90
      256
102
RTVSPost2010Prop51ColorRGB
 90
-16777216
102
RTVSPost2010PropOp51
 70
     0
102
RTVSPost2010Prop52
140
1.0
102
RTVSPost2010PropOp52
 70
     0
102
RTVSPost2010Prop53
 90
        2
102
RTVSPost2010PropOp53
 70
     1
102
RTVSPost2010Prop54
  1
strokes_ogs.tif
102
RTVSPost2010PropOp54
 70
     1
102
RTVSPost2010Prop55
280
     0
102
RTVSPost2010PropOp55
 70
     1
102
RTVSPost2010Prop56
140
1.0
102
RTVSPost2010PropOp56
 70
     1
102
RTVSPost2010Prop57
140
1.0
102
RTVSPost2010PropOp57
 70
     1
  0
XRECORD
  5
168
102
{ACAD_REACTORS
330
167
102
}
330
167
100
AcDbXrecord
280
     1
102
RTVSPost2010Prop28
280
     0
102
RTVSPost2010PropOp28
 70
     0
102
RTVSPost2010Prop29
280
     1
102
RTVSPost2010PropOp29
 70
     0
102
RTVSPost2010Prop30
280
     1
102
RTVSPost2010PropOp30
 70
     0
102
RTVSPost2010Prop31
280
     0
102
RTVSPost2010PropOp31
 70
     0
102
RTVSPost2010Prop32
280
     0
102
RTVSPost2010PropOp32
 70
     0
102
RTVSPost2010Prop33
280
     0
102
RTVSPost2010PropOp33
 70
     0
102
RTVSPost2010Prop34
280
     0
102
RTVSPost2010PropOp34
 70
     0
102
RTVSPost2010Prop35
280
     0
102
RTVSPost2010PropOp35
 70
     0
102
RTVSPost2010Prop36
280
     0
102
RTVSPost2010PropOp36
 70
     0
102
RTVSPost2010Prop37
 90
       50
102
RTVSPost2010PropOp37
 70
     0
102
RTVSPost2010Prop38
140
0.0
102
RTVSPost2010PropOp38
 70
     0
102
RTVSPost2010Prop39
140
1.0
102
RTVSPost2010PropOp39
 70
     0
102
RTVSPost2010Prop40
 90
        0
102
RTVSPost2010PropOp40
 70
     0
102
RTVSPost2010Prop41ColorIndex
 90
       18
102
RTVSPost2010Prop41ColorRGB
 90
        0
102
RTVSPost2010PropOp41
 70
     0
102
RTVSPost2010Prop42
 90
       50
102
RTVSPost2010PropOp42
 70
     0
102
RTVSPost2010Prop43
 90
        3
102
RTVSPost2010PropOp43
 70
     0
102
RTVSPost2010Prop44ColorIndex
 90
        5
102
RTVSPost2010Prop44ColorRGB
 90
      255
102
RTVSPost2010PropOp44
 70
     0
102
RTVSPost2010Prop45
280
     0
102
RTVSPost2010PropOp45
 70
     0
102
RTVSPost2010Prop46
 90
       50
102
RTVSPost2010PropOp46
 70
     0
102
RTVSPost2010Prop47
 90
       50
102
RTVSPost2010PropOp47
 70
     0
102
RTVSPost2010Prop48
 90
       50
102
RTVSPost2010PropOp48
 70
     0
102
RTVSPost2010Prop49
280
     0
102
RTVSPost2010PropOp49
 70
     0
102
RTVSPost2010Prop50
 90
       50
102
RTVSPost2010PropOp50
 70
     0
102
RTVSPost2010Prop51ColorIndex
 90
      256
102
RTVSPost2010Prop51ColorRGB
 90
-16777216
102
RTVSPost2010PropOp51
 70
     0
102
RTVSPost2010Prop52
140
1.0
102
RTVSPost2010PropOp52
 70
     0
102
RTVSPost2010Prop53
 90
        2
102
RTVSPost2010PropOp53
 70
     0
102
RTVSPost2010Prop54
  1
strokes_ogs.tif
102
RTVSPost2010PropOp54
 70
     0
102
RTVSPost2010Prop55
280
     0
102
RTVSPost2010PropOp55
 70
     0
102
RTVSPost2010Prop56
140
1.0
102
RTVSPost2010PropOp56
 70
     0
102
RTVSPost2010Prop57
140
1.0
102
RTVSPost2010PropOp57
 70
     0
  0
XRECORD
  5
156
102
{ACAD_REACTORS
330
155
102
}
330
155
100
AcDbXrecord
280
     1
102
RTVSPost2010Prop28
280
     0
102
RTVSPost2010PropOp28
 70
     1
102
RTVSPost2010Prop29
280
     1
102
RTVSPost2010PropOp29
 70
     1
102
RTVSPost2010Prop30
280
     1
102
RTVSPost2010PropOp30
 70
     1
102
RTVSPost2010Prop31
280
     0
102
RTVSPost2010PropOp31
 70
     1
102
RTVSPost2010Prop32
280
     0
102
RTVSPost2010PropOp32
 70
     1
102
RTVSPost2010Prop33
280
     0
102
RTVSPost2010PropOp33
 70
     1
102
RTVSPost2010Prop34
280
     0
102
RTVSPost2010PropOp34
 70
     1
102
RTVSPost2010Prop35
280
     0
102
RTVSPost2010PropOp35
 70
     1
102
RTVSPost2010Prop36
280
     0
102
RTVSPost2010PropOp36
 70
     1
102
RTVSPost2010Prop37
 90
       50
102
RTVSPost2010PropOp37
 70
     1
102
RTVSPost2010Prop38
140
0.0
102
RTVSPost2010PropOp38
 70
     1
102
RTVSPost2010Prop39
140
1.0
102
RTVSPost2010PropOp39
 70
     1
102
RTVSPost2010Prop40
 90
        0
102
RTVSPost2010PropOp40
 70
     1
102
RTVSPost2010Prop41ColorIndex
 90
       18
102
RTVSPost2010Prop41ColorRGB
 90
        0
102
RTVSPost2010PropOp41
 70
     1
102
RTVSPost2010Prop42
 90
       50
102
RTVSPost2010PropOp42
 70
     1
102
RTVSPost2010Prop43
 90
        3
102
RTVSPost2010PropOp43
 70
     1
102
RTVSPost2010Prop44ColorIndex
 90
        5
102
RTVSPost2010Prop44ColorRGB
 90
      255
102
RTVSPost2010PropOp44
 70
     1
102
RTVSPost2010Prop45
280
     0
102
RTVSPost2010PropOp45
 70
     1
102
RTVSPost2010Prop46
 90
       50
102
RTVSPost2010PropOp46
 70
     1
102
RTVSPost2010Prop47
 90
       50
102
RTVSPost2010PropOp47
 70
     1
102
RTVSPost2010Prop48
 90
       50
102
RTVSPost2010PropOp48
 70
     1
102
RTVSPost2010Prop49
280
     0
102
RTVSPost2010PropOp49
 70
     1
102
RTVSPost2010Prop50
 90
       50
102
RTVSPost2010PropOp50
 70
     1
102
RTVSPost2010Prop51ColorIndex
 90
      256
102
RTVSPost2010Prop51ColorRGB
 90
-16777216
102
RTVSPost2010PropOp51
 70
     0
102
RTVSPost2010Prop52
140
1.0
102
RTVSPost2010PropOp52
 70
     0
102
RTVSPost2010Prop53
 90
        2
102
RTVSPost2010PropOp53
 70
     1
102
RTVSPost2010Prop54
  1
strokes_ogs.tif
102
RTVSPost2010PropOp54
 70
     1
102
RTVSPost2010Prop55
280
     0
102
RTVSPost2010PropOp55
 70
     1
102
RTVSPost2010Prop56
140
1.0
102
RTVSPost2010PropOp56
 70
     1
102
RTVSPost2010Prop57
140
1.0
102
RTVSPost2010PropOp57
 70
     1
  0
XRECORD
  5
13A
102
{ACAD_REACTORS
330
139
102
}
330
139
100
AcDbXrecord
280
     1
102
RTVSPost2010Prop28
280
     0
102
RTVSPost2010PropOp28
 70
     1
102
RTVSPost2010Prop29
280
     1
102
RTVSPost2010PropOp29
 70
     1
102
RTVSPost2010Prop30
280
     1
102
RTVSPost2010PropOp30
 70
     1
102
RTVSPost2010Prop31
280
     0
102
RTVSPost2010PropOp31
 70
     1
102
RTVSPost2010Prop32
280
     0
102
RTVSPost2010PropOp32
 70
     1
102
RTVSPost2010Prop33
280
     0
102
RTVSPost2010PropOp33
 70
     1
102
RTVSPost2010Prop34
280
     0
102
RTVSPost2010PropOp34
 70
     1
102
RTVSPost2010Prop35
280
     0
102
RTVSPost2010PropOp35
 70
     1
102
RTVSPost2010Prop36
280
     0
102
RTVSPost2010PropOp36
 70
     1
102
RTVSPost2010Prop37
 90
       50
102
RTVSPost2010PropOp37
 70
     1
102
RTVSPost2010Prop38
140
0.0
102
RTVSPost2010PropOp38
 70
     1
102
RTVSPost2010Prop39
140
1.0
102
RTVSPost2010PropOp39
 70
     1
102
RTVSPost2010Prop40
 90
        0
102
RTVSPost2010PropOp40
 70
     1
102
RTVSPost2010Prop41ColorIndex
 90
       18
102
RTVSPost2010Prop41ColorRGB
 90
        0
102
RTVSPost2010PropOp41
 70
     1
102
RTVSPost2010Prop42
 90
       50
102
RTVSPost2010PropOp42
 70
     1
102
RTVSPost2010Prop43
 90
        3
102
RTVSPost2010PropOp43
 70
     1
102
RTVSPost2010Prop44ColorIndex
 90
        5
102
RTVSPost2010Prop44ColorRGB
 90
      255
102
RTVSPost2010PropOp44
 70
     1
102
RTVSPost2010Prop45
280
     0
102
RTVSPost2010PropOp45
 70
     1
102
RTVSPost2010Prop46
 90
       50
102
RTVSPost2010PropOp46
 70
     1
102
RTVSPost2010Prop47
 90
       50
102
RTVSPost2010PropOp47
 70
     1
102
RTVSPost2010Prop48
 90
       50
102
RTVSPost2010PropOp48
 70
     1
102
RTVSPost2010Prop49
280
     0
102
RTVSPost2010PropOp49
 70
     1
102
RTVSPost2010Prop50
 90
       50
102
RTVSPost2010PropOp50
 70
     1
102
RTVSPost2010Prop51ColorIndex
 90
      256
102
RTVSPost2010Prop51ColorRGB
 90
-16777216
102
RTVSPost2010PropOp51
 70
     0
102
RTVSPost2010Prop52
140
1.0
102
RTVSPost2010PropOp52
 70
     0
102
RTVSPost2010Prop53
 90
        2
102
RTVSPost2010PropOp53
 70
     1
102
RTVSPost2010Prop54
  1
strokes_ogs.tif
102
RTVSPost2010PropOp54
 70
     1
102
RTVSPost2010Prop55
280
     0
102
RTVSPost2010PropOp55
 70
     1
102
RTVSPost2010Prop56
140
1.0
102
RTVSPost2010PropOp56
 70
     1
102
RTVSPost2010Prop57
140
1.0
102
RTVSPost2010PropOp57
 70
     1
  0
XRECORD
  5
13C
102
{ACAD_REACTORS
330
13B
102
}
330
13B
100
AcDbXrecord
280
     1
102
RTVSPost2010Prop28
280
     0
102
RTVSPost2010PropOp28
 70
     1
102
RTVSPost2010Prop29
280
     1
102
RTVSPost2010PropOp29
 70
     1
102
RTVSPost2010Prop30
280
     1
102
RTVSPost2010PropOp30
 70
     1
102
RTVSPost2010Prop31
280
     0
102
RTVSPost2010PropOp31
 70
     1
102
RTVSPost2010Prop32
280
     0
102
RTVSPost2010PropOp32
 70
     1
102
RTVSPost2010Prop33
280
     0
102
RTVSPost2010PropOp33
 70
     1
102
RTVSPost2010Prop34
280
     0
102
RTVSPost2010PropOp34
 70
     1
102
RTVSPost2010Prop35
280
     0
102
RTVSPost2010PropOp35
 70
     1
102
RTVSPost2010Prop36
280
     0
102
RTVSPost2010PropOp36
 70
     1
102
RTVSPost2010Prop37
 90
       50
102
RTVSPost2010PropOp37
 70
     1
102
RTVSPost2010Prop38
140
0.0
102
RTVSPost2010PropOp38
 70
     1
102
RTVSPost2010Prop39
140
1.0
102
RTVSPost2010PropOp39
 70
     1
102
RTVSPost2010Prop40
 90
        0
102
RTVSPost2010PropOp40
 70
     1
102
RTVSPost2010Prop41ColorIndex
 90
       18
102
RTVSPost2010Prop41ColorRGB
 90
        0
102
RTVSPost2010PropOp41
 70
     1
102
RTVSPost2010Prop42
 90
       50
102
RTVSPost2010PropOp42
 70
     1
102
RTVSPost2010Prop43
 90
        3
102
RTVSPost2010PropOp43
 70
     1
102
RTVSPost2010Prop44ColorIndex
 90
        5
102
RTVSPost2010Prop44ColorRGB
 90
      255
102
RTVSPost2010PropOp44
 70
     1
102
RTVSPost2010Prop45
280
     0
102
RTVSPost2010PropOp45
 70
     1
102
RTVSPost2010Prop46
 90
       50
102
RTVSPost2010PropOp46
 70
     1
102
RTVSPost2010Prop47
 90
       50
102
RTVSPost2010PropOp47
 70
     1
102
RTVSPost2010Prop48
 90
       50
102
RTVSPost2010PropOp48
 70
     1
102
RTVSPost2010Prop49
280
     0
102
RTVSPost2010PropOp49
 70
     1
102
RTVSPost2010Prop50
 90
       50
102
RTVSPost2010PropOp50
 70
     1
102
RTVSPost2010Prop51ColorIndex
 90
      256
102
RTVSPost2010Prop51ColorRGB
 90
-16777216
102
RTVSPost2010PropOp51
 70
     0
102
RTVSPost2010Prop52
140
1.0
102
RTVSPost2010PropOp52
 70
     0
102
RTVSPost2010Prop53
 90
        2
102
RTVSPost2010PropOp53
 70
     1
102
RTVSPost2010Prop54
  1
strokes_ogs.tif
102
RTVSPost2010PropOp54
 70
     1
102
RTVSPost2010Prop55
280
     0
102
RTVSPost2010PropOp55
 70
     1
102
RTVSPost2010Prop56
140
1.0
102
RTVSPost2010PropOp56
 70
     1
102
RTVSPost2010Prop57
140
1.0
102
RTVSPost2010PropOp57
 70
     1
  0
XRECORD
  5
13E
102
{ACAD_REACTORS
330
13D
102
}
330
13D
100
AcDbXrecord
280
     1
102
RTVSPost2010Prop28
280
     0
102
RTVSPost2010PropOp28
 70
     1
102
RTVSPost2010Prop29
280
     1
102
RTVSPost2010PropOp29
 70
     1
102
RTVSPost2010Prop30
280
     1
102
RTVSPost2010PropOp30
 70
     1
102
RTVSPost2010Prop31
280
     0
102
RTVSPost2010PropOp31
 70
     1
102
RTVSPost2010Prop32
280
     0
102
RTVSPost2010PropOp32
 70
     1
102
RTVSPost2010Prop33
280
     0
102
RTVSPost2010PropOp33
 70
     1
102
RTVSPost2010Prop34
280
     0
102
RTVSPost2010PropOp34
 70
     1
102
RTVSPost2010Prop35
280
     0
102
RTVSPost2010PropOp35
 70
     1
102
RTVSPost2010Prop36
280
     0
102
RTVSPost2010PropOp36
 70
     1
102
RTVSPost2010Prop37
 90
       50
102
RTVSPost2010PropOp37
 70
     1
102
RTVSPost2010Prop38
140
0.0
102
RTVSPost2010PropOp38
 70
     1
102
RTVSPost2010Prop39
140
1.0
102
RTVSPost2010PropOp39
 70
     1
102
RTVSPost2010Prop40
 90
        0
102
RTVSPost2010PropOp40
 70
     1
102
RTVSPost2010Prop41ColorIndex
 90
       18
102
RTVSPost2010Prop41ColorRGB
 90
        0
102
RTVSPost2010PropOp41
 70
     1
102
RTVSPost2010Prop42
 90
       50
102
RTVSPost2010PropOp42
 70
     1
102
RTVSPost2010Prop43
 90
        3
102
RTVSPost2010PropOp43
 70
     1
102
RTVSPost2010Prop44ColorIndex
 90
        5
102
RTVSPost2010Prop44ColorRGB
 90
      255
102
RTVSPost2010PropOp44
 70
     1
102
RTVSPost2010Prop45
280
     0
102
RTVSPost2010PropOp45
 70
     1
102
RTVSPost2010Prop46
 90
       50
102
RTVSPost2010PropOp46
 70
     1
102
RTVSPost2010Prop47
 90
       50
102
RTVSPost2010PropOp47
 70
     1
102
RTVSPost2010Prop48
 90
       50
102
RTVSPost2010PropOp48
 70
     1
102
RTVSPost2010Prop49
280
     0
102
RTVSPost2010PropOp49
 70
     1
102
RTVSPost2010Prop50
 90
       50
102
RTVSPost2010PropOp50
 70
     1
102
RTVSPost2010Prop51ColorIndex
 90
      256
102
RTVSPost2010Prop51ColorRGB
 90
-16777216
102
RTVSPost2010PropOp51
 70
     0
102
RTVSPost2010Prop52
140
1.0
102
RTVSPost2010PropOp52
 70
     0
102
RTVSPost2010Prop53
 90
        2
102
RTVSPost2010PropOp53
 70
     1
102
RTVSPost2010Prop54
  1
strokes_ogs.tif
102
RTVSPost2010PropOp54
 70
     1
102
RTVSPost2010Prop55
280
     0
102
RTVSPost2010PropOp55
 70
     1
102
RTVSPost2010Prop56
140
1.0
102
RTVSPost2010PropOp56
 70
     1
102
RTVSPost2010Prop57
140
1.0
102
RTVSPost2010PropOp57
 70
     1
  0
XRECORD
  5
140
102
{ACAD_REACTORS
330
13F
102
}
330
13F
100
AcDbXrecord
280
     1
102
RTVSPost2010Prop28
280
     0
102
RTVSPost2010PropOp28
 70
     1
102
RTVSPost2010Prop29
280
     1
102
RTVSPost2010PropOp29
 70
     1
102
RTVSPost2010Prop30
280
     1
102
RTVSPost2010PropOp30
 70
     1
102
RTVSPost2010Prop31
280
     0
102
RTVSPost2010PropOp31
 70
     1
102
RTVSPost2010Prop32
280
     0
102
RTVSPost2010PropOp32
 70
     1
102
RTVSPost2010Prop33
280
     0
102
RTVSPost2010PropOp33
 70
     1
102
RTVSPost2010Prop34
280
     0
102
RTVSPost2010PropOp34
 70
     1
102
RTVSPost2010Prop35
280
     0
102
RTVSPost2010PropOp35
 70
     1
102
RTVSPost2010Prop36
280
     0
102
RTVSPost2010PropOp36
 70
     1
102
RTVSPost2010Prop37
 90
       50
102
RTVSPost2010PropOp37
 70
     1
102
RTVSPost2010Prop38
140
0.0
102
RTVSPost2010PropOp38
 70
     1
102
RTVSPost2010Prop39
140
1.0
102
RTVSPost2010PropOp39
 70
     1
102
RTVSPost2010Prop40
 90
        0
102
RTVSPost2010PropOp40
 70
     1
102
RTVSPost2010Prop41ColorIndex
 90
       18
102
RTVSPost2010Prop41ColorRGB
 90
        0
102
RTVSPost2010PropOp41
 70
     1
102
RTVSPost2010Prop42
 90
       50
102
RTVSPost2010PropOp42
 70
     1
102
RTVSPost2010Prop43
 90
        3
102
RTVSPost2010PropOp43
 70
     1
102
RTVSPost2010Prop44ColorIndex
 90
        5
102
RTVSPost2010Prop44ColorRGB
 90
      255
102
RTVSPost2010PropOp44
 70
     1
102
RTVSPost2010Prop45
280
     0
102
RTVSPost2010PropOp45
 70
     1
102
RTVSPost2010Prop46
 90
       50
102
RTVSPost2010PropOp46
 70
     1
102
RTVSPost2010Prop47
 90
       50
102
RTVSPost2010PropOp47
 70
     1
102
RTVSPost2010Prop48
 90
       50
102
RTVSPost2010PropOp48
 70
     1
102
RTVSPost2010Prop49
280
     0
102
RTVSPost2010PropOp49
 70
     1
102
RTVSPost2010Prop50
 90
       50
102
RTVSPost2010PropOp50
 70
     1
102
RTVSPost2010Prop51ColorIndex
 90
      256
102
RTVSPost2010Prop51ColorRGB
 90
-16777216
102
RTVSPost2010PropOp51
 70
     0
102
RTVSPost2010Prop52
140
1.0
102
RTVSPost2010PropOp52
 70
     0
102
RTVSPost2010Prop53
 90
        2
102
RTVSPost2010PropOp53
 70
     1
102
RTVSPost2010Prop54
  1
strokes_ogs.tif
102
RTVSPost2010PropOp54
 70
     1
102
RTVSPost2010Prop55
280
     0
102
RTVSPost2010PropOp55
 70
     1
102
RTVSPost2010Prop56
140
1.0
102
RTVSPost2010PropOp56
 70
     1
102
RTVSPost2010Prop57
140
1.0
102
RTVSPost2010PropOp57
 70
     1
  0
XRECORD
  5
148
102
{ACAD_REACTORS
330
147
102
}
330
147
100
AcDbXrecord
280
     1
102
RTVSPost2010Prop28
280
     0
102
RTVSPost2010PropOp28
 70
     1
102
RTVSPost2010Prop29
280
     1
102
RTVSPost2010PropOp29
 70
     1
102
RTVSPost2010Prop30
280
     1
102
RTVSPost2010PropOp30
 70
     1
102
RTVSPost2010Prop31
280
     0
102
RTVSPost2010PropOp31
 70
     1
102
RTVSPost2010Prop32
280
     0
102
RTVSPost2010PropOp32
 70
     1
102
RTVSPost2010Prop33
280
     0
102
RTVSPost2010PropOp33
 70
     1
102
RTVSPost2010Prop34
280
     0
102
RTVSPost2010PropOp34
 70
     1
102
RTVSPost2010Prop35
280
     0
102
RTVSPost2010PropOp35
 70
     1
102
RTVSPost2010Prop36
280
     0
102
RTVSPost2010PropOp36
 70
     1
102
RTVSPost2010Prop37
 90
       50
102
RTVSPost2010PropOp37
 70
     1
102
RTVSPost2010Prop38
140
0.0
102
RTVSPost2010PropOp38
 70
     1
102
RTVSPost2010Prop39
140
1.0
102
RTVSPost2010PropOp39
 70
     1
102
RTVSPost2010Prop40
 90
        0
102
RTVSPost2010PropOp40
 70
     1
102
RTVSPost2010Prop41ColorIndex
 90
       18
102
RTVSPost2010Prop41ColorRGB
 90
        0
102
RTVSPost2010PropOp41
 70
     1
102
RTVSPost2010Prop42
 90
       50
102
RTVSPost2010PropOp42
 70
     1
102
RTVSPost2010Prop43
 90
        3
102
RTVSPost2010PropOp43
 70
     1
102
RTVSPost2010Prop44ColorIndex
 90
        5
102
RTVSPost2010Prop44ColorRGB
 90
      255
102
RTVSPost2010PropOp44
 70
     1
102
RTVSPost2010Prop45
280
     0
102
RTVSPost2010PropOp45
 70
     1
102
RTVSPost2010Prop46
 90
       50
102
RTVSPost2010PropOp46
 70
     1
102
RTVSPost2010Prop47
 90
       50
102
RTVSPost2010PropOp47
 70
     1
102
RTVSPost2010Prop48
 90
       50
102
RTVSPost2010PropOp48
 70
     1
102
RTVSPost2010Prop49
280
     0
102
RTVSPost2010PropOp49
 70
     1
102
RTVSPost2010Prop50
 90
       50
102
RTVSPost2010PropOp50
 70
     1
102
RTVSPost2010Prop51ColorIndex
 90
      256
102
RTVSPost2010Prop51ColorRGB
 90
-16777216
102
RTVSPost2010PropOp51
 70
     0
102
RTVSPost2010Prop52
140
1.0
102
RTVSPost2010PropOp52
 70
     0
102
RTVSPost2010Prop53
 90
        2
102
RTVSPost2010PropOp53
 70
     1
102
RTVSPost2010Prop54
  1
strokes_ogs.tif
102
RTVSPost2010PropOp54
 70
     1
102
RTVSPost2010Prop55
280
     0
102
RTVSPost2010PropOp55
 70
     1
102
RTVSPost2010Prop56
140
1.0
102
RTVSPost2010PropOp56
 70
     1
102
RTVSPost2010Prop57
140
1.0
102
RTVSPost2010PropOp57
 70
     1
  0
XRECORD
  5
164
102
{ACAD_REACTORS
330
163
102
}
330
163
100
AcDbXrecord
280
     1
102
RTVSPost2010Prop28
280
     0
102
RTVSPost2010PropOp28
 70
     0
102
RTVSPost2010Prop29
280
     1
102
RTVSPost2010PropOp29
 70
     0
102
RTVSPost2010Prop30
280
     1
102
RTVSPost2010PropOp30
 70
     0
102
RTVSPost2010Prop31
280
     0
102
RTVSPost2010PropOp31
 70
     0
102
RTVSPost2010Prop32
280
     0
102
RTVSPost2010PropOp32
 70
     0
102
RTVSPost2010Prop33
280
     0
102
RTVSPost2010PropOp33
 70
     0
102
RTVSPost2010Prop34
280
     0
102
RTVSPost2010PropOp34
 70
     0
102
RTVSPost2010Prop35
280
     0
102
RTVSPost2010PropOp35
 70
     0
102
RTVSPost2010Prop36
280
     0
102
RTVSPost2010PropOp36
 70
     0
102
RTVSPost2010Prop37
 90
       50
102
RTVSPost2010PropOp37
 70
     0
102
RTVSPost2010Prop38
140
0.0
102
RTVSPost2010PropOp38
 70
     0
102
RTVSPost2010Prop39
140
1.0
102
RTVSPost2010PropOp39
 70
     0
102
RTVSPost2010Prop40
 90
        0
102
RTVSPost2010PropOp40
 70
     0
102
RTVSPost2010Prop41ColorIndex
 90
       18
102
RTVSPost2010Prop41ColorRGB
 90
        0
102
RTVSPost2010PropOp41
 70
     0
102
RTVSPost2010Prop42
 90
       50
102
RTVSPost2010PropOp42
 70
     0
102
RTVSPost2010Prop43
 90
        3
102
RTVSPost2010PropOp43
 70
     0
102
RTVSPost2010Prop44ColorIndex
 90
        5
102
RTVSPost2010Prop44ColorRGB
 90
      255
102
RTVSPost2010PropOp44
 70
     0
102
RTVSPost2010Prop45
280
     0
102
RTVSPost2010PropOp45
 70
     0
102
RTVSPost2010Prop46
 90
       50
102
RTVSPost2010PropOp46
 70
     0
102
RTVSPost2010Prop47
 90
       50
102
RTVSPost2010PropOp47
 70
     0
102
RTVSPost2010Prop48
 90
       50
102
RTVSPost2010PropOp48
 70
     0
102
RTVSPost2010Prop49
280
     0
102
RTVSPost2010PropOp49
 70
     0
102
RTVSPost2010Prop50
 90
       50
102
RTVSPost2010PropOp50
 70
     0
102
RTVSPost2010Prop51ColorIndex
 90
      256
102
RTVSPost2010Prop51ColorRGB
 90
-16777216
102
RTVSPost2010PropOp51
 70
     0
102
RTVSPost2010Prop52
140
1.0
102
RTVSPost2010PropOp52
 70
     0
102
RTVSPost2010Prop53
 90
        2
102
RTVSPost2010PropOp53
 70
     0
102
RTVSPost2010Prop54
  1
strokes_ogs.tif
102
RTVSPost2010PropOp54
 70
     0
102
RTVSPost2010Prop55
280
     0
102
RTVSPost2010PropOp55
 70
     0
102
RTVSPost2010Prop56
140
1.0
102
RTVSPost2010PropOp56
 70
     0
102
RTVSPost2010Prop57
140
1.0
102
RTVSPost2010PropOp57
 70
     0
  0
XRECORD
  5
154
102
{ACAD_REACTORS
330
153
102
}
330
153
100
AcDbXrecord
280
     1
102
RTVSPost2010Prop28
280
     0
102
RTVSPost2010PropOp28
 70
     1
102
RTVSPost2010Prop29
280
     1
102
RTVSPost2010PropOp29
 70
     1
102
RTVSPost2010Prop30
280
     1
102
RTVSPost2010PropOp30
 70
     1
102
RTVSPost2010Prop31
280
     0
102
RTVSPost2010PropOp31
 70
     1
102
RTVSPost2010Prop32
280
     0
102
RTVSPost2010PropOp32
 70
     1
102
RTVSPost2010Prop33
280
     0
102
RTVSPost2010PropOp33
 70
     1
102
RTVSPost2010Prop34
280
     0
102
RTVSPost2010PropOp34
 70
     1
102
RTVSPost2010Prop35
280
     0
102
RTVSPost2010PropOp35
 70
     1
102
RTVSPost2010Prop36
280
     0
102
RTVSPost2010PropOp36
 70
     1
102
RTVSPost2010Prop37
 90
       50
102
RTVSPost2010PropOp37
 70
     1
102
RTVSPost2010Prop38
140
0.0
102
RTVSPost2010PropOp38
 70
     1
102
RTVSPost2010Prop39
140
1.0
102
RTVSPost2010PropOp39
 70
     1
102
RTVSPost2010Prop40
 90
        0
102
RTVSPost2010PropOp40
 70
     1
102
RTVSPost2010Prop41ColorIndex
 90
       18
102
RTVSPost2010Prop41ColorRGB
 90
        0
102
RTVSPost2010PropOp41
 70
     1
102
RTVSPost2010Prop42
 90
       50
102
RTVSPost2010PropOp42
 70
     1
102
RTVSPost2010Prop43
 90
        3
102
RTVSPost2010PropOp43
 70
     1
102
RTVSPost2010Prop44ColorIndex
 90
        5
102
RTVSPost2010Prop44ColorRGB
 90
      255
102
RTVSPost2010PropOp44
 70
     1
102
RTVSPost2010Prop45
280
     0
102
RTVSPost2010PropOp45
 70
     1
102
RTVSPost2010Prop46
 90
       50
102
RTVSPost2010PropOp46
 70
     1
102
RTVSPost2010Prop47
 90
       50
102
RTVSPost2010PropOp47
 70
     1
102
RTVSPost2010Prop48
 90
       50
102
RTVSPost2010PropOp48
 70
     1
102
RTVSPost2010Prop49
280
     0
102
RTVSPost2010PropOp49
 70
     1
102
RTVSPost2010Prop50
 90
       50
102
RTVSPost2010PropOp50
 70
     1
102
RTVSPost2010Prop51ColorIndex
 90
      256
102
RTVSPost2010Prop51ColorRGB
 90
-16777216
102
RTVSPost2010PropOp51
 70
     0
102
RTVSPost2010Prop52
140
1.0
102
RTVSPost2010PropOp52
 70
     0
102
RTVSPost2010Prop53
 90
        2
102
RTVSPost2010PropOp53
 70
     1
102
RTVSPost2010Prop54
  1
strokes_ogs.tif
102
RTVSPost2010PropOp54
 70
     1
102
RTVSPost2010Prop55
280
     0
102
RTVSPost2010PropOp55
 70
     1
102
RTVSPost2010Prop56
140
1.0
102
RTVSPost2010PropOp56
 70
     1
102
RTVSPost2010Prop57
140
1.0
102
RTVSPost2010PropOp57
 70
     1
  0
XRECORD
  5
166
102
{ACAD_REACTORS
330
165
102
}
330
165
100
AcDbXrecord
280
     1
102
RTVSPost2010Prop28
280
     0
102
RTVSPost2010PropOp28
 70
     0
102
RTVSPost2010Prop29
280
     1
102
RTVSPost2010PropOp29
 70
     0
102
RTVSPost2010Prop30
280
     1
102
RTVSPost2010PropOp30
 70
     0
102
RTVSPost2010Prop31
280
     0
102
RTVSPost2010PropOp31
 70
     0
102
RTVSPost2010Prop32
280
     0
102
RTVSPost2010PropOp32
 70
     0
102
RTVSPost2010Prop33
280
     0
102
RTVSPost2010PropOp33
 70
     0
102
RTVSPost2010Prop34
280
     0
102
RTVSPost2010PropOp34
 70
     0
102
RTVSPost2010Prop35
280
     0
102
RTVSPost2010PropOp35
 70
     0
102
RTVSPost2010Prop36
280
     0
102
RTVSPost2010PropOp36
 70
     0
102
RTVSPost2010Prop37
 90
       50
102
RTVSPost2010PropOp37
 70
     0
102
RTVSPost2010Prop38
140
0.0
102
RTVSPost2010PropOp38
 70
     0
102
RTVSPost2010Prop39
140
1.0
102
RTVSPost2010PropOp39
 70
     0
102
RTVSPost2010Prop40
 90
        0
102
RTVSPost2010PropOp40
 70
     0
102
RTVSPost2010Prop41ColorIndex
 90
       18
102
RTVSPost2010Prop41ColorRGB
 90
        0
102
RTVSPost2010PropOp41
 70
     0
102
RTVSPost2010Prop42
 90
       50
102
RTVSPost2010PropOp42
 70
     0
102
RTVSPost2010Prop43
 90
        3
102
RTVSPost2010PropOp43
 70
     0
102
RTVSPost2010Prop44ColorIndex
 90
        5
102
RTVSPost2010Prop44ColorRGB
 90
      255
102
RTVSPost2010PropOp44
 70
     0
102
RTVSPost2010Prop45
280
     0
102
RTVSPost2010PropOp45
 70
     0
102
RTVSPost2010Prop46
 90
       50
102
RTVSPost2010PropOp46
 70
     0
102
RTVSPost2010Prop47
 90
       50
102
RTVSPost2010PropOp47
 70
     0
102
RTVSPost2010Prop48
 90
       50
102
RTVSPost2010PropOp48
 70
     0
102
RTVSPost2010Prop49
280
     0
102
RTVSPost2010PropOp49
 70
     0
102
RTVSPost2010Prop50
 90
       50
102
RTVSPost2010PropOp50
 70
     0
102
RTVSPost2010Prop51ColorIndex
 90
      256
102
RTVSPost2010Prop51ColorRGB
 90
-16777216
102
RTVSPost2010PropOp51
 70
     0
102
RTVSPost2010Prop52
140
1.0
102
RTVSPost2010PropOp52
 70
     0
102
RTVSPost2010Prop53
 90
        2
102
RTVSPost2010PropOp53
 70
     0
102
RTVSPost2010Prop54
  1
strokes_ogs.tif
102
RTVSPost2010PropOp54
 70
     0
102
RTVSPost2010Prop55
280
     0
102
RTVSPost2010PropOp55
 70
     0
102
RTVSPost2010Prop56
140
1.0
102
RTVSPost2010PropOp56
 70
     0
102
RTVSPost2010Prop57
140
1.0
102
RTVSPost2010PropOp57
 70
     0
  0
XRECORD
  5
14C
102
{ACAD_REACTORS
330
14B
102
}
330
14B
100
AcDbXrecord
280
     1
102
RTVSPost2010Prop28
280
     0
102
RTVSPost2010PropOp28
 70
     1
102
RTVSPost2010Prop29
280
     1
102
RTVSPost2010PropOp29
 70
     1
102
RTVSPost2010Prop30
280
     1
102
RTVSPost2010PropOp30
 70
     1
102
RTVSPost2010Prop31
280
     0
102
RTVSPost2010PropOp31
 70
     1
102
RTVSPost2010Prop32
280
     0
102
RTVSPost2010PropOp32
 70
     1
102
RTVSPost2010Prop33
280
     0
102
RTVSPost2010PropOp33
 70
     1
102
RTVSPost2010Prop34
280
     0
102
RTVSPost2010PropOp34
 70
     1
102
RTVSPost2010Prop35
280
     0
102
RTVSPost2010PropOp35
 70
     1
102
RTVSPost2010Prop36
280
     0
102
RTVSPost2010PropOp36
 70
     1
102
RTVSPost2010Prop37
 90
       50
102
RTVSPost2010PropOp37
 70
     1
102
RTVSPost2010Prop38
140
0.0
102
RTVSPost2010PropOp38
 70
     1
102
RTVSPost2010Prop39
140
1.0
102
RTVSPost2010PropOp39
 70
     1
102
RTVSPost2010Prop40
 90
        0
102
RTVSPost2010PropOp40
 70
     1
102
RTVSPost2010Prop41ColorIndex
 90
       18
102
RTVSPost2010Prop41ColorRGB
 90
        0
102
RTVSPost2010PropOp41
 70
     1
102
RTVSPost2010Prop42
 90
       50
102
RTVSPost2010PropOp42
 70
     1
102
RTVSPost2010Prop43
 90
        3
102
RTVSPost2010PropOp43
 70
     1
102
RTVSPost2010Prop44ColorIndex
 90
        5
102
RTVSPost2010Prop44ColorRGB
 90
      255
102
RTVSPost2010PropOp44
 70
     1
102
RTVSPost2010Prop45
280
     0
102
RTVSPost2010PropOp45
 70
     1
102
RTVSPost2010Prop46
 90
       50
102
RTVSPost2010PropOp46
 70
     1
102
RTVSPost2010Prop47
 90
       50
102
RTVSPost2010PropOp47
 70
     1
102
RTVSPost2010Prop48
 90
       50
102
RTVSPost2010PropOp48
 70
     1
102
RTVSPost2010Prop49
280
     0
102
RTVSPost2010PropOp49
 70
     1
102
RTVSPost2010Prop50
 90
       50
102
RTVSPost2010PropOp50
 70
     1
102
RTVSPost2010Prop51ColorIndex
 90
      256
102
RTVSPost2010Prop51ColorRGB
 90
-16777216
102
RTVSPost2010PropOp51
 70
     0
102
RTVSPost2010Prop52
140
1.0
102
RTVSPost2010PropOp52
 70
     0
102
RTVSPost2010Prop53
 90
        2
102
RTVSPost2010PropOp53
 70
     1
102
RTVSPost2010Prop54
  1
strokes_ogs.tif
102
RTVSPost2010PropOp54
 70
     1
102
RTVSPost2010Prop55
280
     0
102
RTVSPost2010PropOp55
 70
     1
102
RTVSPost2010Prop56
140
1.0
102
RTVSPost2010PropOp56
 70
     1
102
RTVSPost2010Prop57
140
1.0
102
RTVSPost2010PropOp57
 70
     1
  0
XRECORD
  5
162
102
{ACAD_REACTORS
330
161
102
}
330
161
100
AcDbXrecord
280
     1
102
RTVSPost2010Prop28
280
     0
102
RTVSPost2010PropOp28
 70
     1
102
RTVSPost2010Prop29
280
     1
102
RTVSPost2010PropOp29
 70
     1
102
RTVSPost2010Prop30
280
     1
102
RTVSPost2010PropOp30
 70
     1
102
RTVSPost2010Prop31
280
     0
102
RTVSPost2010PropOp31
 70
     1
102
RTVSPost2010Prop32
280
     0
102
RTVSPost2010PropOp32
 70
     1
102
RTVSPost2010Prop33
280
     0
102
RTVSPost2010PropOp33
 70
     1
102
RTVSPost2010Prop34
280
     0
102
RTVSPost2010PropOp34
 70
     1
102
RTVSPost2010Prop35
280
     0
102
RTVSPost2010PropOp35
 70
     1
102
RTVSPost2010Prop36
280
     0
102
RTVSPost2010PropOp36
 70
     1
102
RTVSPost2010Prop37
 90
       50
102
RTVSPost2010PropOp37
 70
     1
102
RTVSPost2010Prop38
140
0.0
102
RTVSPost2010PropOp38
 70
     1
102
RTVSPost2010Prop39
140
1.0
102
RTVSPost2010PropOp39
 70
     1
102
RTVSPost2010Prop40
 90
        0
102
RTVSPost2010PropOp40
 70
     1
102
RTVSPost2010Prop41ColorIndex
 90
       18
102
RTVSPost2010Prop41ColorRGB
 90
        0
102
RTVSPost2010PropOp41
 70
     1
102
RTVSPost2010Prop42
 90
       50
102
RTVSPost2010PropOp42
 70
     1
102
RTVSPost2010Prop43
 90
        3
102
RTVSPost2010PropOp43
 70
     1
102
RTVSPost2010Prop44ColorIndex
 90
        5
102
RTVSPost2010Prop44ColorRGB
 90
      255
102
RTVSPost2010PropOp44
 70
     1
102
RTVSPost2010Prop45
280
     0
102
RTVSPost2010PropOp45
 70
     1
102
RTVSPost2010Prop46
 90
       50
102
RTVSPost2010PropOp46
 70
     1
102
RTVSPost2010Prop47
 90
       50
102
RTVSPost2010PropOp47
 70
     1
102
RTVSPost2010Prop48
 90
       50
102
RTVSPost2010PropOp48
 70
     1
102
RTVSPost2010Prop49
280
     0
102
RTVSPost2010PropOp49
 70
     1
102
RTVSPost2010Prop50
 90
       50
102
RTVSPost2010PropOp50
 70
     1
102
RTVSPost2010Prop51ColorIndex
 90
      256
102
RTVSPost2010Prop51ColorRGB
 90
-16777216
102
RTVSPost2010PropOp51
 70
     0
102
RTVSPost2010Prop52
140
1.0
102
RTVSPost2010PropOp52
 70
     0
102
RTVSPost2010Prop53
 90
        2
102
RTVSPost2010PropOp53
 70
     1
102
RTVSPost2010Prop54
  1
strokes_ogs.tif
102
RTVSPost2010PropOp54
 70
     1
102
RTVSPost2010Prop55
280
     0
102
RTVSPost2010PropOp55
 70
     1
102
RTVSPost2010Prop56
140
1.0
102
RTVSPost2010PropOp56
 70
     1
102
RTVSPost2010Prop57
140
1.0
102
RTVSPost2010PropOp57
 70
     1
  0
XRECORD
  5
160
102
{ACAD_REACTORS
330
15F
102
}
330
15F
100
AcDbXrecord
280
     1
102
RTVSPost2010Prop28
280
     0
102
RTVSPost2010PropOp28
 70
     1
102
RTVSPost2010Prop29
280
     1
102
RTVSPost2010PropOp29
 70
     1
102
RTVSPost2010Prop30
280
     1
102
RTVSPost2010PropOp30
 70
     1
102
RTVSPost2010Prop31
280
     0
102
RTVSPost2010PropOp31
 70
     1
102
RTVSPost2010Prop32
280
     0
102
RTVSPost2010PropOp32
 70
     1
102
RTVSPost2010Prop33
280
     0
102
RTVSPost2010PropOp33
 70
     1
102
RTVSPost2010Prop34
280
     0
102
RTVSPost2010PropOp34
 70
     1
102
RTVSPost2010Prop35
280
     0
102
RTVSPost2010PropOp35
 70
     1
102
RTVSPost2010Prop36
280
     0
102
RTVSPost2010PropOp36
 70
     1
102
RTVSPost2010Prop37
 90
       50
102
RTVSPost2010PropOp37
 70
     1
102
RTVSPost2010Prop38
140
0.0
102
RTVSPost2010PropOp38
 70
     1
102
RTVSPost2010Prop39
140
1.0
102
RTVSPost2010PropOp39
 70
     1
102
RTVSPost2010Prop40
 90
        0
102
RTVSPost2010PropOp40
 70
     1
102
RTVSPost2010Prop41ColorIndex
 90
       18
102
RTVSPost2010Prop41ColorRGB
 90
        0
102
RTVSPost2010PropOp41
 70
     1
102
RTVSPost2010Prop42
 90
       50
102
RTVSPost2010PropOp42
 70
     1
102
RTVSPost2010Prop43
 90
        3
102
RTVSPost2010PropOp43
 70
     1
102
RTVSPost2010Prop44ColorIndex
 90
        5
102
RTVSPost2010Prop44ColorRGB
 90
      255
102
RTVSPost2010PropOp44
 70
     1
102
RTVSPost2010Prop45
280
     0
102
RTVSPost2010PropOp45
 70
     1
102
RTVSPost2010Prop46
 90
       50
102
RTVSPost2010PropOp46
 70
     1
102
RTVSPost2010Prop47
 90
       50
102
RTVSPost2010PropOp47
 70
     1
102
RTVSPost2010Prop48
 90
       50
102
RTVSPost2010PropOp48
 70
     1
102
RTVSPost2010Prop49
280
     0
102
RTVSPost2010PropOp49
 70
     1
102
RTVSPost2010Prop50
 90
       50
102
RTVSPost2010PropOp50
 70
     1
102
RTVSPost2010Prop51ColorIndex
 90
      256
102
RTVSPost2010Prop51ColorRGB
 90
-16777216
102
RTVSPost2010PropOp51
 70
     0
102
RTVSPost2010Prop52
140
1.0
102
RTVSPost2010PropOp52
 70
     0
102
RTVSPost2010Prop53
 90
        2
102
RTVSPost2010PropOp53
 70
     1
102
RTVSPost2010Prop54
  1
strokes_ogs.tif
102
RTVSPost2010PropOp54
 70
     1
102
RTVSPost2010Prop55
280
     0
102
RTVSPost2010PropOp55
 70
     1
102
RTVSPost2010Prop56
140
1.0
102
RTVSPost2010PropOp56
 70
     1
102
RTVSPost2010Prop57
140
1.0
102
RTVSPost2010PropOp57
 70
     1
  0
XRECORD
  5
15A
102
{ACAD_REACTORS
330
159
102
}
330
159
100
AcDbXrecord
280
     1
102
RTVSPost2010Prop28
280
     0
102
RTVSPost2010PropOp28
 70
     1
102
RTVSPost2010Prop29
280
     1
102
RTVSPost2010PropOp29
 70
     1
102
RTVSPost2010Prop30
280
     1
102
RTVSPost2010PropOp30
 70
     1
102
RTVSPost2010Prop31
280
     0
102
RTVSPost2010PropOp31
 70
     1
102
RTVSPost2010Prop32
280
     0
102
RTVSPost2010PropOp32
 70
     1
102
RTVSPost2010Prop33
280
     0
102
RTVSPost2010PropOp33
 70
     1
102
RTVSPost2010Prop34
280
     0
102
RTVSPost2010PropOp34
 70
     1
102
RTVSPost2010Prop35
280
     0
102
RTVSPost2010PropOp35
 70
     1
102
RTVSPost2010Prop36
280
     0
102
RTVSPost2010PropOp36
 70
     1
102
RTVSPost2010Prop37
 90
       50
102
RTVSPost2010PropOp37
 70
     1
102
RTVSPost2010Prop38
140
0.0
102
RTVSPost2010PropOp38
 70
     1
102
RTVSPost2010Prop39
140
1.0
102
RTVSPost2010PropOp39
 70
     1
102
RTVSPost2010Prop40
 90
        0
102
RTVSPost2010PropOp40
 70
     1
102
RTVSPost2010Prop41ColorIndex
 90
       18
102
RTVSPost2010Prop41ColorRGB
 90
        0
102
RTVSPost2010PropOp41
 70
     1
102
RTVSPost2010Prop42
 90
       50
102
RTVSPost2010PropOp42
 70
     1
102
RTVSPost2010Prop43
 90
        3
102
RTVSPost2010PropOp43
 70
     1
102
RTVSPost2010Prop44ColorIndex
 90
        5
102
RTVSPost2010Prop44ColorRGB
 90
      255
102
RTVSPost2010PropOp44
 70
     1
102
RTVSPost2010Prop45
280
     0
102
RTVSPost2010PropOp45
 70
     1
102
RTVSPost2010Prop46
 90
       50
102
RTVSPost2010PropOp46
 70
     1
102
RTVSPost2010Prop47
 90
       50
102
RTVSPost2010PropOp47
 70
     1
102
RTVSPost2010Prop48
 90
       50
102
RTVSPost2010PropOp48
 70
     1
102
RTVSPost2010Prop49
280
     0
102
RTVSPost2010PropOp49
 70
     1
102
RTVSPost2010Prop50
 90
       50
102
RTVSPost2010PropOp50
 70
     1
102
RTVSPost2010Prop51ColorIndex
 90
      256
102
RTVSPost2010Prop51ColorRGB
 90
-16777216
102
RTVSPost2010PropOp51
 70
     0
102
RTVSPost2010Prop52
140
1.0
102
RTVSPost2010PropOp52
 70
     0
102
RTVSPost2010Prop53
 90
        2
102
RTVSPost2010PropOp53
 70
     1
102
RTVSPost2010Prop54
  1
strokes_ogs.tif
102
RTVSPost2010PropOp54
 70
     1
102
RTVSPost2010Prop55
280
     0
102
RTVSPost2010PropOp55
 70
     1
102
RTVSPost2010Prop56
140
1.0
102
RTVSPost2010PropOp56
 70
     1
102
RTVSPost2010Prop57
140
1.0
102
RTVSPost2010PropOp57
 70
     1
  0
XRECORD
  5
15C
102
{ACAD_REACTORS
330
15B
102
}
330
15B
100
AcDbXrecord
280
     1
102
RTVSPost2010Prop28
280
     0
102
RTVSPost2010PropOp28
 70
     1
102
RTVSPost2010Prop29
280
     1
102
RTVSPost2010PropOp29
 70
     1
102
RTVSPost2010Prop30
280
     1
102
RTVSPost2010PropOp30
 70
     1
102
RTVSPost2010Prop31
280
     0
102
RTVSPost2010PropOp31
 70
     1
102
RTVSPost2010Prop32
280
     0
102
RTVSPost2010PropOp32
 70
     1
102
RTVSPost2010Prop33
280
     0
102
RTVSPost2010PropOp33
 70
     1
102
RTVSPost2010Prop34
280
     0
102
RTVSPost2010PropOp34
 70
     1
102
RTVSPost2010Prop35
280
     0
102
RTVSPost2010PropOp35
 70
     1
102
RTVSPost2010Prop36
280
     0
102
RTVSPost2010PropOp36
 70
     1
102
RTVSPost2010Prop37
 90
       50
102
RTVSPost2010PropOp37
 70
     1
102
RTVSPost2010Prop38
140
0.0
102
RTVSPost2010PropOp38
 70
     1
102
RTVSPost2010Prop39
140
1.0
102
RTVSPost2010PropOp39
 70
     1
102
RTVSPost2010Prop40
 90
        0
102
RTVSPost2010PropOp40
 70
     1
102
RTVSPost2010Prop41ColorIndex
 90
       18
102
RTVSPost2010Prop41ColorRGB
 90
        0
102
RTVSPost2010PropOp41
 70
     1
102
RTVSPost2010Prop42
 90
       50
102
RTVSPost2010PropOp42
 70
     1
102
RTVSPost2010Prop43
 90
        3
102
RTVSPost2010PropOp43
 70
     1
102
RTVSPost2010Prop44ColorIndex
 90
        5
102
RTVSPost2010Prop44ColorRGB
 90
      255
102
RTVSPost2010PropOp44
 70
     1
102
RTVSPost2010Prop45
280
     0
102
RTVSPost2010PropOp45
 70
     1
102
RTVSPost2010Prop46
 90
       50
102
RTVSPost2010PropOp46
 70
     1
102
RTVSPost2010Prop47
 90
       50
102
RTVSPost2010PropOp47
 70
     1
102
RTVSPost2010Prop48
 90
       50
102
RTVSPost2010PropOp48
 70
     1
102
RTVSPost2010Prop49
280
     0
102
RTVSPost2010PropOp49
 70
     1
102
RTVSPost2010Prop50
 90
       50
102
RTVSPost2010PropOp50
 70
     1
102
RTVSPost2010Prop51ColorIndex
 90
      256
102
RTVSPost2010Prop51ColorRGB
 90
-16777216
102
RTVSPost2010PropOp51
 70
     0
102
RTVSPost2010Prop52
140
1.0
102
RTVSPost2010PropOp52
 70
     0
102
RTVSPost2010Prop53
 90
        2
102
RTVSPost2010PropOp53
 70
     1
102
RTVSPost2010Prop54
  1
strokes_ogs.tif
102
RTVSPost2010PropOp54
 70
     1
102
RTVSPost2010Prop55
280
     0
102
RTVSPost2010PropOp55
 70
     1
102
RTVSPost2010Prop56
140
1.0
102
RTVSPost2010PropOp56
 70
     1
102
RTVSPost2010Prop57
140
1.0
102
RTVSPost2010PropOp57
 70
     1
  0
XRECORD
  5
152
102
{ACAD_REACTORS
330
151
102
}
330
151
100
AcDbXrecord
280
     1
102
RTVSPost2010Prop28
280
     0
102
RTVSPost2010PropOp28
 70
     1
102
RTVSPost2010Prop29
280
     1
102
RTVSPost2010PropOp29
 70
     1
102
RTVSPost2010Prop30
280
     1
102
RTVSPost2010PropOp30
 70
     1
102
RTVSPost2010Prop31
280
     0
102
RTVSPost2010PropOp31
 70
     1
102
RTVSPost2010Prop32
280
     0
102
RTVSPost2010PropOp32
 70
     1
102
RTVSPost2010Prop33
280
     0
102
RTVSPost2010PropOp33
 70
     1
102
RTVSPost2010Prop34
280
     0
102
RTVSPost2010PropOp34
 70
     1
102
RTVSPost2010Prop35
280
     0
102
RTVSPost2010PropOp35
 70
     1
102
RTVSPost2010Prop36
280
     0
102
RTVSPost2010PropOp36
 70
     1
102
RTVSPost2010Prop37
 90
       50
102
RTVSPost2010PropOp37
 70
     1
102
RTVSPost2010Prop38
140
0.0
102
RTVSPost2010PropOp38
 70
     1
102
RTVSPost2010Prop39
140
1.0
102
RTVSPost2010PropOp39
 70
     1
102
RTVSPost2010Prop40
 90
        0
102
RTVSPost2010PropOp40
 70
     1
102
RTVSPost2010Prop41ColorIndex
 90
       18
102
RTVSPost2010Prop41ColorRGB
 90
        0
102
RTVSPost2010PropOp41
 70
     1
102
RTVSPost2010Prop42
 90
       50
102
RTVSPost2010PropOp42
 70
     1
102
RTVSPost2010Prop43
 90
        3
102
RTVSPost2010PropOp43
 70
     1
102
RTVSPost2010Prop44ColorIndex
 90
        5
102
RTVSPost2010Prop44ColorRGB
 90
      255
102
RTVSPost2010PropOp44
 70
     1
102
RTVSPost2010Prop45
280
     0
102
RTVSPost2010PropOp45
 70
     1
102
RTVSPost2010Prop46
 90
       50
102
RTVSPost2010PropOp46
 70
     1
102
RTVSPost2010Prop47
 90
       50
102
RTVSPost2010PropOp47
 70
     1
102
RTVSPost2010Prop48
 90
       50
102
RTVSPost2010PropOp48
 70
     1
102
RTVSPost2010Prop49
280
     0
102
RTVSPost2010PropOp49
 70
     1
102
RTVSPost2010Prop50
 90
       50
102
RTVSPost2010PropOp50
 70
     1
102
RTVSPost2010Prop51ColorIndex
 90
      256
102
RTVSPost2010Prop51ColorRGB
 90
-16777216
102
RTVSPost2010PropOp51
 70
     0
102
RTVSPost2010Prop52
140
1.0
102
RTVSPost2010PropOp52
 70
     0
102
RTVSPost2010Prop53
 90
        2
102
RTVSPost2010PropOp53
 70
     1
102
RTVSPost2010Prop54
  1
strokes_ogs.tif
102
RTVSPost2010PropOp54
 70
     1
102
RTVSPost2010Prop55
280
     0
102
RTVSPost2010PropOp55
 70
     1
102
RTVSPost2010Prop56
140
1.0
102
RTVSPost2010PropOp56
 70
     1
102
RTVSPost2010Prop57
140
1.0
102
RTVSPost2010PropOp57
 70
     1
  0
XRECORD
  5
146
102
{ACAD_REACTORS
330
145
102
}
330
145
100
AcDbXrecord
280
     1
102
RTVSPost2010Prop28
280
     0
102
RTVSPost2010PropOp28
 70
     1
102
RTVSPost2010Prop29
280
     1
102
RTVSPost2010PropOp29
 70
     1
102
RTVSPost2010Prop30
280
     1
102
RTVSPost2010PropOp30
 70
     1
102
RTVSPost2010Prop31
280
     0
102
RTVSPost2010PropOp31
 70
     1
102
RTVSPost2010Prop32
280
     0
102
RTVSPost2010PropOp32
 70
     1
102
RTVSPost2010Prop33
280
     0
102
RTVSPost2010PropOp33
 70
     1
102
RTVSPost2010Prop34
280
     0
102
RTVSPost2010PropOp34
 70
     1
102
RTVSPost2010Prop35
280
     0
102
RTVSPost2010PropOp35
 70
     1
102
RTVSPost2010Prop36
280
     0
102
RTVSPost2010PropOp36
 70
     1
102
RTVSPost2010Prop37
 90
       50
102
RTVSPost2010PropOp37
 70
     1
102
RTVSPost2010Prop38
140
0.0
102
RTVSPost2010PropOp38
 70
     1
102
RTVSPost2010Prop39
140
1.0
102
RTVSPost2010PropOp39
 70
     1
102
RTVSPost2010Prop40
 90
        0
102
RTVSPost2010PropOp40
 70
     1
102
RTVSPost2010Prop41ColorIndex
 90
       18
102
RTVSPost2010Prop41ColorRGB
 90
        0
102
RTVSPost2010PropOp41
 70
     1
102
RTVSPost2010Prop42
 90
       50
102
RTVSPost2010PropOp42
 70
     1
102
RTVSPost2010Prop43
 90
        3
102
RTVSPost2010PropOp43
 70
     1
102
RTVSPost2010Prop44ColorIndex
 90
        5
102
RTVSPost2010Prop44ColorRGB
 90
      255
102
RTVSPost2010PropOp44
 70
     1
102
RTVSPost2010Prop45
280
     0
102
RTVSPost2010PropOp45
 70
     1
102
RTVSPost2010Prop46
 90
       50
102
RTVSPost2010PropOp46
 70
     1
102
RTVSPost2010Prop47
 90
       50
102
RTVSPost2010PropOp47
 70
     1
102
RTVSPost2010Prop48
 90
       50
102
RTVSPost2010PropOp48
 70
     1
102
RTVSPost2010Prop49
280
     0
102
RTVSPost2010PropOp49
 70
     1
102
RTVSPost2010Prop50
 90
       50
102
RTVSPost2010PropOp50
 70
     1
102
RTVSPost2010Prop51ColorIndex
 90
      256
102
RTVSPost2010Prop51ColorRGB
 90
-16777216
102
RTVSPost2010PropOp51
 70
     0
102
RTVSPost2010Prop52
140
1.0
102
RTVSPost2010PropOp52
 70
     0
102
RTVSPost2010Prop53
 90
        2
102
RTVSPost2010PropOp53
 70
     1
102
RTVSPost2010Prop54
  1
strokes_ogs.tif
102
RTVSPost2010PropOp54
 70
     1
102
RTVSPost2010Prop55
280
     0
102
RTVSPost2010PropOp55
 70
     1
102
RTVSPost2010Prop56
140
1.0
102
RTVSPost2010PropOp56
 70
     1
102
RTVSPost2010Prop57
140
1.0
102
RTVSPost2010PropOp57
 70
     1
  0
XRECORD
  5
15E
102
{ACAD_REACTORS
330
15D
102
}
330
15D
100
AcDbXrecord
280
     1
102
RTVSPost2010Prop28
280
     0
102
RTVSPost2010PropOp28
 70
     1
102
RTVSPost2010Prop29
280
     1
102
RTVSPost2010PropOp29
 70
     1
102
RTVSPost2010Prop30
280
     1
102
RTVSPost2010PropOp30
 70
     1
102
RTVSPost2010Prop31
280
     0
102
RTVSPost2010PropOp31
 70
     1
102
RTVSPost2010Prop32
280
     0
102
RTVSPost2010PropOp32
 70
     1
102
RTVSPost2010Prop33
280
     0
102
RTVSPost2010PropOp33
 70
     1
102
RTVSPost2010Prop34
280
     0
102
RTVSPost2010PropOp34
 70
     1
102
RTVSPost2010Prop35
280
     0
102
RTVSPost2010PropOp35
 70
     1
102
RTVSPost2010Prop36
280
     0
102
RTVSPost2010PropOp36
 70
     1
102
RTVSPost2010Prop37
 90
       50
102
RTVSPost2010PropOp37
 70
     1
102
RTVSPost2010Prop38
140
0.0
102
RTVSPost2010PropOp38
 70
     1
102
RTVSPost2010Prop39
140
1.0
102
RTVSPost2010PropOp39
 70
     1
102
RTVSPost2010Prop40
 90
        0
102
RTVSPost2010PropOp40
 70
     1
102
RTVSPost2010Prop41ColorIndex
 90
       18
102
RTVSPost2010Prop41ColorRGB
 90
        0
102
RTVSPost2010PropOp41
 70
     1
102
RTVSPost2010Prop42
 90
       50
102
RTVSPost2010PropOp42
 70
     1
102
RTVSPost2010Prop43
 90
        3
102
RTVSPost2010PropOp43
 70
     1
102
RTVSPost2010Prop44ColorIndex
 90
        5
102
RTVSPost2010Prop44ColorRGB
 90
      255
102
RTVSPost2010PropOp44
 70
     1
102
RTVSPost2010Prop45
280
     0
102
RTVSPost2010PropOp45
 70
     1
102
RTVSPost2010Prop46
 90
       50
102
RTVSPost2010PropOp46
 70
     1
102
RTVSPost2010Prop47
 90
       50
102
RTVSPost2010PropOp47
 70
     1
102
RTVSPost2010Prop48
 90
       50
102
RTVSPost2010PropOp48
 70
     1
102
RTVSPost2010Prop49
280
     0
102
RTVSPost2010PropOp49
 70
     1
102
RTVSPost2010Prop50
 90
       50
102
RTVSPost2010PropOp50
 70
     1
102
RTVSPost2010Prop51ColorIndex
 90
      256
102
RTVSPost2010Prop51ColorRGB
 90
-16777216
102
RTVSPost2010PropOp51
 70
     0
102
RTVSPost2010Prop52
140
1.0
102
RTVSPost2010PropOp52
 70
     0
102
RTVSPost2010Prop53
 90
        2
102
RTVSPost2010PropOp53
 70
     1
102
RTVSPost2010Prop54
  1
strokes_ogs.tif
102
RTVSPost2010PropOp54
 70
     1
102
RTVSPost2010Prop55
280
     0
102
RTVSPost2010PropOp55
 70
     1
102
RTVSPost2010Prop56
140
1.0
102
RTVSPost2010PropOp56
 70
     1
102
RTVSPost2010Prop57
140
1.0
102
RTVSPost2010PropOp57
 70
     1
  0
ENDSEC
  0
EOF
