  0
SECTION
  2
HEADER
  9
$ACADVER
  1
AC1024
  9
$ACADMAINTVER
 70
   226
  9
$DWGCODEPAGE
  3
ANSI_1252
  9
$INSBASE
 10
0.0
 20
0.0
 30
0.0
  9
$EXTMIN
 10
1.000000000000000E+20
 20
1.000000000000000E+20
 30
1.000000000000000E+20
  9
$EXTMAX
 10
-1.000000000000000E+20
 20
-1.000000000000000E+20
 30
-1.000000000000000E+20
  9
$LIMMIN
 10
0.0
 20
0.0
  9
$LIMMAX
 10
12.0
 20
9.0
  9
$ORTHOMODE
 70
     0
  9
$REGENMODE
 70
     1
  9
$FILLMODE
 70
     1
  9
$QTEXTMODE
 70
     0
  9
$MIRRTEXT
 70
     0
  9
$LTSCALE
 40
1.0
  9
$ATTMODE
 70
     1
  9
$TEXTSIZE
 40
0.2
  9
$TRACEWID
 40
0.05
  9
$TEXTSTYLE
  7
Standard
  9
$CLAYER
  8
0
  9
$CELTYPE
  6
ByLayer
  9
$CECOLOR
 62
   256
  9
$CELTSCALE
 40
1.0
  9
$DISPSILH
 70
     0
  9
$DIMSCALE
 40
1.0
  9
$DIMASZ
 40
0.18
  9
$DIMEXO
 40
0.0625
  9
$DIMDLI
 40
0.38
  9
$DIMRND
 40
0.0
  9
$DIMDLE
 40
0.0
  9
$DIMEXE
 40
0.18
  9
$DIMTP
 40
0.0
  9
$DIMTM
 40
0.0
  9
$DIMTXT
 40
0.18
  9
$DIMCEN
 40
0.09
  9
$DIMTSZ
 40
0.0
  9
$DIMTOL
 70
     0
  9
$DIMLIM
 70
     0
  9
$DIMTIH
 70
     1
  9
$DIMTOH
 70
     1
  9
$DIMSE1
 70
     0
  9
$DIMSE2
 70
     0
  9
$DIMTAD
 70
     0
  9
$DIMZIN
 70
     0
  9
$DIMBLK
  1

  9
$DIMASO
 70
     1
  9
$DIMSHO
 70
     1
  9
$DIMPOST
  1

  9
$DIMAPOST
  1

  9
$DIMALT
 70
     0
  9
$DIMALTD
 70
     2
  9
$DIMALTF
 40
25.4
  9
$DIMLFAC
 40
1.0
  9
$DIMTOFL
 70
     0
  9
$DIMTVP
 40
0.0
  9
$DIMTIX
 70
     0
  9
$DIMSOXD
 70
     0
  9
$DIMSAH
 70
     0
  9
$DIMBLK1
  1

  9
$DIMBLK2
  1

  9
$DIMSTYLE
  2
Standard
  9
$DIMCLRD
 70
     0
  9
$DIMCLRE
 70
     0
  9
$DIMCLRT
 70
     0
  9
$DIMTFAC
 40
1.0
  9
$DIMGAP
 40
0.09
  9
$DIMJUST
 70
     0
  9
$DIMSD1
 70
     0
  9
$DIMSD2
 70
     0
  9
$DIMTOLJ
 70
     1
  9
$DIMTZIN
 70
     0
  9
$DIMALTZ
 70
     0
  9
$DIMALTTZ
 70
     0
  9
$DIMUPT
 70
     0
  9
$DIMDEC
 70
     4
  9
$DIMTDEC
 70
     4
  9
$DIMALTU
 70
     2
  9
$DIMALTTD
 70
     2
  9
$DIMTXSTY
  7
Standard
  9
$DIMAUNIT
 70
     0
  9
$DIMADEC
 70
     0
  9
$DIMALTRND
 40
0.0
  9
$DIMAZIN
 70
     0
  9
$DIMDSEP
 70
    46
  9
$DIMATFIT
 70
     3
  9
$DIMFRAC
 70
     0
  9
$DIMLDRBLK
  1

  9
$DIMLUNIT
 70
     2
  9
$DIMLWD
 70
    -2
  9
$DIMLWE
 70
    -2
  9
$DIMTMOVE
 70
     0
  9
$DIMFXL
 40
1.0
  9
$DIMFXLON
 70
     0
  9
$DIMJOGANG
 40
0.7853981633974483
  9
$DIMTFILL
 70
     0
  9
$DIMTFILLCLR
 70
     0
  9
$DIMARCSYM
 70
     0
  9
$DIMLTYPE
  6

  9
$DIMLTEX1
  6

  9
$DIMLTEX2
  6

  9
$DIMTXTDIRECTION
 70
     0
  9
$LUNITS
 70
     2
  9
$LUPREC
 70
     4
  9
$SKETCHINC
 40
0.1
  9
$FILLETRAD
 40
0.0
  9
$AUNITS
 70
     0
  9
$AUPREC
 70
     0
  9
$MENU
  1
.
  9
$ELEVATION
 40
0.0
  9
$PELEVATION
 40
0.0
  9
$THICKNESS
 40
0.0
  9
$LIMCHECK
 70
     0
  9
$CHAMFERA
 40
0.0
  9
$CHAMFERB
 40
0.0
  9
$CHAMFERC
 40
0.0
  9
$CHAMFERD
 40
0.0
  9
$SKPOLY
 70
     0
  9
$TDCREATE
 40
2460209.807500000
  9
$TDUCREATE
 40
2460209.724166666
  9
$TDUPDATE
 40
2460209.807500000
  9
$TDUUPDATE
 40
2460209.724166666
  9
$TDINDWG
 40
0.0000000000
  9
$TDUSRTIMER
 40
0.0000000000
  9
$USRTIMER
 70
     1
  9
$ANGBASE
 50
0.0
  9
$ANGDIR
 70
     0
  9
$PDMODE
 70
     0
  9
$PDSIZE
 40
0.0
  9
$PLINEWID
 40
0.0
  9
$SPLFRAME
 70
     0
  9
$SPLINETYPE
 70
     6
  9
$SPLINESEGS
 70
     8
  9
$HANDSEED
  5
13B
  9
$SURFTAB1
 70
     6
  9
$SURFTAB2
 70
     6
  9
$SURFTYPE
 70
     6
  9
$SURFU
 70
     6
  9
$SURFV
 70
     6
  9
$UCSBASE
  2

  9
$UCSNAME
  2

  9
$UCSORG
 10
0.0
 20
0.0
 30
0.0
  9
$UCSXDIR
 10
1.0
 20
0.0
 30
0.0
  9
$UCSYDIR
 10
0.0
 20
1.0
 30
0.0
  9
$UCSORTHOREF
  2

  9
$UCSORTHOVIEW
 70
     0
  9
$UCSORGTOP
 10
0.0
 20
0.0
 30
0.0
  9
$UCSORGBOTTOM
 10
0.0
 20
0.0
 30
0.0
  9
$UCSORGLEFT
 10
0.0
 20
0.0
 30
0.0
  9
$UCSORGRIGHT
 10
0.0
 20
0.0
 30
0.0
  9
$UCSORGFRONT
 10
0.0
 20
0.0
 30
0.0
  9
$UCSORGBACK
 10
0.0
 20
0.0
 30
0.0
  9
$PUCSBASE
  2

  9
$PUCSNAME
  2

  9
$PUCSORG
 10
0.0
 20
0.0
 30
0.0
  9
$PUCSXDIR
 10
1.0
 20
0.0
 30
0.0
  9
$PUCSYDIR
 10
0.0
 20
1.0
 30
0.0
  9
$PUCSORTHOREF
  2

  9
$PUCSORTHOVIEW
 70
     0
  9
$PUCSORGTOP
 10
0.0
 20
0.0
 30
0.0
  9
$PUCSORGBOTTOM
 10
0.0
 20
0.0
 30
0.0
  9
$PUCSORGLEFT
 10
0.0
 20
0.0
 30
0.0
  9
$PUCSORGRIGHT
 10
0.0
 20
0.0
 30
0.0
  9
$PUCSORGFRONT
 10
0.0
 20
0.0
 30
0.0
  9
$PUCSORGBACK
 10
0.0
 20
0.0
 30
0.0
  9
$USERI1
 70
     0
  9
$USERI2
 70
     0
  9
$USERI3
 70
     0
  9
$USERI4
 70
     0
  9
$USERI5
 70
     0
  9
$USERR1
 40
0.0
  9
$USERR2
 40
0.0
  9
$USERR3
 40
0.0
  9
$USERR4
 40
0.0
  9
$USERR5
 40
0.0
  9
$WORLDVIEW
 70
     1
  9
$SHADEDGE
 70
     3
  9
$SHADEDIF
 70
    70
  9
$TILEMODE
 70
     1
  9
$MAXACTVP
 70
    64
  9
$PINSBASE
 10
0.0
 20
0.0
 30
0.0
  9
$PLIMCHECK
 70
     0
  9
$PEXTMIN
 10
1.000000000000000E+20
 20
1.000000000000000E+20
 30
1.000000000000000E+20
  9
$PEXTMAX
 10
-1.000000000000000E+20
 20
-1.000000000000000E+20
 30
-1.000000000000000E+20
  9
$PLIMMIN
 10
0.0
 20
0.0
  9
$PLIMMAX
 10
12.0
 20
9.0
  9
$UNITMODE
 70
     0
  9
$VISRETAIN
 70
     1
  9
$PLINEGEN
 70
     0
  9
$PSLTSCALE
 70
     1
  9
$TREEDEPTH
 70
  3020
  9
$CMLSTYLE
  2
Standard
  9
$CMLJUST
 70
     0
  9
$CMLSCALE
 40
1.0
  9
$PROXYGRAPHICS
 70
     1
  9
$MEASUREMENT
 70
     0
  9
$CELWEIGHT
370
    -1
  9
$ENDCAPS
280
     0
  9
$JOINSTYLE
280
     0
  9
$LWDISPLAY
290
     1
  9
$INSUNITS
 70
     4
  9
$HYPERLINKBASE
  1

  9
$STYLESHEET
  1

  9
$XEDIT
290
     1
  9
$CEPSNTYPE
380
     0
  9
$PSTYLEMODE
290
     1
  9
$FINGERPRINTGUID
  2
{B50341F2-8959-554E-B554-6AA439910A37}
  9
$VERSIONGUID
  2
{5666FAC5-A3E4-9D4F-8FA2-90839AD63E75}
  9
$EXTNAMES
290
     1
  9
$PSVPSCALE
 40
0.0
  9
$OLESTARTUP
290
     0
  9
$SORTENTS
280
   127
  9
$INDEXCTL
280
     0
  9
$HIDETEXT
280
     1
  9
$XCLIPFRAME
280
     2
  9
$HALOGAP
280
     0
  9
$OBSCOLOR
 70
   257
  9
$OBSLTYPE
280
     0
  9
$INTERSECTIONDISPLAY
280
     0
  9
$INTERSECTIONCOLOR
 70
   257
  9
$DIMASSOC
280
     2
  9
$PROJECTNAME
  1

  9
$CAMERADISPLAY
290
     0
  9
$LENSLENGTH
 40
50.0
  9
$CAMERAHEIGHT
 40
0.0
  9
$STEPSPERSEC
 40
2.0
  9
$STEPSIZE
 40
6.0
  9
$3DDWFPREC
 40
2.0
  9
$PSOLWIDTH
 40
0.25
  9
$PSOLHEIGHT
 40
4.0
  9
$LOFTANG1
 40
1.570796326794896
  9
$LOFTANG2
 40
1.570796326794896
  9
$LOFTMAG1
 40
0.0
  9
$LOFTMAG2
 40
0.0
  9
$LOFTPARAM
 70
     7
  9
$LOFTNORMALS
280
     1
  9
$LATITUDE
 40
37.795
  9
$LONGITUDE
 40
-122.394
  9
$NORTHDIRECTION
 40
0.0
  9
$TIMEZONE
 70
 -8000
  9
$LIGHTGLYPHDISPLAY
280
     1
  9
$TILEMODELIGHTSYNCH
280
     1
  9
$CMATERIAL
347
11
  9
$SOLIDHIST
280
     0
  9
$SHOWHIST
280
     1
  9
$DWFFRAME
280
     2
  9
$DGNFRAME
280
     0
  9
$REALWORLDSCALE
290
     1
  9
$INTERFERECOLOR
 62
     1
  9
$INTERFEREOBJVS
345
33
  9
$INTERFEREVPVS
346
30
  9
$CSHADOW
280
     0
  9
$SHADOWPLANELOCATION
 40
0.0
  0
ENDSEC
  0
SECTION
  2
CLASSES
  0
CLASS
  1
ACDBDICTIONARYWDFLT
  2
AcDbDictionaryWithDefault
  3
ObjectDBX Classes
 90
        0
 91
        1
280
     0
281
     0
  0
CLASS
  1
MATERIAL
  2
AcDbMaterial
  3
ObjectDBX Classes
 90
     1153
 91
        3
280
     0
281
     0
  0
CLASS
  1
VISUALSTYLE
  2
AcDbVisualStyle
  3
ObjectDBX Classes
 90
     4095
 91
       24
280
     0
281
     0
  0
CLASS
  1
SCALE
  2
AcDbScale
  3
ObjectDBX Classes
 90
     1153
 91
       17
280
     0
281
     0
  0
CLASS
  1
TABLESTYLE
  2
AcDbTableStyle
  3
ObjectDBX Classes
 90
     4095
 91
        1
280
     0
281
     0
  0
CLASS
  1
MLEADERSTYLE
  2
AcDbMLeaderStyle
  3
ACDB_MLEADERSTYLE_CLASS
 90
     4095
 91
        1
280
     0
281
     0
  0
CLASS
  1
ACDBSECTIONVIEWSTYLE
  2
AcDbSectionViewStyle
  3
ObjectDBX Classes
 90
     1025
 91
        1
280
     0
281
     0
  0
CLASS
  1
ACDBDETAILVIEWSTYLE
  2
AcDbDetailViewStyle
  3
ObjectDBX Classes
 90
     1025
 91
        1
280
     0
281
     0
  0
CLASS
  1
DICTIONARYVAR
  2
AcDbDictionaryVar
  3
ObjectDBX Classes
 90
        0
 91
        5
280
     0
281
     0
  0
CLASS
  1
CELLSTYLEMAP
  2
AcDbCellStyleMap
  3
ObjectDBX Classes
 90
     1152
 91
        1
280
     0
281
     0
  0
ENDSEC
  0
SECTION
  2
TABLES
  0
TABLE
  2
VPORT
  5
8
330
0
100
AcDbSymbolTable
 70
     1
  0
VPORT
  5
57
330
8
100
AcDbSymbolTableRecord
100
AcDbViewportTableRecord
  2
*Active
 70
     0
 10
0.0
 20
0.0
 11
1.0
 21
1.0
 12
0.0
 22
0.0
 13
0.0
 23
0.0
 14
1.0
 24
1.0
 15
0.0
 25
0.0
 16
0.0
 26
0.0
 36
1.0
 17
104.951388862651
 27
148.5194444073146
 37
0.0
 40
302.9796665909217
 41
0.7066508313539194
 42
50.0
 43
0.0
 44
0.0
 50
0.0
 51
0.0
 71
     0
 72
   100
 73
     1
 74
     1
 75
     0
 76
     0
 77
     0
 78
     0
281
     0
 65
     1
110
0.0
120
0.0
130
0.0
111
1.0
121
0.0
131
0.0
112
0.0
122
1.0
132
0.0
 79
     0
146
0.0
 60
     3
 61
     5
292
     1
282
     1
141
0.0
142
0.0
 63
   250
421
  3355443
  0
ENDTAB
  0
TABLE
  2
LTYPE
  5
5
330
0
100
AcDbSymbolTable
 70
     1
  0
LTYPE
  5
5B
330
5
100
AcDbSymbolTableRecord
100
AcDbLinetypeTableRecord
  2
ByBlock
 70
     0
  3

 72
    65
 73
     0
 40
0.0
  0
LTYPE
  5
5C
330
5
100
AcDbSymbolTableRecord
100
AcDbLinetypeTableRecord
  2
ByLayer
 70
     0
  3

 72
    65
 73
     0
 40
0.0
  0
LTYPE
  5
5D
330
5
100
AcDbSymbolTableRecord
100
AcDbLinetypeTableRecord
  2
Continuous
 70
     0
  3
Solid line
 72
    65
 73
     0
 40
0.0
  0
ENDTAB
  0
TABLE
  2
LAYER
  5
2
330
0
100
AcDbSymbolTable
 70
     2
  0
LAYER
  5
54
330
2
100
AcDbSymbolTableRecord
100
AcDbLayerTableRecord
  2
0
 70
     0
 62
     7
  6
Continuous
370
    -3
390
F
347
21
  0
LAYER
  5
78
330
2
100
AcDbSymbolTableRecord
100
AcDbLayerTableRecord
  2
Capa 1
 70
     0
 62
     7
  6
Continuous
370
     0
390
F
347
21
  0
ENDTAB
  0
TABLE
  2
STYLE
  5
3
330
0
100
AcDbSymbolTable
 70
     2
  0
STYLE
  5
55
330
3
100
AcDbSymbolTableRecord
100
AcDbTextStyleTableRecord
  2
Standard
 70
     0
 40
0.0
 41
1.0
 50
0.0
 71
     0
 42
0.2
  3
txt
  4

  0
STYLE
  5
5A
330
3
100
AcDbSymbolTableRecord
100
AcDbTextStyleTableRecord
  2
Annotative
 70
     0
 40
0.0
 41
1.0
 50
0.0
 71
     0
 42
0.2
  3
txt
  4

1001
AcadAnnotative
1000
AnnotativeData
1002
{
1070
     1
1070
     1
1002
}
  0
ENDTAB
  0
TABLE
  2
VIEW
  5
6
330
0
100
AcDbSymbolTable
 70
     0
  0
ENDTAB
  0
TABLE
  2
UCS
  5
7
330
0
100
AcDbSymbolTable
 70
     0
  0
ENDTAB
  0
TABLE
  2
APPID
  5
9
330
0
100
AcDbSymbolTable
 70
     2
  0
APPID
  5
56
330
9
100
AcDbSymbolTableRecord
100
AcDbRegAppTableRecord
  2
ACAD
 70
     0
  0
APPID
  5
5E
330
9
100
AcDbSymbolTableRecord
100
AcDbRegAppTableRecord
  2
AcadAnnotative
 70
     0
  0
ENDTAB
  0
TABLE
  2
DIMSTYLE
  5
A
330
0
100
AcDbSymbolTable
 70
     2
100
AcDbDimStyleTable
 71
     0
  0
DIMSTYLE
105
58
330
A
100
AcDbSymbolTableRecord
100
AcDbDimStyleTableRecord
  2
Standard
 70
     0
340
55
  0
DIMSTYLE
105
59
330
A
100
AcDbSymbolTableRecord
100
AcDbDimStyleTableRecord
  2
Annotative
 70
     0
340
55
1001
AcadAnnotative
1000
AnnotativeData
1002
{
1070
     1
1070
     1
1002
}
  0
ENDTAB
  0
TABLE
  2
BLOCK_RECORD
  5
1
330
0
100
AcDbSymbolTable
 70
     1
  0
BLOCK_RECORD
  5
70
330
1
100
AcDbSymbolTableRecord
100
AcDbBlockTableRecord
  2
*Model_Space
340
73
 70
     0
280
     1
281
     0
  0
BLOCK_RECORD
  5
6C
330
1
100
AcDbSymbolTableRecord
100
AcDbBlockTableRecord
  2
*Paper_Space
340
6F
 70
     0
280
     1
281
     0
  0
BLOCK_RECORD
  5
74
330
1
100
AcDbSymbolTableRecord
100
AcDbBlockTableRecord
  2
*Paper_Space0
340
77
 70
     0
280
     1
281
     0
  0
ENDTAB
  0
ENDSEC
  0
SECTION
  2
BLOCKS
  0
BLOCK
  5
71
330
70
100
AcDbEntity
  8
0
100
AcDbBlockBegin
  2
*Model_Space
 70
     0
 10
0.0
 20
0.0
 30
0.0
  3
*Model_Space
  1

  0
ENDBLK
  5
72
330
70
100
AcDbEntity
  8
0
100
AcDbBlockEnd
  0
BLOCK
  5
6D
330
6C
100
AcDbEntity
 67
     1
  8
0
100
AcDbBlockBegin
  2
*Paper_Space
 70
     0
 10
0.0
 20
0.0
 30
0.0
  3
*Paper_Space
  1

  0
ENDBLK
  5
6E
330
6C
100
AcDbEntity
 67
     1
  8
0
100
AcDbBlockEnd
  0
BLOCK
  5
75
330
74
100
AcDbEntity
 67
     1
  8
0
100
AcDbBlockBegin
  2
*Paper_Space0
 70
     0
 10
0.0
 20
0.0
 30
0.0
  3
*Paper_Space0
  1

  0
ENDBLK
  5
76
330
74
100
AcDbEntity
 67
     1
  8
0
100
AcDbBlockEnd
  0
ENDSEC
  0
SECTION
  2
ENTITIES
  0
LWPOLYLINE
  5
79
330
70
100
AcDbEntity
  8
Capa 1
 62
    18
420
        0
370
     9
100
AcDbPolyline
 90
        4
 70
     1
 43
0.0
 10
130.7253216734547
 20
145.8247768461393
 10
132.1646610353453
 20
145.062775554419
 10
80.26399610420158
 20
115.0907785763705
 10
78.90933072978438
 20
115.9374430896408
  0
LWPOLYLINE
  5
7A
330
70
100
AcDbEntity
  8
Capa 1
 62
    18
420
        0
370
     9
100
AcDbPolyline
 90
        3
 70
     0
 43
0.0
 10
80.26399610420158
 20
90.62210631754087
 10
78.90933072978438
 20
91.46878159673459
 10
78.90933072978438
 20
115.9374430896408
  0
LINE
  5
7B
330
70
100
AcDbEntity
  8
Capa 1
 62
    18
420
        0
370
     9
100
AcDbLine
 10
80.26399610420158
 20
90.62210631754087
 30
0.0
 11
80.26399610420158
 21
115.0907785763705
 31
0.0
  0
LWPOLYLINE
  5
7C
330
70
100
AcDbEntity
  8
Capa 1
 62
    18
420
        0
370
     9
100
AcDbPolyline
 90
        3
 70
     0
 43
0.0
 10
132.1646610353453
 20
145.062775554419
 10
132.1646610353453
 20
120.5941140615127
 10
80.26399610420158
 20
90.62210631754087
  0
LWPOLYLINE
  5
7D
330
70
100
AcDbEntity
  8
Capa 1
 62
    18
420
        0
370
     9
100
AcDbPolyline
 90
        4
 70
     1
 43
0.0
 10
130.7253216734547
 20
117.376771685608
 10
132.1646610353453
 20
116.5301071723377
 10
80.26399610420158
 20
86.64278418176271
 10
78.90933072978438
 20
87.40478009052131
  0
LWPOLYLINE
  5
7E
330
70
100
AcDbEntity
  8
Capa 1
 62
    18
420
        0
370
     9
100
AcDbPolyline
 90
        4
 70
     0
 43
0.0
 10
132.1646610353453
 20
116.5301071723377
 10
132.1646610353453
 20
92.14610890098148
 10
80.26399610420158
 20
62.1737781793079
 10
80.26399610420158
 20
86.64278418176271
  0
LWPOLYLINE
  5
7F
330
70
100
AcDbEntity
  8
Capa 1
 62
    18
420
        0
370
     9
100
AcDbPolyline
 90
        3
 70
     0
 43
0.0
 10
80.26399610420158
 20
62.1737781793079
 10
78.90933072978438
 20
63.02044269257823
 10
78.90933072978438
 20
87.40478009052131
  0
LWPOLYLINE
  5
80
330
70
100
AcDbEntity
  8
Capa 1
 62
    18
420
        0
370
     9
100
AcDbPolyline
 90
        4
 70
     1
 43
0.0
 10
184.1499784221157
 20
175.1194465199408
 10
184.1499784221157
 20
150.6507742611112
 10
132.3339874784454
 20
120.6787772830627
 10
132.3339874784454
 20
145.147438775969
  0
LINE
  5
81
330
70
100
AcDbEntity
  8
Capa 1
 62
    18
420
        0
370
     9
100
AcDbLine
 10
132.1646610353453
 20
120.7634405046127
 30
0.0
 11
132.3339874784454
 21
120.6787772830627
 31
0.0
  0
LWPOLYLINE
  5
82
330
70
100
AcDbEntity
  8
Capa 1
 62
    18
420
        0
370
     9
100
AcDbPolyline
 90
        3
 70
     0
 43
0.0
 10
130.8946588824781
 20
145.7401136245892
 10
130.8946588824781
 20
145.9941032892393
 10
132.3339874784454
 20
145.147438775969
  0
LWPOLYLINE
  5
83
330
70
100
AcDbEntity
  8
Capa 1
 62
    18
420
        0
370
     9
100
AcDbPolyline
 90
        3
 70
     0
 43
0.0
 10
184.1499784221157
 20
175.1194465199408
 10
182.7953238136219
 20
175.8814478116612
 10
130.8946588824781
 20
145.9941032892393
  0
LINE
  5
84
330
70
100
AcDbEntity
  8
Capa 1
 62
    18
420
        0
370
     9
100
AcDbLine
 10
132.1646610353453
 20
92.31544611000492
 30
0.0
 11
132.3339874784454
 21
92.2307721225315
 31
0.0
  0
LWPOLYLINE
  5
85
330
70
100
AcDbEntity
  8
Capa 1
 62
    18
420
        0
370
     9
100
AcDbPolyline
 90
        4
 70
     0
 43
0.0
 10
130.8946588824781
 20
117.292108464058
 10
130.8946588824781
 20
117.4614456730814
 10
132.3339874784454
 20
116.6994443813611
 10
132.3339874784454
 20
92.2307721225315
  0
LWPOLYLINE
  5
86
330
70
100
AcDbEntity
  8
Capa 1
 62
    18
420
        0
370
     9
100
AcDbPolyline
 90
        3
 70
     0
 43
0.0
 10
184.1499784221157
 20
146.5867781378596
 10
184.1499784221157
 20
122.2027798665033
 10
132.3339874784454
 20
92.2307721225315
  0
LWPOLYLINE
  5
87
330
70
100
AcDbEntity
  8
Capa 1
 62
    18
420
        0
370
     9
100
AcDbPolyline
 90
        4
 70
     0
 43
0.0
 10
132.3339874784454
 20
116.6994443813611
 10
184.1499784221157
 20
146.5867781378596
 10
182.7953238136219
 20
147.4334426511299
 10
130.8946588824781
 20
117.4614456730814
  0
SPLINE
  5
88
330
70
100
AcDbEntity
  8
Capa 1
 62
    18
420
        0
370
     9
100
AcDbSpline
210
0.0
220
0.0
230
1.0
 70
    24
 71
     3
 72
     8
 73
     4
 74
     0
 42
0.0000000001
 43
0.0000000001
 40
0.0
 40
0.0
 40
0.0
 40
0.0
 40
1.0
 40
1.0
 40
1.0
 40
1.0
 10
180.6786571474844
 20
176.220122229708
 30
0.0
 10
180.6786571474844
 20
176.220122229708
 30
0.0
 10
180.6786571474844
 20
174.6961196462674
 30
0.0
 10
180.6786571474844
 20
174.6961196462674
 30
0.0
  0
SPLINE
  5
89
330
70
100
AcDbEntity
  8
Capa 1
 62
    18
420
        0
370
     9
100
AcDbSpline
210
0.0
220
0.0
230
1.0
 70
    24
 71
     3
 72
     8
 73
     4
 74
     0
 42
0.0000000001
 43
0.0000000001
 40
0.0
 40
0.0
 40
0.0
 40
0.0
 40
1.0
 40
1.0
 40
1.0
 40
1.0
 10
128.6933289947906
 20
118.6467738384752
 30
0.0
 10
128.6933289947906
 20
118.6467738384752
 30
0.0
 10
128.6933289947906
 20
116.1914435202143
 30
0.0
 10
128.6933289947906
 20
116.1914435202143
 30
0.0
  0
SPLINE
  5
8A
330
70
100
AcDbEntity
  8
Capa 1
 62
    18
420
        0
370
     9
100
AcDbSpline
210
0.0
220
0.0
230
1.0
 70
    24
 71
     3
 72
     8
 73
     4
 74
     0
 42
0.0000000001
 43
0.0000000001
 40
0.0
 40
0.0
 40
0.0
 40
0.0
 40
1.0
 40
1.0
 40
1.0
 40
1.0
 10
180.6786571474844
 20
148.6187708165237
 30
0.0
 10
180.6786571474844
 20
148.6187708165237
 30
0.0
 10
180.6786571474844
 20
146.2481037198128
 30
0.0
 10
180.6786571474844
 20
146.2481037198128
 30
0.0
  0
SPLINE
  5
8B
330
70
100
AcDbEntity
  8
Capa 1
 62
    18
420
        0
370
     9
100
AcDbSpline
210
0.0
220
0.0
230
1.0
 70
    24
 71
     3
 72
     8
 73
     4
 74
     0
 42
0.0000000001
 43
0.0000000001
 40
0.0
 40
0.0
 40
0.0
 40
0.0
 40
1.0
 40
1.0
 40
1.0
 40
1.0
 10
128.6933289947906
 20
146.1634404982627
 30
0.0
 10
128.6933289947906
 20
146.1634404982627
 30
0.0
 10
128.6933289947906
 20
144.6394379148221
 30
0.0
 10
128.6933289947906
 20
144.6394379148221
 30
0.0
  0
SPLINE
  5
8C
330
70
100
AcDbEntity
  8
Capa 1
 62
    18
420
        0
370
     9
100
AcDbSpline
210
0.0
220
0.0
230
1.0
 70
    24
 71
     3
 72
     8
 73
     4
 74
     0
 42
0.0000000001
 43
0.0000000001
 40
0.0
 40
0.0
 40
0.0
 40
0.0
 40
1.0
 40
1.0
 40
1.0
 40
1.0
 10
132.2493242568953
 20
118.2234469648018
 30
0.0
 10
132.2493242568953
 20
118.2234469648018
 30
0.0
 10
132.2493242568953
 20
120.7634405046127
 30
0.0
 10
132.2493242568953
 20
120.7634405046127
 30
0.0
  0
SPLINE
  5
8D
330
70
100
AcDbEntity
  8
Capa 1
 62
    18
420
        0
370
     9
100
AcDbSpline
210
0.0
220
0.0
230
1.0
 70
    24
 71
     3
 72
     8
 73
     4
 74
     0
 42
0.0000000001
 43
0.0000000001
 40
0.0
 40
0.0
 40
0.0
 40
0.0
 40
1.0
 40
1.0
 40
1.0
 40
1.0
 10
132.2493242568953
 20
146.6714413594096
 30
0.0
 10
132.2493242568953
 20
146.6714413594096
 30
0.0
 10
132.2493242568953
 20
148.1954439428502
 30
0.0
 10
132.2493242568953
 20
148.1954439428502
 30
0.0
  0
SPLINE
  5
8E
330
70
100
AcDbEntity
  8
Capa 1
 62
    18
420
        0
370
     9
100
AcDbSpline
210
0.0
220
0.0
230
1.0
 70
    24
 71
     3
 72
     8
 73
     4
 74
     0
 42
0.0000000001
 43
0.0000000001
 40
0.0
 40
0.0
 40
0.0
 40
0.0
 40
1.0
 40
1.0
 40
1.0
 40
1.0
 10
130.8099956609281
 20
147.4334426511299
 30
0.0
 10
130.8099956609281
 20
147.4334426511299
 30
0.0
 10
130.8099956609281
 20
145.8247768461393
 30
0.0
 10
130.8099956609281
 20
145.8247768461393
 30
0.0
  0
SPLINE
  5
8F
330
70
100
AcDbEntity
  8
Capa 1
 62
    18
420
        0
370
     9
100
AcDbSpline
210
0.0
220
0.0
230
1.0
 70
    24
 71
     3
 72
     8
 73
     4
 74
     0
 42
0.0000000001
 43
0.0000000001
 40
0.0
 40
0.0
 40
0.0
 40
0.0
 40
1.0
 40
1.0
 40
1.0
 40
1.0
 10
130.8099956609281
 20
119.8321127697924
 30
0.0
 10
130.8099956609281
 20
119.8321127697924
 30
0.0
 10
130.8099956609281
 20
117.292108464058
 30
0.0
 10
130.8099956609281
 20
117.292108464058
 30
0.0
  0
SPLINE
  5
90
330
70
100
AcDbEntity
  8
Capa 1
 62
    18
420
        0
370
     9
100
AcDbSpline
210
0.0
220
0.0
230
1.0
 70
    24
 71
     3
 72
     8
 73
     4
 74
     0
 42
0.0000000001
 43
0.0000000001
 40
0.0
 40
0.0
 40
0.0
 40
0.0
 40
1.0
 40
1.0
 40
1.0
 40
1.0
 10
78.82466212527268
 20
119.2394379211721
 30
0.0
 10
78.82466212527268
 20
119.2394379211721
 30
0.0
 10
78.82466212527268
 20
62.85111086651649
 30
0.0
 10
78.82466212527268
 20
62.85111086651649
 30
0.0
  0
SPLINE
  5
91
330
70
100
AcDbEntity
  8
Capa 1
 62
    18
420
        0
370
     9
100
AcDbSpline
210
0.0
220
0.0
230
1.0
 70
    24
 71
     3
 72
     8
 73
     4
 74
     0
 42
0.0000000001
 43
0.0000000001
 40
0.0
 40
0.0
 40
0.0
 40
0.0
 40
1.0
 40
1.0
 40
1.0
 40
1.0
 10
80.17932749968988
 20
88.16678138224162
 30
0.0
 10
80.17932749968988
 20
88.16678138224162
 30
0.0
 10
80.17932749968988
 20
90.70678030501428
 30
0.0
 10
80.17932749968988
 20
90.70678030501428
 30
0.0
  0
SPLINE
  5
92
330
70
100
AcDbEntity
  8
Capa 1
 62
    18
420
        0
370
     9
100
AcDbSpline
210
0.0
220
0.0
230
1.0
 70
    24
 71
     3
 72
     8
 73
     4
 74
     0
 42
0.0000000001
 43
0.0000000001
 40
0.0
 40
0.0
 40
0.0
 40
0.0
 40
1.0
 40
1.0
 40
1.0
 40
1.0
 10
80.17932749968988
 20
116.6994443813611
 30
0.0
 10
80.17932749968988
 20
116.6994443813611
 30
0.0
 10
80.17932749968988
 20
118.4774473953752
 30
0.0
 10
80.17932749968988
 20
118.4774473953752
 30
0.0
  0
SPLINE
  5
93
330
70
100
AcDbEntity
  8
Capa 1
 62
    18
420
        0
370
     9
100
AcDbSpline
210
0.0
220
0.0
230
1.0
 70
    24
 71
     3
 72
     8
 73
     4
 74
     0
 42
0.0000000001
 43
0.0000000001
 40
0.0
 40
0.0
 40
0.0
 40
0.0
 40
1.0
 40
1.0
 40
1.0
 40
1.0
 10
78.82466212527268
 20
62.85111086651649
 30
0.0
 10
78.82466212527268
 20
62.85111086651649
 30
0.0
 10
78.9939939513344
 20
62.93577947102821
 30
0.0
 10
78.9939939513344
 20
62.93577947102821
 30
0.0
  0
SPLINE
  5
94
330
70
100
AcDbEntity
  8
Capa 1
 62
    18
420
        0
370
     9
100
AcDbSpline
210
0.0
220
0.0
230
1.0
 70
    24
 71
     3
 72
     8
 73
     4
 74
     0
 42
0.0000000001
 43
0.0000000001
 40
0.0
 40
0.0
 40
0.0
 40
0.0
 40
1.0
 40
1.0
 40
1.0
 40
1.0
 10
129.4553302865109
 20
146.5867781378596
 30
0.0
 10
129.4553302865109
 20
146.5867781378596
 30
0.0
 10
129.4553302865109
 20
145.062775554419
 30
0.0
 10
129.4553302865109
 20
145.062775554419
 30
0.0
  0
SPLINE
  5
95
330
70
100
AcDbEntity
  8
Capa 1
 62
    18
420
        0
370
     9
100
AcDbSpline
210
0.0
220
0.0
230
1.0
 70
    24
 71
     3
 72
     8
 73
     4
 74
     0
 42
0.0000000001
 43
0.0000000001
 40
0.0
 40
0.0
 40
0.0
 40
0.0
 40
1.0
 40
1.0
 40
1.0
 40
1.0
 10
129.4553302865109
 20
119.0701114780721
 30
0.0
 10
129.4553302865109
 20
119.0701114780721
 30
0.0
 10
129.4553302865109
 20
116.6147703938877
 30
0.0
 10
129.4553302865109
 20
116.6147703938877
 30
0.0
  0
SPLINE
  5
96
330
70
100
AcDbEntity
  8
Capa 1
 62
    18
420
        0
370
     9
100
AcDbSpline
210
0.0
220
0.0
230
1.0
 70
    24
 71
     3
 72
     8
 73
     4
 74
     0
 42
0.0000000001
 43
0.0000000001
 40
0.0
 40
0.0
 40
0.0
 40
0.0
 40
1.0
 40
1.0
 40
1.0
 40
1.0
 10
130.8099956609281
 20
147.4334426511299
 30
0.0
 10
130.8099956609281
 20
147.4334426511299
 30
0.0
 10
130.8099956609281
 20
145.8247768461393
 30
0.0
 10
130.8099956609281
 20
145.8247768461393
 30
0.0
  0
SPLINE
  5
97
330
70
100
AcDbEntity
  8
Capa 1
 62
    18
420
        0
370
     9
100
AcDbSpline
210
0.0
220
0.0
230
1.0
 70
    24
 71
     3
 72
     8
 73
     4
 74
     0
 42
0.0000000001
 43
0.0000000001
 40
0.0
 40
0.0
 40
0.0
 40
0.0
 40
1.0
 40
1.0
 40
1.0
 40
1.0
 10
130.8099956609281
 20
119.8321127697924
 30
0.0
 10
130.8099956609281
 20
119.8321127697924
 30
0.0
 10
130.8099956609281
 20
117.292108464058
 30
0.0
 10
130.8099956609281
 20
117.292108464058
 30
0.0
  0
SPLINE
  5
98
330
70
100
AcDbEntity
  8
Capa 1
 62
    18
420
        0
370
     9
100
AcDbSpline
210
0.0
220
0.0
230
1.0
 70
    24
 71
     3
 72
     8
 73
     4
 74
     0
 42
0.0000000001
 43
0.0000000001
 40
0.0
 40
0.0
 40
0.0
 40
0.0
 40
1.0
 40
1.0
 40
1.0
 40
1.0
 10
181.4406476732813
 20
176.6434491033814
 30
0.0
 10
181.4406476732813
 20
176.6434491033814
 30
0.0
 10
181.4406476732813
 20
175.1194465199408
 30
0.0
 10
181.4406476732813
 20
175.1194465199408
 30
0.0
  0
SPLINE
  5
99
330
70
100
AcDbEntity
  8
Capa 1
 62
    18
420
        0
370
     9
100
AcDbSpline
210
0.0
220
0.0
230
1.0
 70
    24
 71
     3
 72
     8
 73
     4
 74
     0
 42
0.0000000001
 43
0.0000000001
 40
0.0
 40
0.0
 40
0.0
 40
0.0
 40
1.0
 40
1.0
 40
1.0
 40
1.0
 10
181.4406476732813
 20
149.0421084561205
 30
0.0
 10
181.4406476732813
 20
149.0421084561205
 30
0.0
 10
181.4406476732813
 20
146.6714413594096
 30
0.0
 10
181.4406476732813
 20
146.6714413594096
 30
0.0
  0
SPLINE
  5
9A
330
70
100
AcDbEntity
  8
Capa 1
 62
    18
420
        0
370
     9
100
AcDbSpline
210
0.0
220
0.0
230
1.0
 70
    24
 71
     3
 72
     8
 73
     4
 74
     0
 42
0.0000000001
 43
0.0000000001
 40
0.0
 40
0.0
 40
0.0
 40
0.0
 40
1.0
 40
1.0
 40
1.0
 40
1.0
 10
182.8799870351719
 20
177.4054503951018
 30
0.0
 10
182.8799870351719
 20
177.4054503951018
 30
0.0
 10
182.8799870351719
 20
175.8814478116612
 30
0.0
 10
182.8799870351719
 20
175.8814478116612
 30
0.0
  0
SPLINE
  5
9B
330
70
100
AcDbEntity
  8
Capa 1
 62
    18
420
        0
370
     9
100
AcDbSpline
210
0.0
220
0.0
230
1.0
 70
    24
 71
     3
 72
     8
 73
     4
 74
     0
 42
0.0000000001
 43
0.0000000001
 40
0.0
 40
0.0
 40
0.0
 40
0.0
 40
1.0
 40
1.0
 40
1.0
 40
1.0
 10
182.8799870351719
 20
149.8887729693909
 30
0.0
 10
182.8799870351719
 20
149.8887729693909
 30
0.0
 10
182.8799870351719
 20
147.3487794295799
 30
0.0
 10
182.8799870351719
 20
147.3487794295799
 30
0.0
  0
SPLINE
  5
9C
330
70
100
AcDbEntity
  8
Capa 1
 62
    18
420
        0
370
     9
100
AcDbSpline
210
0.0
220
0.0
230
1.0
 70
    24
 71
     3
 72
     8
 73
     4
 74
     0
 42
0.0000000001
 43
0.0000000001
 40
0.0
 40
0.0
 40
0.0
 40
0.0
 40
1.0
 40
1.0
 40
1.0
 40
1.0
 10
80.09466427813986
 20
62.08910957479619
 30
0.0
 10
80.09466427813986
 20
62.08910957479619
 30
0.0
 10
95.58866362831095
 20
53.11444204909932
 30
0.0
 10
95.58866362831095
 20
53.11444204909932
 30
0.0
  0
SPLINE
  5
9D
330
70
100
AcDbEntity
  8
Capa 1
 62
    18
420
        0
370
     9
100
AcDbSpline
210
0.0
220
0.0
230
1.0
 70
    24
 71
     3
 72
     8
 73
     4
 74
     0
 42
0.0000000001
 43
0.0000000001
 40
0.0
 40
0.0
 40
0.0
 40
0.0
 40
1.0
 40
1.0
 40
1.0
 40
1.0
 10
183.9806519790157
 20
122.0334426574799
 30
0.0
 10
183.9806519790157
 20
122.0334426574799
 30
0.0
 10
199.4746459462251
 20
113.143438353333
 30
0.0
 10
199.4746459462251
 20
113.143438353333
 30
0.0
  0
SPLINE
  5
9E
330
70
100
AcDbEntity
  8
Capa 1
 62
    18
420
        0
370
     9
100
AcDbSpline
210
0.0
220
0.0
230
1.0
 70
    24
 71
     3
 72
     8
 73
     4
 74
     0
 42
0.0000000001
 43
0.0000000001
 40
0.0
 40
0.0
 40
0.0
 40
0.0
 40
1.0
 40
1.0
 40
1.0
 40
1.0
 10
97.11265544582818
 20
55.73910957638369
 30
0.0
 10
97.11265544582818
 20
55.73910957638369
 30
0.0
 10
194.90265972775
 20
112.2121106185127
 30
0.0
 10
194.90265972775
 20
112.2121106185127
 30
0.0
  0
LWPOLYLINE
  5
9F
330
70
100
AcDbEntity
  8
Capa 1
100
AcDbPolyline
 90
        3
 70
     0
 43
0.0
 10
96.77399179370473
 20
56.24711043753056
 10
97.3666558764016
 20
55.23110871523682
 10
94.06466104487034
 20
54.04577516688135
  0
HATCH
  5
A0
330
70
100
AcDbEntity
  8
Capa 1
 62
    18
420
        0
440
 33554687
100
AcDbHatch
 10
0.0
 20
0.0
 30
0.0
210
0.0
220
0.0
230
1.0
  2
SOLID
 70
     1
 71
     1
 91
        1
 92
        3
 72
     0
 73
     1
 93
        3
 10
96.77399179370473
 20
56.24711043753056
 10
97.3666558764016
 20
55.23110871523682
 10
94.06466104487034
 20
54.04577516688135
 97
        0
 75
     0
 76
     1
 98
        1
 10
0.0
 20
0.0
450
        0
451
        0
460
0.0
461
0.0
452
        0
462
0.0
453
        0
470

  0
LWPOLYLINE
  5
A1
330
70
100
AcDbEntity
  8
Capa 1
100
AcDbPolyline
 90
        3
 70
     0
 43
0.0
 10
194.6486485312532
 20
112.7201114796596
 10
195.2413126139501
 20
111.7041097573658
 10
197.9506433627845
 20
113.9901136325268
  0
HATCH
  5
A2
330
70
100
AcDbEntity
  8
Capa 1
 62
    18
420
        0
440
 33554687
100
AcDbHatch
 10
0.0
 20
0.0
 30
0.0
210
0.0
220
0.0
230
1.0
  2
SOLID
 70
     1
 71
     1
 91
        1
 92
        3
 72
     0
 73
     1
 93
        3
 10
194.6486485312532
 20
112.7201114796596
 10
195.2413126139501
 20
111.7041097573658
 10
197.9506433627845
 20
113.9901136325268
 97
        0
 75
     0
 76
     1
 98
        1
 10
0.0
 20
0.0
450
        0
451
        0
460
0.0
461
0.0
452
        0
462
0.0
453
        0
470

  0
LWPOLYLINE
  5
A3
330
70
100
AcDbEntity
  8
Capa 1
100
AcDbPolyline
 90
       13
 70
     0
 43
0.0
 10
139.784663186625
 20
83.93310892337979
 10
139.784663186625
 20
83.84844570182977
 10
139.6999891991516
 20
83.76377709731807
 10
139.6999891991516
 20
83.67910849280635
 10
139.869326408175
 20
83.42510806223293
 10
139.869326408175
 20
83.50977666674463
 10
139.953989629725
 20
83.59444527125635
 10
139.953989629725
 20
83.67910849280635
 10
140.038652851275
 20
83.76377709731807
 10
140.038652851275
 20
83.84844570182977
 10
140.1233268387485
 20
83.93310892337979
 10
140.1233268387485
 20
84.01777752789149
 10
140.2079900602985
 20
84.1024407494415
  0
HATCH
  5
A4
330
70
100
AcDbEntity
  8
Capa 1
 62
    18
420
        0
440
 33554687
100
AcDbHatch
 10
0.0
 20
0.0
 30
0.0
210
0.0
220
0.0
230
1.0
  2
SOLID
 70
     1
 71
     1
 91
        1
 92
        3
 72
     0
 73
     1
 93
       13
 10
139.784663186625
 20
83.93310892337979
 10
139.784663186625
 20
83.84844570182977
 10
139.6999891991516
 20
83.76377709731807
 10
139.6999891991516
 20
83.67910849280635
 10
139.869326408175
 20
83.42510806223293
 10
139.869326408175
 20
83.50977666674463
 10
139.953989629725
 20
83.59444527125635
 10
139.953989629725
 20
83.67910849280635
 10
140.038652851275
 20
83.76377709731807
 10
140.038652851275
 20
83.84844570182977
 10
140.1233268387485
 20
83.93310892337979
 10
140.1233268387485
 20
84.01777752789149
 10
140.2079900602985
 20
84.1024407494415
 97
        0
 75
     0
 76
     1
 98
        1
 10
0.0
 20
0.0
450
        0
451
        0
460
0.0
461
0.0
452
        0
462
0.0
453
        0
470

  0
LWPOLYLINE
  5
A5
330
70
100
AcDbEntity
  8
Capa 1
100
AcDbPolyline
 90
       10
 70
     0
 43
0.0
 10
140.1233268387485
 20
84.69544934168693
 10
139.953989629725
 20
84.61044161058838
 10
139.953989629725
 20
84.18710935395322
 10
139.869326408175
 20
84.1024407494415
 10
139.869326408175
 20
84.01777752789149
 10
139.869326408175
 20
83.93310892337979
 10
139.784663186625
 20
83.93310892337979
 10
140.2079900602985
 20
84.1024407494415
 10
141.1393285610422
 20
82.40911172290088
 10
141.3933289916156
 20
82.5784435489626
  0
HATCH
  5
A6
330
70
100
AcDbEntity
  8
Capa 1
 62
    18
420
        0
440
 33554687
100
AcDbHatch
 10
0.0
 20
0.0
 30
0.0
210
0.0
220
0.0
230
1.0
  2
SOLID
 70
     1
 71
     1
 91
        1
 92
        3
 72
     0
 73
     1
 93
       10
 10
140.1233268387485
 20
84.69544934168693
 10
139.953989629725
 20
84.61044161058838
 10
139.953989629725
 20
84.18710935395322
 10
139.869326408175
 20
84.1024407494415
 10
139.869326408175
 20
84.01777752789149
 10
139.869326408175
 20
83.93310892337979
 10
139.784663186625
 20
83.93310892337979
 10
140.2079900602985
 20
84.1024407494415
 10
141.1393285610422
 20
82.40911172290088
 10
141.3933289916156
 20
82.5784435489626
 97
        0
 75
     0
 76
     1
 98
        1
 10
0.0
 20
0.0
450
        0
451
        0
460
0.0
461
0.0
452
        0
462
0.0
453
        0
470

  0
LWPOLYLINE
  5
A7
330
70
100
AcDbEntity
  8
Capa 1
100
AcDbPolyline
 90
       73
 70
     0
 43
0.0
 10
142.239993504886
 20
85.62678245946896
 10
141.7319926437391
 20
85.28811880734551
 10
141.8166558652891
 20
85.37278202889552
 10
141.9013298527625
 20
85.37278202889552
 10
141.9859930743125
 20
85.37278202889552
 10
142.0706562958625
 20
85.37278202889552
 10
142.1553195174126
 20
85.37278202889552
 10
142.1553195174126
 20
85.28811880734551
 10
142.239993504886
 20
85.28811880734551
 10
142.239993504886
 20
85.20345020283379
 10
142.324656726436
 20
85.11878698128379
 10
142.324656726436
 20
85.03411837677207
 10
142.409319947986
 20
85.03411837677207
 10
142.409319947986
 20
84.94944977226037
 10
142.409319947986
 20
84.86478655071035
 10
142.409319947986
 20
84.78011794619865
 10
142.324656726436
 20
84.69544934168693
 10
142.324656726436
 20
84.61044161058838
 10
142.324656726436
 20
84.52577838903838
 10
142.324656726436
 20
84.44110978452666
 10
142.239993504886
 20
84.35644118001496
 10
142.239993504886
 20
84.27177795846494
 10
142.239993504886
 20
84.18710935395322
 10
142.1553195174126
 20
84.1024407494415
 10
142.1553195174126
 20
84.01777752789149
 10
142.1553195174126
 20
83.93310892337979
 10
142.0706562958625
 20
83.93310892337979
 10
142.0706562958625
 20
83.84844570182977
 10
142.0706562958625
 20
83.76377709731807
 10
142.0706562958625
 20
83.67910849280635
 10
142.0706562958625
 20
83.59444527125635
 10
141.9859930743125
 20
83.59444527125635
 10
141.9859930743125
 20
83.50977666674463
 10
141.9859930743125
 20
83.42510806223293
 10
141.9859930743125
 20
83.34044484068291
 10
141.9859930743125
 20
83.25577623617119
 10
141.9859930743125
 20
83.17110763165947
 10
141.9859930743125
 20
83.08644441010946
 10
142.0706562958625
 20
83.00177580559775
 10
142.0706562958625
 20
82.91711258404774
 10
143.5099956577531
 20
83.76377709731807
 10
143.3406584487297
 20
84.01777752789149
 10
142.324656726436
 20
83.42510806223293
 10
142.324656726436
 20
83.50977666674463
 10
142.324656726436
 20
83.59444527125635
 10
142.324656726436
 20
83.67910849280635
 10
142.324656726436
 20
83.76377709731807
 10
142.409319947986
 20
83.76377709731807
 10
142.409319947986
 20
83.84844570182977
 10
142.409319947986
 20
83.93310892337979
 10
142.4939939354594
 20
84.01777752789149
 10
142.4939939354594
 20
84.1024407494415
 10
142.4939939354594
 20
84.18710935395322
 10
142.4939939354594
 20
84.27177795846494
 10
142.5786571570094
 20
84.27177795846494
 10
142.5786571570094
 20
84.35644118001496
 10
142.5786571570094
 20
84.44110978452666
 10
142.5786571570094
 20
84.52577838903838
 10
142.6633203785594
 20
84.52577838903838
 10
142.6633203785594
 20
84.61044161058838
 10
142.6633203785594
 20
84.69544934168693
 10
142.6633203785594
 20
84.78011794619865
 10
142.6633203785594
 20
84.86478655071035
 10
142.6633203785594
 20
84.94944977226037
 10
142.6633203785594
 20
85.03411837677207
 10
142.6633203785594
 20
85.11878698128379
 10
142.6633203785594
 20
85.20345020283379
 10
142.5786571570094
 20
85.28811880734551
 10
142.5786571570094
 20
85.37278202889552
 10
142.4939939354594
 20
85.45745063340723
 10
142.409319947986
 20
85.54211923791894
 10
142.324656726436
 20
85.54211923791894
 10
142.324656726436
 20
85.62678245946896
  0
HATCH
  5
A8
330
70
100
AcDbEntity
  8
Capa 1
 62
    18
420
        0
440
 33554687
100
AcDbHatch
 10
0.0
 20
0.0
 30
0.0
210
0.0
220
0.0
230
1.0
  2
SOLID
 70
     1
 71
     1
 91
        1
 92
        3
 72
     0
 73
     1
 93
       73
 10
142.239993504886
 20
85.62678245946896
 10
141.7319926437391
 20
85.28811880734551
 10
141.8166558652891
 20
85.37278202889552
 10
141.9013298527625
 20
85.37278202889552
 10
141.9859930743125
 20
85.37278202889552
 10
142.0706562958625
 20
85.37278202889552
 10
142.1553195174126
 20
85.37278202889552
 10
142.1553195174126
 20
85.28811880734551
 10
142.239993504886
 20
85.28811880734551
 10
142.239993504886
 20
85.20345020283379
 10
142.324656726436
 20
85.11878698128379
 10
142.324656726436
 20
85.03411837677207
 10
142.409319947986
 20
85.03411837677207
 10
142.409319947986
 20
84.94944977226037
 10
142.409319947986
 20
84.86478655071035
 10
142.409319947986
 20
84.78011794619865
 10
142.324656726436
 20
84.69544934168693
 10
142.324656726436
 20
84.61044161058838
 10
142.324656726436
 20
84.52577838903838
 10
142.324656726436
 20
84.44110978452666
 10
142.239993504886
 20
84.35644118001496
 10
142.239993504886
 20
84.27177795846494
 10
142.239993504886
 20
84.18710935395322
 10
142.1553195174126
 20
84.1024407494415
 10
142.1553195174126
 20
84.01777752789149
 10
142.1553195174126
 20
83.93310892337979
 10
142.0706562958625
 20
83.93310892337979
 10
142.0706562958625
 20
83.84844570182977
 10
142.0706562958625
 20
83.76377709731807
 10
142.0706562958625
 20
83.67910849280635
 10
142.0706562958625
 20
83.59444527125635
 10
141.9859930743125
 20
83.59444527125635
 10
141.9859930743125
 20
83.50977666674463
 10
141.9859930743125
 20
83.42510806223293
 10
141.9859930743125
 20
83.34044484068291
 10
141.9859930743125
 20
83.25577623617119
 10
141.9859930743125
 20
83.17110763165947
 10
141.9859930743125
 20
83.08644441010946
 10
142.0706562958625
 20
83.00177580559775
 10
142.0706562958625
 20
82.91711258404774
 10
143.5099956577531
 20
83.76377709731807
 10
143.3406584487297
 20
84.01777752789149
 10
142.324656726436
 20
83.42510806223293
 10
142.324656726436
 20
83.50977666674463
 10
142.324656726436
 20
83.59444527125635
 10
142.324656726436
 20
83.67910849280635
 10
142.324656726436
 20
83.76377709731807
 10
142.409319947986
 20
83.76377709731807
 10
142.409319947986
 20
83.84844570182977
 10
142.409319947986
 20
83.93310892337979
 10
142.4939939354594
 20
84.01777752789149
 10
142.4939939354594
 20
84.1024407494415
 10
142.4939939354594
 20
84.18710935395322
 10
142.4939939354594
 20
84.27177795846494
 10
142.5786571570094
 20
84.27177795846494
 10
142.5786571570094
 20
84.35644118001496
 10
142.5786571570094
 20
84.44110978452666
 10
142.5786571570094
 20
84.52577838903838
 10
142.6633203785594
 20
84.52577838903838
 10
142.6633203785594
 20
84.61044161058838
 10
142.6633203785594
 20
84.69544934168693
 10
142.6633203785594
 20
84.78011794619865
 10
142.6633203785594
 20
84.86478655071035
 10
142.6633203785594
 20
84.94944977226037
 10
142.6633203785594
 20
85.03411837677207
 10
142.6633203785594
 20
85.11878698128379
 10
142.6633203785594
 20
85.20345020283379
 10
142.5786571570094
 20
85.28811880734551
 10
142.5786571570094
 20
85.37278202889552
 10
142.4939939354594
 20
85.45745063340723
 10
142.409319947986
 20
85.54211923791894
 10
142.324656726436
 20
85.54211923791894
 10
142.324656726436
 20
85.62678245946896
 97
        0
 75
     0
 76
     1
 98
        1
 10
0.0
 20
0.0
450
        0
451
        0
460
0.0
461
0.0
452
        0
462
0.0
453
        0
470

  0
LWPOLYLINE
  5
A9
330
70
100
AcDbEntity
  8
Capa 1
100
AcDbPolyline
 90
       34
 70
     0
 43
0.0
 10
141.5626554347157
 20
85.54211923791894
 10
141.4779922131656
 20
85.45745063340723
 10
141.3933289916156
 20
85.37278202889552
 10
141.3086550041422
 20
85.37278202889552
 10
141.3086550041422
 20
85.28811880734551
 10
141.2239917825922
 20
85.28811880734551
 10
141.2239917825922
 20
85.20345020283379
 10
141.2239917825922
 20
85.11878698128379
 10
141.1393285610422
 20
85.11878698128379
 10
141.1393285610422
 20
85.03411837677207
 10
141.1393285610422
 20
84.94944977226037
 10
141.1393285610422
 20
84.86478655071035
 10
141.1393285610422
 20
84.78011794619865
 10
141.1393285610422
 20
84.69544934168693
 10
141.1393285610422
 20
84.61044161058838
 10
141.2239917825922
 20
84.52577838903838
 10
141.4779922131656
 20
84.61044161058838
 10
141.4779922131656
 20
84.69544934168693
 10
141.4779922131656
 20
84.78011794619865
 10
141.4779922131656
 20
84.86478655071035
 10
141.4779922131656
 20
84.94944977226037
 10
141.4779922131656
 20
85.03411837677207
 10
141.4779922131656
 20
85.11878698128379
 10
141.5626554347157
 20
85.20345020283379
 10
141.647329422189
 20
85.28811880734551
 10
141.7319926437391
 20
85.28811880734551
 10
142.239993504886
 20
85.62678245946896
 10
142.1553195174126
 20
85.62678245946896
 10
142.0706562958625
 20
85.62678245946896
 10
141.9859930743125
 20
85.62678245946896
 10
141.9013298527625
 20
85.62678245946896
 10
141.8166558652891
 20
85.62678245946896
 10
141.7319926437391
 20
85.62678245946896
 10
141.647329422189
 20
85.54211923791894
  0
HATCH
  5
AA
330
70
100
AcDbEntity
  8
Capa 1
 62
    18
420
        0
440
 33554687
100
AcDbHatch
 10
0.0
 20
0.0
 30
0.0
210
0.0
220
0.0
230
1.0
  2
SOLID
 70
     1
 71
     1
 91
        1
 92
        3
 72
     0
 73
     1
 93
       34
 10
141.5626554347157
 20
85.54211923791894
 10
141.4779922131656
 20
85.45745063340723
 10
141.3933289916156
 20
85.37278202889552
 10
141.3086550041422
 20
85.37278202889552
 10
141.3086550041422
 20
85.28811880734551
 10
141.2239917825922
 20
85.28811880734551
 10
141.2239917825922
 20
85.20345020283379
 10
141.2239917825922
 20
85.11878698128379
 10
141.1393285610422
 20
85.11878698128379
 10
141.1393285610422
 20
85.03411837677207
 10
141.1393285610422
 20
84.94944977226037
 10
141.1393285610422
 20
84.86478655071035
 10
141.1393285610422
 20
84.78011794619865
 10
141.1393285610422
 20
84.69544934168693
 10
141.1393285610422
 20
84.61044161058838
 10
141.2239917825922
 20
84.52577838903838
 10
141.4779922131656
 20
84.61044161058838
 10
141.4779922131656
 20
84.69544934168693
 10
141.4779922131656
 20
84.78011794619865
 10
141.4779922131656
 20
84.86478655071035
 10
141.4779922131656
 20
84.94944977226037
 10
141.4779922131656
 20
85.03411837677207
 10
141.4779922131656
 20
85.11878698128379
 10
141.5626554347157
 20
85.20345020283379
 10
141.647329422189
 20
85.28811880734551
 10
141.7319926437391
 20
85.28811880734551
 10
142.239993504886
 20
85.62678245946896
 10
142.1553195174126
 20
85.62678245946896
 10
142.0706562958625
 20
85.62678245946896
 10
141.9859930743125
 20
85.62678245946896
 10
141.9013298527625
 20
85.62678245946896
 10
141.8166558652891
 20
85.62678245946896
 10
141.7319926437391
 20
85.62678245946896
 10
141.647329422189
 20
85.54211923791894
 97
        0
 75
     0
 76
     1
 98
        1
 10
0.0
 20
0.0
450
        0
451
        0
460
0.0
461
0.0
452
        0
462
0.0
453
        0
470

  0
LWPOLYLINE
  5
AB
330
70
100
AcDbEntity
  8
Capa 1
100
AcDbPolyline
 90
       51
 70
     0
 43
0.0
 10
142.9173208091328
 20
85.9654514945541
 10
142.9173208091328
 20
85.9654514945541
 10
142.9173208091328
 20
85.45745063340723
 10
143.0019947966063
 20
85.37278202889552
 10
143.0019947966063
 20
85.28811880734551
 10
143.0866580181563
 20
85.20345020283379
 10
143.0866580181563
 20
85.11878698128379
 10
143.1713212397063
 20
85.03411837677207
 10
143.1713212397063
 20
84.94944977226037
 10
143.2559952271797
 20
84.86478655071035
 10
143.2559952271797
 20
84.78011794619865
 10
143.3406584487297
 20
84.69544934168693
 10
143.4253216702797
 20
84.61044161058838
 10
143.5099956577531
 20
84.52577838903838
 10
143.5946588793031
 20
84.44110978452666
 10
143.6793221008531
 20
84.35644118001496
 10
143.7639960883266
 20
84.27177795846494
 10
143.8486593098766
 20
84.27177795846494
 10
143.9333225314266
 20
84.27177795846494
 10
143.9333225314266
 20
84.18710935395322
 10
144.3566601710234
 20
84.52577838903838
 10
144.2719861835501
 20
84.44110978452666
 10
144.187322962
 20
84.44110978452666
 10
144.10265974045
 20
84.44110978452666
 10
144.0179965189
 20
84.44110978452666
 10
144.0179965189
 20
84.52577838903838
 10
143.9333225314266
 20
84.52577838903838
 10
143.8486593098766
 20
84.61044161058838
 10
143.7639960883266
 20
84.69544934168693
 10
143.6793221008531
 20
84.78011794619865
 10
143.6793221008531
 20
84.86478655071035
 10
143.5946588793031
 20
84.86478655071035
 10
143.5099956577531
 20
84.94944977226037
 10
143.5099956577531
 20
85.03411837677207
 10
143.4253216702797
 20
85.11878698128379
 10
143.4253216702797
 20
85.20345020283379
 10
143.3406584487297
 20
85.28811880734551
 10
143.3406584487297
 20
85.37278202889552
 10
143.3406584487297
 20
85.45745063340723
 10
143.2559952271797
 20
85.45745063340723
 10
143.2559952271797
 20
85.54211923791894
 10
143.2559952271797
 20
85.62678245946896
 10
143.1713212397063
 20
85.71145106398068
 10
143.1713212397063
 20
85.79611966849238
 10
143.1713212397063
 20
85.8807828900424
 10
143.1713212397063
 20
85.9654514945541
 10
143.1713212397063
 20
86.05012009906582
 10
143.2559952271797
 20
86.13478332061582
 10
143.2559952271797
 20
86.21945192512754
 10
143.3406584487297
 20
86.21945192512754
 10
143.3406584487297
 20
86.30411514667756
  0
HATCH
  5
AC
330
70
100
AcDbEntity
  8
Capa 1
 62
    18
420
        0
440
 33554687
100
AcDbHatch
 10
0.0
 20
0.0
 30
0.0
210
0.0
220
0.0
230
1.0
  2
SOLID
 70
     1
 71
     1
 91
        1
 92
        3
 72
     0
 73
     1
 93
       51
 10
142.9173208091328
 20
85.9654514945541
 10
142.9173208091328
 20
85.9654514945541
 10
142.9173208091328
 20
85.45745063340723
 10
143.0019947966063
 20
85.37278202889552
 10
143.0019947966063
 20
85.28811880734551
 10
143.0866580181563
 20
85.20345020283379
 10
143.0866580181563
 20
85.11878698128379
 10
143.1713212397063
 20
85.03411837677207
 10
143.1713212397063
 20
84.94944977226037
 10
143.2559952271797
 20
84.86478655071035
 10
143.2559952271797
 20
84.78011794619865
 10
143.3406584487297
 20
84.69544934168693
 10
143.4253216702797
 20
84.61044161058838
 10
143.5099956577531
 20
84.52577838903838
 10
143.5946588793031
 20
84.44110978452666
 10
143.6793221008531
 20
84.35644118001496
 10
143.7639960883266
 20
84.27177795846494
 10
143.8486593098766
 20
84.27177795846494
 10
143.9333225314266
 20
84.27177795846494
 10
143.9333225314266
 20
84.18710935395322
 10
144.3566601710234
 20
84.52577838903838
 10
144.2719861835501
 20
84.44110978452666
 10
144.187322962
 20
84.44110978452666
 10
144.10265974045
 20
84.44110978452666
 10
144.0179965189
 20
84.44110978452666
 10
144.0179965189
 20
84.52577838903838
 10
143.9333225314266
 20
84.52577838903838
 10
143.8486593098766
 20
84.61044161058838
 10
143.7639960883266
 20
84.69544934168693
 10
143.6793221008531
 20
84.78011794619865
 10
143.6793221008531
 20
84.86478655071035
 10
143.5946588793031
 20
84.86478655071035
 10
143.5099956577531
 20
84.94944977226037
 10
143.5099956577531
 20
85.03411837677207
 10
143.4253216702797
 20
85.11878698128379
 10
143.4253216702797
 20
85.20345020283379
 10
143.3406584487297
 20
85.28811880734551
 10
143.3406584487297
 20
85.37278202889552
 10
143.3406584487297
 20
85.45745063340723
 10
143.2559952271797
 20
85.45745063340723
 10
143.2559952271797
 20
85.54211923791894
 10
143.2559952271797
 20
85.62678245946896
 10
143.1713212397063
 20
85.71145106398068
 10
143.1713212397063
 20
85.79611966849238
 10
143.1713212397063
 20
85.8807828900424
 10
143.1713212397063
 20
85.9654514945541
 10
143.1713212397063
 20
86.05012009906582
 10
143.2559952271797
 20
86.13478332061582
 10
143.2559952271797
 20
86.21945192512754
 10
143.3406584487297
 20
86.21945192512754
 10
143.3406584487297
 20
86.30411514667756
 97
        0
 75
     0
 76
     1
 98
        1
 10
0.0
 20
0.0
450
        0
451
        0
460
0.0
461
0.0
452
        0
462
0.0
453
        0
470

  0
LWPOLYLINE
  5
AD
330
70
100
AcDbEntity
  8
Capa 1
100
AcDbPolyline
 90
       88
 70
     0
 43
0.0
 10
143.2559952271797
 20
86.47345235570098
 10
143.2559952271797
 20
86.47345235570098
 10
143.1713212397063
 20
86.47345235570098
 10
143.0866580181563
 20
86.38878375118926
 10
143.0019947966063
 20
86.30411514667756
 10
143.0019947966063
 20
86.21945192512754
 10
142.9173208091328
 20
86.21945192512754
 10
142.9173208091328
 20
86.13478332061582
 10
142.9173208091328
 20
86.05012009906582
 10
142.9173208091328
 20
85.9654514945541
 10
143.3406584487297
 20
86.30411514667756
 10
143.4253216702797
 20
86.30411514667756
 10
143.5099956577531
 20
86.30411514667756
 10
143.5946588793031
 20
86.30411514667756
 10
143.6793221008531
 20
86.30411514667756
 10
143.7639960883266
 20
86.30411514667756
 10
143.8486593098766
 20
86.21945192512754
 10
143.9333225314266
 20
86.21945192512754
 10
143.9333225314266
 20
86.13478332061582
 10
144.0179965189
 20
86.13478332061582
 10
144.0179965189
 20
86.05012009906582
 10
144.10265974045
 20
85.9654514945541
 10
144.187322962
 20
85.8807828900424
 10
144.187322962
 20
85.79611966849238
 10
144.2719861835501
 20
85.71145106398068
 10
144.2719861835501
 20
85.62678245946896
 10
144.3566601710234
 20
85.62678245946896
 10
144.3566601710234
 20
85.54211923791894
 10
144.4413233925734
 20
85.45745063340723
 10
144.4413233925734
 20
85.37278202889552
 10
144.4413233925734
 20
85.28811880734551
 10
144.5259866141235
 20
85.20345020283379
 10
144.5259866141235
 20
85.11878698128379
 10
144.6106606015969
 20
85.03411837677207
 10
144.6106606015969
 20
84.94944977226037
 10
144.6106606015969
 20
84.86478655071035
 10
144.6106606015969
 20
84.78011794619865
 10
144.5259866141235
 20
84.69544934168693
 10
144.5259866141235
 20
84.61044161058838
 10
144.4413233925734
 20
84.52577838903838
 10
144.3566601710234
 20
84.52577838903838
 10
143.9333225314266
 20
84.18710935395322
 10
144.0179965189
 20
84.18710935395322
 10
144.10265974045
 20
84.18710935395322
 10
144.187322962
 20
84.18710935395322
 10
144.2719861835501
 20
84.18710935395322
 10
144.3566601710234
 20
84.18710935395322
 10
144.4413233925734
 20
84.27177795846494
 10
144.5259866141235
 20
84.27177795846494
 10
144.6106606015969
 20
84.35644118001496
 10
144.6953238231469
 20
84.44110978452666
 10
144.7799870446969
 20
84.52577838903838
 10
144.7799870446969
 20
84.61044161058838
 10
144.8646610321703
 20
84.61044161058838
 10
144.8646610321703
 20
84.69544934168693
 10
144.8646610321703
 20
84.78011794619865
 10
144.8646610321703
 20
84.86478655071035
 10
144.8646610321703
 20
84.94944977226037
 10
144.8646610321703
 20
85.03411837677207
 10
144.8646610321703
 20
85.11878698128379
 10
144.8646610321703
 20
85.20345020283379
 10
144.8646610321703
 20
85.28811880734551
 10
144.7799870446969
 20
85.28811880734551
 10
144.7799870446969
 20
85.37278202889552
 10
144.7799870446969
 20
85.45745063340723
 10
144.6953238231469
 20
85.54211923791894
 10
144.6953238231469
 20
85.62678245946896
 10
144.6106606015969
 20
85.71145106398068
 10
144.6106606015969
 20
85.79611966849238
 10
144.5259866141235
 20
85.79611966849238
 10
144.5259866141235
 20
85.8807828900424
 10
144.4413233925734
 20
85.9654514945541
 10
144.4413233925734
 20
86.05012009906582
 10
144.3566601710234
 20
86.05012009906582
 10
144.3566601710234
 20
86.13478332061582
 10
144.2719861835501
 20
86.21945192512754
 10
144.2719861835501
 20
86.30411514667756
 10
144.187322962
 20
86.30411514667756
 10
144.10265974045
 20
86.38878375118926
 10
144.0179965189
 20
86.47345235570098
 10
143.9333225314266
 20
86.55811557725099
 10
143.8486593098766
 20
86.55811557725099
 10
143.7639960883266
 20
86.55811557725099
 10
143.6793221008531
 20
86.55811557725099
 10
143.5946588793031
 20
86.55811557725099
 10
143.5099956577531
 20
86.55811557725099
 10
143.4253216702797
 20
86.55811557725099
 10
143.3406584487297
 20
86.55811557725099
  0
HATCH
  5
AE
330
70
100
AcDbEntity
  8
Capa 1
 62
    18
420
        0
440
 33554687
100
AcDbHatch
 10
0.0
 20
0.0
 30
0.0
210
0.0
220
0.0
230
1.0
  2
SOLID
 70
     1
 71
     1
 91
        1
 92
        3
 72
     0
 73
     1
 93
       88
 10
143.2559952271797
 20
86.47345235570098
 10
143.2559952271797
 20
86.47345235570098
 10
143.1713212397063
 20
86.47345235570098
 10
143.0866580181563
 20
86.38878375118926
 10
143.0019947966063
 20
86.30411514667756
 10
143.0019947966063
 20
86.21945192512754
 10
142.9173208091328
 20
86.21945192512754
 10
142.9173208091328
 20
86.13478332061582
 10
142.9173208091328
 20
86.05012009906582
 10
142.9173208091328
 20
85.9654514945541
 10
143.3406584487297
 20
86.30411514667756
 10
143.4253216702797
 20
86.30411514667756
 10
143.5099956577531
 20
86.30411514667756
 10
143.5946588793031
 20
86.30411514667756
 10
143.6793221008531
 20
86.30411514667756
 10
143.7639960883266
 20
86.30411514667756
 10
143.8486593098766
 20
86.21945192512754
 10
143.9333225314266
 20
86.21945192512754
 10
143.9333225314266
 20
86.13478332061582
 10
144.0179965189
 20
86.13478332061582
 10
144.0179965189
 20
86.05012009906582
 10
144.10265974045
 20
85.9654514945541
 10
144.187322962
 20
85.8807828900424
 10
144.187322962
 20
85.79611966849238
 10
144.2719861835501
 20
85.71145106398068
 10
144.2719861835501
 20
85.62678245946896
 10
144.3566601710234
 20
85.62678245946896
 10
144.3566601710234
 20
85.54211923791894
 10
144.4413233925734
 20
85.45745063340723
 10
144.4413233925734
 20
85.37278202889552
 10
144.4413233925734
 20
85.28811880734551
 10
144.5259866141235
 20
85.20345020283379
 10
144.5259866141235
 20
85.11878698128379
 10
144.6106606015969
 20
85.03411837677207
 10
144.6106606015969
 20
84.94944977226037
 10
144.6106606015969
 20
84.86478655071035
 10
144.6106606015969
 20
84.78011794619865
 10
144.5259866141235
 20
84.69544934168693
 10
144.5259866141235
 20
84.61044161058838
 10
144.4413233925734
 20
84.52577838903838
 10
144.3566601710234
 20
84.52577838903838
 10
143.9333225314266
 20
84.18710935395322
 10
144.0179965189
 20
84.18710935395322
 10
144.10265974045
 20
84.18710935395322
 10
144.187322962
 20
84.18710935395322
 10
144.2719861835501
 20
84.18710935395322
 10
144.3566601710234
 20
84.18710935395322
 10
144.4413233925734
 20
84.27177795846494
 10
144.5259866141235
 20
84.27177795846494
 10
144.6106606015969
 20
84.35644118001496
 10
144.6953238231469
 20
84.44110978452666
 10
144.7799870446969
 20
84.52577838903838
 10
144.7799870446969
 20
84.61044161058838
 10
144.8646610321703
 20
84.61044161058838
 10
144.8646610321703
 20
84.69544934168693
 10
144.8646610321703
 20
84.78011794619865
 10
144.8646610321703
 20
84.86478655071035
 10
144.8646610321703
 20
84.94944977226037
 10
144.8646610321703
 20
85.03411837677207
 10
144.8646610321703
 20
85.11878698128379
 10
144.8646610321703
 20
85.20345020283379
 10
144.8646610321703
 20
85.28811880734551
 10
144.7799870446969
 20
85.28811880734551
 10
144.7799870446969
 20
85.37278202889552
 10
144.7799870446969
 20
85.45745063340723
 10
144.6953238231469
 20
85.54211923791894
 10
144.6953238231469
 20
85.62678245946896
 10
144.6106606015969
 20
85.71145106398068
 10
144.6106606015969
 20
85.79611966849238
 10
144.5259866141235
 20
85.79611966849238
 10
144.5259866141235
 20
85.8807828900424
 10
144.4413233925734
 20
85.9654514945541
 10
144.4413233925734
 20
86.05012009906582
 10
144.3566601710234
 20
86.05012009906582
 10
144.3566601710234
 20
86.13478332061582
 10
144.2719861835501
 20
86.21945192512754
 10
144.2719861835501
 20
86.30411514667756
 10
144.187322962
 20
86.30411514667756
 10
144.10265974045
 20
86.38878375118926
 10
144.0179965189
 20
86.47345235570098
 10
143.9333225314266
 20
86.55811557725099
 10
143.8486593098766
 20
86.55811557725099
 10
143.7639960883266
 20
86.55811557725099
 10
143.6793221008531
 20
86.55811557725099
 10
143.5946588793031
 20
86.55811557725099
 10
143.5099956577531
 20
86.55811557725099
 10
143.4253216702797
 20
86.55811557725099
 10
143.3406584487297
 20
86.55811557725099
 97
        0
 75
     0
 76
     1
 98
        1
 10
0.0
 20
0.0
450
        0
451
        0
460
0.0
461
0.0
452
        0
462
0.0
453
        0
470

  0
LWPOLYLINE
  5
AF
330
70
100
AcDbEntity
  8
Capa 1
100
AcDbPolyline
 90
       61
 70
     0
 43
0.0
 10
144.6106606015969
 20
86.98144783388615
 10
144.6106606015969
 20
86.89677922937445
 10
144.5259866141235
 20
86.81211062486273
 10
144.5259866141235
 20
86.72744740331273
 10
144.6106606015969
 20
86.72744740331273
 10
144.6106606015969
 20
86.64278418176271
 10
144.6106606015969
 20
86.55811557725099
 10
144.6106606015969
 20
86.47345235570098
 10
144.6106606015969
 20
86.38878375118926
 10
144.6953238231469
 20
86.38878375118926
 10
144.6953238231469
 20
86.30411514667756
 10
144.6953238231469
 20
86.21945192512754
 10
144.7799870446969
 20
86.13478332061582
 10
144.8646610321703
 20
86.05012009906582
 10
144.8646610321703
 20
85.9654514945541
 10
144.8646610321703
 20
85.8807828900424
 10
144.9493242537203
 20
85.8807828900424
 10
144.9493242537203
 20
85.79611966849238
 10
145.0339874752704
 20
85.71145106398068
 10
145.0339874752704
 20
85.62678245946896
 10
145.1186614627437
 20
85.54211923791894
 10
145.2033246842938
 20
85.45745063340723
 10
145.2879879058438
 20
85.45745063340723
 10
145.2879879058438
 20
85.37278202889552
 10
145.3726618933172
 20
85.37278202889552
 10
145.3726618933172
 20
85.28811880734551
 10
145.4573251148672
 20
85.28811880734551
 10
145.5419883364172
 20
85.20345020283379
 10
145.6266623238906
 20
85.20345020283379
 10
146.0499891975641
 20
85.45745063340723
 10
145.9653259760141
 20
85.45745063340723
 10
145.8806627544641
 20
85.45745063340723
 10
145.7959887669907
 20
85.45745063340723
 10
145.7113255454407
 20
85.45745063340723
 10
145.6266623238906
 20
85.45745063340723
 10
145.6266623238906
 20
85.54211923791894
 10
145.5419883364172
 20
85.54211923791894
 10
145.5419883364172
 20
85.62678245946896
 10
145.4573251148672
 20
85.62678245946896
 10
145.4573251148672
 20
85.71145106398068
 10
145.3726618933172
 20
85.71145106398068
 10
145.2879879058438
 20
85.79611966849238
 10
145.2879879058438
 20
85.8807828900424
 10
145.2033246842938
 20
85.9654514945541
 10
145.2033246842938
 20
86.05012009906582
 10
145.1186614627437
 20
86.13478332061582
 10
145.0339874752704
 20
86.21945192512754
 10
145.0339874752704
 20
86.30411514667756
 10
144.9493242537203
 20
86.38878375118926
 10
144.9493242537203
 20
86.47345235570098
 10
144.9493242537203
 20
86.55811557725099
 10
144.8646610321703
 20
86.55811557725099
 10
144.8646610321703
 20
86.64278418176271
 10
144.8646610321703
 20
86.72744740331273
 10
144.8646610321703
 20
86.81211062486273
 10
144.8646610321703
 20
86.89677922937445
 10
144.8646610321703
 20
86.98144783388615
 10
144.8646610321703
 20
87.06611105543617
 10
144.9493242537203
 20
87.06611105543617
 10
144.9493242537203
 20
87.15077965994787
 10
145.0339874752704
 20
87.23544826445959
  0
HATCH
  5
B0
330
70
100
AcDbEntity
  8
Capa 1
 62
    18
420
        0
440
 33554687
100
AcDbHatch
 10
0.0
 20
0.0
 30
0.0
210
0.0
220
0.0
230
1.0
  2
SOLID
 70
     1
 71
     1
 91
        1
 92
        3
 72
     0
 73
     1
 93
       61
 10
144.6106606015969
 20
86.98144783388615
 10
144.6106606015969
 20
86.89677922937445
 10
144.5259866141235
 20
86.81211062486273
 10
144.5259866141235
 20
86.72744740331273
 10
144.6106606015969
 20
86.72744740331273
 10
144.6106606015969
 20
86.64278418176271
 10
144.6106606015969
 20
86.55811557725099
 10
144.6106606015969
 20
86.47345235570098
 10
144.6106606015969
 20
86.38878375118926
 10
144.6953238231469
 20
86.38878375118926
 10
144.6953238231469
 20
86.30411514667756
 10
144.6953238231469
 20
86.21945192512754
 10
144.7799870446969
 20
86.13478332061582
 10
144.8646610321703
 20
86.05012009906582
 10
144.8646610321703
 20
85.9654514945541
 10
144.8646610321703
 20
85.8807828900424
 10
144.9493242537203
 20
85.8807828900424
 10
144.9493242537203
 20
85.79611966849238
 10
145.0339874752704
 20
85.71145106398068
 10
145.0339874752704
 20
85.62678245946896
 10
145.1186614627437
 20
85.54211923791894
 10
145.2033246842938
 20
85.45745063340723
 10
145.2879879058438
 20
85.45745063340723
 10
145.2879879058438
 20
85.37278202889552
 10
145.3726618933172
 20
85.37278202889552
 10
145.3726618933172
 20
85.28811880734551
 10
145.4573251148672
 20
85.28811880734551
 10
145.5419883364172
 20
85.20345020283379
 10
145.6266623238906
 20
85.20345020283379
 10
146.0499891975641
 20
85.45745063340723
 10
145.9653259760141
 20
85.45745063340723
 10
145.8806627544641
 20
85.45745063340723
 10
145.7959887669907
 20
85.45745063340723
 10
145.7113255454407
 20
85.45745063340723
 10
145.6266623238906
 20
85.45745063340723
 10
145.6266623238906
 20
85.54211923791894
 10
145.5419883364172
 20
85.54211923791894
 10
145.5419883364172
 20
85.62678245946896
 10
145.4573251148672
 20
85.62678245946896
 10
145.4573251148672
 20
85.71145106398068
 10
145.3726618933172
 20
85.71145106398068
 10
145.2879879058438
 20
85.79611966849238
 10
145.2879879058438
 20
85.8807828900424
 10
145.2033246842938
 20
85.9654514945541
 10
145.2033246842938
 20
86.05012009906582
 10
145.1186614627437
 20
86.13478332061582
 10
145.0339874752704
 20
86.21945192512754
 10
145.0339874752704
 20
86.30411514667756
 10
144.9493242537203
 20
86.38878375118926
 10
144.9493242537203
 20
86.47345235570098
 10
144.9493242537203
 20
86.55811557725099
 10
144.8646610321703
 20
86.55811557725099
 10
144.8646610321703
 20
86.64278418176271
 10
144.8646610321703
 20
86.72744740331273
 10
144.8646610321703
 20
86.81211062486273
 10
144.8646610321703
 20
86.89677922937445
 10
144.8646610321703
 20
86.98144783388615
 10
144.8646610321703
 20
87.06611105543617
 10
144.9493242537203
 20
87.06611105543617
 10
144.9493242537203
 20
87.15077965994787
 10
145.0339874752704
 20
87.23544826445959
 97
        0
 75
     0
 76
     1
 98
        1
 10
0.0
 20
0.0
450
        0
451
        0
460
0.0
461
0.0
452
        0
462
0.0
453
        0
470

  0
LWPOLYLINE
  5
B1
330
70
100
AcDbEntity
  8
Capa 1
100
AcDbPolyline
 90
       86
 70
     0
 43
0.0
 10
144.9493242537203
 20
87.48944331207132
 10
144.9493242537203
 20
87.48944331207132
 10
144.8646610321703
 20
87.40478009052131
 10
144.7799870446969
 20
87.40478009052131
 10
144.7799870446969
 20
87.3201114860096
 10
144.6953238231469
 20
87.23544826445959
 10
144.6106606015969
 20
87.15077965994787
 10
144.6106606015969
 20
87.06611105543617
 10
144.6106606015969
 20
86.98144783388615
 10
145.0339874752704
 20
87.23544826445959
 10
145.1186614627437
 20
87.23544826445959
 10
145.2033246842938
 20
87.3201114860096
 10
145.2879879058438
 20
87.3201114860096
 10
145.3726618933172
 20
87.23544826445959
 10
145.4573251148672
 20
87.23544826445959
 10
145.5419883364172
 20
87.23544826445959
 10
145.5419883364172
 20
87.15077965994787
 10
145.6266623238906
 20
87.15077965994787
 10
145.7113255454407
 20
87.06611105543617
 10
145.7959887669907
 20
86.98144783388615
 10
145.7959887669907
 20
86.89677922937445
 10
145.8806627544641
 20
86.81211062486273
 10
145.9653259760141
 20
86.72744740331273
 10
145.9653259760141
 20
86.64278418176271
 10
145.9653259760141
 20
86.55811557725099
 10
146.0499891975641
 20
86.47345235570098
 10
146.1346631850375
 20
86.38878375118926
 10
146.1346631850375
 20
86.30411514667756
 10
146.2193264065875
 20
86.21945192512754
 10
146.2193264065875
 20
86.13478332061582
 10
146.2193264065875
 20
86.05012009906582
 10
146.3039896281375
 20
85.9654514945541
 10
146.3039896281375
 20
85.8807828900424
 10
146.3039896281375
 20
85.79611966849238
 10
146.3039896281375
 20
85.71145106398068
 10
146.2193264065875
 20
85.62678245946896
 10
146.1346631850375
 20
85.54211923791894
 10
146.0499891975641
 20
85.45745063340723
 10
145.6266623238906
 20
85.20345020283379
 10
145.7113255454407
 20
85.20345020283379
 10
145.7113255454407
 20
85.11878698128379
 10
145.7959887669907
 20
85.11878698128379
 10
145.8806627544641
 20
85.11878698128379
 10
145.9653259760141
 20
85.20345020283379
 10
146.0499891975641
 20
85.20345020283379
 10
146.1346631850375
 20
85.20345020283379
 10
146.2193264065875
 20
85.28811880734551
 10
146.3039896281375
 20
85.28811880734551
 10
146.3039896281375
 20
85.37278202889552
 10
146.3886528496875
 20
85.37278202889552
 10
146.3886528496875
 20
85.45745063340723
 10
146.473326837161
 20
85.54211923791894
 10
146.557990058711
 20
85.62678245946896
 10
146.557990058711
 20
85.71145106398068
 10
146.557990058711
 20
85.79611966849238
 10
146.557990058711
 20
85.8807828900424
 10
146.557990058711
 20
85.9654514945541
 10
146.557990058711
 20
86.05012009906582
 10
146.557990058711
 20
86.13478332061582
 10
146.557990058711
 20
86.21945192512754
 10
146.473326837161
 20
86.21945192512754
 10
146.473326837161
 20
86.30411514667756
 10
146.473326837161
 20
86.38878375118926
 10
146.3886528496875
 20
86.47345235570098
 10
146.3886528496875
 20
86.55811557725099
 10
146.3039896281375
 20
86.64278418176271
 10
146.3039896281375
 20
86.72744740331273
 10
146.2193264065875
 20
86.81211062486273
 10
146.2193264065875
 20
86.89677922937445
 10
146.1346631850375
 20
86.98144783388615
 10
146.0499891975641
 20
87.06611105543617
 10
146.0499891975641
 20
87.15077965994787
 10
145.9653259760141
 20
87.15077965994787
 10
145.9653259760141
 20
87.23544826445959
 10
145.8806627544641
 20
87.3201114860096
 10
145.7959887669907
 20
87.3201114860096
 10
145.7959887669907
 20
87.40478009052131
 10
145.7113255454407
 20
87.40478009052131
 10
145.6266623238906
 20
87.48944331207132
 10
145.5419883364172
 20
87.48944331207132
 10
145.4573251148672
 20
87.57411191658304
 10
145.3726618933172
 20
87.57411191658304
 10
145.2879879058438
 20
87.57411191658304
 10
145.2033246842938
 20
87.57411191658304
 10
145.1186614627437
 20
87.57411191658304
 10
145.0339874752704
 20
87.48944331207132
  0
HATCH
  5
B2
330
70
100
AcDbEntity
  8
Capa 1
 62
    18
420
        0
440
 33554687
100
AcDbHatch
 10
0.0
 20
0.0
 30
0.0
210
0.0
220
0.0
230
1.0
  2
SOLID
 70
     1
 71
     1
 91
        1
 92
        3
 72
     0
 73
     1
 93
       86
 10
144.9493242537203
 20
87.48944331207132
 10
144.9493242537203
 20
87.48944331207132
 10
144.8646610321703
 20
87.40478009052131
 10
144.7799870446969
 20
87.40478009052131
 10
144.7799870446969
 20
87.3201114860096
 10
144.6953238231469
 20
87.23544826445959
 10
144.6106606015969
 20
87.15077965994787
 10
144.6106606015969
 20
87.06611105543617
 10
144.6106606015969
 20
86.98144783388615
 10
145.0339874752704
 20
87.23544826445959
 10
145.1186614627437
 20
87.23544826445959
 10
145.2033246842938
 20
87.3201114860096
 10
145.2879879058438
 20
87.3201114860096
 10
145.3726618933172
 20
87.23544826445959
 10
145.4573251148672
 20
87.23544826445959
 10
145.5419883364172
 20
87.23544826445959
 10
145.5419883364172
 20
87.15077965994787
 10
145.6266623238906
 20
87.15077965994787
 10
145.7113255454407
 20
87.06611105543617
 10
145.7959887669907
 20
86.98144783388615
 10
145.7959887669907
 20
86.89677922937445
 10
145.8806627544641
 20
86.81211062486273
 10
145.9653259760141
 20
86.72744740331273
 10
145.9653259760141
 20
86.64278418176271
 10
145.9653259760141
 20
86.55811557725099
 10
146.0499891975641
 20
86.47345235570098
 10
146.1346631850375
 20
86.38878375118926
 10
146.1346631850375
 20
86.30411514667756
 10
146.2193264065875
 20
86.21945192512754
 10
146.2193264065875
 20
86.13478332061582
 10
146.2193264065875
 20
86.05012009906582
 10
146.3039896281375
 20
85.9654514945541
 10
146.3039896281375
 20
85.8807828900424
 10
146.3039896281375
 20
85.79611966849238
 10
146.3039896281375
 20
85.71145106398068
 10
146.2193264065875
 20
85.62678245946896
 10
146.1346631850375
 20
85.54211923791894
 10
146.0499891975641
 20
85.45745063340723
 10
145.6266623238906
 20
85.20345020283379
 10
145.7113255454407
 20
85.20345020283379
 10
145.7113255454407
 20
85.11878698128379
 10
145.7959887669907
 20
85.11878698128379
 10
145.8806627544641
 20
85.11878698128379
 10
145.9653259760141
 20
85.20345020283379
 10
146.0499891975641
 20
85.20345020283379
 10
146.1346631850375
 20
85.20345020283379
 10
146.2193264065875
 20
85.28811880734551
 10
146.3039896281375
 20
85.28811880734551
 10
146.3039896281375
 20
85.37278202889552
 10
146.3886528496875
 20
85.37278202889552
 10
146.3886528496875
 20
85.45745063340723
 10
146.473326837161
 20
85.54211923791894
 10
146.557990058711
 20
85.62678245946896
 10
146.557990058711
 20
85.71145106398068
 10
146.557990058711
 20
85.79611966849238
 10
146.557990058711
 20
85.8807828900424
 10
146.557990058711
 20
85.9654514945541
 10
146.557990058711
 20
86.05012009906582
 10
146.557990058711
 20
86.13478332061582
 10
146.557990058711
 20
86.21945192512754
 10
146.473326837161
 20
86.21945192512754
 10
146.473326837161
 20
86.30411514667756
 10
146.473326837161
 20
86.38878375118926
 10
146.3886528496875
 20
86.47345235570098
 10
146.3886528496875
 20
86.55811557725099
 10
146.3039896281375
 20
86.64278418176271
 10
146.3039896281375
 20
86.72744740331273
 10
146.2193264065875
 20
86.81211062486273
 10
146.2193264065875
 20
86.89677922937445
 10
146.1346631850375
 20
86.98144783388615
 10
146.0499891975641
 20
87.06611105543617
 10
146.0499891975641
 20
87.15077965994787
 10
145.9653259760141
 20
87.15077965994787
 10
145.9653259760141
 20
87.23544826445959
 10
145.8806627544641
 20
87.3201114860096
 10
145.7959887669907
 20
87.3201114860096
 10
145.7959887669907
 20
87.40478009052131
 10
145.7113255454407
 20
87.40478009052131
 10
145.6266623238906
 20
87.48944331207132
 10
145.5419883364172
 20
87.48944331207132
 10
145.4573251148672
 20
87.57411191658304
 10
145.3726618933172
 20
87.57411191658304
 10
145.2879879058438
 20
87.57411191658304
 10
145.2033246842938
 20
87.57411191658304
 10
145.1186614627437
 20
87.57411191658304
 10
145.0339874752704
 20
87.48944331207132
 97
        0
 75
     0
 76
     1
 98
        1
 10
0.0
 20
0.0
450
        0
451
        0
460
0.0
461
0.0
452
        0
462
0.0
453
        0
470

  0
SPLINE
  5
B3
330
70
100
AcDbEntity
  8
Capa 1
 62
    18
420
        0
370
     9
100
AcDbSpline
210
0.0
220
0.0
230
1.0
 70
    24
 71
     3
 72
     8
 73
     4
 74
     0
 42
0.0000000001
 43
0.0000000001
 40
0.0
 40
0.0
 40
0.0
 40
0.0
 40
1.0
 40
1.0
 40
1.0
 40
1.0
 10
80.09466427813986
 20
62.08910957479619
 30
0.0
 10
80.09466427813986
 20
62.08910957479619
 30
0.0
 10
62.65333008789298
 20
52.01377710525556
 30
0.0
 10
62.65333008789298
 20
52.01377710525556
 30
0.0
  0
SPLINE
  5
B4
330
70
100
AcDbEntity
  8
Capa 1
 62
    18
420
        0
370
     9
100
AcDbSpline
210
0.0
220
0.0
230
1.0
 70
    24
 71
     3
 72
     8
 73
     4
 74
     0
 42
0.0000000001
 43
0.0000000001
 40
0.0
 40
0.0
 40
0.0
 40
0.0
 40
1.0
 40
1.0
 40
1.0
 40
1.0
 10
41.14799708291368
 20
84.61044161058838
 30
0.0
 10
41.14799708291368
 20
84.61044161058838
 30
0.0
 10
23.62199697963595
 20
74.45044591949773
 30
0.0
 10
23.62199697963595
 20
74.45044591949773
 30
0.0
  0
SPLINE
  5
B5
330
70
100
AcDbEntity
  8
Capa 1
 62
    18
420
        0
370
     9
100
AcDbSpline
210
0.0
220
0.0
230
1.0
 70
    24
 71
     3
 72
     8
 73
     4
 74
     0
 42
0.0000000001
 43
0.0000000001
 40
0.0
 40
0.0
 40
0.0
 40
0.0
 40
1.0
 40
1.0
 40
1.0
 40
1.0
 10
61.04466428290235
 20
54.63844463253994
 30
0.0
 10
61.04466428290235
 20
54.63844463253994
 30
0.0
 10
28.1939993469961
 20
73.60377602326572
 30
0.0
 10
28.1939993469961
 20
73.60377602326572
 30
0.0
  0
LWPOLYLINE
  5
B6
330
70
100
AcDbEntity
  8
Capa 1
100
AcDbPolyline
 90
        3
 70
     0
 43
0.0
 10
61.38332793502581
 20
55.1464454936868
 10
60.79066385232891
 20
54.13044377139306
 10
64.09266406682188
 20
52.86044161852588
  0
HATCH
  5
B7
330
70
100
AcDbEntity
  8
Capa 1
 62
    18
420
        0
440
 33554687
100
AcDbHatch
 10
0.0
 20
0.0
 30
0.0
210
0.0
220
0.0
230
1.0
  2
SOLID
 70
     1
 71
     1
 91
        1
 92
        3
 72
     0
 73
     1
 93
        3
 10
61.38332793502581
 20
55.1464454936868
 10
60.79066385232891
 20
54.13044377139306
 10
64.09266406682188
 20
52.86044161852588
 97
        0
 75
     0
 76
     1
 98
        1
 10
0.0
 20
0.0
450
        0
451
        0
460
0.0
461
0.0
452
        0
462
0.0
453
        0
470

  0
LWPOLYLINE
  5
B8
330
70
100
AcDbEntity
  8
Capa 1
100
AcDbPolyline
 90
        3
 70
     0
 43
0.0
 10
28.44799708608869
 20
74.11177688441259
 10
27.85533031191095
 20
73.09577516211885
 10
25.14599687159572
 20
75.38177903727977
  0
HATCH
  5
B9
330
70
100
AcDbEntity
  8
Capa 1
 62
    18
420
        0
440
 33554687
100
AcDbHatch
 10
0.0
 20
0.0
 30
0.0
210
0.0
220
0.0
230
1.0
  2
SOLID
 70
     1
 71
     1
 91
        1
 92
        3
 72
     0
 73
     1
 93
        3
 10
28.44799708608869
 20
74.11177688441259
 10
27.85533031191095
 20
73.09577516211885
 10
25.14599687159572
 20
75.38177903727977
 97
        0
 75
     0
 76
     1
 98
        1
 10
0.0
 20
0.0
450
        0
451
        0
460
0.0
461
0.0
452
        0
462
0.0
453
        0
470

  0
LWPOLYLINE
  5
BA
330
70
100
AcDbEntity
  8
Capa 1
100
AcDbPolyline
 90
       13
 70
     0
 43
0.0
 10
45.12732998461525
 20
67.84644549051181
 10
44.95799815855352
 20
67.93110871206183
 10
43.17999783602032
 20
67.16911280330321
 10
43.01066331847775
 20
66.91511237272978
 10
43.94199643625978
 20
66.32244290707119
 10
43.60333009265548
 20
65.81444204592433
 10
43.94199643625978
 20
65.72977882437431
 10
44.19599686683322
 20
66.23777968552118
 10
44.53466321043751
 20
66.06844247649776
 10
44.61933181494923
 20
66.32244290707119
 10
44.36533138437579
 20
66.49177473313291
 10
43.43399826659376
 20
66.9997755942798
 10
44.61933181494923
 20
67.59244505993837
  0
HATCH
  5
BB
330
70
100
AcDbEntity
  8
Capa 1
 62
    18
420
        0
440
 33554687
100
AcDbHatch
 10
0.0
 20
0.0
 30
0.0
210
0.0
220
0.0
230
1.0
  2
SOLID
 70
     1
 71
     1
 91
        1
 92
        3
 72
     0
 73
     1
 93
       13
 10
45.12732998461525
 20
67.84644549051181
 10
44.95799815855352
 20
67.93110871206183
 10
43.17999783602032
 20
67.16911280330321
 10
43.01066331847775
 20
66.91511237272978
 10
43.94199643625978
 20
66.32244290707119
 10
43.60333009265548
 20
65.81444204592433
 10
43.94199643625978
 20
65.72977882437431
 10
44.19599686683322
 20
66.23777968552118
 10
44.53466321043751
 20
66.06844247649776
 10
44.61933181494923
 20
66.32244290707119
 10
44.36533138437579
 20
66.49177473313291
 10
43.43399826659376
 20
66.9997755942798
 10
44.61933181494923
 20
67.59244505993837
 97
        0
 75
     0
 76
     1
 98
        1
 10
0.0
 20
0.0
450
        0
451
        0
460
0.0
461
0.0
452
        0
462
0.0
453
        0
470

  0
LWPOLYLINE
  5
BC
330
70
100
AcDbEntity
  8
Capa 1
100
AcDbPolyline
 90
        5
 70
     0
 43
0.0
 10
45.12732998461525
 20
67.84644549051181
 10
44.61933181494923
 20
67.59244505993837
 10
44.11133095380235
 20
66.57644333764463
 10
43.43399826659376
 20
66.9997755942798
 10
44.36533138437579
 20
66.49177473313291
  0
HATCH
  5
BD
330
70
100
AcDbEntity
  8
Capa 1
 62
    18
420
        0
440
 33554687
100
AcDbHatch
 10
0.0
 20
0.0
 30
0.0
210
0.0
220
0.0
230
1.0
  2
SOLID
 70
     1
 71
     1
 91
        1
 92
        3
 72
     0
 73
     1
 93
        5
 10
45.12732998461525
 20
67.84644549051181
 10
44.61933181494923
 20
67.59244505993837
 10
44.11133095380235
 20
66.57644333764463
 10
43.43399826659376
 20
66.9997755942798
 10
44.36533138437579
 20
66.49177473313291
 97
        0
 75
     0
 76
     1
 98
        1
 10
0.0
 20
0.0
450
        0
451
        0
460
0.0
461
0.0
452
        0
462
0.0
453
        0
470

  0
LWPOLYLINE
  5
BE
330
70
100
AcDbEntity
  8
Capa 1
100
AcDbPolyline
 90
       34
 70
     0
 43
0.0
 10
45.12732998461525
 20
65.81444204592433
 10
44.78866364101095
 20
65.89911065043603
 10
44.78866364101095
 20
65.72977882437431
 10
44.70399772798009
 20
65.72977882437431
 10
44.70399772798009
 20
65.6451102198626
 10
44.70399772798009
 20
65.56044161535088
 10
44.70399772798009
 20
65.47577839380086
 10
44.78866364101095
 20
65.39110978928916
 10
44.78866364101095
 20
65.30644118477745
 10
44.78866364101095
 20
65.22177796322743
 10
44.87333224552266
 20
65.22177796322743
 10
44.87333224552266
 20
65.13710935871571
 10
44.95799815855352
 20
65.13710935871571
 10
44.95799815855352
 20
65.05244613716572
 10
45.04266407158438
 20
64.967777532654
 10
45.12732998461525
 20
64.967777532654
 10
45.12732998461525
 20
64.88310892814229
 10
45.21199589764611
 20
64.88310892814229
 10
45.29666450215782
 20
64.88310892814229
 10
45.38132772370784
 20
64.79844570659228
 10
45.46599632821954
 20
64.79844570659228
 10
45.55066493273126
 20
64.79844570659228
 10
45.63532815428128
 20
64.79844570659228
 10
45.71999675879299
 20
64.79844570659228
 10
45.80466536330469
 20
64.79844570659228
 10
45.29666450215782
 20
65.13710935871571
 10
45.21199589764611
 20
65.22177796322743
 10
45.12732998461525
 20
65.22177796322743
 10
45.12732998461525
 20
65.30644118477745
 10
45.04266407158438
 20
65.39110978928916
 10
45.04266407158438
 20
65.47577839380086
 10
45.04266407158438
 20
65.56044161535088
 10
45.04266407158438
 20
65.6451102198626
 10
45.04266407158438
 20
65.72977882437431
  0
HATCH
  5
BF
330
70
100
AcDbEntity
  8
Capa 1
 62
    18
420
        0
440
 33554687
100
AcDbHatch
 10
0.0
 20
0.0
 30
0.0
210
0.0
220
0.0
230
1.0
  2
SOLID
 70
     1
 71
     1
 91
        1
 92
        3
 72
     0
 73
     1
 93
       34
 10
45.12732998461525
 20
65.81444204592433
 10
44.78866364101095
 20
65.89911065043603
 10
44.78866364101095
 20
65.72977882437431
 10
44.70399772798009
 20
65.72977882437431
 10
44.70399772798009
 20
65.6451102198626
 10
44.70399772798009
 20
65.56044161535088
 10
44.70399772798009
 20
65.47577839380086
 10
44.78866364101095
 20
65.39110978928916
 10
44.78866364101095
 20
65.30644118477745
 10
44.78866364101095
 20
65.22177796322743
 10
44.87333224552266
 20
65.22177796322743
 10
44.87333224552266
 20
65.13710935871571
 10
44.95799815855352
 20
65.13710935871571
 10
44.95799815855352
 20
65.05244613716572
 10
45.04266407158438
 20
64.967777532654
 10
45.12732998461525
 20
64.967777532654
 10
45.12732998461525
 20
64.88310892814229
 10
45.21199589764611
 20
64.88310892814229
 10
45.29666450215782
 20
64.88310892814229
 10
45.38132772370784
 20
64.79844570659228
 10
45.46599632821954
 20
64.79844570659228
 10
45.55066493273126
 20
64.79844570659228
 10
45.63532815428128
 20
64.79844570659228
 10
45.71999675879299
 20
64.79844570659228
 10
45.80466536330469
 20
64.79844570659228
 10
45.29666450215782
 20
65.13710935871571
 10
45.21199589764611
 20
65.22177796322743
 10
45.12732998461525
 20
65.22177796322743
 10
45.12732998461525
 20
65.30644118477745
 10
45.04266407158438
 20
65.39110978928916
 10
45.04266407158438
 20
65.47577839380086
 10
45.04266407158438
 20
65.56044161535088
 10
45.04266407158438
 20
65.6451102198626
 10
45.04266407158438
 20
65.72977882437431
 97
        0
 75
     0
 76
     1
 98
        1
 10
0.0
 20
0.0
450
        0
451
        0
460
0.0
461
0.0
452
        0
462
0.0
453
        0
470

  0
LWPOLYLINE
  5
C0
330
70
100
AcDbEntity
  8
Capa 1
100
AcDbPolyline
 90
       38
 70
     0
 43
0.0
 10
46.39732944600157
 20
65.89911065043603
 10
45.8893285848547
 20
66.15311108100947
 10
45.97399718936642
 20
66.06844247649776
 10
46.05866041091643
 20
65.98377925494775
 10
46.05866041091643
 20
65.89911065043603
 10
46.14332901542814
 20
65.81444204592433
 10
46.14332901542814
 20
65.72977882437431
 10
46.14332901542814
 20
65.6451102198626
 10
46.05866041091643
 20
65.56044161535088
 10
46.05866041091643
 20
65.47577839380086
 10
46.05866041091643
 20
65.39110978928916
 10
45.97399718936642
 20
65.30644118477745
 10
45.8893285848547
 20
65.22177796322743
 10
45.80466536330469
 20
65.13710935871571
 10
45.71999675879299
 20
65.13710935871571
 10
45.63532815428128
 20
65.13710935871571
 10
45.63532815428128
 20
65.05244613716572
 10
45.55066493273126
 20
65.05244613716572
 10
45.46599632821954
 20
65.05244613716572
 10
45.38132772370784
 20
65.05244613716572
 10
45.38132772370784
 20
65.13710935871571
 10
45.29666450215782
 20
65.13710935871571
 10
45.80466536330469
 20
64.79844570659228
 10
45.8893285848547
 20
64.88310892814229
 10
45.97399718936642
 20
64.88310892814229
 10
45.97399718936642
 20
64.967777532654
 10
46.05866041091643
 20
64.967777532654
 10
46.14332901542814
 20
64.967777532654
 10
46.14332901542814
 20
65.05244613716572
 10
46.22799761993985
 20
65.13710935871571
 10
46.31266084148987
 20
65.22177796322743
 10
46.31266084148987
 20
65.30644118477745
 10
46.39732944600157
 20
65.39110978928916
 10
46.39732944600157
 20
65.47577839380086
 10
46.48199805051329
 20
65.56044161535088
 10
46.48199805051329
 20
65.6451102198626
 10
46.48199805051329
 20
65.72977882437431
 10
46.48199805051329
 20
65.81444204592433
  0
HATCH
  5
C1
330
70
100
AcDbEntity
  8
Capa 1
 62
    18
420
        0
440
 33554687
100
AcDbHatch
 10
0.0
 20
0.0
 30
0.0
210
0.0
220
0.0
230
1.0
  2
SOLID
 70
     1
 71
     1
 91
        1
 92
        3
 72
     0
 73
     1
 93
       38
 10
46.39732944600157
 20
65.89911065043603
 10
45.8893285848547
 20
66.15311108100947
 10
45.97399718936642
 20
66.06844247649776
 10
46.05866041091643
 20
65.98377925494775
 10
46.05866041091643
 20
65.89911065043603
 10
46.14332901542814
 20
65.81444204592433
 10
46.14332901542814
 20
65.72977882437431
 10
46.14332901542814
 20
65.6451102198626
 10
46.05866041091643
 20
65.56044161535088
 10
46.05866041091643
 20
65.47577839380086
 10
46.05866041091643
 20
65.39110978928916
 10
45.97399718936642
 20
65.30644118477745
 10
45.8893285848547
 20
65.22177796322743
 10
45.80466536330469
 20
65.13710935871571
 10
45.71999675879299
 20
65.13710935871571
 10
45.63532815428128
 20
65.13710935871571
 10
45.63532815428128
 20
65.05244613716572
 10
45.55066493273126
 20
65.05244613716572
 10
45.46599632821954
 20
65.05244613716572
 10
45.38132772370784
 20
65.05244613716572
 10
45.38132772370784
 20
65.13710935871571
 10
45.29666450215782
 20
65.13710935871571
 10
45.80466536330469
 20
64.79844570659228
 10
45.8893285848547
 20
64.88310892814229
 10
45.97399718936642
 20
64.88310892814229
 10
45.97399718936642
 20
64.967777532654
 10
46.05866041091643
 20
64.967777532654
 10
46.14332901542814
 20
64.967777532654
 10
46.14332901542814
 20
65.05244613716572
 10
46.22799761993985
 20
65.13710935871571
 10
46.31266084148987
 20
65.22177796322743
 10
46.31266084148987
 20
65.30644118477745
 10
46.39732944600157
 20
65.39110978928916
 10
46.39732944600157
 20
65.47577839380086
 10
46.48199805051329
 20
65.56044161535088
 10
46.48199805051329
 20
65.6451102198626
 10
46.48199805051329
 20
65.72977882437431
 10
46.48199805051329
 20
65.81444204592433
 97
        0
 75
     0
 76
     1
 98
        1
 10
0.0
 20
0.0
450
        0
451
        0
460
0.0
461
0.0
452
        0
462
0.0
453
        0
470

  0
LWPOLYLINE
  5
C2
330
70
100
AcDbEntity
  8
Capa 1
100
AcDbPolyline
 90
       14
 70
     0
 43
0.0
 10
46.05866041091643
 20
66.32244290707119
 10
46.05866041091643
 20
66.32244290707119
 10
45.97399718936642
 20
66.40711151158289
 10
45.8893285848547
 20
66.40711151158289
 10
45.80466536330469
 20
66.40711151158289
 10
45.71999675879299
 20
66.49177473313291
 10
45.63532815428128
 20
66.49177473313291
 10
45.55066493273126
 20
66.49177473313291
 10
46.39732944600157
 20
65.98377925494775
 10
46.31266084148987
 20
66.06844247649776
 10
46.31266084148987
 20
66.15311108100947
 10
46.22799761993985
 20
66.23777968552118
 10
46.14332901542814
 20
66.23777968552118
 10
46.14332901542814
 20
66.32244290707119
  0
HATCH
  5
C3
330
70
100
AcDbEntity
  8
Capa 1
 62
    18
420
        0
440
 33554687
100
AcDbHatch
 10
0.0
 20
0.0
 30
0.0
210
0.0
220
0.0
230
1.0
  2
SOLID
 70
     1
 71
     1
 91
        1
 92
        3
 72
     0
 73
     1
 93
       14
 10
46.05866041091643
 20
66.32244290707119
 10
46.05866041091643
 20
66.32244290707119
 10
45.97399718936642
 20
66.40711151158289
 10
45.8893285848547
 20
66.40711151158289
 10
45.80466536330469
 20
66.40711151158289
 10
45.71999675879299
 20
66.49177473313291
 10
45.63532815428128
 20
66.49177473313291
 10
45.55066493273126
 20
66.49177473313291
 10
46.39732944600157
 20
65.98377925494775
 10
46.31266084148987
 20
66.06844247649776
 10
46.31266084148987
 20
66.15311108100947
 10
46.22799761993985
 20
66.23777968552118
 10
46.14332901542814
 20
66.23777968552118
 10
46.14332901542814
 20
66.32244290707119
 97
        0
 75
     0
 76
     1
 98
        1
 10
0.0
 20
0.0
450
        0
451
        0
460
0.0
461
0.0
452
        0
462
0.0
453
        0
470

  0
LWPOLYLINE
  5
C4
330
70
100
AcDbEntity
  8
Capa 1
100
AcDbPolyline
 90
       16
 70
     0
 43
0.0
 10
47.07466213321017
 20
66.74577516370636
 10
45.97399718936642
 20
67.33844462936494
 10
45.12732998461525
 20
66.32244290707119
 10
45.38132772370784
 20
66.15311108100947
 10
45.38132772370784
 20
66.23777968552118
 10
45.46599632821954
 20
66.23777968552118
 10
45.55066493273126
 20
66.23777968552118
 10
45.63532815428128
 20
66.23777968552118
 10
45.71999675879299
 20
66.23777968552118
 10
45.80466536330469
 20
66.15311108100947
 10
45.8893285848547
 20
66.15311108100947
 10
46.39732944600157
 20
65.89911065043603
 10
46.39732944600157
 20
65.98377925494775
 10
45.55066493273126
 20
66.49177473313291
 10
46.05866041091643
 20
66.9997755942798
 10
46.90533030714845
 20
66.49177473313291
  0
HATCH
  5
C5
330
70
100
AcDbEntity
  8
Capa 1
 62
    18
420
        0
440
 33554687
100
AcDbHatch
 10
0.0
 20
0.0
 30
0.0
210
0.0
220
0.0
230
1.0
  2
SOLID
 70
     1
 71
     1
 91
        1
 92
        3
 72
     0
 73
     1
 93
       16
 10
47.07466213321017
 20
66.74577516370636
 10
45.97399718936642
 20
67.33844462936494
 10
45.12732998461525
 20
66.32244290707119
 10
45.38132772370784
 20
66.15311108100947
 10
45.38132772370784
 20
66.23777968552118
 10
45.46599632821954
 20
66.23777968552118
 10
45.55066493273126
 20
66.23777968552118
 10
45.63532815428128
 20
66.23777968552118
 10
45.71999675879299
 20
66.23777968552118
 10
45.80466536330469
 20
66.15311108100947
 10
45.8893285848547
 20
66.15311108100947
 10
46.39732944600157
 20
65.89911065043603
 10
46.39732944600157
 20
65.98377925494775
 10
45.55066493273126
 20
66.49177473313291
 10
46.05866041091643
 20
66.9997755942798
 10
46.90533030714845
 20
66.49177473313291
 97
        0
 75
     0
 76
     1
 98
        1
 10
0.0
 20
0.0
450
        0
451
        0
460
0.0
461
0.0
452
        0
462
0.0
453
        0
470

  0
LWPOLYLINE
  5
C6
330
70
100
AcDbEntity
  8
Capa 1
100
AcDbPolyline
 90
       59
 70
     0
 43
0.0
 10
47.49799438984534
 20
66.23777968552118
 10
47.41333116829532
 20
66.15311108100947
 10
47.32866256378361
 20
66.06844247649776
 10
47.2439939592719
 20
66.06844247649776
 10
47.2439939592719
 20
65.98377925494775
 10
47.15933073772188
 20
65.98377925494775
 10
47.15933073772188
 20
65.89911065043603
 10
47.07466213321017
 20
65.89911065043603
 10
47.07466213321017
 20
65.81444204592433
 10
46.98999891166017
 20
65.72977882437431
 10
46.90533030714845
 20
65.6451102198626
 10
46.90533030714845
 20
65.56044161535088
 10
46.82066170263674
 20
65.56044161535088
 10
46.82066170263674
 20
65.47577839380086
 10
46.73599848108672
 20
65.39110978928916
 10
46.73599848108672
 20
65.30644118477745
 10
46.65132987657502
 20
65.22177796322743
 10
46.65132987657502
 20
65.13710935871571
 10
46.56666127206331
 20
65.05244613716572
 10
46.56666127206331
 20
64.967777532654
 10
46.56666127206331
 20
64.88310892814229
 10
46.48199805051329
 20
64.88310892814229
 10
46.48199805051329
 20
64.79844570659228
 10
46.48199805051329
 20
64.71377710208057
 10
46.48199805051329
 20
64.62910849756885
 10
46.48199805051329
 20
64.54444527601883
 10
46.48199805051329
 20
64.45977667150713
 10
46.48199805051329
 20
64.37510806699542
 10
46.98999891166017
 20
64.20577624093368
 10
46.90533030714845
 20
64.20577624093368
 10
46.90533030714845
 20
64.2904448454454
 10
46.82066170263674
 20
64.2904448454454
 10
46.82066170263674
 20
64.37510806699542
 10
46.82066170263674
 20
64.45977667150713
 10
46.73599848108672
 20
64.54444527601883
 10
46.73599848108672
 20
64.62910849756885
 10
46.82066170263674
 20
64.62910849756885
 10
46.82066170263674
 20
64.71377710208057
 10
46.82066170263674
 20
64.79844570659228
 10
46.82066170263674
 20
64.88310892814229
 10
46.90533030714845
 20
64.967777532654
 10
46.90533030714845
 20
65.05244613716572
 10
46.98999891166017
 20
65.13710935871571
 10
46.98999891166017
 20
65.22177796322743
 10
47.07466213321017
 20
65.30644118477745
 10
47.15933073772188
 20
65.39110978928916
 10
47.15933073772188
 20
65.47577839380086
 10
47.2439939592719
 20
65.56044161535088
 10
47.2439939592719
 20
65.6451102198626
 10
47.32866256378361
 20
65.6451102198626
 10
47.32866256378361
 20
65.72977882437431
 10
47.41333116829532
 20
65.81444204592433
 10
47.49799438984534
 20
65.89911065043603
 10
47.58266299435705
 20
65.89911065043603
 10
47.66733159886875
 20
65.98377925494775
 10
47.75199482041877
 20
65.98377925494775
 10
47.83666342493048
 20
65.98377925494775
 10
47.9213320294422
 20
65.98377925494775
 10
48.00599525099221
 20
65.89911065043603
  0
HATCH
  5
C7
330
70
100
AcDbEntity
  8
Capa 1
 62
    18
420
        0
440
 33554687
100
AcDbHatch
 10
0.0
 20
0.0
 30
0.0
210
0.0
220
0.0
230
1.0
  2
SOLID
 70
     1
 71
     1
 91
        1
 92
        3
 72
     0
 73
     1
 93
       59
 10
47.49799438984534
 20
66.23777968552118
 10
47.41333116829532
 20
66.15311108100947
 10
47.32866256378361
 20
66.06844247649776
 10
47.2439939592719
 20
66.06844247649776
 10
47.2439939592719
 20
65.98377925494775
 10
47.15933073772188
 20
65.98377925494775
 10
47.15933073772188
 20
65.89911065043603
 10
47.07466213321017
 20
65.89911065043603
 10
47.07466213321017
 20
65.81444204592433
 10
46.98999891166017
 20
65.72977882437431
 10
46.90533030714845
 20
65.6451102198626
 10
46.90533030714845
 20
65.56044161535088
 10
46.82066170263674
 20
65.56044161535088
 10
46.82066170263674
 20
65.47577839380086
 10
46.73599848108672
 20
65.39110978928916
 10
46.73599848108672
 20
65.30644118477745
 10
46.65132987657502
 20
65.22177796322743
 10
46.65132987657502
 20
65.13710935871571
 10
46.56666127206331
 20
65.05244613716572
 10
46.56666127206331
 20
64.967777532654
 10
46.56666127206331
 20
64.88310892814229
 10
46.48199805051329
 20
64.88310892814229
 10
46.48199805051329
 20
64.79844570659228
 10
46.48199805051329
 20
64.71377710208057
 10
46.48199805051329
 20
64.62910849756885
 10
46.48199805051329
 20
64.54444527601883
 10
46.48199805051329
 20
64.45977667150713
 10
46.48199805051329
 20
64.37510806699542
 10
46.98999891166017
 20
64.20577624093368
 10
46.90533030714845
 20
64.20577624093368
 10
46.90533030714845
 20
64.2904448454454
 10
46.82066170263674
 20
64.2904448454454
 10
46.82066170263674
 20
64.37510806699542
 10
46.82066170263674
 20
64.45977667150713
 10
46.73599848108672
 20
64.54444527601883
 10
46.73599848108672
 20
64.62910849756885
 10
46.82066170263674
 20
64.62910849756885
 10
46.82066170263674
 20
64.71377710208057
 10
46.82066170263674
 20
64.79844570659228
 10
46.82066170263674
 20
64.88310892814229
 10
46.90533030714845
 20
64.967777532654
 10
46.90533030714845
 20
65.05244613716572
 10
46.98999891166017
 20
65.13710935871571
 10
46.98999891166017
 20
65.22177796322743
 10
47.07466213321017
 20
65.30644118477745
 10
47.15933073772188
 20
65.39110978928916
 10
47.15933073772188
 20
65.47577839380086
 10
47.2439939592719
 20
65.56044161535088
 10
47.2439939592719
 20
65.6451102198626
 10
47.32866256378361
 20
65.6451102198626
 10
47.32866256378361
 20
65.72977882437431
 10
47.41333116829532
 20
65.81444204592433
 10
47.49799438984534
 20
65.89911065043603
 10
47.58266299435705
 20
65.89911065043603
 10
47.66733159886875
 20
65.98377925494775
 10
47.75199482041877
 20
65.98377925494775
 10
47.83666342493048
 20
65.98377925494775
 10
47.9213320294422
 20
65.98377925494775
 10
48.00599525099221
 20
65.89911065043603
 97
        0
 75
     0
 76
     1
 98
        1
 10
0.0
 20
0.0
450
        0
451
        0
460
0.0
461
0.0
452
        0
462
0.0
453
        0
470

  0
LWPOLYLINE
  5
C8
330
70
100
AcDbEntity
  8
Capa 1
100
AcDbPolyline
 90
       93
 70
     0
 43
0.0
 10
48.09066385550392
 20
66.15311108100947
 10
48.09066385550392
 20
66.15311108100947
 10
48.00599525099221
 20
66.15311108100947
 10
48.00599525099221
 20
66.23777968552118
 10
47.9213320294422
 20
66.23777968552118
 10
47.83666342493048
 20
66.23777968552118
 10
47.75199482041877
 20
66.23777968552118
 10
47.66733159886875
 20
66.23777968552118
 10
47.58266299435705
 20
66.23777968552118
 10
47.49799438984534
 20
66.23777968552118
 10
48.00599525099221
 20
65.89911065043603
 10
48.09066385550392
 20
65.89911065043603
 10
48.09066385550392
 20
65.81444204592433
 10
48.17532707705393
 20
65.81444204592433
 10
48.17532707705393
 20
65.72977882437431
 10
48.17532707705393
 20
65.6451102198626
 10
48.17532707705393
 20
65.56044161535088
 10
48.17532707705393
 20
65.47577839380086
 10
48.17532707705393
 20
65.39110978928916
 10
48.17532707705393
 20
65.30644118477745
 10
48.17532707705393
 20
65.22177796322743
 10
48.09066385550392
 20
65.22177796322743
 10
48.09066385550392
 20
65.13710935871571
 10
48.00599525099221
 20
65.05244613716572
 10
48.00599525099221
 20
64.967777532654
 10
47.9213320294422
 20
64.88310892814229
 10
47.9213320294422
 20
64.79844570659228
 10
47.83666342493048
 20
64.71377710208057
 10
47.83666342493048
 20
64.62910849756885
 10
47.75199482041877
 20
64.54444527601883
 10
47.75199482041877
 20
64.45977667150713
 10
47.66733159886875
 20
64.45977667150713
 10
47.66733159886875
 20
64.37510806699542
 10
47.58266299435705
 20
64.2904448454454
 10
47.49799438984534
 20
64.20577624093368
 10
47.41333116829532
 20
64.20577624093368
 10
47.41333116829532
 20
64.12111301938368
 10
47.32866256378361
 20
64.12111301938368
 10
47.2439939592719
 20
64.12111301938368
 10
47.15933073772188
 20
64.12111301938368
 10
47.07466213321017
 20
64.12111301938368
 10
46.98999891166017
 20
64.20577624093368
 10
46.48199805051329
 20
64.37510806699542
 10
46.56666127206331
 20
64.2904448454454
 10
46.56666127206331
 20
64.20577624093368
 10
46.65132987657502
 20
64.12111301938368
 10
46.65132987657502
 20
64.03644441487196
 10
46.73599848108672
 20
64.03644441487196
 10
46.82066170263674
 20
63.95177581036026
 10
46.90533030714845
 20
63.86711258881025
 10
46.98999891166017
 20
63.86711258881025
 10
47.07466213321017
 20
63.86711258881025
 10
47.15933073772188
 20
63.86711258881025
 10
47.2439939592719
 20
63.86711258881025
 10
47.32866256378361
 20
63.86711258881025
 10
47.41333116829532
 20
63.86711258881025
 10
47.49799438984534
 20
63.86711258881025
 10
47.49799438984534
 20
63.95177581036026
 10
47.58266299435705
 20
63.95177581036026
 10
47.66733159886875
 20
63.95177581036026
 10
47.66733159886875
 20
64.03644441487196
 10
47.75199482041877
 20
64.03644441487196
 10
47.75199482041877
 20
64.12111301938368
 10
47.83666342493048
 20
64.12111301938368
 10
47.83666342493048
 20
64.20577624093368
 10
47.9213320294422
 20
64.20577624093368
 10
47.9213320294422
 20
64.2904448454454
 10
48.00599525099221
 20
64.2904448454454
 10
48.00599525099221
 20
64.37510806699542
 10
48.09066385550392
 20
64.45977667150713
 10
48.17532707705393
 20
64.54444527601883
 10
48.17532707705393
 20
64.62910849756885
 10
48.17532707705393
 20
64.71377710208057
 10
48.25999568156564
 20
64.71377710208057
 10
48.25999568156564
 20
64.79844570659228
 10
48.34466428607735
 20
64.88310892814229
 10
48.34466428607735
 20
64.967777532654
 10
48.34466428607735
 20
65.05244613716572
 10
48.42932750762737
 20
65.05244613716572
 10
48.42932750762737
 20
65.13710935871571
 10
48.42932750762737
 20
65.22177796322743
 10
48.42932750762737
 20
65.30644118477745
 10
48.51399611213908
 20
65.39110978928916
 10
48.51399611213908
 20
65.47577839380086
 10
48.51399611213908
 20
65.56044161535088
 10
48.51399611213908
 20
65.6451102198626
 10
48.42932750762737
 20
65.72977882437431
 10
48.42932750762737
 20
65.81444204592433
 10
48.34466428607735
 20
65.89911065043603
 10
48.34466428607735
 20
65.98377925494775
 10
48.25999568156564
 20
65.98377925494775
 10
48.25999568156564
 20
66.06844247649776
 10
48.17532707705393
 20
66.06844247649776
  0
HATCH
  5
C9
330
70
100
AcDbEntity
  8
Capa 1
 62
    18
420
        0
440
 33554687
100
AcDbHatch
 10
0.0
 20
0.0
 30
0.0
210
0.0
220
0.0
230
1.0
  2
SOLID
 70
     1
 71
     1
 91
        1
 92
        3
 72
     0
 73
     1
 93
       93
 10
48.09066385550392
 20
66.15311108100947
 10
48.09066385550392
 20
66.15311108100947
 10
48.00599525099221
 20
66.15311108100947
 10
48.00599525099221
 20
66.23777968552118
 10
47.9213320294422
 20
66.23777968552118
 10
47.83666342493048
 20
66.23777968552118
 10
47.75199482041877
 20
66.23777968552118
 10
47.66733159886875
 20
66.23777968552118
 10
47.58266299435705
 20
66.23777968552118
 10
47.49799438984534
 20
66.23777968552118
 10
48.00599525099221
 20
65.89911065043603
 10
48.09066385550392
 20
65.89911065043603
 10
48.09066385550392
 20
65.81444204592433
 10
48.17532707705393
 20
65.81444204592433
 10
48.17532707705393
 20
65.72977882437431
 10
48.17532707705393
 20
65.6451102198626
 10
48.17532707705393
 20
65.56044161535088
 10
48.17532707705393
 20
65.47577839380086
 10
48.17532707705393
 20
65.39110978928916
 10
48.17532707705393
 20
65.30644118477745
 10
48.17532707705393
 20
65.22177796322743
 10
48.09066385550392
 20
65.22177796322743
 10
48.09066385550392
 20
65.13710935871571
 10
48.00599525099221
 20
65.05244613716572
 10
48.00599525099221
 20
64.967777532654
 10
47.9213320294422
 20
64.88310892814229
 10
47.9213320294422
 20
64.79844570659228
 10
47.83666342493048
 20
64.71377710208057
 10
47.83666342493048
 20
64.62910849756885
 10
47.75199482041877
 20
64.54444527601883
 10
47.75199482041877
 20
64.45977667150713
 10
47.66733159886875
 20
64.45977667150713
 10
47.66733159886875
 20
64.37510806699542
 10
47.58266299435705
 20
64.2904448454454
 10
47.49799438984534
 20
64.20577624093368
 10
47.41333116829532
 20
64.20577624093368
 10
47.41333116829532
 20
64.12111301938368
 10
47.32866256378361
 20
64.12111301938368
 10
47.2439939592719
 20
64.12111301938368
 10
47.15933073772188
 20
64.12111301938368
 10
47.07466213321017
 20
64.12111301938368
 10
46.98999891166017
 20
64.20577624093368
 10
46.48199805051329
 20
64.37510806699542
 10
46.56666127206331
 20
64.2904448454454
 10
46.56666127206331
 20
64.20577624093368
 10
46.65132987657502
 20
64.12111301938368
 10
46.65132987657502
 20
64.03644441487196
 10
46.73599848108672
 20
64.03644441487196
 10
46.82066170263674
 20
63.95177581036026
 10
46.90533030714845
 20
63.86711258881025
 10
46.98999891166017
 20
63.86711258881025
 10
47.07466213321017
 20
63.86711258881025
 10
47.15933073772188
 20
63.86711258881025
 10
47.2439939592719
 20
63.86711258881025
 10
47.32866256378361
 20
63.86711258881025
 10
47.41333116829532
 20
63.86711258881025
 10
47.49799438984534
 20
63.86711258881025
 10
47.49799438984534
 20
63.95177581036026
 10
47.58266299435705
 20
63.95177581036026
 10
47.66733159886875
 20
63.95177581036026
 10
47.66733159886875
 20
64.03644441487196
 10
47.75199482041877
 20
64.03644441487196
 10
47.75199482041877
 20
64.12111301938368
 10
47.83666342493048
 20
64.12111301938368
 10
47.83666342493048
 20
64.20577624093368
 10
47.9213320294422
 20
64.20577624093368
 10
47.9213320294422
 20
64.2904448454454
 10
48.00599525099221
 20
64.2904448454454
 10
48.00599525099221
 20
64.37510806699542
 10
48.09066385550392
 20
64.45977667150713
 10
48.17532707705393
 20
64.54444527601883
 10
48.17532707705393
 20
64.62910849756885
 10
48.17532707705393
 20
64.71377710208057
 10
48.25999568156564
 20
64.71377710208057
 10
48.25999568156564
 20
64.79844570659228
 10
48.34466428607735
 20
64.88310892814229
 10
48.34466428607735
 20
64.967777532654
 10
48.34466428607735
 20
65.05244613716572
 10
48.42932750762737
 20
65.05244613716572
 10
48.42932750762737
 20
65.13710935871571
 10
48.42932750762737
 20
65.22177796322743
 10
48.42932750762737
 20
65.30644118477745
 10
48.51399611213908
 20
65.39110978928916
 10
48.51399611213908
 20
65.47577839380086
 10
48.51399611213908
 20
65.56044161535088
 10
48.51399611213908
 20
65.6451102198626
 10
48.42932750762737
 20
65.72977882437431
 10
48.42932750762737
 20
65.81444204592433
 10
48.34466428607735
 20
65.89911065043603
 10
48.34466428607735
 20
65.98377925494775
 10
48.25999568156564
 20
65.98377925494775
 10
48.25999568156564
 20
66.06844247649776
 10
48.17532707705393
 20
66.06844247649776
 97
        0
 75
     0
 76
     1
 98
        1
 10
0.0
 20
0.0
450
        0
451
        0
460
0.0
461
0.0
452
        0
462
0.0
453
        0
470

  0
SPLINE
  5
CA
330
70
100
AcDbEntity
  8
Capa 1
 62
    18
420
        0
370
     9
100
AcDbSpline
210
0.0
220
0.0
230
1.0
 70
    24
 71
     3
 72
     8
 73
     4
 74
     0
 42
0.0000000001
 43
0.0000000001
 40
0.0
 40
0.0
 40
0.0
 40
0.0
 40
1.0
 40
1.0
 40
1.0
 40
1.0
 10
41.14799708291368
 20
84.61044161058838
 30
0.0
 10
41.14799708291368
 20
84.61044161058838
 30
0.0
 10
23.62199697963595
 20
74.45044591949773
 30
0.0
 10
23.62199697963595
 20
74.45044591949773
 30
0.0
  0
SPLINE
  5
CB
330
70
100
AcDbEntity
  8
Capa 1
 62
    18
420
        0
370
     9
100
AcDbSpline
210
0.0
220
0.0
230
1.0
 70
    24
 71
     3
 72
     8
 73
     4
 74
     0
 42
0.0000000001
 43
0.0000000001
 40
0.0
 40
0.0
 40
0.0
 40
0.0
 40
1.0
 40
1.0
 40
1.0
 40
1.0
 10
41.14799708291368
 20
142.5227712486846
 30
0.0
 10
41.14799708291368
 20
142.5227712486846
 30
0.0
 10
23.62199697963595
 20
132.447438779144
 30
0.0
 10
23.62199697963595
 20
132.447438779144
 30
0.0
  0
SPLINE
  5
CC
330
70
100
AcDbEntity
  8
Capa 1
 62
    18
420
        0
370
     9
100
AcDbSpline
210
0.0
220
0.0
230
1.0
 70
    24
 71
     3
 72
     8
 73
     4
 74
     0
 42
0.0000000001
 43
0.0000000001
 40
0.0
 40
0.0
 40
0.0
 40
0.0
 40
1.0
 40
1.0
 40
1.0
 40
1.0
 10
25.14599687159572
 20
78.85311107783447
 30
0.0
 10
25.14599687159572
 20
78.85311107783447
 30
0.0
 10
25.14599687159572
 20
129.8227712518596
 30
0.0
 10
25.14599687159572
 20
129.8227712518596
 30
0.0
  0
LWPOLYLINE
  5
CD
330
70
100
AcDbEntity
  8
Capa 1
100
AcDbPolyline
 90
        3
 70
     0
 43
0.0
 10
24.55333009741798
 20
78.85311107783447
 10
25.73866364577345
 20
78.85311107783447
 10
25.14599687159572
 20
75.38177903727977
  0
HATCH
  5
CE
330
70
100
AcDbEntity
  8
Capa 1
 62
    18
420
        0
440
 33554687
100
AcDbHatch
 10
0.0
 20
0.0
 30
0.0
210
0.0
220
0.0
230
1.0
  2
SOLID
 70
     1
 71
     1
 91
        1
 92
        3
 72
     0
 73
     1
 93
        3
 10
24.55333009741798
 20
78.85311107783447
 10
25.73866364577345
 20
78.85311107783447
 10
25.14599687159572
 20
75.38177903727977
 97
        0
 75
     0
 76
     1
 98
        1
 10
0.0
 20
0.0
450
        0
451
        0
460
0.0
461
0.0
452
        0
462
0.0
453
        0
470

  0
LWPOLYLINE
  5
CF
330
70
100
AcDbEntity
  8
Capa 1
100
AcDbPolyline
 90
        3
 70
     0
 43
0.0
 10
24.55333009741798
 20
129.8227712518596
 10
25.73866364577345
 20
129.8227712518596
 10
25.14599687159572
 20
133.2941140583377
  0
HATCH
  5
D0
330
70
100
AcDbEntity
  8
Capa 1
 62
    18
420
        0
440
 33554687
100
AcDbHatch
 10
0.0
 20
0.0
 30
0.0
210
0.0
220
0.0
230
1.0
  2
SOLID
 70
     1
 71
     1
 91
        1
 92
        3
 72
     0
 73
     1
 93
        3
 10
24.55333009741798
 20
129.8227712518596
 10
25.73866364577345
 20
129.8227712518596
 10
25.14599687159572
 20
133.2941140583377
 97
        0
 75
     0
 76
     1
 98
        1
 10
0.0
 20
0.0
450
        0
451
        0
460
0.0
461
0.0
452
        0
462
0.0
453
        0
470

  0
LWPOLYLINE
  5
D1
330
70
100
AcDbEntity
  8
Capa 1
100
AcDbPolyline
 90
       30
 70
     0
 43
0.0
 10
23.45266515357423
 20
102.9834426622424
 10
23.45266515357423
 20
102.7294422316689
 10
23.62199697963595
 20
102.7294422316689
 10
23.70666558414766
 20
102.7294422316689
 10
23.79133149717853
 20
102.814105453219
 10
23.87599741020939
 20
102.8987794406924
 10
23.9606660147211
 20
102.8987794406924
 10
23.9606660147211
 20
102.9834426622424
 10
24.04533192775196
 20
102.9834426622424
 10
24.04533192775196
 20
103.0681058837924
 10
24.12999784078282
 20
103.1527798712658
 10
24.12999784078282
 20
103.2374430928158
 10
24.12999784078282
 20
103.3221063143659
 10
24.12999784078282
 20
103.4067803018392
 10
24.21466375381369
 20
103.4914435233893
 10
24.12999784078282
 20
103.5761067449393
 10
24.12999784078282
 20
103.6607807324127
 10
24.12999784078282
 20
103.7454439539627
 10
24.12999784078282
 20
103.8301071755127
 10
24.04533192775196
 20
103.9147811629861
 10
24.04533192775196
 20
103.9994443845361
 10
23.9606660147211
 20
104.0841076060861
 10
23.9606660147211
 20
103.4914435233893
 10
23.87599741020939
 20
103.4067803018392
 10
23.87599741020939
 20
103.3221063143659
 10
23.87599741020939
 20
103.2374430928158
 10
23.79133149717853
 20
103.1527798712658
 10
23.70666558414766
 20
103.1527798712658
 10
23.62199697963595
 20
103.0681058837924
 10
23.53733106660509
 20
103.0681058837924
  0
HATCH
  5
D2
330
70
100
AcDbEntity
  8
Capa 1
 62
    18
420
        0
440
 33554687
100
AcDbHatch
 10
0.0
 20
0.0
 30
0.0
210
0.0
220
0.0
230
1.0
  2
SOLID
 70
     1
 71
     1
 91
        1
 92
        3
 72
     0
 73
     1
 93
       30
 10
23.45266515357423
 20
102.9834426622424
 10
23.45266515357423
 20
102.7294422316689
 10
23.62199697963595
 20
102.7294422316689
 10
23.70666558414766
 20
102.7294422316689
 10
23.79133149717853
 20
102.814105453219
 10
23.87599741020939
 20
102.8987794406924
 10
23.9606660147211
 20
102.8987794406924
 10
23.9606660147211
 20
102.9834426622424
 10
24.04533192775196
 20
102.9834426622424
 10
24.04533192775196
 20
103.0681058837924
 10
24.12999784078282
 20
103.1527798712658
 10
24.12999784078282
 20
103.2374430928158
 10
24.12999784078282
 20
103.3221063143659
 10
24.12999784078282
 20
103.4067803018392
 10
24.21466375381369
 20
103.4914435233893
 10
24.12999784078282
 20
103.5761067449393
 10
24.12999784078282
 20
103.6607807324127
 10
24.12999784078282
 20
103.7454439539627
 10
24.12999784078282
 20
103.8301071755127
 10
24.04533192775196
 20
103.9147811629861
 10
24.04533192775196
 20
103.9994443845361
 10
23.9606660147211
 20
104.0841076060861
 10
23.9606660147211
 20
103.4914435233893
 10
23.87599741020939
 20
103.4067803018392
 10
23.87599741020939
 20
103.3221063143659
 10
23.87599741020939
 20
103.2374430928158
 10
23.79133149717853
 20
103.1527798712658
 10
23.70666558414766
 20
103.1527798712658
 10
23.62199697963595
 20
103.0681058837924
 10
23.53733106660509
 20
103.0681058837924
 97
        0
 75
     0
 76
     1
 98
        1
 10
0.0
 20
0.0
450
        0
451
        0
460
0.0
461
0.0
452
        0
462
0.0
453
        0
470

  0
LWPOLYLINE
  5
D3
330
70
100
AcDbEntity
  8
Capa 1
100
AcDbPolyline
 90
       39
 70
     0
 43
0.0
 10
22.69066386185392
 20
104.1687708276362
 10
22.77533246636563
 20
103.4914435233893
 10
22.77533246636563
 20
103.7454439539627
 10
22.8599983793965
 20
103.7454439539627
 10
22.8599983793965
 20
103.8301071755127
 10
22.94466429242735
 20
103.9147811629861
 10
23.02933020545822
 20
103.9994443845361
 10
23.11399880996993
 20
103.9994443845361
 10
23.19866472300079
 20
103.9994443845361
 10
23.28333063603166
 20
103.9994443845361
 10
23.36799924054336
 20
103.9994443845361
 10
23.45266515357423
 20
103.9994443845361
 10
23.53733106660509
 20
103.9994443845361
 10
23.62199697963595
 20
103.9994443845361
 10
23.62199697963595
 20
103.9147811629861
 10
23.70666558414766
 20
103.9147811629861
 10
23.79133149717853
 20
103.9147811629861
 10
23.79133149717853
 20
103.8301071755127
 10
23.87599741020939
 20
103.7454439539627
 10
23.87599741020939
 20
103.6607807324127
 10
23.87599741020939
 20
103.5761067449393
 10
23.9606660147211
 20
103.4914435233893
 10
23.9606660147211
 20
104.0841076060861
 10
23.87599741020939
 20
104.1687708276362
 10
23.79133149717853
 20
104.1687708276362
 10
23.70666558414766
 20
104.2534448151096
 10
23.62199697963595
 20
104.2534448151096
 10
23.53733106660509
 20
104.3381080366596
 10
23.45266515357423
 20
104.3381080366596
 10
23.36799924054336
 20
104.3381080366596
 10
23.28333063603166
 20
104.3381080366596
 10
23.19866472300079
 20
104.3381080366596
 10
23.11399880996993
 20
104.3381080366596
 10
23.02933020545822
 20
104.3381080366596
 10
22.94466429242735
 20
104.3381080366596
 10
22.94466429242735
 20
104.2534448151096
 10
22.8599983793965
 20
104.2534448151096
 10
22.77533246636563
 20
104.2534448151096
 10
22.77533246636563
 20
104.1687708276362
  0
HATCH
  5
D4
330
70
100
AcDbEntity
  8
Capa 1
 62
    18
420
        0
440
 33554687
100
AcDbHatch
 10
0.0
 20
0.0
 30
0.0
210
0.0
220
0.0
230
1.0
  2
SOLID
 70
     1
 71
     1
 91
        1
 92
        3
 72
     0
 73
     1
 93
       39
 10
22.69066386185392
 20
104.1687708276362
 10
22.77533246636563
 20
103.4914435233893
 10
22.77533246636563
 20
103.7454439539627
 10
22.8599983793965
 20
103.7454439539627
 10
22.8599983793965
 20
103.8301071755127
 10
22.94466429242735
 20
103.9147811629861
 10
23.02933020545822
 20
103.9994443845361
 10
23.11399880996993
 20
103.9994443845361
 10
23.19866472300079
 20
103.9994443845361
 10
23.28333063603166
 20
103.9994443845361
 10
23.36799924054336
 20
103.9994443845361
 10
23.45266515357423
 20
103.9994443845361
 10
23.53733106660509
 20
103.9994443845361
 10
23.62199697963595
 20
103.9994443845361
 10
23.62199697963595
 20
103.9147811629861
 10
23.70666558414766
 20
103.9147811629861
 10
23.79133149717853
 20
103.9147811629861
 10
23.79133149717853
 20
103.8301071755127
 10
23.87599741020939
 20
103.7454439539627
 10
23.87599741020939
 20
103.6607807324127
 10
23.87599741020939
 20
103.5761067449393
 10
23.9606660147211
 20
103.4914435233893
 10
23.9606660147211
 20
104.0841076060861
 10
23.87599741020939
 20
104.1687708276362
 10
23.79133149717853
 20
104.1687708276362
 10
23.70666558414766
 20
104.2534448151096
 10
23.62199697963595
 20
104.2534448151096
 10
23.53733106660509
 20
104.3381080366596
 10
23.45266515357423
 20
104.3381080366596
 10
23.36799924054336
 20
104.3381080366596
 10
23.28333063603166
 20
104.3381080366596
 10
23.19866472300079
 20
104.3381080366596
 10
23.11399880996993
 20
104.3381080366596
 10
23.02933020545822
 20
104.3381080366596
 10
22.94466429242735
 20
104.3381080366596
 10
22.94466429242735
 20
104.2534448151096
 10
22.8599983793965
 20
104.2534448151096
 10
22.77533246636563
 20
104.2534448151096
 10
22.77533246636563
 20
104.1687708276362
 97
        0
 75
     0
 76
     1
 98
        1
 10
0.0
 20
0.0
450
        0
451
        0
460
0.0
461
0.0
452
        0
462
0.0
453
        0
470

  0
LWPOLYLINE
  5
D5
330
70
100
AcDbEntity
  8
Capa 1
100
AcDbPolyline
 90
       12
 70
     0
 43
0.0
 10
22.52133203579219
 20
103.5761067449393
 10
22.52133203579219
 20
103.5761067449393
 10
22.52133203579219
 20
103.3221063143659
 10
22.60599794882306
 20
103.2374430928158
 10
22.60599794882306
 20
103.1527798712658
 10
22.60599794882306
 20
103.0681058837924
 10
22.69066386185392
 20
104.0841076060861
 10
22.60599794882306
 20
103.9994443845361
 10
22.52133203579219
 20
103.9147811629861
 10
22.52133203579219
 20
103.8301071755127
 10
22.52133203579219
 20
103.7454439539627
 10
22.52133203579219
 20
103.6607807324127
  0
HATCH
  5
D6
330
70
100
AcDbEntity
  8
Capa 1
 62
    18
420
        0
440
 33554687
100
AcDbHatch
 10
0.0
 20
0.0
 30
0.0
210
0.0
220
0.0
230
1.0
  2
SOLID
 70
     1
 71
     1
 91
        1
 92
        3
 72
     0
 73
     1
 93
       12
 10
22.52133203579219
 20
103.5761067449393
 10
22.52133203579219
 20
103.5761067449393
 10
22.52133203579219
 20
103.3221063143659
 10
22.60599794882306
 20
103.2374430928158
 10
22.60599794882306
 20
103.1527798712658
 10
22.60599794882306
 20
103.0681058837924
 10
22.69066386185392
 20
104.0841076060861
 10
22.60599794882306
 20
103.9994443845361
 10
22.52133203579219
 20
103.9147811629861
 10
22.52133203579219
 20
103.8301071755127
 10
22.52133203579219
 20
103.7454439539627
 10
22.52133203579219
 20
103.6607807324127
 97
        0
 75
     0
 76
     1
 98
        1
 10
0.0
 20
0.0
450
        0
451
        0
460
0.0
461
0.0
452
        0
462
0.0
453
        0
470

  0
LWPOLYLINE
  5
D7
330
70
100
AcDbEntity
  8
Capa 1
100
AcDbPolyline
 90
       16
 70
     0
 43
0.0
 10
21.67466617678145
 20
104.2534448151096
 10
21.67466617678145
 20
102.9834426622424
 10
22.94466429242735
 20
102.7294422316689
 10
23.02933020545822
 20
103.0681058837924
 10
22.94466429242735
 20
103.0681058837924
 10
22.8599983793965
 20
103.1527798712658
 10
22.8599983793965
 20
103.2374430928158
 10
22.77533246636563
 20
103.2374430928158
 10
22.77533246636563
 20
103.3221063143659
 10
22.77533246636563
 20
103.4067803018392
 10
22.77533246636563
 20
103.4914435233893
 10
22.69066386185392
 20
104.1687708276362
 10
22.69066386185392
 20
104.0841076060861
 10
22.60599794882306
 20
103.0681058837924
 10
21.92866526161446
 20
103.2374430928158
 10
21.92866526161446
 20
104.2534448151096
  0
HATCH
  5
D8
330
70
100
AcDbEntity
  8
Capa 1
 62
    18
420
        0
440
 33554687
100
AcDbHatch
 10
0.0
 20
0.0
 30
0.0
210
0.0
220
0.0
230
1.0
  2
SOLID
 70
     1
 71
     1
 91
        1
 92
        3
 72
     0
 73
     1
 93
       16
 10
21.67466617678145
 20
104.2534448151096
 10
21.67466617678145
 20
102.9834426622424
 10
22.94466429242735
 20
102.7294422316689
 10
23.02933020545822
 20
103.0681058837924
 10
22.94466429242735
 20
103.0681058837924
 10
22.8599983793965
 20
103.1527798712658
 10
22.8599983793965
 20
103.2374430928158
 10
22.77533246636563
 20
103.2374430928158
 10
22.77533246636563
 20
103.3221063143659
 10
22.77533246636563
 20
103.4067803018392
 10
22.77533246636563
 20
103.4914435233893
 10
22.69066386185392
 20
104.1687708276362
 10
22.69066386185392
 20
104.0841076060861
 10
22.60599794882306
 20
103.0681058837924
 10
21.92866526161446
 20
103.2374430928158
 10
21.92866526161446
 20
104.2534448151096
 97
        0
 75
     0
 76
     1
 98
        1
 10
0.0
 20
0.0
450
        0
451
        0
460
0.0
461
0.0
452
        0
462
0.0
453
        0
470

  0
LWPOLYLINE
  5
D9
330
70
100
AcDbEntity
  8
Capa 1
100
AcDbPolyline
 90
       50
 70
     0
 43
0.0
 10
22.94466429242735
 20
106.0314478291236
 10
22.94466429242735
 20
105.4387729805033
 10
22.94466429242735
 20
105.6927734110768
 10
23.02933020545822
 20
105.7774473985502
 10
23.02933020545822
 20
105.8621106201002
 10
23.11399880996993
 20
105.8621106201002
 10
23.19866472300079
 20
105.9467738416502
 10
23.28333063603166
 20
105.9467738416502
 10
23.36799924054336
 20
105.9467738416502
 10
23.45266515357423
 20
105.9467738416502
 10
23.53733106660509
 20
105.9467738416502
 10
23.62199697963595
 20
105.9467738416502
 10
23.70666558414766
 20
105.9467738416502
 10
23.70666558414766
 20
105.8621106201002
 10
23.79133149717853
 20
105.8621106201002
 10
23.79133149717853
 20
105.7774473985502
 10
23.87599741020939
 20
105.6927734110768
 10
23.87599741020939
 20
105.6081101895268
 10
23.87599741020939
 20
105.5234469679767
 10
23.9606660147211
 20
105.4387729805033
 10
23.9606660147211
 20
104.8461088978065
 10
23.9606660147211
 20
104.9307721193565
 10
24.04533192775196
 20
104.9307721193565
 10
24.04533192775196
 20
105.0154461068299
 10
24.04533192775196
 20
105.1001093283799
 10
24.12999784078282
 20
105.1001093283799
 10
24.12999784078282
 20
105.1847725499299
 10
24.12999784078282
 20
105.2694465374033
 10
24.12999784078282
 20
105.3541097589533
 10
24.21466375381369
 20
105.4387729805033
 10
24.12999784078282
 20
105.5234469679767
 10
24.12999784078282
 20
105.6081101895268
 10
24.12999784078282
 20
105.6927734110768
 10
24.12999784078282
 20
105.7774473985502
 10
24.12999784078282
 20
105.8621106201002
 10
24.04533192775196
 20
105.9467738416502
 10
23.9606660147211
 20
106.0314478291236
 10
23.87599741020939
 20
106.1161110506736
 10
23.79133149717853
 20
106.2007742722236
 10
23.70666558414766
 20
106.2007742722236
 10
23.62199697963595
 20
106.2854374937737
 10
23.53733106660509
 20
106.2854374937737
 10
23.45266515357423
 20
106.2854374937737
 10
23.36799924054336
 20
106.2854374937737
 10
23.28333063603166
 20
106.2854374937737
 10
23.19866472300079
 20
106.2854374937737
 10
23.11399880996993
 20
106.2007742722236
 10
23.02933020545822
 20
106.2007742722236
 10
23.02933020545822
 20
106.1161110506736
 10
22.94466429242735
 20
106.1161110506736
  0
HATCH
  5
DA
330
70
100
AcDbEntity
  8
Capa 1
 62
    18
420
        0
440
 33554687
100
AcDbHatch
 10
0.0
 20
0.0
 30
0.0
210
0.0
220
0.0
230
1.0
  2
SOLID
 70
     1
 71
     1
 91
        1
 92
        3
 72
     0
 73
     1
 93
       50
 10
22.94466429242735
 20
106.0314478291236
 10
22.94466429242735
 20
105.4387729805033
 10
22.94466429242735
 20
105.6927734110768
 10
23.02933020545822
 20
105.7774473985502
 10
23.02933020545822
 20
105.8621106201002
 10
23.11399880996993
 20
105.8621106201002
 10
23.19866472300079
 20
105.9467738416502
 10
23.28333063603166
 20
105.9467738416502
 10
23.36799924054336
 20
105.9467738416502
 10
23.45266515357423
 20
105.9467738416502
 10
23.53733106660509
 20
105.9467738416502
 10
23.62199697963595
 20
105.9467738416502
 10
23.70666558414766
 20
105.9467738416502
 10
23.70666558414766
 20
105.8621106201002
 10
23.79133149717853
 20
105.8621106201002
 10
23.79133149717853
 20
105.7774473985502
 10
23.87599741020939
 20
105.6927734110768
 10
23.87599741020939
 20
105.6081101895268
 10
23.87599741020939
 20
105.5234469679767
 10
23.9606660147211
 20
105.4387729805033
 10
23.9606660147211
 20
104.8461088978065
 10
23.9606660147211
 20
104.9307721193565
 10
24.04533192775196
 20
104.9307721193565
 10
24.04533192775196
 20
105.0154461068299
 10
24.04533192775196
 20
105.1001093283799
 10
24.12999784078282
 20
105.1001093283799
 10
24.12999784078282
 20
105.1847725499299
 10
24.12999784078282
 20
105.2694465374033
 10
24.12999784078282
 20
105.3541097589533
 10
24.21466375381369
 20
105.4387729805033
 10
24.12999784078282
 20
105.5234469679767
 10
24.12999784078282
 20
105.6081101895268
 10
24.12999784078282
 20
105.6927734110768
 10
24.12999784078282
 20
105.7774473985502
 10
24.12999784078282
 20
105.8621106201002
 10
24.04533192775196
 20
105.9467738416502
 10
23.9606660147211
 20
106.0314478291236
 10
23.87599741020939
 20
106.1161110506736
 10
23.79133149717853
 20
106.2007742722236
 10
23.70666558414766
 20
106.2007742722236
 10
23.62199697963595
 20
106.2854374937737
 10
23.53733106660509
 20
106.2854374937737
 10
23.45266515357423
 20
106.2854374937737
 10
23.36799924054336
 20
106.2854374937737
 10
23.28333063603166
 20
106.2854374937737
 10
23.19866472300079
 20
106.2854374937737
 10
23.11399880996993
 20
106.2007742722236
 10
23.02933020545822
 20
106.2007742722236
 10
23.02933020545822
 20
106.1161110506736
 10
22.94466429242735
 20
106.1161110506736
 97
        0
 75
     0
 76
     1
 98
        1
 10
0.0
 20
0.0
450
        0
451
        0
460
0.0
461
0.0
452
        0
462
0.0
453
        0
470

  0
LWPOLYLINE
  5
DB
330
70
100
AcDbEntity
  8
Capa 1
100
AcDbPolyline
 90
       26
 70
     0
 43
0.0
 10
21.8439993485836
 20
106.0314478291236
 10
21.8439993485836
 20
105.4387729805033
 10
21.92866526161446
 20
105.5234469679767
 10
21.92866526161446
 20
105.6927734110768
 10
22.01333252038574
 20
105.7774473985502
 10
22.09799843341661
 20
105.8621106201002
 10
22.1826656921879
 20
105.8621106201002
 10
22.26733160521876
 20
105.8621106201002
 10
22.35199886399005
 20
105.8621106201002
 10
22.43666612276133
 20
105.8621106201002
 10
22.52133203579219
 20
105.7774473985502
 10
22.60599794882306
 20
105.6927734110768
 10
22.60599794882306
 20
105.6081101895268
 10
22.69066386185392
 20
105.5234469679767
 10
22.69066386185392
 20
105.4387729805033
 10
22.69066386185392
 20
106.0314478291236
 10
22.60599794882306
 20
106.0314478291236
 10
22.60599794882306
 20
106.1161110506736
 10
22.52133203579219
 20
106.1161110506736
 10
22.43666612276133
 20
106.2007742722236
 10
22.35199886399005
 20
106.2007742722236
 10
22.26733160521876
 20
106.2007742722236
 10
22.1826656921879
 20
106.2007742722236
 10
22.09799843341661
 20
106.2007742722236
 10
22.01333252038574
 20
106.1161110506736
 10
21.92866526161446
 20
106.1161110506736
  0
HATCH
  5
DC
330
70
100
AcDbEntity
  8
Capa 1
 62
    18
420
        0
440
 33554687
100
AcDbHatch
 10
0.0
 20
0.0
 30
0.0
210
0.0
220
0.0
230
1.0
  2
SOLID
 70
     1
 71
     1
 91
        1
 92
        3
 72
     0
 73
     1
 93
       26
 10
21.8439993485836
 20
106.0314478291236
 10
21.8439993485836
 20
105.4387729805033
 10
21.92866526161446
 20
105.5234469679767
 10
21.92866526161446
 20
105.6927734110768
 10
22.01333252038574
 20
105.7774473985502
 10
22.09799843341661
 20
105.8621106201002
 10
22.1826656921879
 20
105.8621106201002
 10
22.26733160521876
 20
105.8621106201002
 10
22.35199886399005
 20
105.8621106201002
 10
22.43666612276133
 20
105.8621106201002
 10
22.52133203579219
 20
105.7774473985502
 10
22.60599794882306
 20
105.6927734110768
 10
22.60599794882306
 20
105.6081101895268
 10
22.69066386185392
 20
105.5234469679767
 10
22.69066386185392
 20
105.4387729805033
 10
22.69066386185392
 20
106.0314478291236
 10
22.60599794882306
 20
106.0314478291236
 10
22.60599794882306
 20
106.1161110506736
 10
22.52133203579219
 20
106.1161110506736
 10
22.43666612276133
 20
106.2007742722236
 10
22.35199886399005
 20
106.2007742722236
 10
22.26733160521876
 20
106.2007742722236
 10
22.1826656921879
 20
106.2007742722236
 10
22.09799843341661
 20
106.2007742722236
 10
22.01333252038574
 20
106.1161110506736
 10
21.92866526161446
 20
106.1161110506736
 97
        0
 75
     0
 76
     1
 98
        1
 10
0.0
 20
0.0
450
        0
451
        0
460
0.0
461
0.0
452
        0
462
0.0
453
        0
470

  0
LWPOLYLINE
  5
DD
330
70
100
AcDbEntity
  8
Capa 1
100
AcDbPolyline
 90
       91
 70
     0
 43
0.0
 10
21.67466617678145
 20
105.4387729805033
 10
21.67466617678145
 20
105.4387729805033
 10
21.67466617678145
 20
105.1001093283799
 10
21.75933208981231
 20
105.0154461068299
 10
21.8439993485836
 20
104.9307721193565
 10
21.92866526161446
 20
104.8461088978065
 10
22.01333252038574
 20
104.7614456762564
 10
22.09799843341661
 20
104.7614456762564
 10
22.1826656921879
 20
104.7614456762564
 10
22.26733160521876
 20
104.7614456762564
 10
22.35199886399005
 20
104.7614456762564
 10
22.43666612276133
 20
104.7614456762564
 10
22.52133203579219
 20
104.8461088978065
 10
22.60599794882306
 20
104.8461088978065
 10
22.69066386185392
 20
104.9307721193565
 10
22.69066386185392
 20
105.0154461068299
 10
22.77533246636563
 20
105.0154461068299
 10
22.77533246636563
 20
105.1001093283799
 10
22.77533246636563
 20
105.0154461068299
 10
22.8599983793965
 20
105.0154461068299
 10
22.8599983793965
 20
104.9307721193565
 10
22.94466429242735
 20
104.8461088978065
 10
23.02933020545822
 20
104.7614456762564
 10
23.11399880996993
 20
104.7614456762564
 10
23.11399880996993
 20
104.676771688783
 10
23.19866472300079
 20
104.676771688783
 10
23.28333063603166
 20
104.676771688783
 10
23.36799924054336
 20
104.676771688783
 10
23.45266515357423
 20
104.676771688783
 10
23.53733106660509
 20
104.676771688783
 10
23.62199697963595
 20
104.676771688783
 10
23.70666558414766
 20
104.676771688783
 10
23.79133149717853
 20
104.7614456762564
 10
23.87599741020939
 20
104.7614456762564
 10
23.87599741020939
 20
104.8461088978065
 10
23.9606660147211
 20
104.8461088978065
 10
23.9606660147211
 20
105.4387729805033
 10
23.87599741020939
 20
105.4387729805033
 10
23.87599741020939
 20
105.3541097589533
 10
23.87599741020939
 20
105.2694465374033
 10
23.87599741020939
 20
105.1847725499299
 10
23.79133149717853
 20
105.1847725499299
 10
23.79133149717853
 20
105.1001093283799
 10
23.70666558414766
 20
105.1001093283799
 10
23.70666558414766
 20
105.0154461068299
 10
23.62199697963595
 20
105.0154461068299
 10
23.53733106660509
 20
105.0154461068299
 10
23.45266515357423
 20
104.9307721193565
 10
23.36799924054336
 20
104.9307721193565
 10
23.28333063603166
 20
105.0154461068299
 10
23.19866472300079
 20
105.0154461068299
 10
23.11399880996993
 20
105.1001093283799
 10
23.02933020545822
 20
105.1001093283799
 10
23.02933020545822
 20
105.1847725499299
 10
22.94466429242735
 20
105.1847725499299
 10
22.94466429242735
 20
105.2694465374033
 10
22.94466429242735
 20
105.3541097589533
 10
22.94466429242735
 20
105.4387729805033
 10
22.94466429242735
 20
106.0314478291236
 10
22.8599983793965
 20
106.0314478291236
 10
22.8599983793965
 20
105.9467738416502
 10
22.77533246636563
 20
105.8621106201002
 10
22.77533246636563
 20
105.7774473985502
 10
22.77533246636563
 20
105.8621106201002
 10
22.69066386185392
 20
105.9467738416502
 10
22.69066386185392
 20
106.0314478291236
 10
22.69066386185392
 20
105.4387729805033
 10
22.69066386185392
 20
105.3541097589533
 10
22.60599794882306
 20
105.2694465374033
 10
22.60599794882306
 20
105.1847725499299
 10
22.52133203579219
 20
105.1847725499299
 10
22.52133203579219
 20
105.1001093283799
 10
22.43666612276133
 20
105.1001093283799
 10
22.35199886399005
 20
105.1001093283799
 10
22.26733160521876
 20
105.1001093283799
 10
22.1826656921879
 20
105.1001093283799
 10
22.09799843341661
 20
105.1001093283799
 10
22.01333252038574
 20
105.1001093283799
 10
22.01333252038574
 20
105.1847725499299
 10
21.92866526161446
 20
105.1847725499299
 10
21.92866526161446
 20
105.2694465374033
 10
21.92866526161446
 20
105.3541097589533
 10
21.8439993485836
 20
105.4387729805033
 10
21.8439993485836
 20
106.0314478291236
 10
21.8439993485836
 20
105.9467738416502
 10
21.75933208981231
 20
105.9467738416502
 10
21.75933208981231
 20
105.8621106201002
 10
21.67466617678145
 20
105.7774473985502
 10
21.67466617678145
 20
105.6927734110768
 10
21.67466617678145
 20
105.6081101895268
 10
21.67466617678145
 20
105.5234469679767
  0
HATCH
  5
DE
330
70
100
AcDbEntity
  8
Capa 1
 62
    18
420
        0
440
 33554687
100
AcDbHatch
 10
0.0
 20
0.0
 30
0.0
210
0.0
220
0.0
230
1.0
  2
SOLID
 70
     1
 71
     1
 91
        1
 92
        3
 72
     0
 73
     1
 93
       91
 10
21.67466617678145
 20
105.4387729805033
 10
21.67466617678145
 20
105.4387729805033
 10
21.67466617678145
 20
105.1001093283799
 10
21.75933208981231
 20
105.0154461068299
 10
21.8439993485836
 20
104.9307721193565
 10
21.92866526161446
 20
104.8461088978065
 10
22.01333252038574
 20
104.7614456762564
 10
22.09799843341661
 20
104.7614456762564
 10
22.1826656921879
 20
104.7614456762564
 10
22.26733160521876
 20
104.7614456762564
 10
22.35199886399005
 20
104.7614456762564
 10
22.43666612276133
 20
104.7614456762564
 10
22.52133203579219
 20
104.8461088978065
 10
22.60599794882306
 20
104.8461088978065
 10
22.69066386185392
 20
104.9307721193565
 10
22.69066386185392
 20
105.0154461068299
 10
22.77533246636563
 20
105.0154461068299
 10
22.77533246636563
 20
105.1001093283799
 10
22.77533246636563
 20
105.0154461068299
 10
22.8599983793965
 20
105.0154461068299
 10
22.8599983793965
 20
104.9307721193565
 10
22.94466429242735
 20
104.8461088978065
 10
23.02933020545822
 20
104.7614456762564
 10
23.11399880996993
 20
104.7614456762564
 10
23.11399880996993
 20
104.676771688783
 10
23.19866472300079
 20
104.676771688783
 10
23.28333063603166
 20
104.676771688783
 10
23.36799924054336
 20
104.676771688783
 10
23.45266515357423
 20
104.676771688783
 10
23.53733106660509
 20
104.676771688783
 10
23.62199697963595
 20
104.676771688783
 10
23.70666558414766
 20
104.676771688783
 10
23.79133149717853
 20
104.7614456762564
 10
23.87599741020939
 20
104.7614456762564
 10
23.87599741020939
 20
104.8461088978065
 10
23.9606660147211
 20
104.8461088978065
 10
23.9606660147211
 20
105.4387729805033
 10
23.87599741020939
 20
105.4387729805033
 10
23.87599741020939
 20
105.3541097589533
 10
23.87599741020939
 20
105.2694465374033
 10
23.87599741020939
 20
105.1847725499299
 10
23.79133149717853
 20
105.1847725499299
 10
23.79133149717853
 20
105.1001093283799
 10
23.70666558414766
 20
105.1001093283799
 10
23.70666558414766
 20
105.0154461068299
 10
23.62199697963595
 20
105.0154461068299
 10
23.53733106660509
 20
105.0154461068299
 10
23.45266515357423
 20
104.9307721193565
 10
23.36799924054336
 20
104.9307721193565
 10
23.28333063603166
 20
105.0154461068299
 10
23.19866472300079
 20
105.0154461068299
 10
23.11399880996993
 20
105.1001093283799
 10
23.02933020545822
 20
105.1001093283799
 10
23.02933020545822
 20
105.1847725499299
 10
22.94466429242735
 20
105.1847725499299
 10
22.94466429242735
 20
105.2694465374033
 10
22.94466429242735
 20
105.3541097589533
 10
22.94466429242735
 20
105.4387729805033
 10
22.94466429242735
 20
106.0314478291236
 10
22.8599983793965
 20
106.0314478291236
 10
22.8599983793965
 20
105.9467738416502
 10
22.77533246636563
 20
105.8621106201002
 10
22.77533246636563
 20
105.7774473985502
 10
22.77533246636563
 20
105.8621106201002
 10
22.69066386185392
 20
105.9467738416502
 10
22.69066386185392
 20
106.0314478291236
 10
22.69066386185392
 20
105.4387729805033
 10
22.69066386185392
 20
105.3541097589533
 10
22.60599794882306
 20
105.2694465374033
 10
22.60599794882306
 20
105.1847725499299
 10
22.52133203579219
 20
105.1847725499299
 10
22.52133203579219
 20
105.1001093283799
 10
22.43666612276133
 20
105.1001093283799
 10
22.35199886399005
 20
105.1001093283799
 10
22.26733160521876
 20
105.1001093283799
 10
22.1826656921879
 20
105.1001093283799
 10
22.09799843341661
 20
105.1001093283799
 10
22.01333252038574
 20
105.1001093283799
 10
22.01333252038574
 20
105.1847725499299
 10
21.92866526161446
 20
105.1847725499299
 10
21.92866526161446
 20
105.2694465374033
 10
21.92866526161446
 20
105.3541097589533
 10
21.8439993485836
 20
105.4387729805033
 10
21.8439993485836
 20
106.0314478291236
 10
21.8439993485836
 20
105.9467738416502
 10
21.75933208981231
 20
105.9467738416502
 10
21.75933208981231
 20
105.8621106201002
 10
21.67466617678145
 20
105.7774473985502
 10
21.67466617678145
 20
105.6927734110768
 10
21.67466617678145
 20
105.6081101895268
 10
21.67466617678145
 20
105.5234469679767
 97
        0
 75
     0
 76
     1
 98
        1
 10
0.0
 20
0.0
450
        0
451
        0
460
0.0
461
0.0
452
        0
462
0.0
453
        0
470

  0
LWPOLYLINE
  5
DF
330
70
100
AcDbEntity
  8
Capa 1
100
AcDbPolyline
 90
       58
 70
     0
 43
0.0
 10
21.8439993485836
 20
106.8781123423939
 10
21.92866526161446
 20
106.7934383549205
 10
22.01333252038574
 20
106.7934383549205
 10
22.09799843341661
 20
106.7087751333705
 10
22.1826656921879
 20
106.7087751333705
 10
22.26733160521876
 20
106.7087751333705
 10
22.35199886399005
 20
106.6241119118205
 10
22.43666612276133
 20
106.6241119118205
 10
22.52133203579219
 20
106.6241119118205
 10
22.60599794882306
 20
106.6241119118205
 10
22.69066386185392
 20
106.6241119118205
 10
22.77533246636563
 20
106.6241119118205
 10
22.8599983793965
 20
106.6241119118205
 10
22.94466429242735
 20
106.6241119118205
 10
23.02933020545822
 20
106.6241119118205
 10
23.11399880996993
 20
106.6241119118205
 10
23.19866472300079
 20
106.6241119118205
 10
23.28333063603166
 20
106.6241119118205
 10
23.36799924054336
 20
106.6241119118205
 10
23.45266515357423
 20
106.6241119118205
 10
23.53733106660509
 20
106.7087751333705
 10
23.62199697963595
 20
106.7087751333705
 10
23.70666558414766
 20
106.7087751333705
 10
23.79133149717853
 20
106.7934383549205
 10
23.87599741020939
 20
106.7934383549205
 10
23.87599741020939
 20
106.8781123423939
 10
23.9606660147211
 20
106.8781123423939
 10
23.9606660147211
 20
107.3861132035408
 10
23.87599741020939
 20
107.3014392160674
 10
23.87599741020939
 20
107.2167759945174
 10
23.79133149717853
 20
107.1321127729674
 10
23.70666558414766
 20
107.047438785494
 10
23.62199697963595
 20
107.047438785494
 10
23.62199697963595
 20
106.962775563944
 10
23.53733106660509
 20
106.962775563944
 10
23.45266515357423
 20
106.962775563944
 10
23.36799924054336
 20
106.962775563944
 10
23.28333063603166
 20
106.962775563944
 10
23.19866472300079
 20
106.962775563944
 10
23.11399880996993
 20
106.8781123423939
 10
23.02933020545822
 20
106.8781123423939
 10
22.94466429242735
 20
106.8781123423939
 10
22.8599983793965
 20
106.8781123423939
 10
22.77533246636563
 20
106.8781123423939
 10
22.69066386185392
 20
106.8781123423939
 10
22.60599794882306
 20
106.962775563944
 10
22.52133203579219
 20
106.962775563944
 10
22.43666612276133
 20
106.962775563944
 10
22.35199886399005
 20
106.962775563944
 10
22.26733160521876
 20
106.962775563944
 10
22.1826656921879
 20
106.962775563944
 10
22.1826656921879
 20
107.047438785494
 10
22.09799843341661
 20
107.047438785494
 10
22.01333252038574
 20
107.1321127729674
 10
21.92866526161446
 20
107.1321127729674
 10
21.92866526161446
 20
107.2167759945174
 10
21.92866526161446
 20
107.3014392160674
 10
21.92866526161446
 20
107.3861132035408
  0
HATCH
  5
E0
330
70
100
AcDbEntity
  8
Capa 1
 62
    18
420
        0
440
 33554687
100
AcDbHatch
 10
0.0
 20
0.0
 30
0.0
210
0.0
220
0.0
230
1.0
  2
SOLID
 70
     1
 71
     1
 91
        1
 92
        3
 72
     0
 73
     1
 93
       58
 10
21.8439993485836
 20
106.8781123423939
 10
21.92866526161446
 20
106.7934383549205
 10
22.01333252038574
 20
106.7934383549205
 10
22.09799843341661
 20
106.7087751333705
 10
22.1826656921879
 20
106.7087751333705
 10
22.26733160521876
 20
106.7087751333705
 10
22.35199886399005
 20
106.6241119118205
 10
22.43666612276133
 20
106.6241119118205
 10
22.52133203579219
 20
106.6241119118205
 10
22.60599794882306
 20
106.6241119118205
 10
22.69066386185392
 20
106.6241119118205
 10
22.77533246636563
 20
106.6241119118205
 10
22.8599983793965
 20
106.6241119118205
 10
22.94466429242735
 20
106.6241119118205
 10
23.02933020545822
 20
106.6241119118205
 10
23.11399880996993
 20
106.6241119118205
 10
23.19866472300079
 20
106.6241119118205
 10
23.28333063603166
 20
106.6241119118205
 10
23.36799924054336
 20
106.6241119118205
 10
23.45266515357423
 20
106.6241119118205
 10
23.53733106660509
 20
106.7087751333705
 10
23.62199697963595
 20
106.7087751333705
 10
23.70666558414766
 20
106.7087751333705
 10
23.79133149717853
 20
106.7934383549205
 10
23.87599741020939
 20
106.7934383549205
 10
23.87599741020939
 20
106.8781123423939
 10
23.9606660147211
 20
106.8781123423939
 10
23.9606660147211
 20
107.3861132035408
 10
23.87599741020939
 20
107.3014392160674
 10
23.87599741020939
 20
107.2167759945174
 10
23.79133149717853
 20
107.1321127729674
 10
23.70666558414766
 20
107.047438785494
 10
23.62199697963595
 20
107.047438785494
 10
23.62199697963595
 20
106.962775563944
 10
23.53733106660509
 20
106.962775563944
 10
23.45266515357423
 20
106.962775563944
 10
23.36799924054336
 20
106.962775563944
 10
23.28333063603166
 20
106.962775563944
 10
23.19866472300079
 20
106.962775563944
 10
23.11399880996993
 20
106.8781123423939
 10
23.02933020545822
 20
106.8781123423939
 10
22.94466429242735
 20
106.8781123423939
 10
22.8599983793965
 20
106.8781123423939
 10
22.77533246636563
 20
106.8781123423939
 10
22.69066386185392
 20
106.8781123423939
 10
22.60599794882306
 20
106.962775563944
 10
22.52133203579219
 20
106.962775563944
 10
22.43666612276133
 20
106.962775563944
 10
22.35199886399005
 20
106.962775563944
 10
22.26733160521876
 20
106.962775563944
 10
22.1826656921879
 20
106.962775563944
 10
22.1826656921879
 20
107.047438785494
 10
22.09799843341661
 20
107.047438785494
 10
22.01333252038574
 20
107.1321127729674
 10
21.92866526161446
 20
107.1321127729674
 10
21.92866526161446
 20
107.2167759945174
 10
21.92866526161446
 20
107.3014392160674
 10
21.92866526161446
 20
107.3861132035408
 97
        0
 75
     0
 76
     1
 98
        1
 10
0.0
 20
0.0
450
        0
451
        0
460
0.0
461
0.0
452
        0
462
0.0
453
        0
470

  0
LWPOLYLINE
  5
E1
330
70
100
AcDbEntity
  8
Capa 1
100
AcDbPolyline
 90
       86
 70
     0
 43
0.0
 10
21.67466617678145
 20
107.3861132035408
 10
21.67466617678145
 20
107.3861132035408
 10
21.67466617678145
 20
107.047438785494
 10
21.75933208981231
 20
107.047438785494
 10
21.75933208981231
 20
106.962775563944
 10
21.8439993485836
 20
106.8781123423939
 10
21.92866526161446
 20
107.3861132035408
 10
21.92866526161446
 20
107.4707764250908
 10
21.92866526161446
 20
107.5554396466408
 10
21.92866526161446
 20
107.6401136341143
 10
22.01333252038574
 20
107.6401136341143
 10
22.01333252038574
 20
107.7247768556643
 10
22.09799843341661
 20
107.7247768556643
 10
22.09799843341661
 20
107.8094400772143
 10
22.1826656921879
 20
107.8094400772143
 10
22.26733160521876
 20
107.8094400772143
 10
22.35199886399005
 20
107.8941140646877
 10
22.43666612276133
 20
107.8941140646877
 10
22.52133203579219
 20
107.8941140646877
 10
22.60599794882306
 20
107.8941140646877
 10
22.69066386185392
 20
107.8941140646877
 10
22.77533246636563
 20
107.8941140646877
 10
22.94466429242735
 20
107.8941140646877
 10
23.02933020545822
 20
107.8941140646877
 10
23.11399880996993
 20
107.8941140646877
 10
23.19866472300079
 20
107.8941140646877
 10
23.28333063603166
 20
107.8941140646877
 10
23.36799924054336
 20
107.8941140646877
 10
23.45266515357423
 20
107.8941140646877
 10
23.53733106660509
 20
107.8094400772143
 10
23.62199697963595
 20
107.8094400772143
 10
23.70666558414766
 20
107.8094400772143
 10
23.70666558414766
 20
107.7247768556643
 10
23.79133149717853
 20
107.7247768556643
 10
23.87599741020939
 20
107.6401136341143
 10
23.87599741020939
 20
107.5554396466408
 10
23.87599741020939
 20
107.4707764250908
 10
23.9606660147211
 20
107.3861132035408
 10
23.9606660147211
 20
106.8781123423939
 10
24.04533192775196
 20
106.962775563944
 10
24.04533192775196
 20
107.047438785494
 10
24.12999784078282
 20
107.047438785494
 10
24.12999784078282
 20
107.1321127729674
 10
24.12999784078282
 20
107.2167759945174
 10
24.12999784078282
 20
107.3014392160674
 10
24.21466375381369
 20
107.3861132035408
 10
24.12999784078282
 20
107.3861132035408
 10
24.12999784078282
 20
107.4707764250908
 10
24.12999784078282
 20
107.5554396466408
 10
24.12999784078282
 20
107.6401136341143
 10
24.12999784078282
 20
107.7247768556643
 10
24.04533192775196
 20
107.8094400772143
 10
24.04533192775196
 20
107.8941140646877
 10
23.9606660147211
 20
107.8941140646877
 10
23.9606660147211
 20
107.9787772862377
 10
23.87599741020939
 20
107.9787772862377
 10
23.79133149717853
 20
108.0634405077877
 10
23.70666558414766
 20
108.0634405077877
 10
23.62199697963595
 20
108.1481144952611
 10
23.53733106660509
 20
108.1481144952611
 10
23.45266515357423
 20
108.1481144952611
 10
23.36799924054336
 20
108.1481144952611
 10
23.28333063603166
 20
108.2327777168111
 10
23.19866472300079
 20
108.2327777168111
 10
23.11399880996993
 20
108.2327777168111
 10
23.02933020545822
 20
108.2327777168111
 10
22.94466429242735
 20
108.2327777168111
 10
22.8599983793965
 20
108.2327777168111
 10
22.77533246636563
 20
108.2327777168111
 10
22.69066386185392
 20
108.2327777168111
 10
22.60599794882306
 20
108.2327777168111
 10
22.52133203579219
 20
108.2327777168111
 10
22.43666612276133
 20
108.1481144952611
 10
22.35199886399005
 20
108.1481144952611
 10
22.26733160521876
 20
108.1481144952611
 10
22.1826656921879
 20
108.1481144952611
 10
22.09799843341661
 20
108.0634405077877
 10
22.01333252038574
 20
108.0634405077877
 10
21.92866526161446
 20
107.9787772862377
 10
21.8439993485836
 20
107.8941140646877
 10
21.75933208981231
 20
107.8941140646877
 10
21.75933208981231
 20
107.8094400772143
 10
21.67466617678145
 20
107.7247768556643
 10
21.67466617678145
 20
107.6401136341143
 10
21.67466617678145
 20
107.5554396466408
 10
21.67466617678145
 20
107.4707764250908
  0
HATCH
  5
E2
330
70
100
AcDbEntity
  8
Capa 1
 62
    18
420
        0
440
 33554687
100
AcDbHatch
 10
0.0
 20
0.0
 30
0.0
210
0.0
220
0.0
230
1.0
  2
SOLID
 70
     1
 71
     1
 91
        1
 92
        3
 72
     0
 73
     1
 93
       86
 10
21.67466617678145
 20
107.3861132035408
 10
21.67466617678145
 20
107.3861132035408
 10
21.67466617678145
 20
107.047438785494
 10
21.75933208981231
 20
107.047438785494
 10
21.75933208981231
 20
106.962775563944
 10
21.8439993485836
 20
106.8781123423939
 10
21.92866526161446
 20
107.3861132035408
 10
21.92866526161446
 20
107.4707764250908
 10
21.92866526161446
 20
107.5554396466408
 10
21.92866526161446
 20
107.6401136341143
 10
22.01333252038574
 20
107.6401136341143
 10
22.01333252038574
 20
107.7247768556643
 10
22.09799843341661
 20
107.7247768556643
 10
22.09799843341661
 20
107.8094400772143
 10
22.1826656921879
 20
107.8094400772143
 10
22.26733160521876
 20
107.8094400772143
 10
22.35199886399005
 20
107.8941140646877
 10
22.43666612276133
 20
107.8941140646877
 10
22.52133203579219
 20
107.8941140646877
 10
22.60599794882306
 20
107.8941140646877
 10
22.69066386185392
 20
107.8941140646877
 10
22.77533246636563
 20
107.8941140646877
 10
22.94466429242735
 20
107.8941140646877
 10
23.02933020545822
 20
107.8941140646877
 10
23.11399880996993
 20
107.8941140646877
 10
23.19866472300079
 20
107.8941140646877
 10
23.28333063603166
 20
107.8941140646877
 10
23.36799924054336
 20
107.8941140646877
 10
23.45266515357423
 20
107.8941140646877
 10
23.53733106660509
 20
107.8094400772143
 10
23.62199697963595
 20
107.8094400772143
 10
23.70666558414766
 20
107.8094400772143
 10
23.70666558414766
 20
107.7247768556643
 10
23.79133149717853
 20
107.7247768556643
 10
23.87599741020939
 20
107.6401136341143
 10
23.87599741020939
 20
107.5554396466408
 10
23.87599741020939
 20
107.4707764250908
 10
23.9606660147211
 20
107.3861132035408
 10
23.9606660147211
 20
106.8781123423939
 10
24.04533192775196
 20
106.962775563944
 10
24.04533192775196
 20
107.047438785494
 10
24.12999784078282
 20
107.047438785494
 10
24.12999784078282
 20
107.1321127729674
 10
24.12999784078282
 20
107.2167759945174
 10
24.12999784078282
 20
107.3014392160674
 10
24.21466375381369
 20
107.3861132035408
 10
24.12999784078282
 20
107.3861132035408
 10
24.12999784078282
 20
107.4707764250908
 10
24.12999784078282
 20
107.5554396466408
 10
24.12999784078282
 20
107.6401136341143
 10
24.12999784078282
 20
107.7247768556643
 10
24.04533192775196
 20
107.8094400772143
 10
24.04533192775196
 20
107.8941140646877
 10
23.9606660147211
 20
107.8941140646877
 10
23.9606660147211
 20
107.9787772862377
 10
23.87599741020939
 20
107.9787772862377
 10
23.79133149717853
 20
108.0634405077877
 10
23.70666558414766
 20
108.0634405077877
 10
23.62199697963595
 20
108.1481144952611
 10
23.53733106660509
 20
108.1481144952611
 10
23.45266515357423
 20
108.1481144952611
 10
23.36799924054336
 20
108.1481144952611
 10
23.28333063603166
 20
108.2327777168111
 10
23.19866472300079
 20
108.2327777168111
 10
23.11399880996993
 20
108.2327777168111
 10
23.02933020545822
 20
108.2327777168111
 10
22.94466429242735
 20
108.2327777168111
 10
22.8599983793965
 20
108.2327777168111
 10
22.77533246636563
 20
108.2327777168111
 10
22.69066386185392
 20
108.2327777168111
 10
22.60599794882306
 20
108.2327777168111
 10
22.52133203579219
 20
108.2327777168111
 10
22.43666612276133
 20
108.1481144952611
 10
22.35199886399005
 20
108.1481144952611
 10
22.26733160521876
 20
108.1481144952611
 10
22.1826656921879
 20
108.1481144952611
 10
22.09799843341661
 20
108.0634405077877
 10
22.01333252038574
 20
108.0634405077877
 10
21.92866526161446
 20
107.9787772862377
 10
21.8439993485836
 20
107.8941140646877
 10
21.75933208981231
 20
107.8941140646877
 10
21.75933208981231
 20
107.8094400772143
 10
21.67466617678145
 20
107.7247768556643
 10
21.67466617678145
 20
107.6401136341143
 10
21.67466617678145
 20
107.5554396466408
 10
21.67466617678145
 20
107.4707764250908
 97
        0
 75
     0
 76
     1
 98
        1
 10
0.0
 20
0.0
450
        0
451
        0
460
0.0
461
0.0
452
        0
462
0.0
453
        0
470

  0
LWPOLYLINE
  5
E3
330
70
100
AcDbEntity
  8
Capa 1
 62
    18
420
        0
370
     9
100
AcDbPolyline
 90
        4
 70
     0
 43
0.0
 10
41.14799708291368
 20
142.5227712486846
 10
41.14799708291368
 20
140.9987794311674
 10
80.09466427813986
 20
118.4774473953752
 10
183.5573143394188
 20
178.1674516868221
  0
LWPOLYLINE
  5
E4
330
70
100
AcDbEntity
  8
Capa 1
 62
    18
420
        0
370
     9
100
AcDbPolyline
 90
        3
 70
     0
 43
0.0
 10
41.14799708291368
 20
142.5227712486846
 10
80.09466427813986
 20
120.0861132003658
 10
183.5573143394188
 20
179.7761174918127
  0
SPLINE
  5
E5
330
70
100
AcDbEntity
  8
Capa 1
 62
    18
420
        0
370
     9
100
AcDbSpline
210
0.0
220
0.0
230
1.0
 70
    24
 71
     3
 72
     8
 73
     4
 74
     0
 42
0.0000000001
 43
0.0000000001
 40
0.0
 40
0.0
 40
0.0
 40
0.0
 40
1.0
 40
1.0
 40
1.0
 40
1.0
 10
41.14799708291368
 20
142.5227712486846
 30
0.0
 10
41.14799708291368
 20
142.5227712486846
 30
0.0
 10
59.09732944282659
 20
152.9367781362721
 30
0.0
 10
59.09732944282659
 20
152.9367781362721
 30
0.0
  0
SPLINE
  5
E6
330
70
100
AcDbEntity
  8
Capa 1
 62
    18
420
        0
370
     9
100
AcDbSpline
210
0.0
220
0.0
230
1.0
 70
    24
 71
     3
 72
     8
 73
     4
 74
     0
 42
0.0000000001
 43
0.0000000001
 40
0.0
 40
0.0
 40
0.0
 40
0.0
 40
1.0
 40
1.0
 40
1.0
 40
1.0
 10
95.33466319773751
 20
173.9341183545471
 30
0.0
 10
95.33466319773751
 20
173.9341183545471
 30
0.0
 10
110.9979943739703
 20
182.9934383358705
 30
0.0
 10
110.9979943739703
 20
182.9934383358705
 30
0.0
  0
LWPOLYLINE
  5
E7
330
70
100
AcDbEntity
  8
Capa 1
 62
    18
420
        0
370
     9
100
AcDbPolyline
 90
        3
 70
     0
 43
0.0
 10
183.5573143394188
 20
178.1674516868221
 10
183.5573143394188
 20
179.7761174918127
 10
162.8139960835641
 20
191.7987794184674
  0
SPLINE
  5
E8
330
70
100
AcDbEntity
  8
Capa 1
 62
    18
420
        0
370
     9
100
AcDbSpline
210
0.0
220
0.0
230
1.0
 70
    24
 71
     3
 72
     8
 73
     4
 74
     0
 42
0.0000000001
 43
0.0000000001
 40
0.0
 40
0.0
 40
0.0
 40
0.0
 40
1.0
 40
1.0
 40
1.0
 40
1.0
 10
41.14799708291368
 20
140.9987794311674
 30
0.0
 10
41.14799708291368
 20
140.9987794311674
 30
0.0
 10
41.14799708291368
 20
84.61044161058838
 30
0.0
 10
41.14799708291368
 20
84.61044161058838
 30
0.0
  0
SPLINE
  5
E9
330
70
100
AcDbEntity
  8
Capa 1
 62
    18
420
        0
370
     9
100
AcDbSpline
210
0.0
220
0.0
230
1.0
 70
    24
 71
     3
 72
     8
 73
     4
 74
     0
 42
0.0000000001
 43
0.0000000001
 40
0.0
 40
0.0
 40
0.0
 40
0.0
 40
1.0
 40
1.0
 40
1.0
 40
1.0
 10
40.80933073930938
 20
84.78011794619865
 30
0.0
 10
40.80933073930938
 20
84.78011794619865
 30
0.0
 10
78.82466212527268
 20
62.85111086651649
 30
0.0
 10
78.82466212527268
 20
62.85111086651649
 30
0.0
  0
SPLINE
  5
EA
330
70
100
AcDbEntity
  8
Capa 1
 62
    18
420
        0
370
     9
100
AcDbSpline
210
0.0
220
0.0
230
1.0
 70
    24
 71
     3
 72
     8
 73
     4
 74
     0
 42
0.0000000001
 43
0.0000000001
 40
0.0
 40
0.0
 40
0.0
 40
0.0
 40
1.0
 40
1.0
 40
1.0
 40
1.0
 10
80.09466427813986
 20
118.4774473953752
 30
0.0
 10
80.09466427813986
 20
118.4774473953752
 30
0.0
 10
80.09466427813986
 20
120.0861132003658
 30
0.0
 10
80.09466427813986
 20
120.0861132003658
 30
0.0
  0
SPLINE
  5
EB
330
70
100
AcDbEntity
  8
Capa 1
 62
    18
420
        0
370
     9
100
AcDbSpline
210
0.0
220
0.0
230
1.0
 70
    24
 71
     3
 72
     8
 73
     4
 74
     0
 42
0.0000000001
 43
0.0000000001
 40
0.0
 40
0.0
 40
0.0
 40
0.0
 40
1.0
 40
1.0
 40
1.0
 40
1.0
 10
80.09466427813986
 20
62.08910957479619
 30
0.0
 10
80.09466427813986
 20
62.08910957479619
 30
0.0
 10
183.9806519790157
 20
122.0334426574799
 30
0.0
 10
183.9806519790157
 20
122.0334426574799
 30
0.0
  0
LWPOLYLINE
  5
EC
330
70
100
AcDbEntity
  8
Capa 1
 62
    18
420
        0
370
     9
100
AcDbPolyline
 90
       49
 70
     0
 43
0.0
 10
58.67399718619142
 20
161.2341075917987
 10
58.58932858167971
 20
159.540778565258
 10
58.58932858167971
 20
157.5087751206705
 10
58.67399718619142
 20
157.0007742595237
 10
58.67399718619142
 20
156.4081101768268
 10
58.67399718619142
 20
156.2387729678034
 10
58.75866040774144
 20
155.9847725372299
 10
58.84332901225314
 20
155.2227712455096
 10
59.2666612688883
 20
151.9207764139783
 10
59.9439939560969
 20
148.9574452345705
 10
60.11333116512032
 20
148.1954439428502
 10
60.19799438667034
 20
148.0261067338268
 10
60.19799438667034
 20
147.7721063032533
 10
60.36733159569376
 20
147.2641054421065
 10
60.53666342175548
 20
146.7561045809596
 10
60.6213266433055
 20
146.3327777072861
 10
60.87532707387893
 20
145.7401136245892
 10
61.12932750445237
 20
145.062775554419
 10
61.29866471347579
 20
144.5547746932721
 10
61.97599740068439
 20
142.8614456667314
 10
62.48399826183126
 20
142.0147703875377
 10
63.24599417058987
 20
140.914105443694
 10
64.1773272883719
 20
139.9827777088736
 10
64.34666449739532
 20
139.7287772783002
 10
64.51599632345704
 20
139.5594400692768
 10
64.68532814951878
 20
139.4747768477268
 10
65.36266083672737
 20
138.8821127650299
 10
66.03999352393596
 20
138.374111903883
 10
66.2939939545094
 20
138.2047746948596
 10
67.14066385074142
 20
137.6121106121627
 10
69.25733051687892
 20
136.4267716808456
 10
71.28932857850471
 20
135.4954439460252
 10
71.79732943965158
 20
135.3261067370018
 10
72.72866255743361
 20
134.9874430848783
 10
73.65999567521564
 20
134.6487794327549
 10
73.99866471030079
 20
134.5641054452815
 10
74.67599739750939
 20
134.310105014708
 10
75.60733051529142
 20
134.140778571608
 10
76.11533137643829
 20
133.9714413625846
 10
76.1999945979883
 20
133.9714413625846
 10
76.28466320250002
 20
133.9714413625846
 10
76.45399502856175
 20
133.9714413625846
 10
77.46999675085548
 20
133.7174409320112
 10
79.16333116035783
 20
133.4634405014377
 10
80.00999567362816
 20
133.2941140583377
 10
81.11066061747191
 20
133.2094400708643
 10
81.70333008313049
 20
133.2094400708643
 10
83.65065954024457
 20
133.0401136277642
 10
84.83599308860004
 20
133.0401136277642
  0
LWPOLYLINE
  5
ED
330
70
100
AcDbEntity
  8
Capa 1
 62
    18
420
        0
370
     9
100
AcDbPolyline
 90
       41
 70
     1
 43
0.0
 10
58.67399718619142
 20
160.3874430785284
 10
58.92799761676485
 20
158.1014392033674
 10
59.85933073454688
 20
155.9001093156799
 10
61.38332793502581
 20
153.7834426495424
 10
63.41533137961329
 20
151.8361131924283
 10
65.95533030238596
 20
150.1427733999643
 10
68.91866148179378
 20
148.6187708165237
 10
72.30533030079846
 20
147.3487794295799
 10
75.94599416741487
 20
146.4174409288362
 10
79.84066384756641
 20
145.8247768461393
 10
83.81999674926799
 20
145.5707764155658
 10
87.79932965096955
 20
145.6554396371158
 10
91.77865716970941
 20
146.0787772767127
 10
95.50398964083754
 20
146.840778568433
 10
99.05999566886565
 20
147.9414435122768
 10
102.1926640572969
 20
149.2961088866939
 10
104.9866580276813
 20
150.9894379132346
 10
107.2726619028422
 20
152.7674409272487
 10
109.0506541509328
 20
154.7994443718361
 10
110.3206563038
 20
157.0007742595237
 10
110.9133203864969
 20
159.2021041472112
 10
110.9133203864969
 20
161.4881080223721
 10
110.3206563038
 20
163.774111897533
 10
109.0506541509328
 20
165.8907785636705
 10
107.2726619028422
 20
167.9227712423346
 10
104.9866580276813
 20
169.7854374778987
 10
102.1926640572969
 20
171.3941032828893
 10
99.05999566886565
 20
172.8334426447799
 10
95.50398964083754
 20
173.8494551329971
 10
91.77865716970941
 20
174.6114564247173
 10
87.79932965096955
 20
175.0347832983908
 10
83.81999674926799
 20
175.1194465199408
 10
79.84066384756641
 20
174.8654460893674
 10
75.94599416741487
 20
174.2727820066705
 10
72.30533030079846
 20
173.3414435059268
 10
68.91866148179378
 20
172.1561045746096
 10
65.95533030238596
 20
170.6321127570924
 10
63.41533137961329
 20
168.8541097430783
 10
61.38332793502581
 20
166.9067695200409
 10
59.85933073454688
 20
164.8747768413768
 10
58.92799761676485
 20
162.5887729662158
  0
LWPOLYLINE
  5
EE
330
70
100
AcDbEntity
  8
Capa 1
 62
    18
420
        0
370
     9
100
AcDbPolyline
 90
       48
 70
     0
 43
0.0
 10
110.9133203864969
 20
161.2341075917987
 10
111.0826575955203
 20
159.540778565258
 10
111.0826575955203
 20
157.5087751206705
 10
110.9979943739703
 20
157.0007742595237
 10
110.9133203864969
 20
156.4081101768268
 10
110.9133203864969
 20
156.2387729678034
 10
110.9133203864969
 20
155.9847725372299
 10
110.8286571649469
 20
155.2227712455096
 10
110.3206563038
 20
151.9207764139783
 10
109.7279922211031
 20
148.9574452345705
 10
109.4739917905297
 20
148.1954439428502
 10
109.4739917905297
 20
148.0261067338268
 10
109.3893285689797
 20
147.7721063032533
 10
109.3046545815063
 20
147.2641054421065
 10
109.1353281384062
 20
146.7561045809596
 10
108.9659909293828
 20
146.3327777072861
 10
108.7119904988094
 20
145.7401136245892
 10
108.5426640557094
 20
145.062775554419
 10
108.3733268466859
 20
144.5547746932721
 10
107.6959887765156
 20
142.8614456667314
 10
107.1033246938188
 20
142.0147703875377
 10
106.3413234020984
 20
140.914105443694
 10
105.4946588888281
 20
139.9827777088736
 10
105.2406584582547
 20
139.7287772783002
 10
105.0713212492313
 20
139.5594400692768
 10
104.9866580276813
 20
139.4747768477268
 10
104.3093307234344
 20
138.8821127650299
 10
103.5473294317141
 20
138.374111903883
 10
103.3779922226906
 20
138.2047746948596
 10
102.5313277094203
 20
137.6121106121627
 10
100.4146610432828
 20
136.4267716808456
 10
98.29799437714534
 20
135.4954439460252
 10
97.78999351599848
 20
135.3261067370018
 10
96.94332900272815
 20
134.9874430848783
 10
95.92732728043442
 20
134.6487794327549
 10
95.58866362831095
 20
134.5641054452815
 10
94.91132555814067
 20
134.310105014708
 10
94.06466104487034
 20
134.140778571608
 10
93.55666018372346
 20
133.9714413625846
 10
93.38732297470006
 20
133.9714413625846
 10
93.13332254412662
 20
133.9714413625846
 10
92.11732082183287
 20
133.7174409320112
 10
90.50865501684224
 20
133.4634405014377
 10
89.57732728202191
 20
133.2941140583377
 10
88.56133094268987
 20
133.2094400708643
 10
87.96866147703127
 20
133.2094400708643
 10
86.02132663695551
 20
133.0401136277642
 10
84.83599308860004
 20
133.0401136277642
  0
LWPOLYLINE
  5
EF
330
70
100
AcDbEntity
  8
Capa 1
 62
    18
420
        0
370
     9
100
AcDbPolyline
 90
       14
 70
     0
 43
0.0
 10
67.22532707229143
 20
150.5661110395612
 10
70.18866363466095
 20
149.1267716776706
 10
73.49066384915392
 20
147.9414435122768
 10
77.13132771577034
 20
147.0947789990065
 10
80.94132879141019
 20
146.6714413594096
 10
84.83599308860004
 20
146.5021041503862
 10
88.73066276875158
 20
146.6714413594096
 10
92.54065846142973
 20
147.1794422205565
 10
96.26599093255785
 20
148.1107699553768
 10
99.65265975156254
 20
149.2961088866939
 10
102.7006541525203
 20
150.7354374826612
 10
105.2406584582547
 20
152.4287772751252
 10
107.3573251243922
 20
154.3761067322393
 10
108.9659909293828
 20
156.4081101768268
  0
LWPOLYLINE
  5
F0
330
70
100
AcDbEntity
  8
Capa 1
 62
    18
420
        0
370
     9
100
AcDbPolyline
 90
       16
 70
     0
 43
0.0
 10
94.23398748797037
 20
172.9181058663299
 10
90.42399179529223
 20
173.5954547024236
 10
86.52932749810238
 20
173.9341183545471
 10
82.5499945964008
 20
173.8494551329971
 10
78.65533029921095
 20
173.4261174934002
 10
75.01466104963284
 20
172.6641054357565
 10
71.54332900907815
 20
171.6481037134627
 10
68.4106606206469
 20
170.2087751174955
 10
65.70132987181252
 20
168.6001093125049
 10
63.49999460116331
 20
166.7374430769408
 10
61.89132879617268
 20
164.7901028539034
 10
60.79066385232891
 20
162.5887729662158
 10
60.28266299118205
 20
160.3874430785284
 10
60.45199481724377
 20
158.1861131908408
 10
61.29866471347579
 20
155.9847725372299
 10
62.65333008789298
 20
153.8681058710924
  0
LWPOLYLINE
  5
F1
330
70
100
AcDbEntity
  8
Capa 1
 62
    18
420
        0
370
     9
100
AcDbPolyline
 90
       26
 70
     0
 43
0.0
 10
83.05799545754767
 20
146.5021041503862
 10
82.71932642246254
 20
146.7561045809596
 10
82.46533137485078
 20
146.9254417899831
 10
82.29599416582736
 20
147.2641054421065
 10
82.21133094427736
 20
147.5181058726799
 10
82.21133094427736
 20
147.7721063032533
 10
82.29599416582736
 20
148.1107699553768
 10
82.5499945964008
 20
148.3647703859502
 10
82.80399502697425
 20
148.6187708165237
 10
83.14266406205939
 20
148.7881080255471
 10
83.56599631869455
 20
148.9574452345705
 10
84.07399717984143
 20
149.0421084561205
 10
84.49732943647658
 20
149.1267716776706
 10
85.00533029762346
 20
149.1267716776706
 10
85.51333115877033
 20
149.0421084561205
 10
86.02132663695551
 20
148.9574452345705
 10
86.44466427655236
 20
148.7881080255471
 10
86.7833279286758
 20
148.6187708165237
 10
87.03732835924924
 20
148.3647703859502
 10
87.29132878982268
 20
148.1107699553768
 10
87.3759973943344
 20
147.8567802907268
 10
87.46066061588441
 20
147.5181058726799
 10
87.3759973943344
 20
147.2641054421065
 10
87.20666018531096
 20
147.010105011533
 10
86.95265975473754
 20
146.7561045809596
 10
86.61399610261408
 20
146.5021041503862
  0
LWPOLYLINE
  5
F2
330
70
100
AcDbEntity
  8
Capa 1
 62
    18
420
        0
370
     9
100
AcDbPolyline
 90
       27
 70
     0
 43
0.0
 10
82.29599416582736
 20
146.5021041503862
 10
81.61866147861877
 20
146.840778568433
 10
81.11066061747191
 20
147.2641054421065
 10
80.77199696534846
 20
147.6874430817033
 10
80.51799653477502
 20
148.1107699553768
 10
80.4333279302633
 20
148.6187708165237
 10
80.51799653477502
 20
149.1267716776706
 10
80.77199696534846
 20
149.5501093172674
 10
81.19532922198361
 20
149.9734469568642
 10
81.7879933046805
 20
150.3967738305377
 10
82.38066277033908
 20
150.6507742611112
 10
83.14266406205939
 20
150.9047746916846
 10
83.904659970818
 20
151.074111900708
 10
84.75132986705002
 20
151.074111900708
 10
85.59799438032035
 20
151.074111900708
 10
86.44466427655236
 20
150.9047746916846
 10
87.12199696376094
 20
150.6507742611112
 10
87.79932965096955
 20
150.3967738305377
 10
88.39199373366644
 20
150.0581101784143
 10
88.8153259903016
 20
149.6347725388174
 10
89.06932642087502
 20
149.1267716776706
 10
89.15399502538674
 20
148.7034448039971
 10
89.15399502538674
 20
148.1954439428502
 10
88.8999945948133
 20
147.6874430817033
 10
88.56133094268987
 20
147.2641054421065
 10
88.05333008154297
 20
146.9254417899831
 10
87.46066061588441
 20
146.5867781378596
  0
LWPOLYLINE
  5
F3
330
70
100
AcDbEntity
  8
Capa 1
 62
    18
420
        0
370
     9
100
AcDbPolyline
 90
       14
 70
     0
 43
0.0
 10
82.29599416582736
 20
147.1794422205565
 10
82.5499945964008
 20
147.4334426511299
 10
82.80399502697425
 20
147.6874430817033
 10
83.14266406205939
 20
147.8567802907268
 10
83.56599631869455
 20
148.0261067338268
 10
84.07399717984143
 20
148.1107699553768
 10
84.5819980409883
 20
148.1954439428502
 10
85.08999351917347
 20
148.1954439428502
 10
85.59799438032035
 20
148.1107699553768
 10
86.02132663695551
 20
148.0261067338268
 10
86.44466427655236
 20
147.8567802907268
 10
86.7833279286758
 20
147.6874430817033
 10
87.12199696376094
 20
147.4334426511299
 10
87.29132878982268
 20
147.1794422205565
  0
LWPOLYLINE
  5
F4
330
70
100
AcDbEntity
  8
Capa 1
 62
    18
420
        0
370
     9
100
AcDbPolyline
 90
       48
 70
     0
 43
0.0
 10
110.6593307218469
 20
191.2061153357705
 10
110.4899935128234
 20
189.5974495307799
 10
110.4899935128234
 20
187.4807828646424
 10
110.5746567343735
 20
186.9727820034955
 10
110.6593307218469
 20
186.3801179207986
 10
110.6593307218469
 20
186.2954546992486
 10
110.6593307218469
 20
185.9567802812018
 10
110.7439939433969
 20
185.1947897554049
 10
111.1673208170703
 20
181.8927733920268
 10
111.8446588872406
 20
178.9294529785423
 10
112.0139960962641
 20
178.1674516868221
 10
112.0986593178141
 20
177.9981144777986
 10
112.1833225393641
 20
177.7441140472252
 10
112.2679965268375
 20
177.2361131860783
 10
112.4373229699375
 20
176.7281230908548
 10
112.6066601789609
 20
176.304785451258
 10
112.8606606095344
 20
175.7121213685611
 10
113.0299870526344
 20
175.0347832983908
 10
113.1993242616578
 20
174.6114564247173
 10
113.8766623318281
 20
172.8334426447799
 10
114.469326414525
 20
171.9867781315096
 10
115.2313277062453
 20
170.8861131876658
 10
116.0779922195156
 20
169.9547746869221
 10
116.3319926500891
 20
169.7854374778987
 10
116.4166558716391
 20
169.6161110347986
 10
116.5859930806625
 20
169.4467738257752
 10
117.2633203849094
 20
168.8541097430783
 10
118.0253216766297
 20
168.3461088819315
 10
118.1946588856531
 20
168.1767716729081
 10
119.0413233989235
 20
167.5841075902112
 10
121.157990065061
 20
166.3987794248174
 10
123.2746567311985
 20
165.4674409240737
 10
123.7826575923453
 20
165.2981037150502
 10
124.6293221056157
 20
164.9594400629268
 10
125.6453238279094
 20
164.6207764108033
 10
125.9839874800328
 20
164.5361131892533
 10
126.6613255502031
 20
164.3667759802299
 10
127.5079900634735
 20
164.1127755496565
 10
128.0159909246203
 20
164.0281123281065
 10
128.1853281336437
 20
163.9434383406331
 10
128.4393285642172
 20
163.9434383406331
 10
129.4553302865109
 20
163.6894379100596
 10
131.0639960915016
 20
163.4354374794862
 10
131.9953238263219
 20
163.3507742579362
 10
133.0113255486156
 20
163.1814370489127
 10
133.6039896313125
 20
163.1814370489127
 10
135.55132985435
 20
163.0121106058127
 10
136.7366580197438
 20
163.0121106058127
  0
LWPOLYLINE
  5
F5
330
70
100
AcDbEntity
  8
Capa 1
 62
    18
420
        0
370
     9
100
AcDbPolyline
 90
       41
 70
     1
 43
0.0
 10
110.5746567343735
 20
190.3594400565768
 10
110.9133203864969
 20
188.0734469473392
 10
111.8446588872406
 20
185.8721170596517
 10
113.2839874832078
 20
183.7554503935143
 10
115.4006541493453
 20
181.8081101704768
 10
117.9406584550797
 20
180.1147811439362
 10
120.9039896344875
 20
178.5907893264189
 10
124.2906584534922
 20
177.3207871735517
 10
127.9313277030703
 20
176.389448672808
 10
131.7413233957485
 20
175.7967845901111
 10
135.72065629745
 20
175.5427841595377
 10
139.784663186625
 20
175.6274473810877
 10
143.6793221008531
 20
176.0507850206846
 10
147.4893285594547
 20
176.8127863124049
 10
150.9606606000094
 20
177.9134512562486
 10
154.1779922099906
 20
179.2681166306658
 10
156.971986180375
 20
180.9614564231299
 10
159.257990055536
 20
182.8241118927705
 10
161.03599306955
 20
184.856115337358
 10
162.2213212349438
 20
186.9727820034955
 10
162.8139960835641
 20
189.258775112733
 10
162.8139960835641
 20
191.4601050004206
 10
162.2213212349438
 20
193.7461196415049
 10
161.03599306955
 20
195.8627863076424
 10
159.257990055536
 20
197.8947682203831
 10
156.971986180375
 20
199.7574452218705
 10
154.1779922099906
 20
201.3661110268612
 10
150.9606606000094
 20
202.8054503887518
 10
147.4893285594547
 20
203.9061153325955
 10
143.6793221008531
 20
204.6681058583924
 10
139.784663186625
 20
205.0914434979893
 10
135.72065629745
 20
205.1761067195393
 10
131.7413233957485
 20
204.9221170548892
 10
127.9313277030703
 20
204.3294529721924
 10
124.2906584534922
 20
203.3981144714486
 10
120.9039896344875
 20
202.1281015526581
 10
117.9406584550797
 20
200.6041205010642
 10
115.4006541493453
 20
198.9107699426768
 10
113.2839874832078
 20
196.9634512514861
 10
111.8446588872406
 20
194.8467845853486
 10
110.9133203864969
 20
192.6454546976611
  0
LWPOLYLINE
  5
F6
330
70
100
AcDbEntity
  8
Capa 1
 62
    18
420
        0
370
     9
100
AcDbPolyline
 90
       49
 70
     0
 43
0.0
 10
162.8986593051141
 20
191.2061153357705
 10
162.9833225266641
 20
189.5974495307799
 10
162.9833225266641
 20
187.4807828646424
 10
162.8986593051141
 20
186.9727820034955
 10
162.8986593051141
 20
186.3801179207986
 10
162.8986593051141
 20
186.2954546992486
 10
162.8139960835641
 20
185.9567802812018
 10
162.7293220960907
 20
185.1947897554049
 10
162.3059952224172
 20
181.8927733920268
 10
161.6286571522469
 20
178.9294529785423
 10
161.4593199432235
 20
178.1674516868221
 10
161.3746567216734
 20
177.9981144777986
 10
161.3746567216734
 20
177.7441140472252
 10
161.2053195126501
 20
177.2361131860783
 10
161.03599306955
 20
176.7281230908548
 10
160.9513190820766
 20
176.304785451258
 10
160.6973294174266
 20
175.7121213685611
 10
160.4433289868531
 20
175.0347832983908
 10
160.2739917778297
 20
174.6114564247173
 10
159.5966537076594
 20
172.8334426447799
 10
159.0886528465125
 20
171.9867781315096
 10
158.3266623207156
 20
170.8861131876658
 10
157.3953238199719
 20
169.9547746869221
 10
157.2259866109485
 20
169.7854374778987
 10
157.0566601678484
 20
169.6161110347986
 10
156.887322958825
 20
169.4467738257752
 10
156.2099956545781
 20
168.8541097430783
 10
155.5326575844079
 20
168.3461088819315
 10
155.2786571538344
 20
168.1767716729081
 10
154.4319926405641
 20
167.5841075902112
 10
152.3153259744266
 20
166.3987794248174
 10
150.2833225298391
 20
165.4674409240737
 10
149.7753216686922
 20
165.2981037150502
 10
148.8439939338719
 20
164.9594400629268
 10
147.9126554331282
 20
164.6207764108033
 10
147.5739917810047
 20
164.5361131892533
 10
146.8966537108344
 20
164.3667759802299
 10
145.9653259760141
 20
164.1127755496565
 10
145.4573251148672
 20
164.0281123281065
 10
145.3726618933172
 20
163.9434383406331
 10
145.2879879058438
 20
163.9434383406331
 10
145.1186614627437
 20
163.9434383406331
 10
144.10265974045
 20
163.6894379100596
 10
142.409319947986
 20
163.4354374794862
 10
141.5626554347157
 20
163.3507742579362
 10
140.4619904908719
 20
163.1814370489127
 10
139.869326408175
 20
163.1814370489127
 10
137.9219861851376
 20
163.0121106058127
 10
136.7366580197438
 20
163.0121106058127
  0
LWPOLYLINE
  5
F7
330
70
100
AcDbEntity
  8
Capa 1
 62
    18
420
        0
370
     9
100
AcDbPolyline
 90
       14
 70
     0
 43
0.0
 10
119.2106606079469
 20
180.538118783533
 10
122.0893285658047
 20
179.0987794216424
 10
125.475986618886
 20
177.9981144777986
 10
129.0319926469141
 20
177.1514499645283
 10
132.8419883395922
 20
176.6434491033814
 10
136.7366580197438
 20
176.4741226602814
 10
140.7159909214453
 20
176.6434491033814
 10
144.5259866141235
 20
177.2361131860783
 10
148.1666558637016
 20
178.0827884652721
 10
151.5533246827063
 20
179.2681166306658
 10
154.6013190836641
 20
180.707445226633
 10
157.2259866109485
 20
182.4007742531737
 10
159.342653277086
 20
184.3481144762111
 10
160.8666558605266
 20
186.3801179207986
  0
LWPOLYLINE
  5
F8
330
70
100
AcDbEntity
  8
Capa 1
 62
    18
420
        0
370
     9
100
AcDbPolyline
 90
       16
 70
     0
 43
0.0
 10
146.1346631850375
 20
202.9747768318518
 10
142.324656726436
 20
203.5674409145487
 10
138.4299870462844
 20
203.9061153325955
 10
134.5353281320562
 20
203.8214521110455
 10
130.6406584519047
 20
203.3981144714486
 10
126.9153259807766
 20
202.636102413805
 10
123.4439939402219
 20
201.620122223358
 10
120.3959887733407
 20
200.2654460830174
 10
117.6866580245063
 20
198.5721170564767
 10
115.4853281368187
 20
196.7941032765393
 10
113.7919883443547
 20
194.7621213637986
 10
112.691323400511
 20
192.5607699442643
 10
112.2679965268375
 20
190.3594400565768
 10
112.4373229699375
 20
188.1581101688893
 10
113.1993242616578
 20
185.9567802812018
 10
114.6386636235484
 20
183.8401136150643
  0
LWPOLYLINE
  5
F9
330
70
100
AcDbEntity
  8
Capa 1
 62
    18
420
        0
370
     9
100
AcDbPolyline
 90
       26
 70
     0
 43
0.0
 10
135.0433289932031
 20
176.4741226602814
 10
134.7046545751563
 20
176.7281230908548
 10
134.4506541445829
 20
176.9821127555049
 10
134.1966537140094
 20
177.2361131860783
 10
134.1119904924594
 20
177.4901136166518
 10
134.1966537140094
 20
177.8287880346986
 10
134.2813277014828
 20
178.0827884652721
 10
134.4506541445829
 20
178.3367888958455
 10
134.7893285626297
 20
178.5907893264189
 10
135.1279922147531
 20
178.7601157695189
 10
135.55132985435
 20
178.9294529785423
 10
135.9746567280235
 20
179.0141162000924
 10
136.4826575891703
 20
179.0987794216424
 10
136.9906584503172
 20
179.0987794216424
 10
137.4986593114641
 20
179.0987794216424
 10
137.9219861851376
 20
178.9294529785423
 10
138.3453238247344
 20
178.7601157695189
 10
138.7686614643312
 20
178.5907893264189
 10
139.0226618949047
 20
178.3367888958455
 10
139.1919883380047
 20
178.0827884652721
 10
139.3613255470282
 20
177.8287880346986
 10
139.3613255470282
 20
177.5747876041252
 10
139.2766623254781
 20
177.2361131860783
 10
139.1073251164547
 20
176.9821127555049
 10
138.8533246858813
 20
176.7281230908548
 10
138.5146610337578
 20
176.4741226602814
  0
LWPOLYLINE
  5
FA
330
70
100
AcDbEntity
  8
Capa 1
 62
    18
420
        0
370
     9
100
AcDbPolyline
 90
       27
 70
     0
 43
0.0
 10
134.1966537140094
 20
176.5587858818314
 10
133.6039896313125
 20
176.8127863124049
 10
133.0959887701657
 20
177.2361131860783
 10
132.6726618964922
 20
177.6594508256752
 10
132.5033246874688
 20
178.1674516868221
 10
132.4186614659188
 20
178.5907893264189
 10
132.5033246874688
 20
179.0987794216424
 10
132.7573251180422
 20
179.5221170612393
 10
133.1806627576391
 20
179.9454547008361
 10
133.6886636187859
 20
180.3687815745096
 10
134.3659909230328
 20
180.622782005083
 10
135.0433289932031
 20
180.8767716697331
 10
135.8899935064735
 20
181.0461196446799
 10
136.7366580197438
 20
181.0461196446799
 10
137.5833225330141
 20
181.0461196446799
 10
138.3453238247344
 20
180.8767716697331
 10
139.1073251164547
 20
180.707445226633
 10
139.784663186625
 20
180.3687815745096
 10
140.2926532818485
 20
180.0301179223861
 10
140.7159909214453
 20
179.6067802827893
 10
140.9699913520188
 20
179.0987794216424
 10
141.1393285610422
 20
178.6754525479689
 10
141.0546545735688
 20
178.1674516868221
 10
140.8853281304688
 20
177.7441140472252
 10
140.4619904908719
 20
177.2361131860783
 10
139.953989629725
 20
176.8974495339549
 10
139.3613255470282
 20
176.5587858818314
  0
LWPOLYLINE
  5
FB
330
70
100
AcDbEntity
  8
Capa 1
 62
    18
420
        0
370
     9
100
AcDbPolyline
 90
       14
 70
     0
 43
0.0
 10
134.2813277014828
 20
177.1514499645283
 10
134.4506541445829
 20
177.4054503951018
 10
134.7893285626297
 20
177.6594508256752
 10
135.1279922147531
 20
177.8287880346986
 10
135.55132985435
 20
177.9981144777986
 10
135.9746567280235
 20
178.0827884652721
 10
136.4826575891703
 20
178.1674516868221
 10
136.9906584503172
 20
178.1674516868221
 10
137.4986593114641
 20
178.0827884652721
 10
137.9219861851376
 20
177.9981144777986
 10
138.3453238247344
 20
177.8287880346986
 10
138.7686614643312
 20
177.6594508256752
 10
139.0226618949047
 20
177.4054503951018
 10
139.2766623254781
 20
177.1514499645283
  0
ENDSEC
  0
SECTION
  2
OBJECTS
  0
DICTIONARY
  5
C
330
0
100
AcDbDictionary
281
     1
  3
ACAD_COLOR
350
63
  3
ACAD_DETAILVIEWSTYLE
350
6A
  3
ACAD_GROUP
350
D
  3
ACAD_LAYOUT
350
62
  3
ACAD_MATERIAL
350
10
  3
ACAD_MLEADERSTYLE
350
66
  3
ACAD_MLINESTYLE
350
5F
  3
ACAD_PLOTSETTINGS
350
61
  3
ACAD_PLOTSTYLENAME
350
E
  3
ACAD_SCALELIST
350
42
  3
ACAD_SECTIONVIEWSTYLE
350
68
  3
ACAD_TABLESTYLE
350
64
  3
ACAD_VISUALSTYLE
350
29
  3
ACDB_RECOMPOSE_DATA
350
104
  3
AcDbVariableDictionary
350
FC
  0
DICTIONARY
  5
63
102
{ACAD_REACTORS
330
C
102
}
330
C
100
AcDbDictionary
281
     1
  0
DICTIONARY
  5
6A
102
{ACAD_REACTORS
330
C
102
}
330
C
100
AcDbDictionary
281
     1
  3
Imperial24
350
6B
  0
DICTIONARY
  5
D
102
{ACAD_REACTORS
330
C
102
}
330
C
100
AcDbDictionary
281
     1
  0
DICTIONARY
  5
62
102
{ACAD_REACTORS
330
C
102
}
330
C
100
AcDbDictionary
281
     1
  3
Layout1
350
6F
  3
Layout2
350
77
  3
Model
350
73
  0
DICTIONARY
  5
10
102
{ACAD_REACTORS
330
C
102
}
330
C
100
AcDbDictionary
281
     1
  3
ByBlock
350
19
  3
ByLayer
350
11
  3
Global
350
21
  0
DICTIONARY
  5
66
102
{ACAD_REACTORS
330
C
102
}
330
C
100
AcDbDictionary
281
     1
  3
Standard
350
67
  0
DICTIONARY
  5
5F
102
{ACAD_REACTORS
330
C
102
}
330
C
100
AcDbDictionary
281
     1
  3
Standard
350
60
  0
DICTIONARY
  5
61
102
{ACAD_REACTORS
330
C
102
}
330
C
100
AcDbDictionary
281
     1
  0
ACDBDICTIONARYWDFLT
  5
E
102
{ACAD_REACTORS
330
C
102
}
330
C
100
AcDbDictionary
281
     1
  3
Normal
350
F
100
AcDbDictionaryWithDefault
340
F
  0
DICTIONARY
  5
42
102
{ACAD_REACTORS
330
C
102
}
330
C
100
AcDbDictionary
281
     1
  3
A0
350
43
  3
A1
350
44
  3
A2
350
45
  3
A3
350
46
  3
A4
350
47
  3
A5
350
48
  3
A6
350
49
  3
A7
350
4A
  3
A8
350
4B
  3
A9
350
4C
  3
B0
350
4D
  3
B1
350
4E
  3
B2
350
4F
  3
B3
350
50
  3
B4
350
51
  3
B5
350
52
  3
B6
350
53
  0
DICTIONARY
  5
68
102
{ACAD_REACTORS
330
C
102
}
330
C
100
AcDbDictionary
281
     1
  3
Imperial24
350
69
  0
DICTIONARY
  5
64
102
{ACAD_REACTORS
330
C
102
}
330
C
100
AcDbDictionary
281
     1
  3
Standard
350
65
  0
DICTIONARY
  5
29
102
{ACAD_REACTORS
330
C
102
}
330
C
100
AcDbDictionary
281
     1
  3
2dWireframe
350
2F
  3
Basic
350
2E
  3
Brighten
350
35
  3
ColorChange
350
39
  3
Conceptual
350
32
  3
Dim
350
34
  3
EdgeColorOff
350
41
  3
Facepattern
350
38
  3
Flat
350
2A
  3
FlatWithEdges
350
2B
  3
Gouraud
350
2C
  3
GouraudWithEdges
350
2D
  3
Hidden
350
31
  3
JitterOff
350
3F
  3
Linepattern
350
37
  3
OverhangOff
350
40
  3
Realistic
350
33
  3
Shaded
350
3E
  3
Shaded with edges
350
3D
  3
Shades of Gray
350
3A
  3
Sketchy
350
3B
  3
Thicken
350
36
  3
Wireframe
350
30
  3
X-Ray
350
3C
  0
XRECORD
  5
104
102
{ACAD_REACTORS
330
C
102
}
330
C
100
AcDbXrecord
280
     1
 90
        1
330
65
  0
DICTIONARY
  5
FC
102
{ACAD_REACTORS
330
C
102
}
330
C
100
AcDbDictionary
281
     1
  3
CANNOSCALE
350
101
  3
CMLEADERSTYLE
350
FE
  3
CTABLESTYLE
350
FD
  3
CVIEWDETAILSTYLE
350
FF
  3
CVIEWSECTIONSTYLE
350
100
  0
ACDBDETAILVIEWSTYLE
  5
6B
102
{ACAD_XDICTIONARY
360
139
102
}
102
{ACAD_REACTORS
330
6A
102
}
330
6A
100
AcDbModelDocViewStyle
 70
     0
  3
Imperial24
290
     0
100
AcDbDetailViewStyle
 70
     0
 71
     0
 90
        3
 71
     1
340
55
 62
   256
 40
0.24
340
0
 62
   256
 40
0.24
300

 40
0.36
280
     3
 71
     2
340
5D
 90
       25
 62
   256
 71
     3
340
55
 62
   256
 40
0.24
 90
        1
 40
0.75
 90
        1
300
%<\AcVar ViewType \f "%tc1">% %<\AcVar ViewDetailId>%\PSCALE %<\AcVar ViewScale \f "%sn">%
 71
     4
340
5D
 90
       25
 62
   256
340
5D
 90
       25
 62
   256
280
     0
  0
LAYOUT
  5
6F
102
{ACAD_REACTORS
330
62
102
}
330
62
100
AcDbPlotSettings
  1

  2

  4

  6

 40
0.0
 41
0.0
 42
0.0
 43
0.0
 44
0.0
 45
0.0
 46
0.0
 47
0.0
 48
0.0
 49
0.0
140
0.0
141
0.0
142
1.0
143
1.0
 70
   688
 72
     0
 73
     0
 74
     5
  7

 75
    16
147
1.0
 76
     0
 77
     2
 78
   300
148
0.0
149
0.0
100
AcDbLayout
  1
Layout1
 70
     1
 71
     1
 10
0.0
 20
0.0
 11
12.0
 21
9.0
 12
0.0
 22
0.0
 32
0.0
 14
0.0
 24
0.0
 34
0.0
 15
0.0
 25
0.0
 35
0.0
146
0.0
 13
0.0
 23
0.0
 33
0.0
 16
1.0
 26
0.0
 36
0.0
 17
0.0
 27
1.0
 37
0.0
 76
     0
330
6C
  0
LAYOUT
  5
77
102
{ACAD_REACTORS
330
62
102
}
330
62
100
AcDbPlotSettings
  1

  2

  4

  6

 40
0.0
 41
0.0
 42
0.0
 43
0.0
 44
0.0
 45
0.0
 46
0.0
 47
0.0
 48
0.0
 49
0.0
140
0.0
141
0.0
142
1.0
143
1.0
 70
   688
 72
     0
 73
     0
 74
     5
  7

 75
    16
147
1.0
 76
     0
 77
     2
 78
   300
148
0.0
149
0.0
100
AcDbLayout
  1
Layout2
 70
     1
 71
     2
 10
0.0
 20
0.0
 11
12.0
 21
9.0
 12
0.0
 22
0.0
 32
0.0
 14
0.0
 24
0.0
 34
0.0
 15
0.0
 25
0.0
 35
0.0
146
0.0
 13
0.0
 23
0.0
 33
0.0
 16
1.0
 26
0.0
 36
0.0
 17
0.0
 27
1.0
 37
0.0
 76
     0
330
74
  0
LAYOUT
  5
73
102
{ACAD_REACTORS
330
62
102
}
330
62
100
AcDbPlotSettings
  1

  2

  4

  6

 40
0.0
 41
0.0
 42
0.0
 43
0.0
 44
0.0
 45
0.0
 46
0.0
 47
0.0
 48
0.0
 49
0.0
140
0.0
141
0.0
142
1.0
143
1.0
 70
  1712
 72
     0
 73
     0
 74
     0
  7

 75
     0
147
1.0
 76
     0
 77
     2
 78
   300
148
0.0
149
0.0
100
AcDbLayout
  1
Model
 70
     1
 71
     0
 10
0.0
 20
0.0
 11
12.0
 21
9.0
 12
0.0
 22
0.0
 32
0.0
 14
0.0
 24
0.0
 34
0.0
 15
0.0
 25
0.0
 35
0.0
146
0.0
 13
0.0
 23
0.0
 33
0.0
 16
1.0
 26
0.0
 36
0.0
 17
0.0
 27
1.0
 37
0.0
 76
     0
330
70
  0
MATERIAL
  5
19
102
{ACAD_XDICTIONARY
360
1A
102
}
102
{ACAD_REACTORS
330
10
102
}
330
10
100
AcDbMaterial
  1
ByBlock
 72
     0
 43
0.0208333333333333
 43
0.0
 43
0.0
 43
0.0
 43
0.0
 43
0.0208333333333333
 43
0.0
 43
0.0
 43
0.0
 43
0.0
 43
1.0
 43
0.0
 43
0.0
 43
0.0
 43
0.0
 43
1.0
 77
     0
 47
0.0208333333333333
 47
0.0
 47
0.0
 47
0.0
 47
0.0
 47
0.0208333333333333
 47
0.0
 47
0.0
 47
0.0
 47
0.0
 47
1.0
 47
0.0
 47
0.0
 47
0.0
 47
0.0
 47
1.0
171
     0
 49
0.0208333333333333
 49
0.0
 49
0.0
 49
0.0
 49
0.0
 49
0.0208333333333333
 49
0.0
 49
0.0
 49
0.0
 49
0.0
 49
1.0
 49
0.0
 49
0.0
 49
0.0
 49
0.0
 49
1.0
175
     0
142
0.0208333333333333
142
0.0
142
0.0
142
0.0
142
0.0
142
0.0208333333333333
142
0.0
142
0.0
142
0.0
142
0.0
142
1.0
142
0.0
142
0.0
142
0.0
142
0.0
142
1.0
179
     0
144
0.0208333333333333
144
0.0
144
0.0
144
0.0
144
0.0
144
0.0208333333333333
144
0.0
144
0.0
144
0.0
144
0.0
144
1.0
144
0.0
144
0.0
144
0.0
144
0.0
144
1.0
147
0.0208333333333333
147
0.0
147
0.0
147
0.0
147
0.0
147
0.0208333333333333
147
0.0
147
0.0
147
0.0
147
0.0
147
1.0
147
0.0
147
0.0
147
0.0
147
0.0
147
1.0
  0
MATERIAL
  5
11
102
{ACAD_XDICTIONARY
360
12
102
}
102
{ACAD_REACTORS
330
10
102
}
330
10
100
AcDbMaterial
  1
ByLayer
 72
     0
 43
0.0208333333333333
 43
0.0
 43
0.0
 43
0.0
 43
0.0
 43
0.0208333333333333
 43
0.0
 43
0.0
 43
0.0
 43
0.0
 43
1.0
 43
0.0
 43
0.0
 43
0.0
 43
0.0
 43
1.0
 77
     0
 47
0.0208333333333333
 47
0.0
 47
0.0
 47
0.0
 47
0.0
 47
0.0208333333333333
 47
0.0
 47
0.0
 47
0.0
 47
0.0
 47
1.0
 47
0.0
 47
0.0
 47
0.0
 47
0.0
 47
1.0
171
     0
 49
0.0208333333333333
 49
0.0
 49
0.0
 49
0.0
 49
0.0
 49
0.0208333333333333
 49
0.0
 49
0.0
 49
0.0
 49
0.0
 49
1.0
 49
0.0
 49
0.0
 49
0.0
 49
0.0
 49
1.0
175
     0
142
0.0208333333333333
142
0.0
142
0.0
142
0.0
142
0.0
142
0.0208333333333333
142
0.0
142
0.0
142
0.0
142
0.0
142
1.0
142
0.0
142
0.0
142
0.0
142
0.0
142
1.0
179
     0
144
0.0208333333333333
144
0.0
144
0.0
144
0.0
144
0.0
144
0.0208333333333333
144
0.0
144
0.0
144
0.0
144
0.0
144
1.0
144
0.0
144
0.0
144
0.0
144
0.0
144
1.0
147
0.0208333333333333
147
0.0
147
0.0
147
0.0
147
0.0
147
0.0208333333333333
147
0.0
147
0.0
147
0.0
147
0.0
147
1.0
147
0.0
147
0.0
147
0.0
147
0.0
147
1.0
  0
MATERIAL
  5
21
102
{ACAD_XDICTIONARY
360
22
102
}
102
{ACAD_REACTORS
330
10
102
}
330
10
100
AcDbMaterial
  1
Global
 72
     0
 43
0.0208333333333333
 43
0.0
 43
0.0
 43
0.0
 43
0.0
 43
0.0208333333333333
 43
0.0
 43
0.0
 43
0.0
 43
0.0
 43
1.0
 43
0.0
 43
0.0
 43
0.0
 43
0.0
 43
1.0
 77
     0
 47
0.0208333333333333
 47
0.0
 47
0.0
 47
0.0
 47
0.0
 47
0.0208333333333333
 47
0.0
 47
0.0
 47
0.0
 47
0.0
 47
1.0
 47
0.0
 47
0.0
 47
0.0
 47
0.0
 47
1.0
171
     0
 49
0.0208333333333333
 49
0.0
 49
0.0
 49
0.0
 49
0.0
 49
0.0208333333333333
 49
0.0
 49
0.0
 49
0.0
 49
0.0
 49
1.0
 49
0.0
 49
0.0
 49
0.0
 49
0.0
 49
1.0
175
     0
142
0.0208333333333333
142
0.0
142
0.0
142
0.0
142
0.0
142
0.0208333333333333
142
0.0
142
0.0
142
0.0
142
0.0
142
1.0
142
0.0
142
0.0
142
0.0
142
0.0
142
1.0
179
     0
144
0.0208333333333333
144
0.0
144
0.0
144
0.0
144
0.0
144
0.0208333333333333
144
0.0
144
0.0
144
0.0
144
0.0
144
1.0
144
0.0
144
0.0
144
0.0
144
0.0
144
1.0
147
0.0208333333333333
147
0.0
147
0.0
147
0.0
147
0.0
147
0.0208333333333333
147
0.0
147
0.0
147
0.0
147
0.0
147
1.0
147
0.0
147
0.0
147
0.0
147
0.0
147
1.0
  0
MLEADERSTYLE
  5
67
102
{ACAD_XDICTIONARY
360
135
102
}
102
{ACAD_REACTORS
330
66
102
}
330
66
100
AcDbMLeaderStyle
179
     2
170
     2
171
     1
172
     0
 90
        2
 40
0.0
 41
0.0
173
     1
 91
-1056964608
340
5B
 92
       -2
290
     1
 42
0.09
291
     1
 43
0.36
  3
Standard
 44
0.18
300

342
55
174
     1
178
     6
175
     1
176
     0
 93
-1056964608
 45
0.18
292
     0
297
     0
 46
0.18
 94
-1056964608
 47
1.0
 49
1.0
140
1.0
293
     1
141
0.0
294
     1
177
     0
142
1.0
295
     0
296
     0
143
0.125
271
     0
272
     9
273
     9
  0
MLINESTYLE
  5
60
102
{ACAD_REACTORS
330
5F
102
}
330
5F
100
AcDbMlineStyle
  2
STANDARD
 70
     0
  3

 62
   256
 51
90.0
 52
90.0
 71
     2
 49
0.5
 62
   256
  6
BYLAYER
 49
-0.5
 62
   256
  6
BYLAYER
  0
ACDBPLACEHOLDER
  5
F
102
{ACAD_REACTORS
330
E
102
}
330
E
  0
SCALE
  5
43
102
{ACAD_REACTORS
330
42
102
}
330
42
100
AcDbScale
 70
     0
300
1:1
140
1.0
141
1.0
290
     1
  0
SCALE
  5
44
102
{ACAD_REACTORS
330
42
102
}
330
42
100
AcDbScale
 70
     0
300
1/128" = 1'-0"
140
0.0078125
141
12.0
290
     0
  0
SCALE
  5
45
102
{ACAD_REACTORS
330
42
102
}
330
42
100
AcDbScale
 70
     0
300
1/64" = 1'-0"
140
0.015625
141
12.0
290
     0
  0
SCALE
  5
46
102
{ACAD_REACTORS
330
42
102
}
330
42
100
AcDbScale
 70
     0
300
1/32" = 1'-0"
140
0.03125
141
12.0
290
     0
  0
SCALE
  5
47
102
{ACAD_REACTORS
330
42
102
}
330
42
100
AcDbScale
 70
     0
300
1/16" = 1'-0"
140
0.0625
141
12.0
290
     0
  0
SCALE
  5
48
102
{ACAD_REACTORS
330
42
102
}
330
42
100
AcDbScale
 70
     0
300
3/32" = 1'-0"
140
0.09375
141
12.0
290
     0
  0
SCALE
  5
49
102
{ACAD_REACTORS
330
42
102
}
330
42
100
AcDbScale
 70
     0
300
1/8" = 1'-0"
140
0.125
141
12.0
290
     0
  0
SCALE
  5
4A
102
{ACAD_REACTORS
330
42
102
}
330
42
100
AcDbScale
 70
     0
300
3/16" = 1'-0"
140
0.1875
141
12.0
290
     0
  0
SCALE
  5
4B
102
{ACAD_REACTORS
330
42
102
}
330
42
100
AcDbScale
 70
     0
300
1/4" = 1'-0"
140
0.25
141
12.0
290
     0
  0
SCALE
  5
4C
102
{ACAD_REACTORS
330
42
102
}
330
42
100
AcDbScale
 70
     0
300
3/8" = 1'-0"
140
0.375
141
12.0
290
     0
  0
SCALE
  5
4D
102
{ACAD_REACTORS
330
42
102
}
330
42
100
AcDbScale
 70
     0
300
1/2" = 1'-0"
140
0.5
141
12.0
290
     0
  0
SCALE
  5
4E
102
{ACAD_REACTORS
330
42
102
}
330
42
100
AcDbScale
 70
     0
300
3/4" = 1'-0"
140
0.75
141
12.0
290
     0
  0
SCALE
  5
4F
102
{ACAD_REACTORS
330
42
102
}
330
42
100
AcDbScale
 70
     0
300
1" = 1'-0"
140
1.0
141
12.0
290
     0
  0
SCALE
  5
50
102
{ACAD_REACTORS
330
42
102
}
330
42
100
AcDbScale
 70
     0
300
1-1/2" = 1'-0"
140
1.5
141
12.0
290
     0
  0
SCALE
  5
51
102
{ACAD_REACTORS
330
42
102
}
330
42
100
AcDbScale
 70
     0
300
3" = 1'-0"
140
3.0
141
12.0
290
     0
  0
SCALE
  5
52
102
{ACAD_REACTORS
330
42
102
}
330
42
100
AcDbScale
 70
     0
300
6" = 1'-0"
140
6.0
141
12.0
290
     0
  0
SCALE
  5
53
102
{ACAD_REACTORS
330
42
102
}
330
42
100
AcDbScale
 70
     0
300
1'-0" = 1'-0"
140
12.0
141
12.0
290
     0
  0
ACDBSECTIONVIEWSTYLE
  5
69
102
{ACAD_XDICTIONARY
360
137
102
}
102
{ACAD_REACTORS
330
68
102
}
330
68
100
AcDbModelDocViewStyle
 70
     0
  3
Imperial24
290
     0
100
AcDbSectionViewStyle
 70
     0
 71
     0
 90
       78
 71
     1
340
55
 62
   256
 40
0.24
340
0
340
0
 62
   256
 40
0.24
300
I, O, Q, S, X, Z
 40
0.48
 90
        3
 40
0.18
 90
        1
 71
     2
340
5D
 90
       25
 62
   256
340
5D
 90
       50
 62
   256
 40
0.24
 40
0.0
 40
0.24
 71
     3
340
55
 62
   256
 40
0.24
 90
        1
 40
0.75
 90
        1
300
%<\AcVar ViewType \f "%tc1">% %<\AcVar ViewSectionStartId>%-%<\AcVar ViewSectionEndId>%\PSCALE %<\AcVar ViewScale \f "%sn">%
 71
     4
 62
   256
 62
   257
300
ANSI31
 40
1.0
 90
        0
290
     0
290
     0
 90
        6
 40
0.0
 40
1.570796326794896
 40
0.2617993877991494
 40
1.308996938995747
 40
-0.2617993877991494
 40
1.832595714594046
  0
TABLESTYLE
  5
65
102
{ACAD_XDICTIONARY
360
102
102
}
102
{ACAD_REACTORS
330
64
102
}
330
64
100
AcDbTableStyle
280
     0
  3
Standard
 70
     0
 71
     0
 40
0.06
 41
0.06
280
     0
281
     0
  7
Standard
140
0.18
170
     2
 62
     0
 63
     7
283
     0
 90
      512
 91
        0
  1

274
    -2
284
     1
 64
     0
275
    -2
285
     1
 65
     0
276
    -2
286
     1
 66
     0
277
    -2
287
     1
 67
     0
278
    -2
288
     1
 68
     0
279
    -2
289
     1
 69
     0
  7
Standard
140
0.25
170
     5
 62
     0
 63
     7
283
     0
 90
      512
 91
        0
  1

274
    -2
284
     1
 64
     0
275
    -2
285
     1
 65
     0
276
    -2
286
     1
 66
     0
277
    -2
287
     1
 67
     0
278
    -2
288
     1
 68
     0
279
    -2
289
     1
 69
     0
  7
Standard
140
0.18
170
     5
 62
     0
 63
     7
283
     0
 90
      512
 91
        0
  1

274
    -2
284
     1
 64
     0
275
    -2
285
     1
 65
     0
276
    -2
286
     1
 66
     0
277
    -2
287
     1
 67
     0
278
    -2
288
     1
 68
     0
279
    -2
289
     1
 69
     0
  0
VISUALSTYLE
  5
2F
102
{ACAD_XDICTIONARY
360
10F
102
}
102
{ACAD_REACTORS
330
29
102
}
330
29
100
AcDbVisualStyle
  2
2dWireframe
 70
     4
177
     2
291
     0
 71
     0
176
     1
 72
     2
176
     1
 73
     0
176
     1
 90
        0
176
     1
 40
0.6
176
     1
 41
30.0
176
     1
 63
     7
421
 16777215
176
     1
 74
     1
176
     1
 91
        4
176
     1
 64
     7
176
     1
 65
   257
176
     1
 75
     1
176
     1
175
     1
176
     1
 42
1.0
176
     1
 92
        0
176
     1
 66
   257
176
     1
 43
1.0
176
     1
 76
     1
176
     1
 77
     6
176
     1
 78
     2
176
     1
 67
     7
176
     1
 79
     5
176
     1
170
     0
176
     1
171
     0
176
     1
290
     0
176
     1
 93
        1
176
     1
 44
0.0
176
     1
173
     0
176
     1
1001
ACAD
1000
AcDbSavedByObjectVersion
1070
     0
  0
VISUALSTYLE
  5
2E
102
{ACAD_XDICTIONARY
360
10D
102
}
102
{ACAD_REACTORS
330
29
102
}
330
29
100
AcDbVisualStyle
  2
Basic
 70
     7
177
     2
291
     1
 71
     1
176
     1
 72
     0
176
     1
 73
     1
176
     1
 90
        0
176
     1
 40
0.6
176
     1
 41
30.0
176
     1
 63
     7
421
 16777215
176
     1
 74
     0
176
     1
 91
        4
176
     1
 64
     7
176
     1
 65
   257
176
     1
 75
     1
176
     1
175
     1
176
     1
 42
1.0
176
     1
 92
        8
176
     1
 66
     7
176
     1
 43
1.0
176
     1
 76
     1
176
     1
 77
     6
176
     1
 78
     2
176
     1
 67
     7
176
     1
 79
     5
176
     1
170
     0
176
     1
171
     0
176
     1
290
     0
176
     1
 93
        1
176
     1
 44
0.0
176
     1
173
     0
176
     1
1001
ACAD
1000
AcDbSavedByObjectVersion
1070
     0
  0
VISUALSTYLE
  5
35
102
{ACAD_XDICTIONARY
360
11B
102
}
102
{ACAD_REACTORS
330
29
102
}
330
29
100
AcDbVisualStyle
  2
Brighten
 70
    12
177
     2
291
     1
 71
     2
176
     1
 72
     2
176
     1
 73
     0
176
     1
 90
        0
176
     1
 40
0.6
176
     1
 41
30.0
176
     1
 63
     7
421
 16777215
176
     1
 74
     1
176
     1
 91
        4
176
     1
 64
     7
176
     1
 65
   257
176
     1
 75
     1
176
     1
175
     1
176
     1
 42
1.0
176
     1
 92
        8
176
     1
 66
     7
176
     1
 43
1.0
176
     1
 76
     1
176
     1
 77
     6
176
     1
 78
     2
176
     1
 67
     7
176
     1
 79
     5
176
     1
170
     0
176
     1
171
     0
176
     1
290
     0
176
     1
 93
        1
176
     1
 44
50.0
176
     1
173
     0
176
     1
1001
ACAD
1000
AcDbSavedByObjectVersion
1070
     0
  0
VISUALSTYLE
  5
39
102
{ACAD_XDICTIONARY
360
123
102
}
102
{ACAD_REACTORS
330
29
102
}
330
29
100
AcDbVisualStyle
  2
ColorChange
 70
    16
177
     2
291
     1
 71
     2
176
     1
 72
     2
176
     1
 73
     3
176
     1
 90
        0
176
     1
 40
0.6
176
     1
 41
30.0
176
     1
 63
     8
421
  8421504
176
     1
 74
     1
176
     1
 91
        4
176
     1
 64
     7
176
     1
 65
   257
176
     1
 75
     1
176
     1
175
     1
176
     1
 42
1.0
176
     1
 92
        8
176
     1
 66
     8
424
  8421504
176
     1
 43
1.0
176
     1
 76
     1
176
     1
 77
     6
176
     1
 78
     2
176
     1
 67
     7
176
     1
 79
     5
176
     1
170
     0
176
     1
171
     0
176
     1
290
     0
176
     1
 93
        1
176
     1
 44
0.0
176
     1
173
     0
176
     1
1001
ACAD
1000
AcDbSavedByObjectVersion
1070
     0
  0
VISUALSTYLE
  5
32
102
{ACAD_XDICTIONARY
360
115
102
}
102
{ACAD_REACTORS
330
29
102
}
330
29
100
AcDbVisualStyle
  2
Conceptual
 70
     9
177
     2
291
     0
 71
     3
176
     1
 72
     2
176
     1
 73
     0
176
     1
 90
        0
176
     1
 40
0.6
176
     1
 41
30.0
176
     1
 63
     7
421
 16777215
176
     1
 74
     2
176
     1
 91
        2
176
     1
 64
     7
176
     1
 65
   257
176
     1
 75
     1
176
     1
175
     1
176
     1
 42
179.0
176
     1
 92
        8
176
     1
 66
     7
176
     1
 43
1.0
176
     1
 76
     1
176
     1
 77
     6
176
     1
 78
     2
176
     1
 67
     7
176
     1
 79
     3
176
     1
170
     0
176
     1
171
     0
176
     1
290
     0
176
     1
 93
        1
176
     1
 44
0.0
176
     1
173
     0
176
     1
1001
ACAD
1000
AcDbSavedByObjectVersion
1070
     0
  0
VISUALSTYLE
  5
34
102
{ACAD_XDICTIONARY
360
119
102
}
102
{ACAD_REACTORS
330
29
102
}
330
29
100
AcDbVisualStyle
  2
Dim
 70
    11
177
     2
291
     1
 71
     2
176
     1
 72
     2
176
     1
 73
     0
176
     1
 90
        0
176
     1
 40
0.6
176
     1
 41
30.0
176
     1
 63
     7
421
 16777215
176
     1
 74
     1
176
     1
 91
        4
176
     1
 64
     7
176
     1
 65
   257
176
     1
 75
     1
176
     1
175
     1
176
     1
 42
1.0
176
     1
 92
        8
176
     1
 66
     7
176
     1
 43
1.0
176
     1
 76
     1
176
     1
 77
     6
176
     1
 78
     2
176
     1
 67
     7
176
     1
 79
     5
176
     1
170
     0
176
     1
171
     0
176
     1
290
     0
176
     1
 93
        1
176
     1
 44
-50.0
176
     1
173
     0
176
     1
1001
ACAD
1000
AcDbSavedByObjectVersion
1070
     0
  0
VISUALSTYLE
  5
41
102
{ACAD_XDICTIONARY
360
133
102
}
102
{ACAD_REACTORS
330
29
102
}
330
29
100
AcDbVisualStyle
  2
EdgeColorOff
 70
    22
177
     2
291
     1
 71
     2
176
     0
 72
     2
176
     0
 73
     0
176
     0
 90
        0
176
     0
 40
0.6
176
     0
 41
30.0
176
     0
 63
     7
421
 16777215
176
     0
 74
     1
176
     0
 91
        4
176
     0
 64
     7
176
     0
 65
   257
176
     0
 75
     1
176
     0
175
     1
176
     0
 42
1.0
176
     0
 92
        8
176
     2
 66
     7
176
     0
 43
1.0
176
     0
 76
     1
176
     0
 77
     6
176
     0
 78
     2
176
     0
 67
     7
176
     0
 79
     5
176
     0
170
     0
176
     0
171
     0
176
     0
290
     0
176
     0
 93
        1
176
     0
 44
0.0
176
     0
173
     0
176
     0
1001
ACAD
1000
AcDbSavedByObjectVersion
1070
     0
  0
VISUALSTYLE
  5
38
102
{ACAD_XDICTIONARY
360
121
102
}
102
{ACAD_REACTORS
330
29
102
}
330
29
100
AcDbVisualStyle
  2
Facepattern
 70
    15
177
     2
291
     1
 71
     2
176
     1
 72
     2
176
     1
 73
     0
176
     1
 90
        0
176
     1
 40
0.6
176
     1
 41
30.0
176
     1
 63
     7
421
 16777215
176
     1
 74
     1
176
     1
 91
        4
176
     1
 64
     7
176
     1
 65
   257
176
     1
 75
     1
176
     1
175
     1
176
     1
 42
1.0
176
     1
 92
        8
176
     1
 66
     7
176
     1
 43
1.0
176
     1
 76
     1
176
     1
 77
     6
176
     1
 78
     2
176
     1
 67
     7
176
     1
 79
     5
176
     1
170
     0
176
     1
171
     0
176
     1
290
     0
176
     1
 93
        1
176
     1
 44
0.0
176
     1
173
     0
176
     1
1001
ACAD
1000
AcDbSavedByObjectVersion
1070
     0
  0
VISUALSTYLE
  5
2A
102
{ACAD_XDICTIONARY
360
105
102
}
102
{ACAD_REACTORS
330
29
102
}
330
29
100
AcDbVisualStyle
  2
Flat
 70
     0
177
     2
291
     1
 71
     2
176
     1
 72
     1
176
     1
 73
     1
176
     1
 90
        2
176
     1
 40
0.6
176
     1
 41
30.0
176
     1
 63
     7
421
 16777215
176
     1
 74
     0
176
     1
 91
        0
176
     1
 64
     7
176
     1
 65
   257
176
     1
 75
     1
176
     1
175
     1
176
     1
 42
1.0
176
     1
 92
        8
176
     1
 66
     7
176
     1
 43
1.0
176
     1
 76
     1
176
     1
 77
     6
176
     1
 78
     2
176
     1
 67
     7
176
     1
 79
     5
176
     1
170
     0
176
     1
171
     0
176
     1
290
     0
176
     1
 93
       13
176
     1
 44
0.0
176
     1
173
     0
176
     1
1001
ACAD
1000
AcDbSavedByObjectVersion
1070
     0
  0
VISUALSTYLE
  5
2B
102
{ACAD_XDICTIONARY
360
107
102
}
102
{ACAD_REACTORS
330
29
102
}
330
29
100
AcDbVisualStyle
  2
FlatWithEdges
 70
     1
177
     2
291
     1
 71
     2
176
     1
 72
     1
176
     1
 73
     1
176
     1
 90
        2
176
     1
 40
0.6
176
     1
 41
30.0
176
     1
 63
     7
421
 16777215
176
     1
 74
     1
176
     1
 91
        0
176
     1
 64
     7
176
     1
 65
   257
176
     1
 75
     1
176
     1
175
     1
176
     1
 42
1.0
176
     1
 92
        0
176
     1
 66
   257
176
     1
 43
1.0
176
     1
 76
     1
176
     1
 77
     6
176
     1
 78
     2
176
     1
 67
     7
176
     1
 79
     5
176
     1
170
     0
176
     1
171
     0
176
     1
290
     0
176
     1
 93
       13
176
     1
 44
0.0
176
     1
173
     0
176
     1
1001
ACAD
1000
AcDbSavedByObjectVersion
1070
     0
  0
VISUALSTYLE
  5
2C
102
{ACAD_XDICTIONARY
360
109
102
}
102
{ACAD_REACTORS
330
29
102
}
330
29
100
AcDbVisualStyle
  2
Gouraud
 70
     2
177
     2
291
     1
 71
     2
176
     1
 72
     2
176
     1
 73
     1
176
     1
 90
        2
176
     1
 40
0.6
176
     1
 41
30.0
176
     1
 63
     7
421
 16777215
176
     1
 74
     0
176
     1
 91
        0
176
     1
 64
     7
176
     1
 65
   257
176
     1
 75
     1
176
     1
175
     1
176
     1
 42
1.0
176
     1
 92
        0
176
     1
 66
     7
176
     1
 43
1.0
176
     1
 76
     1
176
     1
 77
     6
176
     1
 78
     2
176
     1
 67
     7
176
     1
 79
     5
176
     1
170
     0
176
     1
171
     0
176
     1
290
     0
176
     1
 93
       13
176
     1
 44
0.0
176
     1
173
     0
176
     1
1001
ACAD
1000
AcDbSavedByObjectVersion
1070
     0
  0
VISUALSTYLE
  5
2D
102
{ACAD_XDICTIONARY
360
10B
102
}
102
{ACAD_REACTORS
330
29
102
}
330
29
100
AcDbVisualStyle
  2
GouraudWithEdges
 70
     3
177
     2
291
     1
 71
     2
176
     1
 72
     2
176
     1
 73
     1
176
     1
 90
        2
176
     1
 40
0.6
176
     1
 41
30.0
176
     1
 63
     7
421
 16777215
176
     1
 74
     1
176
     1
 91
        0
176
     1
 64
     7
176
     1
 65
   257
176
     1
 75
     1
176
     1
175
     1
176
     1
 42
1.0
176
     1
 92
        0
176
     1
 66
   257
176
     1
 43
1.0
176
     1
 76
     1
176
     1
 77
     6
176
     1
 78
     2
176
     1
 67
     7
176
     1
 79
     5
176
     1
170
     0
176
     1
171
     0
176
     1
290
     0
176
     1
 93
       13
176
     1
 44
0.0
176
     1
173
     0
176
     1
1001
ACAD
1000
AcDbSavedByObjectVersion
1070
     0
  0
VISUALSTYLE
  5
31
102
{ACAD_XDICTIONARY
360
113
102
}
102
{ACAD_REACTORS
330
29
102
}
330
29
100
AcDbVisualStyle
  2
Hidden
 70
     6
177
     2
291
     0
 71
     1
176
     1
 72
     2
176
     1
 73
     2
176
     1
 90
        0
176
     1
 40
0.6
176
     1
 41
30.0
176
     1
 63
     7
421
 16777215
176
     1
 74
     2
176
     1
 91
        2
176
     1
 64
     7
176
     1
 65
   257
176
     1
 75
     2
176
     1
175
     1
176
     1
 42
40.0
176
     1
 92
        0
176
     1
 66
   257
176
     1
 43
1.0
176
     1
 76
     1
176
     1
 77
     6
176
     1
 78
     2
176
     1
 67
     7
176
     1
 79
     3
176
     1
170
     0
176
     1
171
     0
176
     1
290
     0
176
     1
 93
        1
176
     1
 44
0.0
176
     1
173
     0
176
     1
1001
ACAD
1000
AcDbSavedByObjectVersion
1070
     0
  0
VISUALSTYLE
  5
3F
102
{ACAD_XDICTIONARY
360
12F
102
}
102
{ACAD_REACTORS
330
29
102
}
330
29
100
AcDbVisualStyle
  2
JitterOff
 70
    20
177
     2
291
     1
 71
     2
176
     0
 72
     2
176
     0
 73
     0
176
     0
 90
        0
176
     0
 40
0.6
176
     0
 41
30.0
176
     0
 63
     7
421
 16777215
176
     0
 74
     1
176
     0
 91
        4
176
     0
 64
     7
176
     0
 65
   257
176
     0
 75
     1
176
     0
175
     1
176
     0
 42
1.0
176
     0
 92
       10
176
     2
 66
     7
176
     0
 43
1.0
176
     0
 76
     1
176
     0
 77
     6
176
     0
 78
     2
176
     0
 67
     7
176
     0
 79
     5
176
     0
170
     0
176
     0
171
     0
176
     0
290
     0
176
     0
 93
        1
176
     0
 44
0.0
176
     0
173
     0
176
     0
1001
ACAD
1000
AcDbSavedByObjectVersion
1070
     0
  0
VISUALSTYLE
  5
37
102
{ACAD_XDICTIONARY
360
11F
102
}
102
{ACAD_REACTORS
330
29
102
}
330
29
100
AcDbVisualStyle
  2
Linepattern
 70
    14
177
     2
291
     1
 71
     2
176
     1
 72
     2
176
     1
 73
     0
176
     1
 90
        0
176
     1
 40
0.6
176
     1
 41
30.0
176
     1
 63
     7
421
 16777215
176
     1
 74
     1
176
     1
 91
        4
176
     1
 64
     7
176
     1
 65
   257
176
     1
 75
     7
176
     1
175
     7
176
     1
 42
1.0
176
     1
 92
        8
176
     1
 66
     7
176
     1
 43
1.0
176
     1
 76
     1
176
     1
 77
     6
176
     1
 78
     2
176
     1
 67
     7
176
     1
 79
     5
176
     1
170
     0
176
     1
171
     0
176
     1
290
     0
176
     1
 93
        1
176
     1
 44
0.0
176
     1
173
     0
176
     1
1001
ACAD
1000
AcDbSavedByObjectVersion
1070
     0
  0
VISUALSTYLE
  5
40
102
{ACAD_XDICTIONARY
360
131
102
}
102
{ACAD_REACTORS
330
29
102
}
330
29
100
AcDbVisualStyle
  2
OverhangOff
 70
    21
177
     2
291
     1
 71
     2
176
     0
 72
     2
176
     0
 73
     0
176
     0
 90
        0
176
     0
 40
0.6
176
     0
 41
30.0
176
     0
 63
     7
421
 16777215
176
     0
 74
     1
176
     0
 91
        4
176
     0
 64
     7
176
     0
 65
   257
176
     0
 75
     1
176
     0
175
     1
176
     0
 42
1.0
176
     0
 92
        9
176
     2
 66
     7
176
     0
 43
1.0
176
     0
 76
     1
176
     0
 77
     6
176
     0
 78
     2
176
     0
 67
     7
176
     0
 79
     5
176
     0
170
     0
176
     0
171
     0
176
     0
290
     0
176
     0
 93
        1
176
     0
 44
0.0
176
     0
173
     0
176
     0
1001
ACAD
1000
AcDbSavedByObjectVersion
1070
     0
  0
VISUALSTYLE
  5
33
102
{ACAD_XDICTIONARY
360
117
102
}
102
{ACAD_REACTORS
330
29
102
}
330
29
100
AcDbVisualStyle
  2
Realistic
 70
     8
177
     2
291
     0
 71
     2
176
     1
 72
     3
176
     1
 73
     0
176
     1
 90
        2
176
     1
 40
0.6
176
     1
 41
30.0
176
     1
 63
     7
421
 16777215
176
     1
 74
     0
176
     1
 91
        0
176
     1
 64
     7
176
     1
 65
   257
176
     1
 75
     1
176
     1
175
     1
176
     1
 42
1.0
176
     1
 92
        8
176
     1
 66
   257
176
     1
 43
1.0
176
     1
 76
     1
176
     1
 77
     6
176
     1
 78
     2
176
     1
 67
     7
176
     1
 79
     3
176
     1
170
     0
176
     1
171
     0
176
     1
290
     0
176
     1
 93
       13
176
     1
 44
0.0
176
     1
173
     0
176
     1
1001
ACAD
1000
AcDbSavedByObjectVersion
1070
     0
  0
VISUALSTYLE
  5
3E
102
{ACAD_XDICTIONARY
360
12D
102
}
102
{ACAD_REACTORS
330
29
102
}
330
29
100
AcDbVisualStyle
  2
Shaded
 70
    27
177
     2
291
     0
 71
     2
176
     1
 72
     2
176
     1
 73
     1
176
     1
 90
        2
176
     1
 40
0.6
176
     1
 41
30.0
176
     1
 63
     7
421
 16777215
176
     1
 74
     0
176
     1
 91
        4
176
     1
 64
     7
176
     1
 65
   257
176
     1
 75
     1
176
     1
175
     1
176
     1
 42
1.0
176
     1
 92
        8
176
     1
 66
   257
176
     1
 43
1.0
176
     1
 76
     1
176
     1
 77
     6
176
     1
 78
     2
176
     1
 67
     8
425
  7895160
176
     1
 79
     3
176
     1
170
     0
176
     1
171
     0
176
     1
290
     0
176
     1
 93
        5
176
     1
 44
0.0
176
     1
173
     0
176
     1
1001
ACAD
1000
AcDbSavedByObjectVersion
1070
     0
  0
VISUALSTYLE
  5
3D
102
{ACAD_XDICTIONARY
360
12B
102
}
102
{ACAD_REACTORS
330
29
102
}
330
29
100
AcDbVisualStyle
  2
Shaded with edges
 70
    26
177
     2
291
     0
 71
     2
176
     1
 72
     2
176
     1
 73
     1
176
     1
 90
        2
176
     1
 40
0.6
176
     1
 41
30.0
176
     1
 63
     7
421
 16777215
176
     1
 74
     1
176
     1
 91
        2
176
     1
 64
     7
176
     1
 65
   257
176
     1
 75
     2
176
     1
175
     1
176
     1
 42
1.0
176
     1
 92
        8
176
     1
 66
   257
176
     1
 43
1.0
176
     1
 76
     1
176
     1
 77
     6
176
     1
 78
     2
176
     1
 67
     7
176
     1
 79
     3
176
     1
170
     0
176
     1
171
     0
176
     1
290
     0
176
     1
 93
        5
176
     1
 44
0.0
176
     1
173
     0
176
     1
1001
ACAD
1000
AcDbSavedByObjectVersion
1070
     0
  0
VISUALSTYLE
  5
3A
102
{ACAD_XDICTIONARY
360
125
102
}
102
{ACAD_REACTORS
330
29
102
}
330
29
100
AcDbVisualStyle
  2
Shades of Gray
 70
    23
177
     2
291
     0
 71
     2
176
     1
 72
     2
176
     1
 73
     3
176
     1
 90
        0
176
     1
 40
0.6
176
     1
 41
30.0
176
     1
 63
     7
421
 16777215
176
     1
 74
     2
176
     1
 91
        2
176
     1
 64
     7
176
     1
 65
     7
176
     1
 75
     1
176
     1
175
     1
176
     1
 42
40.0
176
     1
 92
        8
176
     1
 66
     7
176
     1
 43
1.0
176
     1
 76
     1
176
     1
 77
     6
176
     1
 78
     2
176
     1
 67
     7
176
     1
 79
     3
176
     1
170
     0
176
     1
171
     0
176
     1
290
     0
176
     1
 93
        1
176
     1
 44
0.0
176
     1
173
     0
176
     1
1001
ACAD
1000
AcDbSavedByObjectVersion
1070
     0
  0
VISUALSTYLE
  5
3B
102
{ACAD_XDICTIONARY
360
127
102
}
102
{ACAD_REACTORS
330
29
102
}
330
29
100
AcDbVisualStyle
  2
Sketchy
 70
    24
177
     2
291
     0
 71
     1
176
     1
 72
     2
176
     1
 73
     2
176
     1
 90
        0
176
     1
 40
0.6
176
     1
 41
30.0
176
     1
 63
     7
421
 16777215
176
     1
 74
     2
176
     1
 91
        2
176
     1
 64
     7
176
     1
 65
     7
176
     1
 75
     1
176
     1
175
     1
176
     1
 42
40.0
176
     1
 92
       11
176
     1
 66
     7
176
     1
 43
1.0
176
     1
 76
     1
176
     1
 77
     6
176
     1
 78
     2
176
     1
 67
     7
176
     1
 79
     6
176
     1
170
     0
176
     1
171
     0
176
     1
290
     0
176
     1
 93
        1
176
     1
 44
0.0
176
     1
173
     0
176
     1
1001
ACAD
1000
AcDbSavedByObjectVersion
1070
     0
  0
VISUALSTYLE
  5
36
102
{ACAD_XDICTIONARY
360
11D
102
}
102
{ACAD_REACTORS
330
29
102
}
330
29
100
AcDbVisualStyle
  2
Thicken
 70
    13
177
     2
291
     1
 71
     2
176
     1
 72
     2
176
     1
 73
     0
176
     1
 90
        0
176
     1
 40
0.6
176
     1
 41
30.0
176
     1
 63
     7
421
 16777215
176
     1
 74
     1
176
     1
 91
        4
176
     1
 64
     7
176
     1
 65
   257
176
     1
 75
     1
176
     1
175
     1
176
     1
 42
1.0
176
     1
 92
       12
176
     1
 66
     7
176
     1
 43
1.0
176
     1
 76
     1
176
     1
 77
     6
176
     1
 78
     2
176
     1
 67
     7
176
     1
 79
     5
176
     1
170
     0
176
     1
171
     0
176
     1
290
     0
176
     1
 93
        1
176
     1
 44
0.0
176
     1
173
     0
176
     1
1001
ACAD
1000
AcDbSavedByObjectVersion
1070
     0
  0
VISUALSTYLE
  5
30
102
{ACAD_XDICTIONARY
360
111
102
}
102
{ACAD_REACTORS
330
29
102
}
330
29
100
AcDbVisualStyle
  2
Wireframe
 70
     5
177
     2
291
     0
 71
     0
176
     1
 72
     2
176
     1
 73
     0
176
     1
 90
        0
176
     1
 40
0.6
176
     1
 41
30.0
176
     1
 63
     7
421
 16777215
176
     1
 74
     1
176
     1
 91
        4
176
     1
 64
     7
176
     1
 65
   257
176
     1
 75
     1
176
     1
175
     1
176
     1
 42
1.0
176
     1
 92
        0
176
     1
 66
   257
176
     1
 43
1.0
176
     1
 76
     1
176
     1
 77
     6
176
     1
 78
     2
176
     1
 67
     7
176
     1
 79
     3
176
     1
170
     0
176
     1
171
     0
176
     1
290
     0
176
     1
 93
        1
176
     1
 44
0.0
176
     1
173
     0
176
     1
1001
ACAD
1000
AcDbSavedByObjectVersion
1070
     0
  0
VISUALSTYLE
  5
3C
102
{ACAD_XDICTIONARY
360
129
102
}
102
{ACAD_REACTORS
330
29
102
}
330
29
100
AcDbVisualStyle
  2
X-Ray
 70
    25
177
     2
291
     0
 71
     2
176
     1
 72
     2
176
     1
 73
     1
176
     1
 90
        1
176
     1
 40
0.5
176
     1
 41
30.0
176
     1
 63
     7
421
 16777215
176
     1
 74
     1
176
     1
 91
        0
176
     1
 64
     7
176
     1
 65
   257
176
     1
 75
     1
176
     1
175
     1
176
     1
 42
1.0
176
     1
 92
        8
176
     1
 66
     7
176
     1
 43
1.0
176
     1
 76
     1
176
     1
 77
     6
176
     1
 78
     2
176
     1
 67
     7
176
     1
 79
     3
176
     1
170
     0
176
     1
171
     0
176
     1
290
     0
176
     1
 93
       13
176
     1
 44
0.0
176
     1
173
     0
176
     1
1001
ACAD
1000
AcDbSavedByObjectVersion
1070
     0
  0
DICTIONARYVAR
  5
101
102
{ACAD_REACTORS
330
FC
102
}
330
FC
100
DictionaryVariables
280
     0
  1
1:1
  0
DICTIONARYVAR
  5
FE
102
{ACAD_REACTORS
330
FC
102
}
330
FC
100
DictionaryVariables
280
     0
  1
STANDARD
  0
DICTIONARYVAR
  5
FD
102
{ACAD_REACTORS
330
FC
102
}
330
FC
100
DictionaryVariables
280
     0
  1
STANDARD
  0
DICTIONARYVAR
  5
FF
102
{ACAD_REACTORS
330
FC
102
}
330
FC
100
DictionaryVariables
280
     0
  1
Imperial24
  0
DICTIONARYVAR
  5
100
102
{ACAD_REACTORS
330
FC
102
}
330
FC
100
DictionaryVariables
280
     0
  1
Imperial24
  0
DICTIONARY
  5
139
330
6B
100
AcDbDictionary
280
     1
281
     1
  3
ACAD_XREC_ROUNDTRIP
360
13A
  0
DICTIONARY
  5
1A
330
19
100
AcDbDictionary
280
     1
281
     1
  3
BUMPTILE
360
1C
  3
DIFFUSETILE
360
1B
  3
OPACITYTILE
360
1F
  3
REFLECTIONTILE
360
1E
  3
REFRACTIONTILE
360
20
  3
SPECULARTILE
360
1D
  0
DICTIONARY
  5
12
330
11
100
AcDbDictionary
280
     1
281
     1
  3
BUMPTILE
360
14
  3
DIFFUSETILE
360
13
  3
OPACITYTILE
360
17
  3
REFLECTIONTILE
360
16
  3
REFRACTIONTILE
360
18
  3
SPECULARTILE
360
15
  0
DICTIONARY
  5
22
330
21
100
AcDbDictionary
280
     1
281
     1
  3
BUMPTILE
360
24
  3
DIFFUSETILE
360
23
  3
OPACITYTILE
360
27
  3
REFLECTIONTILE
360
26
  3
REFRACTIONTILE
360
28
  3
SPECULARTILE
360
25
  0
DICTIONARY
  5
135
330
67
100
AcDbDictionary
280
     1
281
     1
  3
ACAD_XREC_ROUNDTRIP
360
136
  0
DICTIONARY
  5
137
330
69
100
AcDbDictionary
280
     1
281
     1
  3
ACAD_XREC_ROUNDTRIP
360
138
  0
DICTIONARY
  5
102
330
65
100
AcDbDictionary
280
     1
281
     1
  3
ACAD_ROUNDTRIP_2008_TABLESTYLE_CELLSTYLEMAP
360
103
  0
DICTIONARY
  5
10F
330
2F
100
AcDbDictionary
280
     1
281
     1
  3
ACAD_XREC_ROUNDTRIP
360
110
  0
DICTIONARY
  5
10D
330
2E
100
AcDbDictionary
280
     1
281
     1
  3
ACAD_XREC_ROUNDTRIP
360
10E
  0
DICTIONARY
  5
11B
330
35
100
AcDbDictionary
280
     1
281
     1
  3
ACAD_XREC_ROUNDTRIP
360
11C
  0
DICTIONARY
  5
123
330
39
100
AcDbDictionary
280
     1
281
     1
  3
ACAD_XREC_ROUNDTRIP
360
124
  0
DICTIONARY
  5
115
330
32
100
AcDbDictionary
280
     1
281
     1
  3
ACAD_XREC_ROUNDTRIP
360
116
  0
DICTIONARY
  5
119
330
34
100
AcDbDictionary
280
     1
281
     1
  3
ACAD_XREC_ROUNDTRIP
360
11A
  0
DICTIONARY
  5
133
330
41
100
AcDbDictionary
280
     1
281
     1
  3
ACAD_XREC_ROUNDTRIP
360
134
  0
DICTIONARY
  5
121
330
38
100
AcDbDictionary
280
     1
281
     1
  3
ACAD_XREC_ROUNDTRIP
360
122
  0
DICTIONARY
  5
105
330
2A
100
AcDbDictionary
280
     1
281
     1
  3
ACAD_XREC_ROUNDTRIP
360
106
  0
DICTIONARY
  5
107
330
2B
100
AcDbDictionary
280
     1
281
     1
  3
ACAD_XREC_ROUNDTRIP
360
108
  0
DICTIONARY
  5
109
330
2C
100
AcDbDictionary
280
     1
281
     1
  3
ACAD_XREC_ROUNDTRIP
360
10A
  0
DICTIONARY
  5
10B
330
2D
100
AcDbDictionary
280
     1
281
     1
  3
ACAD_XREC_ROUNDTRIP
360
10C
  0
DICTIONARY
  5
113
330
31
100
AcDbDictionary
280
     1
281
     1
  3
ACAD_XREC_ROUNDTRIP
360
114
  0
DICTIONARY
  5
12F
330
3F
100
AcDbDictionary
280
     1
281
     1
  3
ACAD_XREC_ROUNDTRIP
360
130
  0
DICTIONARY
  5
11F
330
37
100
AcDbDictionary
280
     1
281
     1
  3
ACAD_XREC_ROUNDTRIP
360
120
  0
DICTIONARY
  5
131
330
40
100
AcDbDictionary
280
     1
281
     1
  3
ACAD_XREC_ROUNDTRIP
360
132
  0
DICTIONARY
  5
117
330
33
100
AcDbDictionary
280
     1
281
     1
  3
ACAD_XREC_ROUNDTRIP
360
118
  0
DICTIONARY
  5
12D
330
3E
100
AcDbDictionary
280
     1
281
     1
  3
ACAD_XREC_ROUNDTRIP
360
12E
  0
DICTIONARY
  5
12B
330
3D
100
AcDbDictionary
280
     1
281
     1
  3
ACAD_XREC_ROUNDTRIP
360
12C
  0
DICTIONARY
  5
125
330
3A
100
AcDbDictionary
280
     1
281
     1
  3
ACAD_XREC_ROUNDTRIP
360
126
  0
DICTIONARY
  5
127
330
3B
100
AcDbDictionary
280
     1
281
     1
  3
ACAD_XREC_ROUNDTRIP
360
128
  0
DICTIONARY
  5
11D
330
36
100
AcDbDictionary
280
     1
281
     1
  3
ACAD_XREC_ROUNDTRIP
360
11E
  0
DICTIONARY
  5
111
330
30
100
AcDbDictionary
280
     1
281
     1
  3
ACAD_XREC_ROUNDTRIP
360
112
  0
DICTIONARY
  5
129
330
3C
100
AcDbDictionary
280
     1
281
     1
  3
ACAD_XREC_ROUNDTRIP
360
12A
  0
XRECORD
  5
13A
102
{ACAD_REACTORS
330
139
102
}
330
139
100
AcDbXrecord
280
     1
102
DISPLAYNAME
  1
Imperial24
102
FLAGS
 90
        0
  0
XRECORD
  5
1C
102
{ACAD_REACTORS
330
1A
102
}
330
1A
100
AcDbXrecord
280
     1
270
     1
271
     1
  0
XRECORD
  5
1B
102
{ACAD_REACTORS
330
1A
102
}
330
1A
100
AcDbXrecord
280
     1
270
     1
271
     1
  0
XRECORD
  5
1F
102
{ACAD_REACTORS
330
1A
102
}
330
1A
100
AcDbXrecord
280
     1
270
     1
271
     1
  0
XRECORD
  5
1E
102
{ACAD_REACTORS
330
1A
102
}
330
1A
100
AcDbXrecord
280
     1
270
     1
271
     1
  0
XRECORD
  5
20
102
{ACAD_REACTORS
330
1A
102
}
330
1A
100
AcDbXrecord
280
     1
270
     1
271
     1
  0
XRECORD
  5
1D
102
{ACAD_REACTORS
330
1A
102
}
330
1A
100
AcDbXrecord
280
     1
270
     1
271
     1
  0
XRECORD
  5
14
102
{ACAD_REACTORS
330
12
102
}
330
12
100
AcDbXrecord
280
     1
270
     1
271
     1
  0
XRECORD
  5
13
102
{ACAD_REACTORS
330
12
102
}
330
12
100
AcDbXrecord
280
     1
270
     1
271
     1
  0
XRECORD
  5
17
102
{ACAD_REACTORS
330
12
102
}
330
12
100
AcDbXrecord
280
     1
270
     1
271
     1
  0
XRECORD
  5
16
102
{ACAD_REACTORS
330
12
102
}
330
12
100
AcDbXrecord
280
     1
270
     1
271
     1
  0
XRECORD
  5
18
102
{ACAD_REACTORS
330
12
102
}
330
12
100
AcDbXrecord
280
     1
270
     1
271
     1
  0
XRECORD
  5
15
102
{ACAD_REACTORS
330
12
102
}
330
12
100
AcDbXrecord
280
     1
270
     1
271
     1
  0
XRECORD
  5
24
102
{ACAD_REACTORS
330
22
102
}
330
22
100
AcDbXrecord
280
     1
270
     1
271
     1
  0
XRECORD
  5
23
102
{ACAD_REACTORS
330
22
102
}
330
22
100
AcDbXrecord
280
     1
270
     1
271
     1
  0
XRECORD
  5
27
102
{ACAD_REACTORS
330
22
102
}
330
22
100
AcDbXrecord
280
     1
270
     1
271
     1
  0
XRECORD
  5
26
102
{ACAD_REACTORS
330
22
102
}
330
22
100
AcDbXrecord
280
     1
270
     1
271
     1
  0
XRECORD
  5
28
102
{ACAD_REACTORS
330
22
102
}
330
22
100
AcDbXrecord
280
     1
270
     1
271
     1
  0
XRECORD
  5
25
102
{ACAD_REACTORS
330
22
102
}
330
22
100
AcDbXrecord
280
     1
270
     1
271
     1
  0
XRECORD
  5
136
102
{ACAD_REACTORS
330
135
102
}
330
135
100
AcDbXrecord
280
     1
102
ACAD_ROUNDTRIP_2012_MLEADER_STYLE
298
     1
  0
XRECORD
  5
138
102
{ACAD_REACTORS
330
137
102
}
330
137
100
AcDbXrecord
280
     1
102
DISPLAYNAME
  1
Imperial24
102
FLAGS
 90
        0
  0
CELLSTYLEMAP
  5
103
102
{ACAD_REACTORS
330
102
102
}
330
102
100
AcDbCellStyleMap
 90
        3
300
CELLSTYLE
  1
TABLEFORMAT_BEGIN
 90
        5
170
     1
 91
        0
 92
    32768
 62
   257
 93
        1
300
CONTENTFORMAT
  1
CONTENTFORMAT_BEGIN
 90
        0
 91
        0
 92
      512
 93
        0
300

 40
0.0
140
1.0
 94
        5
 62
     0
340
55
144
0.25
309
CONTENTFORMAT_END
171
     0
 94
        0
309
TABLEFORMAT_END
  1
CELLSTYLE_BEGIN
 90
        1
 91
        1
300
_TITLE
309
CELLSTYLE_END
300
CELLSTYLE
  1
TABLEFORMAT_BEGIN
 90
        5
170
     1
 91
        0
 92
        0
 62
   257
 93
        1
300
CONTENTFORMAT
  1
CONTENTFORMAT_BEGIN
 90
        0
 91
        0
 92
      512
 93
        0
300

 40
0.0
140
1.0
 94
        5
 62
     0
340
55
144
0.18
309
CONTENTFORMAT_END
171
     0
 94
        0
309
TABLEFORMAT_END
  1
CELLSTYLE_BEGIN
 90
        2
 91
        1
300
_HEADER
309
CELLSTYLE_END
300
CELLSTYLE
  1
TABLEFORMAT_BEGIN
 90
        5
170
     1
 91
        0
 92
        0
 62
   257
 93
        1
300
CONTENTFORMAT
  1
CONTENTFORMAT_BEGIN
 90
        0
 91
        0
 92
      512
 93
        0
300

 40
0.0
140
1.0
 94
        2
 62
     0
340
55
144
0.18
309
CONTENTFORMAT_END
171
     0
 94
        0
309
TABLEFORMAT_END
  1
CELLSTYLE_BEGIN
 90
        3
 91
        2
300
_DATA
309
CELLSTYLE_END
  0
XRECORD
  5
110
102
{ACAD_REACTORS
330
10F
102
}
330
10F
100
AcDbXrecord
280
     1
102
RTVSPost2010Prop28
280
     1
102
RTVSPost2010PropOp28
 70
     1
102
RTVSPost2010Prop29
280
     1
102
RTVSPost2010PropOp29
 70
     1
102
RTVSPost2010Prop30
280
     0
102
RTVSPost2010PropOp30
 70
     1
102
RTVSPost2010Prop31
280
     0
102
RTVSPost2010PropOp31
 70
     1
102
RTVSPost2010Prop32
280
     0
102
RTVSPost2010PropOp32
 70
     1
102
RTVSPost2010Prop33
280
     0
102
RTVSPost2010PropOp33
 70
     1
102
RTVSPost2010Prop34
280
     0
102
RTVSPost2010PropOp34
 70
     1
102
RTVSPost2010Prop35
280
     0
102
RTVSPost2010PropOp35
 70
     1
102
RTVSPost2010Prop36
280
     0
102
RTVSPost2010PropOp36
 70
     1
102
RTVSPost2010Prop37
 90
       50
102
RTVSPost2010PropOp37
 70
     1
102
RTVSPost2010Prop38
140
0.0
102
RTVSPost2010PropOp38
 70
     1
102
RTVSPost2010Prop39
140
1.0
102
RTVSPost2010PropOp39
 70
     1
102
RTVSPost2010Prop40
 90
        0
102
RTVSPost2010PropOp40
 70
     1
102
RTVSPost2010Prop41ColorIndex
 90
       18
102
RTVSPost2010Prop41ColorRGB
 90
        0
102
RTVSPost2010PropOp41
 70
     1
102
RTVSPost2010Prop42
 90
       50
102
RTVSPost2010PropOp42
 70
     1
102
RTVSPost2010Prop43
 90
        3
102
RTVSPost2010PropOp43
 70
     1
102
RTVSPost2010Prop44ColorIndex
 90
        5
102
RTVSPost2010Prop44ColorRGB
 90
      255
102
RTVSPost2010PropOp44
 70
     1
102
RTVSPost2010Prop45
280
     0
102
RTVSPost2010PropOp45
 70
     1
102
RTVSPost2010Prop46
 90
       50
102
RTVSPost2010PropOp46
 70
     1
102
RTVSPost2010Prop47
 90
       50
102
RTVSPost2010PropOp47
 70
     1
102
RTVSPost2010Prop48
 90
       50
102
RTVSPost2010PropOp48
 70
     1
102
RTVSPost2010Prop49
280
     0
102
RTVSPost2010PropOp49
 70
     1
102
RTVSPost2010Prop50
 90
       50
102
RTVSPost2010PropOp50
 70
     1
102
RTVSPost2010Prop51ColorIndex
 90
      256
102
RTVSPost2010Prop51ColorRGB
 90
-16777216
102
RTVSPost2010PropOp51
 70
     0
102
RTVSPost2010Prop52
140
1.0
102
RTVSPost2010PropOp52
 70
     0
102
RTVSPost2010Prop53
 90
        2
102
RTVSPost2010PropOp53
 70
     1
102
RTVSPost2010Prop54
  1
strokes_ogs.tif
102
RTVSPost2010PropOp54
 70
     1
102
RTVSPost2010Prop55
280
     0
102
RTVSPost2010PropOp55
 70
     1
102
RTVSPost2010Prop56
140
1.0
102
RTVSPost2010PropOp56
 70
     1
102
RTVSPost2010Prop57
140
1.0
102
RTVSPost2010PropOp57
 70
     1
  0
XRECORD
  5
10E
102
{ACAD_REACTORS
330
10D
102
}
330
10D
100
AcDbXrecord
280
     1
102
RTVSPost2010Prop28
280
     0
102
RTVSPost2010PropOp28
 70
     1
102
RTVSPost2010Prop29
280
     1
102
RTVSPost2010PropOp29
 70
     1
102
RTVSPost2010Prop30
280
     1
102
RTVSPost2010PropOp30
 70
     1
102
RTVSPost2010Prop31
280
     0
102
RTVSPost2010PropOp31
 70
     1
102
RTVSPost2010Prop32
280
     0
102
RTVSPost2010PropOp32
 70
     1
102
RTVSPost2010Prop33
280
     0
102
RTVSPost2010PropOp33
 70
     1
102
RTVSPost2010Prop34
280
     0
102
RTVSPost2010PropOp34
 70
     1
102
RTVSPost2010Prop35
280
     0
102
RTVSPost2010PropOp35
 70
     1
102
RTVSPost2010Prop36
280
     0
102
RTVSPost2010PropOp36
 70
     1
102
RTVSPost2010Prop37
 90
       50
102
RTVSPost2010PropOp37
 70
     1
102
RTVSPost2010Prop38
140
0.0
102
RTVSPost2010PropOp38
 70
     1
102
RTVSPost2010Prop39
140
1.0
102
RTVSPost2010PropOp39
 70
     1
102
RTVSPost2010Prop40
 90
        0
102
RTVSPost2010PropOp40
 70
     1
102
RTVSPost2010Prop41ColorIndex
 90
       18
102
RTVSPost2010Prop41ColorRGB
 90
        0
102
RTVSPost2010PropOp41
 70
     1
102
RTVSPost2010Prop42
 90
       50
102
RTVSPost2010PropOp42
 70
     1
102
RTVSPost2010Prop43
 90
        3
102
RTVSPost2010PropOp43
 70
     1
102
RTVSPost2010Prop44ColorIndex
 90
        5
102
RTVSPost2010Prop44ColorRGB
 90
      255
102
RTVSPost2010PropOp44
 70
     1
102
RTVSPost2010Prop45
280
     0
102
RTVSPost2010PropOp45
 70
     1
102
RTVSPost2010Prop46
 90
       50
102
RTVSPost2010PropOp46
 70
     1
102
RTVSPost2010Prop47
 90
       50
102
RTVSPost2010PropOp47
 70
     1
102
RTVSPost2010Prop48
 90
       50
102
RTVSPost2010PropOp48
 70
     1
102
RTVSPost2010Prop49
280
     0
102
RTVSPost2010PropOp49
 70
     1
102
RTVSPost2010Prop50
 90
       50
102
RTVSPost2010PropOp50
 70
     1
102
RTVSPost2010Prop51ColorIndex
 90
      256
102
RTVSPost2010Prop51ColorRGB
 90
-16777216
102
RTVSPost2010PropOp51
 70
     0
102
RTVSPost2010Prop52
140
1.0
102
RTVSPost2010PropOp52
 70
     0
102
RTVSPost2010Prop53
 90
        2
102
RTVSPost2010PropOp53
 70
     1
102
RTVSPost2010Prop54
  1
strokes_ogs.tif
102
RTVSPost2010PropOp54
 70
     1
102
RTVSPost2010Prop55
280
     0
102
RTVSPost2010PropOp55
 70
     1
102
RTVSPost2010Prop56
140
1.0
102
RTVSPost2010PropOp56
 70
     1
102
RTVSPost2010Prop57
140
1.0
102
RTVSPost2010PropOp57
 70
     1
  0
XRECORD
  5
11C
102
{ACAD_REACTORS
330
11B
102
}
330
11B
100
AcDbXrecord
280
     1
102
RTVSPost2010Prop28
280
     0
102
RTVSPost2010PropOp28
 70
     1
102
RTVSPost2010Prop29
280
     1
102
RTVSPost2010PropOp29
 70
     1
102
RTVSPost2010Prop30
280
     1
102
RTVSPost2010PropOp30
 70
     1
102
RTVSPost2010Prop31
280
     0
102
RTVSPost2010PropOp31
 70
     1
102
RTVSPost2010Prop32
280
     0
102
RTVSPost2010PropOp32
 70
     1
102
RTVSPost2010Prop33
280
     0
102
RTVSPost2010PropOp33
 70
     1
102
RTVSPost2010Prop34
280
     0
102
RTVSPost2010PropOp34
 70
     1
102
RTVSPost2010Prop35
280
     0
102
RTVSPost2010PropOp35
 70
     1
102
RTVSPost2010Prop36
280
     0
102
RTVSPost2010PropOp36
 70
     1
102
RTVSPost2010Prop37
 90
       50
102
RTVSPost2010PropOp37
 70
     1
102
RTVSPost2010Prop38
140
0.0
102
RTVSPost2010PropOp38
 70
     1
102
RTVSPost2010Prop39
140
1.0
102
RTVSPost2010PropOp39
 70
     1
102
RTVSPost2010Prop40
 90
        0
102
RTVSPost2010PropOp40
 70
     1
102
RTVSPost2010Prop41ColorIndex
 90
       18
102
RTVSPost2010Prop41ColorRGB
 90
        0
102
RTVSPost2010PropOp41
 70
     1
102
RTVSPost2010Prop42
 90
       50
102
RTVSPost2010PropOp42
 70
     1
102
RTVSPost2010Prop43
 90
        3
102
RTVSPost2010PropOp43
 70
     1
102
RTVSPost2010Prop44ColorIndex
 90
        5
102
RTVSPost2010Prop44ColorRGB
 90
      255
102
RTVSPost2010PropOp44
 70
     1
102
RTVSPost2010Prop45
280
     0
102
RTVSPost2010PropOp45
 70
     1
102
RTVSPost2010Prop46
 90
       50
102
RTVSPost2010PropOp46
 70
     1
102
RTVSPost2010Prop47
 90
       50
102
RTVSPost2010PropOp47
 70
     1
102
RTVSPost2010Prop48
 90
       50
102
RTVSPost2010PropOp48
 70
     1
102
RTVSPost2010Prop49
280
     0
102
RTVSPost2010PropOp49
 70
     1
102
RTVSPost2010Prop50
 90
       50
102
RTVSPost2010PropOp50
 70
     1
102
RTVSPost2010Prop51ColorIndex
 90
      256
102
RTVSPost2010Prop51ColorRGB
 90
-16777216
102
RTVSPost2010PropOp51
 70
     0
102
RTVSPost2010Prop52
140
1.0
102
RTVSPost2010PropOp52
 70
     0
102
RTVSPost2010Prop53
 90
        2
102
RTVSPost2010PropOp53
 70
     1
102
RTVSPost2010Prop54
  1
strokes_ogs.tif
102
RTVSPost2010PropOp54
 70
     1
102
RTVSPost2010Prop55
280
     0
102
RTVSPost2010PropOp55
 70
     1
102
RTVSPost2010Prop56
140
1.0
102
RTVSPost2010PropOp56
 70
     1
102
RTVSPost2010Prop57
140
1.0
102
RTVSPost2010PropOp57
 70
     1
  0
XRECORD
  5
124
102
{ACAD_REACTORS
330
123
102
}
330
123
100
AcDbXrecord
280
     1
102
RTVSPost2010Prop28
280
     0
102
RTVSPost2010PropOp28
 70
     1
102
RTVSPost2010Prop29
280
     1
102
RTVSPost2010PropOp29
 70
     1
102
RTVSPost2010Prop30
280
     1
102
RTVSPost2010PropOp30
 70
     1
102
RTVSPost2010Prop31
280
     0
102
RTVSPost2010PropOp31
 70
     1
102
RTVSPost2010Prop32
280
     0
102
RTVSPost2010PropOp32
 70
     1
102
RTVSPost2010Prop33
280
     0
102
RTVSPost2010PropOp33
 70
     1
102
RTVSPost2010Prop34
280
     0
102
RTVSPost2010PropOp34
 70
     1
102
RTVSPost2010Prop35
280
     0
102
RTVSPost2010PropOp35
 70
     1
102
RTVSPost2010Prop36
280
     0
102
RTVSPost2010PropOp36
 70
     1
102
RTVSPost2010Prop37
 90
       50
102
RTVSPost2010PropOp37
 70
     1
102
RTVSPost2010Prop38
140
0.0
102
RTVSPost2010PropOp38
 70
     1
102
RTVSPost2010Prop39
140
1.0
102
RTVSPost2010PropOp39
 70
     1
102
RTVSPost2010Prop40
 90
        0
102
RTVSPost2010PropOp40
 70
     1
102
RTVSPost2010Prop41ColorIndex
 90
       18
102
RTVSPost2010Prop41ColorRGB
 90
        0
102
RTVSPost2010PropOp41
 70
     1
102
RTVSPost2010Prop42
 90
       50
102
RTVSPost2010PropOp42
 70
     1
102
RTVSPost2010Prop43
 90
        3
102
RTVSPost2010PropOp43
 70
     1
102
RTVSPost2010Prop44ColorIndex
 90
        5
102
RTVSPost2010Prop44ColorRGB
 90
      255
102
RTVSPost2010PropOp44
 70
     1
102
RTVSPost2010Prop45
280
     0
102
RTVSPost2010PropOp45
 70
     1
102
RTVSPost2010Prop46
 90
       50
102
RTVSPost2010PropOp46
 70
     1
102
RTVSPost2010Prop47
 90
       50
102
RTVSPost2010PropOp47
 70
     1
102
RTVSPost2010Prop48
 90
       50
102
RTVSPost2010PropOp48
 70
     1
102
RTVSPost2010Prop49
280
     0
102
RTVSPost2010PropOp49
 70
     1
102
RTVSPost2010Prop50
 90
       50
102
RTVSPost2010PropOp50
 70
     1
102
RTVSPost2010Prop51ColorIndex
 90
      256
102
RTVSPost2010Prop51ColorRGB
 90
-16777216
102
RTVSPost2010PropOp51
 70
     0
102
RTVSPost2010Prop52
140
1.0
102
RTVSPost2010PropOp52
 70
     0
102
RTVSPost2010Prop53
 90
        2
102
RTVSPost2010PropOp53
 70
     1
102
RTVSPost2010Prop54
  1
strokes_ogs.tif
102
RTVSPost2010PropOp54
 70
     1
102
RTVSPost2010Prop55
280
     0
102
RTVSPost2010PropOp55
 70
     1
102
RTVSPost2010Prop56
140
1.0
102
RTVSPost2010PropOp56
 70
     1
102
RTVSPost2010Prop57
140
1.0
102
RTVSPost2010PropOp57
 70
     1
  0
XRECORD
  5
116
102
{ACAD_REACTORS
330
115
102
}
330
115
100
AcDbXrecord
280
     1
102
RTVSPost2010Prop28
280
     0
102
RTVSPost2010PropOp28
 70
     1
102
RTVSPost2010Prop29
280
     1
102
RTVSPost2010PropOp29
 70
     1
102
RTVSPost2010Prop30
280
     1
102
RTVSPost2010PropOp30
 70
     1
102
RTVSPost2010Prop31
280
     0
102
RTVSPost2010PropOp31
 70
     1
102
RTVSPost2010Prop32
280
     0
102
RTVSPost2010PropOp32
 70
     1
102
RTVSPost2010Prop33
280
     0
102
RTVSPost2010PropOp33
 70
     1
102
RTVSPost2010Prop34
280
     0
102
RTVSPost2010PropOp34
 70
     1
102
RTVSPost2010Prop35
280
     0
102
RTVSPost2010PropOp35
 70
     1
102
RTVSPost2010Prop36
280
     0
102
RTVSPost2010PropOp36
 70
     1
102
RTVSPost2010Prop37
 90
       50
102
RTVSPost2010PropOp37
 70
     1
102
RTVSPost2010Prop38
140
0.0
102
RTVSPost2010PropOp38
 70
     1
102
RTVSPost2010Prop39
140
1.0
102
RTVSPost2010PropOp39
 70
     1
102
RTVSPost2010Prop40
 90
        0
102
RTVSPost2010PropOp40
 70
     1
102
RTVSPost2010Prop41ColorIndex
 90
       18
102
RTVSPost2010Prop41ColorRGB
 90
        0
102
RTVSPost2010PropOp41
 70
     1
102
RTVSPost2010Prop42
 90
       50
102
RTVSPost2010PropOp42
 70
     1
102
RTVSPost2010Prop43
 90
        3
102
RTVSPost2010PropOp43
 70
     1
102
RTVSPost2010Prop44ColorIndex
 90
        5
102
RTVSPost2010Prop44ColorRGB
 90
      255
102
RTVSPost2010PropOp44
 70
     1
102
RTVSPost2010Prop45
280
     0
102
RTVSPost2010PropOp45
 70
     1
102
RTVSPost2010Prop46
 90
       50
102
RTVSPost2010PropOp46
 70
     1
102
RTVSPost2010Prop47
 90
       50
102
RTVSPost2010PropOp47
 70
     1
102
RTVSPost2010Prop48
 90
       50
102
RTVSPost2010PropOp48
 70
     1
102
RTVSPost2010Prop49
280
     0
102
RTVSPost2010PropOp49
 70
     1
102
RTVSPost2010Prop50
 90
       50
102
RTVSPost2010PropOp50
 70
     1
102
RTVSPost2010Prop51ColorIndex
 90
      256
102
RTVSPost2010Prop51ColorRGB
 90
-16777216
102
RTVSPost2010PropOp51
 70
     0
102
RTVSPost2010Prop52
140
1.0
102
RTVSPost2010PropOp52
 70
     0
102
RTVSPost2010Prop53
 90
        2
102
RTVSPost2010PropOp53
 70
     1
102
RTVSPost2010Prop54
  1
strokes_ogs.tif
102
RTVSPost2010PropOp54
 70
     1
102
RTVSPost2010Prop55
280
     0
102
RTVSPost2010PropOp55
 70
     1
102
RTVSPost2010Prop56
140
1.0
102
RTVSPost2010PropOp56
 70
     1
102
RTVSPost2010Prop57
140
1.0
102
RTVSPost2010PropOp57
 70
     1
  0
XRECORD
  5
11A
102
{ACAD_REACTORS
330
119
102
}
330
119
100
AcDbXrecord
280
     1
102
RTVSPost2010Prop28
280
     0
102
RTVSPost2010PropOp28
 70
     1
102
RTVSPost2010Prop29
280
     1
102
RTVSPost2010PropOp29
 70
     1
102
RTVSPost2010Prop30
280
     1
102
RTVSPost2010PropOp30
 70
     1
102
RTVSPost2010Prop31
280
     0
102
RTVSPost2010PropOp31
 70
     1
102
RTVSPost2010Prop32
280
     0
102
RTVSPost2010PropOp32
 70
     1
102
RTVSPost2010Prop33
280
     0
102
RTVSPost2010PropOp33
 70
     1
102
RTVSPost2010Prop34
280
     0
102
RTVSPost2010PropOp34
 70
     1
102
RTVSPost2010Prop35
280
     0
102
RTVSPost2010PropOp35
 70
     1
102
RTVSPost2010Prop36
280
     0
102
RTVSPost2010PropOp36
 70
     1
102
RTVSPost2010Prop37
 90
       50
102
RTVSPost2010PropOp37
 70
     1
102
RTVSPost2010Prop38
140
0.0
102
RTVSPost2010PropOp38
 70
     1
102
RTVSPost2010Prop39
140
1.0
102
RTVSPost2010PropOp39
 70
     1
102
RTVSPost2010Prop40
 90
        0
102
RTVSPost2010PropOp40
 70
     1
102
RTVSPost2010Prop41ColorIndex
 90
       18
102
RTVSPost2010Prop41ColorRGB
 90
        0
102
RTVSPost2010PropOp41
 70
     1
102
RTVSPost2010Prop42
 90
       50
102
RTVSPost2010PropOp42
 70
     1
102
RTVSPost2010Prop43
 90
        3
102
RTVSPost2010PropOp43
 70
     1
102
RTVSPost2010Prop44ColorIndex
 90
        5
102
RTVSPost2010Prop44ColorRGB
 90
      255
102
RTVSPost2010PropOp44
 70
     1
102
RTVSPost2010Prop45
280
     0
102
RTVSPost2010PropOp45
 70
     1
102
RTVSPost2010Prop46
 90
       50
102
RTVSPost2010PropOp46
 70
     1
102
RTVSPost2010Prop47
 90
       50
102
RTVSPost2010PropOp47
 70
     1
102
RTVSPost2010Prop48
 90
       50
102
RTVSPost2010PropOp48
 70
     1
102
RTVSPost2010Prop49
280
     0
102
RTVSPost2010PropOp49
 70
     1
102
RTVSPost2010Prop50
 90
       50
102
RTVSPost2010PropOp50
 70
     1
102
RTVSPost2010Prop51ColorIndex
 90
      256
102
RTVSPost2010Prop51ColorRGB
 90
-16777216
102
RTVSPost2010PropOp51
 70
     0
102
RTVSPost2010Prop52
140
1.0
102
RTVSPost2010PropOp52
 70
     0
102
RTVSPost2010Prop53
 90
        2
102
RTVSPost2010PropOp53
 70
     1
102
RTVSPost2010Prop54
  1
strokes_ogs.tif
102
RTVSPost2010PropOp54
 70
     1
102
RTVSPost2010Prop55
280
     0
102
RTVSPost2010PropOp55
 70
     1
102
RTVSPost2010Prop56
140
1.0
102
RTVSPost2010PropOp56
 70
     1
102
RTVSPost2010Prop57
140
1.0
102
RTVSPost2010PropOp57
 70
     1
  0
XRECORD
  5
134
102
{ACAD_REACTORS
330
133
102
}
330
133
100
AcDbXrecord
280
     1
102
RTVSPost2010Prop28
280
     0
102
RTVSPost2010PropOp28
 70
     0
102
RTVSPost2010Prop29
280
     1
102
RTVSPost2010PropOp29
 70
     0
102
RTVSPost2010Prop30
280
     1
102
RTVSPost2010PropOp30
 70
     0
102
RTVSPost2010Prop31
280
     0
102
RTVSPost2010PropOp31
 70
     0
102
RTVSPost2010Prop32
280
     0
102
RTVSPost2010PropOp32
 70
     0
102
RTVSPost2010Prop33
280
     0
102
RTVSPost2010PropOp33
 70
     0
102
RTVSPost2010Prop34
280
     0
102
RTVSPost2010PropOp34
 70
     0
102
RTVSPost2010Prop35
280
     0
102
RTVSPost2010PropOp35
 70
     0
102
RTVSPost2010Prop36
280
     0
102
RTVSPost2010PropOp36
 70
     0
102
RTVSPost2010Prop37
 90
       50
102
RTVSPost2010PropOp37
 70
     0
102
RTVSPost2010Prop38
140
0.0
102
RTVSPost2010PropOp38
 70
     0
102
RTVSPost2010Prop39
140
1.0
102
RTVSPost2010PropOp39
 70
     0
102
RTVSPost2010Prop40
 90
        0
102
RTVSPost2010PropOp40
 70
     0
102
RTVSPost2010Prop41ColorIndex
 90
       18
102
RTVSPost2010Prop41ColorRGB
 90
        0
102
RTVSPost2010PropOp41
 70
     0
102
RTVSPost2010Prop42
 90
       50
102
RTVSPost2010PropOp42
 70
     0
102
RTVSPost2010Prop43
 90
        3
102
RTVSPost2010PropOp43
 70
     0
102
RTVSPost2010Prop44ColorIndex
 90
        5
102
RTVSPost2010Prop44ColorRGB
 90
      255
102
RTVSPost2010PropOp44
 70
     0
102
RTVSPost2010Prop45
280
     0
102
RTVSPost2010PropOp45
 70
     0
102
RTVSPost2010Prop46
 90
       50
102
RTVSPost2010PropOp46
 70
     0
102
RTVSPost2010Prop47
 90
       50
102
RTVSPost2010PropOp47
 70
     0
102
RTVSPost2010Prop48
 90
       50
102
RTVSPost2010PropOp48
 70
     0
102
RTVSPost2010Prop49
280
     0
102
RTVSPost2010PropOp49
 70
     0
102
RTVSPost2010Prop50
 90
       50
102
RTVSPost2010PropOp50
 70
     0
102
RTVSPost2010Prop51ColorIndex
 90
      256
102
RTVSPost2010Prop51ColorRGB
 90
-16777216
102
RTVSPost2010PropOp51
 70
     0
102
RTVSPost2010Prop52
140
1.0
102
RTVSPost2010PropOp52
 70
     0
102
RTVSPost2010Prop53
 90
        2
102
RTVSPost2010PropOp53
 70
     0
102
RTVSPost2010Prop54
  1
strokes_ogs.tif
102
RTVSPost2010PropOp54
 70
     0
102
RTVSPost2010Prop55
280
     0
102
RTVSPost2010PropOp55
 70
     0
102
RTVSPost2010Prop56
140
1.0
102
RTVSPost2010PropOp56
 70
     0
102
RTVSPost2010Prop57
140
1.0
102
RTVSPost2010PropOp57
 70
     0
  0
XRECORD
  5
122
102
{ACAD_REACTORS
330
121
102
}
330
121
100
AcDbXrecord
280
     1
102
RTVSPost2010Prop28
280
     0
102
RTVSPost2010PropOp28
 70
     1
102
RTVSPost2010Prop29
280
     1
102
RTVSPost2010PropOp29
 70
     1
102
RTVSPost2010Prop30
280
     1
102
RTVSPost2010PropOp30
 70
     1
102
RTVSPost2010Prop31
280
     0
102
RTVSPost2010PropOp31
 70
     1
102
RTVSPost2010Prop32
280
     0
102
RTVSPost2010PropOp32
 70
     1
102
RTVSPost2010Prop33
280
     0
102
RTVSPost2010PropOp33
 70
     1
102
RTVSPost2010Prop34
280
     0
102
RTVSPost2010PropOp34
 70
     1
102
RTVSPost2010Prop35
280
     0
102
RTVSPost2010PropOp35
 70
     1
102
RTVSPost2010Prop36
280
     0
102
RTVSPost2010PropOp36
 70
     1
102
RTVSPost2010Prop37
 90
       50
102
RTVSPost2010PropOp37
 70
     1
102
RTVSPost2010Prop38
140
0.0
102
RTVSPost2010PropOp38
 70
     1
102
RTVSPost2010Prop39
140
1.0
102
RTVSPost2010PropOp39
 70
     1
102
RTVSPost2010Prop40
 90
        0
102
RTVSPost2010PropOp40
 70
     1
102
RTVSPost2010Prop41ColorIndex
 90
       18
102
RTVSPost2010Prop41ColorRGB
 90
        0
102
RTVSPost2010PropOp41
 70
     1
102
RTVSPost2010Prop42
 90
       50
102
RTVSPost2010PropOp42
 70
     1
102
RTVSPost2010Prop43
 90
        3
102
RTVSPost2010PropOp43
 70
     1
102
RTVSPost2010Prop44ColorIndex
 90
        5
102
RTVSPost2010Prop44ColorRGB
 90
      255
102
RTVSPost2010PropOp44
 70
     1
102
RTVSPost2010Prop45
280
     0
102
RTVSPost2010PropOp45
 70
     1
102
RTVSPost2010Prop46
 90
       50
102
RTVSPost2010PropOp46
 70
     1
102
RTVSPost2010Prop47
 90
       50
102
RTVSPost2010PropOp47
 70
     1
102
RTVSPost2010Prop48
 90
       50
102
RTVSPost2010PropOp48
 70
     1
102
RTVSPost2010Prop49
280
     0
102
RTVSPost2010PropOp49
 70
     1
102
RTVSPost2010Prop50
 90
       50
102
RTVSPost2010PropOp50
 70
     1
102
RTVSPost2010Prop51ColorIndex
 90
      256
102
RTVSPost2010Prop51ColorRGB
 90
-16777216
102
RTVSPost2010PropOp51
 70
     0
102
RTVSPost2010Prop52
140
1.0
102
RTVSPost2010PropOp52
 70
     0
102
RTVSPost2010Prop53
 90
        2
102
RTVSPost2010PropOp53
 70
     1
102
RTVSPost2010Prop54
  1
strokes_ogs.tif
102
RTVSPost2010PropOp54
 70
     1
102
RTVSPost2010Prop55
280
     0
102
RTVSPost2010PropOp55
 70
     1
102
RTVSPost2010Prop56
140
1.0
102
RTVSPost2010PropOp56
 70
     1
102
RTVSPost2010Prop57
140
1.0
102
RTVSPost2010PropOp57
 70
     1
  0
XRECORD
  5
106
102
{ACAD_REACTORS
330
105
102
}
330
105
100
AcDbXrecord
280
     1
102
RTVSPost2010Prop28
280
     0
102
RTVSPost2010PropOp28
 70
     1
102
RTVSPost2010Prop29
280
     1
102
RTVSPost2010PropOp29
 70
     1
102
RTVSPost2010Prop30
280
     1
102
RTVSPost2010PropOp30
 70
     1
102
RTVSPost2010Prop31
280
     0
102
RTVSPost2010PropOp31
 70
     1
102
RTVSPost2010Prop32
280
     0
102
RTVSPost2010PropOp32
 70
     1
102
RTVSPost2010Prop33
280
     0
102
RTVSPost2010PropOp33
 70
     1
102
RTVSPost2010Prop34
280
     0
102
RTVSPost2010PropOp34
 70
     1
102
RTVSPost2010Prop35
280
     0
102
RTVSPost2010PropOp35
 70
     1
102
RTVSPost2010Prop36
280
     0
102
RTVSPost2010PropOp36
 70
     1
102
RTVSPost2010Prop37
 90
       50
102
RTVSPost2010PropOp37
 70
     1
102
RTVSPost2010Prop38
140
0.0
102
RTVSPost2010PropOp38
 70
     1
102
RTVSPost2010Prop39
140
1.0
102
RTVSPost2010PropOp39
 70
     1
102
RTVSPost2010Prop40
 90
        0
102
RTVSPost2010PropOp40
 70
     1
102
RTVSPost2010Prop41ColorIndex
 90
       18
102
RTVSPost2010Prop41ColorRGB
 90
        0
102
RTVSPost2010PropOp41
 70
     1
102
RTVSPost2010Prop42
 90
       50
102
RTVSPost2010PropOp42
 70
     1
102
RTVSPost2010Prop43
 90
        3
102
RTVSPost2010PropOp43
 70
     1
102
RTVSPost2010Prop44ColorIndex
 90
        5
102
RTVSPost2010Prop44ColorRGB
 90
      255
102
RTVSPost2010PropOp44
 70
     1
102
RTVSPost2010Prop45
280
     0
102
RTVSPost2010PropOp45
 70
     1
102
RTVSPost2010Prop46
 90
       50
102
RTVSPost2010PropOp46
 70
     1
102
RTVSPost2010Prop47
 90
       50
102
RTVSPost2010PropOp47
 70
     1
102
RTVSPost2010Prop48
 90
       50
102
RTVSPost2010PropOp48
 70
     1
102
RTVSPost2010Prop49
280
     0
102
RTVSPost2010PropOp49
 70
     1
102
RTVSPost2010Prop50
 90
       50
102
RTVSPost2010PropOp50
 70
     1
102
RTVSPost2010Prop51ColorIndex
 90
      256
102
RTVSPost2010Prop51ColorRGB
 90
-16777216
102
RTVSPost2010PropOp51
 70
     0
102
RTVSPost2010Prop52
140
1.0
102
RTVSPost2010PropOp52
 70
     0
102
RTVSPost2010Prop53
 90
        2
102
RTVSPost2010PropOp53
 70
     1
102
RTVSPost2010Prop54
  1
strokes_ogs.tif
102
RTVSPost2010PropOp54
 70
     1
102
RTVSPost2010Prop55
280
     0
102
RTVSPost2010PropOp55
 70
     1
102
RTVSPost2010Prop56
140
1.0
102
RTVSPost2010PropOp56
 70
     1
102
RTVSPost2010Prop57
140
1.0
102
RTVSPost2010PropOp57
 70
     1
  0
XRECORD
  5
108
102
{ACAD_REACTORS
330
107
102
}
330
107
100
AcDbXrecord
280
     1
102
RTVSPost2010Prop28
280
     0
102
RTVSPost2010PropOp28
 70
     1
102
RTVSPost2010Prop29
280
     1
102
RTVSPost2010PropOp29
 70
     1
102
RTVSPost2010Prop30
280
     1
102
RTVSPost2010PropOp30
 70
     1
102
RTVSPost2010Prop31
280
     0
102
RTVSPost2010PropOp31
 70
     1
102
RTVSPost2010Prop32
280
     0
102
RTVSPost2010PropOp32
 70
     1
102
RTVSPost2010Prop33
280
     0
102
RTVSPost2010PropOp33
 70
     1
102
RTVSPost2010Prop34
280
     0
102
RTVSPost2010PropOp34
 70
     1
102
RTVSPost2010Prop35
280
     0
102
RTVSPost2010PropOp35
 70
     1
102
RTVSPost2010Prop36
280
     0
102
RTVSPost2010PropOp36
 70
     1
102
RTVSPost2010Prop37
 90
       50
102
RTVSPost2010PropOp37
 70
     1
102
RTVSPost2010Prop38
140
0.0
102
RTVSPost2010PropOp38
 70
     1
102
RTVSPost2010Prop39
140
1.0
102
RTVSPost2010PropOp39
 70
     1
102
RTVSPost2010Prop40
 90
        0
102
RTVSPost2010PropOp40
 70
     1
102
RTVSPost2010Prop41ColorIndex
 90
       18
102
RTVSPost2010Prop41ColorRGB
 90
        0
102
RTVSPost2010PropOp41
 70
     1
102
RTVSPost2010Prop42
 90
       50
102
RTVSPost2010PropOp42
 70
     1
102
RTVSPost2010Prop43
 90
        3
102
RTVSPost2010PropOp43
 70
     1
102
RTVSPost2010Prop44ColorIndex
 90
        5
102
RTVSPost2010Prop44ColorRGB
 90
      255
102
RTVSPost2010PropOp44
 70
     1
102
RTVSPost2010Prop45
280
     0
102
RTVSPost2010PropOp45
 70
     1
102
RTVSPost2010Prop46
 90
       50
102
RTVSPost2010PropOp46
 70
     1
102
RTVSPost2010Prop47
 90
       50
102
RTVSPost2010PropOp47
 70
     1
102
RTVSPost2010Prop48
 90
       50
102
RTVSPost2010PropOp48
 70
     1
102
RTVSPost2010Prop49
280
     0
102
RTVSPost2010PropOp49
 70
     1
102
RTVSPost2010Prop50
 90
       50
102
RTVSPost2010PropOp50
 70
     1
102
RTVSPost2010Prop51ColorIndex
 90
      256
102
RTVSPost2010Prop51ColorRGB
 90
-16777216
102
RTVSPost2010PropOp51
 70
     0
102
RTVSPost2010Prop52
140
1.0
102
RTVSPost2010PropOp52
 70
     0
102
RTVSPost2010Prop53
 90
        2
102
RTVSPost2010PropOp53
 70
     1
102
RTVSPost2010Prop54
  1
strokes_ogs.tif
102
RTVSPost2010PropOp54
 70
     1
102
RTVSPost2010Prop55
280
     0
102
RTVSPost2010PropOp55
 70
     1
102
RTVSPost2010Prop56
140
1.0
102
RTVSPost2010PropOp56
 70
     1
102
RTVSPost2010Prop57
140
1.0
102
RTVSPost2010PropOp57
 70
     1
  0
XRECORD
  5
10A
102
{ACAD_REACTORS
330
109
102
}
330
109
100
AcDbXrecord
280
     1
102
RTVSPost2010Prop28
280
     0
102
RTVSPost2010PropOp28
 70
     1
102
RTVSPost2010Prop29
280
     1
102
RTVSPost2010PropOp29
 70
     1
102
RTVSPost2010Prop30
280
     1
102
RTVSPost2010PropOp30
 70
     1
102
RTVSPost2010Prop31
280
     0
102
RTVSPost2010PropOp31
 70
     1
102
RTVSPost2010Prop32
280
     0
102
RTVSPost2010PropOp32
 70
     1
102
RTVSPost2010Prop33
280
     0
102
RTVSPost2010PropOp33
 70
     1
102
RTVSPost2010Prop34
280
     0
102
RTVSPost2010PropOp34
 70
     1
102
RTVSPost2010Prop35
280
     0
102
RTVSPost2010PropOp35
 70
     1
102
RTVSPost2010Prop36
280
     0
102
RTVSPost2010PropOp36
 70
     1
102
RTVSPost2010Prop37
 90
       50
102
RTVSPost2010PropOp37
 70
     1
102
RTVSPost2010Prop38
140
0.0
102
RTVSPost2010PropOp38
 70
     1
102
RTVSPost2010Prop39
140
1.0
102
RTVSPost2010PropOp39
 70
     1
102
RTVSPost2010Prop40
 90
        0
102
RTVSPost2010PropOp40
 70
     1
102
RTVSPost2010Prop41ColorIndex
 90
       18
102
RTVSPost2010Prop41ColorRGB
 90
        0
102
RTVSPost2010PropOp41
 70
     1
102
RTVSPost2010Prop42
 90
       50
102
RTVSPost2010PropOp42
 70
     1
102
RTVSPost2010Prop43
 90
        3
102
RTVSPost2010PropOp43
 70
     1
102
RTVSPost2010Prop44ColorIndex
 90
        5
102
RTVSPost2010Prop44ColorRGB
 90
      255
102
RTVSPost2010PropOp44
 70
     1
102
RTVSPost2010Prop45
280
     0
102
RTVSPost2010PropOp45
 70
     1
102
RTVSPost2010Prop46
 90
       50
102
RTVSPost2010PropOp46
 70
     1
102
RTVSPost2010Prop47
 90
       50
102
RTVSPost2010PropOp47
 70
     1
102
RTVSPost2010Prop48
 90
       50
102
RTVSPost2010PropOp48
 70
     1
102
RTVSPost2010Prop49
280
     0
102
RTVSPost2010PropOp49
 70
     1
102
RTVSPost2010Prop50
 90
       50
102
RTVSPost2010PropOp50
 70
     1
102
RTVSPost2010Prop51ColorIndex
 90
      256
102
RTVSPost2010Prop51ColorRGB
 90
-16777216
102
RTVSPost2010PropOp51
 70
     0
102
RTVSPost2010Prop52
140
1.0
102
RTVSPost2010PropOp52
 70
     0
102
RTVSPost2010Prop53
 90
        2
102
RTVSPost2010PropOp53
 70
     1
102
RTVSPost2010Prop54
  1
strokes_ogs.tif
102
RTVSPost2010PropOp54
 70
     1
102
RTVSPost2010Prop55
280
     0
102
RTVSPost2010PropOp55
 70
     1
102
RTVSPost2010Prop56
140
1.0
102
RTVSPost2010PropOp56
 70
     1
102
RTVSPost2010Prop57
140
1.0
102
RTVSPost2010PropOp57
 70
     1
  0
XRECORD
  5
10C
102
{ACAD_REACTORS
330
10B
102
}
330
10B
100
AcDbXrecord
280
     1
102
RTVSPost2010Prop28
280
     0
102
RTVSPost2010PropOp28
 70
     1
102
RTVSPost2010Prop29
280
     1
102
RTVSPost2010PropOp29
 70
     1
102
RTVSPost2010Prop30
280
     1
102
RTVSPost2010PropOp30
 70
     1
102
RTVSPost2010Prop31
280
     0
102
RTVSPost2010PropOp31
 70
     1
102
RTVSPost2010Prop32
280
     0
102
RTVSPost2010PropOp32
 70
     1
102
RTVSPost2010Prop33
280
     0
102
RTVSPost2010PropOp33
 70
     1
102
RTVSPost2010Prop34
280
     0
102
RTVSPost2010PropOp34
 70
     1
102
RTVSPost2010Prop35
280
     0
102
RTVSPost2010PropOp35
 70
     1
102
RTVSPost2010Prop36
280
     0
102
RTVSPost2010PropOp36
 70
     1
102
RTVSPost2010Prop37
 90
       50
102
RTVSPost2010PropOp37
 70
     1
102
RTVSPost2010Prop38
140
0.0
102
RTVSPost2010PropOp38
 70
     1
102
RTVSPost2010Prop39
140
1.0
102
RTVSPost2010PropOp39
 70
     1
102
RTVSPost2010Prop40
 90
        0
102
RTVSPost2010PropOp40
 70
     1
102
RTVSPost2010Prop41ColorIndex
 90
       18
102
RTVSPost2010Prop41ColorRGB
 90
        0
102
RTVSPost2010PropOp41
 70
     1
102
RTVSPost2010Prop42
 90
       50
102
RTVSPost2010PropOp42
 70
     1
102
RTVSPost2010Prop43
 90
        3
102
RTVSPost2010PropOp43
 70
     1
102
RTVSPost2010Prop44ColorIndex
 90
        5
102
RTVSPost2010Prop44ColorRGB
 90
      255
102
RTVSPost2010PropOp44
 70
     1
102
RTVSPost2010Prop45
280
     0
102
RTVSPost2010PropOp45
 70
     1
102
RTVSPost2010Prop46
 90
       50
102
RTVSPost2010PropOp46
 70
     1
102
RTVSPost2010Prop47
 90
       50
102
RTVSPost2010PropOp47
 70
     1
102
RTVSPost2010Prop48
 90
       50
102
RTVSPost2010PropOp48
 70
     1
102
RTVSPost2010Prop49
280
     0
102
RTVSPost2010PropOp49
 70
     1
102
RTVSPost2010Prop50
 90
       50
102
RTVSPost2010PropOp50
 70
     1
102
RTVSPost2010Prop51ColorIndex
 90
      256
102
RTVSPost2010Prop51ColorRGB
 90
-16777216
102
RTVSPost2010PropOp51
 70
     0
102
RTVSPost2010Prop52
140
1.0
102
RTVSPost2010PropOp52
 70
     0
102
RTVSPost2010Prop53
 90
        2
102
RTVSPost2010PropOp53
 70
     1
102
RTVSPost2010Prop54
  1
strokes_ogs.tif
102
RTVSPost2010PropOp54
 70
     1
102
RTVSPost2010Prop55
280
     0
102
RTVSPost2010PropOp55
 70
     1
102
RTVSPost2010Prop56
140
1.0
102
RTVSPost2010PropOp56
 70
     1
102
RTVSPost2010Prop57
140
1.0
102
RTVSPost2010PropOp57
 70
     1
  0
XRECORD
  5
114
102
{ACAD_REACTORS
330
113
102
}
330
113
100
AcDbXrecord
280
     1
102
RTVSPost2010Prop28
280
     0
102
RTVSPost2010PropOp28
 70
     1
102
RTVSPost2010Prop29
280
     1
102
RTVSPost2010PropOp29
 70
     1
102
RTVSPost2010Prop30
280
     1
102
RTVSPost2010PropOp30
 70
     1
102
RTVSPost2010Prop31
280
     0
102
RTVSPost2010PropOp31
 70
     1
102
RTVSPost2010Prop32
280
     0
102
RTVSPost2010PropOp32
 70
     1
102
RTVSPost2010Prop33
280
     0
102
RTVSPost2010PropOp33
 70
     1
102
RTVSPost2010Prop34
280
     0
102
RTVSPost2010PropOp34
 70
     1
102
RTVSPost2010Prop35
280
     0
102
RTVSPost2010PropOp35
 70
     1
102
RTVSPost2010Prop36
280
     0
102
RTVSPost2010PropOp36
 70
     1
102
RTVSPost2010Prop37
 90
       50
102
RTVSPost2010PropOp37
 70
     1
102
RTVSPost2010Prop38
140
0.0
102
RTVSPost2010PropOp38
 70
     1
102
RTVSPost2010Prop39
140
1.0
102
RTVSPost2010PropOp39
 70
     1
102
RTVSPost2010Prop40
 90
        0
102
RTVSPost2010PropOp40
 70
     1
102
RTVSPost2010Prop41ColorIndex
 90
       18
102
RTVSPost2010Prop41ColorRGB
 90
        0
102
RTVSPost2010PropOp41
 70
     1
102
RTVSPost2010Prop42
 90
       50
102
RTVSPost2010PropOp42
 70
     1
102
RTVSPost2010Prop43
 90
        3
102
RTVSPost2010PropOp43
 70
     1
102
RTVSPost2010Prop44ColorIndex
 90
        5
102
RTVSPost2010Prop44ColorRGB
 90
      255
102
RTVSPost2010PropOp44
 70
     1
102
RTVSPost2010Prop45
280
     0
102
RTVSPost2010PropOp45
 70
     1
102
RTVSPost2010Prop46
 90
       50
102
RTVSPost2010PropOp46
 70
     1
102
RTVSPost2010Prop47
 90
       50
102
RTVSPost2010PropOp47
 70
     1
102
RTVSPost2010Prop48
 90
       50
102
RTVSPost2010PropOp48
 70
     1
102
RTVSPost2010Prop49
280
     0
102
RTVSPost2010PropOp49
 70
     1
102
RTVSPost2010Prop50
 90
       50
102
RTVSPost2010PropOp50
 70
     1
102
RTVSPost2010Prop51ColorIndex
 90
      256
102
RTVSPost2010Prop51ColorRGB
 90
-16777216
102
RTVSPost2010PropOp51
 70
     0
102
RTVSPost2010Prop52
140
1.0
102
RTVSPost2010PropOp52
 70
     0
102
RTVSPost2010Prop53
 90
        2
102
RTVSPost2010PropOp53
 70
     1
102
RTVSPost2010Prop54
  1
strokes_ogs.tif
102
RTVSPost2010PropOp54
 70
     1
102
RTVSPost2010Prop55
280
     0
102
RTVSPost2010PropOp55
 70
     1
102
RTVSPost2010Prop56
140
1.0
102
RTVSPost2010PropOp56
 70
     1
102
RTVSPost2010Prop57
140
1.0
102
RTVSPost2010PropOp57
 70
     1
  0
XRECORD
  5
130
102
{ACAD_REACTORS
330
12F
102
}
330
12F
100
AcDbXrecord
280
     1
102
RTVSPost2010Prop28
280
     0
102
RTVSPost2010PropOp28
 70
     0
102
RTVSPost2010Prop29
280
     1
102
RTVSPost2010PropOp29
 70
     0
102
RTVSPost2010Prop30
280
     1
102
RTVSPost2010PropOp30
 70
     0
102
RTVSPost2010Prop31
280
     0
102
RTVSPost2010PropOp31
 70
     0
102
RTVSPost2010Prop32
280
     0
102
RTVSPost2010PropOp32
 70
     0
102
RTVSPost2010Prop33
280
     0
102
RTVSPost2010PropOp33
 70
     0
102
RTVSPost2010Prop34
280
     0
102
RTVSPost2010PropOp34
 70
     0
102
RTVSPost2010Prop35
280
     0
102
RTVSPost2010PropOp35
 70
     0
102
RTVSPost2010Prop36
280
     0
102
RTVSPost2010PropOp36
 70
     0
102
RTVSPost2010Prop37
 90
       50
102
RTVSPost2010PropOp37
 70
     0
102
RTVSPost2010Prop38
140
0.0
102
RTVSPost2010PropOp38
 70
     0
102
RTVSPost2010Prop39
140
1.0
102
RTVSPost2010PropOp39
 70
     0
102
RTVSPost2010Prop40
 90
        0
102
RTVSPost2010PropOp40
 70
     0
102
RTVSPost2010Prop41ColorIndex
 90
       18
102
RTVSPost2010Prop41ColorRGB
 90
        0
102
RTVSPost2010PropOp41
 70
     0
102
RTVSPost2010Prop42
 90
       50
102
RTVSPost2010PropOp42
 70
     0
102
RTVSPost2010Prop43
 90
        3
102
RTVSPost2010PropOp43
 70
     0
102
RTVSPost2010Prop44ColorIndex
 90
        5
102
RTVSPost2010Prop44ColorRGB
 90
      255
102
RTVSPost2010PropOp44
 70
     0
102
RTVSPost2010Prop45
280
     0
102
RTVSPost2010PropOp45
 70
     0
102
RTVSPost2010Prop46
 90
       50
102
RTVSPost2010PropOp46
 70
     0
102
RTVSPost2010Prop47
 90
       50
102
RTVSPost2010PropOp47
 70
     0
102
RTVSPost2010Prop48
 90
       50
102
RTVSPost2010PropOp48
 70
     0
102
RTVSPost2010Prop49
280
     0
102
RTVSPost2010PropOp49
 70
     0
102
RTVSPost2010Prop50
 90
       50
102
RTVSPost2010PropOp50
 70
     0
102
RTVSPost2010Prop51ColorIndex
 90
      256
102
RTVSPost2010Prop51ColorRGB
 90
-16777216
102
RTVSPost2010PropOp51
 70
     0
102
RTVSPost2010Prop52
140
1.0
102
RTVSPost2010PropOp52
 70
     0
102
RTVSPost2010Prop53
 90
        2
102
RTVSPost2010PropOp53
 70
     0
102
RTVSPost2010Prop54
  1
strokes_ogs.tif
102
RTVSPost2010PropOp54
 70
     0
102
RTVSPost2010Prop55
280
     0
102
RTVSPost2010PropOp55
 70
     0
102
RTVSPost2010Prop56
140
1.0
102
RTVSPost2010PropOp56
 70
     0
102
RTVSPost2010Prop57
140
1.0
102
RTVSPost2010PropOp57
 70
     0
  0
XRECORD
  5
120
102
{ACAD_REACTORS
330
11F
102
}
330
11F
100
AcDbXrecord
280
     1
102
RTVSPost2010Prop28
280
     0
102
RTVSPost2010PropOp28
 70
     1
102
RTVSPost2010Prop29
280
     1
102
RTVSPost2010PropOp29
 70
     1
102
RTVSPost2010Prop30
280
     1
102
RTVSPost2010PropOp30
 70
     1
102
RTVSPost2010Prop31
280
     0
102
RTVSPost2010PropOp31
 70
     1
102
RTVSPost2010Prop32
280
     0
102
RTVSPost2010PropOp32
 70
     1
102
RTVSPost2010Prop33
280
     0
102
RTVSPost2010PropOp33
 70
     1
102
RTVSPost2010Prop34
280
     0
102
RTVSPost2010PropOp34
 70
     1
102
RTVSPost2010Prop35
280
     0
102
RTVSPost2010PropOp35
 70
     1
102
RTVSPost2010Prop36
280
     0
102
RTVSPost2010PropOp36
 70
     1
102
RTVSPost2010Prop37
 90
       50
102
RTVSPost2010PropOp37
 70
     1
102
RTVSPost2010Prop38
140
0.0
102
RTVSPost2010PropOp38
 70
     1
102
RTVSPost2010Prop39
140
1.0
102
RTVSPost2010PropOp39
 70
     1
102
RTVSPost2010Prop40
 90
        0
102
RTVSPost2010PropOp40
 70
     1
102
RTVSPost2010Prop41ColorIndex
 90
       18
102
RTVSPost2010Prop41ColorRGB
 90
        0
102
RTVSPost2010PropOp41
 70
     1
102
RTVSPost2010Prop42
 90
       50
102
RTVSPost2010PropOp42
 70
     1
102
RTVSPost2010Prop43
 90
        3
102
RTVSPost2010PropOp43
 70
     1
102
RTVSPost2010Prop44ColorIndex
 90
        5
102
RTVSPost2010Prop44ColorRGB
 90
      255
102
RTVSPost2010PropOp44
 70
     1
102
RTVSPost2010Prop45
280
     0
102
RTVSPost2010PropOp45
 70
     1
102
RTVSPost2010Prop46
 90
       50
102
RTVSPost2010PropOp46
 70
     1
102
RTVSPost2010Prop47
 90
       50
102
RTVSPost2010PropOp47
 70
     1
102
RTVSPost2010Prop48
 90
       50
102
RTVSPost2010PropOp48
 70
     1
102
RTVSPost2010Prop49
280
     0
102
RTVSPost2010PropOp49
 70
     1
102
RTVSPost2010Prop50
 90
       50
102
RTVSPost2010PropOp50
 70
     1
102
RTVSPost2010Prop51ColorIndex
 90
      256
102
RTVSPost2010Prop51ColorRGB
 90
-16777216
102
RTVSPost2010PropOp51
 70
     0
102
RTVSPost2010Prop52
140
1.0
102
RTVSPost2010PropOp52
 70
     0
102
RTVSPost2010Prop53
 90
        2
102
RTVSPost2010PropOp53
 70
     1
102
RTVSPost2010Prop54
  1
strokes_ogs.tif
102
RTVSPost2010PropOp54
 70
     1
102
RTVSPost2010Prop55
280
     0
102
RTVSPost2010PropOp55
 70
     1
102
RTVSPost2010Prop56
140
1.0
102
RTVSPost2010PropOp56
 70
     1
102
RTVSPost2010Prop57
140
1.0
102
RTVSPost2010PropOp57
 70
     1
  0
XRECORD
  5
132
102
{ACAD_REACTORS
330
131
102
}
330
131
100
AcDbXrecord
280
     1
102
RTVSPost2010Prop28
280
     0
102
RTVSPost2010PropOp28
 70
     0
102
RTVSPost2010Prop29
280
     1
102
RTVSPost2010PropOp29
 70
     0
102
RTVSPost2010Prop30
280
     1
102
RTVSPost2010PropOp30
 70
     0
102
RTVSPost2010Prop31
280
     0
102
RTVSPost2010PropOp31
 70
     0
102
RTVSPost2010Prop32
280
     0
102
RTVSPost2010PropOp32
 70
     0
102
RTVSPost2010Prop33
280
     0
102
RTVSPost2010PropOp33
 70
     0
102
RTVSPost2010Prop34
280
     0
102
RTVSPost2010PropOp34
 70
     0
102
RTVSPost2010Prop35
280
     0
102
RTVSPost2010PropOp35
 70
     0
102
RTVSPost2010Prop36
280
     0
102
RTVSPost2010PropOp36
 70
     0
102
RTVSPost2010Prop37
 90
       50
102
RTVSPost2010PropOp37
 70
     0
102
RTVSPost2010Prop38
140
0.0
102
RTVSPost2010PropOp38
 70
     0
102
RTVSPost2010Prop39
140
1.0
102
RTVSPost2010PropOp39
 70
     0
102
RTVSPost2010Prop40
 90
        0
102
RTVSPost2010PropOp40
 70
     0
102
RTVSPost2010Prop41ColorIndex
 90
       18
102
RTVSPost2010Prop41ColorRGB
 90
        0
102
RTVSPost2010PropOp41
 70
     0
102
RTVSPost2010Prop42
 90
       50
102
RTVSPost2010PropOp42
 70
     0
102
RTVSPost2010Prop43
 90
        3
102
RTVSPost2010PropOp43
 70
     0
102
RTVSPost2010Prop44ColorIndex
 90
        5
102
RTVSPost2010Prop44ColorRGB
 90
      255
102
RTVSPost2010PropOp44
 70
     0
102
RTVSPost2010Prop45
280
     0
102
RTVSPost2010PropOp45
 70
     0
102
RTVSPost2010Prop46
 90
       50
102
RTVSPost2010PropOp46
 70
     0
102
RTVSPost2010Prop47
 90
       50
102
RTVSPost2010PropOp47
 70
     0
102
RTVSPost2010Prop48
 90
       50
102
RTVSPost2010PropOp48
 70
     0
102
RTVSPost2010Prop49
280
     0
102
RTVSPost2010PropOp49
 70
     0
102
RTVSPost2010Prop50
 90
       50
102
RTVSPost2010PropOp50
 70
     0
102
RTVSPost2010Prop51ColorIndex
 90
      256
102
RTVSPost2010Prop51ColorRGB
 90
-16777216
102
RTVSPost2010PropOp51
 70
     0
102
RTVSPost2010Prop52
140
1.0
102
RTVSPost2010PropOp52
 70
     0
102
RTVSPost2010Prop53
 90
        2
102
RTVSPost2010PropOp53
 70
     0
102
RTVSPost2010Prop54
  1
strokes_ogs.tif
102
RTVSPost2010PropOp54
 70
     0
102
RTVSPost2010Prop55
280
     0
102
RTVSPost2010PropOp55
 70
     0
102
RTVSPost2010Prop56
140
1.0
102
RTVSPost2010PropOp56
 70
     0
102
RTVSPost2010Prop57
140
1.0
102
RTVSPost2010PropOp57
 70
     0
  0
XRECORD
  5
118
102
{ACAD_REACTORS
330
117
102
}
330
117
100
AcDbXrecord
280
     1
102
RTVSPost2010Prop28
280
     0
102
RTVSPost2010PropOp28
 70
     1
102
RTVSPost2010Prop29
280
     1
102
RTVSPost2010PropOp29
 70
     1
102
RTVSPost2010Prop30
280
     1
102
RTVSPost2010PropOp30
 70
     1
102
RTVSPost2010Prop31
280
     0
102
RTVSPost2010PropOp31
 70
     1
102
RTVSPost2010Prop32
280
     0
102
RTVSPost2010PropOp32
 70
     1
102
RTVSPost2010Prop33
280
     0
102
RTVSPost2010PropOp33
 70
     1
102
RTVSPost2010Prop34
280
     0
102
RTVSPost2010PropOp34
 70
     1
102
RTVSPost2010Prop35
280
     0
102
RTVSPost2010PropOp35
 70
     1
102
RTVSPost2010Prop36
280
     0
102
RTVSPost2010PropOp36
 70
     1
102
RTVSPost2010Prop37
 90
       50
102
RTVSPost2010PropOp37
 70
     1
102
RTVSPost2010Prop38
140
0.0
102
RTVSPost2010PropOp38
 70
     1
102
RTVSPost2010Prop39
140
1.0
102
RTVSPost2010PropOp39
 70
     1
102
RTVSPost2010Prop40
 90
        0
102
RTVSPost2010PropOp40
 70
     1
102
RTVSPost2010Prop41ColorIndex
 90
       18
102
RTVSPost2010Prop41ColorRGB
 90
        0
102
RTVSPost2010PropOp41
 70
     1
102
RTVSPost2010Prop42
 90
       50
102
RTVSPost2010PropOp42
 70
     1
102
RTVSPost2010Prop43
 90
        3
102
RTVSPost2010PropOp43
 70
     1
102
RTVSPost2010Prop44ColorIndex
 90
        5
102
RTVSPost2010Prop44ColorRGB
 90
      255
102
RTVSPost2010PropOp44
 70
     1
102
RTVSPost2010Prop45
280
     0
102
RTVSPost2010PropOp45
 70
     1
102
RTVSPost2010Prop46
 90
       50
102
RTVSPost2010PropOp46
 70
     1
102
RTVSPost2010Prop47
 90
       50
102
RTVSPost2010PropOp47
 70
     1
102
RTVSPost2010Prop48
 90
       50
102
RTVSPost2010PropOp48
 70
     1
102
RTVSPost2010Prop49
280
     0
102
RTVSPost2010PropOp49
 70
     1
102
RTVSPost2010Prop50
 90
       50
102
RTVSPost2010PropOp50
 70
     1
102
RTVSPost2010Prop51ColorIndex
 90
      256
102
RTVSPost2010Prop51ColorRGB
 90
-16777216
102
RTVSPost2010PropOp51
 70
     0
102
RTVSPost2010Prop52
140
1.0
102
RTVSPost2010PropOp52
 70
     0
102
RTVSPost2010Prop53
 90
        2
102
RTVSPost2010PropOp53
 70
     1
102
RTVSPost2010Prop54
  1
strokes_ogs.tif
102
RTVSPost2010PropOp54
 70
     1
102
RTVSPost2010Prop55
280
     0
102
RTVSPost2010PropOp55
 70
     1
102
RTVSPost2010Prop56
140
1.0
102
RTVSPost2010PropOp56
 70
     1
102
RTVSPost2010Prop57
140
1.0
102
RTVSPost2010PropOp57
 70
     1
  0
XRECORD
  5
12E
102
{ACAD_REACTORS
330
12D
102
}
330
12D
100
AcDbXrecord
280
     1
102
RTVSPost2010Prop28
280
     0
102
RTVSPost2010PropOp28
 70
     1
102
RTVSPost2010Prop29
280
     1
102
RTVSPost2010PropOp29
 70
     1
102
RTVSPost2010Prop30
280
     1
102
RTVSPost2010PropOp30
 70
     1
102
RTVSPost2010Prop31
280
     0
102
RTVSPost2010PropOp31
 70
     1
102
RTVSPost2010Prop32
280
     0
102
RTVSPost2010PropOp32
 70
     1
102
RTVSPost2010Prop33
280
     0
102
RTVSPost2010PropOp33
 70
     1
102
RTVSPost2010Prop34
280
     0
102
RTVSPost2010PropOp34
 70
     1
102
RTVSPost2010Prop35
280
     0
102
RTVSPost2010PropOp35
 70
     1
102
RTVSPost2010Prop36
280
     0
102
RTVSPost2010PropOp36
 70
     1
102
RTVSPost2010Prop37
 90
       50
102
RTVSPost2010PropOp37
 70
     1
102
RTVSPost2010Prop38
140
0.0
102
RTVSPost2010PropOp38
 70
     1
102
RTVSPost2010Prop39
140
1.0
102
RTVSPost2010PropOp39
 70
     1
102
RTVSPost2010Prop40
 90
        0
102
RTVSPost2010PropOp40
 70
     1
102
RTVSPost2010Prop41ColorIndex
 90
       18
102
RTVSPost2010Prop41ColorRGB
 90
        0
102
RTVSPost2010PropOp41
 70
     1
102
RTVSPost2010Prop42
 90
       50
102
RTVSPost2010PropOp42
 70
     1
102
RTVSPost2010Prop43
 90
        3
102
RTVSPost2010PropOp43
 70
     1
102
RTVSPost2010Prop44ColorIndex
 90
        5
102
RTVSPost2010Prop44ColorRGB
 90
      255
102
RTVSPost2010PropOp44
 70
     1
102
RTVSPost2010Prop45
280
     0
102
RTVSPost2010PropOp45
 70
     1
102
RTVSPost2010Prop46
 90
       50
102
RTVSPost2010PropOp46
 70
     1
102
RTVSPost2010Prop47
 90
       50
102
RTVSPost2010PropOp47
 70
     1
102
RTVSPost2010Prop48
 90
       50
102
RTVSPost2010PropOp48
 70
     1
102
RTVSPost2010Prop49
280
     0
102
RTVSPost2010PropOp49
 70
     1
102
RTVSPost2010Prop50
 90
       50
102
RTVSPost2010PropOp50
 70
     1
102
RTVSPost2010Prop51ColorIndex
 90
      256
102
RTVSPost2010Prop51ColorRGB
 90
-16777216
102
RTVSPost2010PropOp51
 70
     0
102
RTVSPost2010Prop52
140
1.0
102
RTVSPost2010PropOp52
 70
     0
102
RTVSPost2010Prop53
 90
        2
102
RTVSPost2010PropOp53
 70
     1
102
RTVSPost2010Prop54
  1
strokes_ogs.tif
102
RTVSPost2010PropOp54
 70
     1
102
RTVSPost2010Prop55
280
     0
102
RTVSPost2010PropOp55
 70
     1
102
RTVSPost2010Prop56
140
1.0
102
RTVSPost2010PropOp56
 70
     1
102
RTVSPost2010Prop57
140
1.0
102
RTVSPost2010PropOp57
 70
     1
  0
XRECORD
  5
12C
102
{ACAD_REACTORS
330
12B
102
}
330
12B
100
AcDbXrecord
280
     1
102
RTVSPost2010Prop28
280
     0
102
RTVSPost2010PropOp28
 70
     1
102
RTVSPost2010Prop29
280
     1
102
RTVSPost2010PropOp29
 70
     1
102
RTVSPost2010Prop30
280
     1
102
RTVSPost2010PropOp30
 70
     1
102
RTVSPost2010Prop31
280
     0
102
RTVSPost2010PropOp31
 70
     1
102
RTVSPost2010Prop32
280
     0
102
RTVSPost2010PropOp32
 70
     1
102
RTVSPost2010Prop33
280
     0
102
RTVSPost2010PropOp33
 70
     1
102
RTVSPost2010Prop34
280
     0
102
RTVSPost2010PropOp34
 70
     1
102
RTVSPost2010Prop35
280
     0
102
RTVSPost2010PropOp35
 70
     1
102
RTVSPost2010Prop36
280
     0
102
RTVSPost2010PropOp36
 70
     1
102
RTVSPost2010Prop37
 90
       50
102
RTVSPost2010PropOp37
 70
     1
102
RTVSPost2010Prop38
140
0.0
102
RTVSPost2010PropOp38
 70
     1
102
RTVSPost2010Prop39
140
1.0
102
RTVSPost2010PropOp39
 70
     1
102
RTVSPost2010Prop40
 90
        0
102
RTVSPost2010PropOp40
 70
     1
102
RTVSPost2010Prop41ColorIndex
 90
       18
102
RTVSPost2010Prop41ColorRGB
 90
        0
102
RTVSPost2010PropOp41
 70
     1
102
RTVSPost2010Prop42
 90
       50
102
RTVSPost2010PropOp42
 70
     1
102
RTVSPost2010Prop43
 90
        3
102
RTVSPost2010PropOp43
 70
     1
102
RTVSPost2010Prop44ColorIndex
 90
        5
102
RTVSPost2010Prop44ColorRGB
 90
      255
102
RTVSPost2010PropOp44
 70
     1
102
RTVSPost2010Prop45
280
     0
102
RTVSPost2010PropOp45
 70
     1
102
RTVSPost2010Prop46
 90
       50
102
RTVSPost2010PropOp46
 70
     1
102
RTVSPost2010Prop47
 90
       50
102
RTVSPost2010PropOp47
 70
     1
102
RTVSPost2010Prop48
 90
       50
102
RTVSPost2010PropOp48
 70
     1
102
RTVSPost2010Prop49
280
     0
102
RTVSPost2010PropOp49
 70
     1
102
RTVSPost2010Prop50
 90
       50
102
RTVSPost2010PropOp50
 70
     1
102
RTVSPost2010Prop51ColorIndex
 90
      256
102
RTVSPost2010Prop51ColorRGB
 90
-16777216
102
RTVSPost2010PropOp51
 70
     0
102
RTVSPost2010Prop52
140
1.0
102
RTVSPost2010PropOp52
 70
     0
102
RTVSPost2010Prop53
 90
        2
102
RTVSPost2010PropOp53
 70
     1
102
RTVSPost2010Prop54
  1
strokes_ogs.tif
102
RTVSPost2010PropOp54
 70
     1
102
RTVSPost2010Prop55
280
     0
102
RTVSPost2010PropOp55
 70
     1
102
RTVSPost2010Prop56
140
1.0
102
RTVSPost2010PropOp56
 70
     1
102
RTVSPost2010Prop57
140
1.0
102
RTVSPost2010PropOp57
 70
     1
  0
XRECORD
  5
126
102
{ACAD_REACTORS
330
125
102
}
330
125
100
AcDbXrecord
280
     1
102
RTVSPost2010Prop28
280
     0
102
RTVSPost2010PropOp28
 70
     1
102
RTVSPost2010Prop29
280
     1
102
RTVSPost2010PropOp29
 70
     1
102
RTVSPost2010Prop30
280
     1
102
RTVSPost2010PropOp30
 70
     1
102
RTVSPost2010Prop31
280
     0
102
RTVSPost2010PropOp31
 70
     1
102
RTVSPost2010Prop32
280
     0
102
RTVSPost2010PropOp32
 70
     1
102
RTVSPost2010Prop33
280
     0
102
RTVSPost2010PropOp33
 70
     1
102
RTVSPost2010Prop34
280
     0
102
RTVSPost2010PropOp34
 70
     1
102
RTVSPost2010Prop35
280
     0
102
RTVSPost2010PropOp35
 70
     1
102
RTVSPost2010Prop36
280
     0
102
RTVSPost2010PropOp36
 70
     1
102
RTVSPost2010Prop37
 90
       50
102
RTVSPost2010PropOp37
 70
     1
102
RTVSPost2010Prop38
140
0.0
102
RTVSPost2010PropOp38
 70
     1
102
RTVSPost2010Prop39
140
1.0
102
RTVSPost2010PropOp39
 70
     1
102
RTVSPost2010Prop40
 90
        0
102
RTVSPost2010PropOp40
 70
     1
102
RTVSPost2010Prop41ColorIndex
 90
       18
102
RTVSPost2010Prop41ColorRGB
 90
        0
102
RTVSPost2010PropOp41
 70
     1
102
RTVSPost2010Prop42
 90
       50
102
RTVSPost2010PropOp42
 70
     1
102
RTVSPost2010Prop43
 90
        3
102
RTVSPost2010PropOp43
 70
     1
102
RTVSPost2010Prop44ColorIndex
 90
        5
102
RTVSPost2010Prop44ColorRGB
 90
      255
102
RTVSPost2010PropOp44
 70
     1
102
RTVSPost2010Prop45
280
     0
102
RTVSPost2010PropOp45
 70
     1
102
RTVSPost2010Prop46
 90
       50
102
RTVSPost2010PropOp46
 70
     1
102
RTVSPost2010Prop47
 90
       50
102
RTVSPost2010PropOp47
 70
     1
102
RTVSPost2010Prop48
 90
       50
102
RTVSPost2010PropOp48
 70
     1
102
RTVSPost2010Prop49
280
     0
102
RTVSPost2010PropOp49
 70
     1
102
RTVSPost2010Prop50
 90
       50
102
RTVSPost2010PropOp50
 70
     1
102
RTVSPost2010Prop51ColorIndex
 90
      256
102
RTVSPost2010Prop51ColorRGB
 90
-16777216
102
RTVSPost2010PropOp51
 70
     0
102
RTVSPost2010Prop52
140
1.0
102
RTVSPost2010PropOp52
 70
     0
102
RTVSPost2010Prop53
 90
        2
102
RTVSPost2010PropOp53
 70
     1
102
RTVSPost2010Prop54
  1
strokes_ogs.tif
102
RTVSPost2010PropOp54
 70
     1
102
RTVSPost2010Prop55
280
     0
102
RTVSPost2010PropOp55
 70
     1
102
RTVSPost2010Prop56
140
1.0
102
RTVSPost2010PropOp56
 70
     1
102
RTVSPost2010Prop57
140
1.0
102
RTVSPost2010PropOp57
 70
     1
  0
XRECORD
  5
128
102
{ACAD_REACTORS
330
127
102
}
330
127
100
AcDbXrecord
280
     1
102
RTVSPost2010Prop28
280
     0
102
RTVSPost2010PropOp28
 70
     1
102
RTVSPost2010Prop29
280
     1
102
RTVSPost2010PropOp29
 70
     1
102
RTVSPost2010Prop30
280
     1
102
RTVSPost2010PropOp30
 70
     1
102
RTVSPost2010Prop31
280
     0
102
RTVSPost2010PropOp31
 70
     1
102
RTVSPost2010Prop32
280
     0
102
RTVSPost2010PropOp32
 70
     1
102
RTVSPost2010Prop33
280
     0
102
RTVSPost2010PropOp33
 70
     1
102
RTVSPost2010Prop34
280
     0
102
RTVSPost2010PropOp34
 70
     1
102
RTVSPost2010Prop35
280
     0
102
RTVSPost2010PropOp35
 70
     1
102
RTVSPost2010Prop36
280
     0
102
RTVSPost2010PropOp36
 70
     1
102
RTVSPost2010Prop37
 90
       50
102
RTVSPost2010PropOp37
 70
     1
102
RTVSPost2010Prop38
140
0.0
102
RTVSPost2010PropOp38
 70
     1
102
RTVSPost2010Prop39
140
1.0
102
RTVSPost2010PropOp39
 70
     1
102
RTVSPost2010Prop40
 90
        0
102
RTVSPost2010PropOp40
 70
     1
102
RTVSPost2010Prop41ColorIndex
 90
       18
102
RTVSPost2010Prop41ColorRGB
 90
        0
102
RTVSPost2010PropOp41
 70
     1
102
RTVSPost2010Prop42
 90
       50
102
RTVSPost2010PropOp42
 70
     1
102
RTVSPost2010Prop43
 90
        3
102
RTVSPost2010PropOp43
 70
     1
102
RTVSPost2010Prop44ColorIndex
 90
        5
102
RTVSPost2010Prop44ColorRGB
 90
      255
102
RTVSPost2010PropOp44
 70
     1
102
RTVSPost2010Prop45
280
     0
102
RTVSPost2010PropOp45
 70
     1
102
RTVSPost2010Prop46
 90
       50
102
RTVSPost2010PropOp46
 70
     1
102
RTVSPost2010Prop47
 90
       50
102
RTVSPost2010PropOp47
 70
     1
102
RTVSPost2010Prop48
 90
       50
102
RTVSPost2010PropOp48
 70
     1
102
RTVSPost2010Prop49
280
     0
102
RTVSPost2010PropOp49
 70
     1
102
RTVSPost2010Prop50
 90
       50
102
RTVSPost2010PropOp50
 70
     1
102
RTVSPost2010Prop51ColorIndex
 90
      256
102
RTVSPost2010Prop51ColorRGB
 90
-16777216
102
RTVSPost2010PropOp51
 70
     0
102
RTVSPost2010Prop52
140
1.0
102
RTVSPost2010PropOp52
 70
     0
102
RTVSPost2010Prop53
 90
        2
102
RTVSPost2010PropOp53
 70
     1
102
RTVSPost2010Prop54
  1
strokes_ogs.tif
102
RTVSPost2010PropOp54
 70
     1
102
RTVSPost2010Prop55
280
     0
102
RTVSPost2010PropOp55
 70
     1
102
RTVSPost2010Prop56
140
1.0
102
RTVSPost2010PropOp56
 70
     1
102
RTVSPost2010Prop57
140
1.0
102
RTVSPost2010PropOp57
 70
     1
  0
XRECORD
  5
11E
102
{ACAD_REACTORS
330
11D
102
}
330
11D
100
AcDbXrecord
280
     1
102
RTVSPost2010Prop28
280
     0
102
RTVSPost2010PropOp28
 70
     1
102
RTVSPost2010Prop29
280
     1
102
RTVSPost2010PropOp29
 70
     1
102
RTVSPost2010Prop30
280
     1
102
RTVSPost2010PropOp30
 70
     1
102
RTVSPost2010Prop31
280
     0
102
RTVSPost2010PropOp31
 70
     1
102
RTVSPost2010Prop32
280
     0
102
RTVSPost2010PropOp32
 70
     1
102
RTVSPost2010Prop33
280
     0
102
RTVSPost2010PropOp33
 70
     1
102
RTVSPost2010Prop34
280
     0
102
RTVSPost2010PropOp34
 70
     1
102
RTVSPost2010Prop35
280
     0
102
RTVSPost2010PropOp35
 70
     1
102
RTVSPost2010Prop36
280
     0
102
RTVSPost2010PropOp36
 70
     1
102
RTVSPost2010Prop37
 90
       50
102
RTVSPost2010PropOp37
 70
     1
102
RTVSPost2010Prop38
140
0.0
102
RTVSPost2010PropOp38
 70
     1
102
RTVSPost2010Prop39
140
1.0
102
RTVSPost2010PropOp39
 70
     1
102
RTVSPost2010Prop40
 90
        0
102
RTVSPost2010PropOp40
 70
     1
102
RTVSPost2010Prop41ColorIndex
 90
       18
102
RTVSPost2010Prop41ColorRGB
 90
        0
102
RTVSPost2010PropOp41
 70
     1
102
RTVSPost2010Prop42
 90
       50
102
RTVSPost2010PropOp42
 70
     1
102
RTVSPost2010Prop43
 90
        3
102
RTVSPost2010PropOp43
 70
     1
102
RTVSPost2010Prop44ColorIndex
 90
        5
102
RTVSPost2010Prop44ColorRGB
 90
      255
102
RTVSPost2010PropOp44
 70
     1
102
RTVSPost2010Prop45
280
     0
102
RTVSPost2010PropOp45
 70
     1
102
RTVSPost2010Prop46
 90
       50
102
RTVSPost2010PropOp46
 70
     1
102
RTVSPost2010Prop47
 90
       50
102
RTVSPost2010PropOp47
 70
     1
102
RTVSPost2010Prop48
 90
       50
102
RTVSPost2010PropOp48
 70
     1
102
RTVSPost2010Prop49
280
     0
102
RTVSPost2010PropOp49
 70
     1
102
RTVSPost2010Prop50
 90
       50
102
RTVSPost2010PropOp50
 70
     1
102
RTVSPost2010Prop51ColorIndex
 90
      256
102
RTVSPost2010Prop51ColorRGB
 90
-16777216
102
RTVSPost2010PropOp51
 70
     0
102
RTVSPost2010Prop52
140
1.0
102
RTVSPost2010PropOp52
 70
     0
102
RTVSPost2010Prop53
 90
        2
102
RTVSPost2010PropOp53
 70
     1
102
RTVSPost2010Prop54
  1
strokes_ogs.tif
102
RTVSPost2010PropOp54
 70
     1
102
RTVSPost2010Prop55
280
     0
102
RTVSPost2010PropOp55
 70
     1
102
RTVSPost2010Prop56
140
1.0
102
RTVSPost2010PropOp56
 70
     1
102
RTVSPost2010Prop57
140
1.0
102
RTVSPost2010PropOp57
 70
     1
  0
XRECORD
  5
112
102
{ACAD_REACTORS
330
111
102
}
330
111
100
AcDbXrecord
280
     1
102
RTVSPost2010Prop28
280
     0
102
RTVSPost2010PropOp28
 70
     1
102
RTVSPost2010Prop29
280
     1
102
RTVSPost2010PropOp29
 70
     1
102
RTVSPost2010Prop30
280
     1
102
RTVSPost2010PropOp30
 70
     1
102
RTVSPost2010Prop31
280
     0
102
RTVSPost2010PropOp31
 70
     1
102
RTVSPost2010Prop32
280
     0
102
RTVSPost2010PropOp32
 70
     1
102
RTVSPost2010Prop33
280
     0
102
RTVSPost2010PropOp33
 70
     1
102
RTVSPost2010Prop34
280
     0
102
RTVSPost2010PropOp34
 70
     1
102
RTVSPost2010Prop35
280
     0
102
RTVSPost2010PropOp35
 70
     1
102
RTVSPost2010Prop36
280
     0
102
RTVSPost2010PropOp36
 70
     1
102
RTVSPost2010Prop37
 90
       50
102
RTVSPost2010PropOp37
 70
     1
102
RTVSPost2010Prop38
140
0.0
102
RTVSPost2010PropOp38
 70
     1
102
RTVSPost2010Prop39
140
1.0
102
RTVSPost2010PropOp39
 70
     1
102
RTVSPost2010Prop40
 90
        0
102
RTVSPost2010PropOp40
 70
     1
102
RTVSPost2010Prop41ColorIndex
 90
       18
102
RTVSPost2010Prop41ColorRGB
 90
        0
102
RTVSPost2010PropOp41
 70
     1
102
RTVSPost2010Prop42
 90
       50
102
RTVSPost2010PropOp42
 70
     1
102
RTVSPost2010Prop43
 90
        3
102
RTVSPost2010PropOp43
 70
     1
102
RTVSPost2010Prop44ColorIndex
 90
        5
102
RTVSPost2010Prop44ColorRGB
 90
      255
102
RTVSPost2010PropOp44
 70
     1
102
RTVSPost2010Prop45
280
     0
102
RTVSPost2010PropOp45
 70
     1
102
RTVSPost2010Prop46
 90
       50
102
RTVSPost2010PropOp46
 70
     1
102
RTVSPost2010Prop47
 90
       50
102
RTVSPost2010PropOp47
 70
     1
102
RTVSPost2010Prop48
 90
       50
102
RTVSPost2010PropOp48
 70
     1
102
RTVSPost2010Prop49
280
     0
102
RTVSPost2010PropOp49
 70
     1
102
RTVSPost2010Prop50
 90
       50
102
RTVSPost2010PropOp50
 70
     1
102
RTVSPost2010Prop51ColorIndex
 90
      256
102
RTVSPost2010Prop51ColorRGB
 90
-16777216
102
RTVSPost2010PropOp51
 70
     0
102
RTVSPost2010Prop52
140
1.0
102
RTVSPost2010PropOp52
 70
     0
102
RTVSPost2010Prop53
 90
        2
102
RTVSPost2010PropOp53
 70
     1
102
RTVSPost2010Prop54
  1
strokes_ogs.tif
102
RTVSPost2010PropOp54
 70
     1
102
RTVSPost2010Prop55
280
     0
102
RTVSPost2010PropOp55
 70
     1
102
RTVSPost2010Prop56
140
1.0
102
RTVSPost2010PropOp56
 70
     1
102
RTVSPost2010Prop57
140
1.0
102
RTVSPost2010PropOp57
 70
     1
  0
XRECORD
  5
12A
102
{ACAD_REACTORS
330
129
102
}
330
129
100
AcDbXrecord
280
     1
102
RTVSPost2010Prop28
280
     0
102
RTVSPost2010PropOp28
 70
     1
102
RTVSPost2010Prop29
280
     1
102
RTVSPost2010PropOp29
 70
     1
102
RTVSPost2010Prop30
280
     1
102
RTVSPost2010PropOp30
 70
     1
102
RTVSPost2010Prop31
280
     0
102
RTVSPost2010PropOp31
 70
     1
102
RTVSPost2010Prop32
280
     0
102
RTVSPost2010PropOp32
 70
     1
102
RTVSPost2010Prop33
280
     0
102
RTVSPost2010PropOp33
 70
     1
102
RTVSPost2010Prop34
280
     0
102
RTVSPost2010PropOp34
 70
     1
102
RTVSPost2010Prop35
280
     0
102
RTVSPost2010PropOp35
 70
     1
102
RTVSPost2010Prop36
280
     0
102
RTVSPost2010PropOp36
 70
     1
102
RTVSPost2010Prop37
 90
       50
102
RTVSPost2010PropOp37
 70
     1
102
RTVSPost2010Prop38
140
0.0
102
RTVSPost2010PropOp38
 70
     1
102
RTVSPost2010Prop39
140
1.0
102
RTVSPost2010PropOp39
 70
     1
102
RTVSPost2010Prop40
 90
        0
102
RTVSPost2010PropOp40
 70
     1
102
RTVSPost2010Prop41ColorIndex
 90
       18
102
RTVSPost2010Prop41ColorRGB
 90
        0
102
RTVSPost2010PropOp41
 70
     1
102
RTVSPost2010Prop42
 90
       50
102
RTVSPost2010PropOp42
 70
     1
102
RTVSPost2010Prop43
 90
        3
102
RTVSPost2010PropOp43
 70
     1
102
RTVSPost2010Prop44ColorIndex
 90
        5
102
RTVSPost2010Prop44ColorRGB
 90
      255
102
RTVSPost2010PropOp44
 70
     1
102
RTVSPost2010Prop45
280
     0
102
RTVSPost2010PropOp45
 70
     1
102
RTVSPost2010Prop46
 90
       50
102
RTVSPost2010PropOp46
 70
     1
102
RTVSPost2010Prop47
 90
       50
102
RTVSPost2010PropOp47
 70
     1
102
RTVSPost2010Prop48
 90
       50
102
RTVSPost2010PropOp48
 70
     1
102
RTVSPost2010Prop49
280
     0
102
RTVSPost2010PropOp49
 70
     1
102
RTVSPost2010Prop50
 90
       50
102
RTVSPost2010PropOp50
 70
     1
102
RTVSPost2010Prop51ColorIndex
 90
      256
102
RTVSPost2010Prop51ColorRGB
 90
-16777216
102
RTVSPost2010PropOp51
 70
     0
102
RTVSPost2010Prop52
140
1.0
102
RTVSPost2010PropOp52
 70
     0
102
RTVSPost2010Prop53
 90
        2
102
RTVSPost2010PropOp53
 70
     1
102
RTVSPost2010Prop54
  1
strokes_ogs.tif
102
RTVSPost2010PropOp54
 70
     1
102
RTVSPost2010Prop55
280
     0
102
RTVSPost2010PropOp55
 70
     1
102
RTVSPost2010Prop56
140
1.0
102
RTVSPost2010PropOp56
 70
     1
102
RTVSPost2010Prop57
140
1.0
102
RTVSPost2010PropOp57
 70
     1
  0
ENDSEC
  0
EOF
