  0
SECTION
  2
HEADER
  9
$ACADVER
  1
AC1024
  9
$ACADMAINTVER
 70
   226
  9
$DWGCODEPAGE
  3
ANSI_1252
  9
$INSBASE
 10
0.0
 20
0.0
 30
0.0
  9
$EXTMIN
 10
1.000000000000000E+20
 20
1.000000000000000E+20
 30
1.000000000000000E+20
  9
$EXTMAX
 10
-1.000000000000000E+20
 20
-1.000000000000000E+20
 30
-1.000000000000000E+20
  9
$LIMMIN
 10
0.0
 20
0.0
  9
$LIMMAX
 10
12.0
 20
9.0
  9
$ORTHOMODE
 70
     0
  9
$REGENMODE
 70
     1
  9
$FILLMODE
 70
     1
  9
$QTEXTMODE
 70
     0
  9
$MIRRTEXT
 70
     0
  9
$LTSCALE
 40
1.0
  9
$ATTMODE
 70
     1
  9
$TEXTSIZE
 40
0.2
  9
$TRACEWID
 40
0.05
  9
$TEXTSTYLE
  7
Standard
  9
$CLAYER
  8
0
  9
$CELTYPE
  6
ByLayer
  9
$CECOLOR
 62
   256
  9
$CELTSCALE
 40
1.0
  9
$DISPSILH
 70
     0
  9
$DIMSCALE
 40
1.0
  9
$DIMASZ
 40
0.18
  9
$DIMEXO
 40
0.0625
  9
$DIMDLI
 40
0.38
  9
$DIMRND
 40
0.0
  9
$DIMDLE
 40
0.0
  9
$DIMEXE
 40
0.18
  9
$DIMTP
 40
0.0
  9
$DIMTM
 40
0.0
  9
$DIMTXT
 40
0.18
  9
$DIMCEN
 40
0.09
  9
$DIMTSZ
 40
0.0
  9
$DIMTOL
 70
     0
  9
$DIMLIM
 70
     0
  9
$DIMTIH
 70
     1
  9
$DIMTOH
 70
     1
  9
$DIMSE1
 70
     0
  9
$DIMSE2
 70
     0
  9
$DIMTAD
 70
     0
  9
$DIMZIN
 70
     0
  9
$DIMBLK
  1

  9
$DIMASO
 70
     1
  9
$DIMSHO
 70
     1
  9
$DIMPOST
  1

  9
$DIMAPOST
  1

  9
$DIMALT
 70
     0
  9
$DIMALTD
 70
     2
  9
$DIMALTF
 40
25.4
  9
$DIMLFAC
 40
1.0
  9
$DIMTOFL
 70
     0
  9
$DIMTVP
 40
0.0
  9
$DIMTIX
 70
     0
  9
$DIMSOXD
 70
     0
  9
$DIMSAH
 70
     0
  9
$DIMBLK1
  1

  9
$DIMBLK2
  1

  9
$DIMSTYLE
  2
Standard
  9
$DIMCLRD
 70
     0
  9
$DIMCLRE
 70
     0
  9
$DIMCLRT
 70
     0
  9
$DIMTFAC
 40
1.0
  9
$DIMGAP
 40
0.09
  9
$DIMJUST
 70
     0
  9
$DIMSD1
 70
     0
  9
$DIMSD2
 70
     0
  9
$DIMTOLJ
 70
     1
  9
$DIMTZIN
 70
     0
  9
$DIMALTZ
 70
     0
  9
$DIMALTTZ
 70
     0
  9
$DIMUPT
 70
     0
  9
$DIMDEC
 70
     4
  9
$DIMTDEC
 70
     4
  9
$DIMALTU
 70
     2
  9
$DIMALTTD
 70
     2
  9
$DIMTXSTY
  7
Standard
  9
$DIMAUNIT
 70
     0
  9
$DIMADEC
 70
     0
  9
$DIMALTRND
 40
0.0
  9
$DIMAZIN
 70
     0
  9
$DIMDSEP
 70
    46
  9
$DIMATFIT
 70
     3
  9
$DIMFRAC
 70
     0
  9
$DIMLDRBLK
  1

  9
$DIMLUNIT
 70
     2
  9
$DIMLWD
 70
    -2
  9
$DIMLWE
 70
    -2
  9
$DIMTMOVE
 70
     0
  9
$DIMFXL
 40
1.0
  9
$DIMFXLON
 70
     0
  9
$DIMJOGANG
 40
0.7853981633974483
  9
$DIMTFILL
 70
     0
  9
$DIMTFILLCLR
 70
     0
  9
$DIMARCSYM
 70
     0
  9
$DIMLTYPE
  6

  9
$DIMLTEX1
  6

  9
$DIMLTEX2
  6

  9
$DIMTXTDIRECTION
 70
     0
  9
$LUNITS
 70
     2
  9
$LUPREC
 70
     4
  9
$SKETCHINC
 40
0.1
  9
$FILLETRAD
 40
0.0
  9
$AUNITS
 70
     0
  9
$AUPREC
 70
     0
  9
$MENU
  1
.
  9
$ELEVATION
 40
0.0
  9
$PELEVATION
 40
0.0
  9
$THICKNESS
 40
0.0
  9
$LIMCHECK
 70
     0
  9
$CHAMFERA
 40
0.0
  9
$CHAMFERB
 40
0.0
  9
$CHAMFERC
 40
0.0
  9
$CHAMFERD
 40
0.0
  9
$SKPOLY
 70
     0
  9
$TDCREATE
 40
2460209.892430555
  9
$TDUCREATE
 40
2460209.809097222
  9
$TDUPDATE
 40
2460209.892430555
  9
$TDUUPDATE
 40
2460209.809097222
  9
$TDINDWG
 40
0.0000000000
  9
$TDUSRTIMER
 40
0.0000000000
  9
$USRTIMER
 70
     1
  9
$ANGBASE
 50
0.0
  9
$ANGDIR
 70
     0
  9
$PDMODE
 70
     0
  9
$PDSIZE
 40
0.0
  9
$PLINEWID
 40
0.0
  9
$SPLFRAME
 70
     0
  9
$SPLINETYPE
 70
     6
  9
$SPLINESEGS
 70
     8
  9
$HANDSEED
  5
145
  9
$SURFTAB1
 70
     6
  9
$SURFTAB2
 70
     6
  9
$SURFTYPE
 70
     6
  9
$SURFU
 70
     6
  9
$SURFV
 70
     6
  9
$UCSBASE
  2

  9
$UCSNAME
  2

  9
$UCSORG
 10
0.0
 20
0.0
 30
0.0
  9
$UCSXDIR
 10
1.0
 20
0.0
 30
0.0
  9
$UCSYDIR
 10
0.0
 20
1.0
 30
0.0
  9
$UCSORTHOREF
  2

  9
$UCSORTHOVIEW
 70
     0
  9
$UCSORGTOP
 10
0.0
 20
0.0
 30
0.0
  9
$UCSORGBOTTOM
 10
0.0
 20
0.0
 30
0.0
  9
$UCSORGLEFT
 10
0.0
 20
0.0
 30
0.0
  9
$UCSORGRIGHT
 10
0.0
 20
0.0
 30
0.0
  9
$UCSORGFRONT
 10
0.0
 20
0.0
 30
0.0
  9
$UCSORGBACK
 10
0.0
 20
0.0
 30
0.0
  9
$PUCSBASE
  2

  9
$PUCSNAME
  2

  9
$PUCSORG
 10
0.0
 20
0.0
 30
0.0
  9
$PUCSXDIR
 10
1.0
 20
0.0
 30
0.0
  9
$PUCSYDIR
 10
0.0
 20
1.0
 30
0.0
  9
$PUCSORTHOREF
  2

  9
$PUCSORTHOVIEW
 70
     0
  9
$PUCSORGTOP
 10
0.0
 20
0.0
 30
0.0
  9
$PUCSORGBOTTOM
 10
0.0
 20
0.0
 30
0.0
  9
$PUCSORGLEFT
 10
0.0
 20
0.0
 30
0.0
  9
$PUCSORGRIGHT
 10
0.0
 20
0.0
 30
0.0
  9
$PUCSORGFRONT
 10
0.0
 20
0.0
 30
0.0
  9
$PUCSORGBACK
 10
0.0
 20
0.0
 30
0.0
  9
$USERI1
 70
     0
  9
$USERI2
 70
     0
  9
$USERI3
 70
     0
  9
$USERI4
 70
     0
  9
$USERI5
 70
     0
  9
$USERR1
 40
0.0
  9
$USERR2
 40
0.0
  9
$USERR3
 40
0.0
  9
$USERR4
 40
0.0
  9
$USERR5
 40
0.0
  9
$WORLDVIEW
 70
     1
  9
$SHADEDGE
 70
     3
  9
$SHADEDIF
 70
    70
  9
$TILEMODE
 70
     1
  9
$MAXACTVP
 70
    64
  9
$PINSBASE
 10
0.0
 20
0.0
 30
0.0
  9
$PLIMCHECK
 70
     0
  9
$PEXTMIN
 10
1.000000000000000E+20
 20
1.000000000000000E+20
 30
1.000000000000000E+20
  9
$PEXTMAX
 10
-1.000000000000000E+20
 20
-1.000000000000000E+20
 30
-1.000000000000000E+20
  9
$PLIMMIN
 10
0.0
 20
0.0
  9
$PLIMMAX
 10
12.0
 20
9.0
  9
$UNITMODE
 70
     0
  9
$VISRETAIN
 70
     1
  9
$PLINEGEN
 70
     0
  9
$PSLTSCALE
 70
     1
  9
$TREEDEPTH
 70
  3020
  9
$CMLSTYLE
  2
Standard
  9
$CMLJUST
 70
     0
  9
$CMLSCALE
 40
1.0
  9
$PROXYGRAPHICS
 70
     1
  9
$MEASUREMENT
 70
     0
  9
$CELWEIGHT
370
    -1
  9
$ENDCAPS
280
     0
  9
$JOINSTYLE
280
     0
  9
$LWDISPLAY
290
     1
  9
$INSUNITS
 70
     4
  9
$HYPERLINKBASE
  1

  9
$STYLESHEET
  1

  9
$XEDIT
290
     1
  9
$CEPSNTYPE
380
     0
  9
$PSTYLEMODE
290
     1
  9
$FINGERPRINTGUID
  2
{FD3D7419-FC1C-3542-8BBF-C870884A0B76}
  9
$VERSIONGUID
  2
{09096034-2D95-3E4D-BA60-AA04646A8562}
  9
$EXTNAMES
290
     1
  9
$PSVPSCALE
 40
0.0
  9
$OLESTARTUP
290
     0
  9
$SORTENTS
280
   127
  9
$INDEXCTL
280
     0
  9
$HIDETEXT
280
     1
  9
$XCLIPFRAME
280
     2
  9
$HALOGAP
280
     0
  9
$OBSCOLOR
 70
   257
  9
$OBSLTYPE
280
     0
  9
$INTERSECTIONDISPLAY
280
     0
  9
$INTERSECTIONCOLOR
 70
   257
  9
$DIMASSOC
280
     2
  9
$PROJECTNAME
  1

  9
$CAMERADISPLAY
290
     0
  9
$LENSLENGTH
 40
50.0
  9
$CAMERAHEIGHT
 40
0.0
  9
$STEPSPERSEC
 40
2.0
  9
$STEPSIZE
 40
6.0
  9
$3DDWFPREC
 40
2.0
  9
$PSOLWIDTH
 40
0.25
  9
$PSOLHEIGHT
 40
4.0
  9
$LOFTANG1
 40
1.570796326794896
  9
$LOFTANG2
 40
1.570796326794896
  9
$LOFTMAG1
 40
0.0
  9
$LOFTMAG2
 40
0.0
  9
$LOFTPARAM
 70
     7
  9
$LOFTNORMALS
280
     1
  9
$LATITUDE
 40
37.795
  9
$LONGITUDE
 40
-122.394
  9
$NORTHDIRECTION
 40
0.0
  9
$TIMEZONE
 70
 -8000
  9
$LIGHTGLYPHDISPLAY
280
     1
  9
$TILEMODELIGHTSYNCH
280
     1
  9
$CMATERIAL
347
11
  9
$SOLIDHIST
280
     0
  9
$SHOWHIST
280
     1
  9
$DWFFRAME
280
     2
  9
$DGNFRAME
280
     0
  9
$REALWORLDSCALE
290
     1
  9
$INTERFERECOLOR
 62
     1
  9
$INTERFEREOBJVS
345
33
  9
$INTERFEREVPVS
346
30
  9
$CSHADOW
280
     0
  9
$SHADOWPLANELOCATION
 40
0.0
  0
ENDSEC
  0
SECTION
  2
CLASSES
  0
CLASS
  1
ACDBDICTIONARYWDFLT
  2
AcDbDictionaryWithDefault
  3
ObjectDBX Classes
 90
        0
 91
        1
280
     0
281
     0
  0
CLASS
  1
MATERIAL
  2
AcDbMaterial
  3
ObjectDBX Classes
 90
     1153
 91
        3
280
     0
281
     0
  0
CLASS
  1
VISUALSTYLE
  2
AcDbVisualStyle
  3
ObjectDBX Classes
 90
     4095
 91
       24
280
     0
281
     0
  0
CLASS
  1
SCALE
  2
AcDbScale
  3
ObjectDBX Classes
 90
     1153
 91
       17
280
     0
281
     0
  0
CLASS
  1
TABLESTYLE
  2
AcDbTableStyle
  3
ObjectDBX Classes
 90
     4095
 91
        1
280
     0
281
     0
  0
CLASS
  1
MLEADERSTYLE
  2
AcDbMLeaderStyle
  3
ACDB_MLEADERSTYLE_CLASS
 90
     4095
 91
        1
280
     0
281
     0
  0
CLASS
  1
ACDBSECTIONVIEWSTYLE
  2
AcDbSectionViewStyle
  3
ObjectDBX Classes
 90
     1025
 91
        1
280
     0
281
     0
  0
CLASS
  1
ACDBDETAILVIEWSTYLE
  2
AcDbDetailViewStyle
  3
ObjectDBX Classes
 90
     1025
 91
        1
280
     0
281
     0
  0
CLASS
  1
DICTIONARYVAR
  2
AcDbDictionaryVar
  3
ObjectDBX Classes
 90
        0
 91
        5
280
     0
281
     0
  0
CLASS
  1
CELLSTYLEMAP
  2
AcDbCellStyleMap
  3
ObjectDBX Classes
 90
     1152
 91
        1
280
     0
281
     0
  0
ENDSEC
  0
SECTION
  2
TABLES
  0
TABLE
  2
VPORT
  5
8
330
0
100
AcDbSymbolTable
 70
     1
  0
VPORT
  5
57
330
8
100
AcDbSymbolTableRecord
100
AcDbViewportTableRecord
  2
*Active
 70
     0
 10
0.0
 20
0.0
 11
1.0
 21
1.0
 12
0.0
 22
0.0
 13
0.0
 23
0.0
 14
1.0
 24
1.0
 15
0.0
 25
0.0
 16
0.0
 26
0.0
 36
1.0
 17
104.951388862651
 27
148.5194444073146
 37
0.0
 40
302.9796665909217
 41
0.7066508313539194
 42
50.0
 43
0.0
 44
0.0
 50
0.0
 51
0.0
 71
     0
 72
   100
 73
     1
 74
     1
 75
     0
 76
     0
 77
     0
 78
     0
281
     0
 65
     1
110
0.0
120
0.0
130
0.0
111
1.0
121
0.0
131
0.0
112
0.0
122
1.0
132
0.0
 79
     0
146
0.0
 60
     3
 61
     5
292
     1
282
     1
141
0.0
142
0.0
 63
   250
421
  3355443
  0
ENDTAB
  0
TABLE
  2
LTYPE
  5
5
330
0
100
AcDbSymbolTable
 70
     1
  0
LTYPE
  5
5B
330
5
100
AcDbSymbolTableRecord
100
AcDbLinetypeTableRecord
  2
ByBlock
 70
     0
  3

 72
    65
 73
     0
 40
0.0
  0
LTYPE
  5
5C
330
5
100
AcDbSymbolTableRecord
100
AcDbLinetypeTableRecord
  2
ByLayer
 70
     0
  3

 72
    65
 73
     0
 40
0.0
  0
LTYPE
  5
5D
330
5
100
AcDbSymbolTableRecord
100
AcDbLinetypeTableRecord
  2
Continuous
 70
     0
  3
Solid line
 72
    65
 73
     0
 40
0.0
  0
ENDTAB
  0
TABLE
  2
LAYER
  5
2
330
0
100
AcDbSymbolTable
 70
     2
  0
LAYER
  5
54
330
2
100
AcDbSymbolTableRecord
100
AcDbLayerTableRecord
  2
0
 70
     0
 62
     7
  6
Continuous
370
    -3
390
F
347
21
  0
LAYER
  5
78
330
2
100
AcDbSymbolTableRecord
100
AcDbLayerTableRecord
  2
Capa 1
 70
     0
 62
     7
  6
Continuous
370
     0
390
F
347
21
  0
ENDTAB
  0
TABLE
  2
STYLE
  5
3
330
0
100
AcDbSymbolTable
 70
     2
  0
STYLE
  5
55
330
3
100
AcDbSymbolTableRecord
100
AcDbTextStyleTableRecord
  2
Standard
 70
     0
 40
0.0
 41
1.0
 50
0.0
 71
     0
 42
0.2
  3
txt
  4

  0
STYLE
  5
5A
330
3
100
AcDbSymbolTableRecord
100
AcDbTextStyleTableRecord
  2
Annotative
 70
     0
 40
0.0
 41
1.0
 50
0.0
 71
     0
 42
0.2
  3
txt
  4

1001
AcadAnnotative
1000
AnnotativeData
1002
{
1070
     1
1070
     1
1002
}
  0
ENDTAB
  0
TABLE
  2
VIEW
  5
6
330
0
100
AcDbSymbolTable
 70
     0
  0
ENDTAB
  0
TABLE
  2
UCS
  5
7
330
0
100
AcDbSymbolTable
 70
     0
  0
ENDTAB
  0
TABLE
  2
APPID
  5
9
330
0
100
AcDbSymbolTable
 70
     2
  0
APPID
  5
56
330
9
100
AcDbSymbolTableRecord
100
AcDbRegAppTableRecord
  2
ACAD
 70
     0
  0
APPID
  5
5E
330
9
100
AcDbSymbolTableRecord
100
AcDbRegAppTableRecord
  2
AcadAnnotative
 70
     0
  0
ENDTAB
  0
TABLE
  2
DIMSTYLE
  5
A
330
0
100
AcDbSymbolTable
 70
     2
100
AcDbDimStyleTable
 71
     0
  0
DIMSTYLE
105
58
330
A
100
AcDbSymbolTableRecord
100
AcDbDimStyleTableRecord
  2
Standard
 70
     0
340
55
  0
DIMSTYLE
105
59
330
A
100
AcDbSymbolTableRecord
100
AcDbDimStyleTableRecord
  2
Annotative
 70
     0
340
55
1001
AcadAnnotative
1000
AnnotativeData
1002
{
1070
     1
1070
     1
1002
}
  0
ENDTAB
  0
TABLE
  2
BLOCK_RECORD
  5
1
330
0
100
AcDbSymbolTable
 70
     1
  0
BLOCK_RECORD
  5
70
330
1
100
AcDbSymbolTableRecord
100
AcDbBlockTableRecord
  2
*Model_Space
340
73
 70
     0
280
     1
281
     0
  0
BLOCK_RECORD
  5
6C
330
1
100
AcDbSymbolTableRecord
100
AcDbBlockTableRecord
  2
*Paper_Space
340
6F
 70
     0
280
     1
281
     0
  0
BLOCK_RECORD
  5
74
330
1
100
AcDbSymbolTableRecord
100
AcDbBlockTableRecord
  2
*Paper_Space0
340
77
 70
     0
280
     1
281
     0
  0
ENDTAB
  0
ENDSEC
  0
SECTION
  2
BLOCKS
  0
BLOCK
  5
71
330
70
100
AcDbEntity
  8
0
100
AcDbBlockBegin
  2
*Model_Space
 70
     0
 10
0.0
 20
0.0
 30
0.0
  3
*Model_Space
  1

  0
ENDBLK
  5
72
330
70
100
AcDbEntity
  8
0
100
AcDbBlockEnd
  0
BLOCK
  5
6D
330
6C
100
AcDbEntity
 67
     1
  8
0
100
AcDbBlockBegin
  2
*Paper_Space
 70
     0
 10
0.0
 20
0.0
 30
0.0
  3
*Paper_Space
  1

  0
ENDBLK
  5
6E
330
6C
100
AcDbEntity
 67
     1
  8
0
100
AcDbBlockEnd
  0
BLOCK
  5
75
330
74
100
AcDbEntity
 67
     1
  8
0
100
AcDbBlockBegin
  2
*Paper_Space0
 70
     0
 10
0.0
 20
0.0
 30
0.0
  3
*Paper_Space0
  1

  0
ENDBLK
  5
76
330
74
100
AcDbEntity
 67
     1
  8
0
100
AcDbBlockEnd
  0
ENDSEC
  0
SECTION
  2
ENTITIES
  0
LWPOLYLINE
  5
79
330
70
100
AcDbEntity
  8
Capa 1
 62
    18
420
        0
370
     9
100
AcDbPolyline
 90
        4
 70
     1
 43
0.0
 10
95.75799007141098
 20
120.9327777136361
 10
181.6946588697781
 20
170.547438769619
 10
181.6946588697781
 20
146.3327777072861
 10
95.75799007141098
 20
96.71810588537994
  0
LWPOLYLINE
  5
7A
330
70
100
AcDbEntity
  8
Capa 1
 62
    18
420
        0
370
     9
100
AcDbPolyline
 90
        3
 70
     0
 43
0.0
 10
94.31866147544377
 20
121.6947790053565
 10
180.339993495361
 20
171.3094400613393
 10
181.6946588697781
 20
170.547438769619
  0
LINE
  5
7B
330
70
100
AcDbEntity
  8
Capa 1
 62
    18
420
        0
370
     9
100
AcDbLine
 10
95.75799007141098
 20
120.9327777136361
 30
0.0
 11
94.31866147544377
 21
121.6947790053565
 31
0.0
  0
LWPOLYLINE
  5
7C
330
70
100
AcDbEntity
  8
Capa 1
 62
    18
420
        0
370
     9
100
AcDbPolyline
 90
        3
 70
     0
 43
0.0
 10
95.75799007141098
 20
96.71810588537994
 10
94.31866147544377
 20
97.48010717710025
 10
94.31866147544377
 20
121.6947790053565
  0
LWPOLYLINE
  5
7D
330
70
100
AcDbEntity
  8
Capa 1
 62
    18
420
        0
370
     9
100
AcDbPolyline
 90
        3
 70
     0
 43
0.0
 10
157.3953238199719
 20
132.278112336044
 10
178.9006541334704
 20
119.8321127697924
 10
95.67332684986096
 20
71.74110978770166
  0
LWPOLYLINE
  5
7E
330
70
100
AcDbEntity
  8
Capa 1
 62
    18
420
        0
370
     9
100
AcDbPolyline
 90
        3
 70
     0
 43
0.0
 10
178.9006541334704
 20
119.8321127697924
 10
178.9006541334704
 20
118.2234469648018
 10
95.67332684986096
 20
70.13244398271104
  0
SPLINE
  5
7F
330
70
100
AcDbEntity
  8
Capa 1
 62
    18
420
        0
370
     9
100
AcDbSpline
210
0.0
220
0.0
230
1.0
 70
    24
 71
     3
 72
     8
 73
     4
 74
     0
 42
0.0000000001
 43
0.0000000001
 40
0.0
 40
0.0
 40
0.0
 40
0.0
 40
1.0
 40
1.0
 40
1.0
 40
1.0
 10
56.72666234611565
 20
147.3487794295799
 30
0.0
 10
56.72666234611565
 20
147.3487794295799
 30
0.0
 10
94.23398748797037
 20
125.674111907058
 30
0.0
 10
94.23398748797037
 20
125.674111907058
 30
0.0
  0
SPLINE
  5
80
330
70
100
AcDbEntity
  8
Capa 1
 62
    18
420
        0
370
     9
100
AcDbSpline
210
0.0
220
0.0
230
1.0
 70
    24
 71
     3
 72
     8
 73
     4
 74
     0
 42
0.0000000001
 43
0.0000000001
 40
0.0
 40
0.0
 40
0.0
 40
0.0
 40
1.0
 40
1.0
 40
1.0
 40
1.0
 10
95.67332684986096
 20
69.9631121566493
 30
0.0
 10
95.67332684986096
 20
69.9631121566493
 30
0.0
 10
95.67332684986096
 20
96.71810588537994
 30
0.0
 10
95.67332684986096
 20
96.71810588537994
 30
0.0
  0
SPLINE
  5
81
330
70
100
AcDbEntity
  8
Capa 1
 62
    18
420
        0
370
     9
100
AcDbSpline
210
0.0
220
0.0
230
1.0
 70
    24
 71
     3
 72
     8
 73
     4
 74
     0
 42
0.0000000001
 43
0.0000000001
 40
0.0
 40
0.0
 40
0.0
 40
0.0
 40
1.0
 40
1.0
 40
1.0
 40
1.0
 10
95.67332684986096
 20
122.4567802970768
 30
0.0
 10
95.67332684986096
 20
122.4567802970768
 30
0.0
 10
95.67332684986096
 20
124.8274473937877
 30
0.0
 10
95.67332684986096
 20
124.8274473937877
 30
0.0
  0
LWPOLYLINE
  5
82
330
70
100
AcDbEntity
  8
Capa 1
 62
    18
420
        0
370
     9
100
AcDbPolyline
 90
        3
 70
     0
 43
0.0
 10
95.67332684986096
 20
69.9631121566493
 10
94.23398748797037
 20
69.20111086492901
 10
94.23398748797037
 20
125.674111907058
  0
LWPOLYLINE
  5
83
330
70
100
AcDbEntity
  8
Capa 1
 62
    18
420
        0
370
     9
100
AcDbPolyline
 90
        3
 70
     0
 43
0.0
 10
94.23398748797037
 20
69.20111086492901
 10
56.72666234611565
 20
90.87610674811431
 10
56.72666234611565
 20
147.3487794295799
  0
LINE
  5
84
330
70
100
AcDbEntity
  8
Capa 1
 62
    18
420
        0
370
     9
100
AcDbLine
 10
178.9853281209438
 20
144.8087751238455
 30
0.0
 11
178.9853281209438
 21
118.0541097557783
 31
0.0
  0
LWPOLYLINE
  5
85
330
70
100
AcDbEntity
  8
Capa 1
 62
    18
420
        0
370
     9
100
AcDbPolyline
 90
        4
 70
     0
 43
0.0
 10
180.424656716911
 20
145.5707764155658
 10
180.424656716911
 20
118.9007742690487
 10
178.9853281209438
 20
118.0541097557783
 10
178.8159909119203
 20
118.2234469648018
  0
SPLINE
  5
86
330
70
100
AcDbEntity
  8
Capa 1
 62
    18
420
        0
370
     9
100
AcDbSpline
210
0.0
220
0.0
230
1.0
 70
    24
 71
     3
 72
     8
 73
     4
 74
     0
 42
0.0000000001
 43
0.0000000001
 40
0.0
 40
0.0
 40
0.0
 40
0.0
 40
1.0
 40
1.0
 40
1.0
 40
1.0
 10
95.67332684986096
 20
68.35444096869697
 30
0.0
 10
95.67332684986096
 20
68.35444096869697
 30
0.0
 10
78.14732943806408
 20
58.27910849915635
 30
0.0
 10
78.14732943806408
 20
58.27910849915635
 30
0.0
  0
SPLINE
  5
87
330
70
100
AcDbEntity
  8
Capa 1
 62
    18
420
        0
370
     9
100
AcDbSpline
210
0.0
220
0.0
230
1.0
 70
    24
 71
     3
 72
     8
 73
     4
 74
     0
 42
0.0000000001
 43
0.0000000001
 40
0.0
 40
0.0
 40
0.0
 40
0.0
 40
1.0
 40
1.0
 40
1.0
 40
1.0
 10
56.72666234611565
 20
90.87610674811431
 30
0.0
 10
56.72666234611565
 20
90.87610674811431
 30
0.0
 10
39.20066493431876
 20
80.71577731339854
 30
0.0
 10
39.20066493431876
 20
80.71577731339854
 30
0.0
  0
SPLINE
  5
88
330
70
100
AcDbEntity
  8
Capa 1
 62
    18
420
        0
370
     9
100
AcDbSpline
210
0.0
220
0.0
230
1.0
 70
    24
 71
     3
 72
     8
 73
     4
 74
     0
 42
0.0000000001
 43
0.0000000001
 40
0.0
 40
0.0
 40
0.0
 40
0.0
 40
1.0
 40
1.0
 40
1.0
 40
1.0
 10
76.62332685462347
 20
60.90377602644072
 30
0.0
 10
76.62332685462347
 20
60.90377602644072
 30
0.0
 10
43.77266461019805
 20
79.86910741716652
 30
0.0
 10
43.77266461019805
 20
79.86910741716652
 30
0.0
  0
LWPOLYLINE
  5
89
330
70
100
AcDbEntity
  8
Capa 1
100
AcDbPolyline
 90
        3
 70
     0
 43
0.0
 10
76.96199588970862
 20
61.4117768875876
 10
76.36932642405003
 20
60.39577516529385
 10
79.671326638543
 20
59.12577839538837
  0
HATCH
  5
8A
330
70
100
AcDbEntity
  8
Capa 1
 62
    18
420
        0
440
 33554687
100
AcDbHatch
 10
0.0
 20
0.0
 30
0.0
210
0.0
220
0.0
230
1.0
  2
SOLID
 70
     1
 71
     1
 91
        1
 92
        3
 72
     0
 73
     1
 93
        3
 10
76.96199588970862
 20
61.4117768875876
 10
76.36932642405003
 20
60.39577516529385
 10
79.671326638543
 20
59.12577839538837
 97
        0
 75
     0
 76
     1
 98
        1
 10
0.0
 20
0.0
450
        0
451
        0
460
0.0
461
0.0
452
        0
462
0.0
453
        0
470

  0
LWPOLYLINE
  5
8B
330
70
100
AcDbEntity
  8
Capa 1
100
AcDbPolyline
 90
        3
 70
     0
 43
0.0
 10
44.02666504077148
 20
80.37710827831338
 10
43.43399826659376
 20
79.36111193898134
 10
40.72466482627852
 20
81.64711043118057
  0
HATCH
  5
8C
330
70
100
AcDbEntity
  8
Capa 1
 62
    18
420
        0
440
 33554687
100
AcDbHatch
 10
0.0
 20
0.0
 30
0.0
210
0.0
220
0.0
230
1.0
  2
SOLID
 70
     1
 71
     1
 91
        1
 92
        3
 72
     0
 73
     1
 93
        3
 10
44.02666504077148
 20
80.37710827831338
 10
43.43399826659376
 20
79.36111193898134
 10
40.72466482627852
 20
81.64711043118057
 97
        0
 75
     0
 76
     1
 98
        1
 10
0.0
 20
0.0
450
        0
451
        0
460
0.0
461
0.0
452
        0
462
0.0
453
        0
470

  0
LWPOLYLINE
  5
8D
330
70
100
AcDbEntity
  8
Capa 1
100
AcDbPolyline
 90
       13
 70
     0
 43
0.0
 10
60.70599524781721
 20
74.11177688441259
 10
60.53666342175548
 20
74.19644548892431
 10
58.75866040774144
 20
73.434444197204
 10
58.58932858167971
 20
73.18044376663056
 10
59.52066169946174
 20
72.58777430097199
 10
59.18199804733829
 20
72.0797788227868
 10
59.52066169946174
 20
71.9951102182751
 10
59.77466213003517
 20
72.50311107942197
 10
60.11333116512032
 20
72.33377925336025
 10
60.19799438667034
 20
72.58777430097199
 10
59.9439939560969
 20
72.75711150999541
 10
59.01266083831487
 20
73.26511237114228
 10
60.19799438667034
 20
73.85777645383917
  0
HATCH
  5
8E
330
70
100
AcDbEntity
  8
Capa 1
 62
    18
420
        0
440
 33554687
100
AcDbHatch
 10
0.0
 20
0.0
 30
0.0
210
0.0
220
0.0
230
1.0
  2
SOLID
 70
     1
 71
     1
 91
        1
 92
        3
 72
     0
 73
     1
 93
       13
 10
60.70599524781721
 20
74.11177688441259
 10
60.53666342175548
 20
74.19644548892431
 10
58.75866040774144
 20
73.434444197204
 10
58.58932858167971
 20
73.18044376663056
 10
59.52066169946174
 20
72.58777430097199
 10
59.18199804733829
 20
72.0797788227868
 10
59.52066169946174
 20
71.9951102182751
 10
59.77466213003517
 20
72.50311107942197
 10
60.11333116512032
 20
72.33377925336025
 10
60.19799438667034
 20
72.58777430097199
 10
59.9439939560969
 20
72.75711150999541
 10
59.01266083831487
 20
73.26511237114228
 10
60.19799438667034
 20
73.85777645383917
 97
        0
 75
     0
 76
     1
 98
        1
 10
0.0
 20
0.0
450
        0
451
        0
460
0.0
461
0.0
452
        0
462
0.0
453
        0
470

  0
LWPOLYLINE
  5
8F
330
70
100
AcDbEntity
  8
Capa 1
100
AcDbPolyline
 90
        5
 70
     0
 43
0.0
 10
60.70599524781721
 20
74.11177688441259
 10
60.19799438667034
 20
73.85777645383917
 10
59.68999352552347
 20
72.84177473154541
 10
59.01266083831487
 20
73.26511237114228
 10
59.9439939560969
 20
72.75711150999541
  0
HATCH
  5
90
330
70
100
AcDbEntity
  8
Capa 1
 62
    18
420
        0
440
 33554687
100
AcDbHatch
 10
0.0
 20
0.0
 30
0.0
210
0.0
220
0.0
230
1.0
  2
SOLID
 70
     1
 71
     1
 91
        1
 92
        3
 72
     0
 73
     1
 93
        5
 10
60.70599524781721
 20
74.11177688441259
 10
60.19799438667034
 20
73.85777645383917
 10
59.68999352552347
 20
72.84177473154541
 10
59.01266083831487
 20
73.26511237114228
 10
59.9439939560969
 20
72.75711150999541
 97
        0
 75
     0
 76
     1
 98
        1
 10
0.0
 20
0.0
450
        0
451
        0
460
0.0
461
0.0
452
        0
462
0.0
453
        0
470

  0
LWPOLYLINE
  5
91
330
70
100
AcDbEntity
  8
Capa 1
100
AcDbPolyline
 90
       34
 70
     0
 43
0.0
 10
60.70599524781721
 20
72.0797788227868
 10
60.36733159569376
 20
72.16444204433682
 10
60.36733159569376
 20
71.9951102182751
 10
60.28266299118205
 20
71.9951102182751
 10
60.28266299118205
 20
71.91044161376338
 10
60.28266299118205
 20
71.82577839221337
 10
60.28266299118205
 20
71.74110978770166
 10
60.36733159569376
 20
71.65644118318995
 10
60.36733159569376
 20
71.57177796163994
 10
60.36733159569376
 20
71.48710935712824
 10
60.45199481724377
 20
71.48710935712824
 10
60.45199481724377
 20
71.40244613557822
 10
60.53666342175548
 20
71.40244613557822
 10
60.53666342175548
 20
71.3177775310665
 10
60.6213266433055
 20
71.23310892655479
 10
60.70599524781721
 20
71.23310892655479
 10
60.70599524781721
 20
71.14844570500477
 10
60.79066385232891
 20
71.14844570500477
 10
60.87532707387893
 20
71.14844570500477
 10
60.95999567839065
 20
71.06377710049307
 10
61.04466428290235
 20
71.06377710049307
 10
61.12932750445237
 20
71.06377710049307
 10
61.21399610896408
 20
71.06377710049307
 10
61.29866471347579
 20
71.06377710049307
 10
61.38332793502581
 20
71.06377710049307
 10
60.87532707387893
 20
71.40244613557822
 10
60.79066385232891
 20
71.48710935712824
 10
60.70599524781721
 20
71.48710935712824
 10
60.70599524781721
 20
71.57177796163994
 10
60.6213266433055
 20
71.65644118318995
 10
60.6213266433055
 20
71.74110978770166
 10
60.6213266433055
 20
71.82577839221337
 10
60.6213266433055
 20
71.91044161376338
 10
60.6213266433055
 20
71.9951102182751
  0
HATCH
  5
92
330
70
100
AcDbEntity
  8
Capa 1
 62
    18
420
        0
440
 33554687
100
AcDbHatch
 10
0.0
 20
0.0
 30
0.0
210
0.0
220
0.0
230
1.0
  2
SOLID
 70
     1
 71
     1
 91
        1
 92
        3
 72
     0
 73
     1
 93
       34
 10
60.70599524781721
 20
72.0797788227868
 10
60.36733159569376
 20
72.16444204433682
 10
60.36733159569376
 20
71.9951102182751
 10
60.28266299118205
 20
71.9951102182751
 10
60.28266299118205
 20
71.91044161376338
 10
60.28266299118205
 20
71.82577839221337
 10
60.28266299118205
 20
71.74110978770166
 10
60.36733159569376
 20
71.65644118318995
 10
60.36733159569376
 20
71.57177796163994
 10
60.36733159569376
 20
71.48710935712824
 10
60.45199481724377
 20
71.48710935712824
 10
60.45199481724377
 20
71.40244613557822
 10
60.53666342175548
 20
71.40244613557822
 10
60.53666342175548
 20
71.3177775310665
 10
60.6213266433055
 20
71.23310892655479
 10
60.70599524781721
 20
71.23310892655479
 10
60.70599524781721
 20
71.14844570500477
 10
60.79066385232891
 20
71.14844570500477
 10
60.87532707387893
 20
71.14844570500477
 10
60.95999567839065
 20
71.06377710049307
 10
61.04466428290235
 20
71.06377710049307
 10
61.12932750445237
 20
71.06377710049307
 10
61.21399610896408
 20
71.06377710049307
 10
61.29866471347579
 20
71.06377710049307
 10
61.38332793502581
 20
71.06377710049307
 10
60.87532707387893
 20
71.40244613557822
 10
60.79066385232891
 20
71.48710935712824
 10
60.70599524781721
 20
71.48710935712824
 10
60.70599524781721
 20
71.57177796163994
 10
60.6213266433055
 20
71.65644118318995
 10
60.6213266433055
 20
71.74110978770166
 10
60.6213266433055
 20
71.82577839221337
 10
60.6213266433055
 20
71.91044161376338
 10
60.6213266433055
 20
71.9951102182751
 97
        0
 75
     0
 76
     1
 98
        1
 10
0.0
 20
0.0
450
        0
451
        0
460
0.0
461
0.0
452
        0
462
0.0
453
        0
470

  0
LWPOLYLINE
  5
93
330
70
100
AcDbEntity
  8
Capa 1
100
AcDbPolyline
 90
       38
 70
     0
 43
0.0
 10
61.97599740068439
 20
72.16444204433682
 10
61.46799653953752
 20
72.41844247491027
 10
61.55266514404923
 20
72.33377925336025
 10
61.63732836559924
 20
72.24911064884853
 10
61.63732836559924
 20
72.16444204433682
 10
61.72199697011095
 20
72.0797788227868
 10
61.72199697011095
 20
71.9951102182751
 10
61.72199697011095
 20
71.91044161376338
 10
61.63732836559924
 20
71.82577839221337
 10
61.63732836559924
 20
71.74110978770166
 10
61.63732836559924
 20
71.65644118318995
 10
61.55266514404923
 20
71.57177796163994
 10
61.46799653953752
 20
71.48710935712824
 10
61.38332793502581
 20
71.40244613557822
 10
61.29866471347579
 20
71.40244613557822
 10
61.21399610896408
 20
71.40244613557822
 10
61.21399610896408
 20
71.3177775310665
 10
61.12932750445237
 20
71.3177775310665
 10
61.04466428290235
 20
71.3177775310665
 10
60.95999567839065
 20
71.3177775310665
 10
60.95999567839065
 20
71.40244613557822
 10
60.87532707387893
 20
71.40244613557822
 10
61.38332793502581
 20
71.06377710049307
 10
61.46799653953752
 20
71.14844570500477
 10
61.55266514404923
 20
71.14844570500477
 10
61.55266514404923
 20
71.23310892655479
 10
61.63732836559924
 20
71.23310892655479
 10
61.72199697011095
 20
71.23310892655479
 10
61.72199697011095
 20
71.3177775310665
 10
61.80666019166096
 20
71.40244613557822
 10
61.89132879617268
 20
71.48710935712824
 10
61.89132879617268
 20
71.57177796163994
 10
61.97599740068439
 20
71.65644118318995
 10
61.97599740068439
 20
71.74110978770166
 10
62.0606606222344
 20
71.82577839221337
 10
62.0606606222344
 20
71.91044161376338
 10
62.0606606222344
 20
71.9951102182751
 10
62.0606606222344
 20
72.0797788227868
  0
HATCH
  5
94
330
70
100
AcDbEntity
  8
Capa 1
 62
    18
420
        0
440
 33554687
100
AcDbHatch
 10
0.0
 20
0.0
 30
0.0
210
0.0
220
0.0
230
1.0
  2
SOLID
 70
     1
 71
     1
 91
        1
 92
        3
 72
     0
 73
     1
 93
       38
 10
61.97599740068439
 20
72.16444204433682
 10
61.46799653953752
 20
72.41844247491027
 10
61.55266514404923
 20
72.33377925336025
 10
61.63732836559924
 20
72.24911064884853
 10
61.63732836559924
 20
72.16444204433682
 10
61.72199697011095
 20
72.0797788227868
 10
61.72199697011095
 20
71.9951102182751
 10
61.72199697011095
 20
71.91044161376338
 10
61.63732836559924
 20
71.82577839221337
 10
61.63732836559924
 20
71.74110978770166
 10
61.63732836559924
 20
71.65644118318995
 10
61.55266514404923
 20
71.57177796163994
 10
61.46799653953752
 20
71.48710935712824
 10
61.38332793502581
 20
71.40244613557822
 10
61.29866471347579
 20
71.40244613557822
 10
61.21399610896408
 20
71.40244613557822
 10
61.21399610896408
 20
71.3177775310665
 10
61.12932750445237
 20
71.3177775310665
 10
61.04466428290235
 20
71.3177775310665
 10
60.95999567839065
 20
71.3177775310665
 10
60.95999567839065
 20
71.40244613557822
 10
60.87532707387893
 20
71.40244613557822
 10
61.38332793502581
 20
71.06377710049307
 10
61.46799653953752
 20
71.14844570500477
 10
61.55266514404923
 20
71.14844570500477
 10
61.55266514404923
 20
71.23310892655479
 10
61.63732836559924
 20
71.23310892655479
 10
61.72199697011095
 20
71.23310892655479
 10
61.72199697011095
 20
71.3177775310665
 10
61.80666019166096
 20
71.40244613557822
 10
61.89132879617268
 20
71.48710935712824
 10
61.89132879617268
 20
71.57177796163994
 10
61.97599740068439
 20
71.65644118318995
 10
61.97599740068439
 20
71.74110978770166
 10
62.0606606222344
 20
71.82577839221337
 10
62.0606606222344
 20
71.91044161376338
 10
62.0606606222344
 20
71.9951102182751
 10
62.0606606222344
 20
72.0797788227868
 97
        0
 75
     0
 76
     1
 98
        1
 10
0.0
 20
0.0
450
        0
451
        0
460
0.0
461
0.0
452
        0
462
0.0
453
        0
470

  0
LWPOLYLINE
  5
95
330
70
100
AcDbEntity
  8
Capa 1
100
AcDbPolyline
 90
       14
 70
     0
 43
0.0
 10
61.63732836559924
 20
72.58777430097199
 10
61.63732836559924
 20
72.58777430097199
 10
61.55266514404923
 20
72.67244290548369
 10
61.46799653953752
 20
72.67244290548369
 10
61.38332793502581
 20
72.67244290548369
 10
61.29866471347579
 20
72.75711150999541
 10
61.21399610896408
 20
72.75711150999541
 10
61.12932750445237
 20
72.75711150999541
 10
61.97599740068439
 20
72.24911064884853
 10
61.89132879617268
 20
72.33377925336025
 10
61.89132879617268
 20
72.41844247491027
 10
61.80666019166096
 20
72.50311107942197
 10
61.72199697011095
 20
72.50311107942197
 10
61.72199697011095
 20
72.58777430097199
  0
HATCH
  5
96
330
70
100
AcDbEntity
  8
Capa 1
 62
    18
420
        0
440
 33554687
100
AcDbHatch
 10
0.0
 20
0.0
 30
0.0
210
0.0
220
0.0
230
1.0
  2
SOLID
 70
     1
 71
     1
 91
        1
 92
        3
 72
     0
 73
     1
 93
       14
 10
61.63732836559924
 20
72.58777430097199
 10
61.63732836559924
 20
72.58777430097199
 10
61.55266514404923
 20
72.67244290548369
 10
61.46799653953752
 20
72.67244290548369
 10
61.38332793502581
 20
72.67244290548369
 10
61.29866471347579
 20
72.75711150999541
 10
61.21399610896408
 20
72.75711150999541
 10
61.12932750445237
 20
72.75711150999541
 10
61.97599740068439
 20
72.24911064884853
 10
61.89132879617268
 20
72.33377925336025
 10
61.89132879617268
 20
72.41844247491027
 10
61.80666019166096
 20
72.50311107942197
 10
61.72199697011095
 20
72.50311107942197
 10
61.72199697011095
 20
72.58777430097199
 97
        0
 75
     0
 76
     1
 98
        1
 10
0.0
 20
0.0
450
        0
451
        0
460
0.0
461
0.0
452
        0
462
0.0
453
        0
470

  0
LWPOLYLINE
  5
97
330
70
100
AcDbEntity
  8
Capa 1
100
AcDbPolyline
 90
       16
 70
     0
 43
0.0
 10
62.65333008789298
 20
73.01111194056884
 10
61.55266514404923
 20
73.60377602326572
 10
60.70599524781721
 20
72.58777430097199
 10
60.95999567839065
 20
72.41844247491027
 10
60.95999567839065
 20
72.50311107942197
 10
61.04466428290235
 20
72.50311107942197
 10
61.12932750445237
 20
72.50311107942197
 10
61.21399610896408
 20
72.50311107942197
 10
61.29866471347579
 20
72.50311107942197
 10
61.38332793502581
 20
72.41844247491027
 10
61.46799653953752
 20
72.41844247491027
 10
61.97599740068439
 20
72.16444204433682
 10
61.97599740068439
 20
72.24911064884853
 10
61.12932750445237
 20
72.75711150999541
 10
61.63732836559924
 20
73.26511237114228
 10
62.48399826183126
 20
72.75711150999541
  0
HATCH
  5
98
330
70
100
AcDbEntity
  8
Capa 1
 62
    18
420
        0
440
 33554687
100
AcDbHatch
 10
0.0
 20
0.0
 30
0.0
210
0.0
220
0.0
230
1.0
  2
SOLID
 70
     1
 71
     1
 91
        1
 92
        3
 72
     0
 73
     1
 93
       16
 10
62.65333008789298
 20
73.01111194056884
 10
61.55266514404923
 20
73.60377602326572
 10
60.70599524781721
 20
72.58777430097199
 10
60.95999567839065
 20
72.41844247491027
 10
60.95999567839065
 20
72.50311107942197
 10
61.04466428290235
 20
72.50311107942197
 10
61.12932750445237
 20
72.50311107942197
 10
61.21399610896408
 20
72.50311107942197
 10
61.29866471347579
 20
72.50311107942197
 10
61.38332793502581
 20
72.41844247491027
 10
61.46799653953752
 20
72.41844247491027
 10
61.97599740068439
 20
72.16444204433682
 10
61.97599740068439
 20
72.24911064884853
 10
61.12932750445237
 20
72.75711150999541
 10
61.63732836559924
 20
73.26511237114228
 10
62.48399826183126
 20
72.75711150999541
 97
        0
 75
     0
 76
     1
 98
        1
 10
0.0
 20
0.0
450
        0
451
        0
460
0.0
461
0.0
452
        0
462
0.0
453
        0
470

  0
LWPOLYLINE
  5
99
330
70
100
AcDbEntity
  8
Capa 1
100
AcDbPolyline
 90
       59
 70
     0
 43
0.0
 10
63.07666234452814
 20
72.50311107942197
 10
62.99199374001643
 20
72.41844247491027
 10
62.90733051846642
 20
72.33377925336025
 10
62.82266191395471
 20
72.33377925336025
 10
62.82266191395471
 20
72.24911064884853
 10
62.73799330944299
 20
72.24911064884853
 10
62.73799330944299
 20
72.16444204433682
 10
62.65333008789298
 20
72.16444204433682
 10
62.65333008789298
 20
72.0797788227868
 10
62.56866148338128
 20
71.9951102182751
 10
62.48399826183126
 20
71.91044161376338
 10
62.48399826183126
 20
71.82577839221337
 10
62.39932965731955
 20
71.82577839221337
 10
62.39932965731955
 20
71.74110978770166
 10
62.31466105280784
 20
71.65644118318995
 10
62.31466105280784
 20
71.57177796163994
 10
62.22999783125782
 20
71.48710935712824
 10
62.22999783125782
 20
71.40244613557822
 10
62.14532922674611
 20
71.3177775310665
 10
62.14532922674611
 20
71.23310892655479
 10
62.14532922674611
 20
71.14844570500477
 10
62.0606606222344
 20
71.14844570500477
 10
62.0606606222344
 20
71.06377710049307
 10
62.0606606222344
 20
70.97910849598135
 10
62.0606606222344
 20
70.89444527443133
 10
62.0606606222344
 20
70.80977666991962
 10
62.0606606222344
 20
70.72510806540792
 10
62.0606606222344
 20
70.64044484385791
 10
62.56866148338128
 20
70.38644441328447
 10
62.56866148338128
 20
70.47110763483448
 10
62.48399826183126
 20
70.47110763483448
 10
62.39932965731955
 20
70.55577623934619
 10
62.39932965731955
 20
70.64044484385791
 10
62.39932965731955
 20
70.72510806540792
 10
62.31466105280784
 20
70.80977666991962
 10
62.31466105280784
 20
70.89444527443133
 10
62.39932965731955
 20
70.89444527443133
 10
62.39932965731955
 20
70.97910849598135
 10
62.39932965731955
 20
71.06377710049307
 10
62.39932965731955
 20
71.14844570500477
 10
62.48399826183126
 20
71.23310892655479
 10
62.48399826183126
 20
71.3177775310665
 10
62.56866148338128
 20
71.40244613557822
 10
62.56866148338128
 20
71.48710935712824
 10
62.65333008789298
 20
71.57177796163994
 10
62.73799330944299
 20
71.65644118318995
 10
62.73799330944299
 20
71.74110978770166
 10
62.82266191395471
 20
71.82577839221337
 10
62.82266191395471
 20
71.91044161376338
 10
62.90733051846642
 20
71.91044161376338
 10
62.90733051846642
 20
71.9951102182751
 10
62.99199374001643
 20
72.0797788227868
 10
63.07666234452814
 20
72.16444204433682
 10
63.16133094903985
 20
72.16444204433682
 10
63.24599417058987
 20
72.24911064884853
 10
63.33066277510158
 20
72.24911064884853
 10
63.41533137961329
 20
72.24911064884853
 10
63.49999460116331
 20
72.24911064884853
 10
63.58466320567502
 20
72.16444204433682
  0
HATCH
  5
9A
330
70
100
AcDbEntity
  8
Capa 1
 62
    18
420
        0
440
 33554687
100
AcDbHatch
 10
0.0
 20
0.0
 30
0.0
210
0.0
220
0.0
230
1.0
  2
SOLID
 70
     1
 71
     1
 91
        1
 92
        3
 72
     0
 73
     1
 93
       59
 10
63.07666234452814
 20
72.50311107942197
 10
62.99199374001643
 20
72.41844247491027
 10
62.90733051846642
 20
72.33377925336025
 10
62.82266191395471
 20
72.33377925336025
 10
62.82266191395471
 20
72.24911064884853
 10
62.73799330944299
 20
72.24911064884853
 10
62.73799330944299
 20
72.16444204433682
 10
62.65333008789298
 20
72.16444204433682
 10
62.65333008789298
 20
72.0797788227868
 10
62.56866148338128
 20
71.9951102182751
 10
62.48399826183126
 20
71.91044161376338
 10
62.48399826183126
 20
71.82577839221337
 10
62.39932965731955
 20
71.82577839221337
 10
62.39932965731955
 20
71.74110978770166
 10
62.31466105280784
 20
71.65644118318995
 10
62.31466105280784
 20
71.57177796163994
 10
62.22999783125782
 20
71.48710935712824
 10
62.22999783125782
 20
71.40244613557822
 10
62.14532922674611
 20
71.3177775310665
 10
62.14532922674611
 20
71.23310892655479
 10
62.14532922674611
 20
71.14844570500477
 10
62.0606606222344
 20
71.14844570500477
 10
62.0606606222344
 20
71.06377710049307
 10
62.0606606222344
 20
70.97910849598135
 10
62.0606606222344
 20
70.89444527443133
 10
62.0606606222344
 20
70.80977666991962
 10
62.0606606222344
 20
70.72510806540792
 10
62.0606606222344
 20
70.64044484385791
 10
62.56866148338128
 20
70.38644441328447
 10
62.56866148338128
 20
70.47110763483448
 10
62.48399826183126
 20
70.47110763483448
 10
62.39932965731955
 20
70.55577623934619
 10
62.39932965731955
 20
70.64044484385791
 10
62.39932965731955
 20
70.72510806540792
 10
62.31466105280784
 20
70.80977666991962
 10
62.31466105280784
 20
70.89444527443133
 10
62.39932965731955
 20
70.89444527443133
 10
62.39932965731955
 20
70.97910849598135
 10
62.39932965731955
 20
71.06377710049307
 10
62.39932965731955
 20
71.14844570500477
 10
62.48399826183126
 20
71.23310892655479
 10
62.48399826183126
 20
71.3177775310665
 10
62.56866148338128
 20
71.40244613557822
 10
62.56866148338128
 20
71.48710935712824
 10
62.65333008789298
 20
71.57177796163994
 10
62.73799330944299
 20
71.65644118318995
 10
62.73799330944299
 20
71.74110978770166
 10
62.82266191395471
 20
71.82577839221337
 10
62.82266191395471
 20
71.91044161376338
 10
62.90733051846642
 20
71.91044161376338
 10
62.90733051846642
 20
71.9951102182751
 10
62.99199374001643
 20
72.0797788227868
 10
63.07666234452814
 20
72.16444204433682
 10
63.16133094903985
 20
72.16444204433682
 10
63.24599417058987
 20
72.24911064884853
 10
63.33066277510158
 20
72.24911064884853
 10
63.41533137961329
 20
72.24911064884853
 10
63.49999460116331
 20
72.24911064884853
 10
63.58466320567502
 20
72.16444204433682
 97
        0
 75
     0
 76
     1
 98
        1
 10
0.0
 20
0.0
450
        0
451
        0
460
0.0
461
0.0
452
        0
462
0.0
453
        0
470

  0
LWPOLYLINE
  5
9B
330
70
100
AcDbEntity
  8
Capa 1
100
AcDbPolyline
 90
       93
 70
     0
 43
0.0
 10
63.66933181018673
 20
72.41844247491027
 10
63.66933181018673
 20
72.41844247491027
 10
63.58466320567502
 20
72.41844247491027
 10
63.58466320567502
 20
72.50311107942197
 10
63.49999460116331
 20
72.50311107942197
 10
63.41533137961329
 20
72.50311107942197
 10
63.33066277510158
 20
72.50311107942197
 10
63.24599417058987
 20
72.50311107942197
 10
63.16133094903985
 20
72.50311107942197
 10
63.07666234452814
 20
72.50311107942197
 10
63.58466320567502
 20
72.16444204433682
 10
63.66933181018673
 20
72.16444204433682
 10
63.66933181018673
 20
72.0797788227868
 10
63.75399503173674
 20
72.0797788227868
 10
63.75399503173674
 20
71.9951102182751
 10
63.75399503173674
 20
71.91044161376338
 10
63.75399503173674
 20
71.82577839221337
 10
63.75399503173674
 20
71.74110978770166
 10
63.75399503173674
 20
71.65644118318995
 10
63.75399503173674
 20
71.57177796163994
 10
63.75399503173674
 20
71.48710935712824
 10
63.66933181018673
 20
71.48710935712824
 10
63.66933181018673
 20
71.40244613557822
 10
63.58466320567502
 20
71.3177775310665
 10
63.58466320567502
 20
71.23310892655479
 10
63.49999460116331
 20
71.14844570500477
 10
63.49999460116331
 20
71.06377710049307
 10
63.41533137961329
 20
70.97910849598135
 10
63.41533137961329
 20
70.89444527443133
 10
63.33066277510158
 20
70.80977666991962
 10
63.33066277510158
 20
70.72510806540792
 10
63.24599417058987
 20
70.72510806540792
 10
63.16133094903985
 20
70.64044484385791
 10
63.16133094903985
 20
70.55577623934619
 10
63.07666234452814
 20
70.47110763483448
 10
62.99199374001643
 20
70.47110763483448
 10
62.99199374001643
 20
70.38644441328447
 10
62.90733051846642
 20
70.38644441328447
 10
62.82266191395471
 20
70.38644441328447
 10
62.73799330944299
 20
70.38644441328447
 10
62.65333008789298
 20
70.38644441328447
 10
62.56866148338128
 20
70.38644441328447
 10
62.0606606222344
 20
70.64044484385791
 10
62.14532922674611
 20
70.55577623934619
 10
62.14532922674611
 20
70.47110763483448
 10
62.22999783125782
 20
70.38644441328447
 10
62.22999783125782
 20
70.30177580877276
 10
62.31466105280784
 20
70.30177580877276
 10
62.39932965731955
 20
70.21711258722274
 10
62.48399826183126
 20
70.13244398271104
 10
62.56866148338128
 20
70.13244398271104
 10
62.65333008789298
 20
70.13244398271104
 10
62.73799330944299
 20
70.13244398271104
 10
62.82266191395471
 20
70.13244398271104
 10
62.90733051846642
 20
70.13244398271104
 10
62.99199374001643
 20
70.13244398271104
 10
63.07666234452814
 20
70.13244398271104
 10
63.07666234452814
 20
70.21711258722274
 10
63.16133094903985
 20
70.21711258722274
 10
63.24599417058987
 20
70.21711258722274
 10
63.24599417058987
 20
70.30177580877276
 10
63.33066277510158
 20
70.30177580877276
 10
63.33066277510158
 20
70.38644441328447
 10
63.41533137961329
 20
70.38644441328447
 10
63.41533137961329
 20
70.47110763483448
 10
63.49999460116331
 20
70.47110763483448
 10
63.49999460116331
 20
70.55577623934619
 10
63.58466320567502
 20
70.55577623934619
 10
63.58466320567502
 20
70.64044484385791
 10
63.66933181018673
 20
70.72510806540792
 10
63.75399503173674
 20
70.80977666991962
 10
63.75399503173674
 20
70.89444527443133
 10
63.75399503173674
 20
70.97910849598135
 10
63.83866363624846
 20
70.97910849598135
 10
63.83866363624846
 20
71.06377710049307
 10
63.92332685779846
 20
71.14844570500477
 10
63.92332685779846
 20
71.23310892655479
 10
63.92332685779846
 20
71.3177775310665
 10
64.00799546231017
 20
71.3177775310665
 10
64.00799546231017
 20
71.40244613557822
 10
64.00799546231017
 20
71.48710935712824
 10
64.00799546231017
 20
71.57177796163994
 10
64.09266406682188
 20
71.65644118318995
 10
64.09266406682188
 20
71.74110978770166
 10
64.09266406682188
 20
71.82577839221337
 10
64.09266406682188
 20
71.91044161376338
 10
64.00799546231017
 20
71.9951102182751
 10
64.00799546231017
 20
72.0797788227868
 10
63.92332685779846
 20
72.16444204433682
 10
63.92332685779846
 20
72.24911064884853
 10
63.83866363624846
 20
72.24911064884853
 10
63.83866363624846
 20
72.33377925336025
 10
63.75399503173674
 20
72.33377925336025
  0
HATCH
  5
9C
330
70
100
AcDbEntity
  8
Capa 1
 62
    18
420
        0
440
 33554687
100
AcDbHatch
 10
0.0
 20
0.0
 30
0.0
210
0.0
220
0.0
230
1.0
  2
SOLID
 70
     1
 71
     1
 91
        1
 92
        3
 72
     0
 73
     1
 93
       93
 10
63.66933181018673
 20
72.41844247491027
 10
63.66933181018673
 20
72.41844247491027
 10
63.58466320567502
 20
72.41844247491027
 10
63.58466320567502
 20
72.50311107942197
 10
63.49999460116331
 20
72.50311107942197
 10
63.41533137961329
 20
72.50311107942197
 10
63.33066277510158
 20
72.50311107942197
 10
63.24599417058987
 20
72.50311107942197
 10
63.16133094903985
 20
72.50311107942197
 10
63.07666234452814
 20
72.50311107942197
 10
63.58466320567502
 20
72.16444204433682
 10
63.66933181018673
 20
72.16444204433682
 10
63.66933181018673
 20
72.0797788227868
 10
63.75399503173674
 20
72.0797788227868
 10
63.75399503173674
 20
71.9951102182751
 10
63.75399503173674
 20
71.91044161376338
 10
63.75399503173674
 20
71.82577839221337
 10
63.75399503173674
 20
71.74110978770166
 10
63.75399503173674
 20
71.65644118318995
 10
63.75399503173674
 20
71.57177796163994
 10
63.75399503173674
 20
71.48710935712824
 10
63.66933181018673
 20
71.48710935712824
 10
63.66933181018673
 20
71.40244613557822
 10
63.58466320567502
 20
71.3177775310665
 10
63.58466320567502
 20
71.23310892655479
 10
63.49999460116331
 20
71.14844570500477
 10
63.49999460116331
 20
71.06377710049307
 10
63.41533137961329
 20
70.97910849598135
 10
63.41533137961329
 20
70.89444527443133
 10
63.33066277510158
 20
70.80977666991962
 10
63.33066277510158
 20
70.72510806540792
 10
63.24599417058987
 20
70.72510806540792
 10
63.16133094903985
 20
70.64044484385791
 10
63.16133094903985
 20
70.55577623934619
 10
63.07666234452814
 20
70.47110763483448
 10
62.99199374001643
 20
70.47110763483448
 10
62.99199374001643
 20
70.38644441328447
 10
62.90733051846642
 20
70.38644441328447
 10
62.82266191395471
 20
70.38644441328447
 10
62.73799330944299
 20
70.38644441328447
 10
62.65333008789298
 20
70.38644441328447
 10
62.56866148338128
 20
70.38644441328447
 10
62.0606606222344
 20
70.64044484385791
 10
62.14532922674611
 20
70.55577623934619
 10
62.14532922674611
 20
70.47110763483448
 10
62.22999783125782
 20
70.38644441328447
 10
62.22999783125782
 20
70.30177580877276
 10
62.31466105280784
 20
70.30177580877276
 10
62.39932965731955
 20
70.21711258722274
 10
62.48399826183126
 20
70.13244398271104
 10
62.56866148338128
 20
70.13244398271104
 10
62.65333008789298
 20
70.13244398271104
 10
62.73799330944299
 20
70.13244398271104
 10
62.82266191395471
 20
70.13244398271104
 10
62.90733051846642
 20
70.13244398271104
 10
62.99199374001643
 20
70.13244398271104
 10
63.07666234452814
 20
70.13244398271104
 10
63.07666234452814
 20
70.21711258722274
 10
63.16133094903985
 20
70.21711258722274
 10
63.24599417058987
 20
70.21711258722274
 10
63.24599417058987
 20
70.30177580877276
 10
63.33066277510158
 20
70.30177580877276
 10
63.33066277510158
 20
70.38644441328447
 10
63.41533137961329
 20
70.38644441328447
 10
63.41533137961329
 20
70.47110763483448
 10
63.49999460116331
 20
70.47110763483448
 10
63.49999460116331
 20
70.55577623934619
 10
63.58466320567502
 20
70.55577623934619
 10
63.58466320567502
 20
70.64044484385791
 10
63.66933181018673
 20
70.72510806540792
 10
63.75399503173674
 20
70.80977666991962
 10
63.75399503173674
 20
70.89444527443133
 10
63.75399503173674
 20
70.97910849598135
 10
63.83866363624846
 20
70.97910849598135
 10
63.83866363624846
 20
71.06377710049307
 10
63.92332685779846
 20
71.14844570500477
 10
63.92332685779846
 20
71.23310892655479
 10
63.92332685779846
 20
71.3177775310665
 10
64.00799546231017
 20
71.3177775310665
 10
64.00799546231017
 20
71.40244613557822
 10
64.00799546231017
 20
71.48710935712824
 10
64.00799546231017
 20
71.57177796163994
 10
64.09266406682188
 20
71.65644118318995
 10
64.09266406682188
 20
71.74110978770166
 10
64.09266406682188
 20
71.82577839221337
 10
64.09266406682188
 20
71.91044161376338
 10
64.00799546231017
 20
71.9951102182751
 10
64.00799546231017
 20
72.0797788227868
 10
63.92332685779846
 20
72.16444204433682
 10
63.92332685779846
 20
72.24911064884853
 10
63.83866363624846
 20
72.24911064884853
 10
63.83866363624846
 20
72.33377925336025
 10
63.75399503173674
 20
72.33377925336025
 97
        0
 75
     0
 76
     1
 98
        1
 10
0.0
 20
0.0
450
        0
451
        0
460
0.0
461
0.0
452
        0
462
0.0
453
        0
470

  0
SPLINE
  5
9D
330
70
100
AcDbEntity
  8
Capa 1
 62
    18
420
        0
370
     9
100
AcDbSpline
210
0.0
220
0.0
230
1.0
 70
    24
 71
     3
 72
     8
 73
     4
 74
     0
 42
0.0000000001
 43
0.0000000001
 40
0.0
 40
0.0
 40
0.0
 40
0.0
 40
1.0
 40
1.0
 40
1.0
 40
1.0
 10
95.67332684986096
 20
68.35444096869697
 30
0.0
 10
95.67332684986096
 20
68.35444096869697
 30
0.0
 10
111.4213212476438
 20
59.21044161693838
 30
0.0
 10
111.4213212476438
 20
59.21044161693838
 30
0.0
  0
SPLINE
  5
9E
330
70
100
AcDbEntity
  8
Capa 1
 62
    18
420
        0
370
     9
100
AcDbSpline
210
0.0
220
0.0
230
1.0
 70
    24
 71
     3
 72
     8
 73
     4
 74
     0
 42
0.0000000001
 43
0.0000000001
 40
0.0
 40
0.0
 40
0.0
 40
0.0
 40
1.0
 40
1.0
 40
1.0
 40
1.0
 10
181.6946588697781
 20
118.1387729773283
 30
0.0
 10
181.6946588697781
 20
118.1387729773283
 30
0.0
 10
197.6119904765844
 20
108.9947790085314
 30
0.0
 10
197.6119904765844
 20
108.9947790085314
 30
0.0
  0
SPLINE
  5
9F
330
70
100
AcDbEntity
  8
Capa 1
 62
    18
420
        0
370
     9
100
AcDbSpline
210
0.0
220
0.0
230
1.0
 70
    24
 71
     3
 72
     8
 73
     4
 74
     0
 42
0.0000000001
 43
0.0000000001
 40
0.0
 40
0.0
 40
0.0
 40
0.0
 40
1.0
 40
1.0
 40
1.0
 40
1.0
 10
112.9453238310844
 20
61.83510914422275
 30
0.0
 10
112.9453238310844
 20
61.83510914422275
 30
0.0
 10
193.0399827262626
 20
108.0634405077877
 30
0.0
 10
193.0399827262626
 20
108.0634405077877
 30
0.0
  0
LWPOLYLINE
  5
A0
330
70
100
AcDbEntity
  8
Capa 1
100
AcDbPolyline
 90
        3
 70
     0
 43
0.0
 10
112.691323400511
 20
62.34311000536963
 10
113.2839874832078
 20
61.32710828307589
 10
109.8973294301266
 20
60.14177473472042
  0
HATCH
  5
A1
330
70
100
AcDbEntity
  8
Capa 1
 62
    18
420
        0
440
 33554687
100
AcDbHatch
 10
0.0
 20
0.0
 30
0.0
210
0.0
220
0.0
230
1.0
  2
SOLID
 70
     1
 71
     1
 91
        1
 92
        3
 72
     0
 73
     1
 93
        3
 10
112.691323400511
 20
62.34311000536963
 10
113.2839874832078
 20
61.32710828307589
 10
109.8973294301266
 20
60.14177473472042
 97
        0
 75
     0
 76
     1
 98
        1
 10
0.0
 20
0.0
450
        0
451
        0
460
0.0
461
0.0
452
        0
462
0.0
453
        0
470

  0
LWPOLYLINE
  5
A2
330
70
100
AcDbEntity
  8
Capa 1
100
AcDbPolyline
 90
        3
 70
     0
 43
0.0
 10
192.7859930616125
 20
108.5714413689346
 10
193.2939939227594
 20
107.5554396466408
 10
196.0879878931438
 20
109.8414435218018
  0
HATCH
  5
A3
330
70
100
AcDbEntity
  8
Capa 1
 62
    18
420
        0
440
 33554687
100
AcDbHatch
 10
0.0
 20
0.0
 30
0.0
210
0.0
220
0.0
230
1.0
  2
SOLID
 70
     1
 71
     1
 91
        1
 92
        3
 72
     0
 73
     1
 93
        3
 10
192.7859930616125
 20
108.5714413689346
 10
193.2939939227594
 20
107.5554396466408
 10
196.0879878931438
 20
109.8414435218018
 97
        0
 75
     0
 76
     1
 98
        1
 10
0.0
 20
0.0
450
        0
451
        0
460
0.0
461
0.0
452
        0
462
0.0
453
        0
470

  0
LWPOLYLINE
  5
A4
330
70
100
AcDbEntity
  8
Capa 1
100
AcDbPolyline
 90
       29
 70
     0
 43
0.0
 10
149.4366580165688
 20
84.86478655071035
 10
149.2673208075453
 20
84.69544934168693
 10
149.2673208075453
 20
84.61044161058838
 10
149.3519947950188
 20
84.52577838903838
 10
149.4366580165688
 20
84.52577838903838
 10
149.4366580165688
 20
84.44110978452666
 10
149.5213212381188
 20
84.44110978452666
 10
149.6059952255922
 20
84.44110978452666
 10
149.6906584471422
 20
84.44110978452666
 10
149.7753216686922
 20
84.44110978452666
 10
149.8599956561656
 20
84.44110978452666
 10
149.9446588777156
 20
84.44110978452666
 10
150.0293220992656
 20
84.44110978452666
 10
150.1139960867391
 20
84.44110978452666
 10
150.1139960867391
 20
84.52577838903838
 10
150.1986593082891
 20
84.52577838903838
 10
150.2833225298391
 20
84.61044161058838
 10
150.3679965173125
 20
84.69544934168693
 10
150.4526597388625
 20
84.78011794619865
 10
150.4526597388625
 20
84.86478655071035
 10
150.5373229604125
 20
84.94944977226037
 10
150.0293220992656
 20
84.69544934168693
 10
149.9446588777156
 20
84.69544934168693
 10
149.8599956561656
 20
84.69544934168693
 10
149.7753216686922
 20
84.69544934168693
 10
149.6906584471422
 20
84.69544934168693
 10
149.6059952255922
 20
84.69544934168693
 10
149.6059952255922
 20
84.78011794619865
 10
149.5213212381188
 20
84.78011794619865
  0
HATCH
  5
A5
330
70
100
AcDbEntity
  8
Capa 1
 62
    18
420
        0
440
 33554687
100
AcDbHatch
 10
0.0
 20
0.0
 30
0.0
210
0.0
220
0.0
230
1.0
  2
SOLID
 70
     1
 71
     1
 91
        1
 92
        3
 72
     0
 73
     1
 93
       29
 10
149.4366580165688
 20
84.86478655071035
 10
149.2673208075453
 20
84.69544934168693
 10
149.2673208075453
 20
84.61044161058838
 10
149.3519947950188
 20
84.52577838903838
 10
149.4366580165688
 20
84.52577838903838
 10
149.4366580165688
 20
84.44110978452666
 10
149.5213212381188
 20
84.44110978452666
 10
149.6059952255922
 20
84.44110978452666
 10
149.6906584471422
 20
84.44110978452666
 10
149.7753216686922
 20
84.44110978452666
 10
149.8599956561656
 20
84.44110978452666
 10
149.9446588777156
 20
84.44110978452666
 10
150.0293220992656
 20
84.44110978452666
 10
150.1139960867391
 20
84.44110978452666
 10
150.1139960867391
 20
84.52577838903838
 10
150.1986593082891
 20
84.52577838903838
 10
150.2833225298391
 20
84.61044161058838
 10
150.3679965173125
 20
84.69544934168693
 10
150.4526597388625
 20
84.78011794619865
 10
150.4526597388625
 20
84.86478655071035
 10
150.5373229604125
 20
84.94944977226037
 10
150.0293220992656
 20
84.69544934168693
 10
149.9446588777156
 20
84.69544934168693
 10
149.8599956561656
 20
84.69544934168693
 10
149.7753216686922
 20
84.69544934168693
 10
149.6906584471422
 20
84.69544934168693
 10
149.6059952255922
 20
84.69544934168693
 10
149.6059952255922
 20
84.78011794619865
 10
149.5213212381188
 20
84.78011794619865
 97
        0
 75
     0
 76
     1
 98
        1
 10
0.0
 20
0.0
450
        0
451
        0
460
0.0
461
0.0
452
        0
462
0.0
453
        0
470

  0
LWPOLYLINE
  5
A6
330
70
100
AcDbEntity
  8
Capa 1
100
AcDbPolyline
 90
       23
 70
     0
 43
0.0
 10
149.7753216686922
 20
85.71145106398068
 10
149.7753216686922
 20
85.71145106398068
 10
149.6906584471422
 20
85.62678245946896
 10
149.6906584471422
 20
85.54211923791894
 10
149.6059952255922
 20
85.54211923791894
 10
149.0979943644453
 20
85.20345020283379
 10
149.1826575859954
 20
85.20345020283379
 10
149.2673208075453
 20
85.20345020283379
 10
149.3519947950188
 20
85.20345020283379
 10
149.4366580165688
 20
85.20345020283379
 10
149.5213212381188
 20
85.20345020283379
 10
149.6059952255922
 20
85.20345020283379
 10
149.6906584471422
 20
85.28811880734551
 10
149.7753216686922
 20
85.28811880734551
 10
149.7753216686922
 20
85.37278202889552
 10
149.8599956561656
 20
85.37278202889552
 10
149.9446588777156
 20
85.45745063340723
 10
149.9446588777156
 20
85.54211923791894
 10
149.9446588777156
 20
85.62678245946896
 10
150.0293220992656
 20
85.62678245946896
 10
150.0293220992656
 20
85.71145106398068
 10
150.0293220992656
 20
85.79611966849238
 10
150.0293220992656
 20
85.8807828900424
  0
HATCH
  5
A7
330
70
100
AcDbEntity
  8
Capa 1
 62
    18
420
        0
440
 33554687
100
AcDbHatch
 10
0.0
 20
0.0
 30
0.0
210
0.0
220
0.0
230
1.0
  2
SOLID
 70
     1
 71
     1
 91
        1
 92
        3
 72
     0
 73
     1
 93
       23
 10
149.7753216686922
 20
85.71145106398068
 10
149.7753216686922
 20
85.71145106398068
 10
149.6906584471422
 20
85.62678245946896
 10
149.6906584471422
 20
85.54211923791894
 10
149.6059952255922
 20
85.54211923791894
 10
149.0979943644453
 20
85.20345020283379
 10
149.1826575859954
 20
85.20345020283379
 10
149.2673208075453
 20
85.20345020283379
 10
149.3519947950188
 20
85.20345020283379
 10
149.4366580165688
 20
85.20345020283379
 10
149.5213212381188
 20
85.20345020283379
 10
149.6059952255922
 20
85.20345020283379
 10
149.6906584471422
 20
85.28811880734551
 10
149.7753216686922
 20
85.28811880734551
 10
149.7753216686922
 20
85.37278202889552
 10
149.8599956561656
 20
85.37278202889552
 10
149.9446588777156
 20
85.45745063340723
 10
149.9446588777156
 20
85.54211923791894
 10
149.9446588777156
 20
85.62678245946896
 10
150.0293220992656
 20
85.62678245946896
 10
150.0293220992656
 20
85.71145106398068
 10
150.0293220992656
 20
85.79611966849238
 10
150.0293220992656
 20
85.8807828900424
 97
        0
 75
     0
 76
     1
 98
        1
 10
0.0
 20
0.0
450
        0
451
        0
460
0.0
461
0.0
452
        0
462
0.0
453
        0
470

  0
LWPOLYLINE
  5
A8
330
70
100
AcDbEntity
  8
Capa 1
100
AcDbPolyline
 90
       36
 70
     0
 43
0.0
 10
148.5053195158251
 20
86.21945192512754
 10
148.5053195158251
 20
86.21945192512754
 10
148.5053195158251
 20
85.8807828900424
 10
148.5899935032984
 20
85.79611966849238
 10
148.5899935032984
 20
85.71145106398068
 10
148.6746567248485
 20
85.62678245946896
 10
148.6746567248485
 20
85.54211923791894
 10
148.7593199463985
 20
85.45745063340723
 10
148.7593199463985
 20
85.37278202889552
 10
148.8439939338719
 20
85.37278202889552
 10
148.9286571554219
 20
85.28811880734551
 10
149.0133203769719
 20
85.28811880734551
 10
149.0979943644453
 20
85.20345020283379
 10
149.6059952255922
 20
85.54211923791894
 10
149.5213212381188
 20
85.45745063340723
 10
149.4366580165688
 20
85.45745063340723
 10
149.3519947950188
 20
85.45745063340723
 10
149.2673208075453
 20
85.45745063340723
 10
149.2673208075453
 20
85.54211923791894
 10
149.1826575859954
 20
85.54211923791894
 10
149.0979943644453
 20
85.54211923791894
 10
149.0979943644453
 20
85.62678245946896
 10
149.0133203769719
 20
85.62678245946896
 10
148.9286571554219
 20
85.71145106398068
 10
148.9286571554219
 20
85.79611966849238
 10
148.8439939338719
 20
85.8807828900424
 10
148.8439939338719
 20
85.9654514945541
 10
148.8439939338719
 20
86.05012009906582
 10
148.8439939338719
 20
86.13478332061582
 10
148.8439939338719
 20
86.21945192512754
 10
148.8439939338719
 20
86.30411514667756
 10
148.9286571554219
 20
86.30411514667756
 10
148.9286571554219
 20
86.38878375118926
 10
148.9286571554219
 20
86.47345235570098
 10
149.0133203769719
 20
86.47345235570098
 10
149.0979943644453
 20
86.55811557725099
  0
HATCH
  5
A9
330
70
100
AcDbEntity
  8
Capa 1
 62
    18
420
        0
440
 33554687
100
AcDbHatch
 10
0.0
 20
0.0
 30
0.0
210
0.0
220
0.0
230
1.0
  2
SOLID
 70
     1
 71
     1
 91
        1
 92
        3
 72
     0
 73
     1
 93
       36
 10
148.5053195158251
 20
86.21945192512754
 10
148.5053195158251
 20
86.21945192512754
 10
148.5053195158251
 20
85.8807828900424
 10
148.5899935032984
 20
85.79611966849238
 10
148.5899935032984
 20
85.71145106398068
 10
148.6746567248485
 20
85.62678245946896
 10
148.6746567248485
 20
85.54211923791894
 10
148.7593199463985
 20
85.45745063340723
 10
148.7593199463985
 20
85.37278202889552
 10
148.8439939338719
 20
85.37278202889552
 10
148.9286571554219
 20
85.28811880734551
 10
149.0133203769719
 20
85.28811880734551
 10
149.0979943644453
 20
85.20345020283379
 10
149.6059952255922
 20
85.54211923791894
 10
149.5213212381188
 20
85.45745063340723
 10
149.4366580165688
 20
85.45745063340723
 10
149.3519947950188
 20
85.45745063340723
 10
149.2673208075453
 20
85.45745063340723
 10
149.2673208075453
 20
85.54211923791894
 10
149.1826575859954
 20
85.54211923791894
 10
149.0979943644453
 20
85.54211923791894
 10
149.0979943644453
 20
85.62678245946896
 10
149.0133203769719
 20
85.62678245946896
 10
148.9286571554219
 20
85.71145106398068
 10
148.9286571554219
 20
85.79611966849238
 10
148.8439939338719
 20
85.8807828900424
 10
148.8439939338719
 20
85.9654514945541
 10
148.8439939338719
 20
86.05012009906582
 10
148.8439939338719
 20
86.13478332061582
 10
148.8439939338719
 20
86.21945192512754
 10
148.8439939338719
 20
86.30411514667756
 10
148.9286571554219
 20
86.30411514667756
 10
148.9286571554219
 20
86.38878375118926
 10
148.9286571554219
 20
86.47345235570098
 10
149.0133203769719
 20
86.47345235570098
 10
149.0979943644453
 20
86.55811557725099
 97
        0
 75
     0
 76
     1
 98
        1
 10
0.0
 20
0.0
450
        0
451
        0
460
0.0
461
0.0
452
        0
462
0.0
453
        0
470

  0
LWPOLYLINE
  5
AA
330
70
100
AcDbEntity
  8
Capa 1
100
AcDbPolyline
 90
       84
 70
     0
 43
0.0
 10
148.9286571554219
 20
86.72744740331273
 10
148.9286571554219
 20
86.72744740331273
 10
148.8439939338719
 20
86.64278418176271
 10
148.7593199463985
 20
86.64278418176271
 10
148.7593199463985
 20
86.55811557725099
 10
148.6746567248485
 20
86.55811557725099
 10
148.6746567248485
 20
86.47345235570098
 10
148.5899935032984
 20
86.47345235570098
 10
148.5899935032984
 20
86.38878375118926
 10
148.5899935032984
 20
86.30411514667756
 10
148.5053195158251
 20
86.21945192512754
 10
149.0979943644453
 20
86.55811557725099
 10
149.1826575859954
 20
86.55811557725099
 10
149.2673208075453
 20
86.55811557725099
 10
149.3519947950188
 20
86.55811557725099
 10
149.4366580165688
 20
86.55811557725099
 10
149.5213212381188
 20
86.55811557725099
 10
149.6059952255922
 20
86.47345235570098
 10
149.6906584471422
 20
86.38878375118926
 10
149.6906584471422
 20
86.30411514667756
 10
149.7753216686922
 20
86.30411514667756
 10
149.7753216686922
 20
86.21945192512754
 10
149.7753216686922
 20
86.13478332061582
 10
149.8599956561656
 20
86.13478332061582
 10
149.8599956561656
 20
86.05012009906582
 10
149.8599956561656
 20
85.9654514945541
 10
149.8599956561656
 20
85.8807828900424
 10
149.8599956561656
 20
85.79611966849238
 10
149.7753216686922
 20
85.71145106398068
 10
150.0293220992656
 20
85.8807828900424
 10
150.1139960867391
 20
85.79611966849238
 10
150.1139960867391
 20
85.71145106398068
 10
150.1139960867391
 20
85.62678245946896
 10
150.1986593082891
 20
85.62678245946896
 10
150.1986593082891
 20
85.54211923791894
 10
150.1986593082891
 20
85.45745063340723
 10
150.1986593082891
 20
85.37278202889552
 10
150.2833225298391
 20
85.37278202889552
 10
150.2833225298391
 20
85.28811880734551
 10
150.2833225298391
 20
85.20345020283379
 10
150.2833225298391
 20
85.11878698128379
 10
150.2833225298391
 20
85.03411837677207
 10
150.1986593082891
 20
84.94944977226037
 10
150.1986593082891
 20
84.86478655071035
 10
150.1139960867391
 20
84.78011794619865
 10
150.0293220992656
 20
84.69544934168693
 10
150.5373229604125
 20
84.94944977226037
 10
150.5373229604125
 20
85.03411837677207
 10
150.5373229604125
 20
85.11878698128379
 10
150.5373229604125
 20
85.20345020283379
 10
150.5373229604125
 20
85.28811880734551
 10
150.5373229604125
 20
85.37278202889552
 10
150.5373229604125
 20
85.45745063340723
 10
150.5373229604125
 20
85.54211923791894
 10
150.4526597388625
 20
85.54211923791894
 10
150.4526597388625
 20
85.62678245946896
 10
150.4526597388625
 20
85.71145106398068
 10
150.4526597388625
 20
85.79611966849238
 10
150.3679965173125
 20
85.79611966849238
 10
150.3679965173125
 20
85.8807828900424
 10
150.2833225298391
 20
85.9654514945541
 10
150.2833225298391
 20
86.05012009906582
 10
150.2833225298391
 20
86.13478332061582
 10
150.1986593082891
 20
86.13478332061582
 10
150.1986593082891
 20
86.21945192512754
 10
150.1139960867391
 20
86.30411514667756
 10
150.0293220992656
 20
86.38878375118926
 10
150.0293220992656
 20
86.47345235570098
 10
149.9446588777156
 20
86.47345235570098
 10
149.9446588777156
 20
86.55811557725099
 10
149.8599956561656
 20
86.55811557725099
 10
149.8599956561656
 20
86.64278418176271
 10
149.7753216686922
 20
86.64278418176271
 10
149.7753216686922
 20
86.72744740331273
 10
149.6906584471422
 20
86.72744740331273
 10
149.6059952255922
 20
86.81211062486273
 10
149.5213212381188
 20
86.81211062486273
 10
149.4366580165688
 20
86.81211062486273
 10
149.3519947950188
 20
86.81211062486273
 10
149.2673208075453
 20
86.81211062486273
 10
149.1826575859954
 20
86.81211062486273
 10
149.0979943644453
 20
86.81211062486273
 10
149.0133203769719
 20
86.81211062486273
 10
148.9286571554219
 20
86.72744740331273
  0
HATCH
  5
AB
330
70
100
AcDbEntity
  8
Capa 1
 62
    18
420
        0
440
 33554687
100
AcDbHatch
 10
0.0
 20
0.0
 30
0.0
210
0.0
220
0.0
230
1.0
  2
SOLID
 70
     1
 71
     1
 91
        1
 92
        3
 72
     0
 73
     1
 93
       84
 10
148.9286571554219
 20
86.72744740331273
 10
148.9286571554219
 20
86.72744740331273
 10
148.8439939338719
 20
86.64278418176271
 10
148.7593199463985
 20
86.64278418176271
 10
148.7593199463985
 20
86.55811557725099
 10
148.6746567248485
 20
86.55811557725099
 10
148.6746567248485
 20
86.47345235570098
 10
148.5899935032984
 20
86.47345235570098
 10
148.5899935032984
 20
86.38878375118926
 10
148.5899935032984
 20
86.30411514667756
 10
148.5053195158251
 20
86.21945192512754
 10
149.0979943644453
 20
86.55811557725099
 10
149.1826575859954
 20
86.55811557725099
 10
149.2673208075453
 20
86.55811557725099
 10
149.3519947950188
 20
86.55811557725099
 10
149.4366580165688
 20
86.55811557725099
 10
149.5213212381188
 20
86.55811557725099
 10
149.6059952255922
 20
86.47345235570098
 10
149.6906584471422
 20
86.38878375118926
 10
149.6906584471422
 20
86.30411514667756
 10
149.7753216686922
 20
86.30411514667756
 10
149.7753216686922
 20
86.21945192512754
 10
149.7753216686922
 20
86.13478332061582
 10
149.8599956561656
 20
86.13478332061582
 10
149.8599956561656
 20
86.05012009906582
 10
149.8599956561656
 20
85.9654514945541
 10
149.8599956561656
 20
85.8807828900424
 10
149.8599956561656
 20
85.79611966849238
 10
149.7753216686922
 20
85.71145106398068
 10
150.0293220992656
 20
85.8807828900424
 10
150.1139960867391
 20
85.79611966849238
 10
150.1139960867391
 20
85.71145106398068
 10
150.1139960867391
 20
85.62678245946896
 10
150.1986593082891
 20
85.62678245946896
 10
150.1986593082891
 20
85.54211923791894
 10
150.1986593082891
 20
85.45745063340723
 10
150.1986593082891
 20
85.37278202889552
 10
150.2833225298391
 20
85.37278202889552
 10
150.2833225298391
 20
85.28811880734551
 10
150.2833225298391
 20
85.20345020283379
 10
150.2833225298391
 20
85.11878698128379
 10
150.2833225298391
 20
85.03411837677207
 10
150.1986593082891
 20
84.94944977226037
 10
150.1986593082891
 20
84.86478655071035
 10
150.1139960867391
 20
84.78011794619865
 10
150.0293220992656
 20
84.69544934168693
 10
150.5373229604125
 20
84.94944977226037
 10
150.5373229604125
 20
85.03411837677207
 10
150.5373229604125
 20
85.11878698128379
 10
150.5373229604125
 20
85.20345020283379
 10
150.5373229604125
 20
85.28811880734551
 10
150.5373229604125
 20
85.37278202889552
 10
150.5373229604125
 20
85.45745063340723
 10
150.5373229604125
 20
85.54211923791894
 10
150.4526597388625
 20
85.54211923791894
 10
150.4526597388625
 20
85.62678245946896
 10
150.4526597388625
 20
85.71145106398068
 10
150.4526597388625
 20
85.79611966849238
 10
150.3679965173125
 20
85.79611966849238
 10
150.3679965173125
 20
85.8807828900424
 10
150.2833225298391
 20
85.9654514945541
 10
150.2833225298391
 20
86.05012009906582
 10
150.2833225298391
 20
86.13478332061582
 10
150.1986593082891
 20
86.13478332061582
 10
150.1986593082891
 20
86.21945192512754
 10
150.1139960867391
 20
86.30411514667756
 10
150.0293220992656
 20
86.38878375118926
 10
150.0293220992656
 20
86.47345235570098
 10
149.9446588777156
 20
86.47345235570098
 10
149.9446588777156
 20
86.55811557725099
 10
149.8599956561656
 20
86.55811557725099
 10
149.8599956561656
 20
86.64278418176271
 10
149.7753216686922
 20
86.64278418176271
 10
149.7753216686922
 20
86.72744740331273
 10
149.6906584471422
 20
86.72744740331273
 10
149.6059952255922
 20
86.81211062486273
 10
149.5213212381188
 20
86.81211062486273
 10
149.4366580165688
 20
86.81211062486273
 10
149.3519947950188
 20
86.81211062486273
 10
149.2673208075453
 20
86.81211062486273
 10
149.1826575859954
 20
86.81211062486273
 10
149.0979943644453
 20
86.81211062486273
 10
149.0133203769719
 20
86.81211062486273
 10
148.9286571554219
 20
86.72744740331273
 97
        0
 75
     0
 76
     1
 98
        1
 10
0.0
 20
0.0
450
        0
451
        0
460
0.0
461
0.0
452
        0
462
0.0
453
        0
470

  0
LWPOLYLINE
  5
AC
330
70
100
AcDbEntity
  8
Capa 1
100
AcDbPolyline
 90
       30
 70
     0
 43
0.0
 10
151.1299870431094
 20
85.8807828900424
 10
150.875986612536
 20
85.62678245946896
 10
150.9606606000094
 20
85.62678245946896
 10
150.9606606000094
 20
85.54211923791894
 10
151.0453238215594
 20
85.54211923791894
 10
151.1299870431094
 20
85.45745063340723
 10
151.2146610305828
 20
85.45745063340723
 10
151.2993242521328
 20
85.37278202889552
 10
151.3839874736829
 20
85.37278202889552
 10
151.4686614611562
 20
85.37278202889552
 10
151.5533246827063
 20
85.37278202889552
 10
151.6379879042563
 20
85.37278202889552
 10
151.7226618917297
 20
85.45745063340723
 10
151.8073251132797
 20
85.45745063340723
 10
151.8919883348297
 20
85.54211923791894
 10
151.9766623223031
 20
85.54211923791894
 10
152.0613255438531
 20
85.62678245946896
 10
152.0613255438531
 20
85.71145106398068
 10
152.1459887654032
 20
85.71145106398068
 10
152.1459887654032
 20
85.79611966849238
 10
152.1459887654032
 20
85.8807828900424
 10
152.2306627528766
 20
85.8807828900424
 10
152.2306627528766
 20
85.9654514945541
 10
151.7226618917297
 20
85.71145106398068
 10
151.6379879042563
 20
85.62678245946896
 10
151.5533246827063
 20
85.62678245946896
 10
151.4686614611562
 20
85.62678245946896
 10
151.3839874736829
 20
85.62678245946896
 10
151.2993242521328
 20
85.71145106398068
 10
151.2146610305828
 20
85.79611966849238
  0
HATCH
  5
AD
330
70
100
AcDbEntity
  8
Capa 1
 62
    18
420
        0
440
 33554687
100
AcDbHatch
 10
0.0
 20
0.0
 30
0.0
210
0.0
220
0.0
230
1.0
  2
SOLID
 70
     1
 71
     1
 91
        1
 92
        3
 72
     0
 73
     1
 93
       30
 10
151.1299870431094
 20
85.8807828900424
 10
150.875986612536
 20
85.62678245946896
 10
150.9606606000094
 20
85.62678245946896
 10
150.9606606000094
 20
85.54211923791894
 10
151.0453238215594
 20
85.54211923791894
 10
151.1299870431094
 20
85.45745063340723
 10
151.2146610305828
 20
85.45745063340723
 10
151.2993242521328
 20
85.37278202889552
 10
151.3839874736829
 20
85.37278202889552
 10
151.4686614611562
 20
85.37278202889552
 10
151.5533246827063
 20
85.37278202889552
 10
151.6379879042563
 20
85.37278202889552
 10
151.7226618917297
 20
85.45745063340723
 10
151.8073251132797
 20
85.45745063340723
 10
151.8919883348297
 20
85.54211923791894
 10
151.9766623223031
 20
85.54211923791894
 10
152.0613255438531
 20
85.62678245946896
 10
152.0613255438531
 20
85.71145106398068
 10
152.1459887654032
 20
85.71145106398068
 10
152.1459887654032
 20
85.79611966849238
 10
152.1459887654032
 20
85.8807828900424
 10
152.2306627528766
 20
85.8807828900424
 10
152.2306627528766
 20
85.9654514945541
 10
151.7226618917297
 20
85.71145106398068
 10
151.6379879042563
 20
85.62678245946896
 10
151.5533246827063
 20
85.62678245946896
 10
151.4686614611562
 20
85.62678245946896
 10
151.3839874736829
 20
85.62678245946896
 10
151.2993242521328
 20
85.71145106398068
 10
151.2146610305828
 20
85.79611966849238
 97
        0
 75
     0
 76
     1
 98
        1
 10
0.0
 20
0.0
450
        0
451
        0
460
0.0
461
0.0
452
        0
462
0.0
453
        0
470

  0
LWPOLYLINE
  5
AE
330
70
100
AcDbEntity
  8
Capa 1
100
AcDbPolyline
 90
       22
 70
     0
 43
0.0
 10
151.4686614611562
 20
86.72744740331273
 10
151.4686614611562
 20
86.64278418176271
 10
151.3839874736829
 20
86.64278418176271
 10
151.3839874736829
 20
86.55811557725099
 10
151.2993242521328
 20
86.55811557725099
 10
150.7913233909859
 20
86.21945192512754
 10
150.875986612536
 20
86.13478332061582
 10
150.9606606000094
 20
86.13478332061582
 10
151.0453238215594
 20
86.13478332061582
 10
151.1299870431094
 20
86.13478332061582
 10
151.2146610305828
 20
86.13478332061582
 10
151.2146610305828
 20
86.21945192512754
 10
151.2993242521328
 20
86.21945192512754
 10
151.3839874736829
 20
86.21945192512754
 10
151.4686614611562
 20
86.30411514667756
 10
151.5533246827063
 20
86.38878375118926
 10
151.5533246827063
 20
86.47345235570098
 10
151.6379879042563
 20
86.47345235570098
 10
151.6379879042563
 20
86.55811557725099
 10
151.7226618917297
 20
86.64278418176271
 10
151.7226618917297
 20
86.72744740331273
 10
151.7226618917297
 20
86.81211062486273
  0
HATCH
  5
AF
330
70
100
AcDbEntity
  8
Capa 1
 62
    18
420
        0
440
 33554687
100
AcDbHatch
 10
0.0
 20
0.0
 30
0.0
210
0.0
220
0.0
230
1.0
  2
SOLID
 70
     1
 71
     1
 91
        1
 92
        3
 72
     0
 73
     1
 93
       22
 10
151.4686614611562
 20
86.72744740331273
 10
151.4686614611562
 20
86.64278418176271
 10
151.3839874736829
 20
86.64278418176271
 10
151.3839874736829
 20
86.55811557725099
 10
151.2993242521328
 20
86.55811557725099
 10
150.7913233909859
 20
86.21945192512754
 10
150.875986612536
 20
86.13478332061582
 10
150.9606606000094
 20
86.13478332061582
 10
151.0453238215594
 20
86.13478332061582
 10
151.1299870431094
 20
86.13478332061582
 10
151.2146610305828
 20
86.13478332061582
 10
151.2146610305828
 20
86.21945192512754
 10
151.2993242521328
 20
86.21945192512754
 10
151.3839874736829
 20
86.21945192512754
 10
151.4686614611562
 20
86.30411514667756
 10
151.5533246827063
 20
86.38878375118926
 10
151.5533246827063
 20
86.47345235570098
 10
151.6379879042563
 20
86.47345235570098
 10
151.6379879042563
 20
86.55811557725099
 10
151.7226618917297
 20
86.64278418176271
 10
151.7226618917297
 20
86.72744740331273
 10
151.7226618917297
 20
86.81211062486273
 97
        0
 75
     0
 76
     1
 98
        1
 10
0.0
 20
0.0
450
        0
451
        0
460
0.0
461
0.0
452
        0
462
0.0
453
        0
470

  0
LWPOLYLINE
  5
B0
330
70
100
AcDbEntity
  8
Capa 1
100
AcDbPolyline
 90
       34
 70
     0
 43
0.0
 10
150.1986593082891
 20
87.23544826445959
 10
150.1986593082891
 20
86.81211062486273
 10
150.2833225298391
 20
86.81211062486273
 10
150.2833225298391
 20
86.64278418176271
 10
150.3679965173125
 20
86.55811557725099
 10
150.3679965173125
 20
86.47345235570098
 10
150.4526597388625
 20
86.47345235570098
 10
150.4526597388625
 20
86.38878375118926
 10
150.5373229604125
 20
86.30411514667756
 10
150.6219861819625
 20
86.30411514667756
 10
150.6219861819625
 20
86.21945192512754
 10
150.7066601694359
 20
86.21945192512754
 10
150.7913233909859
 20
86.21945192512754
 10
151.2993242521328
 20
86.55811557725099
 10
151.2146610305828
 20
86.47345235570098
 10
151.1299870431094
 20
86.47345235570098
 10
151.0453238215594
 20
86.47345235570098
 10
150.9606606000094
 20
86.47345235570098
 10
150.875986612536
 20
86.47345235570098
 10
150.7913233909859
 20
86.55811557725099
 10
150.7066601694359
 20
86.55811557725099
 10
150.7066601694359
 20
86.64278418176271
 10
150.6219861819625
 20
86.64278418176271
 10
150.6219861819625
 20
86.72744740331273
 10
150.6219861819625
 20
86.81211062486273
 10
150.5373229604125
 20
86.89677922937445
 10
150.5373229604125
 20
86.98144783388615
 10
150.5373229604125
 20
87.06611105543617
 10
150.5373229604125
 20
87.15077965994787
 10
150.5373229604125
 20
87.23544826445959
 10
150.5373229604125
 20
87.3201114860096
 10
150.6219861819625
 20
87.40478009052131
 10
150.7066601694359
 20
87.48944331207132
 10
150.7913233909859
 20
87.48944331207132
  0
HATCH
  5
B1
330
70
100
AcDbEntity
  8
Capa 1
 62
    18
420
        0
440
 33554687
100
AcDbHatch
 10
0.0
 20
0.0
 30
0.0
210
0.0
220
0.0
230
1.0
  2
SOLID
 70
     1
 71
     1
 91
        1
 92
        3
 72
     0
 73
     1
 93
       34
 10
150.1986593082891
 20
87.23544826445959
 10
150.1986593082891
 20
86.81211062486273
 10
150.2833225298391
 20
86.81211062486273
 10
150.2833225298391
 20
86.64278418176271
 10
150.3679965173125
 20
86.55811557725099
 10
150.3679965173125
 20
86.47345235570098
 10
150.4526597388625
 20
86.47345235570098
 10
150.4526597388625
 20
86.38878375118926
 10
150.5373229604125
 20
86.30411514667756
 10
150.6219861819625
 20
86.30411514667756
 10
150.6219861819625
 20
86.21945192512754
 10
150.7066601694359
 20
86.21945192512754
 10
150.7913233909859
 20
86.21945192512754
 10
151.2993242521328
 20
86.55811557725099
 10
151.2146610305828
 20
86.47345235570098
 10
151.1299870431094
 20
86.47345235570098
 10
151.0453238215594
 20
86.47345235570098
 10
150.9606606000094
 20
86.47345235570098
 10
150.875986612536
 20
86.47345235570098
 10
150.7913233909859
 20
86.55811557725099
 10
150.7066601694359
 20
86.55811557725099
 10
150.7066601694359
 20
86.64278418176271
 10
150.6219861819625
 20
86.64278418176271
 10
150.6219861819625
 20
86.72744740331273
 10
150.6219861819625
 20
86.81211062486273
 10
150.5373229604125
 20
86.89677922937445
 10
150.5373229604125
 20
86.98144783388615
 10
150.5373229604125
 20
87.06611105543617
 10
150.5373229604125
 20
87.15077965994787
 10
150.5373229604125
 20
87.23544826445959
 10
150.5373229604125
 20
87.3201114860096
 10
150.6219861819625
 20
87.40478009052131
 10
150.7066601694359
 20
87.48944331207132
 10
150.7913233909859
 20
87.48944331207132
 97
        0
 75
     0
 76
     1
 98
        1
 10
0.0
 20
0.0
450
        0
451
        0
460
0.0
461
0.0
452
        0
462
0.0
453
        0
470

  0
LWPOLYLINE
  5
B2
330
70
100
AcDbEntity
  8
Capa 1
100
AcDbPolyline
 90
       75
 70
     0
 43
0.0
 10
150.6219861819625
 20
87.65878052109476
 10
150.6219861819625
 20
87.65878052109476
 10
150.5373229604125
 20
87.65878052109476
 10
150.4526597388625
 20
87.57411191658304
 10
150.3679965173125
 20
87.48944331207132
 10
150.2833225298391
 20
87.40478009052131
 10
150.2833225298391
 20
87.3201114860096
 10
150.1986593082891
 20
87.23544826445959
 10
150.7913233909859
 20
87.48944331207132
 10
150.875986612536
 20
87.57411191658304
 10
150.9606606000094
 20
87.57411191658304
 10
151.0453238215594
 20
87.57411191658304
 10
151.1299870431094
 20
87.57411191658304
 10
151.1299870431094
 20
87.48944331207132
 10
151.2146610305828
 20
87.48944331207132
 10
151.2993242521328
 20
87.48944331207132
 10
151.2993242521328
 20
87.40478009052131
 10
151.3839874736829
 20
87.40478009052131
 10
151.3839874736829
 20
87.3201114860096
 10
151.4686614611562
 20
87.23544826445959
 10
151.4686614611562
 20
87.15077965994787
 10
151.5533246827063
 20
87.06611105543617
 10
151.5533246827063
 20
86.98144783388615
 10
151.5533246827063
 20
86.89677922937445
 10
151.5533246827063
 20
86.81211062486273
 10
151.5533246827063
 20
86.72744740331273
 10
151.4686614611562
 20
86.72744740331273
 10
151.7226618917297
 20
86.81211062486273
 10
151.8073251132797
 20
86.72744740331273
 10
151.8073251132797
 20
86.64278418176271
 10
151.8919883348297
 20
86.55811557725099
 10
151.8919883348297
 20
86.47345235570098
 10
151.8919883348297
 20
86.38878375118926
 10
151.9766623223031
 20
86.30411514667756
 10
151.9766623223031
 20
86.21945192512754
 10
151.9766623223031
 20
86.13478332061582
 10
151.9766623223031
 20
86.05012009906582
 10
151.8919883348297
 20
85.9654514945541
 10
151.8919883348297
 20
85.8807828900424
 10
151.8073251132797
 20
85.79611966849238
 10
151.8073251132797
 20
85.71145106398068
 10
151.7226618917297
 20
85.71145106398068
 10
152.2306627528766
 20
85.9654514945541
 10
152.2306627528766
 20
86.05012009906582
 10
152.2306627528766
 20
86.13478332061582
 10
152.2306627528766
 20
86.21945192512754
 10
152.2306627528766
 20
86.30411514667756
 10
152.2306627528766
 20
86.38878375118926
 10
152.2306627528766
 20
86.47345235570098
 10
152.1459887654032
 20
86.55811557725099
 10
152.1459887654032
 20
86.64278418176271
 10
152.1459887654032
 20
86.72744740331273
 10
152.0613255438531
 20
86.81211062486273
 10
152.0613255438531
 20
86.89677922937445
 10
151.9766623223031
 20
86.98144783388615
 10
151.8919883348297
 20
87.06611105543617
 10
151.8919883348297
 20
87.15077965994787
 10
151.8073251132797
 20
87.23544826445959
 10
151.8073251132797
 20
87.3201114860096
 10
151.7226618917297
 20
87.40478009052131
 10
151.6379879042563
 20
87.48944331207132
 10
151.5533246827063
 20
87.57411191658304
 10
151.4686614611562
 20
87.65878052109476
 10
151.3839874736829
 20
87.65878052109476
 10
151.3839874736829
 20
87.74344374264476
 10
151.2993242521328
 20
87.74344374264476
 10
151.2146610305828
 20
87.74344374264476
 10
151.2146610305828
 20
87.82811234715648
 10
151.1299870431094
 20
87.82811234715648
 10
151.0453238215594
 20
87.82811234715648
 10
150.9606606000094
 20
87.82811234715648
 10
150.875986612536
 20
87.82811234715648
 10
150.7913233909859
 20
87.74344374264476
 10
150.7066601694359
 20
87.74344374264476
 10
150.6219861819625
 20
87.74344374264476
  0
HATCH
  5
B3
330
70
100
AcDbEntity
  8
Capa 1
 62
    18
420
        0
440
 33554687
100
AcDbHatch
 10
0.0
 20
0.0
 30
0.0
210
0.0
220
0.0
230
1.0
  2
SOLID
 70
     1
 71
     1
 91
        1
 92
        3
 72
     0
 73
     1
 93
       75
 10
150.6219861819625
 20
87.65878052109476
 10
150.6219861819625
 20
87.65878052109476
 10
150.5373229604125
 20
87.65878052109476
 10
150.4526597388625
 20
87.57411191658304
 10
150.3679965173125
 20
87.48944331207132
 10
150.2833225298391
 20
87.40478009052131
 10
150.2833225298391
 20
87.3201114860096
 10
150.1986593082891
 20
87.23544826445959
 10
150.7913233909859
 20
87.48944331207132
 10
150.875986612536
 20
87.57411191658304
 10
150.9606606000094
 20
87.57411191658304
 10
151.0453238215594
 20
87.57411191658304
 10
151.1299870431094
 20
87.57411191658304
 10
151.1299870431094
 20
87.48944331207132
 10
151.2146610305828
 20
87.48944331207132
 10
151.2993242521328
 20
87.48944331207132
 10
151.2993242521328
 20
87.40478009052131
 10
151.3839874736829
 20
87.40478009052131
 10
151.3839874736829
 20
87.3201114860096
 10
151.4686614611562
 20
87.23544826445959
 10
151.4686614611562
 20
87.15077965994787
 10
151.5533246827063
 20
87.06611105543617
 10
151.5533246827063
 20
86.98144783388615
 10
151.5533246827063
 20
86.89677922937445
 10
151.5533246827063
 20
86.81211062486273
 10
151.5533246827063
 20
86.72744740331273
 10
151.4686614611562
 20
86.72744740331273
 10
151.7226618917297
 20
86.81211062486273
 10
151.8073251132797
 20
86.72744740331273
 10
151.8073251132797
 20
86.64278418176271
 10
151.8919883348297
 20
86.55811557725099
 10
151.8919883348297
 20
86.47345235570098
 10
151.8919883348297
 20
86.38878375118926
 10
151.9766623223031
 20
86.30411514667756
 10
151.9766623223031
 20
86.21945192512754
 10
151.9766623223031
 20
86.13478332061582
 10
151.9766623223031
 20
86.05012009906582
 10
151.8919883348297
 20
85.9654514945541
 10
151.8919883348297
 20
85.8807828900424
 10
151.8073251132797
 20
85.79611966849238
 10
151.8073251132797
 20
85.71145106398068
 10
151.7226618917297
 20
85.71145106398068
 10
152.2306627528766
 20
85.9654514945541
 10
152.2306627528766
 20
86.05012009906582
 10
152.2306627528766
 20
86.13478332061582
 10
152.2306627528766
 20
86.21945192512754
 10
152.2306627528766
 20
86.30411514667756
 10
152.2306627528766
 20
86.38878375118926
 10
152.2306627528766
 20
86.47345235570098
 10
152.1459887654032
 20
86.55811557725099
 10
152.1459887654032
 20
86.64278418176271
 10
152.1459887654032
 20
86.72744740331273
 10
152.0613255438531
 20
86.81211062486273
 10
152.0613255438531
 20
86.89677922937445
 10
151.9766623223031
 20
86.98144783388615
 10
151.8919883348297
 20
87.06611105543617
 10
151.8919883348297
 20
87.15077965994787
 10
151.8073251132797
 20
87.23544826445959
 10
151.8073251132797
 20
87.3201114860096
 10
151.7226618917297
 20
87.40478009052131
 10
151.6379879042563
 20
87.48944331207132
 10
151.5533246827063
 20
87.57411191658304
 10
151.4686614611562
 20
87.65878052109476
 10
151.3839874736829
 20
87.65878052109476
 10
151.3839874736829
 20
87.74344374264476
 10
151.2993242521328
 20
87.74344374264476
 10
151.2146610305828
 20
87.74344374264476
 10
151.2146610305828
 20
87.82811234715648
 10
151.1299870431094
 20
87.82811234715648
 10
151.0453238215594
 20
87.82811234715648
 10
150.9606606000094
 20
87.82811234715648
 10
150.875986612536
 20
87.82811234715648
 10
150.7913233909859
 20
87.74344374264476
 10
150.7066601694359
 20
87.74344374264476
 10
150.6219861819625
 20
87.74344374264476
 97
        0
 75
     0
 76
     1
 98
        1
 10
0.0
 20
0.0
450
        0
451
        0
460
0.0
461
0.0
452
        0
462
0.0
453
        0
470

  0
LWPOLYLINE
  5
B4
330
70
100
AcDbEntity
  8
Capa 1
100
AcDbPolyline
 90
       31
 70
     0
 43
0.0
 10
152.8233268355735
 20
86.89677922937445
 10
152.48466318345
 20
86.72744740331273
 10
152.569326405
 20
86.64278418176271
 10
152.65398962655
 20
86.55811557725099
 10
152.65398962655
 20
86.47345235570098
 10
152.7386528481
 20
86.47345235570098
 10
152.8233268355735
 20
86.47345235570098
 10
152.8233268355735
 20
86.38878375118926
 10
152.9079900571235
 20
86.38878375118926
 10
152.9926532786735
 20
86.38878375118926
 10
153.0773272661469
 20
86.38878375118926
 10
153.1619904876969
 20
86.38878375118926
 10
153.2466537092469
 20
86.38878375118926
 10
153.3313276967203
 20
86.38878375118926
 10
153.4159909182703
 20
86.38878375118926
 10
153.5006541398203
 20
86.47345235570098
 10
153.5853281272938
 20
86.47345235570098
 10
153.6699913488438
 20
86.55811557725099
 10
153.7546545703938
 20
86.64278418176271
 10
153.8393285578672
 20
86.72744740331273
 10
153.9239917794172
 20
86.81211062486273
 10
153.9239917794172
 20
86.89677922937445
 10
153.9239917794172
 20
86.98144783388615
 10
153.4159909182703
 20
86.72744740331273
 10
153.3313276967203
 20
86.64278418176271
 10
153.2466537092469
 20
86.64278418176271
 10
153.1619904876969
 20
86.64278418176271
 10
153.0773272661469
 20
86.64278418176271
 10
152.9926532786735
 20
86.72744740331273
 10
152.9079900571235
 20
86.72744740331273
 10
152.8233268355735
 20
86.81211062486273
  0
HATCH
  5
B5
330
70
100
AcDbEntity
  8
Capa 1
 62
    18
420
        0
440
 33554687
100
AcDbHatch
 10
0.0
 20
0.0
 30
0.0
210
0.0
220
0.0
230
1.0
  2
SOLID
 70
     1
 71
     1
 91
        1
 92
        3
 72
     0
 73
     1
 93
       31
 10
152.8233268355735
 20
86.89677922937445
 10
152.48466318345
 20
86.72744740331273
 10
152.569326405
 20
86.64278418176271
 10
152.65398962655
 20
86.55811557725099
 10
152.65398962655
 20
86.47345235570098
 10
152.7386528481
 20
86.47345235570098
 10
152.8233268355735
 20
86.47345235570098
 10
152.8233268355735
 20
86.38878375118926
 10
152.9079900571235
 20
86.38878375118926
 10
152.9926532786735
 20
86.38878375118926
 10
153.0773272661469
 20
86.38878375118926
 10
153.1619904876969
 20
86.38878375118926
 10
153.2466537092469
 20
86.38878375118926
 10
153.3313276967203
 20
86.38878375118926
 10
153.4159909182703
 20
86.38878375118926
 10
153.5006541398203
 20
86.47345235570098
 10
153.5853281272938
 20
86.47345235570098
 10
153.6699913488438
 20
86.55811557725099
 10
153.7546545703938
 20
86.64278418176271
 10
153.8393285578672
 20
86.72744740331273
 10
153.9239917794172
 20
86.81211062486273
 10
153.9239917794172
 20
86.89677922937445
 10
153.9239917794172
 20
86.98144783388615
 10
153.4159909182703
 20
86.72744740331273
 10
153.3313276967203
 20
86.64278418176271
 10
153.2466537092469
 20
86.64278418176271
 10
153.1619904876969
 20
86.64278418176271
 10
153.0773272661469
 20
86.64278418176271
 10
152.9926532786735
 20
86.72744740331273
 10
152.9079900571235
 20
86.72744740331273
 10
152.8233268355735
 20
86.81211062486273
 97
        0
 75
     0
 76
     1
 98
        1
 10
0.0
 20
0.0
450
        0
451
        0
460
0.0
461
0.0
452
        0
462
0.0
453
        0
470

  0
LWPOLYLINE
  5
B6
330
70
100
AcDbEntity
  8
Capa 1
100
AcDbPolyline
 90
       40
 70
     0
 43
0.0
 10
153.3313276967203
 20
88.0821127777299
 10
152.8233268355735
 20
87.74344374264476
 10
152.9079900571235
 20
87.74344374264476
 10
152.9926532786735
 20
87.74344374264476
 10
153.0773272661469
 20
87.82811234715648
 10
153.1619904876969
 20
87.82811234715648
 10
153.2466537092469
 20
87.74344374264476
 10
153.3313276967203
 20
87.74344374264476
 10
153.4159909182703
 20
87.74344374264476
 10
153.4159909182703
 20
87.65878052109476
 10
153.5006541398203
 20
87.57411191658304
 10
153.5853281272938
 20
87.57411191658304
 10
153.5853281272938
 20
87.48944331207132
 10
153.5853281272938
 20
87.40478009052131
 10
153.6699913488438
 20
87.3201114860096
 10
153.6699913488438
 20
87.23544826445959
 10
153.6699913488438
 20
87.15077965994787
 10
153.6699913488438
 20
87.06611105543617
 10
153.6699913488438
 20
86.98144783388615
 10
153.5853281272938
 20
86.89677922937445
 10
153.5853281272938
 20
86.81211062486273
 10
153.5006541398203
 20
86.72744740331273
 10
153.4159909182703
 20
86.72744740331273
 10
153.9239917794172
 20
86.98144783388615
 10
154.0086550009672
 20
87.06611105543617
 10
154.0086550009672
 20
87.15077965994787
 10
154.0086550009672
 20
87.23544826445959
 10
154.0086550009672
 20
87.3201114860096
 10
153.9239917794172
 20
87.40478009052131
 10
153.9239917794172
 20
87.48944331207132
 10
153.9239917794172
 20
87.57411191658304
 10
153.8393285578672
 20
87.65878052109476
 10
153.8393285578672
 20
87.74344374264476
 10
153.7546545703938
 20
87.82811234715648
 10
153.6699913488438
 20
87.82811234715648
 10
153.6699913488438
 20
87.91278095166818
 10
153.5853281272938
 20
87.91278095166818
 10
153.5853281272938
 20
87.9974441732182
 10
153.5006541398203
 20
87.9974441732182
 10
153.4159909182703
 20
88.0821127777299
  0
HATCH
  5
B7
330
70
100
AcDbEntity
  8
Capa 1
 62
    18
420
        0
440
 33554687
100
AcDbHatch
 10
0.0
 20
0.0
 30
0.0
210
0.0
220
0.0
230
1.0
  2
SOLID
 70
     1
 71
     1
 91
        1
 92
        3
 72
     0
 73
     1
 93
       40
 10
153.3313276967203
 20
88.0821127777299
 10
152.8233268355735
 20
87.74344374264476
 10
152.9079900571235
 20
87.74344374264476
 10
152.9926532786735
 20
87.74344374264476
 10
153.0773272661469
 20
87.82811234715648
 10
153.1619904876969
 20
87.82811234715648
 10
153.2466537092469
 20
87.74344374264476
 10
153.3313276967203
 20
87.74344374264476
 10
153.4159909182703
 20
87.74344374264476
 10
153.4159909182703
 20
87.65878052109476
 10
153.5006541398203
 20
87.57411191658304
 10
153.5853281272938
 20
87.57411191658304
 10
153.5853281272938
 20
87.48944331207132
 10
153.5853281272938
 20
87.40478009052131
 10
153.6699913488438
 20
87.3201114860096
 10
153.6699913488438
 20
87.23544826445959
 10
153.6699913488438
 20
87.15077965994787
 10
153.6699913488438
 20
87.06611105543617
 10
153.6699913488438
 20
86.98144783388615
 10
153.5853281272938
 20
86.89677922937445
 10
153.5853281272938
 20
86.81211062486273
 10
153.5006541398203
 20
86.72744740331273
 10
153.4159909182703
 20
86.72744740331273
 10
153.9239917794172
 20
86.98144783388615
 10
154.0086550009672
 20
87.06611105543617
 10
154.0086550009672
 20
87.15077965994787
 10
154.0086550009672
 20
87.23544826445959
 10
154.0086550009672
 20
87.3201114860096
 10
153.9239917794172
 20
87.40478009052131
 10
153.9239917794172
 20
87.48944331207132
 10
153.9239917794172
 20
87.57411191658304
 10
153.8393285578672
 20
87.65878052109476
 10
153.8393285578672
 20
87.74344374264476
 10
153.7546545703938
 20
87.82811234715648
 10
153.6699913488438
 20
87.82811234715648
 10
153.6699913488438
 20
87.91278095166818
 10
153.5853281272938
 20
87.91278095166818
 10
153.5853281272938
 20
87.9974441732182
 10
153.5006541398203
 20
87.9974441732182
 10
153.4159909182703
 20
88.0821127777299
 97
        0
 75
     0
 76
     1
 98
        1
 10
0.0
 20
0.0
450
        0
451
        0
460
0.0
461
0.0
452
        0
462
0.0
453
        0
470

  0
LWPOLYLINE
  5
B8
330
70
100
AcDbEntity
  8
Capa 1
100
AcDbPolyline
 90
       15
 70
     0
 43
0.0
 10
152.8233268355735
 20
87.9974441732182
 10
152.7386528481
 20
87.9974441732182
 10
152.7386528481
 20
87.91278095166818
 10
152.65398962655
 20
87.91278095166818
 10
152.569326405
 20
87.82811234715648
 10
152.48466318345
 20
87.74344374264476
 10
152.48466318345
 20
87.65878052109476
 10
152.48466318345
 20
87.57411191658304
 10
153.3313276967203
 20
88.0821127777299
 10
153.2466537092469
 20
88.0821127777299
 10
153.1619904876969
 20
88.0821127777299
 10
153.0773272661469
 20
88.0821127777299
 10
152.9926532786735
 20
88.0821127777299
 10
152.9079900571235
 20
88.0821127777299
 10
152.8233268355735
 20
87.9974441732182
  0
HATCH
  5
B9
330
70
100
AcDbEntity
  8
Capa 1
 62
    18
420
        0
440
 33554687
100
AcDbHatch
 10
0.0
 20
0.0
 30
0.0
210
0.0
220
0.0
230
1.0
  2
SOLID
 70
     1
 71
     1
 91
        1
 92
        3
 72
     0
 73
     1
 93
       15
 10
152.8233268355735
 20
87.9974441732182
 10
152.7386528481
 20
87.9974441732182
 10
152.7386528481
 20
87.91278095166818
 10
152.65398962655
 20
87.91278095166818
 10
152.569326405
 20
87.82811234715648
 10
152.48466318345
 20
87.74344374264476
 10
152.48466318345
 20
87.65878052109476
 10
152.48466318345
 20
87.57411191658304
 10
153.3313276967203
 20
88.0821127777299
 10
153.2466537092469
 20
88.0821127777299
 10
153.1619904876969
 20
88.0821127777299
 10
153.0773272661469
 20
88.0821127777299
 10
152.9926532786735
 20
88.0821127777299
 10
152.9079900571235
 20
88.0821127777299
 10
152.8233268355735
 20
87.9974441732182
 97
        0
 75
     0
 76
     1
 98
        1
 10
0.0
 20
0.0
450
        0
451
        0
460
0.0
461
0.0
452
        0
462
0.0
453
        0
470

  0
LWPOLYLINE
  5
BA
330
70
100
AcDbEntity
  8
Capa 1
100
AcDbPolyline
 90
       15
 70
     0
 43
0.0
 10
152.9079900571235
 20
89.01344589551193
 10
151.8919883348297
 20
88.42077642985335
 10
152.3153259744266
 20
87.15077965994787
 10
152.569326405
 20
87.23544826445959
 10
152.569326405
 20
87.3201114860096
 10
152.569326405
 20
87.40478009052131
 10
152.65398962655
 20
87.48944331207132
 10
152.65398962655
 20
87.57411191658304
 10
152.7386528481
 20
87.65878052109476
 10
152.8233268355735
 20
87.65878052109476
 10
152.8233268355735
 20
87.74344374264476
 10
153.3313276967203
 20
88.0821127777299
 10
152.48466318345
 20
87.57411191658304
 10
152.2306627528766
 20
88.25144460379164
 10
153.0773272661469
 20
88.75944546493851
  0
HATCH
  5
BB
330
70
100
AcDbEntity
  8
Capa 1
 62
    18
420
        0
440
 33554687
100
AcDbHatch
 10
0.0
 20
0.0
 30
0.0
210
0.0
220
0.0
230
1.0
  2
SOLID
 70
     1
 71
     1
 91
        1
 92
        3
 72
     0
 73
     1
 93
       15
 10
152.9079900571235
 20
89.01344589551193
 10
151.8919883348297
 20
88.42077642985335
 10
152.3153259744266
 20
87.15077965994787
 10
152.569326405
 20
87.23544826445959
 10
152.569326405
 20
87.3201114860096
 10
152.569326405
 20
87.40478009052131
 10
152.65398962655
 20
87.48944331207132
 10
152.65398962655
 20
87.57411191658304
 10
152.7386528481
 20
87.65878052109476
 10
152.8233268355735
 20
87.65878052109476
 10
152.8233268355735
 20
87.74344374264476
 10
153.3313276967203
 20
88.0821127777299
 10
152.48466318345
 20
87.57411191658304
 10
152.2306627528766
 20
88.25144460379164
 10
153.0773272661469
 20
88.75944546493851
 97
        0
 75
     0
 76
     1
 98
        1
 10
0.0
 20
0.0
450
        0
451
        0
460
0.0
461
0.0
452
        0
462
0.0
453
        0
470

  0
LINE
  5
BC
330
70
100
AcDbEntity
  8
Capa 1
 62
    18
420
        0
370
     9
100
AcDbLine
 10
56.72666234611565
 20
147.3487794295799
 30
0.0
 11
56.72666234611565
 21
148.9574452345705
 31
0.0
  0
SPLINE
  5
BD
330
70
100
AcDbEntity
  8
Capa 1
 62
    18
420
        0
370
     9
100
AcDbSpline
210
0.0
220
0.0
230
1.0
 70
    24
 71
     3
 72
     8
 73
     4
 74
     0
 42
0.0000000001
 43
0.0000000001
 40
0.0
 40
0.0
 40
0.0
 40
0.0
 40
1.0
 40
1.0
 40
1.0
 40
1.0
 10
56.72666234611565
 20
90.87610674811431
 30
0.0
 10
56.72666234611565
 20
90.87610674811431
 30
0.0
 10
39.20066493431876
 20
80.71577731339854
 30
0.0
 10
39.20066493431876
 20
80.71577731339854
 30
0.0
  0
SPLINE
  5
BE
330
70
100
AcDbEntity
  8
Capa 1
 62
    18
420
        0
370
     9
100
AcDbSpline
210
0.0
220
0.0
230
1.0
 70
    24
 71
     3
 72
     8
 73
     4
 74
     0
 42
0.0000000001
 43
0.0000000001
 40
0.0
 40
0.0
 40
0.0
 40
0.0
 40
1.0
 40
1.0
 40
1.0
 40
1.0
 10
56.72666234611565
 20
148.9574452345705
 30
0.0
 10
56.72666234611565
 20
148.9574452345705
 30
0.0
 10
39.20066493431876
 20
138.7974387775565
 30
0.0
 10
39.20066493431876
 20
138.7974387775565
 30
0.0
  0
SPLINE
  5
BF
330
70
100
AcDbEntity
  8
Capa 1
 62
    18
420
        0
370
     9
100
AcDbSpline
210
0.0
220
0.0
230
1.0
 70
    24
 71
     3
 72
     8
 73
     4
 74
     0
 42
0.0000000001
 43
0.0000000001
 40
0.0
 40
0.0
 40
0.0
 40
0.0
 40
1.0
 40
1.0
 40
1.0
 40
1.0
 10
40.72466482627852
 20
85.11878698128379
 30
0.0
 10
40.72466482627852
 20
85.11878698128379
 30
0.0
 10
40.72466482627852
 20
136.1727712502721
 30
0.0
 10
40.72466482627852
 20
136.1727712502721
 30
0.0
  0
LWPOLYLINE
  5
C0
330
70
100
AcDbEntity
  8
Capa 1
100
AcDbPolyline
 90
        3
 70
     0
 43
0.0
 10
40.13199805210079
 20
85.11878698128379
 10
41.31733160045626
 20
85.11878698128379
 10
40.72466482627852
 20
81.64711043118057
  0
HATCH
  5
C1
330
70
100
AcDbEntity
  8
Capa 1
 62
    18
420
        0
440
 33554687
100
AcDbHatch
 10
0.0
 20
0.0
 30
0.0
210
0.0
220
0.0
230
1.0
  2
SOLID
 70
     1
 71
     1
 91
        1
 92
        3
 72
     0
 73
     1
 93
        3
 10
40.13199805210079
 20
85.11878698128379
 10
41.31733160045626
 20
85.11878698128379
 10
40.72466482627852
 20
81.64711043118057
 97
        0
 75
     0
 76
     1
 98
        1
 10
0.0
 20
0.0
450
        0
451
        0
460
0.0
461
0.0
452
        0
462
0.0
453
        0
470

  0
LWPOLYLINE
  5
C2
330
70
100
AcDbEntity
  8
Capa 1
100
AcDbPolyline
 90
        3
 70
     0
 43
0.0
 10
40.13199805210079
 20
136.1727712502721
 10
41.31733160045626
 20
136.1727712502721
 10
40.72466482627852
 20
139.7287772783002
  0
HATCH
  5
C3
330
70
100
AcDbEntity
  8
Capa 1
 62
    18
420
        0
440
 33554687
100
AcDbHatch
 10
0.0
 20
0.0
 30
0.0
210
0.0
220
0.0
230
1.0
  2
SOLID
 70
     1
 71
     1
 91
        1
 92
        3
 72
     0
 73
     1
 93
        3
 10
40.13199805210079
 20
136.1727712502721
 10
41.31733160045626
 20
136.1727712502721
 10
40.72466482627852
 20
139.7287772783002
 97
        0
 75
     0
 76
     1
 98
        1
 10
0.0
 20
0.0
450
        0
451
        0
460
0.0
461
0.0
452
        0
462
0.0
453
        0
470

  0
LWPOLYLINE
  5
C4
330
70
100
AcDbEntity
  8
Capa 1
100
AcDbPolyline
 90
       30
 70
     0
 43
0.0
 10
39.03133041677619
 20
109.2487794391049
 10
39.03133041677619
 20
108.9947790085314
 10
39.20066493431876
 20
108.9947790085314
 10
39.28533084734962
 20
108.9947790085314
 10
39.36999676038049
 20
109.0794422300815
 10
39.45466536489219
 20
109.1641054516315
 10
39.53933127792306
 20
109.1641054516315
 10
39.53933127792306
 20
109.2487794391049
 10
39.62399719095392
 20
109.2487794391049
 10
39.62399719095392
 20
109.3334426606549
 10
39.70866310398479
 20
109.4181058822049
 10
39.70866310398479
 20
109.5027798696783
 10
39.70866310398479
 20
109.5874430912283
 10
39.70866310398479
 20
109.6721063127784
 10
39.79333170849649
 20
109.7567803002517
 10
39.70866310398479
 20
109.8414435218018
 10
39.70866310398479
 20
109.9261067433518
 10
39.70866310398479
 20
110.0107807308252
 10
39.70866310398479
 20
110.0954439523752
 10
39.62399719095392
 20
110.1801071739252
 10
39.62399719095392
 20
110.2647811613986
 10
39.53933127792306
 20
110.3494443829486
 10
39.53933127792306
 20
109.7567803002517
 10
39.45466536489219
 20
109.6721063127784
 10
39.45466536489219
 20
109.5874430912283
 10
39.45466536489219
 20
109.5027798696783
 10
39.36999676038049
 20
109.4181058822049
 10
39.28533084734962
 20
109.4181058822049
 10
39.20066493431876
 20
109.3334426606549
 10
39.1159990212879
 20
109.3334426606549
  0
HATCH
  5
C5
330
70
100
AcDbEntity
  8
Capa 1
 62
    18
420
        0
440
 33554687
100
AcDbHatch
 10
0.0
 20
0.0
 30
0.0
210
0.0
220
0.0
230
1.0
  2
SOLID
 70
     1
 71
     1
 91
        1
 92
        3
 72
     0
 73
     1
 93
       30
 10
39.03133041677619
 20
109.2487794391049
 10
39.03133041677619
 20
108.9947790085314
 10
39.20066493431876
 20
108.9947790085314
 10
39.28533084734962
 20
108.9947790085314
 10
39.36999676038049
 20
109.0794422300815
 10
39.45466536489219
 20
109.1641054516315
 10
39.53933127792306
 20
109.1641054516315
 10
39.53933127792306
 20
109.2487794391049
 10
39.62399719095392
 20
109.2487794391049
 10
39.62399719095392
 20
109.3334426606549
 10
39.70866310398479
 20
109.4181058822049
 10
39.70866310398479
 20
109.5027798696783
 10
39.70866310398479
 20
109.5874430912283
 10
39.70866310398479
 20
109.6721063127784
 10
39.79333170849649
 20
109.7567803002517
 10
39.70866310398479
 20
109.8414435218018
 10
39.70866310398479
 20
109.9261067433518
 10
39.70866310398479
 20
110.0107807308252
 10
39.70866310398479
 20
110.0954439523752
 10
39.62399719095392
 20
110.1801071739252
 10
39.62399719095392
 20
110.2647811613986
 10
39.53933127792306
 20
110.3494443829486
 10
39.53933127792306
 20
109.7567803002517
 10
39.45466536489219
 20
109.6721063127784
 10
39.45466536489219
 20
109.5874430912283
 10
39.45466536489219
 20
109.5027798696783
 10
39.36999676038049
 20
109.4181058822049
 10
39.28533084734962
 20
109.4181058822049
 10
39.20066493431876
 20
109.3334426606549
 10
39.1159990212879
 20
109.3334426606549
 97
        0
 75
     0
 76
     1
 98
        1
 10
0.0
 20
0.0
450
        0
451
        0
460
0.0
461
0.0
452
        0
462
0.0
453
        0
470

  0
LWPOLYLINE
  5
C6
330
70
100
AcDbEntity
  8
Capa 1
100
AcDbPolyline
 90
       39
 70
     0
 43
0.0
 10
38.26933181653673
 20
110.4341076044986
 10
38.35399772956759
 20
109.7567803002517
 10
38.35399772956759
 20
110.0107807308252
 10
38.43866364259845
 20
110.0107807308252
 10
38.43866364259845
 20
110.0954439523752
 10
38.52333224711016
 20
110.1801071739252
 10
38.60799816014102
 20
110.2647811613986
 10
38.69266407317189
 20
110.2647811613986
 10
38.77732998620275
 20
110.2647811613986
 10
38.86199859071446
 20
110.2647811613986
 10
38.94666450374533
 20
110.2647811613986
 10
39.03133041677619
 20
110.2647811613986
 10
39.1159990212879
 20
110.2647811613986
 10
39.20066493431876
 20
110.2647811613986
 10
39.20066493431876
 20
110.1801071739252
 10
39.28533084734962
 20
110.1801071739252
 10
39.36999676038049
 20
110.1801071739252
 10
39.36999676038049
 20
110.0954439523752
 10
39.45466536489219
 20
110.0107807308252
 10
39.45466536489219
 20
109.9261067433518
 10
39.45466536489219
 20
109.8414435218018
 10
39.53933127792306
 20
109.7567803002517
 10
39.53933127792306
 20
110.3494443829486
 10
39.45466536489219
 20
110.4341076044986
 10
39.36999676038049
 20
110.4341076044986
 10
39.28533084734962
 20
110.5187708260487
 10
39.20066493431876
 20
110.5187708260487
 10
39.1159990212879
 20
110.6034448135221
 10
39.03133041677619
 20
110.6034448135221
 10
38.94666450374533
 20
110.6034448135221
 10
38.86199859071446
 20
110.6034448135221
 10
38.77732998620275
 20
110.6034448135221
 10
38.69266407317189
 20
110.6034448135221
 10
38.60799816014102
 20
110.6034448135221
 10
38.52333224711016
 20
110.6034448135221
 10
38.52333224711016
 20
110.5187708260487
 10
38.43866364259845
 20
110.5187708260487
 10
38.35399772956759
 20
110.5187708260487
 10
38.35399772956759
 20
110.4341076044986
  0
HATCH
  5
C7
330
70
100
AcDbEntity
  8
Capa 1
 62
    18
420
        0
440
 33554687
100
AcDbHatch
 10
0.0
 20
0.0
 30
0.0
210
0.0
220
0.0
230
1.0
  2
SOLID
 70
     1
 71
     1
 91
        1
 92
        3
 72
     0
 73
     1
 93
       39
 10
38.26933181653673
 20
110.4341076044986
 10
38.35399772956759
 20
109.7567803002517
 10
38.35399772956759
 20
110.0107807308252
 10
38.43866364259845
 20
110.0107807308252
 10
38.43866364259845
 20
110.0954439523752
 10
38.52333224711016
 20
110.1801071739252
 10
38.60799816014102
 20
110.2647811613986
 10
38.69266407317189
 20
110.2647811613986
 10
38.77732998620275
 20
110.2647811613986
 10
38.86199859071446
 20
110.2647811613986
 10
38.94666450374533
 20
110.2647811613986
 10
39.03133041677619
 20
110.2647811613986
 10
39.1159990212879
 20
110.2647811613986
 10
39.20066493431876
 20
110.2647811613986
 10
39.20066493431876
 20
110.1801071739252
 10
39.28533084734962
 20
110.1801071739252
 10
39.36999676038049
 20
110.1801071739252
 10
39.36999676038049
 20
110.0954439523752
 10
39.45466536489219
 20
110.0107807308252
 10
39.45466536489219
 20
109.9261067433518
 10
39.45466536489219
 20
109.8414435218018
 10
39.53933127792306
 20
109.7567803002517
 10
39.53933127792306
 20
110.3494443829486
 10
39.45466536489219
 20
110.4341076044986
 10
39.36999676038049
 20
110.4341076044986
 10
39.28533084734962
 20
110.5187708260487
 10
39.20066493431876
 20
110.5187708260487
 10
39.1159990212879
 20
110.6034448135221
 10
39.03133041677619
 20
110.6034448135221
 10
38.94666450374533
 20
110.6034448135221
 10
38.86199859071446
 20
110.6034448135221
 10
38.77732998620275
 20
110.6034448135221
 10
38.69266407317189
 20
110.6034448135221
 10
38.60799816014102
 20
110.6034448135221
 10
38.52333224711016
 20
110.6034448135221
 10
38.52333224711016
 20
110.5187708260487
 10
38.43866364259845
 20
110.5187708260487
 10
38.35399772956759
 20
110.5187708260487
 10
38.35399772956759
 20
110.4341076044986
 97
        0
 75
     0
 76
     1
 98
        1
 10
0.0
 20
0.0
450
        0
451
        0
460
0.0
461
0.0
452
        0
462
0.0
453
        0
470

  0
LWPOLYLINE
  5
C8
330
70
100
AcDbEntity
  8
Capa 1
100
AcDbPolyline
 90
       12
 70
     0
 43
0.0
 10
38.09999729899415
 20
109.8414435218018
 10
38.09999729899415
 20
109.8414435218018
 10
38.09999729899415
 20
109.5874430912283
 10
38.18466321202502
 20
109.5027798696783
 10
38.18466321202502
 20
109.4181058822049
 10
38.18466321202502
 20
109.3334426606549
 10
38.26933181653673
 20
110.3494443829486
 10
38.18466321202502
 20
110.2647811613986
 10
38.09999729899415
 20
110.1801071739252
 10
38.09999729899415
 20
110.0954439523752
 10
38.09999729899415
 20
110.0107807308252
 10
38.09999729899415
 20
109.9261067433518
  0
HATCH
  5
C9
330
70
100
AcDbEntity
  8
Capa 1
 62
    18
420
        0
440
 33554687
100
AcDbHatch
 10
0.0
 20
0.0
 30
0.0
210
0.0
220
0.0
230
1.0
  2
SOLID
 70
     1
 71
     1
 91
        1
 92
        3
 72
     0
 73
     1
 93
       12
 10
38.09999729899415
 20
109.8414435218018
 10
38.09999729899415
 20
109.8414435218018
 10
38.09999729899415
 20
109.5874430912283
 10
38.18466321202502
 20
109.5027798696783
 10
38.18466321202502
 20
109.4181058822049
 10
38.18466321202502
 20
109.3334426606549
 10
38.26933181653673
 20
110.3494443829486
 10
38.18466321202502
 20
110.2647811613986
 10
38.09999729899415
 20
110.1801071739252
 10
38.09999729899415
 20
110.0954439523752
 10
38.09999729899415
 20
110.0107807308252
 10
38.09999729899415
 20
109.9261067433518
 97
        0
 75
     0
 76
     1
 98
        1
 10
0.0
 20
0.0
450
        0
451
        0
460
0.0
461
0.0
452
        0
462
0.0
453
        0
470

  0
LWPOLYLINE
  5
CA
330
70
100
AcDbEntity
  8
Capa 1
100
AcDbPolyline
 90
       16
 70
     0
 43
0.0
 10
37.25333009424299
 20
110.5187708260487
 10
37.25333009424299
 20
109.2487794391049
 10
38.52333224711016
 20
108.9947790085314
 10
38.60799816014102
 20
109.3334426606549
 10
38.52333224711016
 20
109.3334426606549
 10
38.43866364259845
 20
109.4181058822049
 10
38.43866364259845
 20
109.5027798696783
 10
38.35399772956759
 20
109.5027798696783
 10
38.35399772956759
 20
109.5874430912283
 10
38.35399772956759
 20
109.6721063127784
 10
38.35399772956759
 20
109.7567803002517
 10
38.26933181653673
 20
110.4341076044986
 10
38.26933181653673
 20
110.3494443829486
 10
38.18466321202502
 20
109.3334426606549
 10
37.50733052481642
 20
109.5027798696783
 10
37.50733052481642
 20
110.5187708260487
  0
HATCH
  5
CB
330
70
100
AcDbEntity
  8
Capa 1
 62
    18
420
        0
440
 33554687
100
AcDbHatch
 10
0.0
 20
0.0
 30
0.0
210
0.0
220
0.0
230
1.0
  2
SOLID
 70
     1
 71
     1
 91
        1
 92
        3
 72
     0
 73
     1
 93
       16
 10
37.25333009424299
 20
110.5187708260487
 10
37.25333009424299
 20
109.2487794391049
 10
38.52333224711016
 20
108.9947790085314
 10
38.60799816014102
 20
109.3334426606549
 10
38.52333224711016
 20
109.3334426606549
 10
38.43866364259845
 20
109.4181058822049
 10
38.43866364259845
 20
109.5027798696783
 10
38.35399772956759
 20
109.5027798696783
 10
38.35399772956759
 20
109.5874430912283
 10
38.35399772956759
 20
109.6721063127784
 10
38.35399772956759
 20
109.7567803002517
 10
38.26933181653673
 20
110.4341076044986
 10
38.26933181653673
 20
110.3494443829486
 10
38.18466321202502
 20
109.3334426606549
 10
37.50733052481642
 20
109.5027798696783
 10
37.50733052481642
 20
110.5187708260487
 97
        0
 75
     0
 76
     1
 98
        1
 10
0.0
 20
0.0
450
        0
451
        0
460
0.0
461
0.0
452
        0
462
0.0
453
        0
470

  0
LWPOLYLINE
  5
CC
330
70
100
AcDbEntity
  8
Capa 1
100
AcDbPolyline
 90
       50
 70
     0
 43
0.0
 10
38.52333224711016
 20
112.2967738400627
 10
38.52333224711016
 20
111.7041097573658
 10
38.52333224711016
 20
111.9581101879393
 10
38.60799816014102
 20
112.0427734094893
 10
38.60799816014102
 20
112.1274473969627
 10
38.69266407317189
 20
112.1274473969627
 10
38.77732998620275
 20
112.2121106185127
 10
38.86199859071446
 20
112.2121106185127
 10
38.94666450374533
 20
112.2121106185127
 10
39.03133041677619
 20
112.2121106185127
 10
39.1159990212879
 20
112.2121106185127
 10
39.20066493431876
 20
112.2121106185127
 10
39.28533084734962
 20
112.2121106185127
 10
39.28533084734962
 20
112.1274473969627
 10
39.36999676038049
 20
112.1274473969627
 10
39.36999676038049
 20
112.0427734094893
 10
39.45466536489219
 20
111.9581101879393
 10
39.45466536489219
 20
111.8734469663893
 10
39.45466536489219
 20
111.7887729789158
 10
39.53933127792306
 20
111.7041097573658
 10
39.53933127792306
 20
111.1114456746689
 10
39.53933127792306
 20
111.196108896219
 10
39.62399719095392
 20
111.196108896219
 10
39.62399719095392
 20
111.280772117769
 10
39.62399719095392
 20
111.3654461052424
 10
39.70866310398479
 20
111.3654461052424
 10
39.70866310398479
 20
111.4501093267924
 10
39.70866310398479
 20
111.5347725483424
 10
39.70866310398479
 20
111.6194465358158
 10
39.79333170849649
 20
111.7041097573658
 10
39.70866310398479
 20
111.7887729789158
 10
39.70866310398479
 20
111.8734469663893
 10
39.70866310398479
 20
111.9581101879393
 10
39.70866310398479
 20
112.0427734094893
 10
39.70866310398479
 20
112.1274473969627
 10
39.62399719095392
 20
112.2121106185127
 10
39.53933127792306
 20
112.2967738400627
 10
39.45466536489219
 20
112.3814478275361
 10
39.36999676038049
 20
112.4661110490861
 10
39.28533084734962
 20
112.4661110490861
 10
39.20066493431876
 20
112.5507742706362
 10
39.1159990212879
 20
112.5507742706362
 10
39.03133041677619
 20
112.5507742706362
 10
38.94666450374533
 20
112.5507742706362
 10
38.86199859071446
 20
112.5507742706362
 10
38.77732998620275
 20
112.5507742706362
 10
38.69266407317189
 20
112.4661110490861
 10
38.60799816014102
 20
112.4661110490861
 10
38.60799816014102
 20
112.3814478275361
 10
38.52333224711016
 20
112.3814478275361
  0
HATCH
  5
CD
330
70
100
AcDbEntity
  8
Capa 1
 62
    18
420
        0
440
 33554687
100
AcDbHatch
 10
0.0
 20
0.0
 30
0.0
210
0.0
220
0.0
230
1.0
  2
SOLID
 70
     1
 71
     1
 91
        1
 92
        3
 72
     0
 73
     1
 93
       50
 10
38.52333224711016
 20
112.2967738400627
 10
38.52333224711016
 20
111.7041097573658
 10
38.52333224711016
 20
111.9581101879393
 10
38.60799816014102
 20
112.0427734094893
 10
38.60799816014102
 20
112.1274473969627
 10
38.69266407317189
 20
112.1274473969627
 10
38.77732998620275
 20
112.2121106185127
 10
38.86199859071446
 20
112.2121106185127
 10
38.94666450374533
 20
112.2121106185127
 10
39.03133041677619
 20
112.2121106185127
 10
39.1159990212879
 20
112.2121106185127
 10
39.20066493431876
 20
112.2121106185127
 10
39.28533084734962
 20
112.2121106185127
 10
39.28533084734962
 20
112.1274473969627
 10
39.36999676038049
 20
112.1274473969627
 10
39.36999676038049
 20
112.0427734094893
 10
39.45466536489219
 20
111.9581101879393
 10
39.45466536489219
 20
111.8734469663893
 10
39.45466536489219
 20
111.7887729789158
 10
39.53933127792306
 20
111.7041097573658
 10
39.53933127792306
 20
111.1114456746689
 10
39.53933127792306
 20
111.196108896219
 10
39.62399719095392
 20
111.196108896219
 10
39.62399719095392
 20
111.280772117769
 10
39.62399719095392
 20
111.3654461052424
 10
39.70866310398479
 20
111.3654461052424
 10
39.70866310398479
 20
111.4501093267924
 10
39.70866310398479
 20
111.5347725483424
 10
39.70866310398479
 20
111.6194465358158
 10
39.79333170849649
 20
111.7041097573658
 10
39.70866310398479
 20
111.7887729789158
 10
39.70866310398479
 20
111.8734469663893
 10
39.70866310398479
 20
111.9581101879393
 10
39.70866310398479
 20
112.0427734094893
 10
39.70866310398479
 20
112.1274473969627
 10
39.62399719095392
 20
112.2121106185127
 10
39.53933127792306
 20
112.2967738400627
 10
39.45466536489219
 20
112.3814478275361
 10
39.36999676038049
 20
112.4661110490861
 10
39.28533084734962
 20
112.4661110490861
 10
39.20066493431876
 20
112.5507742706362
 10
39.1159990212879
 20
112.5507742706362
 10
39.03133041677619
 20
112.5507742706362
 10
38.94666450374533
 20
112.5507742706362
 10
38.86199859071446
 20
112.5507742706362
 10
38.77732998620275
 20
112.5507742706362
 10
38.69266407317189
 20
112.4661110490861
 10
38.60799816014102
 20
112.4661110490861
 10
38.60799816014102
 20
112.3814478275361
 10
38.52333224711016
 20
112.3814478275361
 97
        0
 75
     0
 76
     1
 98
        1
 10
0.0
 20
0.0
450
        0
451
        0
460
0.0
461
0.0
452
        0
462
0.0
453
        0
470

  0
LWPOLYLINE
  5
CE
330
70
100
AcDbEntity
  8
Capa 1
100
AcDbPolyline
 90
       26
 70
     0
 43
0.0
 10
37.42266461178556
 20
112.2967738400627
 10
37.42266461178556
 20
111.7041097573658
 10
37.50733052481642
 20
111.7887729789158
 10
37.50733052481642
 20
111.9581101879393
 10
37.59199912932813
 20
112.0427734094893
 10
37.67666504235899
 20
112.1274473969627
 10
37.76133095538986
 20
112.1274473969627
 10
37.84599686842072
 20
112.1274473969627
 10
37.93066547293243
 20
112.1274473969627
 10
38.0153313859633
 20
112.1274473969627
 10
38.09999729899415
 20
112.0427734094893
 10
38.18466321202502
 20
111.9581101879393
 10
38.18466321202502
 20
111.8734469663893
 10
38.26933181653673
 20
111.7887729789158
 10
38.26933181653673
 20
111.7041097573658
 10
38.26933181653673
 20
112.2967738400627
 10
38.18466321202502
 20
112.2967738400627
 10
38.18466321202502
 20
112.3814478275361
 10
38.09999729899415
 20
112.3814478275361
 10
38.0153313859633
 20
112.4661110490861
 10
37.93066547293243
 20
112.4661110490861
 10
37.84599686842072
 20
112.4661110490861
 10
37.76133095538986
 20
112.4661110490861
 10
37.67666504235899
 20
112.4661110490861
 10
37.59199912932813
 20
112.3814478275361
 10
37.50733052481642
 20
112.3814478275361
  0
HATCH
  5
CF
330
70
100
AcDbEntity
  8
Capa 1
 62
    18
420
        0
440
 33554687
100
AcDbHatch
 10
0.0
 20
0.0
 30
0.0
210
0.0
220
0.0
230
1.0
  2
SOLID
 70
     1
 71
     1
 91
        1
 92
        3
 72
     0
 73
     1
 93
       26
 10
37.42266461178556
 20
112.2967738400627
 10
37.42266461178556
 20
111.7041097573658
 10
37.50733052481642
 20
111.7887729789158
 10
37.50733052481642
 20
111.9581101879393
 10
37.59199912932813
 20
112.0427734094893
 10
37.67666504235899
 20
112.1274473969627
 10
37.76133095538986
 20
112.1274473969627
 10
37.84599686842072
 20
112.1274473969627
 10
37.93066547293243
 20
112.1274473969627
 10
38.0153313859633
 20
112.1274473969627
 10
38.09999729899415
 20
112.0427734094893
 10
38.18466321202502
 20
111.9581101879393
 10
38.18466321202502
 20
111.8734469663893
 10
38.26933181653673
 20
111.7887729789158
 10
38.26933181653673
 20
111.7041097573658
 10
38.26933181653673
 20
112.2967738400627
 10
38.18466321202502
 20
112.2967738400627
 10
38.18466321202502
 20
112.3814478275361
 10
38.09999729899415
 20
112.3814478275361
 10
38.0153313859633
 20
112.4661110490861
 10
37.93066547293243
 20
112.4661110490861
 10
37.84599686842072
 20
112.4661110490861
 10
37.76133095538986
 20
112.4661110490861
 10
37.67666504235899
 20
112.4661110490861
 10
37.59199912932813
 20
112.3814478275361
 10
37.50733052481642
 20
112.3814478275361
 97
        0
 75
     0
 76
     1
 98
        1
 10
0.0
 20
0.0
450
        0
451
        0
460
0.0
461
0.0
452
        0
462
0.0
453
        0
470

  0
LWPOLYLINE
  5
D0
330
70
100
AcDbEntity
  8
Capa 1
100
AcDbPolyline
 90
       91
 70
     0
 43
0.0
 10
37.25333009424299
 20
111.7041097573658
 10
37.25333009424299
 20
111.7041097573658
 10
37.25333009424299
 20
111.3654461052424
 10
37.3379986987547
 20
111.280772117769
 10
37.42266461178556
 20
111.196108896219
 10
37.50733052481642
 20
111.1114456746689
 10
37.59199912932813
 20
111.0267716871955
 10
37.67666504235899
 20
111.0267716871955
 10
37.76133095538986
 20
111.0267716871955
 10
37.84599686842072
 20
111.0267716871955
 10
37.93066547293243
 20
111.0267716871955
 10
38.0153313859633
 20
111.0267716871955
 10
38.09999729899415
 20
111.1114456746689
 10
38.18466321202502
 20
111.1114456746689
 10
38.26933181653673
 20
111.196108896219
 10
38.26933181653673
 20
111.280772117769
 10
38.35399772956759
 20
111.280772117769
 10
38.35399772956759
 20
111.3654461052424
 10
38.35399772956759
 20
111.280772117769
 10
38.43866364259845
 20
111.280772117769
 10
38.43866364259845
 20
111.196108896219
 10
38.52333224711016
 20
111.1114456746689
 10
38.60799816014102
 20
111.0267716871955
 10
38.69266407317189
 20
111.0267716871955
 10
38.69266407317189
 20
110.9421084656455
 10
38.77732998620275
 20
110.9421084656455
 10
38.86199859071446
 20
110.9421084656455
 10
38.94666450374533
 20
110.9421084656455
 10
39.03133041677619
 20
110.9421084656455
 10
39.1159990212879
 20
110.9421084656455
 10
39.20066493431876
 20
110.9421084656455
 10
39.28533084734962
 20
110.9421084656455
 10
39.36999676038049
 20
111.0267716871955
 10
39.45466536489219
 20
111.0267716871955
 10
39.45466536489219
 20
111.1114456746689
 10
39.53933127792306
 20
111.1114456746689
 10
39.53933127792306
 20
111.7041097573658
 10
39.45466536489219
 20
111.7041097573658
 10
39.45466536489219
 20
111.6194465358158
 10
39.45466536489219
 20
111.5347725483424
 10
39.45466536489219
 20
111.4501093267924
 10
39.36999676038049
 20
111.4501093267924
 10
39.36999676038049
 20
111.3654461052424
 10
39.28533084734962
 20
111.3654461052424
 10
39.28533084734962
 20
111.280772117769
 10
39.20066493431876
 20
111.280772117769
 10
39.1159990212879
 20
111.280772117769
 10
39.03133041677619
 20
111.196108896219
 10
38.94666450374533
 20
111.196108896219
 10
38.86199859071446
 20
111.280772117769
 10
38.77732998620275
 20
111.280772117769
 10
38.69266407317189
 20
111.3654461052424
 10
38.60799816014102
 20
111.3654461052424
 10
38.60799816014102
 20
111.4501093267924
 10
38.52333224711016
 20
111.4501093267924
 10
38.52333224711016
 20
111.5347725483424
 10
38.52333224711016
 20
111.6194465358158
 10
38.52333224711016
 20
111.7041097573658
 10
38.52333224711016
 20
112.2967738400627
 10
38.43866364259845
 20
112.2967738400627
 10
38.43866364259845
 20
112.2121106185127
 10
38.35399772956759
 20
112.1274473969627
 10
38.35399772956759
 20
112.0427734094893
 10
38.35399772956759
 20
112.1274473969627
 10
38.26933181653673
 20
112.2121106185127
 10
38.26933181653673
 20
112.2967738400627
 10
38.26933181653673
 20
111.7041097573658
 10
38.26933181653673
 20
111.6194465358158
 10
38.18466321202502
 20
111.5347725483424
 10
38.18466321202502
 20
111.4501093267924
 10
38.09999729899415
 20
111.4501093267924
 10
38.09999729899415
 20
111.3654461052424
 10
38.0153313859633
 20
111.3654461052424
 10
37.93066547293243
 20
111.3654461052424
 10
37.84599686842072
 20
111.3654461052424
 10
37.76133095538986
 20
111.3654461052424
 10
37.67666504235899
 20
111.3654461052424
 10
37.59199912932813
 20
111.3654461052424
 10
37.59199912932813
 20
111.4501093267924
 10
37.50733052481642
 20
111.4501093267924
 10
37.50733052481642
 20
111.5347725483424
 10
37.50733052481642
 20
111.6194465358158
 10
37.42266461178556
 20
111.7041097573658
 10
37.42266461178556
 20
112.2967738400627
 10
37.42266461178556
 20
112.2121106185127
 10
37.3379986987547
 20
112.2121106185127
 10
37.3379986987547
 20
112.1274473969627
 10
37.25333009424299
 20
112.0427734094893
 10
37.25333009424299
 20
111.9581101879393
 10
37.25333009424299
 20
111.8734469663893
 10
37.25333009424299
 20
111.7887729789158
  0
HATCH
  5
D1
330
70
100
AcDbEntity
  8
Capa 1
 62
    18
420
        0
440
 33554687
100
AcDbHatch
 10
0.0
 20
0.0
 30
0.0
210
0.0
220
0.0
230
1.0
  2
SOLID
 70
     1
 71
     1
 91
        1
 92
        3
 72
     0
 73
     1
 93
       91
 10
37.25333009424299
 20
111.7041097573658
 10
37.25333009424299
 20
111.7041097573658
 10
37.25333009424299
 20
111.3654461052424
 10
37.3379986987547
 20
111.280772117769
 10
37.42266461178556
 20
111.196108896219
 10
37.50733052481642
 20
111.1114456746689
 10
37.59199912932813
 20
111.0267716871955
 10
37.67666504235899
 20
111.0267716871955
 10
37.76133095538986
 20
111.0267716871955
 10
37.84599686842072
 20
111.0267716871955
 10
37.93066547293243
 20
111.0267716871955
 10
38.0153313859633
 20
111.0267716871955
 10
38.09999729899415
 20
111.1114456746689
 10
38.18466321202502
 20
111.1114456746689
 10
38.26933181653673
 20
111.196108896219
 10
38.26933181653673
 20
111.280772117769
 10
38.35399772956759
 20
111.280772117769
 10
38.35399772956759
 20
111.3654461052424
 10
38.35399772956759
 20
111.280772117769
 10
38.43866364259845
 20
111.280772117769
 10
38.43866364259845
 20
111.196108896219
 10
38.52333224711016
 20
111.1114456746689
 10
38.60799816014102
 20
111.0267716871955
 10
38.69266407317189
 20
111.0267716871955
 10
38.69266407317189
 20
110.9421084656455
 10
38.77732998620275
 20
110.9421084656455
 10
38.86199859071446
 20
110.9421084656455
 10
38.94666450374533
 20
110.9421084656455
 10
39.03133041677619
 20
110.9421084656455
 10
39.1159990212879
 20
110.9421084656455
 10
39.20066493431876
 20
110.9421084656455
 10
39.28533084734962
 20
110.9421084656455
 10
39.36999676038049
 20
111.0267716871955
 10
39.45466536489219
 20
111.0267716871955
 10
39.45466536489219
 20
111.1114456746689
 10
39.53933127792306
 20
111.1114456746689
 10
39.53933127792306
 20
111.7041097573658
 10
39.45466536489219
 20
111.7041097573658
 10
39.45466536489219
 20
111.6194465358158
 10
39.45466536489219
 20
111.5347725483424
 10
39.45466536489219
 20
111.4501093267924
 10
39.36999676038049
 20
111.4501093267924
 10
39.36999676038049
 20
111.3654461052424
 10
39.28533084734962
 20
111.3654461052424
 10
39.28533084734962
 20
111.280772117769
 10
39.20066493431876
 20
111.280772117769
 10
39.1159990212879
 20
111.280772117769
 10
39.03133041677619
 20
111.196108896219
 10
38.94666450374533
 20
111.196108896219
 10
38.86199859071446
 20
111.280772117769
 10
38.77732998620275
 20
111.280772117769
 10
38.69266407317189
 20
111.3654461052424
 10
38.60799816014102
 20
111.3654461052424
 10
38.60799816014102
 20
111.4501093267924
 10
38.52333224711016
 20
111.4501093267924
 10
38.52333224711016
 20
111.5347725483424
 10
38.52333224711016
 20
111.6194465358158
 10
38.52333224711016
 20
111.7041097573658
 10
38.52333224711016
 20
112.2967738400627
 10
38.43866364259845
 20
112.2967738400627
 10
38.43866364259845
 20
112.2121106185127
 10
38.35399772956759
 20
112.1274473969627
 10
38.35399772956759
 20
112.0427734094893
 10
38.35399772956759
 20
112.1274473969627
 10
38.26933181653673
 20
112.2121106185127
 10
38.26933181653673
 20
112.2967738400627
 10
38.26933181653673
 20
111.7041097573658
 10
38.26933181653673
 20
111.6194465358158
 10
38.18466321202502
 20
111.5347725483424
 10
38.18466321202502
 20
111.4501093267924
 10
38.09999729899415
 20
111.4501093267924
 10
38.09999729899415
 20
111.3654461052424
 10
38.0153313859633
 20
111.3654461052424
 10
37.93066547293243
 20
111.3654461052424
 10
37.84599686842072
 20
111.3654461052424
 10
37.76133095538986
 20
111.3654461052424
 10
37.67666504235899
 20
111.3654461052424
 10
37.59199912932813
 20
111.3654461052424
 10
37.59199912932813
 20
111.4501093267924
 10
37.50733052481642
 20
111.4501093267924
 10
37.50733052481642
 20
111.5347725483424
 10
37.50733052481642
 20
111.6194465358158
 10
37.42266461178556
 20
111.7041097573658
 10
37.42266461178556
 20
112.2967738400627
 10
37.42266461178556
 20
112.2121106185127
 10
37.3379986987547
 20
112.2121106185127
 10
37.3379986987547
 20
112.1274473969627
 10
37.25333009424299
 20
112.0427734094893
 10
37.25333009424299
 20
111.9581101879393
 10
37.25333009424299
 20
111.8734469663893
 10
37.25333009424299
 20
111.7887729789158
 97
        0
 75
     0
 76
     1
 98
        1
 10
0.0
 20
0.0
450
        0
451
        0
460
0.0
461
0.0
452
        0
462
0.0
453
        0
470

  0
LWPOLYLINE
  5
D2
330
70
100
AcDbEntity
  8
Capa 1
100
AcDbPolyline
 90
       58
 70
     0
 43
0.0
 10
37.42266461178556
 20
113.143438353333
 10
37.50733052481642
 20
113.058775131783
 10
37.59199912932813
 20
113.058775131783
 10
37.67666504235899
 20
112.974111910233
 10
37.76133095538986
 20
112.974111910233
 10
37.84599686842072
 20
112.974111910233
 10
37.93066547293243
 20
112.8894379227596
 10
38.0153313859633
 20
112.8894379227596
 10
38.09999729899415
 20
112.8894379227596
 10
38.18466321202502
 20
112.8894379227596
 10
38.26933181653673
 20
112.8894379227596
 10
38.35399772956759
 20
112.8894379227596
 10
38.43866364259845
 20
112.8894379227596
 10
38.52333224711016
 20
112.8894379227596
 10
38.60799816014102
 20
112.8894379227596
 10
38.69266407317189
 20
112.8894379227596
 10
38.77732998620275
 20
112.8894379227596
 10
38.86199859071446
 20
112.8894379227596
 10
38.94666450374533
 20
112.8894379227596
 10
39.03133041677619
 20
112.8894379227596
 10
39.1159990212879
 20
112.974111910233
 10
39.20066493431876
 20
112.974111910233
 10
39.28533084734962
 20
112.974111910233
 10
39.36999676038049
 20
113.058775131783
 10
39.45466536489219
 20
113.058775131783
 10
39.45466536489219
 20
113.143438353333
 10
39.53933127792306
 20
113.143438353333
 10
39.53933127792306
 20
113.6514392144799
 10
39.45466536489219
 20
113.5667759929299
 10
39.45466536489219
 20
113.4821127713799
 10
39.36999676038049
 20
113.3974387839065
 10
39.28533084734962
 20
113.3127755623565
 10
39.20066493431876
 20
113.3127755623565
 10
39.20066493431876
 20
113.2281123408064
 10
39.1159990212879
 20
113.2281123408064
 10
39.03133041677619
 20
113.2281123408064
 10
38.94666450374533
 20
113.2281123408064
 10
38.86199859071446
 20
113.2281123408064
 10
38.77732998620275
 20
113.2281123408064
 10
38.69266407317189
 20
113.143438353333
 10
38.60799816014102
 20
113.143438353333
 10
38.52333224711016
 20
113.143438353333
 10
38.43866364259845
 20
113.143438353333
 10
38.35399772956759
 20
113.143438353333
 10
38.26933181653673
 20
113.143438353333
 10
38.18466321202502
 20
113.2281123408064
 10
38.09999729899415
 20
113.2281123408064
 10
38.0153313859633
 20
113.2281123408064
 10
37.93066547293243
 20
113.2281123408064
 10
37.84599686842072
 20
113.2281123408064
 10
37.76133095538986
 20
113.2281123408064
 10
37.76133095538986
 20
113.3127755623565
 10
37.67666504235899
 20
113.3127755623565
 10
37.59199912932813
 20
113.3974387839065
 10
37.50733052481642
 20
113.3974387839065
 10
37.50733052481642
 20
113.4821127713799
 10
37.50733052481642
 20
113.5667759929299
 10
37.50733052481642
 20
113.6514392144799
  0
HATCH
  5
D3
330
70
100
AcDbEntity
  8
Capa 1
 62
    18
420
        0
440
 33554687
100
AcDbHatch
 10
0.0
 20
0.0
 30
0.0
210
0.0
220
0.0
230
1.0
  2
SOLID
 70
     1
 71
     1
 91
        1
 92
        3
 72
     0
 73
     1
 93
       58
 10
37.42266461178556
 20
113.143438353333
 10
37.50733052481642
 20
113.058775131783
 10
37.59199912932813
 20
113.058775131783
 10
37.67666504235899
 20
112.974111910233
 10
37.76133095538986
 20
112.974111910233
 10
37.84599686842072
 20
112.974111910233
 10
37.93066547293243
 20
112.8894379227596
 10
38.0153313859633
 20
112.8894379227596
 10
38.09999729899415
 20
112.8894379227596
 10
38.18466321202502
 20
112.8894379227596
 10
38.26933181653673
 20
112.8894379227596
 10
38.35399772956759
 20
112.8894379227596
 10
38.43866364259845
 20
112.8894379227596
 10
38.52333224711016
 20
112.8894379227596
 10
38.60799816014102
 20
112.8894379227596
 10
38.69266407317189
 20
112.8894379227596
 10
38.77732998620275
 20
112.8894379227596
 10
38.86199859071446
 20
112.8894379227596
 10
38.94666450374533
 20
112.8894379227596
 10
39.03133041677619
 20
112.8894379227596
 10
39.1159990212879
 20
112.974111910233
 10
39.20066493431876
 20
112.974111910233
 10
39.28533084734962
 20
112.974111910233
 10
39.36999676038049
 20
113.058775131783
 10
39.45466536489219
 20
113.058775131783
 10
39.45466536489219
 20
113.143438353333
 10
39.53933127792306
 20
113.143438353333
 10
39.53933127792306
 20
113.6514392144799
 10
39.45466536489219
 20
113.5667759929299
 10
39.45466536489219
 20
113.4821127713799
 10
39.36999676038049
 20
113.3974387839065
 10
39.28533084734962
 20
113.3127755623565
 10
39.20066493431876
 20
113.3127755623565
 10
39.20066493431876
 20
113.2281123408064
 10
39.1159990212879
 20
113.2281123408064
 10
39.03133041677619
 20
113.2281123408064
 10
38.94666450374533
 20
113.2281123408064
 10
38.86199859071446
 20
113.2281123408064
 10
38.77732998620275
 20
113.2281123408064
 10
38.69266407317189
 20
113.143438353333
 10
38.60799816014102
 20
113.143438353333
 10
38.52333224711016
 20
113.143438353333
 10
38.43866364259845
 20
113.143438353333
 10
38.35399772956759
 20
113.143438353333
 10
38.26933181653673
 20
113.143438353333
 10
38.18466321202502
 20
113.2281123408064
 10
38.09999729899415
 20
113.2281123408064
 10
38.0153313859633
 20
113.2281123408064
 10
37.93066547293243
 20
113.2281123408064
 10
37.84599686842072
 20
113.2281123408064
 10
37.76133095538986
 20
113.2281123408064
 10
37.76133095538986
 20
113.3127755623565
 10
37.67666504235899
 20
113.3127755623565
 10
37.59199912932813
 20
113.3974387839065
 10
37.50733052481642
 20
113.3974387839065
 10
37.50733052481642
 20
113.4821127713799
 10
37.50733052481642
 20
113.5667759929299
 10
37.50733052481642
 20
113.6514392144799
 97
        0
 75
     0
 76
     1
 98
        1
 10
0.0
 20
0.0
450
        0
451
        0
460
0.0
461
0.0
452
        0
462
0.0
453
        0
470

  0
LWPOLYLINE
  5
D4
330
70
100
AcDbEntity
  8
Capa 1
100
AcDbPolyline
 90
       86
 70
     0
 43
0.0
 10
37.25333009424299
 20
113.6514392144799
 10
37.25333009424299
 20
113.6514392144799
 10
37.25333009424299
 20
113.3127755623565
 10
37.3379986987547
 20
113.3127755623565
 10
37.3379986987547
 20
113.2281123408064
 10
37.42266461178556
 20
113.143438353333
 10
37.50733052481642
 20
113.6514392144799
 10
37.50733052481642
 20
113.7361132019533
 10
37.50733052481642
 20
113.8207764235033
 10
37.50733052481642
 20
113.9054396450533
 10
37.59199912932813
 20
113.9054396450533
 10
37.59199912932813
 20
113.9901136325268
 10
37.67666504235899
 20
113.9901136325268
 10
37.67666504235899
 20
114.0747768540768
 10
37.76133095538986
 20
114.0747768540768
 10
37.84599686842072
 20
114.0747768540768
 10
37.93066547293243
 20
114.1594400756268
 10
38.0153313859633
 20
114.1594400756268
 10
38.09999729899415
 20
114.1594400756268
 10
38.18466321202502
 20
114.1594400756268
 10
38.26933181653673
 20
114.1594400756268
 10
38.35399772956759
 20
114.1594400756268
 10
38.52333224711016
 20
114.1594400756268
 10
38.60799816014102
 20
114.1594400756268
 10
38.69266407317189
 20
114.1594400756268
 10
38.77732998620275
 20
114.1594400756268
 10
38.86199859071446
 20
114.1594400756268
 10
38.94666450374533
 20
114.1594400756268
 10
39.03133041677619
 20
114.1594400756268
 10
39.1159990212879
 20
114.0747768540768
 10
39.20066493431876
 20
114.0747768540768
 10
39.28533084734962
 20
114.0747768540768
 10
39.28533084734962
 20
113.9901136325268
 10
39.36999676038049
 20
113.9901136325268
 10
39.45466536489219
 20
113.9054396450533
 10
39.45466536489219
 20
113.8207764235033
 10
39.45466536489219
 20
113.7361132019533
 10
39.53933127792306
 20
113.6514392144799
 10
39.53933127792306
 20
113.143438353333
 10
39.62399719095392
 20
113.2281123408064
 10
39.62399719095392
 20
113.3127755623565
 10
39.70866310398479
 20
113.3127755623565
 10
39.70866310398479
 20
113.3974387839065
 10
39.70866310398479
 20
113.4821127713799
 10
39.70866310398479
 20
113.5667759929299
 10
39.79333170849649
 20
113.6514392144799
 10
39.70866310398479
 20
113.6514392144799
 10
39.70866310398479
 20
113.7361132019533
 10
39.70866310398479
 20
113.8207764235033
 10
39.70866310398479
 20
113.9054396450533
 10
39.70866310398479
 20
113.9901136325268
 10
39.62399719095392
 20
114.0747768540768
 10
39.62399719095392
 20
114.1594400756268
 10
39.53933127792306
 20
114.1594400756268
 10
39.53933127792306
 20
114.2441140631002
 10
39.45466536489219
 20
114.2441140631002
 10
39.36999676038049
 20
114.3287772846502
 10
39.28533084734962
 20
114.3287772846502
 10
39.20066493431876
 20
114.4134405062002
 10
39.1159990212879
 20
114.4134405062002
 10
39.03133041677619
 20
114.4134405062002
 10
38.94666450374533
 20
114.4134405062002
 10
38.86199859071446
 20
114.4981144936736
 10
38.77732998620275
 20
114.4981144936736
 10
38.69266407317189
 20
114.4981144936736
 10
38.60799816014102
 20
114.4981144936736
 10
38.52333224711016
 20
114.4981144936736
 10
38.43866364259845
 20
114.4981144936736
 10
38.35399772956759
 20
114.4981144936736
 10
38.26933181653673
 20
114.4981144936736
 10
38.18466321202502
 20
114.4981144936736
 10
38.09999729899415
 20
114.4981144936736
 10
38.0153313859633
 20
114.4134405062002
 10
37.93066547293243
 20
114.4134405062002
 10
37.84599686842072
 20
114.4134405062002
 10
37.76133095538986
 20
114.4134405062002
 10
37.67666504235899
 20
114.3287772846502
 10
37.59199912932813
 20
114.3287772846502
 10
37.50733052481642
 20
114.2441140631002
 10
37.42266461178556
 20
114.1594400756268
 10
37.3379986987547
 20
114.1594400756268
 10
37.3379986987547
 20
114.0747768540768
 10
37.25333009424299
 20
113.9901136325268
 10
37.25333009424299
 20
113.9054396450533
 10
37.25333009424299
 20
113.8207764235033
 10
37.25333009424299
 20
113.7361132019533
  0
HATCH
  5
D5
330
70
100
AcDbEntity
  8
Capa 1
 62
    18
420
        0
440
 33554687
100
AcDbHatch
 10
0.0
 20
0.0
 30
0.0
210
0.0
220
0.0
230
1.0
  2
SOLID
 70
     1
 71
     1
 91
        1
 92
        3
 72
     0
 73
     1
 93
       86
 10
37.25333009424299
 20
113.6514392144799
 10
37.25333009424299
 20
113.6514392144799
 10
37.25333009424299
 20
113.3127755623565
 10
37.3379986987547
 20
113.3127755623565
 10
37.3379986987547
 20
113.2281123408064
 10
37.42266461178556
 20
113.143438353333
 10
37.50733052481642
 20
113.6514392144799
 10
37.50733052481642
 20
113.7361132019533
 10
37.50733052481642
 20
113.8207764235033
 10
37.50733052481642
 20
113.9054396450533
 10
37.59199912932813
 20
113.9054396450533
 10
37.59199912932813
 20
113.9901136325268
 10
37.67666504235899
 20
113.9901136325268
 10
37.67666504235899
 20
114.0747768540768
 10
37.76133095538986
 20
114.0747768540768
 10
37.84599686842072
 20
114.0747768540768
 10
37.93066547293243
 20
114.1594400756268
 10
38.0153313859633
 20
114.1594400756268
 10
38.09999729899415
 20
114.1594400756268
 10
38.18466321202502
 20
114.1594400756268
 10
38.26933181653673
 20
114.1594400756268
 10
38.35399772956759
 20
114.1594400756268
 10
38.52333224711016
 20
114.1594400756268
 10
38.60799816014102
 20
114.1594400756268
 10
38.69266407317189
 20
114.1594400756268
 10
38.77732998620275
 20
114.1594400756268
 10
38.86199859071446
 20
114.1594400756268
 10
38.94666450374533
 20
114.1594400756268
 10
39.03133041677619
 20
114.1594400756268
 10
39.1159990212879
 20
114.0747768540768
 10
39.20066493431876
 20
114.0747768540768
 10
39.28533084734962
 20
114.0747768540768
 10
39.28533084734962
 20
113.9901136325268
 10
39.36999676038049
 20
113.9901136325268
 10
39.45466536489219
 20
113.9054396450533
 10
39.45466536489219
 20
113.8207764235033
 10
39.45466536489219
 20
113.7361132019533
 10
39.53933127792306
 20
113.6514392144799
 10
39.53933127792306
 20
113.143438353333
 10
39.62399719095392
 20
113.2281123408064
 10
39.62399719095392
 20
113.3127755623565
 10
39.70866310398479
 20
113.3127755623565
 10
39.70866310398479
 20
113.3974387839065
 10
39.70866310398479
 20
113.4821127713799
 10
39.70866310398479
 20
113.5667759929299
 10
39.79333170849649
 20
113.6514392144799
 10
39.70866310398479
 20
113.6514392144799
 10
39.70866310398479
 20
113.7361132019533
 10
39.70866310398479
 20
113.8207764235033
 10
39.70866310398479
 20
113.9054396450533
 10
39.70866310398479
 20
113.9901136325268
 10
39.62399719095392
 20
114.0747768540768
 10
39.62399719095392
 20
114.1594400756268
 10
39.53933127792306
 20
114.1594400756268
 10
39.53933127792306
 20
114.2441140631002
 10
39.45466536489219
 20
114.2441140631002
 10
39.36999676038049
 20
114.3287772846502
 10
39.28533084734962
 20
114.3287772846502
 10
39.20066493431876
 20
114.4134405062002
 10
39.1159990212879
 20
114.4134405062002
 10
39.03133041677619
 20
114.4134405062002
 10
38.94666450374533
 20
114.4134405062002
 10
38.86199859071446
 20
114.4981144936736
 10
38.77732998620275
 20
114.4981144936736
 10
38.69266407317189
 20
114.4981144936736
 10
38.60799816014102
 20
114.4981144936736
 10
38.52333224711016
 20
114.4981144936736
 10
38.43866364259845
 20
114.4981144936736
 10
38.35399772956759
 20
114.4981144936736
 10
38.26933181653673
 20
114.4981144936736
 10
38.18466321202502
 20
114.4981144936736
 10
38.09999729899415
 20
114.4981144936736
 10
38.0153313859633
 20
114.4134405062002
 10
37.93066547293243
 20
114.4134405062002
 10
37.84599686842072
 20
114.4134405062002
 10
37.76133095538986
 20
114.4134405062002
 10
37.67666504235899
 20
114.3287772846502
 10
37.59199912932813
 20
114.3287772846502
 10
37.50733052481642
 20
114.2441140631002
 10
37.42266461178556
 20
114.1594400756268
 10
37.3379986987547
 20
114.1594400756268
 10
37.3379986987547
 20
114.0747768540768
 10
37.25333009424299
 20
113.9901136325268
 10
37.25333009424299
 20
113.9054396450533
 10
37.25333009424299
 20
113.8207764235033
 10
37.25333009424299
 20
113.7361132019533
 97
        0
 75
     0
 76
     1
 98
        1
 10
0.0
 20
0.0
450
        0
451
        0
460
0.0
461
0.0
452
        0
462
0.0
453
        0
470

  0
SPLINE
  5
D6
330
70
100
AcDbEntity
  8
Capa 1
 62
    18
420
        0
370
     9
100
AcDbSpline
210
0.0
220
0.0
230
1.0
 70
    24
 71
     3
 72
     8
 73
     4
 74
     0
 42
0.0000000001
 43
0.0000000001
 40
0.0
 40
0.0
 40
0.0
 40
0.0
 40
1.0
 40
1.0
 40
1.0
 40
1.0
 10
178.3079900507735
 20
172.5794422142065
 30
0.0
 10
178.3079900507735
 20
172.5794422142065
 30
0.0
 10
178.3079900507735
 20
170.1241118959455
 30
0.0
 10
178.3079900507735
 20
170.1241118959455
 30
0.0
  0
SPLINE
  5
D7
330
70
100
AcDbEntity
  8
Capa 1
 62
    18
420
        0
370
     9
100
AcDbSpline
210
0.0
220
0.0
230
1.0
 70
    24
 71
     3
 72
     8
 73
     4
 74
     0
 42
0.0000000001
 43
0.0000000001
 40
0.0
 40
0.0
 40
0.0
 40
0.0
 40
1.0
 40
1.0
 40
1.0
 40
1.0
 10
178.9853281209438
 20
173.0027798538033
 30
0.0
 10
178.9853281209438
 20
173.0027798538033
 30
0.0
 10
178.9853281209438
 20
170.547438769619
 30
0.0
 10
178.9853281209438
 20
170.547438769619
 30
0.0
  0
SPLINE
  5
D8
330
70
100
AcDbEntity
  8
Capa 1
 62
    18
420
        0
370
     9
100
AcDbSpline
210
0.0
220
0.0
230
1.0
 70
    24
 71
     3
 72
     8
 73
     4
 74
     0
 42
0.0000000001
 43
0.0000000001
 40
0.0
 40
0.0
 40
0.0
 40
0.0
 40
1.0
 40
1.0
 40
1.0
 40
1.0
 10
180.424656716911
 20
173.7647811455236
 30
0.0
 10
180.424656716911
 20
173.7647811455236
 30
0.0
 10
180.424656716911
 20
171.3094400613393
 30
0.0
 10
180.424656716911
 20
171.3094400613393
 30
0.0
  0
LWPOLYLINE
  5
D9
330
70
100
AcDbEntity
  8
Capa 1
 62
    18
420
        0
370
     9
100
AcDbPolyline
 90
        3
 70
     0
 43
0.0
 10
58.08132772053284
 20
146.5021041503862
 10
95.67332684986096
 20
124.8274473937877
 10
181.7793220913281
 20
174.6114564247173
  0
LWPOLYLINE
  5
DA
330
70
100
AcDbEntity
  8
Capa 1
 62
    18
420
        0
370
     9
100
AcDbPolyline
 90
        4
 70
     0
 43
0.0
 10
56.72666234611565
 20
148.9574452345705
 10
95.67332684986096
 20
126.4361131987783
 10
181.7793220913281
 20
176.1354482422346
 10
181.7793220913281
 20
174.6114564247173
  0
SPLINE
  5
DB
330
70
100
AcDbEntity
  8
Capa 1
 62
    18
420
        0
370
     9
100
AcDbSpline
210
0.0
220
0.0
230
1.0
 70
    24
 71
     3
 72
     8
 73
     4
 74
     0
 42
0.0000000001
 43
0.0000000001
 40
0.0
 40
0.0
 40
0.0
 40
0.0
 40
1.0
 40
1.0
 40
1.0
 40
1.0
 10
95.67332684986096
 20
124.8274473937877
 30
0.0
 10
95.67332684986096
 20
124.8274473937877
 30
0.0
 10
95.67332684986096
 20
126.4361131987783
 30
0.0
 10
95.67332684986096
 20
126.4361131987783
 30
0.0
  0
SPLINE
  5
DC
330
70
100
AcDbEntity
  8
Capa 1
 62
    18
420
        0
370
     9
100
AcDbSpline
210
0.0
220
0.0
230
1.0
 70
    24
 71
     3
 72
     8
 73
     4
 74
     0
 42
0.0000000001
 43
0.0000000001
 40
0.0
 40
0.0
 40
0.0
 40
0.0
 40
1.0
 40
1.0
 40
1.0
 40
1.0
 10
56.72666234611565
 20
148.9574452345705
 30
0.0
 10
56.72666234611565
 20
148.9574452345705
 30
0.0
 10
86.86799653318752
 20
166.314105437344
 30
0.0
 10
86.86799653318752
 20
166.314105437344
 30
0.0
  0
LWPOLYLINE
  5
DD
330
70
100
AcDbEntity
  8
Capa 1
 62
    18
420
        0
370
     9
100
AcDbPolyline
 90
        3
 70
     0
 43
0.0
 10
126.4919883411797
 20
189.258775112733
 10
142.8326575875828
 20
198.6567802780268
 10
181.7793220913281
 20
176.1354482422346
  0
LWPOLYLINE
  5
DE
330
70
100
AcDbEntity
  8
Capa 1
 62
    18
420
        0
370
     9
100
AcDbPolyline
 90
       30
 70
     0
 43
0.0
 10
119.8033246906438
 20
158.4401028554909
 10
119.6339874816203
 20
158.3554396339408
 10
119.3799870510469
 20
158.2707764123908
 10
119.1259866204735
 20
158.1861131908408
 10
118.8719969558234
 20
158.1014392033674
 10
118.5333225377766
 20
158.0167759818174
 10
118.1946588856531
 20
157.9321127602674
 10
117.6019948029563
 20
157.9321127602674
 10
116.924656732786
 20
158.0167759818174
 10
116.5859930806625
 20
158.0167759818174
 10
116.3319926500891
 20
158.1014392033674
 10
116.0779922195156
 20
158.1861131908408
 10
115.8239917889422
 20
158.3554396339408
 10
115.5699913583688
 20
158.4401028554909
 10
115.4853281368187
 20
158.5247768429643
 10
115.3159909277953
 20
158.6094400645143
 10
114.384663192975
 20
159.1174409256612
 10
113.0299870526344
 20
159.8794422173815
 10
111.3366580260938
 20
160.8954439396752
 10
109.2199913599563
 20
162.080772105069
 10
106.9339874847953
 20
163.4354374794862
 10
101.9386636267234
 20
166.314105437344
 10
96.85865501525475
 20
169.2774366167518
 10
94.57266190601721
 20
170.547438769619
 10
92.45599523987971
 20
171.8174409224862
 10
90.76265544741568
 20
172.7487794232299
 10
89.40799545596018
 20
173.5954547024236
 10
88.47666233817815
 20
174.1034555635705
 10
88.30733051211643
 20
174.1881187851205
 10
88.22266190760471
 20
174.2727820066705
  0
LWPOLYLINE
  5
DF
330
70
100
AcDbEntity
  8
Capa 1
 62
    18
420
        0
370
     9
100
AcDbPolyline
 90
       17
 70
     0
 43
0.0
 10
147.1506541414078
 20
174.2727820066705
 10
147.0659909198578
 20
174.1881187851205
 10
146.8119904892844
 20
174.1034555635705
 10
145.9653259760141
 20
173.5954547024236
 10
144.6106606015969
 20
172.7487794232299
 10
142.9173208091328
 20
171.8174409224862
 10
140.8006541429953
 20
170.547438769619
 10
138.5146610337578
 20
169.2774366167518
 10
133.4346631882125
 20
166.314105437344
 10
128.4393285642172
 20
163.4354374794862
 10
126.1533246890563
 20
162.080772105069
 10
124.0366580229188
 20
160.8954439396752
 10
122.3433289963781
 20
159.8794422173815
 10
120.9886636219609
 20
159.1174409256612
 10
120.0573251212172
 20
158.6094400645143
 10
119.8879879121938
 20
158.5247768429643
 10
119.8033246906438
 20
158.4401028554909
  0
LWPOLYLINE
  5
E0
330
70
100
AcDbEntity
  8
Capa 1
 62
    18
420
        0
370
     9
100
AcDbPolyline
 90
       32
 70
     0
 43
0.0
 10
115.1466537187719
 20
146.7561045809596
 10
115.3159909277953
 20
146.6714413594096
 10
115.5699913583688
 20
146.5021041503862
 10
115.9086550104922
 20
146.4174409288362
 10
116.2473294285391
 20
146.2481037198128
 10
116.6706563022125
 20
146.2481037198128
 10
117.009319954336
 20
146.1634404982627
 10
117.4326575939328
 20
146.1634404982627
 10
117.7713212460563
 20
146.0787772767127
 10
118.1946588856531
 20
146.1634404982627
 10
118.5333225377766
 20
146.1634404982627
 10
118.9566601773734
 20
146.2481037198128
 10
119.2953238294969
 20
146.3327777072861
 10
119.6339874816203
 20
146.4174409288362
 10
119.9726618996672
 20
146.5867781378596
 10
120.2266623302406
 20
146.7561045809596
 10
120.3113255517906
 20
146.7561045809596
 10
120.5653259823641
 20
146.9254417899831
 10
121.4119904956344
 20
147.4334426511299
 10
122.6819926485016
 20
148.1954439428502
 10
124.4599956625156
 20
149.1267716776706
 10
126.4919883411797
 20
150.3121106089877
 10
128.7779922163406
 20
151.6667759834049
 10
133.6886636187859
 20
154.4607699537893
 10
138.5993242553078
 20
157.3394379116471
 10
140.8853281304688
 20
158.6094400645143
 10
142.9173208091328
 20
159.7947789958315
 10
144.6106606015969
 20
160.8107699522018
 10
145.9653259760141
 20
161.5727712439221
 10
146.8119904892844
 20
162.080772105069
 10
146.9813276983078
 20
162.1654460925424
 10
147.0659909198578
 20
162.2501093140924
  0
LWPOLYLINE
  5
E1
330
70
100
AcDbEntity
  8
Capa 1
 62
    18
420
        0
370
     9
100
AcDbPolyline
 90
       17
 70
     0
 43
0.0
 10
88.30733051211643
 20
162.2501093140924
 10
88.30733051211643
 20
162.1654460925424
 10
88.56133094268987
 20
162.080772105069
 10
89.40799545596018
 20
161.5727712439221
 10
90.76265544741568
 20
160.8107699522018
 10
92.45599523987971
 20
159.7947789958315
 10
94.48798791854381
 20
158.6094400645143
 10
96.77399179370473
 20
157.3394379116471
 10
101.68466319615
 20
154.4607699537893
 10
106.5953238326719
 20
151.6667759834049
 10
108.8813277078328
 20
150.3121106089877
 10
110.9133203864969
 20
149.1267716776706
 10
112.6066601789609
 20
148.1954439428502
 10
113.9613255533781
 20
147.4334426511299
 10
114.8079900666485
 20
146.9254417899831
 10
115.0619904972219
 20
146.7561045809596
 10
115.1466537187719
 20
146.7561045809596
  0
LWPOLYLINE
  5
E2
330
70
100
AcDbEntity
  8
Capa 1
 62
    18
420
        0
370
     9
100
AcDbPolyline
 90
       10
 70
     0
 43
0.0
 10
149.0133203769719
 20
175.0347832983908
 10
149.0133203769719
 20
175.1194465199408
 10
148.9286571554219
 20
175.6274473810877
 10
148.8439939338719
 20
175.7967845901111
 10
148.7593199463985
 20
176.0507850206846
 10
148.5899935032984
 20
176.304785451258
 10
148.420656294275
 20
176.4741226602814
 10
148.1666558637016
 20
176.6434491033814
 10
147.9126554331282
 20
176.8974495339549
 10
147.8279922115781
 20
176.9821127555049
  0
LWPOLYLINE
  5
E3
330
70
100
AcDbEntity
  8
Capa 1
 62
    18
420
        0
370
     9
100
AcDbPolyline
 90
        9
 70
     0
 43
0.0
 10
87.54532922039611
 20
176.9821127555049
 10
87.46066061588441
 20
176.8974495339549
 10
87.20666018531096
 20
176.6434491033814
 10
86.6986647071258
 20
176.220122229708
 10
86.61399610261408
 20
175.9661217991345
 10
86.44466427655236
 20
175.7121213685611
 10
86.35999567204065
 20
175.5427841595377
 10
86.35999567204065
 20
175.2887837289642
 10
86.35999567204065
 20
175.1194465199408
  0
LWPOLYLINE
  5
E4
330
70
100
AcDbEntity
  8
Capa 1
 62
    18
420
        0
370
     9
100
AcDbPolyline
 90
       10
 70
     0
 43
0.0
 10
148.335993072725
 20
163.9434383406331
 10
148.335993072725
 20
164.4514392017799
 10
148.420656294275
 20
165.7214413546471
 10
148.5053195158251
 20
167.4994443686611
 10
148.6746567248485
 20
169.5314370473252
 10
148.7593199463985
 20
171.5634404919127
 10
148.9286571554219
 20
173.3414435059268
 10
149.0133203769719
 20
174.6114564247173
 10
149.0133203769719
 20
174.9501200768408
 10
149.0133203769719
 20
175.0347832983908
  0
LWPOLYLINE
  5
E5
330
70
100
AcDbEntity
  8
Capa 1
 62
    18
420
        0
370
     9
100
AcDbPolyline
 90
       10
 70
     0
 43
0.0
 10
86.35999567204065
 20
175.0347832983908
 10
86.35999567204065
 20
174.6114564247173
 10
86.44466427655236
 20
173.3414435059268
 10
86.61399610261408
 20
171.5634404919127
 10
86.6986647071258
 20
169.5314370473252
 10
86.7833279286758
 20
167.4994443686611
 10
86.95265975473754
 20
165.7214413546471
 10
87.03732835924924
 20
164.4514392017799
 10
87.03732835924924
 20
164.1127755496565
 10
87.03732835924924
 20
163.9434383406331
  0
LWPOLYLINE
  5
E6
330
70
100
AcDbEntity
  8
Capa 1
 62
    18
420
        0
370
     9
100
AcDbPolyline
 90
        6
 70
     0
 43
0.0
 10
147.8279922115781
 20
174.8654460893674
 10
147.7433289900281
 20
174.6961196462674
 10
147.5739917810047
 20
174.5267824372439
 10
147.4046545719813
 20
174.4421192156939
 10
147.2353281288813
 20
174.2727820066705
 10
147.1506541414078
 20
174.2727820066705
  0
LWPOLYLINE
  5
E7
330
70
100
AcDbEntity
  8
Capa 1
 62
    18
420
        0
370
     9
100
AcDbPolyline
 90
        7
 70
     0
 43
0.0
 10
88.22266190760471
 20
174.2727820066705
 10
88.13799330309299
 20
174.2727820066705
 10
87.88399287251957
 20
174.4421192156939
 10
87.71466104645783
 20
174.6114564247173
 10
87.62999782490783
 20
174.6961196462674
 10
87.54532922039611
 20
174.8654460893674
 10
87.54532922039611
 20
174.9501200768408
  0
LWPOLYLINE
  5
E8
330
70
100
AcDbEntity
  8
Capa 1
 62
    18
420
        0
370
     9
100
AcDbPolyline
 90
       35
 70
     0
 43
0.0
 10
122.3433289963781
 20
165.3827777025236
 10
122.3433289963781
 20
165.1287772719502
 10
122.2586550089047
 20
164.9594400629268
 10
122.0893285658047
 20
164.7054396323533
 10
121.9199913567813
 20
164.5361131892533
 10
121.7506541477578
 20
164.2821127586799
 10
121.4966537171844
 20
164.1127755496565
 10
121.242653286611
 20
163.9434383406331
 10
120.9886636219609
 20
163.774111897533
 10
120.6499892039141
 20
163.6047746885096
 10
120.3113255517906
 20
163.4354374794862
 10
119.9726618996672
 20
163.3507742579362
 10
119.5493242600703
 20
163.2661110363861
 10
119.2106606079469
 20
163.1814370489127
 10
118.78732296835
 20
163.0967738273627
 10
118.3639960946766
 20
163.0121106058127
 10
117.9406584550797
 20
163.0121106058127
 10
117.5173208154828
 20
163.0121106058127
 10
117.0939939418094
 20
163.0121106058127
 10
116.6706563022125
 20
163.0967738273627
 10
116.2473294285391
 20
163.1814370489127
 10
115.8239917889422
 20
163.2661110363861
 10
115.4853281368187
 20
163.3507742579362
 10
115.0619904972219
 20
163.4354374794862
 10
114.7233268450984
 20
163.6047746885096
 10
114.384663192975
 20
163.774111897533
 10
114.1306627624016
 20
163.9434383406331
 10
113.8766623318281
 20
164.1127755496565
 10
113.6226619012547
 20
164.2821127586799
 10
113.4533246922313
 20
164.4514392017799
 10
113.2839874832078
 20
164.7054396323533
 10
113.1146610401078
 20
164.8747768413768
 10
113.0299870526344
 20
165.1287772719502
 10
113.0299870526344
 20
165.2981037150502
 10
113.0299870526344
 20
165.3827777025236
  0
LWPOLYLINE
  5
E9
330
70
100
AcDbEntity
  8
Capa 1
 62
    18
420
        0
370
     9
100
AcDbPolyline
 90
       17
 70
     0
 43
0.0
 10
147.8279922115781
 20
176.9821127555049
 10
147.7433289900281
 20
176.9821127555049
 10
147.4893285594547
 20
177.1514499645283
 10
146.642653280261
 20
177.6594508256752
 10
145.2879879058438
 20
178.4214521173955
 10
143.5099956577531
 20
179.4374538396892
 10
141.3933289916156
 20
180.622782005083
 10
139.1073251164547
 20
181.9774366135768
 10
134.0273272709094
 20
184.856115337358
 10
128.9473294253641
 20
187.8194357508424
 10
126.6613255502031
 20
189.174111891183
 10
124.5446588840656
 20
190.3594400565768
 10
122.7666558700516
 20
191.3754417788705
 10
121.4119904956344
 20
192.1374538365142
 10
120.5653259823641
 20
192.6454546976611
 10
120.3113255517906
 20
192.8147811407612
 10
120.2266623302406
 20
192.8147811407612
  0
LWPOLYLINE
  5
EA
330
70
100
AcDbEntity
  8
Capa 1
 62
    18
420
        0
370
     9
100
AcDbPolyline
 90
       16
 70
     0
 43
0.0
 10
115.0619904972219
 20
192.8147811407612
 10
114.8079900666485
 20
192.6454546976611
 10
113.8766623318281
 20
192.1374538365142
 10
112.5219969574109
 20
191.3754417788705
 10
110.8286571649469
 20
190.3594400565768
 10
108.7119904988094
 20
189.174111891183
 10
106.4259973895719
 20
187.8194357508424
 10
101.3459887781031
 20
184.856115337358
 10
96.26599093255785
 20
181.9774366135768
 10
93.97999782332034
 20
180.622782005083
 10
91.86333115718282
 20
179.4374538396892
 10
90.08532814316877
 20
178.4214521173955
 10
88.73066276875158
 20
177.6594508256752
 10
87.88399287251957
 20
177.1514499645283
 10
87.62999782490783
 20
176.9821127555049
 10
87.54532922039611
 20
176.9821127555049
  0
LWPOLYLINE
  5
EB
330
70
100
AcDbEntity
  8
Capa 1
 62
    18
420
        0
370
     9
100
AcDbPolyline
 90
        9
 70
     0
 43
0.0
 10
147.0659909198578
 20
162.2501093140924
 10
147.2353281288813
 20
162.3347725356424
 10
147.4893285594547
 20
162.5041097446658
 10
147.7433289900281
 20
162.7581101752393
 10
147.9126554331282
 20
163.0121106058127
 10
148.0819926421516
 20
163.1814370489127
 10
148.251329851175
 20
163.4354374794862
 10
148.335993072725
 20
163.6894379100596
 10
148.335993072725
 20
163.9434383406331
  0
LWPOLYLINE
  5
EC
330
70
100
AcDbEntity
  8
Capa 1
 62
    18
420
        0
370
     9
100
AcDbPolyline
 90
        9
 70
     0
 43
0.0
 10
87.03732835924924
 20
163.9434383406331
 10
87.12199696376094
 20
163.6894379100596
 10
87.20666018531096
 20
163.4354374794862
 10
87.29132878982268
 20
163.1814370489127
 10
87.46066061588441
 20
162.9274366183393
 10
87.62999782490783
 20
162.7581101752393
 10
87.79932965096955
 20
162.5041097446658
 10
88.05333008154297
 20
162.3347725356424
 10
88.30733051211643
 20
162.2501093140924
  0
LWPOLYLINE
  5
ED
330
70
100
AcDbEntity
  8
Capa 1
 62
    18
420
        0
370
     9
100
AcDbPolyline
 90
       17
 70
     0
 43
0.0
 10
120.2266623302406
 20
192.8147811407612
 10
120.1419883427672
 20
192.8994443623111
 10
119.8033246906438
 20
193.0687708054112
 10
119.4646610385203
 20
193.1534555588079
 10
119.1259866204735
 20
193.322782001908
 10
118.78732296835
 20
193.407445223458
 10
118.3639960946766
 20
193.407445223458
 10
118.0253216766297
 20
193.492108445008
 10
117.6019948029563
 20
193.492108445008
 10
117.2633203849094
 20
193.407445223458
 10
116.8399935112359
 20
193.407445223458
 10
116.5013298591125
 20
193.322782001908
 10
116.1626554410656
 20
193.238118780358
 10
115.8239917889422
 20
193.1534555588079
 10
115.4853281368187
 20
192.9841075838611
 10
115.1466537187719
 20
192.8994443623111
 10
115.0619904972219
 20
192.8147811407612
  0
LWPOLYLINE
  5
EE
330
70
100
AcDbEntity
  8
Capa 1
 62
    18
420
        0
370
     9
100
AcDbPolyline
 90
        5
 70
     0
 43
0.0
 10
114.9773272756719
 20
157.678112329694
 10
116.2473294285391
 20
157.2547746900971
 10
117.6866580245063
 20
157.0854374810737
 10
119.1259866204735
 20
157.2547746900971
 10
120.3959887733407
 20
157.678112329694
  0
LWPOLYLINE
  5
EF
330
70
100
AcDbEntity
  8
Capa 1
 62
    18
420
        0
370
     9
100
AcDbPolyline
 90
       17
 70
     0
 43
0.0
 10
114.9773272756719
 20
157.678112329694
 10
114.8926640541219
 20
157.762775551244
 10
114.7233268450984
 20
157.9321127602674
 10
113.7919883443547
 20
158.4401028554909
 10
112.4373229699375
 20
159.2021041472112
 10
110.6593307218469
 20
160.2181058695049
 10
108.6273272772594
 20
161.4034448008221
 10
106.2566601805484
 20
162.7581101752393
 10
101.2613255565531
 20
165.6367781330971
 10
96.18132771100784
 20
168.6001093125049
 10
93.89532383584691
 20
169.9547746869221
 10
91.77865716970941
 20
171.1401028523159
 10
90.00065953865705
 20
172.1561045746096
 10
88.64599416423986
 20
172.9181058663299
 10
87.79932965096955
 20
173.4261174934002
 10
87.54532922039611
 20
173.5954547024236
 10
87.46066061588441
 20
173.5954547024236
  0
LWPOLYLINE
  5
F0
330
70
100
AcDbEntity
  8
Capa 1
 62
    18
420
        0
370
     9
100
AcDbPolyline
 90
       17
 70
     0
 43
0.0
 10
147.9126554331282
 20
173.5954547024236
 10
147.8279922115781
 20
173.5954547024236
 10
147.5739917810047
 20
173.4261174934002
 10
146.7273272677344
 20
172.9181058663299
 10
145.3726618933172
 20
172.1561045746096
 10
143.5946588793031
 20
171.1401028523159
 10
141.4779922131656
 20
169.9547746869221
 10
139.1919883380047
 20
168.6001093125049
 10
134.1119904924594
 20
165.6367781330971
 10
129.1166558684641
 20
162.7581101752393
 10
126.7459887717532
 20
161.4034448008221
 10
124.6293221056157
 20
160.2181058695049
 10
122.935993079075
 20
159.2021041472112
 10
121.5813277046578
 20
158.4401028554909
 10
120.6499892039141
 20
157.9321127602674
 10
120.4806627608141
 20
157.762775551244
 10
120.3959887733407
 20
157.678112329694
  0
SPLINE
  5
F1
330
70
100
AcDbEntity
  8
Capa 1
 62
    18
420
        0
370
     9
100
AcDbSpline
210
0.0
220
0.0
230
1.0
 70
    24
 71
     3
 72
     8
 73
     4
 74
     0
 42
0.0000000001
 43
0.0000000001
 40
0.0
 40
0.0
 40
0.0
 40
0.0
 40
1.0
 40
1.0
 40
1.0
 40
1.0
 10
87.54532922039611
 20
174.9501200768408
 30
0.0
 10
87.54532922039611
 20
174.9501200768408
 30
0.0
 10
87.54532922039611
 20
174.8654460893674
 30
0.0
 10
87.54532922039611
 20
174.8654460893674
 30
0.0
  0
SPLINE
  5
F2
330
70
100
AcDbEntity
  8
Capa 1
 62
    18
420
        0
370
     9
100
AcDbSpline
210
0.0
220
0.0
230
1.0
 70
    24
 71
     3
 72
     8
 73
     4
 74
     0
 42
0.0000000001
 43
0.0000000001
 40
0.0
 40
0.0
 40
0.0
 40
0.0
 40
1.0
 40
1.0
 40
1.0
 40
1.0
 10
149.0133203769719
 20
175.0347832983908
 30
0.0
 10
149.0133203769719
 20
175.0347832983908
 30
0.0
 10
149.0979943644453
 20
175.0347832983908
 30
0.0
 10
149.0979943644453
 20
175.0347832983908
 30
0.0
  0
SPLINE
  5
F3
330
70
100
AcDbEntity
  8
Capa 1
 62
    18
420
        0
370
     9
100
AcDbSpline
210
0.0
220
0.0
230
1.0
 70
    24
 71
     3
 72
     8
 73
     4
 74
     0
 42
0.0000000001
 43
0.0000000001
 40
0.0
 40
0.0
 40
0.0
 40
0.0
 40
1.0
 40
1.0
 40
1.0
 40
1.0
 10
148.335993072725
 20
163.9434383406331
 30
0.0
 10
148.335993072725
 20
163.9434383406331
 30
0.0
 10
148.420656294275
 20
163.9434383406331
 30
0.0
 10
148.420656294275
 20
163.9434383406331
 30
0.0
  0
LWPOLYLINE
  5
F4
330
70
100
AcDbEntity
  8
Capa 1
 62
    18
420
        0
370
     9
100
AcDbPolyline
 90
       17
 70
     0
 43
0.0
 10
147.0659909198578
 20
176.4741226602814
 10
146.9813276983078
 20
176.4741226602814
 10
146.7273272677344
 20
176.6434491033814
 10
145.8806627544641
 20
177.1514499645283
 10
144.5259866141235
 20
177.9134512562486
 10
142.8326575875828
 20
178.9294529785423
 10
140.7159909214453
 20
180.1147811439362
 10
138.4299870462844
 20
181.4694357524299
 10
133.3499892007391
 20
184.3481144762111
 10
128.3546545767438
 20
187.2267716681456
 10
126.0686614675063
 20
188.5814478084861
 10
123.9519948013688
 20
189.7667759738799
 10
122.2586550089047
 20
190.7827776961736
 10
120.9039896344875
 20
191.5447897538174
 10
119.9726618996672
 20
192.0527690831174
 10
119.8033246906438
 20
192.2221170580642
 10
119.7186614690938
 20
192.2221170580642
  0
LWPOLYLINE
  5
F5
330
70
100
AcDbEntity
  8
Capa 1
 62
    18
420
        0
370
     9
100
AcDbPolyline
 90
       17
 70
     0
 43
0.0
 10
115.6546545799188
 20
192.2221170580642
 10
115.5699913583688
 20
192.2221170580642
 10
115.4006541493453
 20
192.0527690831174
 10
114.469326414525
 20
191.5447897538174
 10
113.1146610401078
 20
190.7827776961736
 10
111.4213212476438
 20
189.7667759738799
 10
109.3046545815063
 20
188.5814478084861
 10
107.0186614722687
 20
187.2267716681456
 10
102.0233268482734
 20
184.3481144762111
 10
96.94332900272815
 20
181.4694357524299
 10
94.65732512756723
 20
180.1147811439362
 10
92.54065846142973
 20
178.9294529785423
 10
90.84732943488909
 20
177.9134512562486
 10
89.4926640604719
 20
177.1514499645283
 10
88.64599416423986
 20
176.6434491033814
 10
88.39199373366644
 20
176.4741226602814
 10
88.30733051211643
 20
176.4741226602814
  0
LWPOLYLINE
  5
F6
330
70
100
AcDbEntity
  8
Capa 1
 62
    18
420
        0
370
     9
100
AcDbPolyline
 90
        3
 70
     0
 43
0.0
 10
114.6386636235484
 20
165.6367781330971
 10
113.9613255533781
 20
165.1287772719502
 10
113.5379879137813
 20
164.3667759802299
  0
LWPOLYLINE
  5
F7
330
70
100
AcDbEntity
  8
Capa 1
 62
    18
420
        0
370
     9
100
AcDbPolyline
 90
       23
 70
     0
 43
0.0
 10
121.8353281352313
 20
164.3667759802299
 10
121.8353281352313
 20
164.4514392017799
 10
121.7506541477578
 20
164.7054396323533
 10
121.5813277046578
 20
164.8747768413768
 10
121.3273272740844
 20
165.1287772719502
 10
121.157990065061
 20
165.2981037150502
 10
120.8193264129375
 20
165.5521041456237
 10
120.5653259823641
 20
165.7214413546471
 10
120.2266623302406
 20
165.8907785636705
 10
119.8879879121938
 20
165.9754417852205
 10
119.4646610385203
 20
166.144778994244
 10
119.0413233989235
 20
166.229442215794
 10
118.61799652525
 20
166.314105437344
 10
118.1946588856531
 20
166.314105437344
 10
117.7713212460563
 20
166.314105437344
 10
117.3479943723828
 20
166.314105437344
 10
116.924656732786
 20
166.314105437344
 10
116.5013298591125
 20
166.229442215794
 10
116.0779922195156
 20
166.144778994244
 10
115.7393285673922
 20
166.0601050067706
 10
115.3159909277953
 20
165.8907785636705
 10
114.9773272756719
 20
165.8061045761971
 10
114.6386636235484
 20
165.6367781330971
  0
LINE
  5
F8
330
70
100
AcDbEntity
  8
Capa 1
 62
    18
420
        0
370
     9
100
AcDbLine
 10
115.6546545799188
 20
164.0281123281065
 30
0.0
 11
115.0619904972219
 21
163.4354374794862
 31
0.0
  0
LWPOLYLINE
  5
F9
330
70
100
AcDbEntity
  8
Capa 1
 62
    18
420
        0
370
     9
100
AcDbPolyline
 90
       17
 70
     0
 43
0.0
 10
120.3113255517906
 20
163.4354374794862
 10
120.2266623302406
 20
163.6047746885096
 10
119.9726618996672
 20
163.774111897533
 10
119.8033246906438
 20
163.9434383406331
 10
119.5493242600703
 20
164.1127755496565
 10
119.2953238294969
 20
164.1974387712065
 10
118.9566601773734
 20
164.2821127586799
 10
118.61799652525
 20
164.3667759802299
 10
118.2793221072031
 20
164.4514392017799
 10
117.9406584550797
 20
164.4514392017799
 10
117.6019948029563
 20
164.5361131892533
 10
117.2633203849094
 20
164.4514392017799
 10
116.924656732786
 20
164.4514392017799
 10
116.5859930806625
 20
164.3667759802299
 10
116.2473294285391
 20
164.2821127586799
 10
115.9933289979656
 20
164.1974387712065
 10
115.6546545799188
 20
164.0281123281065
  0
LWPOLYLINE
  5
FA
330
70
100
AcDbEntity
  8
Capa 1
 62
    18
420
        0
370
     9
100
AcDbPolyline
 90
        5
 70
     0
 43
0.0
 10
119.6339874816203
 20
163.2661110363861
 10
118.7026597468
 20
163.6047746885096
 10
117.6866580245063
 20
163.6894379100596
 10
116.6706563022125
 20
163.6047746885096
 10
115.7393285673922
 20
163.2661110363861
  0
LWPOLYLINE
  5
FB
330
70
100
AcDbEntity
  8
Capa 1
 62
    18
420
        0
370
     9
100
AcDbPolyline
 90
       10
 70
     0
 43
0.0
 10
115.6546545799188
 20
181.8081101704768
 10
116.0779922195156
 20
181.9774366135768
 10
116.5013298591125
 20
182.0621213669736
 10
116.924656732786
 20
182.1467845885236
 10
117.4326575939328
 20
182.1467845885236
 10
117.8559952335297
 20
182.1467845885236
 10
118.3639960946766
 20
182.1467845885236
 10
118.78732296835
 20
182.0621213669736
 10
119.1259866204735
 20
181.9774366135768
 10
119.7186614690938
 20
181.8081101704768
  0
LWPOLYLINE
  5
FC
330
70
100
AcDbEntity
  8
Capa 1
 62
    18
420
        0
370
     9
100
AcDbPolyline
 90
        5
 70
     0
 43
0.0
 10
119.7186614690938
 20
192.2221170580642
 10
118.78732296835
 20
192.6454546976611
 10
117.6866580245063
 20
192.8147811407612
 10
116.5859930806625
 20
192.6454546976611
 10
115.6546545799188
 20
192.2221170580642
  0
LWPOLYLINE
  5
FD
330
70
100
AcDbEntity
  8
Capa 1
 62
    18
420
        0
370
     9
100
AcDbPolyline
 90
        5
 70
     0
 43
0.0
 10
147.8279922115781
 20
174.8654460893674
 10
147.9126554331282
 20
175.2887837289642
 10
147.8279922115781
 20
175.7121213685611
 10
147.5739917810047
 20
176.1354482422346
 10
147.0659909198578
 20
176.4741226602814
  0
LWPOLYLINE
  5
FE
330
70
100
AcDbEntity
  8
Capa 1
 62
    18
420
        0
370
     9
100
AcDbPolyline
 90
        5
 70
     0
 43
0.0
 10
88.30733051211643
 20
176.4741226602814
 10
87.79932965096955
 20
176.1354482422346
 10
87.54532922039611
 20
175.7121213685611
 10
87.46066061588441
 20
175.3734469505143
 10
87.54532922039611
 20
174.9501200768408
  0
LWPOLYLINE
  5
FF
330
70
100
AcDbEntity
  8
Capa 1
 62
    18
420
        0
370
     9
100
AcDbPolyline
 90
        3
 70
     0
 43
0.0
 10
147.9126554331282
 20
173.5954547024236
 10
148.6746567248485
 20
174.2727820066705
 10
149.0133203769719
 20
175.0347832983908
  0
LWPOLYLINE
  5
100
330
70
100
AcDbEntity
  8
Capa 1
 62
    18
420
        0
370
     9
100
AcDbPolyline
 90
        3
 70
     0
 43
0.0
 10
86.35999567204065
 20
175.1194465199408
 10
86.6986647071258
 20
174.2727820066705
 10
87.46066061588441
 20
173.5954547024236
  0
LWPOLYLINE
  5
101
330
70
100
AcDbEntity
  8
Capa 1
 62
    18
420
        0
370
     9
100
AcDbPolyline
 90
        6
 70
     0
 43
0.0
 10
119.7186614690938
 20
181.8081101704768
 10
124.0366580229188
 20
179.1834534091158
 10
128.4393285642172
 20
176.6434491033814
 10
132.7573251180422
 20
174.1034555635705
 10
137.1599956593406
 20
171.5634404919127
 10
139.953989629725
 20
170.0394379084721
  0
LWPOLYLINE
  5
102
330
70
100
AcDbEntity
  8
Capa 1
 62
    18
420
        0
370
     9
100
AcDbPolyline
 90
        6
 70
     0
 43
0.0
 10
95.50398964083754
 20
170.0394379084721
 10
96.51999136313129
 20
170.6321127570924
 10
100.9226619044297
 20
173.0874430753534
 10
105.3253216798047
 20
175.6274473810877
 10
109.6433289995531
 20
178.1674516868221
 10
115.6546545799188
 20
181.8081101704768
  0
LWPOLYLINE
  5
103
330
70
100
AcDbEntity
  8
Capa 1
 62
    18
420
        0
370
     9
100
AcDbPolyline
 90
       36
 70
     0
 43
0.0
 10
122.3433289963781
 20
165.3827777025236
 10
122.4279922179281
 20
165.5521041456237
 10
122.3433289963781
 20
165.8907785636705
 10
122.3433289963781
 20
166.144778994244
 10
122.2586550089047
 20
166.3987794248174
 10
122.0893285658047
 20
166.6527798553908
 10
121.9199913567813
 20
166.8221062984908
 10
121.6659909262078
 20
167.0761067290643
 10
121.4119904956344
 20
167.3301071596377
 10
121.0733268435109
 20
167.4994443686611
 10
120.7346631913875
 20
167.6687708117612
 10
120.3959887733407
 20
167.8381080207846
 10
120.0573251212172
 20
168.007445229808
 10
119.6339874816203
 20
168.092108451358
 10
119.2106606079469
 20
168.1767716729081
 10
118.78732296835
 20
168.2614456603815
 10
118.2793221072031
 20
168.3461088819315
 10
117.8559952335297
 20
168.3461088819315
 10
117.4326575939328
 20
168.3461088819315
 10
116.924656732786
 20
168.3461088819315
 10
116.5013298591125
 20
168.2614456603815
 10
116.0779922195156
 20
168.1767716729081
 10
115.6546545799188
 20
168.092108451358
 10
115.2313277062453
 20
167.9227712423346
 10
114.8926640541219
 20
167.8381080207846
 10
114.553989636075
 20
167.6687708117612
 10
114.2153259839516
 20
167.4147703811877
 10
113.8766623318281
 20
167.2454439380877
 10
113.6226619012547
 20
167.0761067290643
 10
113.4533246922313
 20
166.8221062984908
 10
113.2839874832078
 20
166.5681058679174
 10
113.1146610401078
 20
166.314105437344
 10
113.0299870526344
 20
166.0601050067706
 10
112.9453238310844
 20
165.8061045761971
 10
112.9453238310844
 20
165.5521041456237
 10
112.9453238310844
 20
165.3827777025236
  0
LINE
  5
104
330
70
100
AcDbEntity
  8
Capa 1
 62
    18
420
        0
370
     9
100
AcDbLine
 10
117.6866580245063
 20
182.6547854496705
 30
0.0
 11
117.6866580245063
 21
192.3914435011643
 31
0.0
  0
LINE
  5
105
330
70
100
AcDbEntity
  8
Capa 1
 62
    18
420
        0
370
     9
100
AcDbLine
 10
117.6866580245063
 20
146.840778568433
 30
0.0
 11
117.6866580245063
 21
156.6621106074002
 31
0.0
  0
ENDSEC
  0
SECTION
  2
OBJECTS
  0
DICTIONARY
  5
C
330
0
100
AcDbDictionary
281
     1
  3
ACAD_COLOR
350
63
  3
ACAD_DETAILVIEWSTYLE
350
6A
  3
ACAD_GROUP
350
D
  3
ACAD_LAYOUT
350
62
  3
ACAD_MATERIAL
350
10
  3
ACAD_MLEADERSTYLE
350
66
  3
ACAD_MLINESTYLE
350
5F
  3
ACAD_PLOTSETTINGS
350
61
  3
ACAD_PLOTSTYLENAME
350
E
  3
ACAD_SCALELIST
350
42
  3
ACAD_SECTIONVIEWSTYLE
350
68
  3
ACAD_TABLESTYLE
350
64
  3
ACAD_VISUALSTYLE
350
29
  3
ACDB_RECOMPOSE_DATA
350
10E
  3
AcDbVariableDictionary
350
106
  0
DICTIONARY
  5
63
102
{ACAD_REACTORS
330
C
102
}
330
C
100
AcDbDictionary
281
     1
  0
DICTIONARY
  5
6A
102
{ACAD_REACTORS
330
C
102
}
330
C
100
AcDbDictionary
281
     1
  3
Imperial24
350
6B
  0
DICTIONARY
  5
D
102
{ACAD_REACTORS
330
C
102
}
330
C
100
AcDbDictionary
281
     1
  0
DICTIONARY
  5
62
102
{ACAD_REACTORS
330
C
102
}
330
C
100
AcDbDictionary
281
     1
  3
Layout1
350
6F
  3
Layout2
350
77
  3
Model
350
73
  0
DICTIONARY
  5
10
102
{ACAD_REACTORS
330
C
102
}
330
C
100
AcDbDictionary
281
     1
  3
ByBlock
350
19
  3
ByLayer
350
11
  3
Global
350
21
  0
DICTIONARY
  5
66
102
{ACAD_REACTORS
330
C
102
}
330
C
100
AcDbDictionary
281
     1
  3
Standard
350
67
  0
DICTIONARY
  5
5F
102
{ACAD_REACTORS
330
C
102
}
330
C
100
AcDbDictionary
281
     1
  3
Standard
350
60
  0
DICTIONARY
  5
61
102
{ACAD_REACTORS
330
C
102
}
330
C
100
AcDbDictionary
281
     1
  0
ACDBDICTIONARYWDFLT
  5
E
102
{ACAD_REACTORS
330
C
102
}
330
C
100
AcDbDictionary
281
     1
  3
Normal
350
F
100
AcDbDictionaryWithDefault
340
F
  0
DICTIONARY
  5
42
102
{ACAD_REACTORS
330
C
102
}
330
C
100
AcDbDictionary
281
     1
  3
A0
350
43
  3
A1
350
44
  3
A2
350
45
  3
A3
350
46
  3
A4
350
47
  3
A5
350
48
  3
A6
350
49
  3
A7
350
4A
  3
A8
350
4B
  3
A9
350
4C
  3
B0
350
4D
  3
B1
350
4E
  3
B2
350
4F
  3
B3
350
50
  3
B4
350
51
  3
B5
350
52
  3
B6
350
53
  0
DICTIONARY
  5
68
102
{ACAD_REACTORS
330
C
102
}
330
C
100
AcDbDictionary
281
     1
  3
Imperial24
350
69
  0
DICTIONARY
  5
64
102
{ACAD_REACTORS
330
C
102
}
330
C
100
AcDbDictionary
281
     1
  3
Standard
350
65
  0
DICTIONARY
  5
29
102
{ACAD_REACTORS
330
C
102
}
330
C
100
AcDbDictionary
281
     1
  3
2dWireframe
350
2F
  3
Basic
350
2E
  3
Brighten
350
35
  3
ColorChange
350
39
  3
Conceptual
350
32
  3
Dim
350
34
  3
EdgeColorOff
350
41
  3
Facepattern
350
38
  3
Flat
350
2A
  3
FlatWithEdges
350
2B
  3
Gouraud
350
2C
  3
GouraudWithEdges
350
2D
  3
Hidden
350
31
  3
JitterOff
350
3F
  3
Linepattern
350
37
  3
OverhangOff
350
40
  3
Realistic
350
33
  3
Shaded
350
3E
  3
Shaded with edges
350
3D
  3
Shades of Gray
350
3A
  3
Sketchy
350
3B
  3
Thicken
350
36
  3
Wireframe
350
30
  3
X-Ray
350
3C
  0
XRECORD
  5
10E
102
{ACAD_REACTORS
330
C
102
}
330
C
100
AcDbXrecord
280
     1
 90
        1
330
65
  0
DICTIONARY
  5
106
102
{ACAD_REACTORS
330
C
102
}
330
C
100
AcDbDictionary
281
     1
  3
CANNOSCALE
350
10B
  3
CMLEADERSTYLE
350
108
  3
CTABLESTYLE
350
107
  3
CVIEWDETAILSTYLE
350
109
  3
CVIEWSECTIONSTYLE
350
10A
  0
ACDBDETAILVIEWSTYLE
  5
6B
102
{ACAD_XDICTIONARY
360
143
102
}
102
{ACAD_REACTORS
330
6A
102
}
330
6A
100
AcDbModelDocViewStyle
 70
     0
  3
Imperial24
290
     0
100
AcDbDetailViewStyle
 70
     0
 71
     0
 90
        3
 71
     1
340
55
 62
   256
 40
0.24
340
0
 62
   256
 40
0.24
300

 40
0.36
280
     3
 71
     2
340
5D
 90
       25
 62
   256
 71
     3
340
55
 62
   256
 40
0.24
 90
        1
 40
0.75
 90
        1
300
%<\AcVar ViewType \f "%tc1">% %<\AcVar ViewDetailId>%\PSCALE %<\AcVar ViewScale \f "%sn">%
 71
     4
340
5D
 90
       25
 62
   256
340
5D
 90
       25
 62
   256
280
     0
  0
LAYOUT
  5
6F
102
{ACAD_REACTORS
330
62
102
}
330
62
100
AcDbPlotSettings
  1

  2

  4

  6

 40
0.0
 41
0.0
 42
0.0
 43
0.0
 44
0.0
 45
0.0
 46
0.0
 47
0.0
 48
0.0
 49
0.0
140
0.0
141
0.0
142
1.0
143
1.0
 70
   688
 72
     0
 73
     0
 74
     5
  7

 75
    16
147
1.0
 76
     0
 77
     2
 78
   300
148
0.0
149
0.0
100
AcDbLayout
  1
Layout1
 70
     1
 71
     1
 10
0.0
 20
0.0
 11
12.0
 21
9.0
 12
0.0
 22
0.0
 32
0.0
 14
0.0
 24
0.0
 34
0.0
 15
0.0
 25
0.0
 35
0.0
146
0.0
 13
0.0
 23
0.0
 33
0.0
 16
1.0
 26
0.0
 36
0.0
 17
0.0
 27
1.0
 37
0.0
 76
     0
330
6C
  0
LAYOUT
  5
77
102
{ACAD_REACTORS
330
62
102
}
330
62
100
AcDbPlotSettings
  1

  2

  4

  6

 40
0.0
 41
0.0
 42
0.0
 43
0.0
 44
0.0
 45
0.0
 46
0.0
 47
0.0
 48
0.0
 49
0.0
140
0.0
141
0.0
142
1.0
143
1.0
 70
   688
 72
     0
 73
     0
 74
     5
  7

 75
    16
147
1.0
 76
     0
 77
     2
 78
   300
148
0.0
149
0.0
100
AcDbLayout
  1
Layout2
 70
     1
 71
     2
 10
0.0
 20
0.0
 11
12.0
 21
9.0
 12
0.0
 22
0.0
 32
0.0
 14
0.0
 24
0.0
 34
0.0
 15
0.0
 25
0.0
 35
0.0
146
0.0
 13
0.0
 23
0.0
 33
0.0
 16
1.0
 26
0.0
 36
0.0
 17
0.0
 27
1.0
 37
0.0
 76
     0
330
74
  0
LAYOUT
  5
73
102
{ACAD_REACTORS
330
62
102
}
330
62
100
AcDbPlotSettings
  1

  2

  4

  6

 40
0.0
 41
0.0
 42
0.0
 43
0.0
 44
0.0
 45
0.0
 46
0.0
 47
0.0
 48
0.0
 49
0.0
140
0.0
141
0.0
142
1.0
143
1.0
 70
  1712
 72
     0
 73
     0
 74
     0
  7

 75
     0
147
1.0
 76
     0
 77
     2
 78
   300
148
0.0
149
0.0
100
AcDbLayout
  1
Model
 70
     1
 71
     0
 10
0.0
 20
0.0
 11
12.0
 21
9.0
 12
0.0
 22
0.0
 32
0.0
 14
0.0
 24
0.0
 34
0.0
 15
0.0
 25
0.0
 35
0.0
146
0.0
 13
0.0
 23
0.0
 33
0.0
 16
1.0
 26
0.0
 36
0.0
 17
0.0
 27
1.0
 37
0.0
 76
     0
330
70
  0
MATERIAL
  5
19
102
{ACAD_XDICTIONARY
360
1A
102
}
102
{ACAD_REACTORS
330
10
102
}
330
10
100
AcDbMaterial
  1
ByBlock
 72
     0
 43
0.0208333333333333
 43
0.0
 43
0.0
 43
0.0
 43
0.0
 43
0.0208333333333333
 43
0.0
 43
0.0
 43
0.0
 43
0.0
 43
1.0
 43
0.0
 43
0.0
 43
0.0
 43
0.0
 43
1.0
 77
     0
 47
0.0208333333333333
 47
0.0
 47
0.0
 47
0.0
 47
0.0
 47
0.0208333333333333
 47
0.0
 47
0.0
 47
0.0
 47
0.0
 47
1.0
 47
0.0
 47
0.0
 47
0.0
 47
0.0
 47
1.0
171
     0
 49
0.0208333333333333
 49
0.0
 49
0.0
 49
0.0
 49
0.0
 49
0.0208333333333333
 49
0.0
 49
0.0
 49
0.0
 49
0.0
 49
1.0
 49
0.0
 49
0.0
 49
0.0
 49
0.0
 49
1.0
175
     0
142
0.0208333333333333
142
0.0
142
0.0
142
0.0
142
0.0
142
0.0208333333333333
142
0.0
142
0.0
142
0.0
142
0.0
142
1.0
142
0.0
142
0.0
142
0.0
142
0.0
142
1.0
179
     0
144
0.0208333333333333
144
0.0
144
0.0
144
0.0
144
0.0
144
0.0208333333333333
144
0.0
144
0.0
144
0.0
144
0.0
144
1.0
144
0.0
144
0.0
144
0.0
144
0.0
144
1.0
147
0.0208333333333333
147
0.0
147
0.0
147
0.0
147
0.0
147
0.0208333333333333
147
0.0
147
0.0
147
0.0
147
0.0
147
1.0
147
0.0
147
0.0
147
0.0
147
0.0
147
1.0
  0
MATERIAL
  5
11
102
{ACAD_XDICTIONARY
360
12
102
}
102
{ACAD_REACTORS
330
10
102
}
330
10
100
AcDbMaterial
  1
ByLayer
 72
     0
 43
0.0208333333333333
 43
0.0
 43
0.0
 43
0.0
 43
0.0
 43
0.0208333333333333
 43
0.0
 43
0.0
 43
0.0
 43
0.0
 43
1.0
 43
0.0
 43
0.0
 43
0.0
 43
0.0
 43
1.0
 77
     0
 47
0.0208333333333333
 47
0.0
 47
0.0
 47
0.0
 47
0.0
 47
0.0208333333333333
 47
0.0
 47
0.0
 47
0.0
 47
0.0
 47
1.0
 47
0.0
 47
0.0
 47
0.0
 47
0.0
 47
1.0
171
     0
 49
0.0208333333333333
 49
0.0
 49
0.0
 49
0.0
 49
0.0
 49
0.0208333333333333
 49
0.0
 49
0.0
 49
0.0
 49
0.0
 49
1.0
 49
0.0
 49
0.0
 49
0.0
 49
0.0
 49
1.0
175
     0
142
0.0208333333333333
142
0.0
142
0.0
142
0.0
142
0.0
142
0.0208333333333333
142
0.0
142
0.0
142
0.0
142
0.0
142
1.0
142
0.0
142
0.0
142
0.0
142
0.0
142
1.0
179
     0
144
0.0208333333333333
144
0.0
144
0.0
144
0.0
144
0.0
144
0.0208333333333333
144
0.0
144
0.0
144
0.0
144
0.0
144
1.0
144
0.0
144
0.0
144
0.0
144
0.0
144
1.0
147
0.0208333333333333
147
0.0
147
0.0
147
0.0
147
0.0
147
0.0208333333333333
147
0.0
147
0.0
147
0.0
147
0.0
147
1.0
147
0.0
147
0.0
147
0.0
147
0.0
147
1.0
  0
MATERIAL
  5
21
102
{ACAD_XDICTIONARY
360
22
102
}
102
{ACAD_REACTORS
330
10
102
}
330
10
100
AcDbMaterial
  1
Global
 72
     0
 43
0.0208333333333333
 43
0.0
 43
0.0
 43
0.0
 43
0.0
 43
0.0208333333333333
 43
0.0
 43
0.0
 43
0.0
 43
0.0
 43
1.0
 43
0.0
 43
0.0
 43
0.0
 43
0.0
 43
1.0
 77
     0
 47
0.0208333333333333
 47
0.0
 47
0.0
 47
0.0
 47
0.0
 47
0.0208333333333333
 47
0.0
 47
0.0
 47
0.0
 47
0.0
 47
1.0
 47
0.0
 47
0.0
 47
0.0
 47
0.0
 47
1.0
171
     0
 49
0.0208333333333333
 49
0.0
 49
0.0
 49
0.0
 49
0.0
 49
0.0208333333333333
 49
0.0
 49
0.0
 49
0.0
 49
0.0
 49
1.0
 49
0.0
 49
0.0
 49
0.0
 49
0.0
 49
1.0
175
     0
142
0.0208333333333333
142
0.0
142
0.0
142
0.0
142
0.0
142
0.0208333333333333
142
0.0
142
0.0
142
0.0
142
0.0
142
1.0
142
0.0
142
0.0
142
0.0
142
0.0
142
1.0
179
     0
144
0.0208333333333333
144
0.0
144
0.0
144
0.0
144
0.0
144
0.0208333333333333
144
0.0
144
0.0
144
0.0
144
0.0
144
1.0
144
0.0
144
0.0
144
0.0
144
0.0
144
1.0
147
0.0208333333333333
147
0.0
147
0.0
147
0.0
147
0.0
147
0.0208333333333333
147
0.0
147
0.0
147
0.0
147
0.0
147
1.0
147
0.0
147
0.0
147
0.0
147
0.0
147
1.0
  0
MLEADERSTYLE
  5
67
102
{ACAD_XDICTIONARY
360
13F
102
}
102
{ACAD_REACTORS
330
66
102
}
330
66
100
AcDbMLeaderStyle
179
     2
170
     2
171
     1
172
     0
 90
        2
 40
0.0
 41
0.0
173
     1
 91
-1056964608
340
5B
 92
       -2
290
     1
 42
0.09
291
     1
 43
0.36
  3
Standard
 44
0.18
300

342
55
174
     1
178
     6
175
     1
176
     0
 93
-1056964608
 45
0.18
292
     0
297
     0
 46
0.18
 94
-1056964608
 47
1.0
 49
1.0
140
1.0
293
     1
141
0.0
294
     1
177
     0
142
1.0
295
     0
296
     0
143
0.125
271
     0
272
     9
273
     9
  0
MLINESTYLE
  5
60
102
{ACAD_REACTORS
330
5F
102
}
330
5F
100
AcDbMlineStyle
  2
STANDARD
 70
     0
  3

 62
   256
 51
90.0
 52
90.0
 71
     2
 49
0.5
 62
   256
  6
BYLAYER
 49
-0.5
 62
   256
  6
BYLAYER
  0
ACDBPLACEHOLDER
  5
F
102
{ACAD_REACTORS
330
E
102
}
330
E
  0
SCALE
  5
43
102
{ACAD_REACTORS
330
42
102
}
330
42
100
AcDbScale
 70
     0
300
1:1
140
1.0
141
1.0
290
     1
  0
SCALE
  5
44
102
{ACAD_REACTORS
330
42
102
}
330
42
100
AcDbScale
 70
     0
300
1/128" = 1'-0"
140
0.0078125
141
12.0
290
     0
  0
SCALE
  5
45
102
{ACAD_REACTORS
330
42
102
}
330
42
100
AcDbScale
 70
     0
300
1/64" = 1'-0"
140
0.015625
141
12.0
290
     0
  0
SCALE
  5
46
102
{ACAD_REACTORS
330
42
102
}
330
42
100
AcDbScale
 70
     0
300
1/32" = 1'-0"
140
0.03125
141
12.0
290
     0
  0
SCALE
  5
47
102
{ACAD_REACTORS
330
42
102
}
330
42
100
AcDbScale
 70
     0
300
1/16" = 1'-0"
140
0.0625
141
12.0
290
     0
  0
SCALE
  5
48
102
{ACAD_REACTORS
330
42
102
}
330
42
100
AcDbScale
 70
     0
300
3/32" = 1'-0"
140
0.09375
141
12.0
290
     0
  0
SCALE
  5
49
102
{ACAD_REACTORS
330
42
102
}
330
42
100
AcDbScale
 70
     0
300
1/8" = 1'-0"
140
0.125
141
12.0
290
     0
  0
SCALE
  5
4A
102
{ACAD_REACTORS
330
42
102
}
330
42
100
AcDbScale
 70
     0
300
3/16" = 1'-0"
140
0.1875
141
12.0
290
     0
  0
SCALE
  5
4B
102
{ACAD_REACTORS
330
42
102
}
330
42
100
AcDbScale
 70
     0
300
1/4" = 1'-0"
140
0.25
141
12.0
290
     0
  0
SCALE
  5
4C
102
{ACAD_REACTORS
330
42
102
}
330
42
100
AcDbScale
 70
     0
300
3/8" = 1'-0"
140
0.375
141
12.0
290
     0
  0
SCALE
  5
4D
102
{ACAD_REACTORS
330
42
102
}
330
42
100
AcDbScale
 70
     0
300
1/2" = 1'-0"
140
0.5
141
12.0
290
     0
  0
SCALE
  5
4E
102
{ACAD_REACTORS
330
42
102
}
330
42
100
AcDbScale
 70
     0
300
3/4" = 1'-0"
140
0.75
141
12.0
290
     0
  0
SCALE
  5
4F
102
{ACAD_REACTORS
330
42
102
}
330
42
100
AcDbScale
 70
     0
300
1" = 1'-0"
140
1.0
141
12.0
290
     0
  0
SCALE
  5
50
102
{ACAD_REACTORS
330
42
102
}
330
42
100
AcDbScale
 70
     0
300
1-1/2" = 1'-0"
140
1.5
141
12.0
290
     0
  0
SCALE
  5
51
102
{ACAD_REACTORS
330
42
102
}
330
42
100
AcDbScale
 70
     0
300
3" = 1'-0"
140
3.0
141
12.0
290
     0
  0
SCALE
  5
52
102
{ACAD_REACTORS
330
42
102
}
330
42
100
AcDbScale
 70
     0
300
6" = 1'-0"
140
6.0
141
12.0
290
     0
  0
SCALE
  5
53
102
{ACAD_REACTORS
330
42
102
}
330
42
100
AcDbScale
 70
     0
300
1'-0" = 1'-0"
140
12.0
141
12.0
290
     0
  0
ACDBSECTIONVIEWSTYLE
  5
69
102
{ACAD_XDICTIONARY
360
141
102
}
102
{ACAD_REACTORS
330
68
102
}
330
68
100
AcDbModelDocViewStyle
 70
     0
  3
Imperial24
290
     0
100
AcDbSectionViewStyle
 70
     0
 71
     0
 90
       78
 71
     1
340
55
 62
   256
 40
0.24
340
0
340
0
 62
   256
 40
0.24
300
I, O, Q, S, X, Z
 40
0.48
 90
        3
 40
0.18
 90
        1
 71
     2
340
5D
 90
       25
 62
   256
340
5D
 90
       50
 62
   256
 40
0.24
 40
0.0
 40
0.24
 71
     3
340
55
 62
   256
 40
0.24
 90
        1
 40
0.75
 90
        1
300
%<\AcVar ViewType \f "%tc1">% %<\AcVar ViewSectionStartId>%-%<\AcVar ViewSectionEndId>%\PSCALE %<\AcVar ViewScale \f "%sn">%
 71
     4
 62
   256
 62
   257
300
ANSI31
 40
1.0
 90
        0
290
     0
290
     0
 90
        6
 40
0.0
 40
1.570796326794896
 40
0.2617993877991494
 40
1.308996938995747
 40
-0.2617993877991494
 40
1.832595714594046
  0
TABLESTYLE
  5
65
102
{ACAD_XDICTIONARY
360
10C
102
}
102
{ACAD_REACTORS
330
64
102
}
330
64
100
AcDbTableStyle
280
     0
  3
Standard
 70
     0
 71
     0
 40
0.06
 41
0.06
280
     0
281
     0
  7
Standard
140
0.18
170
     2
 62
     0
 63
     7
283
     0
 90
      512
 91
        0
  1

274
    -2
284
     1
 64
     0
275
    -2
285
     1
 65
     0
276
    -2
286
     1
 66
     0
277
    -2
287
     1
 67
     0
278
    -2
288
     1
 68
     0
279
    -2
289
     1
 69
     0
  7
Standard
140
0.25
170
     5
 62
     0
 63
     7
283
     0
 90
      512
 91
        0
  1

274
    -2
284
     1
 64
     0
275
    -2
285
     1
 65
     0
276
    -2
286
     1
 66
     0
277
    -2
287
     1
 67
     0
278
    -2
288
     1
 68
     0
279
    -2
289
     1
 69
     0
  7
Standard
140
0.18
170
     5
 62
     0
 63
     7
283
     0
 90
      512
 91
        0
  1

274
    -2
284
     1
 64
     0
275
    -2
285
     1
 65
     0
276
    -2
286
     1
 66
     0
277
    -2
287
     1
 67
     0
278
    -2
288
     1
 68
     0
279
    -2
289
     1
 69
     0
  0
VISUALSTYLE
  5
2F
102
{ACAD_XDICTIONARY
360
119
102
}
102
{ACAD_REACTORS
330
29
102
}
330
29
100
AcDbVisualStyle
  2
2dWireframe
 70
     4
177
     2
291
     0
 71
     0
176
     1
 72
     2
176
     1
 73
     0
176
     1
 90
        0
176
     1
 40
0.6
176
     1
 41
30.0
176
     1
 63
     7
421
 16777215
176
     1
 74
     1
176
     1
 91
        4
176
     1
 64
     7
176
     1
 65
   257
176
     1
 75
     1
176
     1
175
     1
176
     1
 42
1.0
176
     1
 92
        0
176
     1
 66
   257
176
     1
 43
1.0
176
     1
 76
     1
176
     1
 77
     6
176
     1
 78
     2
176
     1
 67
     7
176
     1
 79
     5
176
     1
170
     0
176
     1
171
     0
176
     1
290
     0
176
     1
 93
        1
176
     1
 44
0.0
176
     1
173
     0
176
     1
1001
ACAD
1000
AcDbSavedByObjectVersion
1070
     0
  0
VISUALSTYLE
  5
2E
102
{ACAD_XDICTIONARY
360
117
102
}
102
{ACAD_REACTORS
330
29
102
}
330
29
100
AcDbVisualStyle
  2
Basic
 70
     7
177
     2
291
     1
 71
     1
176
     1
 72
     0
176
     1
 73
     1
176
     1
 90
        0
176
     1
 40
0.6
176
     1
 41
30.0
176
     1
 63
     7
421
 16777215
176
     1
 74
     0
176
     1
 91
        4
176
     1
 64
     7
176
     1
 65
   257
176
     1
 75
     1
176
     1
175
     1
176
     1
 42
1.0
176
     1
 92
        8
176
     1
 66
     7
176
     1
 43
1.0
176
     1
 76
     1
176
     1
 77
     6
176
     1
 78
     2
176
     1
 67
     7
176
     1
 79
     5
176
     1
170
     0
176
     1
171
     0
176
     1
290
     0
176
     1
 93
        1
176
     1
 44
0.0
176
     1
173
     0
176
     1
1001
ACAD
1000
AcDbSavedByObjectVersion
1070
     0
  0
VISUALSTYLE
  5
35
102
{ACAD_XDICTIONARY
360
125
102
}
102
{ACAD_REACTORS
330
29
102
}
330
29
100
AcDbVisualStyle
  2
Brighten
 70
    12
177
     2
291
     1
 71
     2
176
     1
 72
     2
176
     1
 73
     0
176
     1
 90
        0
176
     1
 40
0.6
176
     1
 41
30.0
176
     1
 63
     7
421
 16777215
176
     1
 74
     1
176
     1
 91
        4
176
     1
 64
     7
176
     1
 65
   257
176
     1
 75
     1
176
     1
175
     1
176
     1
 42
1.0
176
     1
 92
        8
176
     1
 66
     7
176
     1
 43
1.0
176
     1
 76
     1
176
     1
 77
     6
176
     1
 78
     2
176
     1
 67
     7
176
     1
 79
     5
176
     1
170
     0
176
     1
171
     0
176
     1
290
     0
176
     1
 93
        1
176
     1
 44
50.0
176
     1
173
     0
176
     1
1001
ACAD
1000
AcDbSavedByObjectVersion
1070
     0
  0
VISUALSTYLE
  5
39
102
{ACAD_XDICTIONARY
360
12D
102
}
102
{ACAD_REACTORS
330
29
102
}
330
29
100
AcDbVisualStyle
  2
ColorChange
 70
    16
177
     2
291
     1
 71
     2
176
     1
 72
     2
176
     1
 73
     3
176
     1
 90
        0
176
     1
 40
0.6
176
     1
 41
30.0
176
     1
 63
     8
421
  8421504
176
     1
 74
     1
176
     1
 91
        4
176
     1
 64
     7
176
     1
 65
   257
176
     1
 75
     1
176
     1
175
     1
176
     1
 42
1.0
176
     1
 92
        8
176
     1
 66
     8
424
  8421504
176
     1
 43
1.0
176
     1
 76
     1
176
     1
 77
     6
176
     1
 78
     2
176
     1
 67
     7
176
     1
 79
     5
176
     1
170
     0
176
     1
171
     0
176
     1
290
     0
176
     1
 93
        1
176
     1
 44
0.0
176
     1
173
     0
176
     1
1001
ACAD
1000
AcDbSavedByObjectVersion
1070
     0
  0
VISUALSTYLE
  5
32
102
{ACAD_XDICTIONARY
360
11F
102
}
102
{ACAD_REACTORS
330
29
102
}
330
29
100
AcDbVisualStyle
  2
Conceptual
 70
     9
177
     2
291
     0
 71
     3
176
     1
 72
     2
176
     1
 73
     0
176
     1
 90
        0
176
     1
 40
0.6
176
     1
 41
30.0
176
     1
 63
     7
421
 16777215
176
     1
 74
     2
176
     1
 91
        2
176
     1
 64
     7
176
     1
 65
   257
176
     1
 75
     1
176
     1
175
     1
176
     1
 42
179.0
176
     1
 92
        8
176
     1
 66
     7
176
     1
 43
1.0
176
     1
 76
     1
176
     1
 77
     6
176
     1
 78
     2
176
     1
 67
     7
176
     1
 79
     3
176
     1
170
     0
176
     1
171
     0
176
     1
290
     0
176
     1
 93
        1
176
     1
 44
0.0
176
     1
173
     0
176
     1
1001
ACAD
1000
AcDbSavedByObjectVersion
1070
     0
  0
VISUALSTYLE
  5
34
102
{ACAD_XDICTIONARY
360
123
102
}
102
{ACAD_REACTORS
330
29
102
}
330
29
100
AcDbVisualStyle
  2
Dim
 70
    11
177
     2
291
     1
 71
     2
176
     1
 72
     2
176
     1
 73
     0
176
     1
 90
        0
176
     1
 40
0.6
176
     1
 41
30.0
176
     1
 63
     7
421
 16777215
176
     1
 74
     1
176
     1
 91
        4
176
     1
 64
     7
176
     1
 65
   257
176
     1
 75
     1
176
     1
175
     1
176
     1
 42
1.0
176
     1
 92
        8
176
     1
 66
     7
176
     1
 43
1.0
176
     1
 76
     1
176
     1
 77
     6
176
     1
 78
     2
176
     1
 67
     7
176
     1
 79
     5
176
     1
170
     0
176
     1
171
     0
176
     1
290
     0
176
     1
 93
        1
176
     1
 44
-50.0
176
     1
173
     0
176
     1
1001
ACAD
1000
AcDbSavedByObjectVersion
1070
     0
  0
VISUALSTYLE
  5
41
102
{ACAD_XDICTIONARY
360
13D
102
}
102
{ACAD_REACTORS
330
29
102
}
330
29
100
AcDbVisualStyle
  2
EdgeColorOff
 70
    22
177
     2
291
     1
 71
     2
176
     0
 72
     2
176
     0
 73
     0
176
     0
 90
        0
176
     0
 40
0.6
176
     0
 41
30.0
176
     0
 63
     7
421
 16777215
176
     0
 74
     1
176
     0
 91
        4
176
     0
 64
     7
176
     0
 65
   257
176
     0
 75
     1
176
     0
175
     1
176
     0
 42
1.0
176
     0
 92
        8
176
     2
 66
     7
176
     0
 43
1.0
176
     0
 76
     1
176
     0
 77
     6
176
     0
 78
     2
176
     0
 67
     7
176
     0
 79
     5
176
     0
170
     0
176
     0
171
     0
176
     0
290
     0
176
     0
 93
        1
176
     0
 44
0.0
176
     0
173
     0
176
     0
1001
ACAD
1000
AcDbSavedByObjectVersion
1070
     0
  0
VISUALSTYLE
  5
38
102
{ACAD_XDICTIONARY
360
12B
102
}
102
{ACAD_REACTORS
330
29
102
}
330
29
100
AcDbVisualStyle
  2
Facepattern
 70
    15
177
     2
291
     1
 71
     2
176
     1
 72
     2
176
     1
 73
     0
176
     1
 90
        0
176
     1
 40
0.6
176
     1
 41
30.0
176
     1
 63
     7
421
 16777215
176
     1
 74
     1
176
     1
 91
        4
176
     1
 64
     7
176
     1
 65
   257
176
     1
 75
     1
176
     1
175
     1
176
     1
 42
1.0
176
     1
 92
        8
176
     1
 66
     7
176
     1
 43
1.0
176
     1
 76
     1
176
     1
 77
     6
176
     1
 78
     2
176
     1
 67
     7
176
     1
 79
     5
176
     1
170
     0
176
     1
171
     0
176
     1
290
     0
176
     1
 93
        1
176
     1
 44
0.0
176
     1
173
     0
176
     1
1001
ACAD
1000
AcDbSavedByObjectVersion
1070
     0
  0
VISUALSTYLE
  5
2A
102
{ACAD_XDICTIONARY
360
10F
102
}
102
{ACAD_REACTORS
330
29
102
}
330
29
100
AcDbVisualStyle
  2
Flat
 70
     0
177
     2
291
     1
 71
     2
176
     1
 72
     1
176
     1
 73
     1
176
     1
 90
        2
176
     1
 40
0.6
176
     1
 41
30.0
176
     1
 63
     7
421
 16777215
176
     1
 74
     0
176
     1
 91
        0
176
     1
 64
     7
176
     1
 65
   257
176
     1
 75
     1
176
     1
175
     1
176
     1
 42
1.0
176
     1
 92
        8
176
     1
 66
     7
176
     1
 43
1.0
176
     1
 76
     1
176
     1
 77
     6
176
     1
 78
     2
176
     1
 67
     7
176
     1
 79
     5
176
     1
170
     0
176
     1
171
     0
176
     1
290
     0
176
     1
 93
       13
176
     1
 44
0.0
176
     1
173
     0
176
     1
1001
ACAD
1000
AcDbSavedByObjectVersion
1070
     0
  0
VISUALSTYLE
  5
2B
102
{ACAD_XDICTIONARY
360
111
102
}
102
{ACAD_REACTORS
330
29
102
}
330
29
100
AcDbVisualStyle
  2
FlatWithEdges
 70
     1
177
     2
291
     1
 71
     2
176
     1
 72
     1
176
     1
 73
     1
176
     1
 90
        2
176
     1
 40
0.6
176
     1
 41
30.0
176
     1
 63
     7
421
 16777215
176
     1
 74
     1
176
     1
 91
        0
176
     1
 64
     7
176
     1
 65
   257
176
     1
 75
     1
176
     1
175
     1
176
     1
 42
1.0
176
     1
 92
        0
176
     1
 66
   257
176
     1
 43
1.0
176
     1
 76
     1
176
     1
 77
     6
176
     1
 78
     2
176
     1
 67
     7
176
     1
 79
     5
176
     1
170
     0
176
     1
171
     0
176
     1
290
     0
176
     1
 93
       13
176
     1
 44
0.0
176
     1
173
     0
176
     1
1001
ACAD
1000
AcDbSavedByObjectVersion
1070
     0
  0
VISUALSTYLE
  5
2C
102
{ACAD_XDICTIONARY
360
113
102
}
102
{ACAD_REACTORS
330
29
102
}
330
29
100
AcDbVisualStyle
  2
Gouraud
 70
     2
177
     2
291
     1
 71
     2
176
     1
 72
     2
176
     1
 73
     1
176
     1
 90
        2
176
     1
 40
0.6
176
     1
 41
30.0
176
     1
 63
     7
421
 16777215
176
     1
 74
     0
176
     1
 91
        0
176
     1
 64
     7
176
     1
 65
   257
176
     1
 75
     1
176
     1
175
     1
176
     1
 42
1.0
176
     1
 92
        0
176
     1
 66
     7
176
     1
 43
1.0
176
     1
 76
     1
176
     1
 77
     6
176
     1
 78
     2
176
     1
 67
     7
176
     1
 79
     5
176
     1
170
     0
176
     1
171
     0
176
     1
290
     0
176
     1
 93
       13
176
     1
 44
0.0
176
     1
173
     0
176
     1
1001
ACAD
1000
AcDbSavedByObjectVersion
1070
     0
  0
VISUALSTYLE
  5
2D
102
{ACAD_XDICTIONARY
360
115
102
}
102
{ACAD_REACTORS
330
29
102
}
330
29
100
AcDbVisualStyle
  2
GouraudWithEdges
 70
     3
177
     2
291
     1
 71
     2
176
     1
 72
     2
176
     1
 73
     1
176
     1
 90
        2
176
     1
 40
0.6
176
     1
 41
30.0
176
     1
 63
     7
421
 16777215
176
     1
 74
     1
176
     1
 91
        0
176
     1
 64
     7
176
     1
 65
   257
176
     1
 75
     1
176
     1
175
     1
176
     1
 42
1.0
176
     1
 92
        0
176
     1
 66
   257
176
     1
 43
1.0
176
     1
 76
     1
176
     1
 77
     6
176
     1
 78
     2
176
     1
 67
     7
176
     1
 79
     5
176
     1
170
     0
176
     1
171
     0
176
     1
290
     0
176
     1
 93
       13
176
     1
 44
0.0
176
     1
173
     0
176
     1
1001
ACAD
1000
AcDbSavedByObjectVersion
1070
     0
  0
VISUALSTYLE
  5
31
102
{ACAD_XDICTIONARY
360
11D
102
}
102
{ACAD_REACTORS
330
29
102
}
330
29
100
AcDbVisualStyle
  2
Hidden
 70
     6
177
     2
291
     0
 71
     1
176
     1
 72
     2
176
     1
 73
     2
176
     1
 90
        0
176
     1
 40
0.6
176
     1
 41
30.0
176
     1
 63
     7
421
 16777215
176
     1
 74
     2
176
     1
 91
        2
176
     1
 64
     7
176
     1
 65
   257
176
     1
 75
     2
176
     1
175
     1
176
     1
 42
40.0
176
     1
 92
        0
176
     1
 66
   257
176
     1
 43
1.0
176
     1
 76
     1
176
     1
 77
     6
176
     1
 78
     2
176
     1
 67
     7
176
     1
 79
     3
176
     1
170
     0
176
     1
171
     0
176
     1
290
     0
176
     1
 93
        1
176
     1
 44
0.0
176
     1
173
     0
176
     1
1001
ACAD
1000
AcDbSavedByObjectVersion
1070
     0
  0
VISUALSTYLE
  5
3F
102
{ACAD_XDICTIONARY
360
139
102
}
102
{ACAD_REACTORS
330
29
102
}
330
29
100
AcDbVisualStyle
  2
JitterOff
 70
    20
177
     2
291
     1
 71
     2
176
     0
 72
     2
176
     0
 73
     0
176
     0
 90
        0
176
     0
 40
0.6
176
     0
 41
30.0
176
     0
 63
     7
421
 16777215
176
     0
 74
     1
176
     0
 91
        4
176
     0
 64
     7
176
     0
 65
   257
176
     0
 75
     1
176
     0
175
     1
176
     0
 42
1.0
176
     0
 92
       10
176
     2
 66
     7
176
     0
 43
1.0
176
     0
 76
     1
176
     0
 77
     6
176
     0
 78
     2
176
     0
 67
     7
176
     0
 79
     5
176
     0
170
     0
176
     0
171
     0
176
     0
290
     0
176
     0
 93
        1
176
     0
 44
0.0
176
     0
173
     0
176
     0
1001
ACAD
1000
AcDbSavedByObjectVersion
1070
     0
  0
VISUALSTYLE
  5
37
102
{ACAD_XDICTIONARY
360
129
102
}
102
{ACAD_REACTORS
330
29
102
}
330
29
100
AcDbVisualStyle
  2
Linepattern
 70
    14
177
     2
291
     1
 71
     2
176
     1
 72
     2
176
     1
 73
     0
176
     1
 90
        0
176
     1
 40
0.6
176
     1
 41
30.0
176
     1
 63
     7
421
 16777215
176
     1
 74
     1
176
     1
 91
        4
176
     1
 64
     7
176
     1
 65
   257
176
     1
 75
     7
176
     1
175
     7
176
     1
 42
1.0
176
     1
 92
        8
176
     1
 66
     7
176
     1
 43
1.0
176
     1
 76
     1
176
     1
 77
     6
176
     1
 78
     2
176
     1
 67
     7
176
     1
 79
     5
176
     1
170
     0
176
     1
171
     0
176
     1
290
     0
176
     1
 93
        1
176
     1
 44
0.0
176
     1
173
     0
176
     1
1001
ACAD
1000
AcDbSavedByObjectVersion
1070
     0
  0
VISUALSTYLE
  5
40
102
{ACAD_XDICTIONARY
360
13B
102
}
102
{ACAD_REACTORS
330
29
102
}
330
29
100
AcDbVisualStyle
  2
OverhangOff
 70
    21
177
     2
291
     1
 71
     2
176
     0
 72
     2
176
     0
 73
     0
176
     0
 90
        0
176
     0
 40
0.6
176
     0
 41
30.0
176
     0
 63
     7
421
 16777215
176
     0
 74
     1
176
     0
 91
        4
176
     0
 64
     7
176
     0
 65
   257
176
     0
 75
     1
176
     0
175
     1
176
     0
 42
1.0
176
     0
 92
        9
176
     2
 66
     7
176
     0
 43
1.0
176
     0
 76
     1
176
     0
 77
     6
176
     0
 78
     2
176
     0
 67
     7
176
     0
 79
     5
176
     0
170
     0
176
     0
171
     0
176
     0
290
     0
176
     0
 93
        1
176
     0
 44
0.0
176
     0
173
     0
176
     0
1001
ACAD
1000
AcDbSavedByObjectVersion
1070
     0
  0
VISUALSTYLE
  5
33
102
{ACAD_XDICTIONARY
360
121
102
}
102
{ACAD_REACTORS
330
29
102
}
330
29
100
AcDbVisualStyle
  2
Realistic
 70
     8
177
     2
291
     0
 71
     2
176
     1
 72
     3
176
     1
 73
     0
176
     1
 90
        2
176
     1
 40
0.6
176
     1
 41
30.0
176
     1
 63
     7
421
 16777215
176
     1
 74
     0
176
     1
 91
        0
176
     1
 64
     7
176
     1
 65
   257
176
     1
 75
     1
176
     1
175
     1
176
     1
 42
1.0
176
     1
 92
        8
176
     1
 66
   257
176
     1
 43
1.0
176
     1
 76
     1
176
     1
 77
     6
176
     1
 78
     2
176
     1
 67
     7
176
     1
 79
     3
176
     1
170
     0
176
     1
171
     0
176
     1
290
     0
176
     1
 93
       13
176
     1
 44
0.0
176
     1
173
     0
176
     1
1001
ACAD
1000
AcDbSavedByObjectVersion
1070
     0
  0
VISUALSTYLE
  5
3E
102
{ACAD_XDICTIONARY
360
137
102
}
102
{ACAD_REACTORS
330
29
102
}
330
29
100
AcDbVisualStyle
  2
Shaded
 70
    27
177
     2
291
     0
 71
     2
176
     1
 72
     2
176
     1
 73
     1
176
     1
 90
        2
176
     1
 40
0.6
176
     1
 41
30.0
176
     1
 63
     7
421
 16777215
176
     1
 74
     0
176
     1
 91
        4
176
     1
 64
     7
176
     1
 65
   257
176
     1
 75
     1
176
     1
175
     1
176
     1
 42
1.0
176
     1
 92
        8
176
     1
 66
   257
176
     1
 43
1.0
176
     1
 76
     1
176
     1
 77
     6
176
     1
 78
     2
176
     1
 67
     8
425
  7895160
176
     1
 79
     3
176
     1
170
     0
176
     1
171
     0
176
     1
290
     0
176
     1
 93
        5
176
     1
 44
0.0
176
     1
173
     0
176
     1
1001
ACAD
1000
AcDbSavedByObjectVersion
1070
     0
  0
VISUALSTYLE
  5
3D
102
{ACAD_XDICTIONARY
360
135
102
}
102
{ACAD_REACTORS
330
29
102
}
330
29
100
AcDbVisualStyle
  2
Shaded with edges
 70
    26
177
     2
291
     0
 71
     2
176
     1
 72
     2
176
     1
 73
     1
176
     1
 90
        2
176
     1
 40
0.6
176
     1
 41
30.0
176
     1
 63
     7
421
 16777215
176
     1
 74
     1
176
     1
 91
        2
176
     1
 64
     7
176
     1
 65
   257
176
     1
 75
     2
176
     1
175
     1
176
     1
 42
1.0
176
     1
 92
        8
176
     1
 66
   257
176
     1
 43
1.0
176
     1
 76
     1
176
     1
 77
     6
176
     1
 78
     2
176
     1
 67
     7
176
     1
 79
     3
176
     1
170
     0
176
     1
171
     0
176
     1
290
     0
176
     1
 93
        5
176
     1
 44
0.0
176
     1
173
     0
176
     1
1001
ACAD
1000
AcDbSavedByObjectVersion
1070
     0
  0
VISUALSTYLE
  5
3A
102
{ACAD_XDICTIONARY
360
12F
102
}
102
{ACAD_REACTORS
330
29
102
}
330
29
100
AcDbVisualStyle
  2
Shades of Gray
 70
    23
177
     2
291
     0
 71
     2
176
     1
 72
     2
176
     1
 73
     3
176
     1
 90
        0
176
     1
 40
0.6
176
     1
 41
30.0
176
     1
 63
     7
421
 16777215
176
     1
 74
     2
176
     1
 91
        2
176
     1
 64
     7
176
     1
 65
     7
176
     1
 75
     1
176
     1
175
     1
176
     1
 42
40.0
176
     1
 92
        8
176
     1
 66
     7
176
     1
 43
1.0
176
     1
 76
     1
176
     1
 77
     6
176
     1
 78
     2
176
     1
 67
     7
176
     1
 79
     3
176
     1
170
     0
176
     1
171
     0
176
     1
290
     0
176
     1
 93
        1
176
     1
 44
0.0
176
     1
173
     0
176
     1
1001
ACAD
1000
AcDbSavedByObjectVersion
1070
     0
  0
VISUALSTYLE
  5
3B
102
{ACAD_XDICTIONARY
360
131
102
}
102
{ACAD_REACTORS
330
29
102
}
330
29
100
AcDbVisualStyle
  2
Sketchy
 70
    24
177
     2
291
     0
 71
     1
176
     1
 72
     2
176
     1
 73
     2
176
     1
 90
        0
176
     1
 40
0.6
176
     1
 41
30.0
176
     1
 63
     7
421
 16777215
176
     1
 74
     2
176
     1
 91
        2
176
     1
 64
     7
176
     1
 65
     7
176
     1
 75
     1
176
     1
175
     1
176
     1
 42
40.0
176
     1
 92
       11
176
     1
 66
     7
176
     1
 43
1.0
176
     1
 76
     1
176
     1
 77
     6
176
     1
 78
     2
176
     1
 67
     7
176
     1
 79
     6
176
     1
170
     0
176
     1
171
     0
176
     1
290
     0
176
     1
 93
        1
176
     1
 44
0.0
176
     1
173
     0
176
     1
1001
ACAD
1000
AcDbSavedByObjectVersion
1070
     0
  0
VISUALSTYLE
  5
36
102
{ACAD_XDICTIONARY
360
127
102
}
102
{ACAD_REACTORS
330
29
102
}
330
29
100
AcDbVisualStyle
  2
Thicken
 70
    13
177
     2
291
     1
 71
     2
176
     1
 72
     2
176
     1
 73
     0
176
     1
 90
        0
176
     1
 40
0.6
176
     1
 41
30.0
176
     1
 63
     7
421
 16777215
176
     1
 74
     1
176
     1
 91
        4
176
     1
 64
     7
176
     1
 65
   257
176
     1
 75
     1
176
     1
175
     1
176
     1
 42
1.0
176
     1
 92
       12
176
     1
 66
     7
176
     1
 43
1.0
176
     1
 76
     1
176
     1
 77
     6
176
     1
 78
     2
176
     1
 67
     7
176
     1
 79
     5
176
     1
170
     0
176
     1
171
     0
176
     1
290
     0
176
     1
 93
        1
176
     1
 44
0.0
176
     1
173
     0
176
     1
1001
ACAD
1000
AcDbSavedByObjectVersion
1070
     0
  0
VISUALSTYLE
  5
30
102
{ACAD_XDICTIONARY
360
11B
102
}
102
{ACAD_REACTORS
330
29
102
}
330
29
100
AcDbVisualStyle
  2
Wireframe
 70
     5
177
     2
291
     0
 71
     0
176
     1
 72
     2
176
     1
 73
     0
176
     1
 90
        0
176
     1
 40
0.6
176
     1
 41
30.0
176
     1
 63
     7
421
 16777215
176
     1
 74
     1
176
     1
 91
        4
176
     1
 64
     7
176
     1
 65
   257
176
     1
 75
     1
176
     1
175
     1
176
     1
 42
1.0
176
     1
 92
        0
176
     1
 66
   257
176
     1
 43
1.0
176
     1
 76
     1
176
     1
 77
     6
176
     1
 78
     2
176
     1
 67
     7
176
     1
 79
     3
176
     1
170
     0
176
     1
171
     0
176
     1
290
     0
176
     1
 93
        1
176
     1
 44
0.0
176
     1
173
     0
176
     1
1001
ACAD
1000
AcDbSavedByObjectVersion
1070
     0
  0
VISUALSTYLE
  5
3C
102
{ACAD_XDICTIONARY
360
133
102
}
102
{ACAD_REACTORS
330
29
102
}
330
29
100
AcDbVisualStyle
  2
X-Ray
 70
    25
177
     2
291
     0
 71
     2
176
     1
 72
     2
176
     1
 73
     1
176
     1
 90
        1
176
     1
 40
0.5
176
     1
 41
30.0
176
     1
 63
     7
421
 16777215
176
     1
 74
     1
176
     1
 91
        0
176
     1
 64
     7
176
     1
 65
   257
176
     1
 75
     1
176
     1
175
     1
176
     1
 42
1.0
176
     1
 92
        8
176
     1
 66
     7
176
     1
 43
1.0
176
     1
 76
     1
176
     1
 77
     6
176
     1
 78
     2
176
     1
 67
     7
176
     1
 79
     3
176
     1
170
     0
176
     1
171
     0
176
     1
290
     0
176
     1
 93
       13
176
     1
 44
0.0
176
     1
173
     0
176
     1
1001
ACAD
1000
AcDbSavedByObjectVersion
1070
     0
  0
DICTIONARYVAR
  5
10B
102
{ACAD_REACTORS
330
106
102
}
330
106
100
DictionaryVariables
280
     0
  1
1:1
  0
DICTIONARYVAR
  5
108
102
{ACAD_REACTORS
330
106
102
}
330
106
100
DictionaryVariables
280
     0
  1
STANDARD
  0
DICTIONARYVAR
  5
107
102
{ACAD_REACTORS
330
106
102
}
330
106
100
DictionaryVariables
280
     0
  1
STANDARD
  0
DICTIONARYVAR
  5
109
102
{ACAD_REACTORS
330
106
102
}
330
106
100
DictionaryVariables
280
     0
  1
Imperial24
  0
DICTIONARYVAR
  5
10A
102
{ACAD_REACTORS
330
106
102
}
330
106
100
DictionaryVariables
280
     0
  1
Imperial24
  0
DICTIONARY
  5
143
330
6B
100
AcDbDictionary
280
     1
281
     1
  3
ACAD_XREC_ROUNDTRIP
360
144
  0
DICTIONARY
  5
1A
330
19
100
AcDbDictionary
280
     1
281
     1
  3
BUMPTILE
360
1C
  3
DIFFUSETILE
360
1B
  3
OPACITYTILE
360
1F
  3
REFLECTIONTILE
360
1E
  3
REFRACTIONTILE
360
20
  3
SPECULARTILE
360
1D
  0
DICTIONARY
  5
12
330
11
100
AcDbDictionary
280
     1
281
     1
  3
BUMPTILE
360
14
  3
DIFFUSETILE
360
13
  3
OPACITYTILE
360
17
  3
REFLECTIONTILE
360
16
  3
REFRACTIONTILE
360
18
  3
SPECULARTILE
360
15
  0
DICTIONARY
  5
22
330
21
100
AcDbDictionary
280
     1
281
     1
  3
BUMPTILE
360
24
  3
DIFFUSETILE
360
23
  3
OPACITYTILE
360
27
  3
REFLECTIONTILE
360
26
  3
REFRACTIONTILE
360
28
  3
SPECULARTILE
360
25
  0
DICTIONARY
  5
13F
330
67
100
AcDbDictionary
280
     1
281
     1
  3
ACAD_XREC_ROUNDTRIP
360
140
  0
DICTIONARY
  5
141
330
69
100
AcDbDictionary
280
     1
281
     1
  3
ACAD_XREC_ROUNDTRIP
360
142
  0
DICTIONARY
  5
10C
330
65
100
AcDbDictionary
280
     1
281
     1
  3
ACAD_ROUNDTRIP_2008_TABLESTYLE_CELLSTYLEMAP
360
10D
  0
DICTIONARY
  5
119
330
2F
100
AcDbDictionary
280
     1
281
     1
  3
ACAD_XREC_ROUNDTRIP
360
11A
  0
DICTIONARY
  5
117
330
2E
100
AcDbDictionary
280
     1
281
     1
  3
ACAD_XREC_ROUNDTRIP
360
118
  0
DICTIONARY
  5
125
330
35
100
AcDbDictionary
280
     1
281
     1
  3
ACAD_XREC_ROUNDTRIP
360
126
  0
DICTIONARY
  5
12D
330
39
100
AcDbDictionary
280
     1
281
     1
  3
ACAD_XREC_ROUNDTRIP
360
12E
  0
DICTIONARY
  5
11F
330
32
100
AcDbDictionary
280
     1
281
     1
  3
ACAD_XREC_ROUNDTRIP
360
120
  0
DICTIONARY
  5
123
330
34
100
AcDbDictionary
280
     1
281
     1
  3
ACAD_XREC_ROUNDTRIP
360
124
  0
DICTIONARY
  5
13D
330
41
100
AcDbDictionary
280
     1
281
     1
  3
ACAD_XREC_ROUNDTRIP
360
13E
  0
DICTIONARY
  5
12B
330
38
100
AcDbDictionary
280
     1
281
     1
  3
ACAD_XREC_ROUNDTRIP
360
12C
  0
DICTIONARY
  5
10F
330
2A
100
AcDbDictionary
280
     1
281
     1
  3
ACAD_XREC_ROUNDTRIP
360
110
  0
DICTIONARY
  5
111
330
2B
100
AcDbDictionary
280
     1
281
     1
  3
ACAD_XREC_ROUNDTRIP
360
112
  0
DICTIONARY
  5
113
330
2C
100
AcDbDictionary
280
     1
281
     1
  3
ACAD_XREC_ROUNDTRIP
360
114
  0
DICTIONARY
  5
115
330
2D
100
AcDbDictionary
280
     1
281
     1
  3
ACAD_XREC_ROUNDTRIP
360
116
  0
DICTIONARY
  5
11D
330
31
100
AcDbDictionary
280
     1
281
     1
  3
ACAD_XREC_ROUNDTRIP
360
11E
  0
DICTIONARY
  5
139
330
3F
100
AcDbDictionary
280
     1
281
     1
  3
ACAD_XREC_ROUNDTRIP
360
13A
  0
DICTIONARY
  5
129
330
37
100
AcDbDictionary
280
     1
281
     1
  3
ACAD_XREC_ROUNDTRIP
360
12A
  0
DICTIONARY
  5
13B
330
40
100
AcDbDictionary
280
     1
281
     1
  3
ACAD_XREC_ROUNDTRIP
360
13C
  0
DICTIONARY
  5
121
330
33
100
AcDbDictionary
280
     1
281
     1
  3
ACAD_XREC_ROUNDTRIP
360
122
  0
DICTIONARY
  5
137
330
3E
100
AcDbDictionary
280
     1
281
     1
  3
ACAD_XREC_ROUNDTRIP
360
138
  0
DICTIONARY
  5
135
330
3D
100
AcDbDictionary
280
     1
281
     1
  3
ACAD_XREC_ROUNDTRIP
360
136
  0
DICTIONARY
  5
12F
330
3A
100
AcDbDictionary
280
     1
281
     1
  3
ACAD_XREC_ROUNDTRIP
360
130
  0
DICTIONARY
  5
131
330
3B
100
AcDbDictionary
280
     1
281
     1
  3
ACAD_XREC_ROUNDTRIP
360
132
  0
DICTIONARY
  5
127
330
36
100
AcDbDictionary
280
     1
281
     1
  3
ACAD_XREC_ROUNDTRIP
360
128
  0
DICTIONARY
  5
11B
330
30
100
AcDbDictionary
280
     1
281
     1
  3
ACAD_XREC_ROUNDTRIP
360
11C
  0
DICTIONARY
  5
133
330
3C
100
AcDbDictionary
280
     1
281
     1
  3
ACAD_XREC_ROUNDTRIP
360
134
  0
XRECORD
  5
144
102
{ACAD_REACTORS
330
143
102
}
330
143
100
AcDbXrecord
280
     1
102
DISPLAYNAME
  1
Imperial24
102
FLAGS
 90
        0
  0
XRECORD
  5
1C
102
{ACAD_REACTORS
330
1A
102
}
330
1A
100
AcDbXrecord
280
     1
270
     1
271
     1
  0
XRECORD
  5
1B
102
{ACAD_REACTORS
330
1A
102
}
330
1A
100
AcDbXrecord
280
     1
270
     1
271
     1
  0
XRECORD
  5
1F
102
{ACAD_REACTORS
330
1A
102
}
330
1A
100
AcDbXrecord
280
     1
270
     1
271
     1
  0
XRECORD
  5
1E
102
{ACAD_REACTORS
330
1A
102
}
330
1A
100
AcDbXrecord
280
     1
270
     1
271
     1
  0
XRECORD
  5
20
102
{ACAD_REACTORS
330
1A
102
}
330
1A
100
AcDbXrecord
280
     1
270
     1
271
     1
  0
XRECORD
  5
1D
102
{ACAD_REACTORS
330
1A
102
}
330
1A
100
AcDbXrecord
280
     1
270
     1
271
     1
  0
XRECORD
  5
14
102
{ACAD_REACTORS
330
12
102
}
330
12
100
AcDbXrecord
280
     1
270
     1
271
     1
  0
XRECORD
  5
13
102
{ACAD_REACTORS
330
12
102
}
330
12
100
AcDbXrecord
280
     1
270
     1
271
     1
  0
XRECORD
  5
17
102
{ACAD_REACTORS
330
12
102
}
330
12
100
AcDbXrecord
280
     1
270
     1
271
     1
  0
XRECORD
  5
16
102
{ACAD_REACTORS
330
12
102
}
330
12
100
AcDbXrecord
280
     1
270
     1
271
     1
  0
XRECORD
  5
18
102
{ACAD_REACTORS
330
12
102
}
330
12
100
AcDbXrecord
280
     1
270
     1
271
     1
  0
XRECORD
  5
15
102
{ACAD_REACTORS
330
12
102
}
330
12
100
AcDbXrecord
280
     1
270
     1
271
     1
  0
XRECORD
  5
24
102
{ACAD_REACTORS
330
22
102
}
330
22
100
AcDbXrecord
280
     1
270
     1
271
     1
  0
XRECORD
  5
23
102
{ACAD_REACTORS
330
22
102
}
330
22
100
AcDbXrecord
280
     1
270
     1
271
     1
  0
XRECORD
  5
27
102
{ACAD_REACTORS
330
22
102
}
330
22
100
AcDbXrecord
280
     1
270
     1
271
     1
  0
XRECORD
  5
26
102
{ACAD_REACTORS
330
22
102
}
330
22
100
AcDbXrecord
280
     1
270
     1
271
     1
  0
XRECORD
  5
28
102
{ACAD_REACTORS
330
22
102
}
330
22
100
AcDbXrecord
280
     1
270
     1
271
     1
  0
XRECORD
  5
25
102
{ACAD_REACTORS
330
22
102
}
330
22
100
AcDbXrecord
280
     1
270
     1
271
     1
  0
XRECORD
  5
140
102
{ACAD_REACTORS
330
13F
102
}
330
13F
100
AcDbXrecord
280
     1
102
ACAD_ROUNDTRIP_2012_MLEADER_STYLE
298
     1
  0
XRECORD
  5
142
102
{ACAD_REACTORS
330
141
102
}
330
141
100
AcDbXrecord
280
     1
102
DISPLAYNAME
  1
Imperial24
102
FLAGS
 90
        0
  0
CELLSTYLEMAP
  5
10D
102
{ACAD_REACTORS
330
10C
102
}
330
10C
100
AcDbCellStyleMap
 90
        3
300
CELLSTYLE
  1
TABLEFORMAT_BEGIN
 90
        5
170
     1
 91
        0
 92
    32768
 62
   257
 93
        1
300
CONTENTFORMAT
  1
CONTENTFORMAT_BEGIN
 90
        0
 91
        0
 92
      512
 93
        0
300

 40
0.0
140
1.0
 94
        5
 62
     0
340
55
144
0.25
309
CONTENTFORMAT_END
171
     0
 94
        0
309
TABLEFORMAT_END
  1
CELLSTYLE_BEGIN
 90
        1
 91
        1
300
_TITLE
309
CELLSTYLE_END
300
CELLSTYLE
  1
TABLEFORMAT_BEGIN
 90
        5
170
     1
 91
        0
 92
        0
 62
   257
 93
        1
300
CONTENTFORMAT
  1
CONTENTFORMAT_BEGIN
 90
        0
 91
        0
 92
      512
 93
        0
300

 40
0.0
140
1.0
 94
        5
 62
     0
340
55
144
0.18
309
CONTENTFORMAT_END
171
     0
 94
        0
309
TABLEFORMAT_END
  1
CELLSTYLE_BEGIN
 90
        2
 91
        1
300
_HEADER
309
CELLSTYLE_END
300
CELLSTYLE
  1
TABLEFORMAT_BEGIN
 90
        5
170
     1
 91
        0
 92
        0
 62
   257
 93
        1
300
CONTENTFORMAT
  1
CONTENTFORMAT_BEGIN
 90
        0
 91
        0
 92
      512
 93
        0
300

 40
0.0
140
1.0
 94
        2
 62
     0
340
55
144
0.18
309
CONTENTFORMAT_END
171
     0
 94
        0
309
TABLEFORMAT_END
  1
CELLSTYLE_BEGIN
 90
        3
 91
        2
300
_DATA
309
CELLSTYLE_END
  0
XRECORD
  5
11A
102
{ACAD_REACTORS
330
119
102
}
330
119
100
AcDbXrecord
280
     1
102
RTVSPost2010Prop28
280
     1
102
RTVSPost2010PropOp28
 70
     1
102
RTVSPost2010Prop29
280
     1
102
RTVSPost2010PropOp29
 70
     1
102
RTVSPost2010Prop30
280
     0
102
RTVSPost2010PropOp30
 70
     1
102
RTVSPost2010Prop31
280
     0
102
RTVSPost2010PropOp31
 70
     1
102
RTVSPost2010Prop32
280
     0
102
RTVSPost2010PropOp32
 70
     1
102
RTVSPost2010Prop33
280
     0
102
RTVSPost2010PropOp33
 70
     1
102
RTVSPost2010Prop34
280
     0
102
RTVSPost2010PropOp34
 70
     1
102
RTVSPost2010Prop35
280
     0
102
RTVSPost2010PropOp35
 70
     1
102
RTVSPost2010Prop36
280
     0
102
RTVSPost2010PropOp36
 70
     1
102
RTVSPost2010Prop37
 90
       50
102
RTVSPost2010PropOp37
 70
     1
102
RTVSPost2010Prop38
140
0.0
102
RTVSPost2010PropOp38
 70
     1
102
RTVSPost2010Prop39
140
1.0
102
RTVSPost2010PropOp39
 70
     1
102
RTVSPost2010Prop40
 90
        0
102
RTVSPost2010PropOp40
 70
     1
102
RTVSPost2010Prop41ColorIndex
 90
       18
102
RTVSPost2010Prop41ColorRGB
 90
        0
102
RTVSPost2010PropOp41
 70
     1
102
RTVSPost2010Prop42
 90
       50
102
RTVSPost2010PropOp42
 70
     1
102
RTVSPost2010Prop43
 90
        3
102
RTVSPost2010PropOp43
 70
     1
102
RTVSPost2010Prop44ColorIndex
 90
        5
102
RTVSPost2010Prop44ColorRGB
 90
      255
102
RTVSPost2010PropOp44
 70
     1
102
RTVSPost2010Prop45
280
     0
102
RTVSPost2010PropOp45
 70
     1
102
RTVSPost2010Prop46
 90
       50
102
RTVSPost2010PropOp46
 70
     1
102
RTVSPost2010Prop47
 90
       50
102
RTVSPost2010PropOp47
 70
     1
102
RTVSPost2010Prop48
 90
       50
102
RTVSPost2010PropOp48
 70
     1
102
RTVSPost2010Prop49
280
     0
102
RTVSPost2010PropOp49
 70
     1
102
RTVSPost2010Prop50
 90
       50
102
RTVSPost2010PropOp50
 70
     1
102
RTVSPost2010Prop51ColorIndex
 90
      256
102
RTVSPost2010Prop51ColorRGB
 90
-16777216
102
RTVSPost2010PropOp51
 70
     0
102
RTVSPost2010Prop52
140
1.0
102
RTVSPost2010PropOp52
 70
     0
102
RTVSPost2010Prop53
 90
        2
102
RTVSPost2010PropOp53
 70
     1
102
RTVSPost2010Prop54
  1
strokes_ogs.tif
102
RTVSPost2010PropOp54
 70
     1
102
RTVSPost2010Prop55
280
     0
102
RTVSPost2010PropOp55
 70
     1
102
RTVSPost2010Prop56
140
1.0
102
RTVSPost2010PropOp56
 70
     1
102
RTVSPost2010Prop57
140
1.0
102
RTVSPost2010PropOp57
 70
     1
  0
XRECORD
  5
118
102
{ACAD_REACTORS
330
117
102
}
330
117
100
AcDbXrecord
280
     1
102
RTVSPost2010Prop28
280
     0
102
RTVSPost2010PropOp28
 70
     1
102
RTVSPost2010Prop29
280
     1
102
RTVSPost2010PropOp29
 70
     1
102
RTVSPost2010Prop30
280
     1
102
RTVSPost2010PropOp30
 70
     1
102
RTVSPost2010Prop31
280
     0
102
RTVSPost2010PropOp31
 70
     1
102
RTVSPost2010Prop32
280
     0
102
RTVSPost2010PropOp32
 70
     1
102
RTVSPost2010Prop33
280
     0
102
RTVSPost2010PropOp33
 70
     1
102
RTVSPost2010Prop34
280
     0
102
RTVSPost2010PropOp34
 70
     1
102
RTVSPost2010Prop35
280
     0
102
RTVSPost2010PropOp35
 70
     1
102
RTVSPost2010Prop36
280
     0
102
RTVSPost2010PropOp36
 70
     1
102
RTVSPost2010Prop37
 90
       50
102
RTVSPost2010PropOp37
 70
     1
102
RTVSPost2010Prop38
140
0.0
102
RTVSPost2010PropOp38
 70
     1
102
RTVSPost2010Prop39
140
1.0
102
RTVSPost2010PropOp39
 70
     1
102
RTVSPost2010Prop40
 90
        0
102
RTVSPost2010PropOp40
 70
     1
102
RTVSPost2010Prop41ColorIndex
 90
       18
102
RTVSPost2010Prop41ColorRGB
 90
        0
102
RTVSPost2010PropOp41
 70
     1
102
RTVSPost2010Prop42
 90
       50
102
RTVSPost2010PropOp42
 70
     1
102
RTVSPost2010Prop43
 90
        3
102
RTVSPost2010PropOp43
 70
     1
102
RTVSPost2010Prop44ColorIndex
 90
        5
102
RTVSPost2010Prop44ColorRGB
 90
      255
102
RTVSPost2010PropOp44
 70
     1
102
RTVSPost2010Prop45
280
     0
102
RTVSPost2010PropOp45
 70
     1
102
RTVSPost2010Prop46
 90
       50
102
RTVSPost2010PropOp46
 70
     1
102
RTVSPost2010Prop47
 90
       50
102
RTVSPost2010PropOp47
 70
     1
102
RTVSPost2010Prop48
 90
       50
102
RTVSPost2010PropOp48
 70
     1
102
RTVSPost2010Prop49
280
     0
102
RTVSPost2010PropOp49
 70
     1
102
RTVSPost2010Prop50
 90
       50
102
RTVSPost2010PropOp50
 70
     1
102
RTVSPost2010Prop51ColorIndex
 90
      256
102
RTVSPost2010Prop51ColorRGB
 90
-16777216
102
RTVSPost2010PropOp51
 70
     0
102
RTVSPost2010Prop52
140
1.0
102
RTVSPost2010PropOp52
 70
     0
102
RTVSPost2010Prop53
 90
        2
102
RTVSPost2010PropOp53
 70
     1
102
RTVSPost2010Prop54
  1
strokes_ogs.tif
102
RTVSPost2010PropOp54
 70
     1
102
RTVSPost2010Prop55
280
     0
102
RTVSPost2010PropOp55
 70
     1
102
RTVSPost2010Prop56
140
1.0
102
RTVSPost2010PropOp56
 70
     1
102
RTVSPost2010Prop57
140
1.0
102
RTVSPost2010PropOp57
 70
     1
  0
XRECORD
  5
126
102
{ACAD_REACTORS
330
125
102
}
330
125
100
AcDbXrecord
280
     1
102
RTVSPost2010Prop28
280
     0
102
RTVSPost2010PropOp28
 70
     1
102
RTVSPost2010Prop29
280
     1
102
RTVSPost2010PropOp29
 70
     1
102
RTVSPost2010Prop30
280
     1
102
RTVSPost2010PropOp30
 70
     1
102
RTVSPost2010Prop31
280
     0
102
RTVSPost2010PropOp31
 70
     1
102
RTVSPost2010Prop32
280
     0
102
RTVSPost2010PropOp32
 70
     1
102
RTVSPost2010Prop33
280
     0
102
RTVSPost2010PropOp33
 70
     1
102
RTVSPost2010Prop34
280
     0
102
RTVSPost2010PropOp34
 70
     1
102
RTVSPost2010Prop35
280
     0
102
RTVSPost2010PropOp35
 70
     1
102
RTVSPost2010Prop36
280
     0
102
RTVSPost2010PropOp36
 70
     1
102
RTVSPost2010Prop37
 90
       50
102
RTVSPost2010PropOp37
 70
     1
102
RTVSPost2010Prop38
140
0.0
102
RTVSPost2010PropOp38
 70
     1
102
RTVSPost2010Prop39
140
1.0
102
RTVSPost2010PropOp39
 70
     1
102
RTVSPost2010Prop40
 90
        0
102
RTVSPost2010PropOp40
 70
     1
102
RTVSPost2010Prop41ColorIndex
 90
       18
102
RTVSPost2010Prop41ColorRGB
 90
        0
102
RTVSPost2010PropOp41
 70
     1
102
RTVSPost2010Prop42
 90
       50
102
RTVSPost2010PropOp42
 70
     1
102
RTVSPost2010Prop43
 90
        3
102
RTVSPost2010PropOp43
 70
     1
102
RTVSPost2010Prop44ColorIndex
 90
        5
102
RTVSPost2010Prop44ColorRGB
 90
      255
102
RTVSPost2010PropOp44
 70
     1
102
RTVSPost2010Prop45
280
     0
102
RTVSPost2010PropOp45
 70
     1
102
RTVSPost2010Prop46
 90
       50
102
RTVSPost2010PropOp46
 70
     1
102
RTVSPost2010Prop47
 90
       50
102
RTVSPost2010PropOp47
 70
     1
102
RTVSPost2010Prop48
 90
       50
102
RTVSPost2010PropOp48
 70
     1
102
RTVSPost2010Prop49
280
     0
102
RTVSPost2010PropOp49
 70
     1
102
RTVSPost2010Prop50
 90
       50
102
RTVSPost2010PropOp50
 70
     1
102
RTVSPost2010Prop51ColorIndex
 90
      256
102
RTVSPost2010Prop51ColorRGB
 90
-16777216
102
RTVSPost2010PropOp51
 70
     0
102
RTVSPost2010Prop52
140
1.0
102
RTVSPost2010PropOp52
 70
     0
102
RTVSPost2010Prop53
 90
        2
102
RTVSPost2010PropOp53
 70
     1
102
RTVSPost2010Prop54
  1
strokes_ogs.tif
102
RTVSPost2010PropOp54
 70
     1
102
RTVSPost2010Prop55
280
     0
102
RTVSPost2010PropOp55
 70
     1
102
RTVSPost2010Prop56
140
1.0
102
RTVSPost2010PropOp56
 70
     1
102
RTVSPost2010Prop57
140
1.0
102
RTVSPost2010PropOp57
 70
     1
  0
XRECORD
  5
12E
102
{ACAD_REACTORS
330
12D
102
}
330
12D
100
AcDbXrecord
280
     1
102
RTVSPost2010Prop28
280
     0
102
RTVSPost2010PropOp28
 70
     1
102
RTVSPost2010Prop29
280
     1
102
RTVSPost2010PropOp29
 70
     1
102
RTVSPost2010Prop30
280
     1
102
RTVSPost2010PropOp30
 70
     1
102
RTVSPost2010Prop31
280
     0
102
RTVSPost2010PropOp31
 70
     1
102
RTVSPost2010Prop32
280
     0
102
RTVSPost2010PropOp32
 70
     1
102
RTVSPost2010Prop33
280
     0
102
RTVSPost2010PropOp33
 70
     1
102
RTVSPost2010Prop34
280
     0
102
RTVSPost2010PropOp34
 70
     1
102
RTVSPost2010Prop35
280
     0
102
RTVSPost2010PropOp35
 70
     1
102
RTVSPost2010Prop36
280
     0
102
RTVSPost2010PropOp36
 70
     1
102
RTVSPost2010Prop37
 90
       50
102
RTVSPost2010PropOp37
 70
     1
102
RTVSPost2010Prop38
140
0.0
102
RTVSPost2010PropOp38
 70
     1
102
RTVSPost2010Prop39
140
1.0
102
RTVSPost2010PropOp39
 70
     1
102
RTVSPost2010Prop40
 90
        0
102
RTVSPost2010PropOp40
 70
     1
102
RTVSPost2010Prop41ColorIndex
 90
       18
102
RTVSPost2010Prop41ColorRGB
 90
        0
102
RTVSPost2010PropOp41
 70
     1
102
RTVSPost2010Prop42
 90
       50
102
RTVSPost2010PropOp42
 70
     1
102
RTVSPost2010Prop43
 90
        3
102
RTVSPost2010PropOp43
 70
     1
102
RTVSPost2010Prop44ColorIndex
 90
        5
102
RTVSPost2010Prop44ColorRGB
 90
      255
102
RTVSPost2010PropOp44
 70
     1
102
RTVSPost2010Prop45
280
     0
102
RTVSPost2010PropOp45
 70
     1
102
RTVSPost2010Prop46
 90
       50
102
RTVSPost2010PropOp46
 70
     1
102
RTVSPost2010Prop47
 90
       50
102
RTVSPost2010PropOp47
 70
     1
102
RTVSPost2010Prop48
 90
       50
102
RTVSPost2010PropOp48
 70
     1
102
RTVSPost2010Prop49
280
     0
102
RTVSPost2010PropOp49
 70
     1
102
RTVSPost2010Prop50
 90
       50
102
RTVSPost2010PropOp50
 70
     1
102
RTVSPost2010Prop51ColorIndex
 90
      256
102
RTVSPost2010Prop51ColorRGB
 90
-16777216
102
RTVSPost2010PropOp51
 70
     0
102
RTVSPost2010Prop52
140
1.0
102
RTVSPost2010PropOp52
 70
     0
102
RTVSPost2010Prop53
 90
        2
102
RTVSPost2010PropOp53
 70
     1
102
RTVSPost2010Prop54
  1
strokes_ogs.tif
102
RTVSPost2010PropOp54
 70
     1
102
RTVSPost2010Prop55
280
     0
102
RTVSPost2010PropOp55
 70
     1
102
RTVSPost2010Prop56
140
1.0
102
RTVSPost2010PropOp56
 70
     1
102
RTVSPost2010Prop57
140
1.0
102
RTVSPost2010PropOp57
 70
     1
  0
XRECORD
  5
120
102
{ACAD_REACTORS
330
11F
102
}
330
11F
100
AcDbXrecord
280
     1
102
RTVSPost2010Prop28
280
     0
102
RTVSPost2010PropOp28
 70
     1
102
RTVSPost2010Prop29
280
     1
102
RTVSPost2010PropOp29
 70
     1
102
RTVSPost2010Prop30
280
     1
102
RTVSPost2010PropOp30
 70
     1
102
RTVSPost2010Prop31
280
     0
102
RTVSPost2010PropOp31
 70
     1
102
RTVSPost2010Prop32
280
     0
102
RTVSPost2010PropOp32
 70
     1
102
RTVSPost2010Prop33
280
     0
102
RTVSPost2010PropOp33
 70
     1
102
RTVSPost2010Prop34
280
     0
102
RTVSPost2010PropOp34
 70
     1
102
RTVSPost2010Prop35
280
     0
102
RTVSPost2010PropOp35
 70
     1
102
RTVSPost2010Prop36
280
     0
102
RTVSPost2010PropOp36
 70
     1
102
RTVSPost2010Prop37
 90
       50
102
RTVSPost2010PropOp37
 70
     1
102
RTVSPost2010Prop38
140
0.0
102
RTVSPost2010PropOp38
 70
     1
102
RTVSPost2010Prop39
140
1.0
102
RTVSPost2010PropOp39
 70
     1
102
RTVSPost2010Prop40
 90
        0
102
RTVSPost2010PropOp40
 70
     1
102
RTVSPost2010Prop41ColorIndex
 90
       18
102
RTVSPost2010Prop41ColorRGB
 90
        0
102
RTVSPost2010PropOp41
 70
     1
102
RTVSPost2010Prop42
 90
       50
102
RTVSPost2010PropOp42
 70
     1
102
RTVSPost2010Prop43
 90
        3
102
RTVSPost2010PropOp43
 70
     1
102
RTVSPost2010Prop44ColorIndex
 90
        5
102
RTVSPost2010Prop44ColorRGB
 90
      255
102
RTVSPost2010PropOp44
 70
     1
102
RTVSPost2010Prop45
280
     0
102
RTVSPost2010PropOp45
 70
     1
102
RTVSPost2010Prop46
 90
       50
102
RTVSPost2010PropOp46
 70
     1
102
RTVSPost2010Prop47
 90
       50
102
RTVSPost2010PropOp47
 70
     1
102
RTVSPost2010Prop48
 90
       50
102
RTVSPost2010PropOp48
 70
     1
102
RTVSPost2010Prop49
280
     0
102
RTVSPost2010PropOp49
 70
     1
102
RTVSPost2010Prop50
 90
       50
102
RTVSPost2010PropOp50
 70
     1
102
RTVSPost2010Prop51ColorIndex
 90
      256
102
RTVSPost2010Prop51ColorRGB
 90
-16777216
102
RTVSPost2010PropOp51
 70
     0
102
RTVSPost2010Prop52
140
1.0
102
RTVSPost2010PropOp52
 70
     0
102
RTVSPost2010Prop53
 90
        2
102
RTVSPost2010PropOp53
 70
     1
102
RTVSPost2010Prop54
  1
strokes_ogs.tif
102
RTVSPost2010PropOp54
 70
     1
102
RTVSPost2010Prop55
280
     0
102
RTVSPost2010PropOp55
 70
     1
102
RTVSPost2010Prop56
140
1.0
102
RTVSPost2010PropOp56
 70
     1
102
RTVSPost2010Prop57
140
1.0
102
RTVSPost2010PropOp57
 70
     1
  0
XRECORD
  5
124
102
{ACAD_REACTORS
330
123
102
}
330
123
100
AcDbXrecord
280
     1
102
RTVSPost2010Prop28
280
     0
102
RTVSPost2010PropOp28
 70
     1
102
RTVSPost2010Prop29
280
     1
102
RTVSPost2010PropOp29
 70
     1
102
RTVSPost2010Prop30
280
     1
102
RTVSPost2010PropOp30
 70
     1
102
RTVSPost2010Prop31
280
     0
102
RTVSPost2010PropOp31
 70
     1
102
RTVSPost2010Prop32
280
     0
102
RTVSPost2010PropOp32
 70
     1
102
RTVSPost2010Prop33
280
     0
102
RTVSPost2010PropOp33
 70
     1
102
RTVSPost2010Prop34
280
     0
102
RTVSPost2010PropOp34
 70
     1
102
RTVSPost2010Prop35
280
     0
102
RTVSPost2010PropOp35
 70
     1
102
RTVSPost2010Prop36
280
     0
102
RTVSPost2010PropOp36
 70
     1
102
RTVSPost2010Prop37
 90
       50
102
RTVSPost2010PropOp37
 70
     1
102
RTVSPost2010Prop38
140
0.0
102
RTVSPost2010PropOp38
 70
     1
102
RTVSPost2010Prop39
140
1.0
102
RTVSPost2010PropOp39
 70
     1
102
RTVSPost2010Prop40
 90
        0
102
RTVSPost2010PropOp40
 70
     1
102
RTVSPost2010Prop41ColorIndex
 90
       18
102
RTVSPost2010Prop41ColorRGB
 90
        0
102
RTVSPost2010PropOp41
 70
     1
102
RTVSPost2010Prop42
 90
       50
102
RTVSPost2010PropOp42
 70
     1
102
RTVSPost2010Prop43
 90
        3
102
RTVSPost2010PropOp43
 70
     1
102
RTVSPost2010Prop44ColorIndex
 90
        5
102
RTVSPost2010Prop44ColorRGB
 90
      255
102
RTVSPost2010PropOp44
 70
     1
102
RTVSPost2010Prop45
280
     0
102
RTVSPost2010PropOp45
 70
     1
102
RTVSPost2010Prop46
 90
       50
102
RTVSPost2010PropOp46
 70
     1
102
RTVSPost2010Prop47
 90
       50
102
RTVSPost2010PropOp47
 70
     1
102
RTVSPost2010Prop48
 90
       50
102
RTVSPost2010PropOp48
 70
     1
102
RTVSPost2010Prop49
280
     0
102
RTVSPost2010PropOp49
 70
     1
102
RTVSPost2010Prop50
 90
       50
102
RTVSPost2010PropOp50
 70
     1
102
RTVSPost2010Prop51ColorIndex
 90
      256
102
RTVSPost2010Prop51ColorRGB
 90
-16777216
102
RTVSPost2010PropOp51
 70
     0
102
RTVSPost2010Prop52
140
1.0
102
RTVSPost2010PropOp52
 70
     0
102
RTVSPost2010Prop53
 90
        2
102
RTVSPost2010PropOp53
 70
     1
102
RTVSPost2010Prop54
  1
strokes_ogs.tif
102
RTVSPost2010PropOp54
 70
     1
102
RTVSPost2010Prop55
280
     0
102
RTVSPost2010PropOp55
 70
     1
102
RTVSPost2010Prop56
140
1.0
102
RTVSPost2010PropOp56
 70
     1
102
RTVSPost2010Prop57
140
1.0
102
RTVSPost2010PropOp57
 70
     1
  0
XRECORD
  5
13E
102
{ACAD_REACTORS
330
13D
102
}
330
13D
100
AcDbXrecord
280
     1
102
RTVSPost2010Prop28
280
     0
102
RTVSPost2010PropOp28
 70
     0
102
RTVSPost2010Prop29
280
     1
102
RTVSPost2010PropOp29
 70
     0
102
RTVSPost2010Prop30
280
     1
102
RTVSPost2010PropOp30
 70
     0
102
RTVSPost2010Prop31
280
     0
102
RTVSPost2010PropOp31
 70
     0
102
RTVSPost2010Prop32
280
     0
102
RTVSPost2010PropOp32
 70
     0
102
RTVSPost2010Prop33
280
     0
102
RTVSPost2010PropOp33
 70
     0
102
RTVSPost2010Prop34
280
     0
102
RTVSPost2010PropOp34
 70
     0
102
RTVSPost2010Prop35
280
     0
102
RTVSPost2010PropOp35
 70
     0
102
RTVSPost2010Prop36
280
     0
102
RTVSPost2010PropOp36
 70
     0
102
RTVSPost2010Prop37
 90
       50
102
RTVSPost2010PropOp37
 70
     0
102
RTVSPost2010Prop38
140
0.0
102
RTVSPost2010PropOp38
 70
     0
102
RTVSPost2010Prop39
140
1.0
102
RTVSPost2010PropOp39
 70
     0
102
RTVSPost2010Prop40
 90
        0
102
RTVSPost2010PropOp40
 70
     0
102
RTVSPost2010Prop41ColorIndex
 90
       18
102
RTVSPost2010Prop41ColorRGB
 90
        0
102
RTVSPost2010PropOp41
 70
     0
102
RTVSPost2010Prop42
 90
       50
102
RTVSPost2010PropOp42
 70
     0
102
RTVSPost2010Prop43
 90
        3
102
RTVSPost2010PropOp43
 70
     0
102
RTVSPost2010Prop44ColorIndex
 90
        5
102
RTVSPost2010Prop44ColorRGB
 90
      255
102
RTVSPost2010PropOp44
 70
     0
102
RTVSPost2010Prop45
280
     0
102
RTVSPost2010PropOp45
 70
     0
102
RTVSPost2010Prop46
 90
       50
102
RTVSPost2010PropOp46
 70
     0
102
RTVSPost2010Prop47
 90
       50
102
RTVSPost2010PropOp47
 70
     0
102
RTVSPost2010Prop48
 90
       50
102
RTVSPost2010PropOp48
 70
     0
102
RTVSPost2010Prop49
280
     0
102
RTVSPost2010PropOp49
 70
     0
102
RTVSPost2010Prop50
 90
       50
102
RTVSPost2010PropOp50
 70
     0
102
RTVSPost2010Prop51ColorIndex
 90
      256
102
RTVSPost2010Prop51ColorRGB
 90
-16777216
102
RTVSPost2010PropOp51
 70
     0
102
RTVSPost2010Prop52
140
1.0
102
RTVSPost2010PropOp52
 70
     0
102
RTVSPost2010Prop53
 90
        2
102
RTVSPost2010PropOp53
 70
     0
102
RTVSPost2010Prop54
  1
strokes_ogs.tif
102
RTVSPost2010PropOp54
 70
     0
102
RTVSPost2010Prop55
280
     0
102
RTVSPost2010PropOp55
 70
     0
102
RTVSPost2010Prop56
140
1.0
102
RTVSPost2010PropOp56
 70
     0
102
RTVSPost2010Prop57
140
1.0
102
RTVSPost2010PropOp57
 70
     0
  0
XRECORD
  5
12C
102
{ACAD_REACTORS
330
12B
102
}
330
12B
100
AcDbXrecord
280
     1
102
RTVSPost2010Prop28
280
     0
102
RTVSPost2010PropOp28
 70
     1
102
RTVSPost2010Prop29
280
     1
102
RTVSPost2010PropOp29
 70
     1
102
RTVSPost2010Prop30
280
     1
102
RTVSPost2010PropOp30
 70
     1
102
RTVSPost2010Prop31
280
     0
102
RTVSPost2010PropOp31
 70
     1
102
RTVSPost2010Prop32
280
     0
102
RTVSPost2010PropOp32
 70
     1
102
RTVSPost2010Prop33
280
     0
102
RTVSPost2010PropOp33
 70
     1
102
RTVSPost2010Prop34
280
     0
102
RTVSPost2010PropOp34
 70
     1
102
RTVSPost2010Prop35
280
     0
102
RTVSPost2010PropOp35
 70
     1
102
RTVSPost2010Prop36
280
     0
102
RTVSPost2010PropOp36
 70
     1
102
RTVSPost2010Prop37
 90
       50
102
RTVSPost2010PropOp37
 70
     1
102
RTVSPost2010Prop38
140
0.0
102
RTVSPost2010PropOp38
 70
     1
102
RTVSPost2010Prop39
140
1.0
102
RTVSPost2010PropOp39
 70
     1
102
RTVSPost2010Prop40
 90
        0
102
RTVSPost2010PropOp40
 70
     1
102
RTVSPost2010Prop41ColorIndex
 90
       18
102
RTVSPost2010Prop41ColorRGB
 90
        0
102
RTVSPost2010PropOp41
 70
     1
102
RTVSPost2010Prop42
 90
       50
102
RTVSPost2010PropOp42
 70
     1
102
RTVSPost2010Prop43
 90
        3
102
RTVSPost2010PropOp43
 70
     1
102
RTVSPost2010Prop44ColorIndex
 90
        5
102
RTVSPost2010Prop44ColorRGB
 90
      255
102
RTVSPost2010PropOp44
 70
     1
102
RTVSPost2010Prop45
280
     0
102
RTVSPost2010PropOp45
 70
     1
102
RTVSPost2010Prop46
 90
       50
102
RTVSPost2010PropOp46
 70
     1
102
RTVSPost2010Prop47
 90
       50
102
RTVSPost2010PropOp47
 70
     1
102
RTVSPost2010Prop48
 90
       50
102
RTVSPost2010PropOp48
 70
     1
102
RTVSPost2010Prop49
280
     0
102
RTVSPost2010PropOp49
 70
     1
102
RTVSPost2010Prop50
 90
       50
102
RTVSPost2010PropOp50
 70
     1
102
RTVSPost2010Prop51ColorIndex
 90
      256
102
RTVSPost2010Prop51ColorRGB
 90
-16777216
102
RTVSPost2010PropOp51
 70
     0
102
RTVSPost2010Prop52
140
1.0
102
RTVSPost2010PropOp52
 70
     0
102
RTVSPost2010Prop53
 90
        2
102
RTVSPost2010PropOp53
 70
     1
102
RTVSPost2010Prop54
  1
strokes_ogs.tif
102
RTVSPost2010PropOp54
 70
     1
102
RTVSPost2010Prop55
280
     0
102
RTVSPost2010PropOp55
 70
     1
102
RTVSPost2010Prop56
140
1.0
102
RTVSPost2010PropOp56
 70
     1
102
RTVSPost2010Prop57
140
1.0
102
RTVSPost2010PropOp57
 70
     1
  0
XRECORD
  5
110
102
{ACAD_REACTORS
330
10F
102
}
330
10F
100
AcDbXrecord
280
     1
102
RTVSPost2010Prop28
280
     0
102
RTVSPost2010PropOp28
 70
     1
102
RTVSPost2010Prop29
280
     1
102
RTVSPost2010PropOp29
 70
     1
102
RTVSPost2010Prop30
280
     1
102
RTVSPost2010PropOp30
 70
     1
102
RTVSPost2010Prop31
280
     0
102
RTVSPost2010PropOp31
 70
     1
102
RTVSPost2010Prop32
280
     0
102
RTVSPost2010PropOp32
 70
     1
102
RTVSPost2010Prop33
280
     0
102
RTVSPost2010PropOp33
 70
     1
102
RTVSPost2010Prop34
280
     0
102
RTVSPost2010PropOp34
 70
     1
102
RTVSPost2010Prop35
280
     0
102
RTVSPost2010PropOp35
 70
     1
102
RTVSPost2010Prop36
280
     0
102
RTVSPost2010PropOp36
 70
     1
102
RTVSPost2010Prop37
 90
       50
102
RTVSPost2010PropOp37
 70
     1
102
RTVSPost2010Prop38
140
0.0
102
RTVSPost2010PropOp38
 70
     1
102
RTVSPost2010Prop39
140
1.0
102
RTVSPost2010PropOp39
 70
     1
102
RTVSPost2010Prop40
 90
        0
102
RTVSPost2010PropOp40
 70
     1
102
RTVSPost2010Prop41ColorIndex
 90
       18
102
RTVSPost2010Prop41ColorRGB
 90
        0
102
RTVSPost2010PropOp41
 70
     1
102
RTVSPost2010Prop42
 90
       50
102
RTVSPost2010PropOp42
 70
     1
102
RTVSPost2010Prop43
 90
        3
102
RTVSPost2010PropOp43
 70
     1
102
RTVSPost2010Prop44ColorIndex
 90
        5
102
RTVSPost2010Prop44ColorRGB
 90
      255
102
RTVSPost2010PropOp44
 70
     1
102
RTVSPost2010Prop45
280
     0
102
RTVSPost2010PropOp45
 70
     1
102
RTVSPost2010Prop46
 90
       50
102
RTVSPost2010PropOp46
 70
     1
102
RTVSPost2010Prop47
 90
       50
102
RTVSPost2010PropOp47
 70
     1
102
RTVSPost2010Prop48
 90
       50
102
RTVSPost2010PropOp48
 70
     1
102
RTVSPost2010Prop49
280
     0
102
RTVSPost2010PropOp49
 70
     1
102
RTVSPost2010Prop50
 90
       50
102
RTVSPost2010PropOp50
 70
     1
102
RTVSPost2010Prop51ColorIndex
 90
      256
102
RTVSPost2010Prop51ColorRGB
 90
-16777216
102
RTVSPost2010PropOp51
 70
     0
102
RTVSPost2010Prop52
140
1.0
102
RTVSPost2010PropOp52
 70
     0
102
RTVSPost2010Prop53
 90
        2
102
RTVSPost2010PropOp53
 70
     1
102
RTVSPost2010Prop54
  1
strokes_ogs.tif
102
RTVSPost2010PropOp54
 70
     1
102
RTVSPost2010Prop55
280
     0
102
RTVSPost2010PropOp55
 70
     1
102
RTVSPost2010Prop56
140
1.0
102
RTVSPost2010PropOp56
 70
     1
102
RTVSPost2010Prop57
140
1.0
102
RTVSPost2010PropOp57
 70
     1
  0
XRECORD
  5
112
102
{ACAD_REACTORS
330
111
102
}
330
111
100
AcDbXrecord
280
     1
102
RTVSPost2010Prop28
280
     0
102
RTVSPost2010PropOp28
 70
     1
102
RTVSPost2010Prop29
280
     1
102
RTVSPost2010PropOp29
 70
     1
102
RTVSPost2010Prop30
280
     1
102
RTVSPost2010PropOp30
 70
     1
102
RTVSPost2010Prop31
280
     0
102
RTVSPost2010PropOp31
 70
     1
102
RTVSPost2010Prop32
280
     0
102
RTVSPost2010PropOp32
 70
     1
102
RTVSPost2010Prop33
280
     0
102
RTVSPost2010PropOp33
 70
     1
102
RTVSPost2010Prop34
280
     0
102
RTVSPost2010PropOp34
 70
     1
102
RTVSPost2010Prop35
280
     0
102
RTVSPost2010PropOp35
 70
     1
102
RTVSPost2010Prop36
280
     0
102
RTVSPost2010PropOp36
 70
     1
102
RTVSPost2010Prop37
 90
       50
102
RTVSPost2010PropOp37
 70
     1
102
RTVSPost2010Prop38
140
0.0
102
RTVSPost2010PropOp38
 70
     1
102
RTVSPost2010Prop39
140
1.0
102
RTVSPost2010PropOp39
 70
     1
102
RTVSPost2010Prop40
 90
        0
102
RTVSPost2010PropOp40
 70
     1
102
RTVSPost2010Prop41ColorIndex
 90
       18
102
RTVSPost2010Prop41ColorRGB
 90
        0
102
RTVSPost2010PropOp41
 70
     1
102
RTVSPost2010Prop42
 90
       50
102
RTVSPost2010PropOp42
 70
     1
102
RTVSPost2010Prop43
 90
        3
102
RTVSPost2010PropOp43
 70
     1
102
RTVSPost2010Prop44ColorIndex
 90
        5
102
RTVSPost2010Prop44ColorRGB
 90
      255
102
RTVSPost2010PropOp44
 70
     1
102
RTVSPost2010Prop45
280
     0
102
RTVSPost2010PropOp45
 70
     1
102
RTVSPost2010Prop46
 90
       50
102
RTVSPost2010PropOp46
 70
     1
102
RTVSPost2010Prop47
 90
       50
102
RTVSPost2010PropOp47
 70
     1
102
RTVSPost2010Prop48
 90
       50
102
RTVSPost2010PropOp48
 70
     1
102
RTVSPost2010Prop49
280
     0
102
RTVSPost2010PropOp49
 70
     1
102
RTVSPost2010Prop50
 90
       50
102
RTVSPost2010PropOp50
 70
     1
102
RTVSPost2010Prop51ColorIndex
 90
      256
102
RTVSPost2010Prop51ColorRGB
 90
-16777216
102
RTVSPost2010PropOp51
 70
     0
102
RTVSPost2010Prop52
140
1.0
102
RTVSPost2010PropOp52
 70
     0
102
RTVSPost2010Prop53
 90
        2
102
RTVSPost2010PropOp53
 70
     1
102
RTVSPost2010Prop54
  1
strokes_ogs.tif
102
RTVSPost2010PropOp54
 70
     1
102
RTVSPost2010Prop55
280
     0
102
RTVSPost2010PropOp55
 70
     1
102
RTVSPost2010Prop56
140
1.0
102
RTVSPost2010PropOp56
 70
     1
102
RTVSPost2010Prop57
140
1.0
102
RTVSPost2010PropOp57
 70
     1
  0
XRECORD
  5
114
102
{ACAD_REACTORS
330
113
102
}
330
113
100
AcDbXrecord
280
     1
102
RTVSPost2010Prop28
280
     0
102
RTVSPost2010PropOp28
 70
     1
102
RTVSPost2010Prop29
280
     1
102
RTVSPost2010PropOp29
 70
     1
102
RTVSPost2010Prop30
280
     1
102
RTVSPost2010PropOp30
 70
     1
102
RTVSPost2010Prop31
280
     0
102
RTVSPost2010PropOp31
 70
     1
102
RTVSPost2010Prop32
280
     0
102
RTVSPost2010PropOp32
 70
     1
102
RTVSPost2010Prop33
280
     0
102
RTVSPost2010PropOp33
 70
     1
102
RTVSPost2010Prop34
280
     0
102
RTVSPost2010PropOp34
 70
     1
102
RTVSPost2010Prop35
280
     0
102
RTVSPost2010PropOp35
 70
     1
102
RTVSPost2010Prop36
280
     0
102
RTVSPost2010PropOp36
 70
     1
102
RTVSPost2010Prop37
 90
       50
102
RTVSPost2010PropOp37
 70
     1
102
RTVSPost2010Prop38
140
0.0
102
RTVSPost2010PropOp38
 70
     1
102
RTVSPost2010Prop39
140
1.0
102
RTVSPost2010PropOp39
 70
     1
102
RTVSPost2010Prop40
 90
        0
102
RTVSPost2010PropOp40
 70
     1
102
RTVSPost2010Prop41ColorIndex
 90
       18
102
RTVSPost2010Prop41ColorRGB
 90
        0
102
RTVSPost2010PropOp41
 70
     1
102
RTVSPost2010Prop42
 90
       50
102
RTVSPost2010PropOp42
 70
     1
102
RTVSPost2010Prop43
 90
        3
102
RTVSPost2010PropOp43
 70
     1
102
RTVSPost2010Prop44ColorIndex
 90
        5
102
RTVSPost2010Prop44ColorRGB
 90
      255
102
RTVSPost2010PropOp44
 70
     1
102
RTVSPost2010Prop45
280
     0
102
RTVSPost2010PropOp45
 70
     1
102
RTVSPost2010Prop46
 90
       50
102
RTVSPost2010PropOp46
 70
     1
102
RTVSPost2010Prop47
 90
       50
102
RTVSPost2010PropOp47
 70
     1
102
RTVSPost2010Prop48
 90
       50
102
RTVSPost2010PropOp48
 70
     1
102
RTVSPost2010Prop49
280
     0
102
RTVSPost2010PropOp49
 70
     1
102
RTVSPost2010Prop50
 90
       50
102
RTVSPost2010PropOp50
 70
     1
102
RTVSPost2010Prop51ColorIndex
 90
      256
102
RTVSPost2010Prop51ColorRGB
 90
-16777216
102
RTVSPost2010PropOp51
 70
     0
102
RTVSPost2010Prop52
140
1.0
102
RTVSPost2010PropOp52
 70
     0
102
RTVSPost2010Prop53
 90
        2
102
RTVSPost2010PropOp53
 70
     1
102
RTVSPost2010Prop54
  1
strokes_ogs.tif
102
RTVSPost2010PropOp54
 70
     1
102
RTVSPost2010Prop55
280
     0
102
RTVSPost2010PropOp55
 70
     1
102
RTVSPost2010Prop56
140
1.0
102
RTVSPost2010PropOp56
 70
     1
102
RTVSPost2010Prop57
140
1.0
102
RTVSPost2010PropOp57
 70
     1
  0
XRECORD
  5
116
102
{ACAD_REACTORS
330
115
102
}
330
115
100
AcDbXrecord
280
     1
102
RTVSPost2010Prop28
280
     0
102
RTVSPost2010PropOp28
 70
     1
102
RTVSPost2010Prop29
280
     1
102
RTVSPost2010PropOp29
 70
     1
102
RTVSPost2010Prop30
280
     1
102
RTVSPost2010PropOp30
 70
     1
102
RTVSPost2010Prop31
280
     0
102
RTVSPost2010PropOp31
 70
     1
102
RTVSPost2010Prop32
280
     0
102
RTVSPost2010PropOp32
 70
     1
102
RTVSPost2010Prop33
280
     0
102
RTVSPost2010PropOp33
 70
     1
102
RTVSPost2010Prop34
280
     0
102
RTVSPost2010PropOp34
 70
     1
102
RTVSPost2010Prop35
280
     0
102
RTVSPost2010PropOp35
 70
     1
102
RTVSPost2010Prop36
280
     0
102
RTVSPost2010PropOp36
 70
     1
102
RTVSPost2010Prop37
 90
       50
102
RTVSPost2010PropOp37
 70
     1
102
RTVSPost2010Prop38
140
0.0
102
RTVSPost2010PropOp38
 70
     1
102
RTVSPost2010Prop39
140
1.0
102
RTVSPost2010PropOp39
 70
     1
102
RTVSPost2010Prop40
 90
        0
102
RTVSPost2010PropOp40
 70
     1
102
RTVSPost2010Prop41ColorIndex
 90
       18
102
RTVSPost2010Prop41ColorRGB
 90
        0
102
RTVSPost2010PropOp41
 70
     1
102
RTVSPost2010Prop42
 90
       50
102
RTVSPost2010PropOp42
 70
     1
102
RTVSPost2010Prop43
 90
        3
102
RTVSPost2010PropOp43
 70
     1
102
RTVSPost2010Prop44ColorIndex
 90
        5
102
RTVSPost2010Prop44ColorRGB
 90
      255
102
RTVSPost2010PropOp44
 70
     1
102
RTVSPost2010Prop45
280
     0
102
RTVSPost2010PropOp45
 70
     1
102
RTVSPost2010Prop46
 90
       50
102
RTVSPost2010PropOp46
 70
     1
102
RTVSPost2010Prop47
 90
       50
102
RTVSPost2010PropOp47
 70
     1
102
RTVSPost2010Prop48
 90
       50
102
RTVSPost2010PropOp48
 70
     1
102
RTVSPost2010Prop49
280
     0
102
RTVSPost2010PropOp49
 70
     1
102
RTVSPost2010Prop50
 90
       50
102
RTVSPost2010PropOp50
 70
     1
102
RTVSPost2010Prop51ColorIndex
 90
      256
102
RTVSPost2010Prop51ColorRGB
 90
-16777216
102
RTVSPost2010PropOp51
 70
     0
102
RTVSPost2010Prop52
140
1.0
102
RTVSPost2010PropOp52
 70
     0
102
RTVSPost2010Prop53
 90
        2
102
RTVSPost2010PropOp53
 70
     1
102
RTVSPost2010Prop54
  1
strokes_ogs.tif
102
RTVSPost2010PropOp54
 70
     1
102
RTVSPost2010Prop55
280
     0
102
RTVSPost2010PropOp55
 70
     1
102
RTVSPost2010Prop56
140
1.0
102
RTVSPost2010PropOp56
 70
     1
102
RTVSPost2010Prop57
140
1.0
102
RTVSPost2010PropOp57
 70
     1
  0
XRECORD
  5
11E
102
{ACAD_REACTORS
330
11D
102
}
330
11D
100
AcDbXrecord
280
     1
102
RTVSPost2010Prop28
280
     0
102
RTVSPost2010PropOp28
 70
     1
102
RTVSPost2010Prop29
280
     1
102
RTVSPost2010PropOp29
 70
     1
102
RTVSPost2010Prop30
280
     1
102
RTVSPost2010PropOp30
 70
     1
102
RTVSPost2010Prop31
280
     0
102
RTVSPost2010PropOp31
 70
     1
102
RTVSPost2010Prop32
280
     0
102
RTVSPost2010PropOp32
 70
     1
102
RTVSPost2010Prop33
280
     0
102
RTVSPost2010PropOp33
 70
     1
102
RTVSPost2010Prop34
280
     0
102
RTVSPost2010PropOp34
 70
     1
102
RTVSPost2010Prop35
280
     0
102
RTVSPost2010PropOp35
 70
     1
102
RTVSPost2010Prop36
280
     0
102
RTVSPost2010PropOp36
 70
     1
102
RTVSPost2010Prop37
 90
       50
102
RTVSPost2010PropOp37
 70
     1
102
RTVSPost2010Prop38
140
0.0
102
RTVSPost2010PropOp38
 70
     1
102
RTVSPost2010Prop39
140
1.0
102
RTVSPost2010PropOp39
 70
     1
102
RTVSPost2010Prop40
 90
        0
102
RTVSPost2010PropOp40
 70
     1
102
RTVSPost2010Prop41ColorIndex
 90
       18
102
RTVSPost2010Prop41ColorRGB
 90
        0
102
RTVSPost2010PropOp41
 70
     1
102
RTVSPost2010Prop42
 90
       50
102
RTVSPost2010PropOp42
 70
     1
102
RTVSPost2010Prop43
 90
        3
102
RTVSPost2010PropOp43
 70
     1
102
RTVSPost2010Prop44ColorIndex
 90
        5
102
RTVSPost2010Prop44ColorRGB
 90
      255
102
RTVSPost2010PropOp44
 70
     1
102
RTVSPost2010Prop45
280
     0
102
RTVSPost2010PropOp45
 70
     1
102
RTVSPost2010Prop46
 90
       50
102
RTVSPost2010PropOp46
 70
     1
102
RTVSPost2010Prop47
 90
       50
102
RTVSPost2010PropOp47
 70
     1
102
RTVSPost2010Prop48
 90
       50
102
RTVSPost2010PropOp48
 70
     1
102
RTVSPost2010Prop49
280
     0
102
RTVSPost2010PropOp49
 70
     1
102
RTVSPost2010Prop50
 90
       50
102
RTVSPost2010PropOp50
 70
     1
102
RTVSPost2010Prop51ColorIndex
 90
      256
102
RTVSPost2010Prop51ColorRGB
 90
-16777216
102
RTVSPost2010PropOp51
 70
     0
102
RTVSPost2010Prop52
140
1.0
102
RTVSPost2010PropOp52
 70
     0
102
RTVSPost2010Prop53
 90
        2
102
RTVSPost2010PropOp53
 70
     1
102
RTVSPost2010Prop54
  1
strokes_ogs.tif
102
RTVSPost2010PropOp54
 70
     1
102
RTVSPost2010Prop55
280
     0
102
RTVSPost2010PropOp55
 70
     1
102
RTVSPost2010Prop56
140
1.0
102
RTVSPost2010PropOp56
 70
     1
102
RTVSPost2010Prop57
140
1.0
102
RTVSPost2010PropOp57
 70
     1
  0
XRECORD
  5
13A
102
{ACAD_REACTORS
330
139
102
}
330
139
100
AcDbXrecord
280
     1
102
RTVSPost2010Prop28
280
     0
102
RTVSPost2010PropOp28
 70
     0
102
RTVSPost2010Prop29
280
     1
102
RTVSPost2010PropOp29
 70
     0
102
RTVSPost2010Prop30
280
     1
102
RTVSPost2010PropOp30
 70
     0
102
RTVSPost2010Prop31
280
     0
102
RTVSPost2010PropOp31
 70
     0
102
RTVSPost2010Prop32
280
     0
102
RTVSPost2010PropOp32
 70
     0
102
RTVSPost2010Prop33
280
     0
102
RTVSPost2010PropOp33
 70
     0
102
RTVSPost2010Prop34
280
     0
102
RTVSPost2010PropOp34
 70
     0
102
RTVSPost2010Prop35
280
     0
102
RTVSPost2010PropOp35
 70
     0
102
RTVSPost2010Prop36
280
     0
102
RTVSPost2010PropOp36
 70
     0
102
RTVSPost2010Prop37
 90
       50
102
RTVSPost2010PropOp37
 70
     0
102
RTVSPost2010Prop38
140
0.0
102
RTVSPost2010PropOp38
 70
     0
102
RTVSPost2010Prop39
140
1.0
102
RTVSPost2010PropOp39
 70
     0
102
RTVSPost2010Prop40
 90
        0
102
RTVSPost2010PropOp40
 70
     0
102
RTVSPost2010Prop41ColorIndex
 90
       18
102
RTVSPost2010Prop41ColorRGB
 90
        0
102
RTVSPost2010PropOp41
 70
     0
102
RTVSPost2010Prop42
 90
       50
102
RTVSPost2010PropOp42
 70
     0
102
RTVSPost2010Prop43
 90
        3
102
RTVSPost2010PropOp43
 70
     0
102
RTVSPost2010Prop44ColorIndex
 90
        5
102
RTVSPost2010Prop44ColorRGB
 90
      255
102
RTVSPost2010PropOp44
 70
     0
102
RTVSPost2010Prop45
280
     0
102
RTVSPost2010PropOp45
 70
     0
102
RTVSPost2010Prop46
 90
       50
102
RTVSPost2010PropOp46
 70
     0
102
RTVSPost2010Prop47
 90
       50
102
RTVSPost2010PropOp47
 70
     0
102
RTVSPost2010Prop48
 90
       50
102
RTVSPost2010PropOp48
 70
     0
102
RTVSPost2010Prop49
280
     0
102
RTVSPost2010PropOp49
 70
     0
102
RTVSPost2010Prop50
 90
       50
102
RTVSPost2010PropOp50
 70
     0
102
RTVSPost2010Prop51ColorIndex
 90
      256
102
RTVSPost2010Prop51ColorRGB
 90
-16777216
102
RTVSPost2010PropOp51
 70
     0
102
RTVSPost2010Prop52
140
1.0
102
RTVSPost2010PropOp52
 70
     0
102
RTVSPost2010Prop53
 90
        2
102
RTVSPost2010PropOp53
 70
     0
102
RTVSPost2010Prop54
  1
strokes_ogs.tif
102
RTVSPost2010PropOp54
 70
     0
102
RTVSPost2010Prop55
280
     0
102
RTVSPost2010PropOp55
 70
     0
102
RTVSPost2010Prop56
140
1.0
102
RTVSPost2010PropOp56
 70
     0
102
RTVSPost2010Prop57
140
1.0
102
RTVSPost2010PropOp57
 70
     0
  0
XRECORD
  5
12A
102
{ACAD_REACTORS
330
129
102
}
330
129
100
AcDbXrecord
280
     1
102
RTVSPost2010Prop28
280
     0
102
RTVSPost2010PropOp28
 70
     1
102
RTVSPost2010Prop29
280
     1
102
RTVSPost2010PropOp29
 70
     1
102
RTVSPost2010Prop30
280
     1
102
RTVSPost2010PropOp30
 70
     1
102
RTVSPost2010Prop31
280
     0
102
RTVSPost2010PropOp31
 70
     1
102
RTVSPost2010Prop32
280
     0
102
RTVSPost2010PropOp32
 70
     1
102
RTVSPost2010Prop33
280
     0
102
RTVSPost2010PropOp33
 70
     1
102
RTVSPost2010Prop34
280
     0
102
RTVSPost2010PropOp34
 70
     1
102
RTVSPost2010Prop35
280
     0
102
RTVSPost2010PropOp35
 70
     1
102
RTVSPost2010Prop36
280
     0
102
RTVSPost2010PropOp36
 70
     1
102
RTVSPost2010Prop37
 90
       50
102
RTVSPost2010PropOp37
 70
     1
102
RTVSPost2010Prop38
140
0.0
102
RTVSPost2010PropOp38
 70
     1
102
RTVSPost2010Prop39
140
1.0
102
RTVSPost2010PropOp39
 70
     1
102
RTVSPost2010Prop40
 90
        0
102
RTVSPost2010PropOp40
 70
     1
102
RTVSPost2010Prop41ColorIndex
 90
       18
102
RTVSPost2010Prop41ColorRGB
 90
        0
102
RTVSPost2010PropOp41
 70
     1
102
RTVSPost2010Prop42
 90
       50
102
RTVSPost2010PropOp42
 70
     1
102
RTVSPost2010Prop43
 90
        3
102
RTVSPost2010PropOp43
 70
     1
102
RTVSPost2010Prop44ColorIndex
 90
        5
102
RTVSPost2010Prop44ColorRGB
 90
      255
102
RTVSPost2010PropOp44
 70
     1
102
RTVSPost2010Prop45
280
     0
102
RTVSPost2010PropOp45
 70
     1
102
RTVSPost2010Prop46
 90
       50
102
RTVSPost2010PropOp46
 70
     1
102
RTVSPost2010Prop47
 90
       50
102
RTVSPost2010PropOp47
 70
     1
102
RTVSPost2010Prop48
 90
       50
102
RTVSPost2010PropOp48
 70
     1
102
RTVSPost2010Prop49
280
     0
102
RTVSPost2010PropOp49
 70
     1
102
RTVSPost2010Prop50
 90
       50
102
RTVSPost2010PropOp50
 70
     1
102
RTVSPost2010Prop51ColorIndex
 90
      256
102
RTVSPost2010Prop51ColorRGB
 90
-16777216
102
RTVSPost2010PropOp51
 70
     0
102
RTVSPost2010Prop52
140
1.0
102
RTVSPost2010PropOp52
 70
     0
102
RTVSPost2010Prop53
 90
        2
102
RTVSPost2010PropOp53
 70
     1
102
RTVSPost2010Prop54
  1
strokes_ogs.tif
102
RTVSPost2010PropOp54
 70
     1
102
RTVSPost2010Prop55
280
     0
102
RTVSPost2010PropOp55
 70
     1
102
RTVSPost2010Prop56
140
1.0
102
RTVSPost2010PropOp56
 70
     1
102
RTVSPost2010Prop57
140
1.0
102
RTVSPost2010PropOp57
 70
     1
  0
XRECORD
  5
13C
102
{ACAD_REACTORS
330
13B
102
}
330
13B
100
AcDbXrecord
280
     1
102
RTVSPost2010Prop28
280
     0
102
RTVSPost2010PropOp28
 70
     0
102
RTVSPost2010Prop29
280
     1
102
RTVSPost2010PropOp29
 70
     0
102
RTVSPost2010Prop30
280
     1
102
RTVSPost2010PropOp30
 70
     0
102
RTVSPost2010Prop31
280
     0
102
RTVSPost2010PropOp31
 70
     0
102
RTVSPost2010Prop32
280
     0
102
RTVSPost2010PropOp32
 70
     0
102
RTVSPost2010Prop33
280
     0
102
RTVSPost2010PropOp33
 70
     0
102
RTVSPost2010Prop34
280
     0
102
RTVSPost2010PropOp34
 70
     0
102
RTVSPost2010Prop35
280
     0
102
RTVSPost2010PropOp35
 70
     0
102
RTVSPost2010Prop36
280
     0
102
RTVSPost2010PropOp36
 70
     0
102
RTVSPost2010Prop37
 90
       50
102
RTVSPost2010PropOp37
 70
     0
102
RTVSPost2010Prop38
140
0.0
102
RTVSPost2010PropOp38
 70
     0
102
RTVSPost2010Prop39
140
1.0
102
RTVSPost2010PropOp39
 70
     0
102
RTVSPost2010Prop40
 90
        0
102
RTVSPost2010PropOp40
 70
     0
102
RTVSPost2010Prop41ColorIndex
 90
       18
102
RTVSPost2010Prop41ColorRGB
 90
        0
102
RTVSPost2010PropOp41
 70
     0
102
RTVSPost2010Prop42
 90
       50
102
RTVSPost2010PropOp42
 70
     0
102
RTVSPost2010Prop43
 90
        3
102
RTVSPost2010PropOp43
 70
     0
102
RTVSPost2010Prop44ColorIndex
 90
        5
102
RTVSPost2010Prop44ColorRGB
 90
      255
102
RTVSPost2010PropOp44
 70
     0
102
RTVSPost2010Prop45
280
     0
102
RTVSPost2010PropOp45
 70
     0
102
RTVSPost2010Prop46
 90
       50
102
RTVSPost2010PropOp46
 70
     0
102
RTVSPost2010Prop47
 90
       50
102
RTVSPost2010PropOp47
 70
     0
102
RTVSPost2010Prop48
 90
       50
102
RTVSPost2010PropOp48
 70
     0
102
RTVSPost2010Prop49
280
     0
102
RTVSPost2010PropOp49
 70
     0
102
RTVSPost2010Prop50
 90
       50
102
RTVSPost2010PropOp50
 70
     0
102
RTVSPost2010Prop51ColorIndex
 90
      256
102
RTVSPost2010Prop51ColorRGB
 90
-16777216
102
RTVSPost2010PropOp51
 70
     0
102
RTVSPost2010Prop52
140
1.0
102
RTVSPost2010PropOp52
 70
     0
102
RTVSPost2010Prop53
 90
        2
102
RTVSPost2010PropOp53
 70
     0
102
RTVSPost2010Prop54
  1
strokes_ogs.tif
102
RTVSPost2010PropOp54
 70
     0
102
RTVSPost2010Prop55
280
     0
102
RTVSPost2010PropOp55
 70
     0
102
RTVSPost2010Prop56
140
1.0
102
RTVSPost2010PropOp56
 70
     0
102
RTVSPost2010Prop57
140
1.0
102
RTVSPost2010PropOp57
 70
     0
  0
XRECORD
  5
122
102
{ACAD_REACTORS
330
121
102
}
330
121
100
AcDbXrecord
280
     1
102
RTVSPost2010Prop28
280
     0
102
RTVSPost2010PropOp28
 70
     1
102
RTVSPost2010Prop29
280
     1
102
RTVSPost2010PropOp29
 70
     1
102
RTVSPost2010Prop30
280
     1
102
RTVSPost2010PropOp30
 70
     1
102
RTVSPost2010Prop31
280
     0
102
RTVSPost2010PropOp31
 70
     1
102
RTVSPost2010Prop32
280
     0
102
RTVSPost2010PropOp32
 70
     1
102
RTVSPost2010Prop33
280
     0
102
RTVSPost2010PropOp33
 70
     1
102
RTVSPost2010Prop34
280
     0
102
RTVSPost2010PropOp34
 70
     1
102
RTVSPost2010Prop35
280
     0
102
RTVSPost2010PropOp35
 70
     1
102
RTVSPost2010Prop36
280
     0
102
RTVSPost2010PropOp36
 70
     1
102
RTVSPost2010Prop37
 90
       50
102
RTVSPost2010PropOp37
 70
     1
102
RTVSPost2010Prop38
140
0.0
102
RTVSPost2010PropOp38
 70
     1
102
RTVSPost2010Prop39
140
1.0
102
RTVSPost2010PropOp39
 70
     1
102
RTVSPost2010Prop40
 90
        0
102
RTVSPost2010PropOp40
 70
     1
102
RTVSPost2010Prop41ColorIndex
 90
       18
102
RTVSPost2010Prop41ColorRGB
 90
        0
102
RTVSPost2010PropOp41
 70
     1
102
RTVSPost2010Prop42
 90
       50
102
RTVSPost2010PropOp42
 70
     1
102
RTVSPost2010Prop43
 90
        3
102
RTVSPost2010PropOp43
 70
     1
102
RTVSPost2010Prop44ColorIndex
 90
        5
102
RTVSPost2010Prop44ColorRGB
 90
      255
102
RTVSPost2010PropOp44
 70
     1
102
RTVSPost2010Prop45
280
     0
102
RTVSPost2010PropOp45
 70
     1
102
RTVSPost2010Prop46
 90
       50
102
RTVSPost2010PropOp46
 70
     1
102
RTVSPost2010Prop47
 90
       50
102
RTVSPost2010PropOp47
 70
     1
102
RTVSPost2010Prop48
 90
       50
102
RTVSPost2010PropOp48
 70
     1
102
RTVSPost2010Prop49
280
     0
102
RTVSPost2010PropOp49
 70
     1
102
RTVSPost2010Prop50
 90
       50
102
RTVSPost2010PropOp50
 70
     1
102
RTVSPost2010Prop51ColorIndex
 90
      256
102
RTVSPost2010Prop51ColorRGB
 90
-16777216
102
RTVSPost2010PropOp51
 70
     0
102
RTVSPost2010Prop52
140
1.0
102
RTVSPost2010PropOp52
 70
     0
102
RTVSPost2010Prop53
 90
        2
102
RTVSPost2010PropOp53
 70
     1
102
RTVSPost2010Prop54
  1
strokes_ogs.tif
102
RTVSPost2010PropOp54
 70
     1
102
RTVSPost2010Prop55
280
     0
102
RTVSPost2010PropOp55
 70
     1
102
RTVSPost2010Prop56
140
1.0
102
RTVSPost2010PropOp56
 70
     1
102
RTVSPost2010Prop57
140
1.0
102
RTVSPost2010PropOp57
 70
     1
  0
XRECORD
  5
138
102
{ACAD_REACTORS
330
137
102
}
330
137
100
AcDbXrecord
280
     1
102
RTVSPost2010Prop28
280
     0
102
RTVSPost2010PropOp28
 70
     1
102
RTVSPost2010Prop29
280
     1
102
RTVSPost2010PropOp29
 70
     1
102
RTVSPost2010Prop30
280
     1
102
RTVSPost2010PropOp30
 70
     1
102
RTVSPost2010Prop31
280
     0
102
RTVSPost2010PropOp31
 70
     1
102
RTVSPost2010Prop32
280
     0
102
RTVSPost2010PropOp32
 70
     1
102
RTVSPost2010Prop33
280
     0
102
RTVSPost2010PropOp33
 70
     1
102
RTVSPost2010Prop34
280
     0
102
RTVSPost2010PropOp34
 70
     1
102
RTVSPost2010Prop35
280
     0
102
RTVSPost2010PropOp35
 70
     1
102
RTVSPost2010Prop36
280
     0
102
RTVSPost2010PropOp36
 70
     1
102
RTVSPost2010Prop37
 90
       50
102
RTVSPost2010PropOp37
 70
     1
102
RTVSPost2010Prop38
140
0.0
102
RTVSPost2010PropOp38
 70
     1
102
RTVSPost2010Prop39
140
1.0
102
RTVSPost2010PropOp39
 70
     1
102
RTVSPost2010Prop40
 90
        0
102
RTVSPost2010PropOp40
 70
     1
102
RTVSPost2010Prop41ColorIndex
 90
       18
102
RTVSPost2010Prop41ColorRGB
 90
        0
102
RTVSPost2010PropOp41
 70
     1
102
RTVSPost2010Prop42
 90
       50
102
RTVSPost2010PropOp42
 70
     1
102
RTVSPost2010Prop43
 90
        3
102
RTVSPost2010PropOp43
 70
     1
102
RTVSPost2010Prop44ColorIndex
 90
        5
102
RTVSPost2010Prop44ColorRGB
 90
      255
102
RTVSPost2010PropOp44
 70
     1
102
RTVSPost2010Prop45
280
     0
102
RTVSPost2010PropOp45
 70
     1
102
RTVSPost2010Prop46
 90
       50
102
RTVSPost2010PropOp46
 70
     1
102
RTVSPost2010Prop47
 90
       50
102
RTVSPost2010PropOp47
 70
     1
102
RTVSPost2010Prop48
 90
       50
102
RTVSPost2010PropOp48
 70
     1
102
RTVSPost2010Prop49
280
     0
102
RTVSPost2010PropOp49
 70
     1
102
RTVSPost2010Prop50
 90
       50
102
RTVSPost2010PropOp50
 70
     1
102
RTVSPost2010Prop51ColorIndex
 90
      256
102
RTVSPost2010Prop51ColorRGB
 90
-16777216
102
RTVSPost2010PropOp51
 70
     0
102
RTVSPost2010Prop52
140
1.0
102
RTVSPost2010PropOp52
 70
     0
102
RTVSPost2010Prop53
 90
        2
102
RTVSPost2010PropOp53
 70
     1
102
RTVSPost2010Prop54
  1
strokes_ogs.tif
102
RTVSPost2010PropOp54
 70
     1
102
RTVSPost2010Prop55
280
     0
102
RTVSPost2010PropOp55
 70
     1
102
RTVSPost2010Prop56
140
1.0
102
RTVSPost2010PropOp56
 70
     1
102
RTVSPost2010Prop57
140
1.0
102
RTVSPost2010PropOp57
 70
     1
  0
XRECORD
  5
136
102
{ACAD_REACTORS
330
135
102
}
330
135
100
AcDbXrecord
280
     1
102
RTVSPost2010Prop28
280
     0
102
RTVSPost2010PropOp28
 70
     1
102
RTVSPost2010Prop29
280
     1
102
RTVSPost2010PropOp29
 70
     1
102
RTVSPost2010Prop30
280
     1
102
RTVSPost2010PropOp30
 70
     1
102
RTVSPost2010Prop31
280
     0
102
RTVSPost2010PropOp31
 70
     1
102
RTVSPost2010Prop32
280
     0
102
RTVSPost2010PropOp32
 70
     1
102
RTVSPost2010Prop33
280
     0
102
RTVSPost2010PropOp33
 70
     1
102
RTVSPost2010Prop34
280
     0
102
RTVSPost2010PropOp34
 70
     1
102
RTVSPost2010Prop35
280
     0
102
RTVSPost2010PropOp35
 70
     1
102
RTVSPost2010Prop36
280
     0
102
RTVSPost2010PropOp36
 70
     1
102
RTVSPost2010Prop37
 90
       50
102
RTVSPost2010PropOp37
 70
     1
102
RTVSPost2010Prop38
140
0.0
102
RTVSPost2010PropOp38
 70
     1
102
RTVSPost2010Prop39
140
1.0
102
RTVSPost2010PropOp39
 70
     1
102
RTVSPost2010Prop40
 90
        0
102
RTVSPost2010PropOp40
 70
     1
102
RTVSPost2010Prop41ColorIndex
 90
       18
102
RTVSPost2010Prop41ColorRGB
 90
        0
102
RTVSPost2010PropOp41
 70
     1
102
RTVSPost2010Prop42
 90
       50
102
RTVSPost2010PropOp42
 70
     1
102
RTVSPost2010Prop43
 90
        3
102
RTVSPost2010PropOp43
 70
     1
102
RTVSPost2010Prop44ColorIndex
 90
        5
102
RTVSPost2010Prop44ColorRGB
 90
      255
102
RTVSPost2010PropOp44
 70
     1
102
RTVSPost2010Prop45
280
     0
102
RTVSPost2010PropOp45
 70
     1
102
RTVSPost2010Prop46
 90
       50
102
RTVSPost2010PropOp46
 70
     1
102
RTVSPost2010Prop47
 90
       50
102
RTVSPost2010PropOp47
 70
     1
102
RTVSPost2010Prop48
 90
       50
102
RTVSPost2010PropOp48
 70
     1
102
RTVSPost2010Prop49
280
     0
102
RTVSPost2010PropOp49
 70
     1
102
RTVSPost2010Prop50
 90
       50
102
RTVSPost2010PropOp50
 70
     1
102
RTVSPost2010Prop51ColorIndex
 90
      256
102
RTVSPost2010Prop51ColorRGB
 90
-16777216
102
RTVSPost2010PropOp51
 70
     0
102
RTVSPost2010Prop52
140
1.0
102
RTVSPost2010PropOp52
 70
     0
102
RTVSPost2010Prop53
 90
        2
102
RTVSPost2010PropOp53
 70
     1
102
RTVSPost2010Prop54
  1
strokes_ogs.tif
102
RTVSPost2010PropOp54
 70
     1
102
RTVSPost2010Prop55
280
     0
102
RTVSPost2010PropOp55
 70
     1
102
RTVSPost2010Prop56
140
1.0
102
RTVSPost2010PropOp56
 70
     1
102
RTVSPost2010Prop57
140
1.0
102
RTVSPost2010PropOp57
 70
     1
  0
XRECORD
  5
130
102
{ACAD_REACTORS
330
12F
102
}
330
12F
100
AcDbXrecord
280
     1
102
RTVSPost2010Prop28
280
     0
102
RTVSPost2010PropOp28
 70
     1
102
RTVSPost2010Prop29
280
     1
102
RTVSPost2010PropOp29
 70
     1
102
RTVSPost2010Prop30
280
     1
102
RTVSPost2010PropOp30
 70
     1
102
RTVSPost2010Prop31
280
     0
102
RTVSPost2010PropOp31
 70
     1
102
RTVSPost2010Prop32
280
     0
102
RTVSPost2010PropOp32
 70
     1
102
RTVSPost2010Prop33
280
     0
102
RTVSPost2010PropOp33
 70
     1
102
RTVSPost2010Prop34
280
     0
102
RTVSPost2010PropOp34
 70
     1
102
RTVSPost2010Prop35
280
     0
102
RTVSPost2010PropOp35
 70
     1
102
RTVSPost2010Prop36
280
     0
102
RTVSPost2010PropOp36
 70
     1
102
RTVSPost2010Prop37
 90
       50
102
RTVSPost2010PropOp37
 70
     1
102
RTVSPost2010Prop38
140
0.0
102
RTVSPost2010PropOp38
 70
     1
102
RTVSPost2010Prop39
140
1.0
102
RTVSPost2010PropOp39
 70
     1
102
RTVSPost2010Prop40
 90
        0
102
RTVSPost2010PropOp40
 70
     1
102
RTVSPost2010Prop41ColorIndex
 90
       18
102
RTVSPost2010Prop41ColorRGB
 90
        0
102
RTVSPost2010PropOp41
 70
     1
102
RTVSPost2010Prop42
 90
       50
102
RTVSPost2010PropOp42
 70
     1
102
RTVSPost2010Prop43
 90
        3
102
RTVSPost2010PropOp43
 70
     1
102
RTVSPost2010Prop44ColorIndex
 90
        5
102
RTVSPost2010Prop44ColorRGB
 90
      255
102
RTVSPost2010PropOp44
 70
     1
102
RTVSPost2010Prop45
280
     0
102
RTVSPost2010PropOp45
 70
     1
102
RTVSPost2010Prop46
 90
       50
102
RTVSPost2010PropOp46
 70
     1
102
RTVSPost2010Prop47
 90
       50
102
RTVSPost2010PropOp47
 70
     1
102
RTVSPost2010Prop48
 90
       50
102
RTVSPost2010PropOp48
 70
     1
102
RTVSPost2010Prop49
280
     0
102
RTVSPost2010PropOp49
 70
     1
102
RTVSPost2010Prop50
 90
       50
102
RTVSPost2010PropOp50
 70
     1
102
RTVSPost2010Prop51ColorIndex
 90
      256
102
RTVSPost2010Prop51ColorRGB
 90
-16777216
102
RTVSPost2010PropOp51
 70
     0
102
RTVSPost2010Prop52
140
1.0
102
RTVSPost2010PropOp52
 70
     0
102
RTVSPost2010Prop53
 90
        2
102
RTVSPost2010PropOp53
 70
     1
102
RTVSPost2010Prop54
  1
strokes_ogs.tif
102
RTVSPost2010PropOp54
 70
     1
102
RTVSPost2010Prop55
280
     0
102
RTVSPost2010PropOp55
 70
     1
102
RTVSPost2010Prop56
140
1.0
102
RTVSPost2010PropOp56
 70
     1
102
RTVSPost2010Prop57
140
1.0
102
RTVSPost2010PropOp57
 70
     1
  0
XRECORD
  5
132
102
{ACAD_REACTORS
330
131
102
}
330
131
100
AcDbXrecord
280
     1
102
RTVSPost2010Prop28
280
     0
102
RTVSPost2010PropOp28
 70
     1
102
RTVSPost2010Prop29
280
     1
102
RTVSPost2010PropOp29
 70
     1
102
RTVSPost2010Prop30
280
     1
102
RTVSPost2010PropOp30
 70
     1
102
RTVSPost2010Prop31
280
     0
102
RTVSPost2010PropOp31
 70
     1
102
RTVSPost2010Prop32
280
     0
102
RTVSPost2010PropOp32
 70
     1
102
RTVSPost2010Prop33
280
     0
102
RTVSPost2010PropOp33
 70
     1
102
RTVSPost2010Prop34
280
     0
102
RTVSPost2010PropOp34
 70
     1
102
RTVSPost2010Prop35
280
     0
102
RTVSPost2010PropOp35
 70
     1
102
RTVSPost2010Prop36
280
     0
102
RTVSPost2010PropOp36
 70
     1
102
RTVSPost2010Prop37
 90
       50
102
RTVSPost2010PropOp37
 70
     1
102
RTVSPost2010Prop38
140
0.0
102
RTVSPost2010PropOp38
 70
     1
102
RTVSPost2010Prop39
140
1.0
102
RTVSPost2010PropOp39
 70
     1
102
RTVSPost2010Prop40
 90
        0
102
RTVSPost2010PropOp40
 70
     1
102
RTVSPost2010Prop41ColorIndex
 90
       18
102
RTVSPost2010Prop41ColorRGB
 90
        0
102
RTVSPost2010PropOp41
 70
     1
102
RTVSPost2010Prop42
 90
       50
102
RTVSPost2010PropOp42
 70
     1
102
RTVSPost2010Prop43
 90
        3
102
RTVSPost2010PropOp43
 70
     1
102
RTVSPost2010Prop44ColorIndex
 90
        5
102
RTVSPost2010Prop44ColorRGB
 90
      255
102
RTVSPost2010PropOp44
 70
     1
102
RTVSPost2010Prop45
280
     0
102
RTVSPost2010PropOp45
 70
     1
102
RTVSPost2010Prop46
 90
       50
102
RTVSPost2010PropOp46
 70
     1
102
RTVSPost2010Prop47
 90
       50
102
RTVSPost2010PropOp47
 70
     1
102
RTVSPost2010Prop48
 90
       50
102
RTVSPost2010PropOp48
 70
     1
102
RTVSPost2010Prop49
280
     0
102
RTVSPost2010PropOp49
 70
     1
102
RTVSPost2010Prop50
 90
       50
102
RTVSPost2010PropOp50
 70
     1
102
RTVSPost2010Prop51ColorIndex
 90
      256
102
RTVSPost2010Prop51ColorRGB
 90
-16777216
102
RTVSPost2010PropOp51
 70
     0
102
RTVSPost2010Prop52
140
1.0
102
RTVSPost2010PropOp52
 70
     0
102
RTVSPost2010Prop53
 90
        2
102
RTVSPost2010PropOp53
 70
     1
102
RTVSPost2010Prop54
  1
strokes_ogs.tif
102
RTVSPost2010PropOp54
 70
     1
102
RTVSPost2010Prop55
280
     0
102
RTVSPost2010PropOp55
 70
     1
102
RTVSPost2010Prop56
140
1.0
102
RTVSPost2010PropOp56
 70
     1
102
RTVSPost2010Prop57
140
1.0
102
RTVSPost2010PropOp57
 70
     1
  0
XRECORD
  5
128
102
{ACAD_REACTORS
330
127
102
}
330
127
100
AcDbXrecord
280
     1
102
RTVSPost2010Prop28
280
     0
102
RTVSPost2010PropOp28
 70
     1
102
RTVSPost2010Prop29
280
     1
102
RTVSPost2010PropOp29
 70
     1
102
RTVSPost2010Prop30
280
     1
102
RTVSPost2010PropOp30
 70
     1
102
RTVSPost2010Prop31
280
     0
102
RTVSPost2010PropOp31
 70
     1
102
RTVSPost2010Prop32
280
     0
102
RTVSPost2010PropOp32
 70
     1
102
RTVSPost2010Prop33
280
     0
102
RTVSPost2010PropOp33
 70
     1
102
RTVSPost2010Prop34
280
     0
102
RTVSPost2010PropOp34
 70
     1
102
RTVSPost2010Prop35
280
     0
102
RTVSPost2010PropOp35
 70
     1
102
RTVSPost2010Prop36
280
     0
102
RTVSPost2010PropOp36
 70
     1
102
RTVSPost2010Prop37
 90
       50
102
RTVSPost2010PropOp37
 70
     1
102
RTVSPost2010Prop38
140
0.0
102
RTVSPost2010PropOp38
 70
     1
102
RTVSPost2010Prop39
140
1.0
102
RTVSPost2010PropOp39
 70
     1
102
RTVSPost2010Prop40
 90
        0
102
RTVSPost2010PropOp40
 70
     1
102
RTVSPost2010Prop41ColorIndex
 90
       18
102
RTVSPost2010Prop41ColorRGB
 90
        0
102
RTVSPost2010PropOp41
 70
     1
102
RTVSPost2010Prop42
 90
       50
102
RTVSPost2010PropOp42
 70
     1
102
RTVSPost2010Prop43
 90
        3
102
RTVSPost2010PropOp43
 70
     1
102
RTVSPost2010Prop44ColorIndex
 90
        5
102
RTVSPost2010Prop44ColorRGB
 90
      255
102
RTVSPost2010PropOp44
 70
     1
102
RTVSPost2010Prop45
280
     0
102
RTVSPost2010PropOp45
 70
     1
102
RTVSPost2010Prop46
 90
       50
102
RTVSPost2010PropOp46
 70
     1
102
RTVSPost2010Prop47
 90
       50
102
RTVSPost2010PropOp47
 70
     1
102
RTVSPost2010Prop48
 90
       50
102
RTVSPost2010PropOp48
 70
     1
102
RTVSPost2010Prop49
280
     0
102
RTVSPost2010PropOp49
 70
     1
102
RTVSPost2010Prop50
 90
       50
102
RTVSPost2010PropOp50
 70
     1
102
RTVSPost2010Prop51ColorIndex
 90
      256
102
RTVSPost2010Prop51ColorRGB
 90
-16777216
102
RTVSPost2010PropOp51
 70
     0
102
RTVSPost2010Prop52
140
1.0
102
RTVSPost2010PropOp52
 70
     0
102
RTVSPost2010Prop53
 90
        2
102
RTVSPost2010PropOp53
 70
     1
102
RTVSPost2010Prop54
  1
strokes_ogs.tif
102
RTVSPost2010PropOp54
 70
     1
102
RTVSPost2010Prop55
280
     0
102
RTVSPost2010PropOp55
 70
     1
102
RTVSPost2010Prop56
140
1.0
102
RTVSPost2010PropOp56
 70
     1
102
RTVSPost2010Prop57
140
1.0
102
RTVSPost2010PropOp57
 70
     1
  0
XRECORD
  5
11C
102
{ACAD_REACTORS
330
11B
102
}
330
11B
100
AcDbXrecord
280
     1
102
RTVSPost2010Prop28
280
     0
102
RTVSPost2010PropOp28
 70
     1
102
RTVSPost2010Prop29
280
     1
102
RTVSPost2010PropOp29
 70
     1
102
RTVSPost2010Prop30
280
     1
102
RTVSPost2010PropOp30
 70
     1
102
RTVSPost2010Prop31
280
     0
102
RTVSPost2010PropOp31
 70
     1
102
RTVSPost2010Prop32
280
     0
102
RTVSPost2010PropOp32
 70
     1
102
RTVSPost2010Prop33
280
     0
102
RTVSPost2010PropOp33
 70
     1
102
RTVSPost2010Prop34
280
     0
102
RTVSPost2010PropOp34
 70
     1
102
RTVSPost2010Prop35
280
     0
102
RTVSPost2010PropOp35
 70
     1
102
RTVSPost2010Prop36
280
     0
102
RTVSPost2010PropOp36
 70
     1
102
RTVSPost2010Prop37
 90
       50
102
RTVSPost2010PropOp37
 70
     1
102
RTVSPost2010Prop38
140
0.0
102
RTVSPost2010PropOp38
 70
     1
102
RTVSPost2010Prop39
140
1.0
102
RTVSPost2010PropOp39
 70
     1
102
RTVSPost2010Prop40
 90
        0
102
RTVSPost2010PropOp40
 70
     1
102
RTVSPost2010Prop41ColorIndex
 90
       18
102
RTVSPost2010Prop41ColorRGB
 90
        0
102
RTVSPost2010PropOp41
 70
     1
102
RTVSPost2010Prop42
 90
       50
102
RTVSPost2010PropOp42
 70
     1
102
RTVSPost2010Prop43
 90
        3
102
RTVSPost2010PropOp43
 70
     1
102
RTVSPost2010Prop44ColorIndex
 90
        5
102
RTVSPost2010Prop44ColorRGB
 90
      255
102
RTVSPost2010PropOp44
 70
     1
102
RTVSPost2010Prop45
280
     0
102
RTVSPost2010PropOp45
 70
     1
102
RTVSPost2010Prop46
 90
       50
102
RTVSPost2010PropOp46
 70
     1
102
RTVSPost2010Prop47
 90
       50
102
RTVSPost2010PropOp47
 70
     1
102
RTVSPost2010Prop48
 90
       50
102
RTVSPost2010PropOp48
 70
     1
102
RTVSPost2010Prop49
280
     0
102
RTVSPost2010PropOp49
 70
     1
102
RTVSPost2010Prop50
 90
       50
102
RTVSPost2010PropOp50
 70
     1
102
RTVSPost2010Prop51ColorIndex
 90
      256
102
RTVSPost2010Prop51ColorRGB
 90
-16777216
102
RTVSPost2010PropOp51
 70
     0
102
RTVSPost2010Prop52
140
1.0
102
RTVSPost2010PropOp52
 70
     0
102
RTVSPost2010Prop53
 90
        2
102
RTVSPost2010PropOp53
 70
     1
102
RTVSPost2010Prop54
  1
strokes_ogs.tif
102
RTVSPost2010PropOp54
 70
     1
102
RTVSPost2010Prop55
280
     0
102
RTVSPost2010PropOp55
 70
     1
102
RTVSPost2010Prop56
140
1.0
102
RTVSPost2010PropOp56
 70
     1
102
RTVSPost2010Prop57
140
1.0
102
RTVSPost2010PropOp57
 70
     1
  0
XRECORD
  5
134
102
{ACAD_REACTORS
330
133
102
}
330
133
100
AcDbXrecord
280
     1
102
RTVSPost2010Prop28
280
     0
102
RTVSPost2010PropOp28
 70
     1
102
RTVSPost2010Prop29
280
     1
102
RTVSPost2010PropOp29
 70
     1
102
RTVSPost2010Prop30
280
     1
102
RTVSPost2010PropOp30
 70
     1
102
RTVSPost2010Prop31
280
     0
102
RTVSPost2010PropOp31
 70
     1
102
RTVSPost2010Prop32
280
     0
102
RTVSPost2010PropOp32
 70
     1
102
RTVSPost2010Prop33
280
     0
102
RTVSPost2010PropOp33
 70
     1
102
RTVSPost2010Prop34
280
     0
102
RTVSPost2010PropOp34
 70
     1
102
RTVSPost2010Prop35
280
     0
102
RTVSPost2010PropOp35
 70
     1
102
RTVSPost2010Prop36
280
     0
102
RTVSPost2010PropOp36
 70
     1
102
RTVSPost2010Prop37
 90
       50
102
RTVSPost2010PropOp37
 70
     1
102
RTVSPost2010Prop38
140
0.0
102
RTVSPost2010PropOp38
 70
     1
102
RTVSPost2010Prop39
140
1.0
102
RTVSPost2010PropOp39
 70
     1
102
RTVSPost2010Prop40
 90
        0
102
RTVSPost2010PropOp40
 70
     1
102
RTVSPost2010Prop41ColorIndex
 90
       18
102
RTVSPost2010Prop41ColorRGB
 90
        0
102
RTVSPost2010PropOp41
 70
     1
102
RTVSPost2010Prop42
 90
       50
102
RTVSPost2010PropOp42
 70
     1
102
RTVSPost2010Prop43
 90
        3
102
RTVSPost2010PropOp43
 70
     1
102
RTVSPost2010Prop44ColorIndex
 90
        5
102
RTVSPost2010Prop44ColorRGB
 90
      255
102
RTVSPost2010PropOp44
 70
     1
102
RTVSPost2010Prop45
280
     0
102
RTVSPost2010PropOp45
 70
     1
102
RTVSPost2010Prop46
 90
       50
102
RTVSPost2010PropOp46
 70
     1
102
RTVSPost2010Prop47
 90
       50
102
RTVSPost2010PropOp47
 70
     1
102
RTVSPost2010Prop48
 90
       50
102
RTVSPost2010PropOp48
 70
     1
102
RTVSPost2010Prop49
280
     0
102
RTVSPost2010PropOp49
 70
     1
102
RTVSPost2010Prop50
 90
       50
102
RTVSPost2010PropOp50
 70
     1
102
RTVSPost2010Prop51ColorIndex
 90
      256
102
RTVSPost2010Prop51ColorRGB
 90
-16777216
102
RTVSPost2010PropOp51
 70
     0
102
RTVSPost2010Prop52
140
1.0
102
RTVSPost2010PropOp52
 70
     0
102
RTVSPost2010Prop53
 90
        2
102
RTVSPost2010PropOp53
 70
     1
102
RTVSPost2010Prop54
  1
strokes_ogs.tif
102
RTVSPost2010PropOp54
 70
     1
102
RTVSPost2010Prop55
280
     0
102
RTVSPost2010PropOp55
 70
     1
102
RTVSPost2010Prop56
140
1.0
102
RTVSPost2010PropOp56
 70
     1
102
RTVSPost2010Prop57
140
1.0
102
RTVSPost2010PropOp57
 70
     1
  0
ENDSEC
  0
EOF
