  0
SECTION
  2
HEADER
  9
$ACADVER
  1
AC1024
  9
$ACADMAINTVER
 70
   226
  9
$DWGCODEPAGE
  3
ANSI_1252
  9
$INSBASE
 10
0.0
 20
0.0
 30
0.0
  9
$EXTMIN
 10
1.000000000000000E+20
 20
1.000000000000000E+20
 30
1.000000000000000E+20
  9
$EXTMAX
 10
-1.000000000000000E+20
 20
-1.000000000000000E+20
 30
-1.000000000000000E+20
  9
$LIMMIN
 10
0.0
 20
0.0
  9
$LIMMAX
 10
12.0
 20
9.0
  9
$ORTHOMODE
 70
     0
  9
$REGENMODE
 70
     1
  9
$FILLMODE
 70
     1
  9
$QTEXTMODE
 70
     0
  9
$MIRRTEXT
 70
     0
  9
$LTSCALE
 40
1.0
  9
$ATTMODE
 70
     1
  9
$TEXTSIZE
 40
0.2
  9
$TRACEWID
 40
0.05
  9
$TEXTSTYLE
  7
Standard
  9
$CLAYER
  8
0
  9
$CELTYPE
  6
ByLayer
  9
$CECOLOR
 62
   256
  9
$CELTSCALE
 40
1.0
  9
$DISPSILH
 70
     0
  9
$DIMSCALE
 40
1.0
  9
$DIMASZ
 40
0.18
  9
$DIMEXO
 40
0.0625
  9
$DIMDLI
 40
0.38
  9
$DIMRND
 40
0.0
  9
$DIMDLE
 40
0.0
  9
$DIMEXE
 40
0.18
  9
$DIMTP
 40
0.0
  9
$DIMTM
 40
0.0
  9
$DIMTXT
 40
0.18
  9
$DIMCEN
 40
0.09
  9
$DIMTSZ
 40
0.0
  9
$DIMTOL
 70
     0
  9
$DIMLIM
 70
     0
  9
$DIMTIH
 70
     1
  9
$DIMTOH
 70
     1
  9
$DIMSE1
 70
     0
  9
$DIMSE2
 70
     0
  9
$DIMTAD
 70
     0
  9
$DIMZIN
 70
     0
  9
$DIMBLK
  1

  9
$DIMASO
 70
     1
  9
$DIMSHO
 70
     1
  9
$DIMPOST
  1

  9
$DIMAPOST
  1

  9
$DIMALT
 70
     0
  9
$DIMALTD
 70
     2
  9
$DIMALTF
 40
25.4
  9
$DIMLFAC
 40
1.0
  9
$DIMTOFL
 70
     0
  9
$DIMTVP
 40
0.0
  9
$DIMTIX
 70
     0
  9
$DIMSOXD
 70
     0
  9
$DIMSAH
 70
     0
  9
$DIMBLK1
  1

  9
$DIMBLK2
  1

  9
$DIMSTYLE
  2
Standard
  9
$DIMCLRD
 70
     0
  9
$DIMCLRE
 70
     0
  9
$DIMCLRT
 70
     0
  9
$DIMTFAC
 40
1.0
  9
$DIMGAP
 40
0.09
  9
$DIMJUST
 70
     0
  9
$DIMSD1
 70
     0
  9
$DIMSD2
 70
     0
  9
$DIMTOLJ
 70
     1
  9
$DIMTZIN
 70
     0
  9
$DIMALTZ
 70
     0
  9
$DIMALTTZ
 70
     0
  9
$DIMUPT
 70
     0
  9
$DIMDEC
 70
     4
  9
$DIMTDEC
 70
     4
  9
$DIMALTU
 70
     2
  9
$DIMALTTD
 70
     2
  9
$DIMTXSTY
  7
Standard
  9
$DIMAUNIT
 70
     0
  9
$DIMADEC
 70
     0
  9
$DIMALTRND
 40
0.0
  9
$DIMAZIN
 70
     0
  9
$DIMDSEP
 70
    46
  9
$DIMATFIT
 70
     3
  9
$DIMFRAC
 70
     0
  9
$DIMLDRBLK
  1

  9
$DIMLUNIT
 70
     2
  9
$DIMLWD
 70
    -2
  9
$DIMLWE
 70
    -2
  9
$DIMTMOVE
 70
     0
  9
$DIMFXL
 40
1.0
  9
$DIMFXLON
 70
     0
  9
$DIMJOGANG
 40
0.7853981633974483
  9
$DIMTFILL
 70
     0
  9
$DIMTFILLCLR
 70
     0
  9
$DIMARCSYM
 70
     0
  9
$DIMLTYPE
  6

  9
$DIMLTEX1
  6

  9
$DIMLTEX2
  6

  9
$DIMTXTDIRECTION
 70
     0
  9
$LUNITS
 70
     2
  9
$LUPREC
 70
     4
  9
$SKETCHINC
 40
0.1
  9
$FILLETRAD
 40
0.0
  9
$AUNITS
 70
     0
  9
$AUPREC
 70
     0
  9
$MENU
  1
.
  9
$ELEVATION
 40
0.0
  9
$PELEVATION
 40
0.0
  9
$THICKNESS
 40
0.0
  9
$LIMCHECK
 70
     0
  9
$CHAMFERA
 40
0.0
  9
$CHAMFERB
 40
0.0
  9
$CHAMFERC
 40
0.0
  9
$CHAMFERD
 40
0.0
  9
$SKPOLY
 70
     0
  9
$TDCREATE
 40
2460209.903784722
  9
$TDUCREATE
 40
2460209.820451389
  9
$TDUPDATE
 40
2460209.903784722
  9
$TDUUPDATE
 40
2460209.820451389
  9
$TDINDWG
 40
0.0000000000
  9
$TDUSRTIMER
 40
0.0000000000
  9
$USRTIMER
 70
     1
  9
$ANGBASE
 50
0.0
  9
$ANGDIR
 70
     0
  9
$PDMODE
 70
     0
  9
$PDSIZE
 40
0.0
  9
$PLINEWID
 40
0.0
  9
$SPLFRAME
 70
     0
  9
$SPLINETYPE
 70
     6
  9
$SPLINESEGS
 70
     8
  9
$HANDSEED
  5
141
  9
$SURFTAB1
 70
     6
  9
$SURFTAB2
 70
     6
  9
$SURFTYPE
 70
     6
  9
$SURFU
 70
     6
  9
$SURFV
 70
     6
  9
$UCSBASE
  2

  9
$UCSNAME
  2

  9
$UCSORG
 10
0.0
 20
0.0
 30
0.0
  9
$UCSXDIR
 10
1.0
 20
0.0
 30
0.0
  9
$UCSYDIR
 10
0.0
 20
1.0
 30
0.0
  9
$UCSORTHOREF
  2

  9
$UCSORTHOVIEW
 70
     0
  9
$UCSORGTOP
 10
0.0
 20
0.0
 30
0.0
  9
$UCSORGBOTTOM
 10
0.0
 20
0.0
 30
0.0
  9
$UCSORGLEFT
 10
0.0
 20
0.0
 30
0.0
  9
$UCSORGRIGHT
 10
0.0
 20
0.0
 30
0.0
  9
$UCSORGFRONT
 10
0.0
 20
0.0
 30
0.0
  9
$UCSORGBACK
 10
0.0
 20
0.0
 30
0.0
  9
$PUCSBASE
  2

  9
$PUCSNAME
  2

  9
$PUCSORG
 10
0.0
 20
0.0
 30
0.0
  9
$PUCSXDIR
 10
1.0
 20
0.0
 30
0.0
  9
$PUCSYDIR
 10
0.0
 20
1.0
 30
0.0
  9
$PUCSORTHOREF
  2

  9
$PUCSORTHOVIEW
 70
     0
  9
$PUCSORGTOP
 10
0.0
 20
0.0
 30
0.0
  9
$PUCSORGBOTTOM
 10
0.0
 20
0.0
 30
0.0
  9
$PUCSORGLEFT
 10
0.0
 20
0.0
 30
0.0
  9
$PUCSORGRIGHT
 10
0.0
 20
0.0
 30
0.0
  9
$PUCSORGFRONT
 10
0.0
 20
0.0
 30
0.0
  9
$PUCSORGBACK
 10
0.0
 20
0.0
 30
0.0
  9
$USERI1
 70
     0
  9
$USERI2
 70
     0
  9
$USERI3
 70
     0
  9
$USERI4
 70
     0
  9
$USERI5
 70
     0
  9
$USERR1
 40
0.0
  9
$USERR2
 40
0.0
  9
$USERR3
 40
0.0
  9
$USERR4
 40
0.0
  9
$USERR5
 40
0.0
  9
$WORLDVIEW
 70
     1
  9
$SHADEDGE
 70
     3
  9
$SHADEDIF
 70
    70
  9
$TILEMODE
 70
     1
  9
$MAXACTVP
 70
    64
  9
$PINSBASE
 10
0.0
 20
0.0
 30
0.0
  9
$PLIMCHECK
 70
     0
  9
$PEXTMIN
 10
1.000000000000000E+20
 20
1.000000000000000E+20
 30
1.000000000000000E+20
  9
$PEXTMAX
 10
-1.000000000000000E+20
 20
-1.000000000000000E+20
 30
-1.000000000000000E+20
  9
$PLIMMIN
 10
0.0
 20
0.0
  9
$PLIMMAX
 10
12.0
 20
9.0
  9
$UNITMODE
 70
     0
  9
$VISRETAIN
 70
     1
  9
$PLINEGEN
 70
     0
  9
$PSLTSCALE
 70
     1
  9
$TREEDEPTH
 70
  3020
  9
$CMLSTYLE
  2
Standard
  9
$CMLJUST
 70
     0
  9
$CMLSCALE
 40
1.0
  9
$PROXYGRAPHICS
 70
     1
  9
$MEASUREMENT
 70
     0
  9
$CELWEIGHT
370
    -1
  9
$ENDCAPS
280
     0
  9
$JOINSTYLE
280
     0
  9
$LWDISPLAY
290
     1
  9
$INSUNITS
 70
     4
  9
$HYPERLINKBASE
  1

  9
$STYLESHEET
  1

  9
$XEDIT
290
     1
  9
$CEPSNTYPE
380
     0
  9
$PSTYLEMODE
290
     1
  9
$FINGERPRINTGUID
  2
{B3F7C4F8-7E8D-4449-8830-5BE233F25302}
  9
$VERSIONGUID
  2
{05350BC3-F5E9-E045-88A2-19B10F8965A8}
  9
$EXTNAMES
290
     1
  9
$PSVPSCALE
 40
0.0
  9
$OLESTARTUP
290
     0
  9
$SORTENTS
280
   127
  9
$INDEXCTL
280
     0
  9
$HIDETEXT
280
     1
  9
$XCLIPFRAME
280
     2
  9
$HALOGAP
280
     0
  9
$OBSCOLOR
 70
   257
  9
$OBSLTYPE
280
     0
  9
$INTERSECTIONDISPLAY
280
     0
  9
$INTERSECTIONCOLOR
 70
   257
  9
$DIMASSOC
280
     2
  9
$PROJECTNAME
  1

  9
$CAMERADISPLAY
290
     0
  9
$LENSLENGTH
 40
50.0
  9
$CAMERAHEIGHT
 40
0.0
  9
$STEPSPERSEC
 40
2.0
  9
$STEPSIZE
 40
6.0
  9
$3DDWFPREC
 40
2.0
  9
$PSOLWIDTH
 40
0.25
  9
$PSOLHEIGHT
 40
4.0
  9
$LOFTANG1
 40
1.570796326794896
  9
$LOFTANG2
 40
1.570796326794896
  9
$LOFTMAG1
 40
0.0
  9
$LOFTMAG2
 40
0.0
  9
$LOFTPARAM
 70
     7
  9
$LOFTNORMALS
280
     1
  9
$LATITUDE
 40
37.795
  9
$LONGITUDE
 40
-122.394
  9
$NORTHDIRECTION
 40
0.0
  9
$TIMEZONE
 70
 -8000
  9
$LIGHTGLYPHDISPLAY
280
     1
  9
$TILEMODELIGHTSYNCH
280
     1
  9
$CMATERIAL
347
11
  9
$SOLIDHIST
280
     0
  9
$SHOWHIST
280
     1
  9
$DWFFRAME
280
     2
  9
$DGNFRAME
280
     0
  9
$REALWORLDSCALE
290
     1
  9
$INTERFERECOLOR
 62
     1
  9
$INTERFEREOBJVS
345
33
  9
$INTERFEREVPVS
346
30
  9
$CSHADOW
280
     0
  9
$SHADOWPLANELOCATION
 40
0.0
  0
ENDSEC
  0
SECTION
  2
CLASSES
  0
CLASS
  1
ACDBDICTIONARYWDFLT
  2
AcDbDictionaryWithDefault
  3
ObjectDBX Classes
 90
        0
 91
        1
280
     0
281
     0
  0
CLASS
  1
MATERIAL
  2
AcDbMaterial
  3
ObjectDBX Classes
 90
     1153
 91
        3
280
     0
281
     0
  0
CLASS
  1
VISUALSTYLE
  2
AcDbVisualStyle
  3
ObjectDBX Classes
 90
     4095
 91
       24
280
     0
281
     0
  0
CLASS
  1
SCALE
  2
AcDbScale
  3
ObjectDBX Classes
 90
     1153
 91
       17
280
     0
281
     0
  0
CLASS
  1
TABLESTYLE
  2
AcDbTableStyle
  3
ObjectDBX Classes
 90
     4095
 91
        1
280
     0
281
     0
  0
CLASS
  1
MLEADERSTYLE
  2
AcDbMLeaderStyle
  3
ACDB_MLEADERSTYLE_CLASS
 90
     4095
 91
        1
280
     0
281
     0
  0
CLASS
  1
ACDBSECTIONVIEWSTYLE
  2
AcDbSectionViewStyle
  3
ObjectDBX Classes
 90
     1025
 91
        1
280
     0
281
     0
  0
CLASS
  1
ACDBDETAILVIEWSTYLE
  2
AcDbDetailViewStyle
  3
ObjectDBX Classes
 90
     1025
 91
        1
280
     0
281
     0
  0
CLASS
  1
DICTIONARYVAR
  2
AcDbDictionaryVar
  3
ObjectDBX Classes
 90
        0
 91
        5
280
     0
281
     0
  0
CLASS
  1
CELLSTYLEMAP
  2
AcDbCellStyleMap
  3
ObjectDBX Classes
 90
     1152
 91
        1
280
     0
281
     0
  0
ENDSEC
  0
SECTION
  2
TABLES
  0
TABLE
  2
VPORT
  5
8
330
0
100
AcDbSymbolTable
 70
     1
  0
VPORT
  5
57
330
8
100
AcDbSymbolTableRecord
100
AcDbViewportTableRecord
  2
*Active
 70
     0
 10
0.0
 20
0.0
 11
1.0
 21
1.0
 12
0.0
 22
0.0
 13
0.0
 23
0.0
 14
1.0
 24
1.0
 15
0.0
 25
0.0
 16
0.0
 26
0.0
 36
1.0
 17
104.951388862651
 27
148.5194444073146
 37
0.0
 40
302.9796665909217
 41
0.7066508313539194
 42
50.0
 43
0.0
 44
0.0
 50
0.0
 51
0.0
 71
     0
 72
   100
 73
     1
 74
     1
 75
     0
 76
     0
 77
     0
 78
     0
281
     0
 65
     1
110
0.0
120
0.0
130
0.0
111
1.0
121
0.0
131
0.0
112
0.0
122
1.0
132
0.0
 79
     0
146
0.0
 60
     3
 61
     5
292
     1
282
     1
141
0.0
142
0.0
 63
   250
421
  3355443
  0
ENDTAB
  0
TABLE
  2
LTYPE
  5
5
330
0
100
AcDbSymbolTable
 70
     1
  0
LTYPE
  5
5B
330
5
100
AcDbSymbolTableRecord
100
AcDbLinetypeTableRecord
  2
ByBlock
 70
     0
  3

 72
    65
 73
     0
 40
0.0
  0
LTYPE
  5
5C
330
5
100
AcDbSymbolTableRecord
100
AcDbLinetypeTableRecord
  2
ByLayer
 70
     0
  3

 72
    65
 73
     0
 40
0.0
  0
LTYPE
  5
5D
330
5
100
AcDbSymbolTableRecord
100
AcDbLinetypeTableRecord
  2
Continuous
 70
     0
  3
Solid line
 72
    65
 73
     0
 40
0.0
  0
ENDTAB
  0
TABLE
  2
LAYER
  5
2
330
0
100
AcDbSymbolTable
 70
     2
  0
LAYER
  5
54
330
2
100
AcDbSymbolTableRecord
100
AcDbLayerTableRecord
  2
0
 70
     0
 62
     7
  6
Continuous
370
    -3
390
F
347
21
  0
LAYER
  5
78
330
2
100
AcDbSymbolTableRecord
100
AcDbLayerTableRecord
  2
Capa 1
 70
     0
 62
     7
  6
Continuous
370
     0
390
F
347
21
  0
ENDTAB
  0
TABLE
  2
STYLE
  5
3
330
0
100
AcDbSymbolTable
 70
     2
  0
STYLE
  5
55
330
3
100
AcDbSymbolTableRecord
100
AcDbTextStyleTableRecord
  2
Standard
 70
     0
 40
0.0
 41
1.0
 50
0.0
 71
     0
 42
0.2
  3
txt
  4

  0
STYLE
  5
5A
330
3
100
AcDbSymbolTableRecord
100
AcDbTextStyleTableRecord
  2
Annotative
 70
     0
 40
0.0
 41
1.0
 50
0.0
 71
     0
 42
0.2
  3
txt
  4

1001
AcadAnnotative
1000
AnnotativeData
1002
{
1070
     1
1070
     1
1002
}
  0
ENDTAB
  0
TABLE
  2
VIEW
  5
6
330
0
100
AcDbSymbolTable
 70
     0
  0
ENDTAB
  0
TABLE
  2
UCS
  5
7
330
0
100
AcDbSymbolTable
 70
     0
  0
ENDTAB
  0
TABLE
  2
APPID
  5
9
330
0
100
AcDbSymbolTable
 70
     2
  0
APPID
  5
56
330
9
100
AcDbSymbolTableRecord
100
AcDbRegAppTableRecord
  2
ACAD
 70
     0
  0
APPID
  5
5E
330
9
100
AcDbSymbolTableRecord
100
AcDbRegAppTableRecord
  2
AcadAnnotative
 70
     0
  0
ENDTAB
  0
TABLE
  2
DIMSTYLE
  5
A
330
0
100
AcDbSymbolTable
 70
     2
100
AcDbDimStyleTable
 71
     0
  0
DIMSTYLE
105
58
330
A
100
AcDbSymbolTableRecord
100
AcDbDimStyleTableRecord
  2
Standard
 70
     0
340
55
  0
DIMSTYLE
105
59
330
A
100
AcDbSymbolTableRecord
100
AcDbDimStyleTableRecord
  2
Annotative
 70
     0
340
55
1001
AcadAnnotative
1000
AnnotativeData
1002
{
1070
     1
1070
     1
1002
}
  0
ENDTAB
  0
TABLE
  2
BLOCK_RECORD
  5
1
330
0
100
AcDbSymbolTable
 70
     1
  0
BLOCK_RECORD
  5
70
330
1
100
AcDbSymbolTableRecord
100
AcDbBlockTableRecord
  2
*Model_Space
340
73
 70
     0
280
     1
281
     0
  0
BLOCK_RECORD
  5
6C
330
1
100
AcDbSymbolTableRecord
100
AcDbBlockTableRecord
  2
*Paper_Space
340
6F
 70
     0
280
     1
281
     0
  0
BLOCK_RECORD
  5
74
330
1
100
AcDbSymbolTableRecord
100
AcDbBlockTableRecord
  2
*Paper_Space0
340
77
 70
     0
280
     1
281
     0
  0
ENDTAB
  0
ENDSEC
  0
SECTION
  2
BLOCKS
  0
BLOCK
  5
71
330
70
100
AcDbEntity
  8
0
100
AcDbBlockBegin
  2
*Model_Space
 70
     0
 10
0.0
 20
0.0
 30
0.0
  3
*Model_Space
  1

  0
ENDBLK
  5
72
330
70
100
AcDbEntity
  8
0
100
AcDbBlockEnd
  0
BLOCK
  5
6D
330
6C
100
AcDbEntity
 67
     1
  8
0
100
AcDbBlockBegin
  2
*Paper_Space
 70
     0
 10
0.0
 20
0.0
 30
0.0
  3
*Paper_Space
  1

  0
ENDBLK
  5
6E
330
6C
100
AcDbEntity
 67
     1
  8
0
100
AcDbBlockEnd
  0
BLOCK
  5
75
330
74
100
AcDbEntity
 67
     1
  8
0
100
AcDbBlockBegin
  2
*Paper_Space0
 70
     0
 10
0.0
 20
0.0
 30
0.0
  3
*Paper_Space0
  1

  0
ENDBLK
  5
76
330
74
100
AcDbEntity
 67
     1
  8
0
100
AcDbBlockEnd
  0
ENDSEC
  0
SECTION
  2
ENTITIES
  0
LWPOLYLINE
  5
79
330
70
100
AcDbEntity
  8
Capa 1
 62
    18
420
        0
370
     9
100
AcDbPolyline
 90
        4
 70
     0
 43
0.0
 10
165.5233268323985
 20
176.4741226602814
 10
96.85865501525475
 20
136.8501093204424
 10
95.50398964083754
 20
137.6121106121627
 10
164.0839874705078
 20
177.3207871735517
  0
LWPOLYLINE
  5
7A
330
70
100
AcDbEntity
  8
Capa 1
 62
    18
420
        0
370
     9
100
AcDbPolyline
 90
        3
 70
     0
 43
0.0
 10
96.85865501525475
 20
112.6354374921862
 10
95.50398964083754
 20
113.4821127713799
 10
95.50398964083754
 20
137.6121106121627
  0
LWPOLYLINE
  5
7B
330
70
100
AcDbEntity
  8
Capa 1
 62
    18
420
        0
370
     9
100
AcDbPolyline
 90
        3
 70
     0
 43
0.0
 10
96.85865501525475
 20
136.8501093204424
 10
96.85865501525475
 20
112.6354374921862
 10
165.5233268323985
 20
152.2594400661018
  0
LWPOLYLINE
  5
7C
330
70
100
AcDbEntity
  8
Capa 1
 62
    18
420
        0
370
     9
100
AcDbPolyline
 90
        6
 70
     0
 43
0.0
 10
96.85865501525475
 20
84.44110978452666
 10
95.50398964083754
 20
85.28811880734551
 10
95.50398964083754
 20
109.5027798696783
 10
96.85865501525475
 20
108.6561045904846
 10
96.85865501525475
 20
84.44110978452666
 10
165.5233268323985
 20
124.0654461020674
  0
SPLINE
  5
7D
330
70
100
AcDbEntity
  8
Capa 1
 62
    18
420
        0
370
     9
100
AcDbSpline
210
0.0
220
0.0
230
1.0
 70
    24
 71
     3
 72
     8
 73
     4
 74
     0
 42
0.0000000001
 43
0.0000000001
 40
0.0
 40
0.0
 40
0.0
 40
0.0
 40
1.0
 40
1.0
 40
1.0
 40
1.0
 10
96.85865501525475
 20
108.6561045904846
 30
0.0
 10
96.85865501525475
 20
108.6561045904846
 30
0.0
 10
165.5233268323985
 20
148.2801071644002
 30
0.0
 10
165.5233268323985
 20
148.2801071644002
 30
0.0
  0
SPLINE
  5
7E
330
70
100
AcDbEntity
  8
Capa 1
 62
    18
420
        0
370
     9
100
AcDbSpline
210
0.0
220
0.0
230
1.0
 70
    24
 71
     3
 72
     8
 73
     4
 74
     0
 42
0.0000000001
 43
0.0000000001
 40
0.0
 40
0.0
 40
0.0
 40
0.0
 40
1.0
 40
1.0
 40
1.0
 40
1.0
 10
95.50398964083754
 20
109.5027798696783
 30
0.0
 10
95.50398964083754
 20
109.5027798696783
 30
0.0
 10
164.0839874705078
 20
149.1267716776706
 30
0.0
 10
164.0839874705078
 20
149.1267716776706
 30
0.0
  0
LWPOLYLINE
  5
7F
330
70
100
AcDbEntity
  8
Capa 1
 62
    18
420
        0
370
     9
100
AcDbPolyline
 90
        4
 70
     1
 43
0.0
 10
95.41932641928752
 20
141.5914435138643
 10
95.41932641928752
 20
85.11878698128379
 10
57.82732728995941
 20
106.7934383549205
 10
57.82732728995941
 20
163.2661110363861
  0
SPLINE
  5
80
330
70
100
AcDbEntity
  8
Capa 1
 62
    18
420
        0
370
     9
100
AcDbSpline
210
0.0
220
0.0
230
1.0
 70
    24
 71
     3
 72
     8
 73
     4
 74
     0
 42
0.0000000001
 43
0.0000000001
 40
0.0
 40
0.0
 40
0.0
 40
0.0
 40
1.0
 40
1.0
 40
1.0
 40
1.0
 10
96.77399179370473
 20
110.1801071739252
 30
0.0
 10
96.77399179370473
 20
110.1801071739252
 30
0.0
 10
96.77399179370473
 20
112.7201114796596
 30
0.0
 10
96.77399179370473
 20
112.7201114796596
 30
0.0
  0
SPLINE
  5
81
330
70
100
AcDbEntity
  8
Capa 1
 62
    18
420
        0
370
     9
100
AcDbSpline
210
0.0
220
0.0
230
1.0
 70
    24
 71
     3
 72
     8
 73
     4
 74
     0
 42
0.0000000001
 43
0.0000000001
 40
0.0
 40
0.0
 40
0.0
 40
0.0
 40
1.0
 40
1.0
 40
1.0
 40
1.0
 10
96.77399179370473
 20
138.374111903883
 30
0.0
 10
96.77399179370473
 20
138.374111903883
 30
0.0
 10
96.77399179370473
 20
140.829442222144
 30
0.0
 10
96.77399179370473
 20
140.829442222144
 30
0.0
  0
SPLINE
  5
82
330
70
100
AcDbEntity
  8
Capa 1
 62
    18
420
        0
370
     9
100
AcDbSpline
210
0.0
220
0.0
230
1.0
 70
    24
 71
     3
 72
     8
 73
     4
 74
     0
 42
0.0000000001
 43
0.0000000001
 40
0.0
 40
0.0
 40
0.0
 40
0.0
 40
1.0
 40
1.0
 40
1.0
 40
1.0
 10
95.41932641928752
 20
85.11878698128379
 30
0.0
 10
95.41932641928752
 20
85.11878698128379
 30
0.0
 10
95.58866362831095
 20
85.20345020283379
 30
0.0
 10
95.58866362831095
 20
85.20345020283379
 30
0.0
  0
LWPOLYLINE
  5
83
330
70
100
AcDbEntity
  8
Capa 1
 62
    18
420
        0
370
     9
100
AcDbPolyline
 90
        3
 70
     0
 43
0.0
 10
165.5233268323985
 20
124.0654461020674
 10
165.5233268323985
 20
148.2801071644002
 10
164.0839874705078
 20
149.1267716776706
  0
LWPOLYLINE
  5
84
330
70
100
AcDbEntity
  8
Capa 1
 62
    18
420
        0
370
     9
100
AcDbPolyline
 90
        3
 70
     0
 43
0.0
 10
164.0839874705078
 20
177.3207871735517
 10
165.5233268323985
 20
176.4741226602814
 10
165.5233268323985
 20
152.2594400661018
  0
SPLINE
  5
85
330
70
100
AcDbEntity
  8
Capa 1
 62
    18
420
        0
370
     9
100
AcDbSpline
210
0.0
220
0.0
230
1.0
 70
    24
 71
     3
 72
     8
 73
     4
 74
     0
 42
0.0000000001
 43
0.0000000001
 40
0.0
 40
0.0
 40
0.0
 40
0.0
 40
1.0
 40
1.0
 40
1.0
 40
1.0
 10
162.0519947918437
 20
178.5061153389455
 30
0.0
 10
162.0519947918437
 20
178.5061153389455
 30
0.0
 10
162.0519947918437
 20
176.1354482422346
 30
0.0
 10
162.0519947918437
 20
176.1354482422346
 30
0.0
  0
SPLINE
  5
86
330
70
100
AcDbEntity
  8
Capa 1
 62
    18
420
        0
370
     9
100
AcDbSpline
210
0.0
220
0.0
230
1.0
 70
    24
 71
     3
 72
     8
 73
     4
 74
     0
 42
0.0000000001
 43
0.0000000001
 40
0.0
 40
0.0
 40
0.0
 40
0.0
 40
1.0
 40
1.0
 40
1.0
 40
1.0
 10
162.0519947918437
 20
150.3121106089877
 30
0.0
 10
162.0519947918437
 20
150.3121106089877
 30
0.0
 10
162.0519947918437
 20
147.9414435122768
 30
0.0
 10
162.0519947918437
 20
147.9414435122768
 30
0.0
  0
SPLINE
  5
87
330
70
100
AcDbEntity
  8
Capa 1
 62
    18
420
        0
370
     9
100
AcDbSpline
210
0.0
220
0.0
230
1.0
 70
    24
 71
     3
 72
     8
 73
     4
 74
     0
 42
0.0000000001
 43
0.0000000001
 40
0.0
 40
0.0
 40
0.0
 40
0.0
 40
1.0
 40
1.0
 40
1.0
 40
1.0
 10
162.8139960835641
 20
178.9294529785423
 30
0.0
 10
162.8139960835641
 20
178.9294529785423
 30
0.0
 10
162.8139960835641
 20
176.5587858818314
 30
0.0
 10
162.8139960835641
 20
176.5587858818314
 30
0.0
  0
SPLINE
  5
88
330
70
100
AcDbEntity
  8
Capa 1
 62
    18
420
        0
370
     9
100
AcDbSpline
210
0.0
220
0.0
230
1.0
 70
    24
 71
     3
 72
     8
 73
     4
 74
     0
 42
0.0000000001
 43
0.0000000001
 40
0.0
 40
0.0
 40
0.0
 40
0.0
 40
1.0
 40
1.0
 40
1.0
 40
1.0
 10
162.8139960835641
 20
150.7354374826612
 30
0.0
 10
162.8139960835641
 20
150.7354374826612
 30
0.0
 10
162.8139960835641
 20
148.3647703859502
 30
0.0
 10
162.8139960835641
 20
148.3647703859502
 30
0.0
  0
SPLINE
  5
89
330
70
100
AcDbEntity
  8
Capa 1
 62
    18
420
        0
370
     9
100
AcDbSpline
210
0.0
220
0.0
230
1.0
 70
    24
 71
     3
 72
     8
 73
     4
 74
     0
 42
0.0000000001
 43
0.0000000001
 40
0.0
 40
0.0
 40
0.0
 40
0.0
 40
1.0
 40
1.0
 40
1.0
 40
1.0
 10
164.1686614579812
 20
179.7761174918127
 30
0.0
 10
164.1686614579812
 20
179.7761174918127
 30
0.0
 10
164.1686614579812
 20
177.2361131860783
 30
0.0
 10
164.1686614579812
 20
177.2361131860783
 30
0.0
  0
SPLINE
  5
8A
330
70
100
AcDbEntity
  8
Capa 1
 62
    18
420
        0
370
     9
100
AcDbSpline
210
0.0
220
0.0
230
1.0
 70
    24
 71
     3
 72
     8
 73
     4
 74
     0
 42
0.0000000001
 43
0.0000000001
 40
0.0
 40
0.0
 40
0.0
 40
0.0
 40
1.0
 40
1.0
 40
1.0
 40
1.0
 10
164.1686614579812
 20
151.5821127618549
 30
0.0
 10
164.1686614579812
 20
151.5821127618549
 30
0.0
 10
164.1686614579812
 20
149.0421084561205
 30
0.0
 10
164.1686614579812
 20
149.0421084561205
 30
0.0
  0
SPLINE
  5
8B
330
70
100
AcDbEntity
  8
Capa 1
 62
    18
420
        0
370
     9
100
AcDbSpline
210
0.0
220
0.0
230
1.0
 70
    24
 71
     3
 72
     8
 73
     4
 74
     0
 42
0.0000000001
 43
0.0000000001
 40
0.0
 40
0.0
 40
0.0
 40
0.0
 40
1.0
 40
1.0
 40
1.0
 40
1.0
 10
96.77399179370473
 20
84.35644118001496
 30
0.0
 10
96.77399179370473
 20
84.35644118001496
 30
0.0
 10
79.33266298641955
 20
74.19644548892431
 30
0.0
 10
79.33266298641955
 20
74.19644548892431
 30
0.0
  0
SPLINE
  5
8C
330
70
100
AcDbEntity
  8
Capa 1
 62
    18
420
        0
370
     9
100
AcDbSpline
210
0.0
220
0.0
230
1.0
 70
    24
 71
     3
 72
     8
 73
     4
 74
     0
 42
0.0000000001
 43
0.0000000001
 40
0.0
 40
0.0
 40
0.0
 40
0.0
 40
1.0
 40
1.0
 40
1.0
 40
1.0
 10
57.82732728995941
 20
106.7934383549205
 30
0.0
 10
57.82732728995941
 20
106.7934383549205
 30
0.0
 10
40.30132987816251
 20
96.71810588537994
 30
0.0
 10
40.30132987816251
 20
96.71810588537994
 30
0.0
  0
SPLINE
  5
8D
330
70
100
AcDbEntity
  8
Capa 1
 62
    18
420
        0
370
     9
100
AcDbSpline
210
0.0
220
0.0
230
1.0
 70
    24
 71
     3
 72
     8
 73
     4
 74
     0
 42
0.0000000001
 43
0.0000000001
 40
0.0
 40
0.0
 40
0.0
 40
0.0
 40
1.0
 40
1.0
 40
1.0
 40
1.0
 10
77.72399718142892
 20
76.82110763324698
 30
0.0
 10
77.72399718142892
 20
76.82110763324698
 30
0.0
 10
44.87333224552266
 20
95.78677815055959
 30
0.0
 10
44.87333224552266
 20
95.78677815055959
 30
0.0
  0
LWPOLYLINE
  5
8E
330
70
100
AcDbEntity
  8
Capa 1
100
AcDbPolyline
 90
        3
 70
     0
 43
0.0
 10
78.06266083355237
 20
77.32910849439385
 10
77.46999675085548
 20
76.3131121550618
 10
80.77199696534846
 20
75.04311000219463
  0
HATCH
  5
8F
330
70
100
AcDbEntity
  8
Capa 1
 62
    18
420
        0
440
 33554687
100
AcDbHatch
 10
0.0
 20
0.0
 30
0.0
210
0.0
220
0.0
230
1.0
  2
SOLID
 70
     1
 71
     1
 91
        1
 92
        3
 72
     0
 73
     1
 93
        3
 10
78.06266083355237
 20
77.32910849439385
 10
77.46999675085548
 20
76.3131121550618
 10
80.77199696534846
 20
75.04311000219463
 97
        0
 75
     0
 76
     1
 98
        1
 10
0.0
 20
0.0
450
        0
451
        0
460
0.0
461
0.0
452
        0
462
0.0
453
        0
470

  0
LWPOLYLINE
  5
90
330
70
100
AcDbEntity
  8
Capa 1
100
AcDbPolyline
 90
        3
 70
     0
 43
0.0
 10
45.12732998461525
 20
96.29477901170648
 10
44.61933181494923
 20
95.36344051096275
 10
41.82532977012228
 20
97.56478116457365
  0
HATCH
  5
91
330
70
100
AcDbEntity
  8
Capa 1
 62
    18
420
        0
440
 33554687
100
AcDbHatch
 10
0.0
 20
0.0
 30
0.0
210
0.0
220
0.0
230
1.0
  2
SOLID
 70
     1
 71
     1
 91
        1
 92
        3
 72
     0
 73
     1
 93
        3
 10
45.12732998461525
 20
96.29477901170648
 10
44.61933181494923
 20
95.36344051096275
 10
41.82532977012228
 20
97.56478116457365
 97
        0
 75
     0
 76
     1
 98
        1
 10
0.0
 20
0.0
450
        0
451
        0
460
0.0
461
0.0
452
        0
462
0.0
453
        0
470

  0
LWPOLYLINE
  5
92
330
70
100
AcDbEntity
  8
Capa 1
100
AcDbPolyline
 90
       13
 70
     0
 43
0.0
 10
61.80666019166096
 20
90.1141108393557
 10
61.63732836559924
 20
90.1987794438674
 10
59.85933073454688
 20
89.4367781521471
 10
59.68999352552347
 20
89.18277772157367
 10
60.6213266433055
 20
88.59011363887679
 10
60.28266299118205
 20
88.0821127777299
 10
60.6213266433055
 20
87.9974441732182
 10
60.87532707387893
 20
88.50544503436507
 10
61.21399610896408
 20
88.33611320830334
 10
61.29866471347579
 20
88.59011363887679
 10
61.04466428290235
 20
88.75944546493851
 10
60.11333116512032
 20
89.26744632608537
 10
61.29866471347579
 20
89.86011040878226
  0
HATCH
  5
93
330
70
100
AcDbEntity
  8
Capa 1
 62
    18
420
        0
440
 33554687
100
AcDbHatch
 10
0.0
 20
0.0
 30
0.0
210
0.0
220
0.0
230
1.0
  2
SOLID
 70
     1
 71
     1
 91
        1
 92
        3
 72
     0
 73
     1
 93
       13
 10
61.80666019166096
 20
90.1141108393557
 10
61.63732836559924
 20
90.1987794438674
 10
59.85933073454688
 20
89.4367781521471
 10
59.68999352552347
 20
89.18277772157367
 10
60.6213266433055
 20
88.59011363887679
 10
60.28266299118205
 20
88.0821127777299
 10
60.6213266433055
 20
87.9974441732182
 10
60.87532707387893
 20
88.50544503436507
 10
61.21399610896408
 20
88.33611320830334
 10
61.29866471347579
 20
88.59011363887679
 10
61.04466428290235
 20
88.75944546493851
 10
60.11333116512032
 20
89.26744632608537
 10
61.29866471347579
 20
89.86011040878226
 97
        0
 75
     0
 76
     1
 98
        1
 10
0.0
 20
0.0
450
        0
451
        0
460
0.0
461
0.0
452
        0
462
0.0
453
        0
470

  0
LWPOLYLINE
  5
94
330
70
100
AcDbEntity
  8
Capa 1
100
AcDbPolyline
 90
        5
 70
     0
 43
0.0
 10
61.80666019166096
 20
90.1141108393557
 10
61.29866471347579
 20
89.86011040878226
 10
60.79066385232891
 20
88.84411406945021
 10
60.11333116512032
 20
89.26744632608537
 10
61.04466428290235
 20
88.75944546493851
  0
HATCH
  5
95
330
70
100
AcDbEntity
  8
Capa 1
 62
    18
420
        0
440
 33554687
100
AcDbHatch
 10
0.0
 20
0.0
 30
0.0
210
0.0
220
0.0
230
1.0
  2
SOLID
 70
     1
 71
     1
 91
        1
 92
        3
 72
     0
 73
     1
 93
        5
 10
61.80666019166096
 20
90.1141108393557
 10
61.29866471347579
 20
89.86011040878226
 10
60.79066385232891
 20
88.84411406945021
 10
60.11333116512032
 20
89.26744632608537
 10
61.04466428290235
 20
88.75944546493851
 97
        0
 75
     0
 76
     1
 98
        1
 10
0.0
 20
0.0
450
        0
451
        0
460
0.0
461
0.0
452
        0
462
0.0
453
        0
470

  0
LWPOLYLINE
  5
96
330
70
100
AcDbEntity
  8
Capa 1
100
AcDbPolyline
 90
       34
 70
     0
 43
0.0
 10
61.80666019166096
 20
88.0821127777299
 10
61.46799653953752
 20
88.16678138224162
 10
61.46799653953752
 20
87.9974441732182
 10
61.38332793502581
 20
87.9974441732182
 10
61.38332793502581
 20
87.91278095166818
 10
61.38332793502581
 20
87.82811234715648
 10
61.38332793502581
 20
87.74344374264476
 10
61.46799653953752
 20
87.65878052109476
 10
61.46799653953752
 20
87.57411191658304
 10
61.46799653953752
 20
87.48944331207132
 10
61.55266514404923
 20
87.48944331207132
 10
61.55266514404923
 20
87.40478009052131
 10
61.63732836559924
 20
87.40478009052131
 10
61.63732836559924
 20
87.3201114860096
 10
61.72199697011095
 20
87.23544826445959
 10
61.80666019166096
 20
87.23544826445959
 10
61.80666019166096
 20
87.15077965994787
 10
61.89132879617268
 20
87.15077965994787
 10
61.97599740068439
 20
87.15077965994787
 10
62.0606606222344
 20
87.06611105543617
 10
62.14532922674611
 20
87.06611105543617
 10
62.22999783125782
 20
87.06611105543617
 10
62.31466105280784
 20
87.06611105543617
 10
62.39932965731955
 20
87.06611105543617
 10
62.48399826183126
 20
87.06611105543617
 10
61.97599740068439
 20
87.40478009052131
 10
61.89132879617268
 20
87.48944331207132
 10
61.80666019166096
 20
87.48944331207132
 10
61.80666019166096
 20
87.57411191658304
 10
61.72199697011095
 20
87.65878052109476
 10
61.72199697011095
 20
87.74344374264476
 10
61.72199697011095
 20
87.82811234715648
 10
61.72199697011095
 20
87.91278095166818
 10
61.72199697011095
 20
87.9974441732182
  0
HATCH
  5
97
330
70
100
AcDbEntity
  8
Capa 1
 62
    18
420
        0
440
 33554687
100
AcDbHatch
 10
0.0
 20
0.0
 30
0.0
210
0.0
220
0.0
230
1.0
  2
SOLID
 70
     1
 71
     1
 91
        1
 92
        3
 72
     0
 73
     1
 93
       34
 10
61.80666019166096
 20
88.0821127777299
 10
61.46799653953752
 20
88.16678138224162
 10
61.46799653953752
 20
87.9974441732182
 10
61.38332793502581
 20
87.9974441732182
 10
61.38332793502581
 20
87.91278095166818
 10
61.38332793502581
 20
87.82811234715648
 10
61.38332793502581
 20
87.74344374264476
 10
61.46799653953752
 20
87.65878052109476
 10
61.46799653953752
 20
87.57411191658304
 10
61.46799653953752
 20
87.48944331207132
 10
61.55266514404923
 20
87.48944331207132
 10
61.55266514404923
 20
87.40478009052131
 10
61.63732836559924
 20
87.40478009052131
 10
61.63732836559924
 20
87.3201114860096
 10
61.72199697011095
 20
87.23544826445959
 10
61.80666019166096
 20
87.23544826445959
 10
61.80666019166096
 20
87.15077965994787
 10
61.89132879617268
 20
87.15077965994787
 10
61.97599740068439
 20
87.15077965994787
 10
62.0606606222344
 20
87.06611105543617
 10
62.14532922674611
 20
87.06611105543617
 10
62.22999783125782
 20
87.06611105543617
 10
62.31466105280784
 20
87.06611105543617
 10
62.39932965731955
 20
87.06611105543617
 10
62.48399826183126
 20
87.06611105543617
 10
61.97599740068439
 20
87.40478009052131
 10
61.89132879617268
 20
87.48944331207132
 10
61.80666019166096
 20
87.48944331207132
 10
61.80666019166096
 20
87.57411191658304
 10
61.72199697011095
 20
87.65878052109476
 10
61.72199697011095
 20
87.74344374264476
 10
61.72199697011095
 20
87.82811234715648
 10
61.72199697011095
 20
87.91278095166818
 10
61.72199697011095
 20
87.9974441732182
 97
        0
 75
     0
 76
     1
 98
        1
 10
0.0
 20
0.0
450
        0
451
        0
460
0.0
461
0.0
452
        0
462
0.0
453
        0
470

  0
LWPOLYLINE
  5
98
330
70
100
AcDbEntity
  8
Capa 1
100
AcDbPolyline
 90
       38
 70
     0
 43
0.0
 10
63.07666234452814
 20
88.16678138224162
 10
62.56866148338128
 20
88.42077642985335
 10
62.65333008789298
 20
88.33611320830334
 10
62.73799330944299
 20
88.25144460379164
 10
62.73799330944299
 20
88.16678138224162
 10
62.82266191395471
 20
88.0821127777299
 10
62.82266191395471
 20
87.9974441732182
 10
62.82266191395471
 20
87.91278095166818
 10
62.73799330944299
 20
87.82811234715648
 10
62.73799330944299
 20
87.74344374264476
 10
62.73799330944299
 20
87.65878052109476
 10
62.65333008789298
 20
87.57411191658304
 10
62.56866148338128
 20
87.48944331207132
 10
62.48399826183126
 20
87.40478009052131
 10
62.39932965731955
 20
87.40478009052131
 10
62.31466105280784
 20
87.40478009052131
 10
62.31466105280784
 20
87.3201114860096
 10
62.22999783125782
 20
87.3201114860096
 10
62.14532922674611
 20
87.3201114860096
 10
62.0606606222344
 20
87.3201114860096
 10
62.0606606222344
 20
87.40478009052131
 10
61.97599740068439
 20
87.40478009052131
 10
62.48399826183126
 20
87.06611105543617
 10
62.56866148338128
 20
87.15077965994787
 10
62.65333008789298
 20
87.15077965994787
 10
62.65333008789298
 20
87.23544826445959
 10
62.73799330944299
 20
87.23544826445959
 10
62.82266191395471
 20
87.23544826445959
 10
62.82266191395471
 20
87.3201114860096
 10
62.90733051846642
 20
87.40478009052131
 10
62.99199374001643
 20
87.48944331207132
 10
62.99199374001643
 20
87.57411191658304
 10
63.07666234452814
 20
87.65878052109476
 10
63.07666234452814
 20
87.74344374264476
 10
63.16133094903985
 20
87.82811234715648
 10
63.16133094903985
 20
87.91278095166818
 10
63.16133094903985
 20
87.9974441732182
 10
63.16133094903985
 20
88.0821127777299
  0
HATCH
  5
99
330
70
100
AcDbEntity
  8
Capa 1
 62
    18
420
        0
440
 33554687
100
AcDbHatch
 10
0.0
 20
0.0
 30
0.0
210
0.0
220
0.0
230
1.0
  2
SOLID
 70
     1
 71
     1
 91
        1
 92
        3
 72
     0
 73
     1
 93
       38
 10
63.07666234452814
 20
88.16678138224162
 10
62.56866148338128
 20
88.42077642985335
 10
62.65333008789298
 20
88.33611320830334
 10
62.73799330944299
 20
88.25144460379164
 10
62.73799330944299
 20
88.16678138224162
 10
62.82266191395471
 20
88.0821127777299
 10
62.82266191395471
 20
87.9974441732182
 10
62.82266191395471
 20
87.91278095166818
 10
62.73799330944299
 20
87.82811234715648
 10
62.73799330944299
 20
87.74344374264476
 10
62.73799330944299
 20
87.65878052109476
 10
62.65333008789298
 20
87.57411191658304
 10
62.56866148338128
 20
87.48944331207132
 10
62.48399826183126
 20
87.40478009052131
 10
62.39932965731955
 20
87.40478009052131
 10
62.31466105280784
 20
87.40478009052131
 10
62.31466105280784
 20
87.3201114860096
 10
62.22999783125782
 20
87.3201114860096
 10
62.14532922674611
 20
87.3201114860096
 10
62.0606606222344
 20
87.3201114860096
 10
62.0606606222344
 20
87.40478009052131
 10
61.97599740068439
 20
87.40478009052131
 10
62.48399826183126
 20
87.06611105543617
 10
62.56866148338128
 20
87.15077965994787
 10
62.65333008789298
 20
87.15077965994787
 10
62.65333008789298
 20
87.23544826445959
 10
62.73799330944299
 20
87.23544826445959
 10
62.82266191395471
 20
87.23544826445959
 10
62.82266191395471
 20
87.3201114860096
 10
62.90733051846642
 20
87.40478009052131
 10
62.99199374001643
 20
87.48944331207132
 10
62.99199374001643
 20
87.57411191658304
 10
63.07666234452814
 20
87.65878052109476
 10
63.07666234452814
 20
87.74344374264476
 10
63.16133094903985
 20
87.82811234715648
 10
63.16133094903985
 20
87.91278095166818
 10
63.16133094903985
 20
87.9974441732182
 10
63.16133094903985
 20
88.0821127777299
 97
        0
 75
     0
 76
     1
 98
        1
 10
0.0
 20
0.0
450
        0
451
        0
460
0.0
461
0.0
452
        0
462
0.0
453
        0
470

  0
LWPOLYLINE
  5
9A
330
70
100
AcDbEntity
  8
Capa 1
100
AcDbPolyline
 90
       14
 70
     0
 43
0.0
 10
62.73799330944299
 20
88.59011363887679
 10
62.73799330944299
 20
88.59011363887679
 10
62.65333008789298
 20
88.67477686042679
 10
62.56866148338128
 20
88.67477686042679
 10
62.48399826183126
 20
88.67477686042679
 10
62.39932965731955
 20
88.75944546493851
 10
62.31466105280784
 20
88.75944546493851
 10
62.22999783125782
 20
88.75944546493851
 10
63.07666234452814
 20
88.25144460379164
 10
62.99199374001643
 20
88.33611320830334
 10
62.99199374001643
 20
88.42077642985335
 10
62.90733051846642
 20
88.50544503436507
 10
62.82266191395471
 20
88.50544503436507
 10
62.82266191395471
 20
88.59011363887679
  0
HATCH
  5
9B
330
70
100
AcDbEntity
  8
Capa 1
 62
    18
420
        0
440
 33554687
100
AcDbHatch
 10
0.0
 20
0.0
 30
0.0
210
0.0
220
0.0
230
1.0
  2
SOLID
 70
     1
 71
     1
 91
        1
 92
        3
 72
     0
 73
     1
 93
       14
 10
62.73799330944299
 20
88.59011363887679
 10
62.73799330944299
 20
88.59011363887679
 10
62.65333008789298
 20
88.67477686042679
 10
62.56866148338128
 20
88.67477686042679
 10
62.48399826183126
 20
88.67477686042679
 10
62.39932965731955
 20
88.75944546493851
 10
62.31466105280784
 20
88.75944546493851
 10
62.22999783125782
 20
88.75944546493851
 10
63.07666234452814
 20
88.25144460379164
 10
62.99199374001643
 20
88.33611320830334
 10
62.99199374001643
 20
88.42077642985335
 10
62.90733051846642
 20
88.50544503436507
 10
62.82266191395471
 20
88.50544503436507
 10
62.82266191395471
 20
88.59011363887679
 97
        0
 75
     0
 76
     1
 98
        1
 10
0.0
 20
0.0
450
        0
451
        0
460
0.0
461
0.0
452
        0
462
0.0
453
        0
470

  0
LWPOLYLINE
  5
9C
330
70
100
AcDbEntity
  8
Capa 1
100
AcDbPolyline
 90
       16
 70
     0
 43
0.0
 10
63.75399503173674
 20
89.01344589551193
 10
62.65333008789298
 20
89.60610997820884
 10
61.80666019166096
 20
88.59011363887679
 10
62.0606606222344
 20
88.42077642985335
 10
62.0606606222344
 20
88.50544503436507
 10
62.14532922674611
 20
88.50544503436507
 10
62.22999783125782
 20
88.50544503436507
 10
62.31466105280784
 20
88.50544503436507
 10
62.39932965731955
 20
88.50544503436507
 10
62.48399826183126
 20
88.42077642985335
 10
62.56866148338128
 20
88.42077642985335
 10
63.07666234452814
 20
88.16678138224162
 10
63.07666234452814
 20
88.25144460379164
 10
62.22999783125782
 20
88.75944546493851
 10
62.73799330944299
 20
89.26744632608537
 10
63.58466320567502
 20
88.75944546493851
  0
HATCH
  5
9D
330
70
100
AcDbEntity
  8
Capa 1
 62
    18
420
        0
440
 33554687
100
AcDbHatch
 10
0.0
 20
0.0
 30
0.0
210
0.0
220
0.0
230
1.0
  2
SOLID
 70
     1
 71
     1
 91
        1
 92
        3
 72
     0
 73
     1
 93
       16
 10
63.75399503173674
 20
89.01344589551193
 10
62.65333008789298
 20
89.60610997820884
 10
61.80666019166096
 20
88.59011363887679
 10
62.0606606222344
 20
88.42077642985335
 10
62.0606606222344
 20
88.50544503436507
 10
62.14532922674611
 20
88.50544503436507
 10
62.22999783125782
 20
88.50544503436507
 10
62.31466105280784
 20
88.50544503436507
 10
62.39932965731955
 20
88.50544503436507
 10
62.48399826183126
 20
88.42077642985335
 10
62.56866148338128
 20
88.42077642985335
 10
63.07666234452814
 20
88.16678138224162
 10
63.07666234452814
 20
88.25144460379164
 10
62.22999783125782
 20
88.75944546493851
 10
62.73799330944299
 20
89.26744632608537
 10
63.58466320567502
 20
88.75944546493851
 97
        0
 75
     0
 76
     1
 98
        1
 10
0.0
 20
0.0
450
        0
451
        0
460
0.0
461
0.0
452
        0
462
0.0
453
        0
470

  0
LWPOLYLINE
  5
9E
330
70
100
AcDbEntity
  8
Capa 1
100
AcDbPolyline
 90
       59
 70
     0
 43
0.0
 10
64.1773272883719
 20
88.50544503436507
 10
64.09266406682188
 20
88.42077642985335
 10
64.00799546231017
 20
88.33611320830334
 10
63.92332685779846
 20
88.33611320830334
 10
63.92332685779846
 20
88.25144460379164
 10
63.83866363624846
 20
88.25144460379164
 10
63.83866363624846
 20
88.16678138224162
 10
63.75399503173674
 20
88.16678138224162
 10
63.75399503173674
 20
88.0821127777299
 10
63.66933181018673
 20
87.9974441732182
 10
63.58466320567502
 20
87.91278095166818
 10
63.58466320567502
 20
87.82811234715648
 10
63.49999460116331
 20
87.82811234715648
 10
63.49999460116331
 20
87.74344374264476
 10
63.41533137961329
 20
87.65878052109476
 10
63.41533137961329
 20
87.57411191658304
 10
63.33066277510158
 20
87.48944331207132
 10
63.33066277510158
 20
87.40478009052131
 10
63.24599417058987
 20
87.3201114860096
 10
63.24599417058987
 20
87.23544826445959
 10
63.24599417058987
 20
87.15077965994787
 10
63.16133094903985
 20
87.15077965994787
 10
63.16133094903985
 20
87.06611105543617
 10
63.16133094903985
 20
86.98144783388615
 10
63.16133094903985
 20
86.89677922937445
 10
63.16133094903985
 20
86.81211062486273
 10
63.16133094903985
 20
86.72744740331273
 10
63.16133094903985
 20
86.64278418176271
 10
63.66933181018673
 20
86.38878375118926
 10
63.66933181018673
 20
86.47345235570098
 10
63.58466320567502
 20
86.47345235570098
 10
63.49999460116331
 20
86.55811557725099
 10
63.49999460116331
 20
86.64278418176271
 10
63.49999460116331
 20
86.72744740331273
 10
63.41533137961329
 20
86.81211062486273
 10
63.41533137961329
 20
86.89677922937445
 10
63.49999460116331
 20
86.89677922937445
 10
63.49999460116331
 20
86.98144783388615
 10
63.49999460116331
 20
87.06611105543617
 10
63.49999460116331
 20
87.15077965994787
 10
63.58466320567502
 20
87.23544826445959
 10
63.58466320567502
 20
87.3201114860096
 10
63.66933181018673
 20
87.40478009052131
 10
63.66933181018673
 20
87.48944331207132
 10
63.75399503173674
 20
87.57411191658304
 10
63.83866363624846
 20
87.65878052109476
 10
63.83866363624846
 20
87.74344374264476
 10
63.92332685779846
 20
87.82811234715648
 10
63.92332685779846
 20
87.91278095166818
 10
64.00799546231017
 20
87.91278095166818
 10
64.00799546231017
 20
87.9974441732182
 10
64.09266406682188
 20
88.0821127777299
 10
64.1773272883719
 20
88.16678138224162
 10
64.26199589288362
 20
88.16678138224162
 10
64.34666449739532
 20
88.25144460379164
 10
64.43132771894534
 20
88.25144460379164
 10
64.51599632345704
 20
88.25144460379164
 10
64.60066492796876
 20
88.25144460379164
 10
64.68532814951878
 20
88.16678138224162
  0
HATCH
  5
9F
330
70
100
AcDbEntity
  8
Capa 1
 62
    18
420
        0
440
 33554687
100
AcDbHatch
 10
0.0
 20
0.0
 30
0.0
210
0.0
220
0.0
230
1.0
  2
SOLID
 70
     1
 71
     1
 91
        1
 92
        3
 72
     0
 73
     1
 93
       59
 10
64.1773272883719
 20
88.50544503436507
 10
64.09266406682188
 20
88.42077642985335
 10
64.00799546231017
 20
88.33611320830334
 10
63.92332685779846
 20
88.33611320830334
 10
63.92332685779846
 20
88.25144460379164
 10
63.83866363624846
 20
88.25144460379164
 10
63.83866363624846
 20
88.16678138224162
 10
63.75399503173674
 20
88.16678138224162
 10
63.75399503173674
 20
88.0821127777299
 10
63.66933181018673
 20
87.9974441732182
 10
63.58466320567502
 20
87.91278095166818
 10
63.58466320567502
 20
87.82811234715648
 10
63.49999460116331
 20
87.82811234715648
 10
63.49999460116331
 20
87.74344374264476
 10
63.41533137961329
 20
87.65878052109476
 10
63.41533137961329
 20
87.57411191658304
 10
63.33066277510158
 20
87.48944331207132
 10
63.33066277510158
 20
87.40478009052131
 10
63.24599417058987
 20
87.3201114860096
 10
63.24599417058987
 20
87.23544826445959
 10
63.24599417058987
 20
87.15077965994787
 10
63.16133094903985
 20
87.15077965994787
 10
63.16133094903985
 20
87.06611105543617
 10
63.16133094903985
 20
86.98144783388615
 10
63.16133094903985
 20
86.89677922937445
 10
63.16133094903985
 20
86.81211062486273
 10
63.16133094903985
 20
86.72744740331273
 10
63.16133094903985
 20
86.64278418176271
 10
63.66933181018673
 20
86.38878375118926
 10
63.66933181018673
 20
86.47345235570098
 10
63.58466320567502
 20
86.47345235570098
 10
63.49999460116331
 20
86.55811557725099
 10
63.49999460116331
 20
86.64278418176271
 10
63.49999460116331
 20
86.72744740331273
 10
63.41533137961329
 20
86.81211062486273
 10
63.41533137961329
 20
86.89677922937445
 10
63.49999460116331
 20
86.89677922937445
 10
63.49999460116331
 20
86.98144783388615
 10
63.49999460116331
 20
87.06611105543617
 10
63.49999460116331
 20
87.15077965994787
 10
63.58466320567502
 20
87.23544826445959
 10
63.58466320567502
 20
87.3201114860096
 10
63.66933181018673
 20
87.40478009052131
 10
63.66933181018673
 20
87.48944331207132
 10
63.75399503173674
 20
87.57411191658304
 10
63.83866363624846
 20
87.65878052109476
 10
63.83866363624846
 20
87.74344374264476
 10
63.92332685779846
 20
87.82811234715648
 10
63.92332685779846
 20
87.91278095166818
 10
64.00799546231017
 20
87.91278095166818
 10
64.00799546231017
 20
87.9974441732182
 10
64.09266406682188
 20
88.0821127777299
 10
64.1773272883719
 20
88.16678138224162
 10
64.26199589288362
 20
88.16678138224162
 10
64.34666449739532
 20
88.25144460379164
 10
64.43132771894534
 20
88.25144460379164
 10
64.51599632345704
 20
88.25144460379164
 10
64.60066492796876
 20
88.25144460379164
 10
64.68532814951878
 20
88.16678138224162
 97
        0
 75
     0
 76
     1
 98
        1
 10
0.0
 20
0.0
450
        0
451
        0
460
0.0
461
0.0
452
        0
462
0.0
453
        0
470

  0
LWPOLYLINE
  5
A0
330
70
100
AcDbEntity
  8
Capa 1
100
AcDbPolyline
 90
       93
 70
     0
 43
0.0
 10
64.76999675403049
 20
88.42077642985335
 10
64.76999675403049
 20
88.42077642985335
 10
64.68532814951878
 20
88.42077642985335
 10
64.68532814951878
 20
88.50544503436507
 10
64.60066492796876
 20
88.50544503436507
 10
64.51599632345704
 20
88.50544503436507
 10
64.43132771894534
 20
88.50544503436507
 10
64.34666449739532
 20
88.50544503436507
 10
64.26199589288362
 20
88.50544503436507
 10
64.1773272883719
 20
88.50544503436507
 10
64.68532814951878
 20
88.16678138224162
 10
64.76999675403049
 20
88.16678138224162
 10
64.76999675403049
 20
88.0821127777299
 10
64.8546599755805
 20
88.0821127777299
 10
64.8546599755805
 20
87.9974441732182
 10
64.8546599755805
 20
87.91278095166818
 10
64.8546599755805
 20
87.82811234715648
 10
64.8546599755805
 20
87.74344374264476
 10
64.8546599755805
 20
87.65878052109476
 10
64.8546599755805
 20
87.57411191658304
 10
64.8546599755805
 20
87.48944331207132
 10
64.76999675403049
 20
87.48944331207132
 10
64.76999675403049
 20
87.40478009052131
 10
64.68532814951878
 20
87.3201114860096
 10
64.68532814951878
 20
87.23544826445959
 10
64.60066492796876
 20
87.15077965994787
 10
64.60066492796876
 20
87.06611105543617
 10
64.51599632345704
 20
86.98144783388615
 10
64.51599632345704
 20
86.89677922937445
 10
64.43132771894534
 20
86.81211062486273
 10
64.43132771894534
 20
86.72744740331273
 10
64.34666449739532
 20
86.72744740331273
 10
64.26199589288362
 20
86.64278418176271
 10
64.26199589288362
 20
86.55811557725099
 10
64.1773272883719
 20
86.47345235570098
 10
64.09266406682188
 20
86.47345235570098
 10
64.09266406682188
 20
86.38878375118926
 10
64.00799546231017
 20
86.38878375118926
 10
63.92332685779846
 20
86.38878375118926
 10
63.83866363624846
 20
86.38878375118926
 10
63.75399503173674
 20
86.38878375118926
 10
63.66933181018673
 20
86.38878375118926
 10
63.16133094903985
 20
86.64278418176271
 10
63.24599417058987
 20
86.55811557725099
 10
63.24599417058987
 20
86.47345235570098
 10
63.33066277510158
 20
86.38878375118926
 10
63.33066277510158
 20
86.30411514667756
 10
63.41533137961329
 20
86.30411514667756
 10
63.49999460116331
 20
86.21945192512754
 10
63.58466320567502
 20
86.13478332061582
 10
63.66933181018673
 20
86.13478332061582
 10
63.75399503173674
 20
86.13478332061582
 10
63.83866363624846
 20
86.13478332061582
 10
63.92332685779846
 20
86.13478332061582
 10
64.00799546231017
 20
86.13478332061582
 10
64.09266406682188
 20
86.13478332061582
 10
64.1773272883719
 20
86.13478332061582
 10
64.1773272883719
 20
86.21945192512754
 10
64.26199589288362
 20
86.21945192512754
 10
64.34666449739532
 20
86.21945192512754
 10
64.34666449739532
 20
86.30411514667756
 10
64.43132771894534
 20
86.30411514667756
 10
64.43132771894534
 20
86.38878375118926
 10
64.51599632345704
 20
86.38878375118926
 10
64.51599632345704
 20
86.47345235570098
 10
64.60066492796876
 20
86.47345235570098
 10
64.60066492796876
 20
86.55811557725099
 10
64.68532814951878
 20
86.55811557725099
 10
64.68532814951878
 20
86.64278418176271
 10
64.76999675403049
 20
86.72744740331273
 10
64.8546599755805
 20
86.81211062486273
 10
64.8546599755805
 20
86.89677922937445
 10
64.8546599755805
 20
86.98144783388615
 10
64.93932858009221
 20
86.98144783388615
 10
64.93932858009221
 20
87.06611105543617
 10
65.02399718460392
 20
87.15077965994787
 10
65.02399718460392
 20
87.23544826445959
 10
65.02399718460392
 20
87.3201114860096
 10
65.10866040615393
 20
87.3201114860096
 10
65.10866040615393
 20
87.40478009052131
 10
65.10866040615393
 20
87.48944331207132
 10
65.10866040615393
 20
87.57411191658304
 10
65.19332901066565
 20
87.65878052109476
 10
65.19332901066565
 20
87.74344374264476
 10
65.19332901066565
 20
87.82811234715648
 10
65.19332901066565
 20
87.91278095166818
 10
65.10866040615393
 20
87.9974441732182
 10
65.10866040615393
 20
88.0821127777299
 10
65.02399718460392
 20
88.16678138224162
 10
65.02399718460392
 20
88.25144460379164
 10
64.93932858009221
 20
88.25144460379164
 10
64.93932858009221
 20
88.33611320830334
 10
64.8546599755805
 20
88.33611320830334
  0
HATCH
  5
A1
330
70
100
AcDbEntity
  8
Capa 1
 62
    18
420
        0
440
 33554687
100
AcDbHatch
 10
0.0
 20
0.0
 30
0.0
210
0.0
220
0.0
230
1.0
  2
SOLID
 70
     1
 71
     1
 91
        1
 92
        3
 72
     0
 73
     1
 93
       93
 10
64.76999675403049
 20
88.42077642985335
 10
64.76999675403049
 20
88.42077642985335
 10
64.68532814951878
 20
88.42077642985335
 10
64.68532814951878
 20
88.50544503436507
 10
64.60066492796876
 20
88.50544503436507
 10
64.51599632345704
 20
88.50544503436507
 10
64.43132771894534
 20
88.50544503436507
 10
64.34666449739532
 20
88.50544503436507
 10
64.26199589288362
 20
88.50544503436507
 10
64.1773272883719
 20
88.50544503436507
 10
64.68532814951878
 20
88.16678138224162
 10
64.76999675403049
 20
88.16678138224162
 10
64.76999675403049
 20
88.0821127777299
 10
64.8546599755805
 20
88.0821127777299
 10
64.8546599755805
 20
87.9974441732182
 10
64.8546599755805
 20
87.91278095166818
 10
64.8546599755805
 20
87.82811234715648
 10
64.8546599755805
 20
87.74344374264476
 10
64.8546599755805
 20
87.65878052109476
 10
64.8546599755805
 20
87.57411191658304
 10
64.8546599755805
 20
87.48944331207132
 10
64.76999675403049
 20
87.48944331207132
 10
64.76999675403049
 20
87.40478009052131
 10
64.68532814951878
 20
87.3201114860096
 10
64.68532814951878
 20
87.23544826445959
 10
64.60066492796876
 20
87.15077965994787
 10
64.60066492796876
 20
87.06611105543617
 10
64.51599632345704
 20
86.98144783388615
 10
64.51599632345704
 20
86.89677922937445
 10
64.43132771894534
 20
86.81211062486273
 10
64.43132771894534
 20
86.72744740331273
 10
64.34666449739532
 20
86.72744740331273
 10
64.26199589288362
 20
86.64278418176271
 10
64.26199589288362
 20
86.55811557725099
 10
64.1773272883719
 20
86.47345235570098
 10
64.09266406682188
 20
86.47345235570098
 10
64.09266406682188
 20
86.38878375118926
 10
64.00799546231017
 20
86.38878375118926
 10
63.92332685779846
 20
86.38878375118926
 10
63.83866363624846
 20
86.38878375118926
 10
63.75399503173674
 20
86.38878375118926
 10
63.66933181018673
 20
86.38878375118926
 10
63.16133094903985
 20
86.64278418176271
 10
63.24599417058987
 20
86.55811557725099
 10
63.24599417058987
 20
86.47345235570098
 10
63.33066277510158
 20
86.38878375118926
 10
63.33066277510158
 20
86.30411514667756
 10
63.41533137961329
 20
86.30411514667756
 10
63.49999460116331
 20
86.21945192512754
 10
63.58466320567502
 20
86.13478332061582
 10
63.66933181018673
 20
86.13478332061582
 10
63.75399503173674
 20
86.13478332061582
 10
63.83866363624846
 20
86.13478332061582
 10
63.92332685779846
 20
86.13478332061582
 10
64.00799546231017
 20
86.13478332061582
 10
64.09266406682188
 20
86.13478332061582
 10
64.1773272883719
 20
86.13478332061582
 10
64.1773272883719
 20
86.21945192512754
 10
64.26199589288362
 20
86.21945192512754
 10
64.34666449739532
 20
86.21945192512754
 10
64.34666449739532
 20
86.30411514667756
 10
64.43132771894534
 20
86.30411514667756
 10
64.43132771894534
 20
86.38878375118926
 10
64.51599632345704
 20
86.38878375118926
 10
64.51599632345704
 20
86.47345235570098
 10
64.60066492796876
 20
86.47345235570098
 10
64.60066492796876
 20
86.55811557725099
 10
64.68532814951878
 20
86.55811557725099
 10
64.68532814951878
 20
86.64278418176271
 10
64.76999675403049
 20
86.72744740331273
 10
64.8546599755805
 20
86.81211062486273
 10
64.8546599755805
 20
86.89677922937445
 10
64.8546599755805
 20
86.98144783388615
 10
64.93932858009221
 20
86.98144783388615
 10
64.93932858009221
 20
87.06611105543617
 10
65.02399718460392
 20
87.15077965994787
 10
65.02399718460392
 20
87.23544826445959
 10
65.02399718460392
 20
87.3201114860096
 10
65.10866040615393
 20
87.3201114860096
 10
65.10866040615393
 20
87.40478009052131
 10
65.10866040615393
 20
87.48944331207132
 10
65.10866040615393
 20
87.57411191658304
 10
65.19332901066565
 20
87.65878052109476
 10
65.19332901066565
 20
87.74344374264476
 10
65.19332901066565
 20
87.82811234715648
 10
65.19332901066565
 20
87.91278095166818
 10
65.10866040615393
 20
87.9974441732182
 10
65.10866040615393
 20
88.0821127777299
 10
65.02399718460392
 20
88.16678138224162
 10
65.02399718460392
 20
88.25144460379164
 10
64.93932858009221
 20
88.25144460379164
 10
64.93932858009221
 20
88.33611320830334
 10
64.8546599755805
 20
88.33611320830334
 97
        0
 75
     0
 76
     1
 98
        1
 10
0.0
 20
0.0
450
        0
451
        0
460
0.0
461
0.0
452
        0
462
0.0
453
        0
470

  0
SPLINE
  5
A2
330
70
100
AcDbEntity
  8
Capa 1
 62
    18
420
        0
370
     9
100
AcDbSpline
210
0.0
220
0.0
230
1.0
 70
    24
 71
     3
 72
     8
 73
     4
 74
     0
 42
0.0000000001
 43
0.0000000001
 40
0.0
 40
0.0
 40
0.0
 40
0.0
 40
1.0
 40
1.0
 40
1.0
 40
1.0
 10
96.77399179370473
 20
84.35644118001496
 30
0.0
 10
96.77399179370473
 20
84.35644118001496
 30
0.0
 10
112.6066601789609
 20
75.21244182825636
 30
0.0
 10
112.6066601789609
 20
75.21244182825636
 30
0.0
  0
SPLINE
  5
A3
330
70
100
AcDbEntity
  8
Capa 1
 62
    18
420
        0
370
     9
100
AcDbSpline
210
0.0
220
0.0
230
1.0
 70
    24
 71
     3
 72
     8
 73
     4
 74
     0
 42
0.0000000001
 43
0.0000000001
 40
0.0
 40
0.0
 40
0.0
 40
0.0
 40
1.0
 40
1.0
 40
1.0
 40
1.0
 10
165.5233268323985
 20
124.0654461020674
 30
0.0
 10
165.5233268323985
 20
124.0654461020674
 30
0.0
 10
181.3559844517313
 20
114.9214413673471
 30
0.0
 10
181.3559844517313
 20
114.9214413673471
 30
0.0
  0
SPLINE
  5
A4
330
70
100
AcDbEntity
  8
Capa 1
 62
    18
420
        0
370
     9
100
AcDbSpline
210
0.0
220
0.0
230
1.0
 70
    24
 71
     3
 72
     8
 73
     4
 74
     0
 42
0.0000000001
 43
0.0000000001
 40
0.0
 40
0.0
 40
0.0
 40
0.0
 40
1.0
 40
1.0
 40
1.0
 40
1.0
 10
114.1306627624016
 20
77.83710935554073
 30
0.0
 10
114.1306627624016
 20
77.83710935554073
 30
0.0
 10
176.8686614548063
 20
114.0747768540768
 30
0.0
 10
176.8686614548063
 20
114.0747768540768
 30
0.0
  0
LWPOLYLINE
  5
A5
330
70
100
AcDbEntity
  8
Capa 1
100
AcDbPolyline
 90
        3
 70
     0
 43
0.0
 10
113.7919883443547
 20
78.3451102166876
 10
114.384663192975
 20
77.32910849439385
 10
111.0826575955203
 20
76.05911172448838
  0
HATCH
  5
A6
330
70
100
AcDbEntity
  8
Capa 1
 62
    18
420
        0
440
 33554687
100
AcDbHatch
 10
0.0
 20
0.0
 30
0.0
210
0.0
220
0.0
230
1.0
  2
SOLID
 70
     1
 71
     1
 91
        1
 92
        3
 72
     0
 73
     1
 93
        3
 10
113.7919883443547
 20
78.3451102166876
 10
114.384663192975
 20
77.32910849439385
 10
111.0826575955203
 20
76.05911172448838
 97
        0
 75
     0
 76
     1
 98
        1
 10
0.0
 20
0.0
450
        0
451
        0
460
0.0
461
0.0
452
        0
462
0.0
453
        0
470

  0
LWPOLYLINE
  5
A7
330
70
100
AcDbEntity
  8
Capa 1
100
AcDbPolyline
 90
        3
 70
     0
 43
0.0
 10
176.5299870367594
 20
114.5827777152236
 10
177.1226618853797
 20
113.5667759929299
 10
179.9166558557641
 20
115.7681058806174
  0
HATCH
  5
A8
330
70
100
AcDbEntity
  8
Capa 1
 62
    18
420
        0
440
 33554687
100
AcDbHatch
 10
0.0
 20
0.0
 30
0.0
210
0.0
220
0.0
230
1.0
  2
SOLID
 70
     1
 71
     1
 91
        1
 92
        3
 72
     0
 73
     1
 93
        3
 10
176.5299870367594
 20
114.5827777152236
 10
177.1226618853797
 20
113.5667759929299
 10
179.9166558557641
 20
115.7681058806174
 97
        0
 75
     0
 76
     1
 98
        1
 10
0.0
 20
0.0
450
        0
451
        0
460
0.0
461
0.0
452
        0
462
0.0
453
        0
470

  0
LWPOLYLINE
  5
A9
330
70
100
AcDbEntity
  8
Capa 1
100
AcDbPolyline
 90
       61
 70
     0
 43
0.0
 10
143.6793221008531
 20
98.91944653899084
 10
142.239993504886
 20
98.07277125979714
 10
142.409319947986
 20
97.8187708292237
 10
143.4253216702797
 20
98.41144567784397
 10
143.4253216702797
 20
98.32677169037056
 10
143.4253216702797
 20
98.24210846882055
 10
143.4253216702797
 20
98.15744524727055
 10
143.4253216702797
 20
98.07277125979714
 10
143.4253216702797
 20
97.98810803824713
 10
143.4253216702797
 20
97.90344481669711
 10
143.4253216702797
 20
97.8187708292237
 10
143.4253216702797
 20
97.73410760767369
 10
143.4253216702797
 20
97.64944438612367
 10
143.4253216702797
 20
97.56478116457365
 10
143.4253216702797
 20
97.48010717710025
 10
143.4253216702797
 20
97.39544395555023
 10
143.4253216702797
 20
97.31078073400022
 10
143.4253216702797
 20
97.22610674652681
 10
143.4253216702797
 20
97.1414435249768
 10
143.4253216702797
 20
97.05678030342678
 10
143.5099956577531
 20
96.97210631595337
 10
143.5099956577531
 20
96.88744309440338
 10
143.5099956577531
 20
96.80277987285336
 10
143.5946588793031
 20
96.71810588537994
 10
143.5946588793031
 20
96.63344266382992
 10
143.5946588793031
 20
96.5487794422799
 10
143.5946588793031
 20
96.4641054548065
 10
143.6793221008531
 20
96.37944223325648
 10
143.6793221008531
 20
96.29477901170648
 10
143.7639960883266
 20
96.21010502423308
 10
143.7639960883266
 20
96.12544180268306
 10
144.0179965189
 20
96.29477901170648
 10
144.0179965189
 20
96.37944223325648
 10
143.9333225314266
 20
96.4641054548065
 10
143.9333225314266
 20
96.5487794422799
 10
143.9333225314266
 20
96.63344266382992
 10
143.8486593098766
 20
96.71810588537994
 10
143.8486593098766
 20
96.80277987285336
 10
143.8486593098766
 20
96.88744309440338
 10
143.8486593098766
 20
96.97210631595337
 10
143.7639960883266
 20
97.05678030342678
 10
143.7639960883266
 20
97.1414435249768
 10
143.7639960883266
 20
97.22610674652681
 10
143.7639960883266
 20
97.31078073400022
 10
143.7639960883266
 20
97.39544395555023
 10
143.7639960883266
 20
97.48010717710025
 10
143.6793221008531
 20
97.48010717710025
 10
143.6793221008531
 20
97.56478116457365
 10
143.6793221008531
 20
97.64944438612367
 10
143.6793221008531
 20
97.73410760767369
 10
143.6793221008531
 20
97.8187708292237
 10
143.6793221008531
 20
97.90344481669711
 10
143.6793221008531
 20
97.98810803824713
 10
143.6793221008531
 20
98.07277125979714
 10
143.6793221008531
 20
98.15744524727055
 10
143.6793221008531
 20
98.24210846882055
 10
143.6793221008531
 20
98.32677169037056
 10
143.7639960883266
 20
98.41144567784397
 10
143.7639960883266
 20
98.49610889939398
 10
143.7639960883266
 20
98.580772120944
 10
143.7639960883266
 20
98.66544610841742
  0
HATCH
  5
AA
330
70
100
AcDbEntity
  8
Capa 1
 62
    18
420
        0
440
 33554687
100
AcDbHatch
 10
0.0
 20
0.0
 30
0.0
210
0.0
220
0.0
230
1.0
  2
SOLID
 70
     1
 71
     1
 91
        1
 92
        3
 72
     0
 73
     1
 93
       61
 10
143.6793221008531
 20
98.91944653899084
 10
142.239993504886
 20
98.07277125979714
 10
142.409319947986
 20
97.8187708292237
 10
143.4253216702797
 20
98.41144567784397
 10
143.4253216702797
 20
98.32677169037056
 10
143.4253216702797
 20
98.24210846882055
 10
143.4253216702797
 20
98.15744524727055
 10
143.4253216702797
 20
98.07277125979714
 10
143.4253216702797
 20
97.98810803824713
 10
143.4253216702797
 20
97.90344481669711
 10
143.4253216702797
 20
97.8187708292237
 10
143.4253216702797
 20
97.73410760767369
 10
143.4253216702797
 20
97.64944438612367
 10
143.4253216702797
 20
97.56478116457365
 10
143.4253216702797
 20
97.48010717710025
 10
143.4253216702797
 20
97.39544395555023
 10
143.4253216702797
 20
97.31078073400022
 10
143.4253216702797
 20
97.22610674652681
 10
143.4253216702797
 20
97.1414435249768
 10
143.4253216702797
 20
97.05678030342678
 10
143.5099956577531
 20
96.97210631595337
 10
143.5099956577531
 20
96.88744309440338
 10
143.5099956577531
 20
96.80277987285336
 10
143.5946588793031
 20
96.71810588537994
 10
143.5946588793031
 20
96.63344266382992
 10
143.5946588793031
 20
96.5487794422799
 10
143.5946588793031
 20
96.4641054548065
 10
143.6793221008531
 20
96.37944223325648
 10
143.6793221008531
 20
96.29477901170648
 10
143.7639960883266
 20
96.21010502423308
 10
143.7639960883266
 20
96.12544180268306
 10
144.0179965189
 20
96.29477901170648
 10
144.0179965189
 20
96.37944223325648
 10
143.9333225314266
 20
96.4641054548065
 10
143.9333225314266
 20
96.5487794422799
 10
143.9333225314266
 20
96.63344266382992
 10
143.8486593098766
 20
96.71810588537994
 10
143.8486593098766
 20
96.80277987285336
 10
143.8486593098766
 20
96.88744309440338
 10
143.8486593098766
 20
96.97210631595337
 10
143.7639960883266
 20
97.05678030342678
 10
143.7639960883266
 20
97.1414435249768
 10
143.7639960883266
 20
97.22610674652681
 10
143.7639960883266
 20
97.31078073400022
 10
143.7639960883266
 20
97.39544395555023
 10
143.7639960883266
 20
97.48010717710025
 10
143.6793221008531
 20
97.48010717710025
 10
143.6793221008531
 20
97.56478116457365
 10
143.6793221008531
 20
97.64944438612367
 10
143.6793221008531
 20
97.73410760767369
 10
143.6793221008531
 20
97.8187708292237
 10
143.6793221008531
 20
97.90344481669711
 10
143.6793221008531
 20
97.98810803824713
 10
143.6793221008531
 20
98.07277125979714
 10
143.6793221008531
 20
98.15744524727055
 10
143.6793221008531
 20
98.24210846882055
 10
143.6793221008531
 20
98.32677169037056
 10
143.7639960883266
 20
98.41144567784397
 10
143.7639960883266
 20
98.49610889939398
 10
143.7639960883266
 20
98.580772120944
 10
143.7639960883266
 20
98.66544610841742
 97
        0
 75
     0
 76
     1
 98
        1
 10
0.0
 20
0.0
450
        0
451
        0
460
0.0
461
0.0
452
        0
462
0.0
453
        0
470

  0
LWPOLYLINE
  5
AB
330
70
100
AcDbEntity
  8
Capa 1
100
AcDbPolyline
 90
       30
 70
     0
 43
0.0
 10
145.1186614627437
 20
97.64944438612367
 10
144.8646610321703
 20
97.39544395555023
 10
144.9493242537203
 20
97.39544395555023
 10
144.9493242537203
 20
97.31078073400022
 10
145.0339874752704
 20
97.31078073400022
 10
145.1186614627437
 20
97.22610674652681
 10
145.2033246842938
 20
97.22610674652681
 10
145.2879879058438
 20
97.1414435249768
 10
145.3726618933172
 20
97.1414435249768
 10
145.4573251148672
 20
97.1414435249768
 10
145.5419883364172
 20
97.1414435249768
 10
145.6266623238906
 20
97.1414435249768
 10
145.7113255454407
 20
97.22610674652681
 10
145.7959887669907
 20
97.22610674652681
 10
145.8806627544641
 20
97.31078073400022
 10
145.9653259760141
 20
97.31078073400022
 10
146.0499891975641
 20
97.39544395555023
 10
146.0499891975641
 20
97.48010717710025
 10
146.1346631850375
 20
97.48010717710025
 10
146.1346631850375
 20
97.56478116457365
 10
146.1346631850375
 20
97.64944438612367
 10
146.2193264065875
 20
97.64944438612367
 10
146.2193264065875
 20
97.73410760767369
 10
145.7113255454407
 20
97.48010717710025
 10
145.6266623238906
 20
97.39544395555023
 10
145.5419883364172
 20
97.39544395555023
 10
145.4573251148672
 20
97.39544395555023
 10
145.3726618933172
 20
97.39544395555023
 10
145.2879879058438
 20
97.48010717710025
 10
145.2033246842938
 20
97.56478116457365
  0
HATCH
  5
AC
330
70
100
AcDbEntity
  8
Capa 1
 62
    18
420
        0
440
 33554687
100
AcDbHatch
 10
0.0
 20
0.0
 30
0.0
210
0.0
220
0.0
230
1.0
  2
SOLID
 70
     1
 71
     1
 91
        1
 92
        3
 72
     0
 73
     1
 93
       30
 10
145.1186614627437
 20
97.64944438612367
 10
144.8646610321703
 20
97.39544395555023
 10
144.9493242537203
 20
97.39544395555023
 10
144.9493242537203
 20
97.31078073400022
 10
145.0339874752704
 20
97.31078073400022
 10
145.1186614627437
 20
97.22610674652681
 10
145.2033246842938
 20
97.22610674652681
 10
145.2879879058438
 20
97.1414435249768
 10
145.3726618933172
 20
97.1414435249768
 10
145.4573251148672
 20
97.1414435249768
 10
145.5419883364172
 20
97.1414435249768
 10
145.6266623238906
 20
97.1414435249768
 10
145.7113255454407
 20
97.22610674652681
 10
145.7959887669907
 20
97.22610674652681
 10
145.8806627544641
 20
97.31078073400022
 10
145.9653259760141
 20
97.31078073400022
 10
146.0499891975641
 20
97.39544395555023
 10
146.0499891975641
 20
97.48010717710025
 10
146.1346631850375
 20
97.48010717710025
 10
146.1346631850375
 20
97.56478116457365
 10
146.1346631850375
 20
97.64944438612367
 10
146.2193264065875
 20
97.64944438612367
 10
146.2193264065875
 20
97.73410760767369
 10
145.7113255454407
 20
97.48010717710025
 10
145.6266623238906
 20
97.39544395555023
 10
145.5419883364172
 20
97.39544395555023
 10
145.4573251148672
 20
97.39544395555023
 10
145.3726618933172
 20
97.39544395555023
 10
145.2879879058438
 20
97.48010717710025
 10
145.2033246842938
 20
97.56478116457365
 97
        0
 75
     0
 76
     1
 98
        1
 10
0.0
 20
0.0
450
        0
451
        0
460
0.0
461
0.0
452
        0
462
0.0
453
        0
470

  0
LWPOLYLINE
  5
AD
330
70
100
AcDbEntity
  8
Capa 1
100
AcDbPolyline
 90
       22
 70
     0
 43
0.0
 10
145.4573251148672
 20
98.49610889939398
 10
145.4573251148672
 20
98.41144567784397
 10
145.3726618933172
 20
98.41144567784397
 10
145.3726618933172
 20
98.32677169037056
 10
145.2879879058438
 20
98.32677169037056
 10
144.7799870446969
 20
97.98810803824713
 10
144.8646610321703
 20
97.90344481669711
 10
144.9493242537203
 20
97.90344481669711
 10
145.0339874752704
 20
97.90344481669711
 10
145.1186614627437
 20
97.90344481669711
 10
145.2033246842938
 20
97.90344481669711
 10
145.2033246842938
 20
97.98810803824713
 10
145.2879879058438
 20
97.98810803824713
 10
145.3726618933172
 20
97.98810803824713
 10
145.4573251148672
 20
98.07277125979714
 10
145.5419883364172
 20
98.15744524727055
 10
145.5419883364172
 20
98.24210846882055
 10
145.6266623238906
 20
98.24210846882055
 10
145.6266623238906
 20
98.32677169037056
 10
145.7113255454407
 20
98.41144567784397
 10
145.7113255454407
 20
98.49610889939398
 10
145.7113255454407
 20
98.580772120944
  0
HATCH
  5
AE
330
70
100
AcDbEntity
  8
Capa 1
 62
    18
420
        0
440
 33554687
100
AcDbHatch
 10
0.0
 20
0.0
 30
0.0
210
0.0
220
0.0
230
1.0
  2
SOLID
 70
     1
 71
     1
 91
        1
 92
        3
 72
     0
 73
     1
 93
       22
 10
145.4573251148672
 20
98.49610889939398
 10
145.4573251148672
 20
98.41144567784397
 10
145.3726618933172
 20
98.41144567784397
 10
145.3726618933172
 20
98.32677169037056
 10
145.2879879058438
 20
98.32677169037056
 10
144.7799870446969
 20
97.98810803824713
 10
144.8646610321703
 20
97.90344481669711
 10
144.9493242537203
 20
97.90344481669711
 10
145.0339874752704
 20
97.90344481669711
 10
145.1186614627437
 20
97.90344481669711
 10
145.2033246842938
 20
97.90344481669711
 10
145.2033246842938
 20
97.98810803824713
 10
145.2879879058438
 20
97.98810803824713
 10
145.3726618933172
 20
97.98810803824713
 10
145.4573251148672
 20
98.07277125979714
 10
145.5419883364172
 20
98.15744524727055
 10
145.5419883364172
 20
98.24210846882055
 10
145.6266623238906
 20
98.24210846882055
 10
145.6266623238906
 20
98.32677169037056
 10
145.7113255454407
 20
98.41144567784397
 10
145.7113255454407
 20
98.49610889939398
 10
145.7113255454407
 20
98.580772120944
 97
        0
 75
     0
 76
     1
 98
        1
 10
0.0
 20
0.0
450
        0
451
        0
460
0.0
461
0.0
452
        0
462
0.0
453
        0
470

  0
LWPOLYLINE
  5
AF
330
70
100
AcDbEntity
  8
Capa 1
100
AcDbPolyline
 90
       34
 70
     0
 43
0.0
 10
144.187322962
 20
99.00410976054086
 10
144.187322962
 20
98.580772120944
 10
144.2719861835501
 20
98.580772120944
 10
144.2719861835501
 20
98.41144567784397
 10
144.3566601710234
 20
98.32677169037056
 10
144.3566601710234
 20
98.24210846882055
 10
144.4413233925734
 20
98.24210846882055
 10
144.4413233925734
 20
98.15744524727055
 10
144.5259866141235
 20
98.07277125979714
 10
144.6106606015969
 20
98.07277125979714
 10
144.6106606015969
 20
97.98810803824713
 10
144.6953238231469
 20
97.98810803824713
 10
144.7799870446969
 20
97.98810803824713
 10
145.2879879058438
 20
98.32677169037056
 10
145.2033246842938
 20
98.24210846882055
 10
145.1186614627437
 20
98.24210846882055
 10
145.0339874752704
 20
98.24210846882055
 10
144.9493242537203
 20
98.24210846882055
 10
144.8646610321703
 20
98.24210846882055
 10
144.7799870446969
 20
98.32677169037056
 10
144.6953238231469
 20
98.32677169037056
 10
144.6953238231469
 20
98.41144567784397
 10
144.6106606015969
 20
98.41144567784397
 10
144.6106606015969
 20
98.49610889939398
 10
144.6106606015969
 20
98.580772120944
 10
144.5259866141235
 20
98.66544610841742
 10
144.5259866141235
 20
98.75010932996744
 10
144.5259866141235
 20
98.83477255151746
 10
144.5259866141235
 20
98.91944653899084
 10
144.5259866141235
 20
99.00410976054086
 10
144.5259866141235
 20
99.08877298209088
 10
144.6106606015969
 20
99.17344696956428
 10
144.6953238231469
 20
99.2581101911143
 10
144.7799870446969
 20
99.2581101911143
  0
HATCH
  5
B0
330
70
100
AcDbEntity
  8
Capa 1
 62
    18
420
        0
440
 33554687
100
AcDbHatch
 10
0.0
 20
0.0
 30
0.0
210
0.0
220
0.0
230
1.0
  2
SOLID
 70
     1
 71
     1
 91
        1
 92
        3
 72
     0
 73
     1
 93
       34
 10
144.187322962
 20
99.00410976054086
 10
144.187322962
 20
98.580772120944
 10
144.2719861835501
 20
98.580772120944
 10
144.2719861835501
 20
98.41144567784397
 10
144.3566601710234
 20
98.32677169037056
 10
144.3566601710234
 20
98.24210846882055
 10
144.4413233925734
 20
98.24210846882055
 10
144.4413233925734
 20
98.15744524727055
 10
144.5259866141235
 20
98.07277125979714
 10
144.6106606015969
 20
98.07277125979714
 10
144.6106606015969
 20
97.98810803824713
 10
144.6953238231469
 20
97.98810803824713
 10
144.7799870446969
 20
97.98810803824713
 10
145.2879879058438
 20
98.32677169037056
 10
145.2033246842938
 20
98.24210846882055
 10
145.1186614627437
 20
98.24210846882055
 10
145.0339874752704
 20
98.24210846882055
 10
144.9493242537203
 20
98.24210846882055
 10
144.8646610321703
 20
98.24210846882055
 10
144.7799870446969
 20
98.32677169037056
 10
144.6953238231469
 20
98.32677169037056
 10
144.6953238231469
 20
98.41144567784397
 10
144.6106606015969
 20
98.41144567784397
 10
144.6106606015969
 20
98.49610889939398
 10
144.6106606015969
 20
98.580772120944
 10
144.5259866141235
 20
98.66544610841742
 10
144.5259866141235
 20
98.75010932996744
 10
144.5259866141235
 20
98.83477255151746
 10
144.5259866141235
 20
98.91944653899084
 10
144.5259866141235
 20
99.00410976054086
 10
144.5259866141235
 20
99.08877298209088
 10
144.6106606015969
 20
99.17344696956428
 10
144.6953238231469
 20
99.2581101911143
 10
144.7799870446969
 20
99.2581101911143
 97
        0
 75
     0
 76
     1
 98
        1
 10
0.0
 20
0.0
450
        0
451
        0
460
0.0
461
0.0
452
        0
462
0.0
453
        0
470

  0
LWPOLYLINE
  5
B1
330
70
100
AcDbEntity
  8
Capa 1
100
AcDbPolyline
 90
       75
 70
     0
 43
0.0
 10
144.6106606015969
 20
99.42744740013772
 10
144.6106606015969
 20
99.42744740013772
 10
144.5259866141235
 20
99.42744740013772
 10
144.4413233925734
 20
99.34277341266431
 10
144.3566601710234
 20
99.2581101911143
 10
144.2719861835501
 20
99.17344696956428
 10
144.2719861835501
 20
99.08877298209088
 10
144.187322962
 20
99.00410976054086
 10
144.7799870446969
 20
99.2581101911143
 10
144.8646610321703
 20
99.34277341266431
 10
144.9493242537203
 20
99.34277341266431
 10
145.0339874752704
 20
99.34277341266431
 10
145.1186614627437
 20
99.34277341266431
 10
145.1186614627437
 20
99.2581101911143
 10
145.2033246842938
 20
99.2581101911143
 10
145.2879879058438
 20
99.2581101911143
 10
145.2879879058438
 20
99.17344696956428
 10
145.3726618933172
 20
99.17344696956428
 10
145.3726618933172
 20
99.08877298209088
 10
145.4573251148672
 20
99.00410976054086
 10
145.4573251148672
 20
98.91944653899084
 10
145.5419883364172
 20
98.83477255151746
 10
145.5419883364172
 20
98.75010932996744
 10
145.5419883364172
 20
98.66544610841742
 10
145.5419883364172
 20
98.580772120944
 10
145.5419883364172
 20
98.49610889939398
 10
145.4573251148672
 20
98.49610889939398
 10
145.7113255454407
 20
98.580772120944
 10
145.7959887669907
 20
98.49610889939398
 10
145.7959887669907
 20
98.41144567784397
 10
145.8806627544641
 20
98.32677169037056
 10
145.8806627544641
 20
98.24210846882055
 10
145.8806627544641
 20
98.15744524727055
 10
145.9653259760141
 20
98.07277125979714
 10
145.9653259760141
 20
97.98810803824713
 10
145.9653259760141
 20
97.90344481669711
 10
145.9653259760141
 20
97.8187708292237
 10
145.8806627544641
 20
97.73410760767369
 10
145.8806627544641
 20
97.64944438612367
 10
145.7959887669907
 20
97.56478116457365
 10
145.7959887669907
 20
97.48010717710025
 10
145.7113255454407
 20
97.48010717710025
 10
146.2193264065875
 20
97.73410760767369
 10
146.2193264065875
 20
97.8187708292237
 10
146.2193264065875
 20
97.90344481669711
 10
146.2193264065875
 20
97.98810803824713
 10
146.2193264065875
 20
98.07277125979714
 10
146.2193264065875
 20
98.15744524727055
 10
146.2193264065875
 20
98.24210846882055
 10
146.1346631850375
 20
98.32677169037056
 10
146.1346631850375
 20
98.41144567784397
 10
146.1346631850375
 20
98.49610889939398
 10
146.0499891975641
 20
98.580772120944
 10
146.0499891975641
 20
98.66544610841742
 10
145.9653259760141
 20
98.75010932996744
 10
145.8806627544641
 20
98.83477255151746
 10
145.8806627544641
 20
98.91944653899084
 10
145.7959887669907
 20
99.00410976054086
 10
145.7959887669907
 20
99.08877298209088
 10
145.7113255454407
 20
99.17344696956428
 10
145.6266623238906
 20
99.2581101911143
 10
145.5419883364172
 20
99.34277341266431
 10
145.4573251148672
 20
99.42744740013772
 10
145.3726618933172
 20
99.42744740013772
 10
145.3726618933172
 20
99.51211062168773
 10
145.2879879058438
 20
99.51211062168773
 10
145.2033246842938
 20
99.51211062168773
 10
145.2033246842938
 20
99.59677384323775
 10
145.1186614627437
 20
99.59677384323775
 10
145.0339874752704
 20
99.59677384323775
 10
144.9493242537203
 20
99.59677384323775
 10
144.8646610321703
 20
99.59677384323775
 10
144.7799870446969
 20
99.51211062168773
 10
144.6953238231469
 20
99.51211062168773
 10
144.6106606015969
 20
99.51211062168773
  0
HATCH
  5
B2
330
70
100
AcDbEntity
  8
Capa 1
 62
    18
420
        0
440
 33554687
100
AcDbHatch
 10
0.0
 20
0.0
 30
0.0
210
0.0
220
0.0
230
1.0
  2
SOLID
 70
     1
 71
     1
 91
        1
 92
        3
 72
     0
 73
     1
 93
       75
 10
144.6106606015969
 20
99.42744740013772
 10
144.6106606015969
 20
99.42744740013772
 10
144.5259866141235
 20
99.42744740013772
 10
144.4413233925734
 20
99.34277341266431
 10
144.3566601710234
 20
99.2581101911143
 10
144.2719861835501
 20
99.17344696956428
 10
144.2719861835501
 20
99.08877298209088
 10
144.187322962
 20
99.00410976054086
 10
144.7799870446969
 20
99.2581101911143
 10
144.8646610321703
 20
99.34277341266431
 10
144.9493242537203
 20
99.34277341266431
 10
145.0339874752704
 20
99.34277341266431
 10
145.1186614627437
 20
99.34277341266431
 10
145.1186614627437
 20
99.2581101911143
 10
145.2033246842938
 20
99.2581101911143
 10
145.2879879058438
 20
99.2581101911143
 10
145.2879879058438
 20
99.17344696956428
 10
145.3726618933172
 20
99.17344696956428
 10
145.3726618933172
 20
99.08877298209088
 10
145.4573251148672
 20
99.00410976054086
 10
145.4573251148672
 20
98.91944653899084
 10
145.5419883364172
 20
98.83477255151746
 10
145.5419883364172
 20
98.75010932996744
 10
145.5419883364172
 20
98.66544610841742
 10
145.5419883364172
 20
98.580772120944
 10
145.5419883364172
 20
98.49610889939398
 10
145.4573251148672
 20
98.49610889939398
 10
145.7113255454407
 20
98.580772120944
 10
145.7959887669907
 20
98.49610889939398
 10
145.7959887669907
 20
98.41144567784397
 10
145.8806627544641
 20
98.32677169037056
 10
145.8806627544641
 20
98.24210846882055
 10
145.8806627544641
 20
98.15744524727055
 10
145.9653259760141
 20
98.07277125979714
 10
145.9653259760141
 20
97.98810803824713
 10
145.9653259760141
 20
97.90344481669711
 10
145.9653259760141
 20
97.8187708292237
 10
145.8806627544641
 20
97.73410760767369
 10
145.8806627544641
 20
97.64944438612367
 10
145.7959887669907
 20
97.56478116457365
 10
145.7959887669907
 20
97.48010717710025
 10
145.7113255454407
 20
97.48010717710025
 10
146.2193264065875
 20
97.73410760767369
 10
146.2193264065875
 20
97.8187708292237
 10
146.2193264065875
 20
97.90344481669711
 10
146.2193264065875
 20
97.98810803824713
 10
146.2193264065875
 20
98.07277125979714
 10
146.2193264065875
 20
98.15744524727055
 10
146.2193264065875
 20
98.24210846882055
 10
146.1346631850375
 20
98.32677169037056
 10
146.1346631850375
 20
98.41144567784397
 10
146.1346631850375
 20
98.49610889939398
 10
146.0499891975641
 20
98.580772120944
 10
146.0499891975641
 20
98.66544610841742
 10
145.9653259760141
 20
98.75010932996744
 10
145.8806627544641
 20
98.83477255151746
 10
145.8806627544641
 20
98.91944653899084
 10
145.7959887669907
 20
99.00410976054086
 10
145.7959887669907
 20
99.08877298209088
 10
145.7113255454407
 20
99.17344696956428
 10
145.6266623238906
 20
99.2581101911143
 10
145.5419883364172
 20
99.34277341266431
 10
145.4573251148672
 20
99.42744740013772
 10
145.3726618933172
 20
99.42744740013772
 10
145.3726618933172
 20
99.51211062168773
 10
145.2879879058438
 20
99.51211062168773
 10
145.2033246842938
 20
99.51211062168773
 10
145.2033246842938
 20
99.59677384323775
 10
145.1186614627437
 20
99.59677384323775
 10
145.0339874752704
 20
99.59677384323775
 10
144.9493242537203
 20
99.59677384323775
 10
144.8646610321703
 20
99.59677384323775
 10
144.7799870446969
 20
99.51211062168773
 10
144.6953238231469
 20
99.51211062168773
 10
144.6106606015969
 20
99.51211062168773
 97
        0
 75
     0
 76
     1
 98
        1
 10
0.0
 20
0.0
450
        0
451
        0
460
0.0
461
0.0
452
        0
462
0.0
453
        0
470

  0
LWPOLYLINE
  5
B3
330
70
100
AcDbEntity
  8
Capa 1
100
AcDbPolyline
 90
       31
 70
     0
 43
0.0
 10
146.8119904892844
 20
98.66544610841742
 10
146.473326837161
 20
98.49610889939398
 10
146.557990058711
 20
98.41144567784397
 10
146.642653280261
 20
98.32677169037056
 10
146.642653280261
 20
98.24210846882055
 10
146.7273272677344
 20
98.24210846882055
 10
146.8119904892844
 20
98.24210846882055
 10
146.8119904892844
 20
98.15744524727055
 10
146.8966537108344
 20
98.15744524727055
 10
146.9813276983078
 20
98.15744524727055
 10
147.0659909198578
 20
98.15744524727055
 10
147.1506541414078
 20
98.15744524727055
 10
147.2353281288813
 20
98.15744524727055
 10
147.3199913504313
 20
98.15744524727055
 10
147.4046545719813
 20
98.15744524727055
 10
147.4893285594547
 20
98.24210846882055
 10
147.5739917810047
 20
98.24210846882055
 10
147.6586550025547
 20
98.32677169037056
 10
147.7433289900281
 20
98.41144567784397
 10
147.8279922115781
 20
98.49610889939398
 10
147.9126554331282
 20
98.580772120944
 10
147.9126554331282
 20
98.66544610841742
 10
147.9126554331282
 20
98.75010932996744
 10
147.4046545719813
 20
98.49610889939398
 10
147.3199913504313
 20
98.41144567784397
 10
147.2353281288813
 20
98.41144567784397
 10
147.1506541414078
 20
98.41144567784397
 10
147.0659909198578
 20
98.41144567784397
 10
146.9813276983078
 20
98.49610889939398
 10
146.8966537108344
 20
98.49610889939398
 10
146.8119904892844
 20
98.580772120944
  0
HATCH
  5
B4
330
70
100
AcDbEntity
  8
Capa 1
 62
    18
420
        0
440
 33554687
100
AcDbHatch
 10
0.0
 20
0.0
 30
0.0
210
0.0
220
0.0
230
1.0
  2
SOLID
 70
     1
 71
     1
 91
        1
 92
        3
 72
     0
 73
     1
 93
       31
 10
146.8119904892844
 20
98.66544610841742
 10
146.473326837161
 20
98.49610889939398
 10
146.557990058711
 20
98.41144567784397
 10
146.642653280261
 20
98.32677169037056
 10
146.642653280261
 20
98.24210846882055
 10
146.7273272677344
 20
98.24210846882055
 10
146.8119904892844
 20
98.24210846882055
 10
146.8119904892844
 20
98.15744524727055
 10
146.8966537108344
 20
98.15744524727055
 10
146.9813276983078
 20
98.15744524727055
 10
147.0659909198578
 20
98.15744524727055
 10
147.1506541414078
 20
98.15744524727055
 10
147.2353281288813
 20
98.15744524727055
 10
147.3199913504313
 20
98.15744524727055
 10
147.4046545719813
 20
98.15744524727055
 10
147.4893285594547
 20
98.24210846882055
 10
147.5739917810047
 20
98.24210846882055
 10
147.6586550025547
 20
98.32677169037056
 10
147.7433289900281
 20
98.41144567784397
 10
147.8279922115781
 20
98.49610889939398
 10
147.9126554331282
 20
98.580772120944
 10
147.9126554331282
 20
98.66544610841742
 10
147.9126554331282
 20
98.75010932996744
 10
147.4046545719813
 20
98.49610889939398
 10
147.3199913504313
 20
98.41144567784397
 10
147.2353281288813
 20
98.41144567784397
 10
147.1506541414078
 20
98.41144567784397
 10
147.0659909198578
 20
98.41144567784397
 10
146.9813276983078
 20
98.49610889939398
 10
146.8966537108344
 20
98.49610889939398
 10
146.8119904892844
 20
98.580772120944
 97
        0
 75
     0
 76
     1
 98
        1
 10
0.0
 20
0.0
450
        0
451
        0
460
0.0
461
0.0
452
        0
462
0.0
453
        0
470

  0
LWPOLYLINE
  5
B5
330
70
100
AcDbEntity
  8
Capa 1
100
AcDbPolyline
 90
       40
 70
     0
 43
0.0
 10
147.3199913504313
 20
99.85077427381119
 10
146.8119904892844
 20
99.51211062168773
 10
146.8966537108344
 20
99.51211062168773
 10
146.9813276983078
 20
99.51211062168773
 10
147.0659909198578
 20
99.59677384323775
 10
147.1506541414078
 20
99.59677384323775
 10
147.2353281288813
 20
99.51211062168773
 10
147.3199913504313
 20
99.51211062168773
 10
147.4046545719813
 20
99.51211062168773
 10
147.4046545719813
 20
99.42744740013772
 10
147.4893285594547
 20
99.34277341266431
 10
147.5739917810047
 20
99.34277341266431
 10
147.5739917810047
 20
99.2581101911143
 10
147.5739917810047
 20
99.17344696956428
 10
147.6586550025547
 20
99.08877298209088
 10
147.6586550025547
 20
99.00410976054086
 10
147.6586550025547
 20
98.91944653899084
 10
147.6586550025547
 20
98.83477255151746
 10
147.6586550025547
 20
98.75010932996744
 10
147.5739917810047
 20
98.66544610841742
 10
147.5739917810047
 20
98.580772120944
 10
147.4893285594547
 20
98.49610889939398
 10
147.4046545719813
 20
98.49610889939398
 10
147.9126554331282
 20
98.75010932996744
 10
147.9973294206016
 20
98.83477255151746
 10
147.9973294206016
 20
98.91944653899084
 10
147.9973294206016
 20
99.00410976054086
 10
147.9973294206016
 20
99.08877298209088
 10
147.9126554331282
 20
99.17344696956428
 10
147.9126554331282
 20
99.2581101911143
 10
147.9126554331282
 20
99.34277341266431
 10
147.8279922115781
 20
99.42744740013772
 10
147.8279922115781
 20
99.51211062168773
 10
147.7433289900281
 20
99.59677384323775
 10
147.6586550025547
 20
99.59677384323775
 10
147.6586550025547
 20
99.68144783071116
 10
147.5739917810047
 20
99.68144783071116
 10
147.5739917810047
 20
99.76611105226117
 10
147.4893285594547
 20
99.76611105226117
 10
147.4046545719813
 20
99.85077427381119
  0
HATCH
  5
B6
330
70
100
AcDbEntity
  8
Capa 1
 62
    18
420
        0
440
 33554687
100
AcDbHatch
 10
0.0
 20
0.0
 30
0.0
210
0.0
220
0.0
230
1.0
  2
SOLID
 70
     1
 71
     1
 91
        1
 92
        3
 72
     0
 73
     1
 93
       40
 10
147.3199913504313
 20
99.85077427381119
 10
146.8119904892844
 20
99.51211062168773
 10
146.8966537108344
 20
99.51211062168773
 10
146.9813276983078
 20
99.51211062168773
 10
147.0659909198578
 20
99.59677384323775
 10
147.1506541414078
 20
99.59677384323775
 10
147.2353281288813
 20
99.51211062168773
 10
147.3199913504313
 20
99.51211062168773
 10
147.4046545719813
 20
99.51211062168773
 10
147.4046545719813
 20
99.42744740013772
 10
147.4893285594547
 20
99.34277341266431
 10
147.5739917810047
 20
99.34277341266431
 10
147.5739917810047
 20
99.2581101911143
 10
147.5739917810047
 20
99.17344696956428
 10
147.6586550025547
 20
99.08877298209088
 10
147.6586550025547
 20
99.00410976054086
 10
147.6586550025547
 20
98.91944653899084
 10
147.6586550025547
 20
98.83477255151746
 10
147.6586550025547
 20
98.75010932996744
 10
147.5739917810047
 20
98.66544610841742
 10
147.5739917810047
 20
98.580772120944
 10
147.4893285594547
 20
98.49610889939398
 10
147.4046545719813
 20
98.49610889939398
 10
147.9126554331282
 20
98.75010932996744
 10
147.9973294206016
 20
98.83477255151746
 10
147.9973294206016
 20
98.91944653899084
 10
147.9973294206016
 20
99.00410976054086
 10
147.9973294206016
 20
99.08877298209088
 10
147.9126554331282
 20
99.17344696956428
 10
147.9126554331282
 20
99.2581101911143
 10
147.9126554331282
 20
99.34277341266431
 10
147.8279922115781
 20
99.42744740013772
 10
147.8279922115781
 20
99.51211062168773
 10
147.7433289900281
 20
99.59677384323775
 10
147.6586550025547
 20
99.59677384323775
 10
147.6586550025547
 20
99.68144783071116
 10
147.5739917810047
 20
99.68144783071116
 10
147.5739917810047
 20
99.76611105226117
 10
147.4893285594547
 20
99.76611105226117
 10
147.4046545719813
 20
99.85077427381119
 97
        0
 75
     0
 76
     1
 98
        1
 10
0.0
 20
0.0
450
        0
451
        0
460
0.0
461
0.0
452
        0
462
0.0
453
        0
470

  0
LWPOLYLINE
  5
B7
330
70
100
AcDbEntity
  8
Capa 1
100
AcDbPolyline
 90
       15
 70
     0
 43
0.0
 10
146.8119904892844
 20
99.76611105226117
 10
146.7273272677344
 20
99.76611105226117
 10
146.7273272677344
 20
99.68144783071116
 10
146.642653280261
 20
99.68144783071116
 10
146.557990058711
 20
99.59677384323775
 10
146.473326837161
 20
99.51211062168773
 10
146.473326837161
 20
99.42744740013772
 10
146.473326837161
 20
99.34277341266431
 10
147.3199913504313
 20
99.85077427381119
 10
147.2353281288813
 20
99.85077427381119
 10
147.1506541414078
 20
99.85077427381119
 10
147.0659909198578
 20
99.85077427381119
 10
146.9813276983078
 20
99.85077427381119
 10
146.8966537108344
 20
99.85077427381119
 10
146.8119904892844
 20
99.76611105226117
  0
HATCH
  5
B8
330
70
100
AcDbEntity
  8
Capa 1
 62
    18
420
        0
440
 33554687
100
AcDbHatch
 10
0.0
 20
0.0
 30
0.0
210
0.0
220
0.0
230
1.0
  2
SOLID
 70
     1
 71
     1
 91
        1
 92
        3
 72
     0
 73
     1
 93
       15
 10
146.8119904892844
 20
99.76611105226117
 10
146.7273272677344
 20
99.76611105226117
 10
146.7273272677344
 20
99.68144783071116
 10
146.642653280261
 20
99.68144783071116
 10
146.557990058711
 20
99.59677384323775
 10
146.473326837161
 20
99.51211062168773
 10
146.473326837161
 20
99.42744740013772
 10
146.473326837161
 20
99.34277341266431
 10
147.3199913504313
 20
99.85077427381119
 10
147.2353281288813
 20
99.85077427381119
 10
147.1506541414078
 20
99.85077427381119
 10
147.0659909198578
 20
99.85077427381119
 10
146.9813276983078
 20
99.85077427381119
 10
146.8966537108344
 20
99.85077427381119
 10
146.8119904892844
 20
99.76611105226117
 97
        0
 75
     0
 76
     1
 98
        1
 10
0.0
 20
0.0
450
        0
451
        0
460
0.0
461
0.0
452
        0
462
0.0
453
        0
470

  0
LWPOLYLINE
  5
B9
330
70
100
AcDbEntity
  8
Capa 1
100
AcDbPolyline
 90
       15
 70
     0
 43
0.0
 10
146.8966537108344
 20
100.7821127745549
 10
145.8806627544641
 20
100.1894379259346
 10
146.3039896281375
 20
98.91944653899084
 10
146.557990058711
 20
99.00410976054086
 10
146.557990058711
 20
99.08877298209088
 10
146.557990058711
 20
99.17344696956428
 10
146.642653280261
 20
99.2581101911143
 10
146.642653280261
 20
99.34277341266431
 10
146.7273272677344
 20
99.42744740013772
 10
146.8119904892844
 20
99.42744740013772
 10
146.8119904892844
 20
99.51211062168773
 10
147.3199913504313
 20
99.85077427381119
 10
146.473326837161
 20
99.34277341266431
 10
146.2193264065875
 20
100.0201114828346
 10
147.0659909198578
 20
100.5281123439814
  0
HATCH
  5
BA
330
70
100
AcDbEntity
  8
Capa 1
 62
    18
420
        0
440
 33554687
100
AcDbHatch
 10
0.0
 20
0.0
 30
0.0
210
0.0
220
0.0
230
1.0
  2
SOLID
 70
     1
 71
     1
 91
        1
 92
        3
 72
     0
 73
     1
 93
       15
 10
146.8966537108344
 20
100.7821127745549
 10
145.8806627544641
 20
100.1894379259346
 10
146.3039896281375
 20
98.91944653899084
 10
146.557990058711
 20
99.00410976054086
 10
146.557990058711
 20
99.08877298209088
 10
146.557990058711
 20
99.17344696956428
 10
146.642653280261
 20
99.2581101911143
 10
146.642653280261
 20
99.34277341266431
 10
146.7273272677344
 20
99.42744740013772
 10
146.8119904892844
 20
99.42744740013772
 10
146.8119904892844
 20
99.51211062168773
 10
147.3199913504313
 20
99.85077427381119
 10
146.473326837161
 20
99.34277341266431
 10
146.2193264065875
 20
100.0201114828346
 10
147.0659909198578
 20
100.5281123439814
 97
        0
 75
     0
 76
     1
 98
        1
 10
0.0
 20
0.0
450
        0
451
        0
460
0.0
461
0.0
452
        0
462
0.0
453
        0
470

  0
LWPOLYLINE
  5
BB
330
70
100
AcDbEntity
  8
Capa 1
 62
    18
420
        0
370
     9
100
AcDbPolyline
 90
        3
 70
     0
 43
0.0
 10
57.82732728995941
 20
163.2661110363861
 10
96.77399179370473
 20
140.829442222144
 10
165.6079900539485
 20
180.538118783533
  0
LWPOLYLINE
  5
BC
330
70
100
AcDbEntity
  8
Capa 1
 62
    18
420
        0
370
     9
100
AcDbPolyline
 90
        3
 70
     0
 43
0.0
 10
57.82732728995941
 20
164.8747768413768
 10
96.77399179370473
 20
142.4381080271346
 10
165.6079900539485
 20
182.1467845885236
  0
LWPOLYLINE
  5
BD
330
70
100
AcDbEntity
  8
Capa 1
 62
    18
420
        0
370
     9
100
AcDbPolyline
 90
        3
 70
     0
 43
0.0
 10
57.82732728995941
 20
163.2661110363861
 10
57.82732728995941
 20
164.8747768413768
 10
79.33266298641955
 20
177.3207871735517
  0
LINE
  5
BE
330
70
100
AcDbEntity
  8
Capa 1
 62
    18
420
        0
370
     9
100
AcDbLine
 10
118.9566601773734
 20
200.1807828614674
 30
0.0
 11
126.6613255502031
 21
204.5834426368424
 31
0.0
  0
LWPOLYLINE
  5
BF
330
70
100
AcDbEntity
  8
Capa 1
 62
    18
420
        0
370
     9
100
AcDbPolyline
 90
        3
 70
     0
 43
0.0
 10
165.6079900539485
 20
180.538118783533
 10
165.6079900539485
 20
182.1467845885236
 10
126.6613255502031
 20
204.5834426368424
  0
LINE
  5
C0
330
70
100
AcDbEntity
  8
Capa 1
 62
    18
420
        0
370
     9
100
AcDbLine
 10
96.77399179370473
 20
140.829442222144
 30
0.0
 11
96.77399179370473
 21
142.4381080271346
 31
0.0
  0
SPLINE
  5
C1
330
70
100
AcDbEntity
  8
Capa 1
 62
    18
420
        0
370
     9
100
AcDbSpline
210
0.0
220
0.0
230
1.0
 70
    24
 71
     3
 72
     8
 73
     4
 74
     0
 42
0.0000000001
 43
0.0000000001
 40
0.0
 40
0.0
 40
0.0
 40
0.0
 40
1.0
 40
1.0
 40
1.0
 40
1.0
 10
57.82732728995941
 20
106.7934383549205
 30
0.0
 10
57.82732728995941
 20
106.7934383549205
 30
0.0
 10
40.30132987816251
 20
96.71810588537994
 30
0.0
 10
40.30132987816251
 20
96.71810588537994
 30
0.0
  0
SPLINE
  5
C2
330
70
100
AcDbEntity
  8
Capa 1
 62
    18
420
        0
370
     9
100
AcDbSpline
210
0.0
220
0.0
230
1.0
 70
    24
 71
     3
 72
     8
 73
     4
 74
     0
 42
0.0000000001
 43
0.0000000001
 40
0.0
 40
0.0
 40
0.0
 40
0.0
 40
1.0
 40
1.0
 40
1.0
 40
1.0
 10
57.82732728995941
 20
164.8747768413768
 30
0.0
 10
57.82732728995941
 20
164.8747768413768
 30
0.0
 10
40.30132987816251
 20
154.7994443718361
 30
0.0
 10
40.30132987816251
 20
154.7994443718361
 30
0.0
  0
SPLINE
  5
C3
330
70
100
AcDbEntity
  8
Capa 1
 62
    18
420
        0
370
     9
100
AcDbSpline
210
0.0
220
0.0
230
1.0
 70
    24
 71
     3
 72
     8
 73
     4
 74
     0
 42
0.0000000001
 43
0.0000000001
 40
0.0
 40
0.0
 40
0.0
 40
0.0
 40
1.0
 40
1.0
 40
1.0
 40
1.0
 10
41.82532977012228
 20
101.0361132051283
 30
0.0
 10
41.82532977012228
 20
101.0361132051283
 30
0.0
 10
41.82532977012228
 20
152.1747768445518
 30
0.0
 10
41.82532977012228
 20
152.1747768445518
 30
0.0
  0
LWPOLYLINE
  5
C4
330
70
100
AcDbEntity
  8
Capa 1
100
AcDbPolyline
 90
        3
 70
     0
 43
0.0
 10
41.23266568742539
 20
101.0361132051283
 10
42.41799654430002
 20
101.0361132051283
 10
41.82532977012228
 20
97.56478116457365
  0
HATCH
  5
C5
330
70
100
AcDbEntity
  8
Capa 1
 62
    18
420
        0
440
 33554687
100
AcDbHatch
 10
0.0
 20
0.0
 30
0.0
210
0.0
220
0.0
230
1.0
  2
SOLID
 70
     1
 71
     1
 91
        1
 92
        3
 72
     0
 73
     1
 93
        3
 10
41.23266568742539
 20
101.0361132051283
 10
42.41799654430002
 20
101.0361132051283
 10
41.82532977012228
 20
97.56478116457365
 97
        0
 75
     0
 76
     1
 98
        1
 10
0.0
 20
0.0
450
        0
451
        0
460
0.0
461
0.0
452
        0
462
0.0
453
        0
470

  0
LWPOLYLINE
  5
C6
330
70
100
AcDbEntity
  8
Capa 1
100
AcDbPolyline
 90
        3
 70
     0
 43
0.0
 10
41.23266568742539
 20
152.1747768445518
 10
42.41799654430002
 20
152.1747768445518
 10
41.82532977012228
 20
155.6461088851064
  0
HATCH
  5
C7
330
70
100
AcDbEntity
  8
Capa 1
 62
    18
420
        0
440
 33554687
100
AcDbHatch
 10
0.0
 20
0.0
 30
0.0
210
0.0
220
0.0
230
1.0
  2
SOLID
 70
     1
 71
     1
 91
        1
 92
        3
 72
     0
 73
     1
 93
        3
 10
41.23266568742539
 20
152.1747768445518
 10
42.41799654430002
 20
152.1747768445518
 10
41.82532977012228
 20
155.6461088851064
 97
        0
 75
     0
 76
     1
 98
        1
 10
0.0
 20
0.0
450
        0
451
        0
460
0.0
461
0.0
452
        0
462
0.0
453
        0
470

  0
LWPOLYLINE
  5
C8
330
70
100
AcDbEntity
  8
Capa 1
100
AcDbPolyline
 90
       30
 70
     0
 43
0.0
 10
40.13199805210079
 20
125.2507742674612
 10
40.13199805210079
 20
124.9967738368877
 10
40.30132987816251
 20
124.9967738368877
 10
40.38599848267423
 20
124.9967738368877
 10
40.47066439570509
 20
125.0814370584377
 10
40.55533030873595
 20
125.1661110459111
 10
40.63999891324766
 20
125.1661110459111
 10
40.63999891324766
 20
125.2507742674612
 10
40.72466482627852
 20
125.2507742674612
 10
40.72466482627852
 20
125.3354374890112
 10
40.80933073930938
 20
125.4201114764846
 10
40.80933073930938
 20
125.5047746980346
 10
40.80933073930938
 20
125.5894379195846
 10
40.80933073930938
 20
125.674111907058
 10
40.89399665234025
 20
125.758775128608
 10
40.80933073930938
 20
125.843438350158
 10
40.80933073930938
 20
125.9281123376315
 10
40.80933073930938
 20
126.0127755591815
 10
40.80933073930938
 20
126.0974387807315
 10
40.72466482627852
 20
126.1821127682049
 10
40.72466482627852
 20
126.2667759897549
 10
40.63999891324766
 20
126.3514392113049
 10
40.63999891324766
 20
125.758775128608
 10
40.55533030873595
 20
125.674111907058
 10
40.55533030873595
 20
125.5894379195846
 10
40.55533030873595
 20
125.5047746980346
 10
40.47066439570509
 20
125.4201114764846
 10
40.38599848267423
 20
125.4201114764846
 10
40.30132987816251
 20
125.3354374890112
 10
40.21666396513165
 20
125.3354374890112
  0
HATCH
  5
C9
330
70
100
AcDbEntity
  8
Capa 1
 62
    18
420
        0
440
 33554687
100
AcDbHatch
 10
0.0
 20
0.0
 30
0.0
210
0.0
220
0.0
230
1.0
  2
SOLID
 70
     1
 71
     1
 91
        1
 92
        3
 72
     0
 73
     1
 93
       30
 10
40.13199805210079
 20
125.2507742674612
 10
40.13199805210079
 20
124.9967738368877
 10
40.30132987816251
 20
124.9967738368877
 10
40.38599848267423
 20
124.9967738368877
 10
40.47066439570509
 20
125.0814370584377
 10
40.55533030873595
 20
125.1661110459111
 10
40.63999891324766
 20
125.1661110459111
 10
40.63999891324766
 20
125.2507742674612
 10
40.72466482627852
 20
125.2507742674612
 10
40.72466482627852
 20
125.3354374890112
 10
40.80933073930938
 20
125.4201114764846
 10
40.80933073930938
 20
125.5047746980346
 10
40.80933073930938
 20
125.5894379195846
 10
40.80933073930938
 20
125.674111907058
 10
40.89399665234025
 20
125.758775128608
 10
40.80933073930938
 20
125.843438350158
 10
40.80933073930938
 20
125.9281123376315
 10
40.80933073930938
 20
126.0127755591815
 10
40.80933073930938
 20
126.0974387807315
 10
40.72466482627852
 20
126.1821127682049
 10
40.72466482627852
 20
126.2667759897549
 10
40.63999891324766
 20
126.3514392113049
 10
40.63999891324766
 20
125.758775128608
 10
40.55533030873595
 20
125.674111907058
 10
40.55533030873595
 20
125.5894379195846
 10
40.55533030873595
 20
125.5047746980346
 10
40.47066439570509
 20
125.4201114764846
 10
40.38599848267423
 20
125.4201114764846
 10
40.30132987816251
 20
125.3354374890112
 10
40.21666396513165
 20
125.3354374890112
 97
        0
 75
     0
 76
     1
 98
        1
 10
0.0
 20
0.0
450
        0
451
        0
460
0.0
461
0.0
452
        0
462
0.0
453
        0
470

  0
LWPOLYLINE
  5
CA
330
70
100
AcDbEntity
  8
Capa 1
100
AcDbPolyline
 90
       39
 70
     0
 43
0.0
 10
39.36999676038049
 20
126.4361131987783
 10
39.45466536489219
 20
125.758775128608
 10
39.45466536489219
 20
126.0127755591815
 10
39.53933127792306
 20
126.0127755591815
 10
39.53933127792306
 20
126.0974387807315
 10
39.62399719095392
 20
126.1821127682049
 10
39.70866310398479
 20
126.2667759897549
 10
39.79333170849649
 20
126.2667759897549
 10
39.87799762152736
 20
126.2667759897549
 10
39.96266353455822
 20
126.2667759897549
 10
40.04733213906993
 20
126.2667759897549
 10
40.13199805210079
 20
126.2667759897549
 10
40.21666396513165
 20
126.2667759897549
 10
40.30132987816251
 20
126.2667759897549
 10
40.30132987816251
 20
126.1821127682049
 10
40.38599848267423
 20
126.1821127682049
 10
40.47066439570509
 20
126.1821127682049
 10
40.47066439570509
 20
126.0974387807315
 10
40.55533030873595
 20
126.0127755591815
 10
40.55533030873595
 20
125.9281123376315
 10
40.55533030873595
 20
125.843438350158
 10
40.63999891324766
 20
125.758775128608
 10
40.63999891324766
 20
126.3514392113049
 10
40.55533030873595
 20
126.4361131987783
 10
40.47066439570509
 20
126.4361131987783
 10
40.38599848267423
 20
126.5207764203283
 10
40.30132987816251
 20
126.5207764203283
 10
40.21666396513165
 20
126.6054396418784
 10
40.13199805210079
 20
126.6054396418784
 10
40.04733213906993
 20
126.6054396418784
 10
39.96266353455822
 20
126.6054396418784
 10
39.87799762152736
 20
126.6054396418784
 10
39.79333170849649
 20
126.6054396418784
 10
39.70866310398479
 20
126.6054396418784
 10
39.62399719095392
 20
126.6054396418784
 10
39.62399719095392
 20
126.5207764203283
 10
39.53933127792306
 20
126.5207764203283
 10
39.45466536489219
 20
126.5207764203283
 10
39.45466536489219
 20
126.4361131987783
  0
HATCH
  5
CB
330
70
100
AcDbEntity
  8
Capa 1
 62
    18
420
        0
440
 33554687
100
AcDbHatch
 10
0.0
 20
0.0
 30
0.0
210
0.0
220
0.0
230
1.0
  2
SOLID
 70
     1
 71
     1
 91
        1
 92
        3
 72
     0
 73
     1
 93
       39
 10
39.36999676038049
 20
126.4361131987783
 10
39.45466536489219
 20
125.758775128608
 10
39.45466536489219
 20
126.0127755591815
 10
39.53933127792306
 20
126.0127755591815
 10
39.53933127792306
 20
126.0974387807315
 10
39.62399719095392
 20
126.1821127682049
 10
39.70866310398479
 20
126.2667759897549
 10
39.79333170849649
 20
126.2667759897549
 10
39.87799762152736
 20
126.2667759897549
 10
39.96266353455822
 20
126.2667759897549
 10
40.04733213906993
 20
126.2667759897549
 10
40.13199805210079
 20
126.2667759897549
 10
40.21666396513165
 20
126.2667759897549
 10
40.30132987816251
 20
126.2667759897549
 10
40.30132987816251
 20
126.1821127682049
 10
40.38599848267423
 20
126.1821127682049
 10
40.47066439570509
 20
126.1821127682049
 10
40.47066439570509
 20
126.0974387807315
 10
40.55533030873595
 20
126.0127755591815
 10
40.55533030873595
 20
125.9281123376315
 10
40.55533030873595
 20
125.843438350158
 10
40.63999891324766
 20
125.758775128608
 10
40.63999891324766
 20
126.3514392113049
 10
40.55533030873595
 20
126.4361131987783
 10
40.47066439570509
 20
126.4361131987783
 10
40.38599848267423
 20
126.5207764203283
 10
40.30132987816251
 20
126.5207764203283
 10
40.21666396513165
 20
126.6054396418784
 10
40.13199805210079
 20
126.6054396418784
 10
40.04733213906993
 20
126.6054396418784
 10
39.96266353455822
 20
126.6054396418784
 10
39.87799762152736
 20
126.6054396418784
 10
39.79333170849649
 20
126.6054396418784
 10
39.70866310398479
 20
126.6054396418784
 10
39.62399719095392
 20
126.6054396418784
 10
39.62399719095392
 20
126.5207764203283
 10
39.53933127792306
 20
126.5207764203283
 10
39.45466536489219
 20
126.5207764203283
 10
39.45466536489219
 20
126.4361131987783
 97
        0
 75
     0
 76
     1
 98
        1
 10
0.0
 20
0.0
450
        0
451
        0
460
0.0
461
0.0
452
        0
462
0.0
453
        0
470

  0
LWPOLYLINE
  5
CC
330
70
100
AcDbEntity
  8
Capa 1
100
AcDbPolyline
 90
       12
 70
     0
 43
0.0
 10
39.20066493431876
 20
125.843438350158
 10
39.20066493431876
 20
125.843438350158
 10
39.20066493431876
 20
125.5894379195846
 10
39.28533084734962
 20
125.5047746980346
 10
39.28533084734962
 20
125.4201114764846
 10
39.28533084734962
 20
125.3354374890112
 10
39.36999676038049
 20
126.3514392113049
 10
39.28533084734962
 20
126.2667759897549
 10
39.20066493431876
 20
126.1821127682049
 10
39.20066493431876
 20
126.0974387807315
 10
39.20066493431876
 20
126.0127755591815
 10
39.20066493431876
 20
125.9281123376315
  0
HATCH
  5
CD
330
70
100
AcDbEntity
  8
Capa 1
 62
    18
420
        0
440
 33554687
100
AcDbHatch
 10
0.0
 20
0.0
 30
0.0
210
0.0
220
0.0
230
1.0
  2
SOLID
 70
     1
 71
     1
 91
        1
 92
        3
 72
     0
 73
     1
 93
       12
 10
39.20066493431876
 20
125.843438350158
 10
39.20066493431876
 20
125.843438350158
 10
39.20066493431876
 20
125.5894379195846
 10
39.28533084734962
 20
125.5047746980346
 10
39.28533084734962
 20
125.4201114764846
 10
39.28533084734962
 20
125.3354374890112
 10
39.36999676038049
 20
126.3514392113049
 10
39.28533084734962
 20
126.2667759897549
 10
39.20066493431876
 20
126.1821127682049
 10
39.20066493431876
 20
126.0974387807315
 10
39.20066493431876
 20
126.0127755591815
 10
39.20066493431876
 20
125.9281123376315
 97
        0
 75
     0
 76
     1
 98
        1
 10
0.0
 20
0.0
450
        0
451
        0
460
0.0
461
0.0
452
        0
462
0.0
453
        0
470

  0
LWPOLYLINE
  5
CE
330
70
100
AcDbEntity
  8
Capa 1
100
AcDbPolyline
 90
       16
 70
     0
 43
0.0
 10
38.35399772956759
 20
126.5207764203283
 10
38.35399772956759
 20
125.2507742674612
 10
39.62399719095392
 20
124.9967738368877
 10
39.70866310398479
 20
125.3354374890112
 10
39.62399719095392
 20
125.3354374890112
 10
39.53933127792306
 20
125.4201114764846
 10
39.53933127792306
 20
125.5047746980346
 10
39.45466536489219
 20
125.5047746980346
 10
39.45466536489219
 20
125.5894379195846
 10
39.45466536489219
 20
125.674111907058
 10
39.45466536489219
 20
125.758775128608
 10
39.36999676038049
 20
126.4361131987783
 10
39.36999676038049
 20
126.3514392113049
 10
39.28533084734962
 20
125.3354374890112
 10
38.60799816014102
 20
125.5047746980346
 10
38.60799816014102
 20
126.5207764203283
  0
HATCH
  5
CF
330
70
100
AcDbEntity
  8
Capa 1
 62
    18
420
        0
440
 33554687
100
AcDbHatch
 10
0.0
 20
0.0
 30
0.0
210
0.0
220
0.0
230
1.0
  2
SOLID
 70
     1
 71
     1
 91
        1
 92
        3
 72
     0
 73
     1
 93
       16
 10
38.35399772956759
 20
126.5207764203283
 10
38.35399772956759
 20
125.2507742674612
 10
39.62399719095392
 20
124.9967738368877
 10
39.70866310398479
 20
125.3354374890112
 10
39.62399719095392
 20
125.3354374890112
 10
39.53933127792306
 20
125.4201114764846
 10
39.53933127792306
 20
125.5047746980346
 10
39.45466536489219
 20
125.5047746980346
 10
39.45466536489219
 20
125.5894379195846
 10
39.45466536489219
 20
125.674111907058
 10
39.45466536489219
 20
125.758775128608
 10
39.36999676038049
 20
126.4361131987783
 10
39.36999676038049
 20
126.3514392113049
 10
39.28533084734962
 20
125.3354374890112
 10
38.60799816014102
 20
125.5047746980346
 10
38.60799816014102
 20
126.5207764203283
 97
        0
 75
     0
 76
     1
 98
        1
 10
0.0
 20
0.0
450
        0
451
        0
460
0.0
461
0.0
452
        0
462
0.0
453
        0
470

  0
LWPOLYLINE
  5
D0
330
70
100
AcDbEntity
  8
Capa 1
100
AcDbPolyline
 90
       50
 70
     0
 43
0.0
 10
39.62399719095392
 20
128.2987794343424
 10
39.62399719095392
 20
127.7061045857221
 10
39.62399719095392
 20
127.9601050162955
 10
39.70866310398479
 20
128.044779003769
 10
39.70866310398479
 20
128.129442225319
 10
39.79333170849649
 20
128.129442225319
 10
39.87799762152736
 20
128.214105446869
 10
39.96266353455822
 20
128.214105446869
 10
40.04733213906993
 20
128.214105446869
 10
40.13199805210079
 20
128.214105446869
 10
40.21666396513165
 20
128.214105446869
 10
40.30132987816251
 20
128.214105446869
 10
40.38599848267423
 20
128.214105446869
 10
40.38599848267423
 20
128.129442225319
 10
40.47066439570509
 20
128.129442225319
 10
40.47066439570509
 20
128.044779003769
 10
40.55533030873595
 20
127.9601050162955
 10
40.55533030873595
 20
127.8754417947455
 10
40.55533030873595
 20
127.7907785731955
 10
40.63999891324766
 20
127.7061045857221
 10
40.63999891324766
 20
127.1134405030252
 10
40.63999891324766
 20
127.1981037245752
 10
40.72466482627852
 20
127.1981037245752
 10
40.72466482627852
 20
127.2827777120487
 10
40.72466482627852
 20
127.3674409335987
 10
40.80933073930938
 20
127.3674409335987
 10
40.80933073930938
 20
127.4521041551487
 10
40.80933073930938
 20
127.5367781426221
 10
40.80933073930938
 20
127.6214413641721
 10
40.89399665234025
 20
127.7061045857221
 10
40.80933073930938
 20
127.7907785731955
 10
40.80933073930938
 20
127.8754417947455
 10
40.80933073930938
 20
127.9601050162955
 10
40.80933073930938
 20
128.044779003769
 10
40.80933073930938
 20
128.129442225319
 10
40.72466482627852
 20
128.214105446869
 10
40.63999891324766
 20
128.2987794343424
 10
40.55533030873595
 20
128.3834426558924
 10
40.47066439570509
 20
128.4681058774424
 10
40.38599848267423
 20
128.4681058774424
 10
40.30132987816251
 20
128.5527798649158
 10
40.21666396513165
 20
128.5527798649158
 10
40.13199805210079
 20
128.5527798649158
 10
40.04733213906993
 20
128.5527798649158
 10
39.96266353455822
 20
128.5527798649158
 10
39.87799762152736
 20
128.5527798649158
 10
39.79333170849649
 20
128.4681058774424
 10
39.70866310398479
 20
128.4681058774424
 10
39.70866310398479
 20
128.3834426558924
 10
39.62399719095392
 20
128.3834426558924
  0
HATCH
  5
D1
330
70
100
AcDbEntity
  8
Capa 1
 62
    18
420
        0
440
 33554687
100
AcDbHatch
 10
0.0
 20
0.0
 30
0.0
210
0.0
220
0.0
230
1.0
  2
SOLID
 70
     1
 71
     1
 91
        1
 92
        3
 72
     0
 73
     1
 93
       50
 10
39.62399719095392
 20
128.2987794343424
 10
39.62399719095392
 20
127.7061045857221
 10
39.62399719095392
 20
127.9601050162955
 10
39.70866310398479
 20
128.044779003769
 10
39.70866310398479
 20
128.129442225319
 10
39.79333170849649
 20
128.129442225319
 10
39.87799762152736
 20
128.214105446869
 10
39.96266353455822
 20
128.214105446869
 10
40.04733213906993
 20
128.214105446869
 10
40.13199805210079
 20
128.214105446869
 10
40.21666396513165
 20
128.214105446869
 10
40.30132987816251
 20
128.214105446869
 10
40.38599848267423
 20
128.214105446869
 10
40.38599848267423
 20
128.129442225319
 10
40.47066439570509
 20
128.129442225319
 10
40.47066439570509
 20
128.044779003769
 10
40.55533030873595
 20
127.9601050162955
 10
40.55533030873595
 20
127.8754417947455
 10
40.55533030873595
 20
127.7907785731955
 10
40.63999891324766
 20
127.7061045857221
 10
40.63999891324766
 20
127.1134405030252
 10
40.63999891324766
 20
127.1981037245752
 10
40.72466482627852
 20
127.1981037245752
 10
40.72466482627852
 20
127.2827777120487
 10
40.72466482627852
 20
127.3674409335987
 10
40.80933073930938
 20
127.3674409335987
 10
40.80933073930938
 20
127.4521041551487
 10
40.80933073930938
 20
127.5367781426221
 10
40.80933073930938
 20
127.6214413641721
 10
40.89399665234025
 20
127.7061045857221
 10
40.80933073930938
 20
127.7907785731955
 10
40.80933073930938
 20
127.8754417947455
 10
40.80933073930938
 20
127.9601050162955
 10
40.80933073930938
 20
128.044779003769
 10
40.80933073930938
 20
128.129442225319
 10
40.72466482627852
 20
128.214105446869
 10
40.63999891324766
 20
128.2987794343424
 10
40.55533030873595
 20
128.3834426558924
 10
40.47066439570509
 20
128.4681058774424
 10
40.38599848267423
 20
128.4681058774424
 10
40.30132987816251
 20
128.5527798649158
 10
40.21666396513165
 20
128.5527798649158
 10
40.13199805210079
 20
128.5527798649158
 10
40.04733213906993
 20
128.5527798649158
 10
39.96266353455822
 20
128.5527798649158
 10
39.87799762152736
 20
128.5527798649158
 10
39.79333170849649
 20
128.4681058774424
 10
39.70866310398479
 20
128.4681058774424
 10
39.70866310398479
 20
128.3834426558924
 10
39.62399719095392
 20
128.3834426558924
 97
        0
 75
     0
 76
     1
 98
        1
 10
0.0
 20
0.0
450
        0
451
        0
460
0.0
461
0.0
452
        0
462
0.0
453
        0
470

  0
LWPOLYLINE
  5
D2
330
70
100
AcDbEntity
  8
Capa 1
100
AcDbPolyline
 90
       26
 70
     0
 43
0.0
 10
38.52333224711016
 20
128.2987794343424
 10
38.52333224711016
 20
127.7061045857221
 10
38.60799816014102
 20
127.7907785731955
 10
38.60799816014102
 20
127.9601050162955
 10
38.69266407317189
 20
128.044779003769
 10
38.77732998620275
 20
128.129442225319
 10
38.86199859071446
 20
128.129442225319
 10
38.94666450374533
 20
128.129442225319
 10
39.03133041677619
 20
128.129442225319
 10
39.1159990212879
 20
128.129442225319
 10
39.20066493431876
 20
128.044779003769
 10
39.28533084734962
 20
127.9601050162955
 10
39.28533084734962
 20
127.8754417947455
 10
39.36999676038049
 20
127.7907785731955
 10
39.36999676038049
 20
127.7061045857221
 10
39.36999676038049
 20
128.2987794343424
 10
39.28533084734962
 20
128.2987794343424
 10
39.28533084734962
 20
128.3834426558924
 10
39.20066493431876
 20
128.3834426558924
 10
39.1159990212879
 20
128.4681058774424
 10
39.03133041677619
 20
128.4681058774424
 10
38.94666450374533
 20
128.4681058774424
 10
38.86199859071446
 20
128.4681058774424
 10
38.77732998620275
 20
128.4681058774424
 10
38.69266407317189
 20
128.3834426558924
 10
38.60799816014102
 20
128.3834426558924
  0
HATCH
  5
D3
330
70
100
AcDbEntity
  8
Capa 1
 62
    18
420
        0
440
 33554687
100
AcDbHatch
 10
0.0
 20
0.0
 30
0.0
210
0.0
220
0.0
230
1.0
  2
SOLID
 70
     1
 71
     1
 91
        1
 92
        3
 72
     0
 73
     1
 93
       26
 10
38.52333224711016
 20
128.2987794343424
 10
38.52333224711016
 20
127.7061045857221
 10
38.60799816014102
 20
127.7907785731955
 10
38.60799816014102
 20
127.9601050162955
 10
38.69266407317189
 20
128.044779003769
 10
38.77732998620275
 20
128.129442225319
 10
38.86199859071446
 20
128.129442225319
 10
38.94666450374533
 20
128.129442225319
 10
39.03133041677619
 20
128.129442225319
 10
39.1159990212879
 20
128.129442225319
 10
39.20066493431876
 20
128.044779003769
 10
39.28533084734962
 20
127.9601050162955
 10
39.28533084734962
 20
127.8754417947455
 10
39.36999676038049
 20
127.7907785731955
 10
39.36999676038049
 20
127.7061045857221
 10
39.36999676038049
 20
128.2987794343424
 10
39.28533084734962
 20
128.2987794343424
 10
39.28533084734962
 20
128.3834426558924
 10
39.20066493431876
 20
128.3834426558924
 10
39.1159990212879
 20
128.4681058774424
 10
39.03133041677619
 20
128.4681058774424
 10
38.94666450374533
 20
128.4681058774424
 10
38.86199859071446
 20
128.4681058774424
 10
38.77732998620275
 20
128.4681058774424
 10
38.69266407317189
 20
128.3834426558924
 10
38.60799816014102
 20
128.3834426558924
 97
        0
 75
     0
 76
     1
 98
        1
 10
0.0
 20
0.0
450
        0
451
        0
460
0.0
461
0.0
452
        0
462
0.0
453
        0
470

  0
LWPOLYLINE
  5
D4
330
70
100
AcDbEntity
  8
Capa 1
100
AcDbPolyline
 90
       91
 70
     0
 43
0.0
 10
38.35399772956759
 20
127.7061045857221
 10
38.35399772956759
 20
127.7061045857221
 10
38.35399772956759
 20
127.3674409335987
 10
38.43866364259845
 20
127.2827777120487
 10
38.52333224711016
 20
127.1981037245752
 10
38.60799816014102
 20
127.1134405030252
 10
38.69266407317189
 20
127.0287772814752
 10
38.77732998620275
 20
127.0287772814752
 10
38.86199859071446
 20
127.0287772814752
 10
38.94666450374533
 20
127.0287772814752
 10
39.03133041677619
 20
127.0287772814752
 10
39.1159990212879
 20
127.0287772814752
 10
39.20066493431876
 20
127.1134405030252
 10
39.28533084734962
 20
127.1134405030252
 10
39.36999676038049
 20
127.1981037245752
 10
39.36999676038049
 20
127.2827777120487
 10
39.45466536489219
 20
127.2827777120487
 10
39.45466536489219
 20
127.3674409335987
 10
39.45466536489219
 20
127.2827777120487
 10
39.53933127792306
 20
127.2827777120487
 10
39.53933127792306
 20
127.1981037245752
 10
39.62399719095392
 20
127.1134405030252
 10
39.70866310398479
 20
127.0287772814752
 10
39.79333170849649
 20
127.0287772814752
 10
39.79333170849649
 20
126.9441140599252
 10
39.87799762152736
 20
126.9441140599252
 10
39.96266353455822
 20
126.9441140599252
 10
40.04733213906993
 20
126.9441140599252
 10
40.13199805210079
 20
126.9441140599252
 10
40.21666396513165
 20
126.9441140599252
 10
40.30132987816251
 20
126.9441140599252
 10
40.38599848267423
 20
126.9441140599252
 10
40.47066439570509
 20
127.0287772814752
 10
40.55533030873595
 20
127.0287772814752
 10
40.55533030873595
 20
127.1134405030252
 10
40.63999891324766
 20
127.1134405030252
 10
40.63999891324766
 20
127.7061045857221
 10
40.55533030873595
 20
127.7061045857221
 10
40.55533030873595
 20
127.6214413641721
 10
40.55533030873595
 20
127.5367781426221
 10
40.55533030873595
 20
127.4521041551487
 10
40.47066439570509
 20
127.4521041551487
 10
40.47066439570509
 20
127.3674409335987
 10
40.38599848267423
 20
127.3674409335987
 10
40.38599848267423
 20
127.2827777120487
 10
40.30132987816251
 20
127.2827777120487
 10
40.21666396513165
 20
127.2827777120487
 10
40.13199805210079
 20
127.1981037245752
 10
40.04733213906993
 20
127.1981037245752
 10
39.96266353455822
 20
127.2827777120487
 10
39.87799762152736
 20
127.2827777120487
 10
39.79333170849649
 20
127.3674409335987
 10
39.70866310398479
 20
127.3674409335987
 10
39.70866310398479
 20
127.4521041551487
 10
39.62399719095392
 20
127.4521041551487
 10
39.62399719095392
 20
127.5367781426221
 10
39.62399719095392
 20
127.6214413641721
 10
39.62399719095392
 20
127.7061045857221
 10
39.62399719095392
 20
128.2987794343424
 10
39.53933127792306
 20
128.2987794343424
 10
39.53933127792306
 20
128.214105446869
 10
39.45466536489219
 20
128.129442225319
 10
39.45466536489219
 20
128.044779003769
 10
39.45466536489219
 20
128.129442225319
 10
39.36999676038049
 20
128.214105446869
 10
39.36999676038049
 20
128.2987794343424
 10
39.36999676038049
 20
127.7061045857221
 10
39.36999676038049
 20
127.6214413641721
 10
39.28533084734962
 20
127.5367781426221
 10
39.28533084734962
 20
127.4521041551487
 10
39.20066493431876
 20
127.4521041551487
 10
39.20066493431876
 20
127.3674409335987
 10
39.1159990212879
 20
127.3674409335987
 10
39.03133041677619
 20
127.3674409335987
 10
38.94666450374533
 20
127.3674409335987
 10
38.86199859071446
 20
127.3674409335987
 10
38.77732998620275
 20
127.3674409335987
 10
38.69266407317189
 20
127.3674409335987
 10
38.69266407317189
 20
127.4521041551487
 10
38.60799816014102
 20
127.4521041551487
 10
38.60799816014102
 20
127.5367781426221
 10
38.60799816014102
 20
127.6214413641721
 10
38.52333224711016
 20
127.7061045857221
 10
38.52333224711016
 20
128.2987794343424
 10
38.52333224711016
 20
128.214105446869
 10
38.43866364259845
 20
128.214105446869
 10
38.43866364259845
 20
128.129442225319
 10
38.35399772956759
 20
128.044779003769
 10
38.35399772956759
 20
127.9601050162955
 10
38.35399772956759
 20
127.8754417947455
 10
38.35399772956759
 20
127.7907785731955
  0
HATCH
  5
D5
330
70
100
AcDbEntity
  8
Capa 1
 62
    18
420
        0
440
 33554687
100
AcDbHatch
 10
0.0
 20
0.0
 30
0.0
210
0.0
220
0.0
230
1.0
  2
SOLID
 70
     1
 71
     1
 91
        1
 92
        3
 72
     0
 73
     1
 93
       91
 10
38.35399772956759
 20
127.7061045857221
 10
38.35399772956759
 20
127.7061045857221
 10
38.35399772956759
 20
127.3674409335987
 10
38.43866364259845
 20
127.2827777120487
 10
38.52333224711016
 20
127.1981037245752
 10
38.60799816014102
 20
127.1134405030252
 10
38.69266407317189
 20
127.0287772814752
 10
38.77732998620275
 20
127.0287772814752
 10
38.86199859071446
 20
127.0287772814752
 10
38.94666450374533
 20
127.0287772814752
 10
39.03133041677619
 20
127.0287772814752
 10
39.1159990212879
 20
127.0287772814752
 10
39.20066493431876
 20
127.1134405030252
 10
39.28533084734962
 20
127.1134405030252
 10
39.36999676038049
 20
127.1981037245752
 10
39.36999676038049
 20
127.2827777120487
 10
39.45466536489219
 20
127.2827777120487
 10
39.45466536489219
 20
127.3674409335987
 10
39.45466536489219
 20
127.2827777120487
 10
39.53933127792306
 20
127.2827777120487
 10
39.53933127792306
 20
127.1981037245752
 10
39.62399719095392
 20
127.1134405030252
 10
39.70866310398479
 20
127.0287772814752
 10
39.79333170849649
 20
127.0287772814752
 10
39.79333170849649
 20
126.9441140599252
 10
39.87799762152736
 20
126.9441140599252
 10
39.96266353455822
 20
126.9441140599252
 10
40.04733213906993
 20
126.9441140599252
 10
40.13199805210079
 20
126.9441140599252
 10
40.21666396513165
 20
126.9441140599252
 10
40.30132987816251
 20
126.9441140599252
 10
40.38599848267423
 20
126.9441140599252
 10
40.47066439570509
 20
127.0287772814752
 10
40.55533030873595
 20
127.0287772814752
 10
40.55533030873595
 20
127.1134405030252
 10
40.63999891324766
 20
127.1134405030252
 10
40.63999891324766
 20
127.7061045857221
 10
40.55533030873595
 20
127.7061045857221
 10
40.55533030873595
 20
127.6214413641721
 10
40.55533030873595
 20
127.5367781426221
 10
40.55533030873595
 20
127.4521041551487
 10
40.47066439570509
 20
127.4521041551487
 10
40.47066439570509
 20
127.3674409335987
 10
40.38599848267423
 20
127.3674409335987
 10
40.38599848267423
 20
127.2827777120487
 10
40.30132987816251
 20
127.2827777120487
 10
40.21666396513165
 20
127.2827777120487
 10
40.13199805210079
 20
127.1981037245752
 10
40.04733213906993
 20
127.1981037245752
 10
39.96266353455822
 20
127.2827777120487
 10
39.87799762152736
 20
127.2827777120487
 10
39.79333170849649
 20
127.3674409335987
 10
39.70866310398479
 20
127.3674409335987
 10
39.70866310398479
 20
127.4521041551487
 10
39.62399719095392
 20
127.4521041551487
 10
39.62399719095392
 20
127.5367781426221
 10
39.62399719095392
 20
127.6214413641721
 10
39.62399719095392
 20
127.7061045857221
 10
39.62399719095392
 20
128.2987794343424
 10
39.53933127792306
 20
128.2987794343424
 10
39.53933127792306
 20
128.214105446869
 10
39.45466536489219
 20
128.129442225319
 10
39.45466536489219
 20
128.044779003769
 10
39.45466536489219
 20
128.129442225319
 10
39.36999676038049
 20
128.214105446869
 10
39.36999676038049
 20
128.2987794343424
 10
39.36999676038049
 20
127.7061045857221
 10
39.36999676038049
 20
127.6214413641721
 10
39.28533084734962
 20
127.5367781426221
 10
39.28533084734962
 20
127.4521041551487
 10
39.20066493431876
 20
127.4521041551487
 10
39.20066493431876
 20
127.3674409335987
 10
39.1159990212879
 20
127.3674409335987
 10
39.03133041677619
 20
127.3674409335987
 10
38.94666450374533
 20
127.3674409335987
 10
38.86199859071446
 20
127.3674409335987
 10
38.77732998620275
 20
127.3674409335987
 10
38.69266407317189
 20
127.3674409335987
 10
38.69266407317189
 20
127.4521041551487
 10
38.60799816014102
 20
127.4521041551487
 10
38.60799816014102
 20
127.5367781426221
 10
38.60799816014102
 20
127.6214413641721
 10
38.52333224711016
 20
127.7061045857221
 10
38.52333224711016
 20
128.2987794343424
 10
38.52333224711016
 20
128.214105446869
 10
38.43866364259845
 20
128.214105446869
 10
38.43866364259845
 20
128.129442225319
 10
38.35399772956759
 20
128.044779003769
 10
38.35399772956759
 20
127.9601050162955
 10
38.35399772956759
 20
127.8754417947455
 10
38.35399772956759
 20
127.7907785731955
 97
        0
 75
     0
 76
     1
 98
        1
 10
0.0
 20
0.0
450
        0
451
        0
460
0.0
461
0.0
452
        0
462
0.0
453
        0
470

  0
LWPOLYLINE
  5
D6
330
70
100
AcDbEntity
  8
Capa 1
100
AcDbPolyline
 90
       58
 70
     0
 43
0.0
 10
38.52333224711016
 20
129.1454439476127
 10
38.60799816014102
 20
129.0607807260627
 10
38.69266407317189
 20
129.0607807260627
 10
38.77732998620275
 20
128.9761067385893
 10
38.86199859071446
 20
128.9761067385893
 10
38.94666450374533
 20
128.9761067385893
 10
39.03133041677619
 20
128.8914435170393
 10
39.1159990212879
 20
128.8914435170393
 10
39.20066493431876
 20
128.8914435170393
 10
39.28533084734962
 20
128.8914435170393
 10
39.36999676038049
 20
128.8914435170393
 10
39.45466536489219
 20
128.8914435170393
 10
39.53933127792306
 20
128.8914435170393
 10
39.62399719095392
 20
128.8914435170393
 10
39.70866310398479
 20
128.8914435170393
 10
39.79333170849649
 20
128.8914435170393
 10
39.87799762152736
 20
128.8914435170393
 10
39.96266353455822
 20
128.8914435170393
 10
40.04733213906993
 20
128.8914435170393
 10
40.13199805210079
 20
128.8914435170393
 10
40.21666396513165
 20
128.9761067385893
 10
40.30132987816251
 20
128.9761067385893
 10
40.38599848267423
 20
128.9761067385893
 10
40.47066439570509
 20
129.0607807260627
 10
40.55533030873595
 20
129.0607807260627
 10
40.55533030873595
 20
129.1454439476127
 10
40.63999891324766
 20
129.1454439476127
 10
40.63999891324766
 20
129.6534448087596
 10
40.55533030873595
 20
129.5687708212862
 10
40.55533030873595
 20
129.4841075997362
 10
40.47066439570509
 20
129.3994443781861
 10
40.38599848267423
 20
129.3147703907127
 10
40.30132987816251
 20
129.3147703907127
 10
40.30132987816251
 20
129.2301071691627
 10
40.21666396513165
 20
129.2301071691627
 10
40.13199805210079
 20
129.2301071691627
 10
40.04733213906993
 20
129.2301071691627
 10
39.96266353455822
 20
129.2301071691627
 10
39.87799762152736
 20
129.2301071691627
 10
39.79333170849649
 20
129.1454439476127
 10
39.70866310398479
 20
129.1454439476127
 10
39.62399719095392
 20
129.1454439476127
 10
39.53933127792306
 20
129.1454439476127
 10
39.45466536489219
 20
129.1454439476127
 10
39.36999676038049
 20
129.1454439476127
 10
39.28533084734962
 20
129.2301071691627
 10
39.20066493431876
 20
129.2301071691627
 10
39.1159990212879
 20
129.2301071691627
 10
39.03133041677619
 20
129.2301071691627
 10
38.94666450374533
 20
129.2301071691627
 10
38.86199859071446
 20
129.2301071691627
 10
38.86199859071446
 20
129.3147703907127
 10
38.77732998620275
 20
129.3147703907127
 10
38.69266407317189
 20
129.3994443781861
 10
38.60799816014102
 20
129.3994443781861
 10
38.60799816014102
 20
129.4841075997362
 10
38.60799816014102
 20
129.5687708212862
 10
38.60799816014102
 20
129.6534448087596
  0
HATCH
  5
D7
330
70
100
AcDbEntity
  8
Capa 1
 62
    18
420
        0
440
 33554687
100
AcDbHatch
 10
0.0
 20
0.0
 30
0.0
210
0.0
220
0.0
230
1.0
  2
SOLID
 70
     1
 71
     1
 91
        1
 92
        3
 72
     0
 73
     1
 93
       58
 10
38.52333224711016
 20
129.1454439476127
 10
38.60799816014102
 20
129.0607807260627
 10
38.69266407317189
 20
129.0607807260627
 10
38.77732998620275
 20
128.9761067385893
 10
38.86199859071446
 20
128.9761067385893
 10
38.94666450374533
 20
128.9761067385893
 10
39.03133041677619
 20
128.8914435170393
 10
39.1159990212879
 20
128.8914435170393
 10
39.20066493431876
 20
128.8914435170393
 10
39.28533084734962
 20
128.8914435170393
 10
39.36999676038049
 20
128.8914435170393
 10
39.45466536489219
 20
128.8914435170393
 10
39.53933127792306
 20
128.8914435170393
 10
39.62399719095392
 20
128.8914435170393
 10
39.70866310398479
 20
128.8914435170393
 10
39.79333170849649
 20
128.8914435170393
 10
39.87799762152736
 20
128.8914435170393
 10
39.96266353455822
 20
128.8914435170393
 10
40.04733213906993
 20
128.8914435170393
 10
40.13199805210079
 20
128.8914435170393
 10
40.21666396513165
 20
128.9761067385893
 10
40.30132987816251
 20
128.9761067385893
 10
40.38599848267423
 20
128.9761067385893
 10
40.47066439570509
 20
129.0607807260627
 10
40.55533030873595
 20
129.0607807260627
 10
40.55533030873595
 20
129.1454439476127
 10
40.63999891324766
 20
129.1454439476127
 10
40.63999891324766
 20
129.6534448087596
 10
40.55533030873595
 20
129.5687708212862
 10
40.55533030873595
 20
129.4841075997362
 10
40.47066439570509
 20
129.3994443781861
 10
40.38599848267423
 20
129.3147703907127
 10
40.30132987816251
 20
129.3147703907127
 10
40.30132987816251
 20
129.2301071691627
 10
40.21666396513165
 20
129.2301071691627
 10
40.13199805210079
 20
129.2301071691627
 10
40.04733213906993
 20
129.2301071691627
 10
39.96266353455822
 20
129.2301071691627
 10
39.87799762152736
 20
129.2301071691627
 10
39.79333170849649
 20
129.1454439476127
 10
39.70866310398479
 20
129.1454439476127
 10
39.62399719095392
 20
129.1454439476127
 10
39.53933127792306
 20
129.1454439476127
 10
39.45466536489219
 20
129.1454439476127
 10
39.36999676038049
 20
129.1454439476127
 10
39.28533084734962
 20
129.2301071691627
 10
39.20066493431876
 20
129.2301071691627
 10
39.1159990212879
 20
129.2301071691627
 10
39.03133041677619
 20
129.2301071691627
 10
38.94666450374533
 20
129.2301071691627
 10
38.86199859071446
 20
129.2301071691627
 10
38.86199859071446
 20
129.3147703907127
 10
38.77732998620275
 20
129.3147703907127
 10
38.69266407317189
 20
129.3994443781861
 10
38.60799816014102
 20
129.3994443781861
 10
38.60799816014102
 20
129.4841075997362
 10
38.60799816014102
 20
129.5687708212862
 10
38.60799816014102
 20
129.6534448087596
 97
        0
 75
     0
 76
     1
 98
        1
 10
0.0
 20
0.0
450
        0
451
        0
460
0.0
461
0.0
452
        0
462
0.0
453
        0
470

  0
LWPOLYLINE
  5
D8
330
70
100
AcDbEntity
  8
Capa 1
100
AcDbPolyline
 90
       86
 70
     0
 43
0.0
 10
38.35399772956759
 20
129.6534448087596
 10
38.35399772956759
 20
129.6534448087596
 10
38.35399772956759
 20
129.3147703907127
 10
38.43866364259845
 20
129.3147703907127
 10
38.43866364259845
 20
129.2301071691627
 10
38.52333224711016
 20
129.1454439476127
 10
38.60799816014102
 20
129.6534448087596
 10
38.60799816014102
 20
129.7381080303096
 10
38.60799816014102
 20
129.8227712518596
 10
38.60799816014102
 20
129.907445239333
 10
38.69266407317189
 20
129.907445239333
 10
38.69266407317189
 20
129.992108460883
 10
38.77732998620275
 20
129.992108460883
 10
38.77732998620275
 20
130.0767716824331
 10
38.86199859071446
 20
130.0767716824331
 10
38.94666450374533
 20
130.0767716824331
 10
39.03133041677619
 20
130.1614456699065
 10
39.1159990212879
 20
130.1614456699065
 10
39.20066493431876
 20
130.1614456699065
 10
39.28533084734962
 20
130.1614456699065
 10
39.36999676038049
 20
130.1614456699065
 10
39.45466536489219
 20
130.1614456699065
 10
39.62399719095392
 20
130.1614456699065
 10
39.70866310398479
 20
130.1614456699065
 10
39.79333170849649
 20
130.1614456699065
 10
39.87799762152736
 20
130.1614456699065
 10
39.96266353455822
 20
130.1614456699065
 10
40.04733213906993
 20
130.1614456699065
 10
40.13199805210079
 20
130.1614456699065
 10
40.21666396513165
 20
130.0767716824331
 10
40.30132987816251
 20
130.0767716824331
 10
40.38599848267423
 20
130.0767716824331
 10
40.38599848267423
 20
129.992108460883
 10
40.47066439570509
 20
129.992108460883
 10
40.55533030873595
 20
129.907445239333
 10
40.55533030873595
 20
129.8227712518596
 10
40.55533030873595
 20
129.7381080303096
 10
40.63999891324766
 20
129.6534448087596
 10
40.63999891324766
 20
129.1454439476127
 10
40.72466482627852
 20
129.2301071691627
 10
40.72466482627852
 20
129.3147703907127
 10
40.80933073930938
 20
129.3147703907127
 10
40.80933073930938
 20
129.3994443781861
 10
40.80933073930938
 20
129.4841075997362
 10
40.80933073930938
 20
129.5687708212862
 10
40.89399665234025
 20
129.6534448087596
 10
40.80933073930938
 20
129.6534448087596
 10
40.80933073930938
 20
129.7381080303096
 10
40.80933073930938
 20
129.8227712518596
 10
40.80933073930938
 20
129.907445239333
 10
40.80933073930938
 20
129.992108460883
 10
40.72466482627852
 20
130.0767716824331
 10
40.72466482627852
 20
130.1614456699065
 10
40.63999891324766
 20
130.1614456699065
 10
40.63999891324766
 20
130.2461088914565
 10
40.55533030873595
 20
130.2461088914565
 10
40.47066439570509
 20
130.3307721130065
 10
40.38599848267423
 20
130.3307721130065
 10
40.30132987816251
 20
130.4154461004799
 10
40.21666396513165
 20
130.4154461004799
 10
40.13199805210079
 20
130.4154461004799
 10
40.04733213906993
 20
130.4154461004799
 10
39.96266353455822
 20
130.5001093220299
 10
39.87799762152736
 20
130.5001093220299
 10
39.79333170849649
 20
130.5001093220299
 10
39.70866310398479
 20
130.5001093220299
 10
39.62399719095392
 20
130.5001093220299
 10
39.53933127792306
 20
130.5001093220299
 10
39.45466536489219
 20
130.5001093220299
 10
39.36999676038049
 20
130.5001093220299
 10
39.28533084734962
 20
130.5001093220299
 10
39.20066493431876
 20
130.5001093220299
 10
39.1159990212879
 20
130.4154461004799
 10
39.03133041677619
 20
130.4154461004799
 10
38.94666450374533
 20
130.4154461004799
 10
38.86199859071446
 20
130.4154461004799
 10
38.77732998620275
 20
130.3307721130065
 10
38.69266407317189
 20
130.3307721130065
 10
38.60799816014102
 20
130.2461088914565
 10
38.52333224711016
 20
130.1614456699065
 10
38.43866364259845
 20
130.1614456699065
 10
38.43866364259845
 20
130.0767716824331
 10
38.35399772956759
 20
129.992108460883
 10
38.35399772956759
 20
129.907445239333
 10
38.35399772956759
 20
129.8227712518596
 10
38.35399772956759
 20
129.7381080303096
  0
HATCH
  5
D9
330
70
100
AcDbEntity
  8
Capa 1
 62
    18
420
        0
440
 33554687
100
AcDbHatch
 10
0.0
 20
0.0
 30
0.0
210
0.0
220
0.0
230
1.0
  2
SOLID
 70
     1
 71
     1
 91
        1
 92
        3
 72
     0
 73
     1
 93
       86
 10
38.35399772956759
 20
129.6534448087596
 10
38.35399772956759
 20
129.6534448087596
 10
38.35399772956759
 20
129.3147703907127
 10
38.43866364259845
 20
129.3147703907127
 10
38.43866364259845
 20
129.2301071691627
 10
38.52333224711016
 20
129.1454439476127
 10
38.60799816014102
 20
129.6534448087596
 10
38.60799816014102
 20
129.7381080303096
 10
38.60799816014102
 20
129.8227712518596
 10
38.60799816014102
 20
129.907445239333
 10
38.69266407317189
 20
129.907445239333
 10
38.69266407317189
 20
129.992108460883
 10
38.77732998620275
 20
129.992108460883
 10
38.77732998620275
 20
130.0767716824331
 10
38.86199859071446
 20
130.0767716824331
 10
38.94666450374533
 20
130.0767716824331
 10
39.03133041677619
 20
130.1614456699065
 10
39.1159990212879
 20
130.1614456699065
 10
39.20066493431876
 20
130.1614456699065
 10
39.28533084734962
 20
130.1614456699065
 10
39.36999676038049
 20
130.1614456699065
 10
39.45466536489219
 20
130.1614456699065
 10
39.62399719095392
 20
130.1614456699065
 10
39.70866310398479
 20
130.1614456699065
 10
39.79333170849649
 20
130.1614456699065
 10
39.87799762152736
 20
130.1614456699065
 10
39.96266353455822
 20
130.1614456699065
 10
40.04733213906993
 20
130.1614456699065
 10
40.13199805210079
 20
130.1614456699065
 10
40.21666396513165
 20
130.0767716824331
 10
40.30132987816251
 20
130.0767716824331
 10
40.38599848267423
 20
130.0767716824331
 10
40.38599848267423
 20
129.992108460883
 10
40.47066439570509
 20
129.992108460883
 10
40.55533030873595
 20
129.907445239333
 10
40.55533030873595
 20
129.8227712518596
 10
40.55533030873595
 20
129.7381080303096
 10
40.63999891324766
 20
129.6534448087596
 10
40.63999891324766
 20
129.1454439476127
 10
40.72466482627852
 20
129.2301071691627
 10
40.72466482627852
 20
129.3147703907127
 10
40.80933073930938
 20
129.3147703907127
 10
40.80933073930938
 20
129.3994443781861
 10
40.80933073930938
 20
129.4841075997362
 10
40.80933073930938
 20
129.5687708212862
 10
40.89399665234025
 20
129.6534448087596
 10
40.80933073930938
 20
129.6534448087596
 10
40.80933073930938
 20
129.7381080303096
 10
40.80933073930938
 20
129.8227712518596
 10
40.80933073930938
 20
129.907445239333
 10
40.80933073930938
 20
129.992108460883
 10
40.72466482627852
 20
130.0767716824331
 10
40.72466482627852
 20
130.1614456699065
 10
40.63999891324766
 20
130.1614456699065
 10
40.63999891324766
 20
130.2461088914565
 10
40.55533030873595
 20
130.2461088914565
 10
40.47066439570509
 20
130.3307721130065
 10
40.38599848267423
 20
130.3307721130065
 10
40.30132987816251
 20
130.4154461004799
 10
40.21666396513165
 20
130.4154461004799
 10
40.13199805210079
 20
130.4154461004799
 10
40.04733213906993
 20
130.4154461004799
 10
39.96266353455822
 20
130.5001093220299
 10
39.87799762152736
 20
130.5001093220299
 10
39.79333170849649
 20
130.5001093220299
 10
39.70866310398479
 20
130.5001093220299
 10
39.62399719095392
 20
130.5001093220299
 10
39.53933127792306
 20
130.5001093220299
 10
39.45466536489219
 20
130.5001093220299
 10
39.36999676038049
 20
130.5001093220299
 10
39.28533084734962
 20
130.5001093220299
 10
39.20066493431876
 20
130.5001093220299
 10
39.1159990212879
 20
130.4154461004799
 10
39.03133041677619
 20
130.4154461004799
 10
38.94666450374533
 20
130.4154461004799
 10
38.86199859071446
 20
130.4154461004799
 10
38.77732998620275
 20
130.3307721130065
 10
38.69266407317189
 20
130.3307721130065
 10
38.60799816014102
 20
130.2461088914565
 10
38.52333224711016
 20
130.1614456699065
 10
38.43866364259845
 20
130.1614456699065
 10
38.43866364259845
 20
130.0767716824331
 10
38.35399772956759
 20
129.992108460883
 10
38.35399772956759
 20
129.907445239333
 10
38.35399772956759
 20
129.8227712518596
 10
38.35399772956759
 20
129.7381080303096
 97
        0
 75
     0
 76
     1
 98
        1
 10
0.0
 20
0.0
450
        0
451
        0
460
0.0
461
0.0
452
        0
462
0.0
453
        0
470

  0
LWPOLYLINE
  5
DA
330
70
100
AcDbEntity
  8
Capa 1
 62
    18
420
        0
370
     9
100
AcDbPolyline
 90
       30
 70
     0
 43
0.0
 10
112.2679965268375
 20
169.3621106042252
 10
112.0986593178141
 20
169.3621106042252
 10
111.8446588872406
 20
169.1927733952018
 10
111.5906584566672
 20
169.1081101736518
 10
111.3366580260938
 20
169.0234361861784
 10
110.9979943739703
 20
168.9387729646283
 10
110.6593307218469
 20
168.9387729646283
 10
110.0666558732266
 20
168.8541097430783
 10
109.3893285689797
 20
168.9387729646283
 10
109.0506541509328
 20
169.0234361861784
 10
108.7966537203594
 20
169.1081101736518
 10
108.5426640557094
 20
169.1927733952018
 10
108.2886636251359
 20
169.2774366167518
 10
108.0346631945625
 20
169.3621106042252
 10
107.9499892070891
 20
169.4467738257752
 10
107.780662763989
 20
169.5314370473252
 10
106.8493242632453
 20
170.0394379084721
 10
105.4946588888281
 20
170.8861131876658
 10
103.8013298622875
 20
171.9021041440362
 10
101.68466319615
 20
173.0874430753534
 10
99.39865932098911
 20
174.3574559941439
 10
94.40332469699379
 20
177.3207871735517
 10
89.32332685144848
 20
180.1994551314095
 10
87.03732835924924
 20
181.5541205058267
 10
84.92066169311174
 20
182.7394486712205
 10
83.22732728360939
 20
183.7554503935143
 10
81.87266190919222
 20
184.5174409193112
 10
80.94132879141019
 20
185.025441780458
 10
80.77199696534846
 20
185.1947897554049
 10
80.68732836083674
 20
185.1947897554049
  0
LWPOLYLINE
  5
DB
330
70
100
AcDbEntity
  8
Capa 1
 62
    18
420
        0
370
     9
100
AcDbPolyline
 90
       17
 70
     0
 43
0.0
 10
139.6153259776016
 20
185.1947897554049
 10
139.5306627560516
 20
185.1947897554049
 10
139.2766623254781
 20
185.025441780458
 10
138.4299870462844
 20
184.5174409193112
 10
137.0753216718672
 20
183.7554503935143
 10
135.3819926453266
 20
182.7394486712205
 10
133.2653259791891
 20
181.5541205058267
 10
130.9793221040282
 20
180.1994551314095
 10
125.8993242584828
 20
177.3207871735517
 10
120.9039896344875
 20
174.3574559941439
 10
118.61799652525
 20
173.0874430753534
 10
116.5013298591125
 20
171.9021041440362
 10
114.8079900666485
 20
170.8861131876658
 10
113.4533246922313
 20
170.0394379084721
 10
112.5219969574109
 20
169.5314370473252
 10
112.3526597483875
 20
169.4467738257752
 10
112.2679965268375
 20
169.3621106042252
  0
LWPOLYLINE
  5
DC
330
70
100
AcDbEntity
  8
Capa 1
 62
    18
420
        0
370
     9
100
AcDbPolyline
 90
       32
 70
     0
 43
0.0
 10
107.6113255549656
 20
157.678112329694
 10
107.780662763989
 20
157.5934383422205
 10
108.0346631945625
 20
157.4241118991205
 10
108.3733268466859
 20
157.3394379116471
 10
108.7119904988094
 20
157.2547746900971
 10
109.1353281384062
 20
157.1701114685471
 10
109.4739917905297
 20
157.0854374810737
 10
109.8973294301266
 20
157.0854374810737
 10
110.23599308225
 20
157.0854374810737
 10
110.6593307218469
 20
157.0854374810737
 10
110.9979943739703
 20
157.1701114685471
 10
111.4213212476438
 20
157.1701114685471
 10
111.7599956656906
 20
157.2547746900971
 10
112.0986593178141
 20
157.4241118991205
 10
112.4373229699375
 20
157.5087751206705
 10
112.691323400511
 20
157.678112329694
 10
112.7759973879844
 20
157.762775551244
 10
113.0299870526344
 20
157.847438772794
 10
113.8766623318281
 20
158.3554396339408
 10
115.1466537187719
 20
159.1174409256612
 10
116.924656732786
 20
160.1334426479549
 10
118.9566601773734
 20
161.3187708133487
 10
121.242653286611
 20
162.5887729662158
 10
126.1533246890563
 20
165.4674409240737
 10
131.0639960915016
 20
168.2614456603815
 10
133.3499892007391
 20
169.6161110347986
 10
135.3819926453266
 20
170.8014392001924
 10
137.0753216718672
 20
171.7327777009361
 10
138.4299870462844
 20
172.4947789926565
 10
139.2766623254781
 20
173.0027798538033
 10
139.4459887685782
 20
173.1721062969033
 10
139.5306627560516
 20
173.1721062969033
  0
LWPOLYLINE
  5
DD
330
70
100
AcDbEntity
  8
Capa 1
 62
    18
420
        0
370
     9
100
AcDbPolyline
 90
       16
 70
     0
 43
0.0
 10
80.77199696534846
 20
173.1721062969033
 10
81.02599739592189
 20
173.0027798538033
 10
81.87266190919222
 20
172.4947789926565
 10
83.22732728360939
 20
171.7327777009361
 10
84.92066169311174
 20
170.8014392001924
 10
86.95265975473754
 20
169.6161110347986
 10
89.23866362989846
 20
168.2614456603815
 10
94.14932426642035
 20
165.4674409240737
 10
99.05999566886565
 20
162.5887729662158
 10
101.3459887781031
 20
161.3187708133487
 10
103.3779922226906
 20
160.1334426479549
 10
105.0713212492313
 20
159.1174409256612
 10
106.4259973895719
 20
158.3554396339408
 10
107.2726619028422
 20
157.847438772794
 10
107.5266623334156
 20
157.762775551244
 10
107.6113255549656
 20
157.678112329694
  0
LWPOLYLINE
  5
DE
330
70
100
AcDbEntity
  8
Capa 1
 62
    18
420
        0
370
     9
100
AcDbPolyline
 90
        9
 70
     0
 43
0.0
 10
141.4779922131656
 20
186.0414435027518
 10
141.3933289916156
 20
186.5494443638986
 10
141.3086550041422
 20
186.8034555603955
 10
141.2239917825922
 20
186.9727820034955
 10
141.0546545735688
 20
187.2267716681456
 10
140.8853281304688
 20
187.4807828646424
 10
140.6313276998953
 20
187.6501093077424
 10
140.3773272693219
 20
187.8194357508424
 10
140.2926532818485
 20
187.9041205042392
  0
LWPOLYLINE
  5
DF
330
70
100
AcDbEntity
  8
Capa 1
 62
    18
420
        0
370
     9
100
AcDbPolyline
 90
        9
 70
     0
 43
0.0
 10
80.00999567362816
 20
187.9041205042392
 10
79.92532706911643
 20
187.8194357508424
 10
79.671326638543
 20
187.6501093077424
 10
79.16333116035783
 20
187.2267716681456
 10
79.07866255584611
 20
186.9727820034955
 10
78.90933072978438
 20
186.7187708069987
 10
78.82466212527268
 20
186.4647811423487
 10
78.82466212527268
 20
186.2107699458518
 10
78.82466212527268
 20
186.0414435027518
  0
LWPOLYLINE
  5
E0
330
70
100
AcDbEntity
  8
Capa 1
 62
    18
420
        0
370
     9
100
AcDbPolyline
 90
       10
 70
     0
 43
0.0
 10
140.8006541429953
 20
174.9501200768408
 10
140.8006541429953
 20
175.3734469505143
 10
140.8853281304688
 20
176.6434491033814
 10
140.9699913520188
 20
178.4214521173955
 10
141.1393285610422
 20
180.453455561983
 10
141.2239917825922
 20
182.4854374747237
 10
141.3933289916156
 20
184.2634512546611
 10
141.4779922131656
 20
185.5334426416049
 10
141.4779922131656
 20
185.8721170596517
 10
141.4779922131656
 20
186.0414435027518
  0
LWPOLYLINE
  5
E1
330
70
100
AcDbEntity
  8
Capa 1
 62
    18
420
        0
370
     9
100
AcDbPolyline
 90
       10
 70
     0
 43
0.0
 10
78.82466212527268
 20
186.0414435027518
 10
78.82466212527268
 20
185.5334426416049
 10
78.90933072978438
 20
184.2634512546611
 10
79.07866255584611
 20
182.4854374747237
 10
79.16333116035783
 20
180.453455561983
 10
79.24799438190785
 20
178.4214521173955
 10
79.41732620796956
 20
176.6434491033814
 10
79.50199481248127
 20
175.3734469505143
 10
79.50199481248127
 20
175.0347832983908
 10
79.50199481248127
 20
174.9501200768408
  0
LWPOLYLINE
  5
E2
330
70
100
AcDbEntity
  8
Capa 1
 62
    18
420
        0
370
     9
100
AcDbPolyline
 90
        7
 70
     0
 43
0.0
 10
140.2926532818485
 20
185.8721170596517
 10
140.2926532818485
 20
185.7874538381017
 10
140.2079900602985
 20
185.6181058631549
 10
140.038652851275
 20
185.5334426416049
 10
139.869326408175
 20
185.3641161985049
 10
139.6999891991516
 20
185.2794529769548
 10
139.6153259776016
 20
185.1947897554049
  0
LWPOLYLINE
  5
E3
330
70
100
AcDbEntity
  8
Capa 1
 62
    18
420
        0
370
     9
100
AcDbPolyline
 90
        7
 70
     0
 43
0.0
 10
80.68732836083674
 20
185.1947897554049
 10
80.60265975632503
 20
185.2794529769548
 10
80.34866470871328
 20
185.3641161985049
 10
80.17932749968988
 20
185.5334426416049
 10
80.09466427813986
 20
185.7027690847049
 10
80.00999567362816
 20
185.7874538381017
 10
80.00999567362816
 20
185.8721170596517
  0
LWPOLYLINE
  5
E4
330
70
100
AcDbEntity
  8
Capa 1
 62
    18
420
        0
370
     9
100
AcDbPolyline
 90
       34
 70
     0
 43
0.0
 10
114.8079900666485
 20
176.304785451258
 10
114.8079900666485
 20
176.1354482422346
 10
114.7233268450984
 20
175.8814478116612
 10
114.553989636075
 20
175.7121213685611
 10
114.384663192975
 20
175.4581209379877
 10
114.2153259839516
 20
175.2887837289642
 10
113.9613255533781
 20
175.0347832983908
 10
113.7073251228047
 20
174.8654460893674
 10
113.4533246922313
 20
174.6961196462674
 10
113.1146610401078
 20
174.5267824372439
 10
112.7759973879844
 20
174.4421192156939
 10
112.4373229699375
 20
174.2727820066705
 10
112.0139960962641
 20
174.1881187851205
 10
111.6753216782172
 20
174.1034555635705
 10
111.2519948045438
 20
174.0187815760971
 10
110.8286571649469
 20
174.0187815760971
 10
110.4053302912734
 20
174.0187815760971
 10
109.9819926516766
 20
174.0187815760971
 10
109.5586550120797
 20
174.0187815760971
 10
109.1353281384062
 20
174.0187815760971
 10
108.7119904988094
 20
174.1034555635705
 10
108.2886636251359
 20
174.1881187851205
 10
107.9499892070891
 20
174.2727820066705
 10
107.5266623334156
 20
174.4421192156939
 10
107.1879879153688
 20
174.5267824372439
 10
106.8493242632453
 20
174.6961196462674
 10
106.5953238326719
 20
174.8654460893674
 10
106.3413234020984
 20
175.0347832983908
 10
106.087322971525
 20
175.2041205074142
 10
105.917996528425
 20
175.4581209379877
 10
105.7486593194016
 20
175.6274473810877
 10
105.5793221103781
 20
175.8814478116612
 10
105.4946588888281
 20
176.0507850206846
 10
105.4946588888281
 20
176.304785451258
  0
LWPOLYLINE
  5
E5
330
70
100
AcDbEntity
  8
Capa 1
 62
    18
420
        0
370
     9
100
AcDbPolyline
 90
       17
 70
     0
 43
0.0
 10
140.2926532818485
 20
187.9041205042392
 10
140.2079900602985
 20
187.9887837257892
 10
139.953989629725
 20
188.0734469473392
 10
139.1073251164547
 20
188.5814478084861
 10
137.7526597420375
 20
189.343438334283
 10
135.9746567280235
 20
190.3594400565768
 10
133.857990061886
 20
191.6294529753674
 10
131.5719969526484
 20
192.8994443623111
 10
126.4919883411797
 20
195.8627863076424
 10
121.4119904956344
 20
198.7414434995768
 10
119.1259866204735
 20
200.0961196399174
 10
117.009319954336
 20
201.2814478053111
 10
115.2313277062453
 20
202.2974495276049
 10
113.8766623318281
 20
203.1441032749518
 10
113.0299870526344
 20
203.6521041360987
 10
112.7759973879844
 20
203.7367888894955
 10
112.691323400511
 20
203.8214521110455
  0
LWPOLYLINE
  5
E6
330
70
100
AcDbEntity
  8
Capa 1
 62
    18
420
        0
370
     9
100
AcDbPolyline
 90
       17
 70
     0
 43
0.0
 10
107.5266623334156
 20
203.8214521110455
 10
107.5266623334156
 20
203.7367888894955
 10
107.2726619028422
 20
203.6521041360987
 10
106.3413234020984
 20
203.1441032749518
 10
104.9866580276813
 20
202.2974495276049
 10
103.2933290011406
 20
201.2814478053111
 10
101.1766623350031
 20
200.0961196399174
 10
98.89065845984223
 20
198.7414434995768
 10
93.8106606142969
 20
195.8627863076424
 10
88.73066276875158
 20
192.8994443623111
 10
86.44466427655236
 20
191.6294529753674
 10
84.32799761041485
 20
190.3594400565768
 10
82.5499945964008
 20
189.343438334283
 10
81.19532922198361
 20
188.5814478084861
 10
80.34866470871328
 20
188.0734469473392
 10
80.09466427813986
 20
187.9887837257892
 10
80.00999567362816
 20
187.9041205042392
  0
LWPOLYLINE
  5
E7
330
70
100
AcDbEntity
  8
Capa 1
 62
    18
420
        0
370
     9
100
AcDbPolyline
 90
        9
 70
     0
 43
0.0
 10
139.5306627560516
 20
173.1721062969033
 10
139.6999891991516
 20
173.2567695184534
 10
139.953989629725
 20
173.5107807149502
 10
140.2079900602985
 20
173.6801179239736
 10
140.3773272693219
 20
173.9341183545471
 10
140.5466537124219
 20
174.1881187851205
 10
140.7159909214453
 20
174.4421192156939
 10
140.8006541429953
 20
174.6961196462674
 10
140.8006541429953
 20
174.9501200768408
  0
LWPOLYLINE
  5
E8
330
70
100
AcDbEntity
  8
Capa 1
 62
    18
420
        0
370
     9
100
AcDbPolyline
 90
       10
 70
     0
 43
0.0
 10
79.50199481248127
 20
174.9501200768408
 10
79.50199481248127
 20
174.8654460893674
 10
79.58666341699299
 20
174.6114564247173
 10
79.671326638543
 20
174.3574559941439
 10
79.75599524305471
 20
174.1034555635705
 10
79.92532706911643
 20
173.9341183545471
 10
80.09466427813986
 20
173.6801179239736
 10
80.26399610420158
 20
173.5107807149502
 10
80.51799653477502
 20
173.3414435059268
 10
80.77199696534846
 20
173.1721062969033
  0
LWPOLYLINE
  5
E9
330
70
100
AcDbEntity
  8
Capa 1
 62
    18
420
        0
370
     9
100
AcDbPolyline
 90
       17
 70
     0
 43
0.0
 10
112.7759973879844
 20
203.8214521110455
 10
112.6066601789609
 20
203.9061153325955
 10
112.2679965268375
 20
203.9907785541455
 10
111.9293221087906
 20
204.1601049972456
 10
111.5906584566672
 20
204.2447682187956
 10
111.2519948045438
 20
204.3294529721924
 10
110.8286571649469
 20
204.4141161937424
 10
110.4899935128234
 20
204.4141161937424
 10
110.0666558732266
 20
204.4141161937424
 10
109.7279922211031
 20
204.4141161937424
 10
109.3046545815063
 20
204.3294529721924
 10
108.9659909293828
 20
204.3294529721924
 10
108.6273272772594
 20
204.2447682187956
 10
108.2886636251359
 20
204.0754417756956
 10
107.9499892070891
 20
203.9907785541455
 10
107.6113255549656
 20
203.8214521110455
 10
107.5266623334156
 20
203.8214521110455
  0
LWPOLYLINE
  5
EA
330
70
100
AcDbEntity
  8
Capa 1
 62
    18
420
        0
370
     9
100
AcDbPolyline
 90
        5
 70
     0
 43
0.0
 10
107.4419883459422
 20
168.6847725340549
 10
108.7119904988094
 20
168.1767716729081
 10
110.1513298607
 20
168.007445229808
 10
111.5906584566672
 20
168.1767716729081
 10
112.8606606095344
 20
168.6847725340549
  0
LWPOLYLINE
  5
EB
330
70
100
AcDbEntity
  8
Capa 1
 62
    18
420
        0
370
     9
100
AcDbPolyline
 90
       17
 70
     0
 43
0.0
 10
107.4419883459422
 20
168.6847725340549
 10
107.3573251243922
 20
168.6847725340549
 10
107.1879879153688
 20
168.8541097430783
 10
106.2566601805484
 20
169.3621106042252
 10
104.9019948061312
 20
170.1241118959455
 10
103.1239917921172
 20
171.1401028523159
 10
101.0919883475297
 20
172.325441783633
 10
98.72132125081881
 20
173.6801179239736
 10
93.72599739274688
 20
176.6434491033814
 10
88.64599416423986
 20
179.5221170612393
 10
86.35999567204065
 20
180.8767716697331
 10
84.24332900590314
 20
182.0621213669736
 10
82.46533137485078
 20
183.0781230892673
 10
81.11066061747191
 20
183.8401136150643
 10
80.26399610420158
 20
184.3481144762111
 10
80.00999567362816
 20
184.5174409193112
 10
79.92532706911643
 20
184.6021041408612
  0
LWPOLYLINE
  5
EC
330
70
100
AcDbEntity
  8
Capa 1
 62
    18
420
        0
370
     9
100
AcDbPolyline
 90
       17
 70
     0
 43
0.0
 10
140.3773272693219
 20
184.6021041408612
 10
140.2926532818485
 20
184.5174409193112
 10
140.038652851275
 20
184.3481144762111
 10
139.1919883380047
 20
183.8401136150643
 10
137.8373229635875
 20
183.0781230892673
 10
136.0593199495735
 20
182.0621213669736
 10
133.942653283436
 20
180.8767716697331
 10
131.6566601741984
 20
179.5221170612393
 10
126.5766623286531
 20
176.6434491033814
 10
121.5813277046578
 20
173.6801179239736
 10
119.2106606079469
 20
172.325441783633
 10
117.0939939418094
 20
171.1401028523159
 10
115.4006541493453
 20
170.1241118959455
 10
114.0459887749281
 20
169.3621106042252
 10
113.1146610401078
 20
168.8541097430783
 10
112.9453238310844
 20
168.6847725340549
 10
112.8606606095344
 20
168.6847725340549
  0
SPLINE
  5
ED
330
70
100
AcDbEntity
  8
Capa 1
 62
    18
420
        0
370
     9
100
AcDbSpline
210
0.0
220
0.0
230
1.0
 70
    24
 71
     3
 72
     8
 73
     4
 74
     0
 42
0.0000000001
 43
0.0000000001
 40
0.0
 40
0.0
 40
0.0
 40
0.0
 40
1.0
 40
1.0
 40
1.0
 40
1.0
 10
80.00999567362816
 20
185.8721170596517
 30
0.0
 10
80.00999567362816
 20
185.8721170596517
 30
0.0
 10
80.09466427813986
 20
185.8721170596517
 30
0.0
 10
80.09466427813986
 20
185.8721170596517
 30
0.0
  0
SPLINE
  5
EE
330
70
100
AcDbEntity
  8
Capa 1
 62
    18
420
        0
370
     9
100
AcDbSpline
210
0.0
220
0.0
230
1.0
 70
    24
 71
     3
 72
     8
 73
     4
 74
     0
 42
0.0000000001
 43
0.0000000001
 40
0.0
 40
0.0
 40
0.0
 40
0.0
 40
1.0
 40
1.0
 40
1.0
 40
1.0
 10
141.4779922131656
 20
186.0414435027518
 30
0.0
 10
141.4779922131656
 20
186.0414435027518
 30
0.0
 10
141.5626554347157
 20
186.0414435027518
 30
0.0
 10
141.5626554347157
 20
186.0414435027518
 30
0.0
  0
SPLINE
  5
EF
330
70
100
AcDbEntity
  8
Capa 1
 62
    18
420
        0
370
     9
100
AcDbSpline
210
0.0
220
0.0
230
1.0
 70
    24
 71
     3
 72
     8
 73
     4
 74
     0
 42
0.0000000001
 43
0.0000000001
 40
0.0
 40
0.0
 40
0.0
 40
0.0
 40
1.0
 40
1.0
 40
1.0
 40
1.0
 10
140.8006541429953
 20
174.9501200768408
 30
0.0
 10
140.8006541429953
 20
174.9501200768408
 30
0.0
 10
140.8853281304688
 20
174.9501200768408
 30
0.0
 10
140.8853281304688
 20
174.9501200768408
 30
0.0
  0
LWPOLYLINE
  5
F0
330
70
100
AcDbEntity
  8
Capa 1
 62
    18
420
        0
370
     9
100
AcDbPolyline
 90
       17
 70
     0
 43
0.0
 10
139.5306627560516
 20
187.3961196430924
 10
139.4459887685782
 20
187.3961196430924
 10
139.1919883380047
 20
187.5654460861924
 10
138.3453238247344
 20
188.0734469473392
 10
136.9906584503172
 20
188.8354374731362
 10
135.2973294237765
 20
189.8514391954299
 10
133.1806627576391
 20
191.0367888926705
 10
130.8946588824781
 20
192.3914435011643
 10
125.8146610369328
 20
195.2701222249455
 10
120.8193264129375
 20
198.2334426384299
 10
118.5333225377766
 20
199.5034555572205
 10
116.4166558716391
 20
200.6887837226142
 10
114.7233268450984
 20
201.704785444908
 10
113.3686614706812
 20
202.5514391922549
 10
112.4373229699375
 20
203.0594400534018
 10
112.2679965268375
 20
203.1441032749518
 10
112.1833225393641
 20
203.2287880283486
  0
LWPOLYLINE
  5
F1
330
70
100
AcDbEntity
  8
Capa 1
 62
    18
420
        0
370
     9
100
AcDbPolyline
 90
       17
 70
     0
 43
0.0
 10
108.1193264161125
 20
203.2287880283486
 10
108.0346631945625
 20
203.1441032749518
 10
107.8653259855391
 20
203.0594400534018
 10
106.9339874847953
 20
202.5514391922549
 10
105.5793221103781
 20
201.704785444908
 10
103.8859930838375
 20
200.6887837226142
 10
101.7693264177
 20
199.5034555572205
 10
99.48332254253912
 20
198.2334426384299
 10
94.48798791854381
 20
195.2701222249455
 10
89.40799545596018
 20
192.3914435011643
 10
87.12199696376094
 20
191.0367888926705
 10
85.00533029762346
 20
189.8514391954299
 10
83.31199588812111
 20
188.8354374731362
 10
81.95733051370392
 20
188.0734469473392
 10
81.11066061747191
 20
187.5654460861924
 10
80.85666018689847
 20
187.3961196430924
 10
80.77199696534846
 20
187.3961196430924
  0
LWPOLYLINE
  5
F2
330
70
100
AcDbEntity
  8
Capa 1
 62
    18
420
        0
370
     9
100
AcDbPolyline
 90
        3
 70
     0
 43
0.0
 10
107.1033246938188
 20
176.5587858818314
 10
106.4259973895719
 20
176.0507850206846
 10
106.002659749975
 20
175.3734469505143
  0
LWPOLYLINE
  5
F3
330
70
100
AcDbEntity
  8
Capa 1
 62
    18
420
        0
370
     9
100
AcDbPolyline
 90
       22
 70
     0
 43
0.0
 10
114.2999892055016
 20
175.3734469505143
 10
114.2153259839516
 20
175.6274473810877
 10
114.0459887749281
 20
175.8814478116612
 10
113.7919883443547
 20
176.0507850206846
 10
113.6226619012547
 20
176.304785451258
 10
113.2839874832078
 20
176.4741226602814
 10
113.0299870526344
 20
176.6434491033814
 10
112.691323400511
 20
176.8127863124049
 10
112.3526597483875
 20
176.9821127555049
 10
111.9293221087906
 20
177.0667867429783
 10
111.5059952351172
 20
177.1514499645283
 10
111.0826575955203
 20
177.2361131860783
 10
110.6593307218469
 20
177.2361131860783
 10
110.23599308225
 20
177.3207871735517
 10
109.8126554426531
 20
177.3207871735517
 10
109.3893285689797
 20
177.2361131860783
 10
108.9659909293828
 20
177.2361131860783
 10
108.5426640557094
 20
177.1514499645283
 10
108.2039896376625
 20
176.9821127555049
 10
107.780662763989
 20
176.8974495339549
 10
107.4419883459422
 20
176.7281230908548
 10
107.1033246938188
 20
176.5587858818314
  0
LINE
  5
F4
330
70
100
AcDbEntity
  8
Capa 1
 62
    18
420
        0
370
     9
100
AcDbLine
 10
108.1193264161125
 20
174.9501200768408
 30
0.0
 11
107.5266623334156
 21
174.4421192156939
 31
0.0
  0
LWPOLYLINE
  5
F5
330
70
100
AcDbEntity
  8
Capa 1
 62
    18
420
        0
370
     9
100
AcDbPolyline
 90
       17
 70
     0
 43
0.0
 10
112.7759973879844
 20
174.4421192156939
 10
112.691323400511
 20
174.5267824372439
 10
112.4373229699375
 20
174.7807828678174
 10
112.2679965268375
 20
174.8654460893674
 10
112.0139960962641
 20
175.0347832983908
 10
111.7599956656906
 20
175.2041205074142
 10
111.4213212476438
 20
175.2887837289642
 10
111.0826575955203
 20
175.3734469505143
 10
110.7439939433969
 20
175.3734469505143
 10
110.4053302912734
 20
175.4581209379877
 10
110.0666558732266
 20
175.4581209379877
 10
109.7279922211031
 20
175.4581209379877
 10
109.3893285689797
 20
175.3734469505143
 10
109.0506541509328
 20
175.2887837289642
 10
108.7119904988094
 20
175.2041205074142
 10
108.457990068236
 20
175.1194465199408
 10
108.1193264161125
 20
174.9501200768408
  0
LWPOLYLINE
  5
F6
330
70
100
AcDbEntity
  8
Capa 1
 62
    18
420
        0
370
     9
100
AcDbPolyline
 90
        5
 70
     0
 43
0.0
 10
112.0986593178141
 20
174.1881187851205
 10
111.1673208170703
 20
174.5267824372439
 10
110.1513298607
 20
174.6961196462674
 10
109.1353281384062
 20
174.5267824372439
 10
108.2039896376625
 20
174.1881187851205
  0
LWPOLYLINE
  5
F7
330
70
100
AcDbEntity
  8
Capa 1
 62
    18
420
        0
370
     9
100
AcDbPolyline
 90
       10
 70
     0
 43
0.0
 10
108.1193264161125
 20
192.7301179192111
 10
108.5426640557094
 20
192.8994443623111
 10
108.9659909293828
 20
192.9841075838611
 10
109.3893285689797
 20
193.0687708054112
 10
109.8973294301266
 20
193.1534555588079
 10
110.3206563038
 20
193.1534555588079
 10
110.8286571649469
 20
193.0687708054112
 10
111.2519948045438
 20
193.0687708054112
 10
111.5906584566672
 20
192.9841075838611
 10
112.1833225393641
 20
192.7301179192111
  0
LWPOLYLINE
  5
F8
330
70
100
AcDbEntity
  8
Capa 1
 62
    18
420
        0
370
     9
100
AcDbPolyline
 90
        5
 70
     0
 43
0.0
 10
112.1833225393641
 20
203.2287880283486
 10
111.2519948045438
 20
203.5674409145487
 10
110.1513298607
 20
203.7367888894955
 10
109.0506541509328
 20
203.5674409145487
 10
108.1193264161125
 20
203.2287880283486
  0
LWPOLYLINE
  5
F9
330
70
100
AcDbEntity
  8
Capa 1
 62
    18
420
        0
370
     9
100
AcDbPolyline
 90
        5
 70
     0
 43
0.0
 10
140.2926532818485
 20
185.8721170596517
 10
140.3773272693219
 20
186.2954546992486
 10
140.2926532818485
 20
186.7187708069987
 10
140.038652851275
 20
187.0574452250455
 10
139.5306627560516
 20
187.3961196430924
  0
LWPOLYLINE
  5
FA
330
70
100
AcDbEntity
  8
Capa 1
 62
    18
420
        0
370
     9
100
AcDbPolyline
 90
        5
 70
     0
 43
0.0
 10
80.77199696534846
 20
187.3961196430924
 10
80.26399610420158
 20
187.0574452250455
 10
80.00999567362816
 20
186.7187708069987
 10
79.92532706911643
 20
186.2954546992486
 10
80.00999567362816
 20
185.8721170596517
  0
LWPOLYLINE
  5
FB
330
70
100
AcDbEntity
  8
Capa 1
 62
    18
420
        0
370
     9
100
AcDbPolyline
 90
        3
 70
     0
 43
0.0
 10
140.3773272693219
 20
184.6021041408612
 10
141.1393285610422
 20
185.1947897554049
 10
141.4779922131656
 20
186.0414435027518
  0
LWPOLYLINE
  5
FC
330
70
100
AcDbEntity
  8
Capa 1
 62
    18
420
        0
370
     9
100
AcDbPolyline
 90
        3
 70
     0
 43
0.0
 10
78.82466212527268
 20
186.0414435027518
 10
79.16333116035783
 20
185.2794529769548
 10
79.92532706911643
 20
184.6021041408612
  0
LWPOLYLINE
  5
FD
330
70
100
AcDbEntity
  8
Capa 1
 62
    18
420
        0
370
     9
100
AcDbPolyline
 90
        6
 70
     0
 43
0.0
 10
112.1833225393641
 20
192.7301179192111
 10
116.5013298591125
 20
190.1054503919268
 10
120.9039896344875
 20
187.5654460861924
 10
125.2219969542359
 20
185.025441780458
 10
129.624656729611
 20
182.5701222281205
 10
132.4186614659188
 20
181.0461196446799
  0
LWPOLYLINE
  5
FE
330
70
100
AcDbEntity
  8
Capa 1
 62
    18
420
        0
370
     9
100
AcDbPolyline
 90
        6
 70
     0
 43
0.0
 10
87.96866147703127
 20
181.0461196446799
 10
88.984663199325
 20
181.6387837273767
 10
93.38732297470006
 20
184.0941032797143
 10
97.78999351599848
 20
186.5494443638986
 10
102.1079900698235
 20
189.174111891183
 10
108.1193264161125
 20
192.7301179192111
  0
LWPOLYLINE
  5
FF
330
70
100
AcDbEntity
  8
Capa 1
 62
    18
420
        0
370
     9
100
AcDbPolyline
 90
       36
 70
     0
 43
0.0
 10
114.8079900666485
 20
176.304785451258
 10
114.8926640541219
 20
176.5587858818314
 10
114.8079900666485
 20
176.8127863124049
 10
114.8079900666485
 20
177.0667867429783
 10
114.7233268450984
 20
177.3207871735517
 10
114.553989636075
 20
177.5747876041252
 10
114.384663192975
 20
177.8287880346986
 10
114.1306627624016
 20
178.0827884652721
 10
113.8766623318281
 20
178.252114908372
 10
113.5379879137813
 20
178.4214521173955
 10
113.1993242616578
 20
178.6754525479689
 10
112.8606606095344
 20
178.8447897569924
 10
112.5219969574109
 20
178.9294529785423
 10
112.0986593178141
 20
179.0987794216424
 10
111.6753216782172
 20
179.1834534091158
 10
111.2519948045438
 20
179.2681166306658
 10
110.7439939433969
 20
179.2681166306658
 10
110.3206563038
 20
179.2681166306658
 10
109.8973294301266
 20
179.2681166306658
 10
109.3893285689797
 20
179.2681166306658
 10
108.9659909293828
 20
179.1834534091158
 10
108.5426640557094
 20
179.0987794216424
 10
108.1193264161125
 20
179.0141162000924
 10
107.6959887765156
 20
178.9294529785423
 10
107.3573251243922
 20
178.7601157695189
 10
107.0186614722687
 20
178.5907893264189
 10
106.6799870542219
 20
178.4214521173955
 10
106.3413234020984
 20
178.1674516868221
 10
106.087322971525
 20
177.9981144777986
 10
105.917996528425
 20
177.7441140472252
 10
105.7486593194016
 20
177.4901136166518
 10
105.5793221103781
 20
177.2361131860783
 10
105.4946588888281
 20
176.9821127555049
 10
105.4099956672781
 20
176.7281230908548
 10
105.4099956672781
 20
176.4741226602814
 10
105.4099956672781
 20
176.304785451258
  0
LINE
  5
100
330
70
100
AcDbEntity
  8
Capa 1
 62
    18
420
        0
370
     9
100
AcDbLine
 10
110.1513298607
 20
193.576771666558
 30
0.0
 11
110.1513298607
 21
203.3134512498986
 31
0.0
  0
LINE
  5
101
330
70
100
AcDbEntity
  8
Capa 1
 62
    18
420
        0
370
     9
100
AcDbLine
 10
110.1513298607
 20
157.847438772794
 30
0.0
 11
110.1513298607
 21
167.5841075902112
 31
0.0
  0
ENDSEC
  0
SECTION
  2
OBJECTS
  0
DICTIONARY
  5
C
330
0
100
AcDbDictionary
281
     1
  3
ACAD_COLOR
350
63
  3
ACAD_DETAILVIEWSTYLE
350
6A
  3
ACAD_GROUP
350
D
  3
ACAD_LAYOUT
350
62
  3
ACAD_MATERIAL
350
10
  3
ACAD_MLEADERSTYLE
350
66
  3
ACAD_MLINESTYLE
350
5F
  3
ACAD_PLOTSETTINGS
350
61
  3
ACAD_PLOTSTYLENAME
350
E
  3
ACAD_SCALELIST
350
42
  3
ACAD_SECTIONVIEWSTYLE
350
68
  3
ACAD_TABLESTYLE
350
64
  3
ACAD_VISUALSTYLE
350
29
  3
ACDB_RECOMPOSE_DATA
350
10A
  3
AcDbVariableDictionary
350
102
  0
DICTIONARY
  5
63
102
{ACAD_REACTORS
330
C
102
}
330
C
100
AcDbDictionary
281
     1
  0
DICTIONARY
  5
6A
102
{ACAD_REACTORS
330
C
102
}
330
C
100
AcDbDictionary
281
     1
  3
Imperial24
350
6B
  0
DICTIONARY
  5
D
102
{ACAD_REACTORS
330
C
102
}
330
C
100
AcDbDictionary
281
     1
  0
DICTIONARY
  5
62
102
{ACAD_REACTORS
330
C
102
}
330
C
100
AcDbDictionary
281
     1
  3
Layout1
350
6F
  3
Layout2
350
77
  3
Model
350
73
  0
DICTIONARY
  5
10
102
{ACAD_REACTORS
330
C
102
}
330
C
100
AcDbDictionary
281
     1
  3
ByBlock
350
19
  3
ByLayer
350
11
  3
Global
350
21
  0
DICTIONARY
  5
66
102
{ACAD_REACTORS
330
C
102
}
330
C
100
AcDbDictionary
281
     1
  3
Standard
350
67
  0
DICTIONARY
  5
5F
102
{ACAD_REACTORS
330
C
102
}
330
C
100
AcDbDictionary
281
     1
  3
Standard
350
60
  0
DICTIONARY
  5
61
102
{ACAD_REACTORS
330
C
102
}
330
C
100
AcDbDictionary
281
     1
  0
ACDBDICTIONARYWDFLT
  5
E
102
{ACAD_REACTORS
330
C
102
}
330
C
100
AcDbDictionary
281
     1
  3
Normal
350
F
100
AcDbDictionaryWithDefault
340
F
  0
DICTIONARY
  5
42
102
{ACAD_REACTORS
330
C
102
}
330
C
100
AcDbDictionary
281
     1
  3
A0
350
43
  3
A1
350
44
  3
A2
350
45
  3
A3
350
46
  3
A4
350
47
  3
A5
350
48
  3
A6
350
49
  3
A7
350
4A
  3
A8
350
4B
  3
A9
350
4C
  3
B0
350
4D
  3
B1
350
4E
  3
B2
350
4F
  3
B3
350
50
  3
B4
350
51
  3
B5
350
52
  3
B6
350
53
  0
DICTIONARY
  5
68
102
{ACAD_REACTORS
330
C
102
}
330
C
100
AcDbDictionary
281
     1
  3
Imperial24
350
69
  0
DICTIONARY
  5
64
102
{ACAD_REACTORS
330
C
102
}
330
C
100
AcDbDictionary
281
     1
  3
Standard
350
65
  0
DICTIONARY
  5
29
102
{ACAD_REACTORS
330
C
102
}
330
C
100
AcDbDictionary
281
     1
  3
2dWireframe
350
2F
  3
Basic
350
2E
  3
Brighten
350
35
  3
ColorChange
350
39
  3
Conceptual
350
32
  3
Dim
350
34
  3
EdgeColorOff
350
41
  3
Facepattern
350
38
  3
Flat
350
2A
  3
FlatWithEdges
350
2B
  3
Gouraud
350
2C
  3
GouraudWithEdges
350
2D
  3
Hidden
350
31
  3
JitterOff
350
3F
  3
Linepattern
350
37
  3
OverhangOff
350
40
  3
Realistic
350
33
  3
Shaded
350
3E
  3
Shaded with edges
350
3D
  3
Shades of Gray
350
3A
  3
Sketchy
350
3B
  3
Thicken
350
36
  3
Wireframe
350
30
  3
X-Ray
350
3C
  0
XRECORD
  5
10A
102
{ACAD_REACTORS
330
C
102
}
330
C
100
AcDbXrecord
280
     1
 90
        1
330
65
  0
DICTIONARY
  5
102
102
{ACAD_REACTORS
330
C
102
}
330
C
100
AcDbDictionary
281
     1
  3
CANNOSCALE
350
107
  3
CMLEADERSTYLE
350
104
  3
CTABLESTYLE
350
103
  3
CVIEWDETAILSTYLE
350
105
  3
CVIEWSECTIONSTYLE
350
106
  0
ACDBDETAILVIEWSTYLE
  5
6B
102
{ACAD_XDICTIONARY
360
13F
102
}
102
{ACAD_REACTORS
330
6A
102
}
330
6A
100
AcDbModelDocViewStyle
 70
     0
  3
Imperial24
290
     0
100
AcDbDetailViewStyle
 70
     0
 71
     0
 90
        3
 71
     1
340
55
 62
   256
 40
0.24
340
0
 62
   256
 40
0.24
300

 40
0.36
280
     3
 71
     2
340
5D
 90
       25
 62
   256
 71
     3
340
55
 62
   256
 40
0.24
 90
        1
 40
0.75
 90
        1
300
%<\AcVar ViewType \f "%tc1">% %<\AcVar ViewDetailId>%\PSCALE %<\AcVar ViewScale \f "%sn">%
 71
     4
340
5D
 90
       25
 62
   256
340
5D
 90
       25
 62
   256
280
     0
  0
LAYOUT
  5
6F
102
{ACAD_REACTORS
330
62
102
}
330
62
100
AcDbPlotSettings
  1

  2

  4

  6

 40
0.0
 41
0.0
 42
0.0
 43
0.0
 44
0.0
 45
0.0
 46
0.0
 47
0.0
 48
0.0
 49
0.0
140
0.0
141
0.0
142
1.0
143
1.0
 70
   688
 72
     0
 73
     0
 74
     5
  7

 75
    16
147
1.0
 76
     0
 77
     2
 78
   300
148
0.0
149
0.0
100
AcDbLayout
  1
Layout1
 70
     1
 71
     1
 10
0.0
 20
0.0
 11
12.0
 21
9.0
 12
0.0
 22
0.0
 32
0.0
 14
0.0
 24
0.0
 34
0.0
 15
0.0
 25
0.0
 35
0.0
146
0.0
 13
0.0
 23
0.0
 33
0.0
 16
1.0
 26
0.0
 36
0.0
 17
0.0
 27
1.0
 37
0.0
 76
     0
330
6C
  0
LAYOUT
  5
77
102
{ACAD_REACTORS
330
62
102
}
330
62
100
AcDbPlotSettings
  1

  2

  4

  6

 40
0.0
 41
0.0
 42
0.0
 43
0.0
 44
0.0
 45
0.0
 46
0.0
 47
0.0
 48
0.0
 49
0.0
140
0.0
141
0.0
142
1.0
143
1.0
 70
   688
 72
     0
 73
     0
 74
     5
  7

 75
    16
147
1.0
 76
     0
 77
     2
 78
   300
148
0.0
149
0.0
100
AcDbLayout
  1
Layout2
 70
     1
 71
     2
 10
0.0
 20
0.0
 11
12.0
 21
9.0
 12
0.0
 22
0.0
 32
0.0
 14
0.0
 24
0.0
 34
0.0
 15
0.0
 25
0.0
 35
0.0
146
0.0
 13
0.0
 23
0.0
 33
0.0
 16
1.0
 26
0.0
 36
0.0
 17
0.0
 27
1.0
 37
0.0
 76
     0
330
74
  0
LAYOUT
  5
73
102
{ACAD_REACTORS
330
62
102
}
330
62
100
AcDbPlotSettings
  1

  2

  4

  6

 40
0.0
 41
0.0
 42
0.0
 43
0.0
 44
0.0
 45
0.0
 46
0.0
 47
0.0
 48
0.0
 49
0.0
140
0.0
141
0.0
142
1.0
143
1.0
 70
  1712
 72
     0
 73
     0
 74
     0
  7

 75
     0
147
1.0
 76
     0
 77
     2
 78
   300
148
0.0
149
0.0
100
AcDbLayout
  1
Model
 70
     1
 71
     0
 10
0.0
 20
0.0
 11
12.0
 21
9.0
 12
0.0
 22
0.0
 32
0.0
 14
0.0
 24
0.0
 34
0.0
 15
0.0
 25
0.0
 35
0.0
146
0.0
 13
0.0
 23
0.0
 33
0.0
 16
1.0
 26
0.0
 36
0.0
 17
0.0
 27
1.0
 37
0.0
 76
     0
330
70
  0
MATERIAL
  5
19
102
{ACAD_XDICTIONARY
360
1A
102
}
102
{ACAD_REACTORS
330
10
102
}
330
10
100
AcDbMaterial
  1
ByBlock
 72
     0
 43
0.0208333333333333
 43
0.0
 43
0.0
 43
0.0
 43
0.0
 43
0.0208333333333333
 43
0.0
 43
0.0
 43
0.0
 43
0.0
 43
1.0
 43
0.0
 43
0.0
 43
0.0
 43
0.0
 43
1.0
 77
     0
 47
0.0208333333333333
 47
0.0
 47
0.0
 47
0.0
 47
0.0
 47
0.0208333333333333
 47
0.0
 47
0.0
 47
0.0
 47
0.0
 47
1.0
 47
0.0
 47
0.0
 47
0.0
 47
0.0
 47
1.0
171
     0
 49
0.0208333333333333
 49
0.0
 49
0.0
 49
0.0
 49
0.0
 49
0.0208333333333333
 49
0.0
 49
0.0
 49
0.0
 49
0.0
 49
1.0
 49
0.0
 49
0.0
 49
0.0
 49
0.0
 49
1.0
175
     0
142
0.0208333333333333
142
0.0
142
0.0
142
0.0
142
0.0
142
0.0208333333333333
142
0.0
142
0.0
142
0.0
142
0.0
142
1.0
142
0.0
142
0.0
142
0.0
142
0.0
142
1.0
179
     0
144
0.0208333333333333
144
0.0
144
0.0
144
0.0
144
0.0
144
0.0208333333333333
144
0.0
144
0.0
144
0.0
144
0.0
144
1.0
144
0.0
144
0.0
144
0.0
144
0.0
144
1.0
147
0.0208333333333333
147
0.0
147
0.0
147
0.0
147
0.0
147
0.0208333333333333
147
0.0
147
0.0
147
0.0
147
0.0
147
1.0
147
0.0
147
0.0
147
0.0
147
0.0
147
1.0
  0
MATERIAL
  5
11
102
{ACAD_XDICTIONARY
360
12
102
}
102
{ACAD_REACTORS
330
10
102
}
330
10
100
AcDbMaterial
  1
ByLayer
 72
     0
 43
0.0208333333333333
 43
0.0
 43
0.0
 43
0.0
 43
0.0
 43
0.0208333333333333
 43
0.0
 43
0.0
 43
0.0
 43
0.0
 43
1.0
 43
0.0
 43
0.0
 43
0.0
 43
0.0
 43
1.0
 77
     0
 47
0.0208333333333333
 47
0.0
 47
0.0
 47
0.0
 47
0.0
 47
0.0208333333333333
 47
0.0
 47
0.0
 47
0.0
 47
0.0
 47
1.0
 47
0.0
 47
0.0
 47
0.0
 47
0.0
 47
1.0
171
     0
 49
0.0208333333333333
 49
0.0
 49
0.0
 49
0.0
 49
0.0
 49
0.0208333333333333
 49
0.0
 49
0.0
 49
0.0
 49
0.0
 49
1.0
 49
0.0
 49
0.0
 49
0.0
 49
0.0
 49
1.0
175
     0
142
0.0208333333333333
142
0.0
142
0.0
142
0.0
142
0.0
142
0.0208333333333333
142
0.0
142
0.0
142
0.0
142
0.0
142
1.0
142
0.0
142
0.0
142
0.0
142
0.0
142
1.0
179
     0
144
0.0208333333333333
144
0.0
144
0.0
144
0.0
144
0.0
144
0.0208333333333333
144
0.0
144
0.0
144
0.0
144
0.0
144
1.0
144
0.0
144
0.0
144
0.0
144
0.0
144
1.0
147
0.0208333333333333
147
0.0
147
0.0
147
0.0
147
0.0
147
0.0208333333333333
147
0.0
147
0.0
147
0.0
147
0.0
147
1.0
147
0.0
147
0.0
147
0.0
147
0.0
147
1.0
  0
MATERIAL
  5
21
102
{ACAD_XDICTIONARY
360
22
102
}
102
{ACAD_REACTORS
330
10
102
}
330
10
100
AcDbMaterial
  1
Global
 72
     0
 43
0.0208333333333333
 43
0.0
 43
0.0
 43
0.0
 43
0.0
 43
0.0208333333333333
 43
0.0
 43
0.0
 43
0.0
 43
0.0
 43
1.0
 43
0.0
 43
0.0
 43
0.0
 43
0.0
 43
1.0
 77
     0
 47
0.0208333333333333
 47
0.0
 47
0.0
 47
0.0
 47
0.0
 47
0.0208333333333333
 47
0.0
 47
0.0
 47
0.0
 47
0.0
 47
1.0
 47
0.0
 47
0.0
 47
0.0
 47
0.0
 47
1.0
171
     0
 49
0.0208333333333333
 49
0.0
 49
0.0
 49
0.0
 49
0.0
 49
0.0208333333333333
 49
0.0
 49
0.0
 49
0.0
 49
0.0
 49
1.0
 49
0.0
 49
0.0
 49
0.0
 49
0.0
 49
1.0
175
     0
142
0.0208333333333333
142
0.0
142
0.0
142
0.0
142
0.0
142
0.0208333333333333
142
0.0
142
0.0
142
0.0
142
0.0
142
1.0
142
0.0
142
0.0
142
0.0
142
0.0
142
1.0
179
     0
144
0.0208333333333333
144
0.0
144
0.0
144
0.0
144
0.0
144
0.0208333333333333
144
0.0
144
0.0
144
0.0
144
0.0
144
1.0
144
0.0
144
0.0
144
0.0
144
0.0
144
1.0
147
0.0208333333333333
147
0.0
147
0.0
147
0.0
147
0.0
147
0.0208333333333333
147
0.0
147
0.0
147
0.0
147
0.0
147
1.0
147
0.0
147
0.0
147
0.0
147
0.0
147
1.0
  0
MLEADERSTYLE
  5
67
102
{ACAD_XDICTIONARY
360
13B
102
}
102
{ACAD_REACTORS
330
66
102
}
330
66
100
AcDbMLeaderStyle
179
     2
170
     2
171
     1
172
     0
 90
        2
 40
0.0
 41
0.0
173
     1
 91
-1056964608
340
5B
 92
       -2
290
     1
 42
0.09
291
     1
 43
0.36
  3
Standard
 44
0.18
300

342
55
174
     1
178
     6
175
     1
176
     0
 93
-1056964608
 45
0.18
292
     0
297
     0
 46
0.18
 94
-1056964608
 47
1.0
 49
1.0
140
1.0
293
     1
141
0.0
294
     1
177
     0
142
1.0
295
     0
296
     0
143
0.125
271
     0
272
     9
273
     9
  0
MLINESTYLE
  5
60
102
{ACAD_REACTORS
330
5F
102
}
330
5F
100
AcDbMlineStyle
  2
STANDARD
 70
     0
  3

 62
   256
 51
90.0
 52
90.0
 71
     2
 49
0.5
 62
   256
  6
BYLAYER
 49
-0.5
 62
   256
  6
BYLAYER
  0
ACDBPLACEHOLDER
  5
F
102
{ACAD_REACTORS
330
E
102
}
330
E
  0
SCALE
  5
43
102
{ACAD_REACTORS
330
42
102
}
330
42
100
AcDbScale
 70
     0
300
1:1
140
1.0
141
1.0
290
     1
  0
SCALE
  5
44
102
{ACAD_REACTORS
330
42
102
}
330
42
100
AcDbScale
 70
     0
300
1/128" = 1'-0"
140
0.0078125
141
12.0
290
     0
  0
SCALE
  5
45
102
{ACAD_REACTORS
330
42
102
}
330
42
100
AcDbScale
 70
     0
300
1/64" = 1'-0"
140
0.015625
141
12.0
290
     0
  0
SCALE
  5
46
102
{ACAD_REACTORS
330
42
102
}
330
42
100
AcDbScale
 70
     0
300
1/32" = 1'-0"
140
0.03125
141
12.0
290
     0
  0
SCALE
  5
47
102
{ACAD_REACTORS
330
42
102
}
330
42
100
AcDbScale
 70
     0
300
1/16" = 1'-0"
140
0.0625
141
12.0
290
     0
  0
SCALE
  5
48
102
{ACAD_REACTORS
330
42
102
}
330
42
100
AcDbScale
 70
     0
300
3/32" = 1'-0"
140
0.09375
141
12.0
290
     0
  0
SCALE
  5
49
102
{ACAD_REACTORS
330
42
102
}
330
42
100
AcDbScale
 70
     0
300
1/8" = 1'-0"
140
0.125
141
12.0
290
     0
  0
SCALE
  5
4A
102
{ACAD_REACTORS
330
42
102
}
330
42
100
AcDbScale
 70
     0
300
3/16" = 1'-0"
140
0.1875
141
12.0
290
     0
  0
SCALE
  5
4B
102
{ACAD_REACTORS
330
42
102
}
330
42
100
AcDbScale
 70
     0
300
1/4" = 1'-0"
140
0.25
141
12.0
290
     0
  0
SCALE
  5
4C
102
{ACAD_REACTORS
330
42
102
}
330
42
100
AcDbScale
 70
     0
300
3/8" = 1'-0"
140
0.375
141
12.0
290
     0
  0
SCALE
  5
4D
102
{ACAD_REACTORS
330
42
102
}
330
42
100
AcDbScale
 70
     0
300
1/2" = 1'-0"
140
0.5
141
12.0
290
     0
  0
SCALE
  5
4E
102
{ACAD_REACTORS
330
42
102
}
330
42
100
AcDbScale
 70
     0
300
3/4" = 1'-0"
140
0.75
141
12.0
290
     0
  0
SCALE
  5
4F
102
{ACAD_REACTORS
330
42
102
}
330
42
100
AcDbScale
 70
     0
300
1" = 1'-0"
140
1.0
141
12.0
290
     0
  0
SCALE
  5
50
102
{ACAD_REACTORS
330
42
102
}
330
42
100
AcDbScale
 70
     0
300
1-1/2" = 1'-0"
140
1.5
141
12.0
290
     0
  0
SCALE
  5
51
102
{ACAD_REACTORS
330
42
102
}
330
42
100
AcDbScale
 70
     0
300
3" = 1'-0"
140
3.0
141
12.0
290
     0
  0
SCALE
  5
52
102
{ACAD_REACTORS
330
42
102
}
330
42
100
AcDbScale
 70
     0
300
6" = 1'-0"
140
6.0
141
12.0
290
     0
  0
SCALE
  5
53
102
{ACAD_REACTORS
330
42
102
}
330
42
100
AcDbScale
 70
     0
300
1'-0" = 1'-0"
140
12.0
141
12.0
290
     0
  0
ACDBSECTIONVIEWSTYLE
  5
69
102
{ACAD_XDICTIONARY
360
13D
102
}
102
{ACAD_REACTORS
330
68
102
}
330
68
100
AcDbModelDocViewStyle
 70
     0
  3
Imperial24
290
     0
100
AcDbSectionViewStyle
 70
     0
 71
     0
 90
       78
 71
     1
340
55
 62
   256
 40
0.24
340
0
340
0
 62
   256
 40
0.24
300
I, O, Q, S, X, Z
 40
0.48
 90
        3
 40
0.18
 90
        1
 71
     2
340
5D
 90
       25
 62
   256
340
5D
 90
       50
 62
   256
 40
0.24
 40
0.0
 40
0.24
 71
     3
340
55
 62
   256
 40
0.24
 90
        1
 40
0.75
 90
        1
300
%<\AcVar ViewType \f "%tc1">% %<\AcVar ViewSectionStartId>%-%<\AcVar ViewSectionEndId>%\PSCALE %<\AcVar ViewScale \f "%sn">%
 71
     4
 62
   256
 62
   257
300
ANSI31
 40
1.0
 90
        0
290
     0
290
     0
 90
        6
 40
0.0
 40
1.570796326794896
 40
0.2617993877991494
 40
1.308996938995747
 40
-0.2617993877991494
 40
1.832595714594046
  0
TABLESTYLE
  5
65
102
{ACAD_XDICTIONARY
360
108
102
}
102
{ACAD_REACTORS
330
64
102
}
330
64
100
AcDbTableStyle
280
     0
  3
Standard
 70
     0
 71
     0
 40
0.06
 41
0.06
280
     0
281
     0
  7
Standard
140
0.18
170
     2
 62
     0
 63
     7
283
     0
 90
      512
 91
        0
  1

274
    -2
284
     1
 64
     0
275
    -2
285
     1
 65
     0
276
    -2
286
     1
 66
     0
277
    -2
287
     1
 67
     0
278
    -2
288
     1
 68
     0
279
    -2
289
     1
 69
     0
  7
Standard
140
0.25
170
     5
 62
     0
 63
     7
283
     0
 90
      512
 91
        0
  1

274
    -2
284
     1
 64
     0
275
    -2
285
     1
 65
     0
276
    -2
286
     1
 66
     0
277
    -2
287
     1
 67
     0
278
    -2
288
     1
 68
     0
279
    -2
289
     1
 69
     0
  7
Standard
140
0.18
170
     5
 62
     0
 63
     7
283
     0
 90
      512
 91
        0
  1

274
    -2
284
     1
 64
     0
275
    -2
285
     1
 65
     0
276
    -2
286
     1
 66
     0
277
    -2
287
     1
 67
     0
278
    -2
288
     1
 68
     0
279
    -2
289
     1
 69
     0
  0
VISUALSTYLE
  5
2F
102
{ACAD_XDICTIONARY
360
115
102
}
102
{ACAD_REACTORS
330
29
102
}
330
29
100
AcDbVisualStyle
  2
2dWireframe
 70
     4
177
     2
291
     0
 71
     0
176
     1
 72
     2
176
     1
 73
     0
176
     1
 90
        0
176
     1
 40
0.6
176
     1
 41
30.0
176
     1
 63
     7
421
 16777215
176
     1
 74
     1
176
     1
 91
        4
176
     1
 64
     7
176
     1
 65
   257
176
     1
 75
     1
176
     1
175
     1
176
     1
 42
1.0
176
     1
 92
        0
176
     1
 66
   257
176
     1
 43
1.0
176
     1
 76
     1
176
     1
 77
     6
176
     1
 78
     2
176
     1
 67
     7
176
     1
 79
     5
176
     1
170
     0
176
     1
171
     0
176
     1
290
     0
176
     1
 93
        1
176
     1
 44
0.0
176
     1
173
     0
176
     1
1001
ACAD
1000
AcDbSavedByObjectVersion
1070
     0
  0
VISUALSTYLE
  5
2E
102
{ACAD_XDICTIONARY
360
113
102
}
102
{ACAD_REACTORS
330
29
102
}
330
29
100
AcDbVisualStyle
  2
Basic
 70
     7
177
     2
291
     1
 71
     1
176
     1
 72
     0
176
     1
 73
     1
176
     1
 90
        0
176
     1
 40
0.6
176
     1
 41
30.0
176
     1
 63
     7
421
 16777215
176
     1
 74
     0
176
     1
 91
        4
176
     1
 64
     7
176
     1
 65
   257
176
     1
 75
     1
176
     1
175
     1
176
     1
 42
1.0
176
     1
 92
        8
176
     1
 66
     7
176
     1
 43
1.0
176
     1
 76
     1
176
     1
 77
     6
176
     1
 78
     2
176
     1
 67
     7
176
     1
 79
     5
176
     1
170
     0
176
     1
171
     0
176
     1
290
     0
176
     1
 93
        1
176
     1
 44
0.0
176
     1
173
     0
176
     1
1001
ACAD
1000
AcDbSavedByObjectVersion
1070
     0
  0
VISUALSTYLE
  5
35
102
{ACAD_XDICTIONARY
360
121
102
}
102
{ACAD_REACTORS
330
29
102
}
330
29
100
AcDbVisualStyle
  2
Brighten
 70
    12
177
     2
291
     1
 71
     2
176
     1
 72
     2
176
     1
 73
     0
176
     1
 90
        0
176
     1
 40
0.6
176
     1
 41
30.0
176
     1
 63
     7
421
 16777215
176
     1
 74
     1
176
     1
 91
        4
176
     1
 64
     7
176
     1
 65
   257
176
     1
 75
     1
176
     1
175
     1
176
     1
 42
1.0
176
     1
 92
        8
176
     1
 66
     7
176
     1
 43
1.0
176
     1
 76
     1
176
     1
 77
     6
176
     1
 78
     2
176
     1
 67
     7
176
     1
 79
     5
176
     1
170
     0
176
     1
171
     0
176
     1
290
     0
176
     1
 93
        1
176
     1
 44
50.0
176
     1
173
     0
176
     1
1001
ACAD
1000
AcDbSavedByObjectVersion
1070
     0
  0
VISUALSTYLE
  5
39
102
{ACAD_XDICTIONARY
360
129
102
}
102
{ACAD_REACTORS
330
29
102
}
330
29
100
AcDbVisualStyle
  2
ColorChange
 70
    16
177
     2
291
     1
 71
     2
176
     1
 72
     2
176
     1
 73
     3
176
     1
 90
        0
176
     1
 40
0.6
176
     1
 41
30.0
176
     1
 63
     8
421
  8421504
176
     1
 74
     1
176
     1
 91
        4
176
     1
 64
     7
176
     1
 65
   257
176
     1
 75
     1
176
     1
175
     1
176
     1
 42
1.0
176
     1
 92
        8
176
     1
 66
     8
424
  8421504
176
     1
 43
1.0
176
     1
 76
     1
176
     1
 77
     6
176
     1
 78
     2
176
     1
 67
     7
176
     1
 79
     5
176
     1
170
     0
176
     1
171
     0
176
     1
290
     0
176
     1
 93
        1
176
     1
 44
0.0
176
     1
173
     0
176
     1
1001
ACAD
1000
AcDbSavedByObjectVersion
1070
     0
  0
VISUALSTYLE
  5
32
102
{ACAD_XDICTIONARY
360
11B
102
}
102
{ACAD_REACTORS
330
29
102
}
330
29
100
AcDbVisualStyle
  2
Conceptual
 70
     9
177
     2
291
     0
 71
     3
176
     1
 72
     2
176
     1
 73
     0
176
     1
 90
        0
176
     1
 40
0.6
176
     1
 41
30.0
176
     1
 63
     7
421
 16777215
176
     1
 74
     2
176
     1
 91
        2
176
     1
 64
     7
176
     1
 65
   257
176
     1
 75
     1
176
     1
175
     1
176
     1
 42
179.0
176
     1
 92
        8
176
     1
 66
     7
176
     1
 43
1.0
176
     1
 76
     1
176
     1
 77
     6
176
     1
 78
     2
176
     1
 67
     7
176
     1
 79
     3
176
     1
170
     0
176
     1
171
     0
176
     1
290
     0
176
     1
 93
        1
176
     1
 44
0.0
176
     1
173
     0
176
     1
1001
ACAD
1000
AcDbSavedByObjectVersion
1070
     0
  0
VISUALSTYLE
  5
34
102
{ACAD_XDICTIONARY
360
11F
102
}
102
{ACAD_REACTORS
330
29
102
}
330
29
100
AcDbVisualStyle
  2
Dim
 70
    11
177
     2
291
     1
 71
     2
176
     1
 72
     2
176
     1
 73
     0
176
     1
 90
        0
176
     1
 40
0.6
176
     1
 41
30.0
176
     1
 63
     7
421
 16777215
176
     1
 74
     1
176
     1
 91
        4
176
     1
 64
     7
176
     1
 65
   257
176
     1
 75
     1
176
     1
175
     1
176
     1
 42
1.0
176
     1
 92
        8
176
     1
 66
     7
176
     1
 43
1.0
176
     1
 76
     1
176
     1
 77
     6
176
     1
 78
     2
176
     1
 67
     7
176
     1
 79
     5
176
     1
170
     0
176
     1
171
     0
176
     1
290
     0
176
     1
 93
        1
176
     1
 44
-50.0
176
     1
173
     0
176
     1
1001
ACAD
1000
AcDbSavedByObjectVersion
1070
     0
  0
VISUALSTYLE
  5
41
102
{ACAD_XDICTIONARY
360
139
102
}
102
{ACAD_REACTORS
330
29
102
}
330
29
100
AcDbVisualStyle
  2
EdgeColorOff
 70
    22
177
     2
291
     1
 71
     2
176
     0
 72
     2
176
     0
 73
     0
176
     0
 90
        0
176
     0
 40
0.6
176
     0
 41
30.0
176
     0
 63
     7
421
 16777215
176
     0
 74
     1
176
     0
 91
        4
176
     0
 64
     7
176
     0
 65
   257
176
     0
 75
     1
176
     0
175
     1
176
     0
 42
1.0
176
     0
 92
        8
176
     2
 66
     7
176
     0
 43
1.0
176
     0
 76
     1
176
     0
 77
     6
176
     0
 78
     2
176
     0
 67
     7
176
     0
 79
     5
176
     0
170
     0
176
     0
171
     0
176
     0
290
     0
176
     0
 93
        1
176
     0
 44
0.0
176
     0
173
     0
176
     0
1001
ACAD
1000
AcDbSavedByObjectVersion
1070
     0
  0
VISUALSTYLE
  5
38
102
{ACAD_XDICTIONARY
360
127
102
}
102
{ACAD_REACTORS
330
29
102
}
330
29
100
AcDbVisualStyle
  2
Facepattern
 70
    15
177
     2
291
     1
 71
     2
176
     1
 72
     2
176
     1
 73
     0
176
     1
 90
        0
176
     1
 40
0.6
176
     1
 41
30.0
176
     1
 63
     7
421
 16777215
176
     1
 74
     1
176
     1
 91
        4
176
     1
 64
     7
176
     1
 65
   257
176
     1
 75
     1
176
     1
175
     1
176
     1
 42
1.0
176
     1
 92
        8
176
     1
 66
     7
176
     1
 43
1.0
176
     1
 76
     1
176
     1
 77
     6
176
     1
 78
     2
176
     1
 67
     7
176
     1
 79
     5
176
     1
170
     0
176
     1
171
     0
176
     1
290
     0
176
     1
 93
        1
176
     1
 44
0.0
176
     1
173
     0
176
     1
1001
ACAD
1000
AcDbSavedByObjectVersion
1070
     0
  0
VISUALSTYLE
  5
2A
102
{ACAD_XDICTIONARY
360
10B
102
}
102
{ACAD_REACTORS
330
29
102
}
330
29
100
AcDbVisualStyle
  2
Flat
 70
     0
177
     2
291
     1
 71
     2
176
     1
 72
     1
176
     1
 73
     1
176
     1
 90
        2
176
     1
 40
0.6
176
     1
 41
30.0
176
     1
 63
     7
421
 16777215
176
     1
 74
     0
176
     1
 91
        0
176
     1
 64
     7
176
     1
 65
   257
176
     1
 75
     1
176
     1
175
     1
176
     1
 42
1.0
176
     1
 92
        8
176
     1
 66
     7
176
     1
 43
1.0
176
     1
 76
     1
176
     1
 77
     6
176
     1
 78
     2
176
     1
 67
     7
176
     1
 79
     5
176
     1
170
     0
176
     1
171
     0
176
     1
290
     0
176
     1
 93
       13
176
     1
 44
0.0
176
     1
173
     0
176
     1
1001
ACAD
1000
AcDbSavedByObjectVersion
1070
     0
  0
VISUALSTYLE
  5
2B
102
{ACAD_XDICTIONARY
360
10D
102
}
102
{ACAD_REACTORS
330
29
102
}
330
29
100
AcDbVisualStyle
  2
FlatWithEdges
 70
     1
177
     2
291
     1
 71
     2
176
     1
 72
     1
176
     1
 73
     1
176
     1
 90
        2
176
     1
 40
0.6
176
     1
 41
30.0
176
     1
 63
     7
421
 16777215
176
     1
 74
     1
176
     1
 91
        0
176
     1
 64
     7
176
     1
 65
   257
176
     1
 75
     1
176
     1
175
     1
176
     1
 42
1.0
176
     1
 92
        0
176
     1
 66
   257
176
     1
 43
1.0
176
     1
 76
     1
176
     1
 77
     6
176
     1
 78
     2
176
     1
 67
     7
176
     1
 79
     5
176
     1
170
     0
176
     1
171
     0
176
     1
290
     0
176
     1
 93
       13
176
     1
 44
0.0
176
     1
173
     0
176
     1
1001
ACAD
1000
AcDbSavedByObjectVersion
1070
     0
  0
VISUALSTYLE
  5
2C
102
{ACAD_XDICTIONARY
360
10F
102
}
102
{ACAD_REACTORS
330
29
102
}
330
29
100
AcDbVisualStyle
  2
Gouraud
 70
     2
177
     2
291
     1
 71
     2
176
     1
 72
     2
176
     1
 73
     1
176
     1
 90
        2
176
     1
 40
0.6
176
     1
 41
30.0
176
     1
 63
     7
421
 16777215
176
     1
 74
     0
176
     1
 91
        0
176
     1
 64
     7
176
     1
 65
   257
176
     1
 75
     1
176
     1
175
     1
176
     1
 42
1.0
176
     1
 92
        0
176
     1
 66
     7
176
     1
 43
1.0
176
     1
 76
     1
176
     1
 77
     6
176
     1
 78
     2
176
     1
 67
     7
176
     1
 79
     5
176
     1
170
     0
176
     1
171
     0
176
     1
290
     0
176
     1
 93
       13
176
     1
 44
0.0
176
     1
173
     0
176
     1
1001
ACAD
1000
AcDbSavedByObjectVersion
1070
     0
  0
VISUALSTYLE
  5
2D
102
{ACAD_XDICTIONARY
360
111
102
}
102
{ACAD_REACTORS
330
29
102
}
330
29
100
AcDbVisualStyle
  2
GouraudWithEdges
 70
     3
177
     2
291
     1
 71
     2
176
     1
 72
     2
176
     1
 73
     1
176
     1
 90
        2
176
     1
 40
0.6
176
     1
 41
30.0
176
     1
 63
     7
421
 16777215
176
     1
 74
     1
176
     1
 91
        0
176
     1
 64
     7
176
     1
 65
   257
176
     1
 75
     1
176
     1
175
     1
176
     1
 42
1.0
176
     1
 92
        0
176
     1
 66
   257
176
     1
 43
1.0
176
     1
 76
     1
176
     1
 77
     6
176
     1
 78
     2
176
     1
 67
     7
176
     1
 79
     5
176
     1
170
     0
176
     1
171
     0
176
     1
290
     0
176
     1
 93
       13
176
     1
 44
0.0
176
     1
173
     0
176
     1
1001
ACAD
1000
AcDbSavedByObjectVersion
1070
     0
  0
VISUALSTYLE
  5
31
102
{ACAD_XDICTIONARY
360
119
102
}
102
{ACAD_REACTORS
330
29
102
}
330
29
100
AcDbVisualStyle
  2
Hidden
 70
     6
177
     2
291
     0
 71
     1
176
     1
 72
     2
176
     1
 73
     2
176
     1
 90
        0
176
     1
 40
0.6
176
     1
 41
30.0
176
     1
 63
     7
421
 16777215
176
     1
 74
     2
176
     1
 91
        2
176
     1
 64
     7
176
     1
 65
   257
176
     1
 75
     2
176
     1
175
     1
176
     1
 42
40.0
176
     1
 92
        0
176
     1
 66
   257
176
     1
 43
1.0
176
     1
 76
     1
176
     1
 77
     6
176
     1
 78
     2
176
     1
 67
     7
176
     1
 79
     3
176
     1
170
     0
176
     1
171
     0
176
     1
290
     0
176
     1
 93
        1
176
     1
 44
0.0
176
     1
173
     0
176
     1
1001
ACAD
1000
AcDbSavedByObjectVersion
1070
     0
  0
VISUALSTYLE
  5
3F
102
{ACAD_XDICTIONARY
360
135
102
}
102
{ACAD_REACTORS
330
29
102
}
330
29
100
AcDbVisualStyle
  2
JitterOff
 70
    20
177
     2
291
     1
 71
     2
176
     0
 72
     2
176
     0
 73
     0
176
     0
 90
        0
176
     0
 40
0.6
176
     0
 41
30.0
176
     0
 63
     7
421
 16777215
176
     0
 74
     1
176
     0
 91
        4
176
     0
 64
     7
176
     0
 65
   257
176
     0
 75
     1
176
     0
175
     1
176
     0
 42
1.0
176
     0
 92
       10
176
     2
 66
     7
176
     0
 43
1.0
176
     0
 76
     1
176
     0
 77
     6
176
     0
 78
     2
176
     0
 67
     7
176
     0
 79
     5
176
     0
170
     0
176
     0
171
     0
176
     0
290
     0
176
     0
 93
        1
176
     0
 44
0.0
176
     0
173
     0
176
     0
1001
ACAD
1000
AcDbSavedByObjectVersion
1070
     0
  0
VISUALSTYLE
  5
37
102
{ACAD_XDICTIONARY
360
125
102
}
102
{ACAD_REACTORS
330
29
102
}
330
29
100
AcDbVisualStyle
  2
Linepattern
 70
    14
177
     2
291
     1
 71
     2
176
     1
 72
     2
176
     1
 73
     0
176
     1
 90
        0
176
     1
 40
0.6
176
     1
 41
30.0
176
     1
 63
     7
421
 16777215
176
     1
 74
     1
176
     1
 91
        4
176
     1
 64
     7
176
     1
 65
   257
176
     1
 75
     7
176
     1
175
     7
176
     1
 42
1.0
176
     1
 92
        8
176
     1
 66
     7
176
     1
 43
1.0
176
     1
 76
     1
176
     1
 77
     6
176
     1
 78
     2
176
     1
 67
     7
176
     1
 79
     5
176
     1
170
     0
176
     1
171
     0
176
     1
290
     0
176
     1
 93
        1
176
     1
 44
0.0
176
     1
173
     0
176
     1
1001
ACAD
1000
AcDbSavedByObjectVersion
1070
     0
  0
VISUALSTYLE
  5
40
102
{ACAD_XDICTIONARY
360
137
102
}
102
{ACAD_REACTORS
330
29
102
}
330
29
100
AcDbVisualStyle
  2
OverhangOff
 70
    21
177
     2
291
     1
 71
     2
176
     0
 72
     2
176
     0
 73
     0
176
     0
 90
        0
176
     0
 40
0.6
176
     0
 41
30.0
176
     0
 63
     7
421
 16777215
176
     0
 74
     1
176
     0
 91
        4
176
     0
 64
     7
176
     0
 65
   257
176
     0
 75
     1
176
     0
175
     1
176
     0
 42
1.0
176
     0
 92
        9
176
     2
 66
     7
176
     0
 43
1.0
176
     0
 76
     1
176
     0
 77
     6
176
     0
 78
     2
176
     0
 67
     7
176
     0
 79
     5
176
     0
170
     0
176
     0
171
     0
176
     0
290
     0
176
     0
 93
        1
176
     0
 44
0.0
176
     0
173
     0
176
     0
1001
ACAD
1000
AcDbSavedByObjectVersion
1070
     0
  0
VISUALSTYLE
  5
33
102
{ACAD_XDICTIONARY
360
11D
102
}
102
{ACAD_REACTORS
330
29
102
}
330
29
100
AcDbVisualStyle
  2
Realistic
 70
     8
177
     2
291
     0
 71
     2
176
     1
 72
     3
176
     1
 73
     0
176
     1
 90
        2
176
     1
 40
0.6
176
     1
 41
30.0
176
     1
 63
     7
421
 16777215
176
     1
 74
     0
176
     1
 91
        0
176
     1
 64
     7
176
     1
 65
   257
176
     1
 75
     1
176
     1
175
     1
176
     1
 42
1.0
176
     1
 92
        8
176
     1
 66
   257
176
     1
 43
1.0
176
     1
 76
     1
176
     1
 77
     6
176
     1
 78
     2
176
     1
 67
     7
176
     1
 79
     3
176
     1
170
     0
176
     1
171
     0
176
     1
290
     0
176
     1
 93
       13
176
     1
 44
0.0
176
     1
173
     0
176
     1
1001
ACAD
1000
AcDbSavedByObjectVersion
1070
     0
  0
VISUALSTYLE
  5
3E
102
{ACAD_XDICTIONARY
360
133
102
}
102
{ACAD_REACTORS
330
29
102
}
330
29
100
AcDbVisualStyle
  2
Shaded
 70
    27
177
     2
291
     0
 71
     2
176
     1
 72
     2
176
     1
 73
     1
176
     1
 90
        2
176
     1
 40
0.6
176
     1
 41
30.0
176
     1
 63
     7
421
 16777215
176
     1
 74
     0
176
     1
 91
        4
176
     1
 64
     7
176
     1
 65
   257
176
     1
 75
     1
176
     1
175
     1
176
     1
 42
1.0
176
     1
 92
        8
176
     1
 66
   257
176
     1
 43
1.0
176
     1
 76
     1
176
     1
 77
     6
176
     1
 78
     2
176
     1
 67
     8
425
  7895160
176
     1
 79
     3
176
     1
170
     0
176
     1
171
     0
176
     1
290
     0
176
     1
 93
        5
176
     1
 44
0.0
176
     1
173
     0
176
     1
1001
ACAD
1000
AcDbSavedByObjectVersion
1070
     0
  0
VISUALSTYLE
  5
3D
102
{ACAD_XDICTIONARY
360
131
102
}
102
{ACAD_REACTORS
330
29
102
}
330
29
100
AcDbVisualStyle
  2
Shaded with edges
 70
    26
177
     2
291
     0
 71
     2
176
     1
 72
     2
176
     1
 73
     1
176
     1
 90
        2
176
     1
 40
0.6
176
     1
 41
30.0
176
     1
 63
     7
421
 16777215
176
     1
 74
     1
176
     1
 91
        2
176
     1
 64
     7
176
     1
 65
   257
176
     1
 75
     2
176
     1
175
     1
176
     1
 42
1.0
176
     1
 92
        8
176
     1
 66
   257
176
     1
 43
1.0
176
     1
 76
     1
176
     1
 77
     6
176
     1
 78
     2
176
     1
 67
     7
176
     1
 79
     3
176
     1
170
     0
176
     1
171
     0
176
     1
290
     0
176
     1
 93
        5
176
     1
 44
0.0
176
     1
173
     0
176
     1
1001
ACAD
1000
AcDbSavedByObjectVersion
1070
     0
  0
VISUALSTYLE
  5
3A
102
{ACAD_XDICTIONARY
360
12B
102
}
102
{ACAD_REACTORS
330
29
102
}
330
29
100
AcDbVisualStyle
  2
Shades of Gray
 70
    23
177
     2
291
     0
 71
     2
176
     1
 72
     2
176
     1
 73
     3
176
     1
 90
        0
176
     1
 40
0.6
176
     1
 41
30.0
176
     1
 63
     7
421
 16777215
176
     1
 74
     2
176
     1
 91
        2
176
     1
 64
     7
176
     1
 65
     7
176
     1
 75
     1
176
     1
175
     1
176
     1
 42
40.0
176
     1
 92
        8
176
     1
 66
     7
176
     1
 43
1.0
176
     1
 76
     1
176
     1
 77
     6
176
     1
 78
     2
176
     1
 67
     7
176
     1
 79
     3
176
     1
170
     0
176
     1
171
     0
176
     1
290
     0
176
     1
 93
        1
176
     1
 44
0.0
176
     1
173
     0
176
     1
1001
ACAD
1000
AcDbSavedByObjectVersion
1070
     0
  0
VISUALSTYLE
  5
3B
102
{ACAD_XDICTIONARY
360
12D
102
}
102
{ACAD_REACTORS
330
29
102
}
330
29
100
AcDbVisualStyle
  2
Sketchy
 70
    24
177
     2
291
     0
 71
     1
176
     1
 72
     2
176
     1
 73
     2
176
     1
 90
        0
176
     1
 40
0.6
176
     1
 41
30.0
176
     1
 63
     7
421
 16777215
176
     1
 74
     2
176
     1
 91
        2
176
     1
 64
     7
176
     1
 65
     7
176
     1
 75
     1
176
     1
175
     1
176
     1
 42
40.0
176
     1
 92
       11
176
     1
 66
     7
176
     1
 43
1.0
176
     1
 76
     1
176
     1
 77
     6
176
     1
 78
     2
176
     1
 67
     7
176
     1
 79
     6
176
     1
170
     0
176
     1
171
     0
176
     1
290
     0
176
     1
 93
        1
176
     1
 44
0.0
176
     1
173
     0
176
     1
1001
ACAD
1000
AcDbSavedByObjectVersion
1070
     0
  0
VISUALSTYLE
  5
36
102
{ACAD_XDICTIONARY
360
123
102
}
102
{ACAD_REACTORS
330
29
102
}
330
29
100
AcDbVisualStyle
  2
Thicken
 70
    13
177
     2
291
     1
 71
     2
176
     1
 72
     2
176
     1
 73
     0
176
     1
 90
        0
176
     1
 40
0.6
176
     1
 41
30.0
176
     1
 63
     7
421
 16777215
176
     1
 74
     1
176
     1
 91
        4
176
     1
 64
     7
176
     1
 65
   257
176
     1
 75
     1
176
     1
175
     1
176
     1
 42
1.0
176
     1
 92
       12
176
     1
 66
     7
176
     1
 43
1.0
176
     1
 76
     1
176
     1
 77
     6
176
     1
 78
     2
176
     1
 67
     7
176
     1
 79
     5
176
     1
170
     0
176
     1
171
     0
176
     1
290
     0
176
     1
 93
        1
176
     1
 44
0.0
176
     1
173
     0
176
     1
1001
ACAD
1000
AcDbSavedByObjectVersion
1070
     0
  0
VISUALSTYLE
  5
30
102
{ACAD_XDICTIONARY
360
117
102
}
102
{ACAD_REACTORS
330
29
102
}
330
29
100
AcDbVisualStyle
  2
Wireframe
 70
     5
177
     2
291
     0
 71
     0
176
     1
 72
     2
176
     1
 73
     0
176
     1
 90
        0
176
     1
 40
0.6
176
     1
 41
30.0
176
     1
 63
     7
421
 16777215
176
     1
 74
     1
176
     1
 91
        4
176
     1
 64
     7
176
     1
 65
   257
176
     1
 75
     1
176
     1
175
     1
176
     1
 42
1.0
176
     1
 92
        0
176
     1
 66
   257
176
     1
 43
1.0
176
     1
 76
     1
176
     1
 77
     6
176
     1
 78
     2
176
     1
 67
     7
176
     1
 79
     3
176
     1
170
     0
176
     1
171
     0
176
     1
290
     0
176
     1
 93
        1
176
     1
 44
0.0
176
     1
173
     0
176
     1
1001
ACAD
1000
AcDbSavedByObjectVersion
1070
     0
  0
VISUALSTYLE
  5
3C
102
{ACAD_XDICTIONARY
360
12F
102
}
102
{ACAD_REACTORS
330
29
102
}
330
29
100
AcDbVisualStyle
  2
X-Ray
 70
    25
177
     2
291
     0
 71
     2
176
     1
 72
     2
176
     1
 73
     1
176
     1
 90
        1
176
     1
 40
0.5
176
     1
 41
30.0
176
     1
 63
     7
421
 16777215
176
     1
 74
     1
176
     1
 91
        0
176
     1
 64
     7
176
     1
 65
   257
176
     1
 75
     1
176
     1
175
     1
176
     1
 42
1.0
176
     1
 92
        8
176
     1
 66
     7
176
     1
 43
1.0
176
     1
 76
     1
176
     1
 77
     6
176
     1
 78
     2
176
     1
 67
     7
176
     1
 79
     3
176
     1
170
     0
176
     1
171
     0
176
     1
290
     0
176
     1
 93
       13
176
     1
 44
0.0
176
     1
173
     0
176
     1
1001
ACAD
1000
AcDbSavedByObjectVersion
1070
     0
  0
DICTIONARYVAR
  5
107
102
{ACAD_REACTORS
330
102
102
}
330
102
100
DictionaryVariables
280
     0
  1
1:1
  0
DICTIONARYVAR
  5
104
102
{ACAD_REACTORS
330
102
102
}
330
102
100
DictionaryVariables
280
     0
  1
STANDARD
  0
DICTIONARYVAR
  5
103
102
{ACAD_REACTORS
330
102
102
}
330
102
100
DictionaryVariables
280
     0
  1
STANDARD
  0
DICTIONARYVAR
  5
105
102
{ACAD_REACTORS
330
102
102
}
330
102
100
DictionaryVariables
280
     0
  1
Imperial24
  0
DICTIONARYVAR
  5
106
102
{ACAD_REACTORS
330
102
102
}
330
102
100
DictionaryVariables
280
     0
  1
Imperial24
  0
DICTIONARY
  5
13F
330
6B
100
AcDbDictionary
280
     1
281
     1
  3
ACAD_XREC_ROUNDTRIP
360
140
  0
DICTIONARY
  5
1A
330
19
100
AcDbDictionary
280
     1
281
     1
  3
BUMPTILE
360
1C
  3
DIFFUSETILE
360
1B
  3
OPACITYTILE
360
1F
  3
REFLECTIONTILE
360
1E
  3
REFRACTIONTILE
360
20
  3
SPECULARTILE
360
1D
  0
DICTIONARY
  5
12
330
11
100
AcDbDictionary
280
     1
281
     1
  3
BUMPTILE
360
14
  3
DIFFUSETILE
360
13
  3
OPACITYTILE
360
17
  3
REFLECTIONTILE
360
16
  3
REFRACTIONTILE
360
18
  3
SPECULARTILE
360
15
  0
DICTIONARY
  5
22
330
21
100
AcDbDictionary
280
     1
281
     1
  3
BUMPTILE
360
24
  3
DIFFUSETILE
360
23
  3
OPACITYTILE
360
27
  3
REFLECTIONTILE
360
26
  3
REFRACTIONTILE
360
28
  3
SPECULARTILE
360
25
  0
DICTIONARY
  5
13B
330
67
100
AcDbDictionary
280
     1
281
     1
  3
ACAD_XREC_ROUNDTRIP
360
13C
  0
DICTIONARY
  5
13D
330
69
100
AcDbDictionary
280
     1
281
     1
  3
ACAD_XREC_ROUNDTRIP
360
13E
  0
DICTIONARY
  5
108
330
65
100
AcDbDictionary
280
     1
281
     1
  3
ACAD_ROUNDTRIP_2008_TABLESTYLE_CELLSTYLEMAP
360
109
  0
DICTIONARY
  5
115
330
2F
100
AcDbDictionary
280
     1
281
     1
  3
ACAD_XREC_ROUNDTRIP
360
116
  0
DICTIONARY
  5
113
330
2E
100
AcDbDictionary
280
     1
281
     1
  3
ACAD_XREC_ROUNDTRIP
360
114
  0
DICTIONARY
  5
121
330
35
100
AcDbDictionary
280
     1
281
     1
  3
ACAD_XREC_ROUNDTRIP
360
122
  0
DICTIONARY
  5
129
330
39
100
AcDbDictionary
280
     1
281
     1
  3
ACAD_XREC_ROUNDTRIP
360
12A
  0
DICTIONARY
  5
11B
330
32
100
AcDbDictionary
280
     1
281
     1
  3
ACAD_XREC_ROUNDTRIP
360
11C
  0
DICTIONARY
  5
11F
330
34
100
AcDbDictionary
280
     1
281
     1
  3
ACAD_XREC_ROUNDTRIP
360
120
  0
DICTIONARY
  5
139
330
41
100
AcDbDictionary
280
     1
281
     1
  3
ACAD_XREC_ROUNDTRIP
360
13A
  0
DICTIONARY
  5
127
330
38
100
AcDbDictionary
280
     1
281
     1
  3
ACAD_XREC_ROUNDTRIP
360
128
  0
DICTIONARY
  5
10B
330
2A
100
AcDbDictionary
280
     1
281
     1
  3
ACAD_XREC_ROUNDTRIP
360
10C
  0
DICTIONARY
  5
10D
330
2B
100
AcDbDictionary
280
     1
281
     1
  3
ACAD_XREC_ROUNDTRIP
360
10E
  0
DICTIONARY
  5
10F
330
2C
100
AcDbDictionary
280
     1
281
     1
  3
ACAD_XREC_ROUNDTRIP
360
110
  0
DICTIONARY
  5
111
330
2D
100
AcDbDictionary
280
     1
281
     1
  3
ACAD_XREC_ROUNDTRIP
360
112
  0
DICTIONARY
  5
119
330
31
100
AcDbDictionary
280
     1
281
     1
  3
ACAD_XREC_ROUNDTRIP
360
11A
  0
DICTIONARY
  5
135
330
3F
100
AcDbDictionary
280
     1
281
     1
  3
ACAD_XREC_ROUNDTRIP
360
136
  0
DICTIONARY
  5
125
330
37
100
AcDbDictionary
280
     1
281
     1
  3
ACAD_XREC_ROUNDTRIP
360
126
  0
DICTIONARY
  5
137
330
40
100
AcDbDictionary
280
     1
281
     1
  3
ACAD_XREC_ROUNDTRIP
360
138
  0
DICTIONARY
  5
11D
330
33
100
AcDbDictionary
280
     1
281
     1
  3
ACAD_XREC_ROUNDTRIP
360
11E
  0
DICTIONARY
  5
133
330
3E
100
AcDbDictionary
280
     1
281
     1
  3
ACAD_XREC_ROUNDTRIP
360
134
  0
DICTIONARY
  5
131
330
3D
100
AcDbDictionary
280
     1
281
     1
  3
ACAD_XREC_ROUNDTRIP
360
132
  0
DICTIONARY
  5
12B
330
3A
100
AcDbDictionary
280
     1
281
     1
  3
ACAD_XREC_ROUNDTRIP
360
12C
  0
DICTIONARY
  5
12D
330
3B
100
AcDbDictionary
280
     1
281
     1
  3
ACAD_XREC_ROUNDTRIP
360
12E
  0
DICTIONARY
  5
123
330
36
100
AcDbDictionary
280
     1
281
     1
  3
ACAD_XREC_ROUNDTRIP
360
124
  0
DICTIONARY
  5
117
330
30
100
AcDbDictionary
280
     1
281
     1
  3
ACAD_XREC_ROUNDTRIP
360
118
  0
DICTIONARY
  5
12F
330
3C
100
AcDbDictionary
280
     1
281
     1
  3
ACAD_XREC_ROUNDTRIP
360
130
  0
XRECORD
  5
140
102
{ACAD_REACTORS
330
13F
102
}
330
13F
100
AcDbXrecord
280
     1
102
DISPLAYNAME
  1
Imperial24
102
FLAGS
 90
        0
  0
XRECORD
  5
1C
102
{ACAD_REACTORS
330
1A
102
}
330
1A
100
AcDbXrecord
280
     1
270
     1
271
     1
  0
XRECORD
  5
1B
102
{ACAD_REACTORS
330
1A
102
}
330
1A
100
AcDbXrecord
280
     1
270
     1
271
     1
  0
XRECORD
  5
1F
102
{ACAD_REACTORS
330
1A
102
}
330
1A
100
AcDbXrecord
280
     1
270
     1
271
     1
  0
XRECORD
  5
1E
102
{ACAD_REACTORS
330
1A
102
}
330
1A
100
AcDbXrecord
280
     1
270
     1
271
     1
  0
XRECORD
  5
20
102
{ACAD_REACTORS
330
1A
102
}
330
1A
100
AcDbXrecord
280
     1
270
     1
271
     1
  0
XRECORD
  5
1D
102
{ACAD_REACTORS
330
1A
102
}
330
1A
100
AcDbXrecord
280
     1
270
     1
271
     1
  0
XRECORD
  5
14
102
{ACAD_REACTORS
330
12
102
}
330
12
100
AcDbXrecord
280
     1
270
     1
271
     1
  0
XRECORD
  5
13
102
{ACAD_REACTORS
330
12
102
}
330
12
100
AcDbXrecord
280
     1
270
     1
271
     1
  0
XRECORD
  5
17
102
{ACAD_REACTORS
330
12
102
}
330
12
100
AcDbXrecord
280
     1
270
     1
271
     1
  0
XRECORD
  5
16
102
{ACAD_REACTORS
330
12
102
}
330
12
100
AcDbXrecord
280
     1
270
     1
271
     1
  0
XRECORD
  5
18
102
{ACAD_REACTORS
330
12
102
}
330
12
100
AcDbXrecord
280
     1
270
     1
271
     1
  0
XRECORD
  5
15
102
{ACAD_REACTORS
330
12
102
}
330
12
100
AcDbXrecord
280
     1
270
     1
271
     1
  0
XRECORD
  5
24
102
{ACAD_REACTORS
330
22
102
}
330
22
100
AcDbXrecord
280
     1
270
     1
271
     1
  0
XRECORD
  5
23
102
{ACAD_REACTORS
330
22
102
}
330
22
100
AcDbXrecord
280
     1
270
     1
271
     1
  0
XRECORD
  5
27
102
{ACAD_REACTORS
330
22
102
}
330
22
100
AcDbXrecord
280
     1
270
     1
271
     1
  0
XRECORD
  5
26
102
{ACAD_REACTORS
330
22
102
}
330
22
100
AcDbXrecord
280
     1
270
     1
271
     1
  0
XRECORD
  5
28
102
{ACAD_REACTORS
330
22
102
}
330
22
100
AcDbXrecord
280
     1
270
     1
271
     1
  0
XRECORD
  5
25
102
{ACAD_REACTORS
330
22
102
}
330
22
100
AcDbXrecord
280
     1
270
     1
271
     1
  0
XRECORD
  5
13C
102
{ACAD_REACTORS
330
13B
102
}
330
13B
100
AcDbXrecord
280
     1
102
ACAD_ROUNDTRIP_2012_MLEADER_STYLE
298
     1
  0
XRECORD
  5
13E
102
{ACAD_REACTORS
330
13D
102
}
330
13D
100
AcDbXrecord
280
     1
102
DISPLAYNAME
  1
Imperial24
102
FLAGS
 90
        0
  0
CELLSTYLEMAP
  5
109
102
{ACAD_REACTORS
330
108
102
}
330
108
100
AcDbCellStyleMap
 90
        3
300
CELLSTYLE
  1
TABLEFORMAT_BEGIN
 90
        5
170
     1
 91
        0
 92
    32768
 62
   257
 93
        1
300
CONTENTFORMAT
  1
CONTENTFORMAT_BEGIN
 90
        0
 91
        0
 92
      512
 93
        0
300

 40
0.0
140
1.0
 94
        5
 62
     0
340
55
144
0.25
309
CONTENTFORMAT_END
171
     0
 94
        0
309
TABLEFORMAT_END
  1
CELLSTYLE_BEGIN
 90
        1
 91
        1
300
_TITLE
309
CELLSTYLE_END
300
CELLSTYLE
  1
TABLEFORMAT_BEGIN
 90
        5
170
     1
 91
        0
 92
        0
 62
   257
 93
        1
300
CONTENTFORMAT
  1
CONTENTFORMAT_BEGIN
 90
        0
 91
        0
 92
      512
 93
        0
300

 40
0.0
140
1.0
 94
        5
 62
     0
340
55
144
0.18
309
CONTENTFORMAT_END
171
     0
 94
        0
309
TABLEFORMAT_END
  1
CELLSTYLE_BEGIN
 90
        2
 91
        1
300
_HEADER
309
CELLSTYLE_END
300
CELLSTYLE
  1
TABLEFORMAT_BEGIN
 90
        5
170
     1
 91
        0
 92
        0
 62
   257
 93
        1
300
CONTENTFORMAT
  1
CONTENTFORMAT_BEGIN
 90
        0
 91
        0
 92
      512
 93
        0
300

 40
0.0
140
1.0
 94
        2
 62
     0
340
55
144
0.18
309
CONTENTFORMAT_END
171
     0
 94
        0
309
TABLEFORMAT_END
  1
CELLSTYLE_BEGIN
 90
        3
 91
        2
300
_DATA
309
CELLSTYLE_END
  0
XRECORD
  5
116
102
{ACAD_REACTORS
330
115
102
}
330
115
100
AcDbXrecord
280
     1
102
RTVSPost2010Prop28
280
     1
102
RTVSPost2010PropOp28
 70
     1
102
RTVSPost2010Prop29
280
     1
102
RTVSPost2010PropOp29
 70
     1
102
RTVSPost2010Prop30
280
     0
102
RTVSPost2010PropOp30
 70
     1
102
RTVSPost2010Prop31
280
     0
102
RTVSPost2010PropOp31
 70
     1
102
RTVSPost2010Prop32
280
     0
102
RTVSPost2010PropOp32
 70
     1
102
RTVSPost2010Prop33
280
     0
102
RTVSPost2010PropOp33
 70
     1
102
RTVSPost2010Prop34
280
     0
102
RTVSPost2010PropOp34
 70
     1
102
RTVSPost2010Prop35
280
     0
102
RTVSPost2010PropOp35
 70
     1
102
RTVSPost2010Prop36
280
     0
102
RTVSPost2010PropOp36
 70
     1
102
RTVSPost2010Prop37
 90
       50
102
RTVSPost2010PropOp37
 70
     1
102
RTVSPost2010Prop38
140
0.0
102
RTVSPost2010PropOp38
 70
     1
102
RTVSPost2010Prop39
140
1.0
102
RTVSPost2010PropOp39
 70
     1
102
RTVSPost2010Prop40
 90
        0
102
RTVSPost2010PropOp40
 70
     1
102
RTVSPost2010Prop41ColorIndex
 90
       18
102
RTVSPost2010Prop41ColorRGB
 90
        0
102
RTVSPost2010PropOp41
 70
     1
102
RTVSPost2010Prop42
 90
       50
102
RTVSPost2010PropOp42
 70
     1
102
RTVSPost2010Prop43
 90
        3
102
RTVSPost2010PropOp43
 70
     1
102
RTVSPost2010Prop44ColorIndex
 90
        5
102
RTVSPost2010Prop44ColorRGB
 90
      255
102
RTVSPost2010PropOp44
 70
     1
102
RTVSPost2010Prop45
280
     0
102
RTVSPost2010PropOp45
 70
     1
102
RTVSPost2010Prop46
 90
       50
102
RTVSPost2010PropOp46
 70
     1
102
RTVSPost2010Prop47
 90
       50
102
RTVSPost2010PropOp47
 70
     1
102
RTVSPost2010Prop48
 90
       50
102
RTVSPost2010PropOp48
 70
     1
102
RTVSPost2010Prop49
280
     0
102
RTVSPost2010PropOp49
 70
     1
102
RTVSPost2010Prop50
 90
       50
102
RTVSPost2010PropOp50
 70
     1
102
RTVSPost2010Prop51ColorIndex
 90
      256
102
RTVSPost2010Prop51ColorRGB
 90
-16777216
102
RTVSPost2010PropOp51
 70
     0
102
RTVSPost2010Prop52
140
1.0
102
RTVSPost2010PropOp52
 70
     0
102
RTVSPost2010Prop53
 90
        2
102
RTVSPost2010PropOp53
 70
     1
102
RTVSPost2010Prop54
  1
strokes_ogs.tif
102
RTVSPost2010PropOp54
 70
     1
102
RTVSPost2010Prop55
280
     0
102
RTVSPost2010PropOp55
 70
     1
102
RTVSPost2010Prop56
140
1.0
102
RTVSPost2010PropOp56
 70
     1
102
RTVSPost2010Prop57
140
1.0
102
RTVSPost2010PropOp57
 70
     1
  0
XRECORD
  5
114
102
{ACAD_REACTORS
330
113
102
}
330
113
100
AcDbXrecord
280
     1
102
RTVSPost2010Prop28
280
     0
102
RTVSPost2010PropOp28
 70
     1
102
RTVSPost2010Prop29
280
     1
102
RTVSPost2010PropOp29
 70
     1
102
RTVSPost2010Prop30
280
     1
102
RTVSPost2010PropOp30
 70
     1
102
RTVSPost2010Prop31
280
     0
102
RTVSPost2010PropOp31
 70
     1
102
RTVSPost2010Prop32
280
     0
102
RTVSPost2010PropOp32
 70
     1
102
RTVSPost2010Prop33
280
     0
102
RTVSPost2010PropOp33
 70
     1
102
RTVSPost2010Prop34
280
     0
102
RTVSPost2010PropOp34
 70
     1
102
RTVSPost2010Prop35
280
     0
102
RTVSPost2010PropOp35
 70
     1
102
RTVSPost2010Prop36
280
     0
102
RTVSPost2010PropOp36
 70
     1
102
RTVSPost2010Prop37
 90
       50
102
RTVSPost2010PropOp37
 70
     1
102
RTVSPost2010Prop38
140
0.0
102
RTVSPost2010PropOp38
 70
     1
102
RTVSPost2010Prop39
140
1.0
102
RTVSPost2010PropOp39
 70
     1
102
RTVSPost2010Prop40
 90
        0
102
RTVSPost2010PropOp40
 70
     1
102
RTVSPost2010Prop41ColorIndex
 90
       18
102
RTVSPost2010Prop41ColorRGB
 90
        0
102
RTVSPost2010PropOp41
 70
     1
102
RTVSPost2010Prop42
 90
       50
102
RTVSPost2010PropOp42
 70
     1
102
RTVSPost2010Prop43
 90
        3
102
RTVSPost2010PropOp43
 70
     1
102
RTVSPost2010Prop44ColorIndex
 90
        5
102
RTVSPost2010Prop44ColorRGB
 90
      255
102
RTVSPost2010PropOp44
 70
     1
102
RTVSPost2010Prop45
280
     0
102
RTVSPost2010PropOp45
 70
     1
102
RTVSPost2010Prop46
 90
       50
102
RTVSPost2010PropOp46
 70
     1
102
RTVSPost2010Prop47
 90
       50
102
RTVSPost2010PropOp47
 70
     1
102
RTVSPost2010Prop48
 90
       50
102
RTVSPost2010PropOp48
 70
     1
102
RTVSPost2010Prop49
280
     0
102
RTVSPost2010PropOp49
 70
     1
102
RTVSPost2010Prop50
 90
       50
102
RTVSPost2010PropOp50
 70
     1
102
RTVSPost2010Prop51ColorIndex
 90
      256
102
RTVSPost2010Prop51ColorRGB
 90
-16777216
102
RTVSPost2010PropOp51
 70
     0
102
RTVSPost2010Prop52
140
1.0
102
RTVSPost2010PropOp52
 70
     0
102
RTVSPost2010Prop53
 90
        2
102
RTVSPost2010PropOp53
 70
     1
102
RTVSPost2010Prop54
  1
strokes_ogs.tif
102
RTVSPost2010PropOp54
 70
     1
102
RTVSPost2010Prop55
280
     0
102
RTVSPost2010PropOp55
 70
     1
102
RTVSPost2010Prop56
140
1.0
102
RTVSPost2010PropOp56
 70
     1
102
RTVSPost2010Prop57
140
1.0
102
RTVSPost2010PropOp57
 70
     1
  0
XRECORD
  5
122
102
{ACAD_REACTORS
330
121
102
}
330
121
100
AcDbXrecord
280
     1
102
RTVSPost2010Prop28
280
     0
102
RTVSPost2010PropOp28
 70
     1
102
RTVSPost2010Prop29
280
     1
102
RTVSPost2010PropOp29
 70
     1
102
RTVSPost2010Prop30
280
     1
102
RTVSPost2010PropOp30
 70
     1
102
RTVSPost2010Prop31
280
     0
102
RTVSPost2010PropOp31
 70
     1
102
RTVSPost2010Prop32
280
     0
102
RTVSPost2010PropOp32
 70
     1
102
RTVSPost2010Prop33
280
     0
102
RTVSPost2010PropOp33
 70
     1
102
RTVSPost2010Prop34
280
     0
102
RTVSPost2010PropOp34
 70
     1
102
RTVSPost2010Prop35
280
     0
102
RTVSPost2010PropOp35
 70
     1
102
RTVSPost2010Prop36
280
     0
102
RTVSPost2010PropOp36
 70
     1
102
RTVSPost2010Prop37
 90
       50
102
RTVSPost2010PropOp37
 70
     1
102
RTVSPost2010Prop38
140
0.0
102
RTVSPost2010PropOp38
 70
     1
102
RTVSPost2010Prop39
140
1.0
102
RTVSPost2010PropOp39
 70
     1
102
RTVSPost2010Prop40
 90
        0
102
RTVSPost2010PropOp40
 70
     1
102
RTVSPost2010Prop41ColorIndex
 90
       18
102
RTVSPost2010Prop41ColorRGB
 90
        0
102
RTVSPost2010PropOp41
 70
     1
102
RTVSPost2010Prop42
 90
       50
102
RTVSPost2010PropOp42
 70
     1
102
RTVSPost2010Prop43
 90
        3
102
RTVSPost2010PropOp43
 70
     1
102
RTVSPost2010Prop44ColorIndex
 90
        5
102
RTVSPost2010Prop44ColorRGB
 90
      255
102
RTVSPost2010PropOp44
 70
     1
102
RTVSPost2010Prop45
280
     0
102
RTVSPost2010PropOp45
 70
     1
102
RTVSPost2010Prop46
 90
       50
102
RTVSPost2010PropOp46
 70
     1
102
RTVSPost2010Prop47
 90
       50
102
RTVSPost2010PropOp47
 70
     1
102
RTVSPost2010Prop48
 90
       50
102
RTVSPost2010PropOp48
 70
     1
102
RTVSPost2010Prop49
280
     0
102
RTVSPost2010PropOp49
 70
     1
102
RTVSPost2010Prop50
 90
       50
102
RTVSPost2010PropOp50
 70
     1
102
RTVSPost2010Prop51ColorIndex
 90
      256
102
RTVSPost2010Prop51ColorRGB
 90
-16777216
102
RTVSPost2010PropOp51
 70
     0
102
RTVSPost2010Prop52
140
1.0
102
RTVSPost2010PropOp52
 70
     0
102
RTVSPost2010Prop53
 90
        2
102
RTVSPost2010PropOp53
 70
     1
102
RTVSPost2010Prop54
  1
strokes_ogs.tif
102
RTVSPost2010PropOp54
 70
     1
102
RTVSPost2010Prop55
280
     0
102
RTVSPost2010PropOp55
 70
     1
102
RTVSPost2010Prop56
140
1.0
102
RTVSPost2010PropOp56
 70
     1
102
RTVSPost2010Prop57
140
1.0
102
RTVSPost2010PropOp57
 70
     1
  0
XRECORD
  5
12A
102
{ACAD_REACTORS
330
129
102
}
330
129
100
AcDbXrecord
280
     1
102
RTVSPost2010Prop28
280
     0
102
RTVSPost2010PropOp28
 70
     1
102
RTVSPost2010Prop29
280
     1
102
RTVSPost2010PropOp29
 70
     1
102
RTVSPost2010Prop30
280
     1
102
RTVSPost2010PropOp30
 70
     1
102
RTVSPost2010Prop31
280
     0
102
RTVSPost2010PropOp31
 70
     1
102
RTVSPost2010Prop32
280
     0
102
RTVSPost2010PropOp32
 70
     1
102
RTVSPost2010Prop33
280
     0
102
RTVSPost2010PropOp33
 70
     1
102
RTVSPost2010Prop34
280
     0
102
RTVSPost2010PropOp34
 70
     1
102
RTVSPost2010Prop35
280
     0
102
RTVSPost2010PropOp35
 70
     1
102
RTVSPost2010Prop36
280
     0
102
RTVSPost2010PropOp36
 70
     1
102
RTVSPost2010Prop37
 90
       50
102
RTVSPost2010PropOp37
 70
     1
102
RTVSPost2010Prop38
140
0.0
102
RTVSPost2010PropOp38
 70
     1
102
RTVSPost2010Prop39
140
1.0
102
RTVSPost2010PropOp39
 70
     1
102
RTVSPost2010Prop40
 90
        0
102
RTVSPost2010PropOp40
 70
     1
102
RTVSPost2010Prop41ColorIndex
 90
       18
102
RTVSPost2010Prop41ColorRGB
 90
        0
102
RTVSPost2010PropOp41
 70
     1
102
RTVSPost2010Prop42
 90
       50
102
RTVSPost2010PropOp42
 70
     1
102
RTVSPost2010Prop43
 90
        3
102
RTVSPost2010PropOp43
 70
     1
102
RTVSPost2010Prop44ColorIndex
 90
        5
102
RTVSPost2010Prop44ColorRGB
 90
      255
102
RTVSPost2010PropOp44
 70
     1
102
RTVSPost2010Prop45
280
     0
102
RTVSPost2010PropOp45
 70
     1
102
RTVSPost2010Prop46
 90
       50
102
RTVSPost2010PropOp46
 70
     1
102
RTVSPost2010Prop47
 90
       50
102
RTVSPost2010PropOp47
 70
     1
102
RTVSPost2010Prop48
 90
       50
102
RTVSPost2010PropOp48
 70
     1
102
RTVSPost2010Prop49
280
     0
102
RTVSPost2010PropOp49
 70
     1
102
RTVSPost2010Prop50
 90
       50
102
RTVSPost2010PropOp50
 70
     1
102
RTVSPost2010Prop51ColorIndex
 90
      256
102
RTVSPost2010Prop51ColorRGB
 90
-16777216
102
RTVSPost2010PropOp51
 70
     0
102
RTVSPost2010Prop52
140
1.0
102
RTVSPost2010PropOp52
 70
     0
102
RTVSPost2010Prop53
 90
        2
102
RTVSPost2010PropOp53
 70
     1
102
RTVSPost2010Prop54
  1
strokes_ogs.tif
102
RTVSPost2010PropOp54
 70
     1
102
RTVSPost2010Prop55
280
     0
102
RTVSPost2010PropOp55
 70
     1
102
RTVSPost2010Prop56
140
1.0
102
RTVSPost2010PropOp56
 70
     1
102
RTVSPost2010Prop57
140
1.0
102
RTVSPost2010PropOp57
 70
     1
  0
XRECORD
  5
11C
102
{ACAD_REACTORS
330
11B
102
}
330
11B
100
AcDbXrecord
280
     1
102
RTVSPost2010Prop28
280
     0
102
RTVSPost2010PropOp28
 70
     1
102
RTVSPost2010Prop29
280
     1
102
RTVSPost2010PropOp29
 70
     1
102
RTVSPost2010Prop30
280
     1
102
RTVSPost2010PropOp30
 70
     1
102
RTVSPost2010Prop31
280
     0
102
RTVSPost2010PropOp31
 70
     1
102
RTVSPost2010Prop32
280
     0
102
RTVSPost2010PropOp32
 70
     1
102
RTVSPost2010Prop33
280
     0
102
RTVSPost2010PropOp33
 70
     1
102
RTVSPost2010Prop34
280
     0
102
RTVSPost2010PropOp34
 70
     1
102
RTVSPost2010Prop35
280
     0
102
RTVSPost2010PropOp35
 70
     1
102
RTVSPost2010Prop36
280
     0
102
RTVSPost2010PropOp36
 70
     1
102
RTVSPost2010Prop37
 90
       50
102
RTVSPost2010PropOp37
 70
     1
102
RTVSPost2010Prop38
140
0.0
102
RTVSPost2010PropOp38
 70
     1
102
RTVSPost2010Prop39
140
1.0
102
RTVSPost2010PropOp39
 70
     1
102
RTVSPost2010Prop40
 90
        0
102
RTVSPost2010PropOp40
 70
     1
102
RTVSPost2010Prop41ColorIndex
 90
       18
102
RTVSPost2010Prop41ColorRGB
 90
        0
102
RTVSPost2010PropOp41
 70
     1
102
RTVSPost2010Prop42
 90
       50
102
RTVSPost2010PropOp42
 70
     1
102
RTVSPost2010Prop43
 90
        3
102
RTVSPost2010PropOp43
 70
     1
102
RTVSPost2010Prop44ColorIndex
 90
        5
102
RTVSPost2010Prop44ColorRGB
 90
      255
102
RTVSPost2010PropOp44
 70
     1
102
RTVSPost2010Prop45
280
     0
102
RTVSPost2010PropOp45
 70
     1
102
RTVSPost2010Prop46
 90
       50
102
RTVSPost2010PropOp46
 70
     1
102
RTVSPost2010Prop47
 90
       50
102
RTVSPost2010PropOp47
 70
     1
102
RTVSPost2010Prop48
 90
       50
102
RTVSPost2010PropOp48
 70
     1
102
RTVSPost2010Prop49
280
     0
102
RTVSPost2010PropOp49
 70
     1
102
RTVSPost2010Prop50
 90
       50
102
RTVSPost2010PropOp50
 70
     1
102
RTVSPost2010Prop51ColorIndex
 90
      256
102
RTVSPost2010Prop51ColorRGB
 90
-16777216
102
RTVSPost2010PropOp51
 70
     0
102
RTVSPost2010Prop52
140
1.0
102
RTVSPost2010PropOp52
 70
     0
102
RTVSPost2010Prop53
 90
        2
102
RTVSPost2010PropOp53
 70
     1
102
RTVSPost2010Prop54
  1
strokes_ogs.tif
102
RTVSPost2010PropOp54
 70
     1
102
RTVSPost2010Prop55
280
     0
102
RTVSPost2010PropOp55
 70
     1
102
RTVSPost2010Prop56
140
1.0
102
RTVSPost2010PropOp56
 70
     1
102
RTVSPost2010Prop57
140
1.0
102
RTVSPost2010PropOp57
 70
     1
  0
XRECORD
  5
120
102
{ACAD_REACTORS
330
11F
102
}
330
11F
100
AcDbXrecord
280
     1
102
RTVSPost2010Prop28
280
     0
102
RTVSPost2010PropOp28
 70
     1
102
RTVSPost2010Prop29
280
     1
102
RTVSPost2010PropOp29
 70
     1
102
RTVSPost2010Prop30
280
     1
102
RTVSPost2010PropOp30
 70
     1
102
RTVSPost2010Prop31
280
     0
102
RTVSPost2010PropOp31
 70
     1
102
RTVSPost2010Prop32
280
     0
102
RTVSPost2010PropOp32
 70
     1
102
RTVSPost2010Prop33
280
     0
102
RTVSPost2010PropOp33
 70
     1
102
RTVSPost2010Prop34
280
     0
102
RTVSPost2010PropOp34
 70
     1
102
RTVSPost2010Prop35
280
     0
102
RTVSPost2010PropOp35
 70
     1
102
RTVSPost2010Prop36
280
     0
102
RTVSPost2010PropOp36
 70
     1
102
RTVSPost2010Prop37
 90
       50
102
RTVSPost2010PropOp37
 70
     1
102
RTVSPost2010Prop38
140
0.0
102
RTVSPost2010PropOp38
 70
     1
102
RTVSPost2010Prop39
140
1.0
102
RTVSPost2010PropOp39
 70
     1
102
RTVSPost2010Prop40
 90
        0
102
RTVSPost2010PropOp40
 70
     1
102
RTVSPost2010Prop41ColorIndex
 90
       18
102
RTVSPost2010Prop41ColorRGB
 90
        0
102
RTVSPost2010PropOp41
 70
     1
102
RTVSPost2010Prop42
 90
       50
102
RTVSPost2010PropOp42
 70
     1
102
RTVSPost2010Prop43
 90
        3
102
RTVSPost2010PropOp43
 70
     1
102
RTVSPost2010Prop44ColorIndex
 90
        5
102
RTVSPost2010Prop44ColorRGB
 90
      255
102
RTVSPost2010PropOp44
 70
     1
102
RTVSPost2010Prop45
280
     0
102
RTVSPost2010PropOp45
 70
     1
102
RTVSPost2010Prop46
 90
       50
102
RTVSPost2010PropOp46
 70
     1
102
RTVSPost2010Prop47
 90
       50
102
RTVSPost2010PropOp47
 70
     1
102
RTVSPost2010Prop48
 90
       50
102
RTVSPost2010PropOp48
 70
     1
102
RTVSPost2010Prop49
280
     0
102
RTVSPost2010PropOp49
 70
     1
102
RTVSPost2010Prop50
 90
       50
102
RTVSPost2010PropOp50
 70
     1
102
RTVSPost2010Prop51ColorIndex
 90
      256
102
RTVSPost2010Prop51ColorRGB
 90
-16777216
102
RTVSPost2010PropOp51
 70
     0
102
RTVSPost2010Prop52
140
1.0
102
RTVSPost2010PropOp52
 70
     0
102
RTVSPost2010Prop53
 90
        2
102
RTVSPost2010PropOp53
 70
     1
102
RTVSPost2010Prop54
  1
strokes_ogs.tif
102
RTVSPost2010PropOp54
 70
     1
102
RTVSPost2010Prop55
280
     0
102
RTVSPost2010PropOp55
 70
     1
102
RTVSPost2010Prop56
140
1.0
102
RTVSPost2010PropOp56
 70
     1
102
RTVSPost2010Prop57
140
1.0
102
RTVSPost2010PropOp57
 70
     1
  0
XRECORD
  5
13A
102
{ACAD_REACTORS
330
139
102
}
330
139
100
AcDbXrecord
280
     1
102
RTVSPost2010Prop28
280
     0
102
RTVSPost2010PropOp28
 70
     0
102
RTVSPost2010Prop29
280
     1
102
RTVSPost2010PropOp29
 70
     0
102
RTVSPost2010Prop30
280
     1
102
RTVSPost2010PropOp30
 70
     0
102
RTVSPost2010Prop31
280
     0
102
RTVSPost2010PropOp31
 70
     0
102
RTVSPost2010Prop32
280
     0
102
RTVSPost2010PropOp32
 70
     0
102
RTVSPost2010Prop33
280
     0
102
RTVSPost2010PropOp33
 70
     0
102
RTVSPost2010Prop34
280
     0
102
RTVSPost2010PropOp34
 70
     0
102
RTVSPost2010Prop35
280
     0
102
RTVSPost2010PropOp35
 70
     0
102
RTVSPost2010Prop36
280
     0
102
RTVSPost2010PropOp36
 70
     0
102
RTVSPost2010Prop37
 90
       50
102
RTVSPost2010PropOp37
 70
     0
102
RTVSPost2010Prop38
140
0.0
102
RTVSPost2010PropOp38
 70
     0
102
RTVSPost2010Prop39
140
1.0
102
RTVSPost2010PropOp39
 70
     0
102
RTVSPost2010Prop40
 90
        0
102
RTVSPost2010PropOp40
 70
     0
102
RTVSPost2010Prop41ColorIndex
 90
       18
102
RTVSPost2010Prop41ColorRGB
 90
        0
102
RTVSPost2010PropOp41
 70
     0
102
RTVSPost2010Prop42
 90
       50
102
RTVSPost2010PropOp42
 70
     0
102
RTVSPost2010Prop43
 90
        3
102
RTVSPost2010PropOp43
 70
     0
102
RTVSPost2010Prop44ColorIndex
 90
        5
102
RTVSPost2010Prop44ColorRGB
 90
      255
102
RTVSPost2010PropOp44
 70
     0
102
RTVSPost2010Prop45
280
     0
102
RTVSPost2010PropOp45
 70
     0
102
RTVSPost2010Prop46
 90
       50
102
RTVSPost2010PropOp46
 70
     0
102
RTVSPost2010Prop47
 90
       50
102
RTVSPost2010PropOp47
 70
     0
102
RTVSPost2010Prop48
 90
       50
102
RTVSPost2010PropOp48
 70
     0
102
RTVSPost2010Prop49
280
     0
102
RTVSPost2010PropOp49
 70
     0
102
RTVSPost2010Prop50
 90
       50
102
RTVSPost2010PropOp50
 70
     0
102
RTVSPost2010Prop51ColorIndex
 90
      256
102
RTVSPost2010Prop51ColorRGB
 90
-16777216
102
RTVSPost2010PropOp51
 70
     0
102
RTVSPost2010Prop52
140
1.0
102
RTVSPost2010PropOp52
 70
     0
102
RTVSPost2010Prop53
 90
        2
102
RTVSPost2010PropOp53
 70
     0
102
RTVSPost2010Prop54
  1
strokes_ogs.tif
102
RTVSPost2010PropOp54
 70
     0
102
RTVSPost2010Prop55
280
     0
102
RTVSPost2010PropOp55
 70
     0
102
RTVSPost2010Prop56
140
1.0
102
RTVSPost2010PropOp56
 70
     0
102
RTVSPost2010Prop57
140
1.0
102
RTVSPost2010PropOp57
 70
     0
  0
XRECORD
  5
128
102
{ACAD_REACTORS
330
127
102
}
330
127
100
AcDbXrecord
280
     1
102
RTVSPost2010Prop28
280
     0
102
RTVSPost2010PropOp28
 70
     1
102
RTVSPost2010Prop29
280
     1
102
RTVSPost2010PropOp29
 70
     1
102
RTVSPost2010Prop30
280
     1
102
RTVSPost2010PropOp30
 70
     1
102
RTVSPost2010Prop31
280
     0
102
RTVSPost2010PropOp31
 70
     1
102
RTVSPost2010Prop32
280
     0
102
RTVSPost2010PropOp32
 70
     1
102
RTVSPost2010Prop33
280
     0
102
RTVSPost2010PropOp33
 70
     1
102
RTVSPost2010Prop34
280
     0
102
RTVSPost2010PropOp34
 70
     1
102
RTVSPost2010Prop35
280
     0
102
RTVSPost2010PropOp35
 70
     1
102
RTVSPost2010Prop36
280
     0
102
RTVSPost2010PropOp36
 70
     1
102
RTVSPost2010Prop37
 90
       50
102
RTVSPost2010PropOp37
 70
     1
102
RTVSPost2010Prop38
140
0.0
102
RTVSPost2010PropOp38
 70
     1
102
RTVSPost2010Prop39
140
1.0
102
RTVSPost2010PropOp39
 70
     1
102
RTVSPost2010Prop40
 90
        0
102
RTVSPost2010PropOp40
 70
     1
102
RTVSPost2010Prop41ColorIndex
 90
       18
102
RTVSPost2010Prop41ColorRGB
 90
        0
102
RTVSPost2010PropOp41
 70
     1
102
RTVSPost2010Prop42
 90
       50
102
RTVSPost2010PropOp42
 70
     1
102
RTVSPost2010Prop43
 90
        3
102
RTVSPost2010PropOp43
 70
     1
102
RTVSPost2010Prop44ColorIndex
 90
        5
102
RTVSPost2010Prop44ColorRGB
 90
      255
102
RTVSPost2010PropOp44
 70
     1
102
RTVSPost2010Prop45
280
     0
102
RTVSPost2010PropOp45
 70
     1
102
RTVSPost2010Prop46
 90
       50
102
RTVSPost2010PropOp46
 70
     1
102
RTVSPost2010Prop47
 90
       50
102
RTVSPost2010PropOp47
 70
     1
102
RTVSPost2010Prop48
 90
       50
102
RTVSPost2010PropOp48
 70
     1
102
RTVSPost2010Prop49
280
     0
102
RTVSPost2010PropOp49
 70
     1
102
RTVSPost2010Prop50
 90
       50
102
RTVSPost2010PropOp50
 70
     1
102
RTVSPost2010Prop51ColorIndex
 90
      256
102
RTVSPost2010Prop51ColorRGB
 90
-16777216
102
RTVSPost2010PropOp51
 70
     0
102
RTVSPost2010Prop52
140
1.0
102
RTVSPost2010PropOp52
 70
     0
102
RTVSPost2010Prop53
 90
        2
102
RTVSPost2010PropOp53
 70
     1
102
RTVSPost2010Prop54
  1
strokes_ogs.tif
102
RTVSPost2010PropOp54
 70
     1
102
RTVSPost2010Prop55
280
     0
102
RTVSPost2010PropOp55
 70
     1
102
RTVSPost2010Prop56
140
1.0
102
RTVSPost2010PropOp56
 70
     1
102
RTVSPost2010Prop57
140
1.0
102
RTVSPost2010PropOp57
 70
     1
  0
XRECORD
  5
10C
102
{ACAD_REACTORS
330
10B
102
}
330
10B
100
AcDbXrecord
280
     1
102
RTVSPost2010Prop28
280
     0
102
RTVSPost2010PropOp28
 70
     1
102
RTVSPost2010Prop29
280
     1
102
RTVSPost2010PropOp29
 70
     1
102
RTVSPost2010Prop30
280
     1
102
RTVSPost2010PropOp30
 70
     1
102
RTVSPost2010Prop31
280
     0
102
RTVSPost2010PropOp31
 70
     1
102
RTVSPost2010Prop32
280
     0
102
RTVSPost2010PropOp32
 70
     1
102
RTVSPost2010Prop33
280
     0
102
RTVSPost2010PropOp33
 70
     1
102
RTVSPost2010Prop34
280
     0
102
RTVSPost2010PropOp34
 70
     1
102
RTVSPost2010Prop35
280
     0
102
RTVSPost2010PropOp35
 70
     1
102
RTVSPost2010Prop36
280
     0
102
RTVSPost2010PropOp36
 70
     1
102
RTVSPost2010Prop37
 90
       50
102
RTVSPost2010PropOp37
 70
     1
102
RTVSPost2010Prop38
140
0.0
102
RTVSPost2010PropOp38
 70
     1
102
RTVSPost2010Prop39
140
1.0
102
RTVSPost2010PropOp39
 70
     1
102
RTVSPost2010Prop40
 90
        0
102
RTVSPost2010PropOp40
 70
     1
102
RTVSPost2010Prop41ColorIndex
 90
       18
102
RTVSPost2010Prop41ColorRGB
 90
        0
102
RTVSPost2010PropOp41
 70
     1
102
RTVSPost2010Prop42
 90
       50
102
RTVSPost2010PropOp42
 70
     1
102
RTVSPost2010Prop43
 90
        3
102
RTVSPost2010PropOp43
 70
     1
102
RTVSPost2010Prop44ColorIndex
 90
        5
102
RTVSPost2010Prop44ColorRGB
 90
      255
102
RTVSPost2010PropOp44
 70
     1
102
RTVSPost2010Prop45
280
     0
102
RTVSPost2010PropOp45
 70
     1
102
RTVSPost2010Prop46
 90
       50
102
RTVSPost2010PropOp46
 70
     1
102
RTVSPost2010Prop47
 90
       50
102
RTVSPost2010PropOp47
 70
     1
102
RTVSPost2010Prop48
 90
       50
102
RTVSPost2010PropOp48
 70
     1
102
RTVSPost2010Prop49
280
     0
102
RTVSPost2010PropOp49
 70
     1
102
RTVSPost2010Prop50
 90
       50
102
RTVSPost2010PropOp50
 70
     1
102
RTVSPost2010Prop51ColorIndex
 90
      256
102
RTVSPost2010Prop51ColorRGB
 90
-16777216
102
RTVSPost2010PropOp51
 70
     0
102
RTVSPost2010Prop52
140
1.0
102
RTVSPost2010PropOp52
 70
     0
102
RTVSPost2010Prop53
 90
        2
102
RTVSPost2010PropOp53
 70
     1
102
RTVSPost2010Prop54
  1
strokes_ogs.tif
102
RTVSPost2010PropOp54
 70
     1
102
RTVSPost2010Prop55
280
     0
102
RTVSPost2010PropOp55
 70
     1
102
RTVSPost2010Prop56
140
1.0
102
RTVSPost2010PropOp56
 70
     1
102
RTVSPost2010Prop57
140
1.0
102
RTVSPost2010PropOp57
 70
     1
  0
XRECORD
  5
10E
102
{ACAD_REACTORS
330
10D
102
}
330
10D
100
AcDbXrecord
280
     1
102
RTVSPost2010Prop28
280
     0
102
RTVSPost2010PropOp28
 70
     1
102
RTVSPost2010Prop29
280
     1
102
RTVSPost2010PropOp29
 70
     1
102
RTVSPost2010Prop30
280
     1
102
RTVSPost2010PropOp30
 70
     1
102
RTVSPost2010Prop31
280
     0
102
RTVSPost2010PropOp31
 70
     1
102
RTVSPost2010Prop32
280
     0
102
RTVSPost2010PropOp32
 70
     1
102
RTVSPost2010Prop33
280
     0
102
RTVSPost2010PropOp33
 70
     1
102
RTVSPost2010Prop34
280
     0
102
RTVSPost2010PropOp34
 70
     1
102
RTVSPost2010Prop35
280
     0
102
RTVSPost2010PropOp35
 70
     1
102
RTVSPost2010Prop36
280
     0
102
RTVSPost2010PropOp36
 70
     1
102
RTVSPost2010Prop37
 90
       50
102
RTVSPost2010PropOp37
 70
     1
102
RTVSPost2010Prop38
140
0.0
102
RTVSPost2010PropOp38
 70
     1
102
RTVSPost2010Prop39
140
1.0
102
RTVSPost2010PropOp39
 70
     1
102
RTVSPost2010Prop40
 90
        0
102
RTVSPost2010PropOp40
 70
     1
102
RTVSPost2010Prop41ColorIndex
 90
       18
102
RTVSPost2010Prop41ColorRGB
 90
        0
102
RTVSPost2010PropOp41
 70
     1
102
RTVSPost2010Prop42
 90
       50
102
RTVSPost2010PropOp42
 70
     1
102
RTVSPost2010Prop43
 90
        3
102
RTVSPost2010PropOp43
 70
     1
102
RTVSPost2010Prop44ColorIndex
 90
        5
102
RTVSPost2010Prop44ColorRGB
 90
      255
102
RTVSPost2010PropOp44
 70
     1
102
RTVSPost2010Prop45
280
     0
102
RTVSPost2010PropOp45
 70
     1
102
RTVSPost2010Prop46
 90
       50
102
RTVSPost2010PropOp46
 70
     1
102
RTVSPost2010Prop47
 90
       50
102
RTVSPost2010PropOp47
 70
     1
102
RTVSPost2010Prop48
 90
       50
102
RTVSPost2010PropOp48
 70
     1
102
RTVSPost2010Prop49
280
     0
102
RTVSPost2010PropOp49
 70
     1
102
RTVSPost2010Prop50
 90
       50
102
RTVSPost2010PropOp50
 70
     1
102
RTVSPost2010Prop51ColorIndex
 90
      256
102
RTVSPost2010Prop51ColorRGB
 90
-16777216
102
RTVSPost2010PropOp51
 70
     0
102
RTVSPost2010Prop52
140
1.0
102
RTVSPost2010PropOp52
 70
     0
102
RTVSPost2010Prop53
 90
        2
102
RTVSPost2010PropOp53
 70
     1
102
RTVSPost2010Prop54
  1
strokes_ogs.tif
102
RTVSPost2010PropOp54
 70
     1
102
RTVSPost2010Prop55
280
     0
102
RTVSPost2010PropOp55
 70
     1
102
RTVSPost2010Prop56
140
1.0
102
RTVSPost2010PropOp56
 70
     1
102
RTVSPost2010Prop57
140
1.0
102
RTVSPost2010PropOp57
 70
     1
  0
XRECORD
  5
110
102
{ACAD_REACTORS
330
10F
102
}
330
10F
100
AcDbXrecord
280
     1
102
RTVSPost2010Prop28
280
     0
102
RTVSPost2010PropOp28
 70
     1
102
RTVSPost2010Prop29
280
     1
102
RTVSPost2010PropOp29
 70
     1
102
RTVSPost2010Prop30
280
     1
102
RTVSPost2010PropOp30
 70
     1
102
RTVSPost2010Prop31
280
     0
102
RTVSPost2010PropOp31
 70
     1
102
RTVSPost2010Prop32
280
     0
102
RTVSPost2010PropOp32
 70
     1
102
RTVSPost2010Prop33
280
     0
102
RTVSPost2010PropOp33
 70
     1
102
RTVSPost2010Prop34
280
     0
102
RTVSPost2010PropOp34
 70
     1
102
RTVSPost2010Prop35
280
     0
102
RTVSPost2010PropOp35
 70
     1
102
RTVSPost2010Prop36
280
     0
102
RTVSPost2010PropOp36
 70
     1
102
RTVSPost2010Prop37
 90
       50
102
RTVSPost2010PropOp37
 70
     1
102
RTVSPost2010Prop38
140
0.0
102
RTVSPost2010PropOp38
 70
     1
102
RTVSPost2010Prop39
140
1.0
102
RTVSPost2010PropOp39
 70
     1
102
RTVSPost2010Prop40
 90
        0
102
RTVSPost2010PropOp40
 70
     1
102
RTVSPost2010Prop41ColorIndex
 90
       18
102
RTVSPost2010Prop41ColorRGB
 90
        0
102
RTVSPost2010PropOp41
 70
     1
102
RTVSPost2010Prop42
 90
       50
102
RTVSPost2010PropOp42
 70
     1
102
RTVSPost2010Prop43
 90
        3
102
RTVSPost2010PropOp43
 70
     1
102
RTVSPost2010Prop44ColorIndex
 90
        5
102
RTVSPost2010Prop44ColorRGB
 90
      255
102
RTVSPost2010PropOp44
 70
     1
102
RTVSPost2010Prop45
280
     0
102
RTVSPost2010PropOp45
 70
     1
102
RTVSPost2010Prop46
 90
       50
102
RTVSPost2010PropOp46
 70
     1
102
RTVSPost2010Prop47
 90
       50
102
RTVSPost2010PropOp47
 70
     1
102
RTVSPost2010Prop48
 90
       50
102
RTVSPost2010PropOp48
 70
     1
102
RTVSPost2010Prop49
280
     0
102
RTVSPost2010PropOp49
 70
     1
102
RTVSPost2010Prop50
 90
       50
102
RTVSPost2010PropOp50
 70
     1
102
RTVSPost2010Prop51ColorIndex
 90
      256
102
RTVSPost2010Prop51ColorRGB
 90
-16777216
102
RTVSPost2010PropOp51
 70
     0
102
RTVSPost2010Prop52
140
1.0
102
RTVSPost2010PropOp52
 70
     0
102
RTVSPost2010Prop53
 90
        2
102
RTVSPost2010PropOp53
 70
     1
102
RTVSPost2010Prop54
  1
strokes_ogs.tif
102
RTVSPost2010PropOp54
 70
     1
102
RTVSPost2010Prop55
280
     0
102
RTVSPost2010PropOp55
 70
     1
102
RTVSPost2010Prop56
140
1.0
102
RTVSPost2010PropOp56
 70
     1
102
RTVSPost2010Prop57
140
1.0
102
RTVSPost2010PropOp57
 70
     1
  0
XRECORD
  5
112
102
{ACAD_REACTORS
330
111
102
}
330
111
100
AcDbXrecord
280
     1
102
RTVSPost2010Prop28
280
     0
102
RTVSPost2010PropOp28
 70
     1
102
RTVSPost2010Prop29
280
     1
102
RTVSPost2010PropOp29
 70
     1
102
RTVSPost2010Prop30
280
     1
102
RTVSPost2010PropOp30
 70
     1
102
RTVSPost2010Prop31
280
     0
102
RTVSPost2010PropOp31
 70
     1
102
RTVSPost2010Prop32
280
     0
102
RTVSPost2010PropOp32
 70
     1
102
RTVSPost2010Prop33
280
     0
102
RTVSPost2010PropOp33
 70
     1
102
RTVSPost2010Prop34
280
     0
102
RTVSPost2010PropOp34
 70
     1
102
RTVSPost2010Prop35
280
     0
102
RTVSPost2010PropOp35
 70
     1
102
RTVSPost2010Prop36
280
     0
102
RTVSPost2010PropOp36
 70
     1
102
RTVSPost2010Prop37
 90
       50
102
RTVSPost2010PropOp37
 70
     1
102
RTVSPost2010Prop38
140
0.0
102
RTVSPost2010PropOp38
 70
     1
102
RTVSPost2010Prop39
140
1.0
102
RTVSPost2010PropOp39
 70
     1
102
RTVSPost2010Prop40
 90
        0
102
RTVSPost2010PropOp40
 70
     1
102
RTVSPost2010Prop41ColorIndex
 90
       18
102
RTVSPost2010Prop41ColorRGB
 90
        0
102
RTVSPost2010PropOp41
 70
     1
102
RTVSPost2010Prop42
 90
       50
102
RTVSPost2010PropOp42
 70
     1
102
RTVSPost2010Prop43
 90
        3
102
RTVSPost2010PropOp43
 70
     1
102
RTVSPost2010Prop44ColorIndex
 90
        5
102
RTVSPost2010Prop44ColorRGB
 90
      255
102
RTVSPost2010PropOp44
 70
     1
102
RTVSPost2010Prop45
280
     0
102
RTVSPost2010PropOp45
 70
     1
102
RTVSPost2010Prop46
 90
       50
102
RTVSPost2010PropOp46
 70
     1
102
RTVSPost2010Prop47
 90
       50
102
RTVSPost2010PropOp47
 70
     1
102
RTVSPost2010Prop48
 90
       50
102
RTVSPost2010PropOp48
 70
     1
102
RTVSPost2010Prop49
280
     0
102
RTVSPost2010PropOp49
 70
     1
102
RTVSPost2010Prop50
 90
       50
102
RTVSPost2010PropOp50
 70
     1
102
RTVSPost2010Prop51ColorIndex
 90
      256
102
RTVSPost2010Prop51ColorRGB
 90
-16777216
102
RTVSPost2010PropOp51
 70
     0
102
RTVSPost2010Prop52
140
1.0
102
RTVSPost2010PropOp52
 70
     0
102
RTVSPost2010Prop53
 90
        2
102
RTVSPost2010PropOp53
 70
     1
102
RTVSPost2010Prop54
  1
strokes_ogs.tif
102
RTVSPost2010PropOp54
 70
     1
102
RTVSPost2010Prop55
280
     0
102
RTVSPost2010PropOp55
 70
     1
102
RTVSPost2010Prop56
140
1.0
102
RTVSPost2010PropOp56
 70
     1
102
RTVSPost2010Prop57
140
1.0
102
RTVSPost2010PropOp57
 70
     1
  0
XRECORD
  5
11A
102
{ACAD_REACTORS
330
119
102
}
330
119
100
AcDbXrecord
280
     1
102
RTVSPost2010Prop28
280
     0
102
RTVSPost2010PropOp28
 70
     1
102
RTVSPost2010Prop29
280
     1
102
RTVSPost2010PropOp29
 70
     1
102
RTVSPost2010Prop30
280
     1
102
RTVSPost2010PropOp30
 70
     1
102
RTVSPost2010Prop31
280
     0
102
RTVSPost2010PropOp31
 70
     1
102
RTVSPost2010Prop32
280
     0
102
RTVSPost2010PropOp32
 70
     1
102
RTVSPost2010Prop33
280
     0
102
RTVSPost2010PropOp33
 70
     1
102
RTVSPost2010Prop34
280
     0
102
RTVSPost2010PropOp34
 70
     1
102
RTVSPost2010Prop35
280
     0
102
RTVSPost2010PropOp35
 70
     1
102
RTVSPost2010Prop36
280
     0
102
RTVSPost2010PropOp36
 70
     1
102
RTVSPost2010Prop37
 90
       50
102
RTVSPost2010PropOp37
 70
     1
102
RTVSPost2010Prop38
140
0.0
102
RTVSPost2010PropOp38
 70
     1
102
RTVSPost2010Prop39
140
1.0
102
RTVSPost2010PropOp39
 70
     1
102
RTVSPost2010Prop40
 90
        0
102
RTVSPost2010PropOp40
 70
     1
102
RTVSPost2010Prop41ColorIndex
 90
       18
102
RTVSPost2010Prop41ColorRGB
 90
        0
102
RTVSPost2010PropOp41
 70
     1
102
RTVSPost2010Prop42
 90
       50
102
RTVSPost2010PropOp42
 70
     1
102
RTVSPost2010Prop43
 90
        3
102
RTVSPost2010PropOp43
 70
     1
102
RTVSPost2010Prop44ColorIndex
 90
        5
102
RTVSPost2010Prop44ColorRGB
 90
      255
102
RTVSPost2010PropOp44
 70
     1
102
RTVSPost2010Prop45
280
     0
102
RTVSPost2010PropOp45
 70
     1
102
RTVSPost2010Prop46
 90
       50
102
RTVSPost2010PropOp46
 70
     1
102
RTVSPost2010Prop47
 90
       50
102
RTVSPost2010PropOp47
 70
     1
102
RTVSPost2010Prop48
 90
       50
102
RTVSPost2010PropOp48
 70
     1
102
RTVSPost2010Prop49
280
     0
102
RTVSPost2010PropOp49
 70
     1
102
RTVSPost2010Prop50
 90
       50
102
RTVSPost2010PropOp50
 70
     1
102
RTVSPost2010Prop51ColorIndex
 90
      256
102
RTVSPost2010Prop51ColorRGB
 90
-16777216
102
RTVSPost2010PropOp51
 70
     0
102
RTVSPost2010Prop52
140
1.0
102
RTVSPost2010PropOp52
 70
     0
102
RTVSPost2010Prop53
 90
        2
102
RTVSPost2010PropOp53
 70
     1
102
RTVSPost2010Prop54
  1
strokes_ogs.tif
102
RTVSPost2010PropOp54
 70
     1
102
RTVSPost2010Prop55
280
     0
102
RTVSPost2010PropOp55
 70
     1
102
RTVSPost2010Prop56
140
1.0
102
RTVSPost2010PropOp56
 70
     1
102
RTVSPost2010Prop57
140
1.0
102
RTVSPost2010PropOp57
 70
     1
  0
XRECORD
  5
136
102
{ACAD_REACTORS
330
135
102
}
330
135
100
AcDbXrecord
280
     1
102
RTVSPost2010Prop28
280
     0
102
RTVSPost2010PropOp28
 70
     0
102
RTVSPost2010Prop29
280
     1
102
RTVSPost2010PropOp29
 70
     0
102
RTVSPost2010Prop30
280
     1
102
RTVSPost2010PropOp30
 70
     0
102
RTVSPost2010Prop31
280
     0
102
RTVSPost2010PropOp31
 70
     0
102
RTVSPost2010Prop32
280
     0
102
RTVSPost2010PropOp32
 70
     0
102
RTVSPost2010Prop33
280
     0
102
RTVSPost2010PropOp33
 70
     0
102
RTVSPost2010Prop34
280
     0
102
RTVSPost2010PropOp34
 70
     0
102
RTVSPost2010Prop35
280
     0
102
RTVSPost2010PropOp35
 70
     0
102
RTVSPost2010Prop36
280
     0
102
RTVSPost2010PropOp36
 70
     0
102
RTVSPost2010Prop37
 90
       50
102
RTVSPost2010PropOp37
 70
     0
102
RTVSPost2010Prop38
140
0.0
102
RTVSPost2010PropOp38
 70
     0
102
RTVSPost2010Prop39
140
1.0
102
RTVSPost2010PropOp39
 70
     0
102
RTVSPost2010Prop40
 90
        0
102
RTVSPost2010PropOp40
 70
     0
102
RTVSPost2010Prop41ColorIndex
 90
       18
102
RTVSPost2010Prop41ColorRGB
 90
        0
102
RTVSPost2010PropOp41
 70
     0
102
RTVSPost2010Prop42
 90
       50
102
RTVSPost2010PropOp42
 70
     0
102
RTVSPost2010Prop43
 90
        3
102
RTVSPost2010PropOp43
 70
     0
102
RTVSPost2010Prop44ColorIndex
 90
        5
102
RTVSPost2010Prop44ColorRGB
 90
      255
102
RTVSPost2010PropOp44
 70
     0
102
RTVSPost2010Prop45
280
     0
102
RTVSPost2010PropOp45
 70
     0
102
RTVSPost2010Prop46
 90
       50
102
RTVSPost2010PropOp46
 70
     0
102
RTVSPost2010Prop47
 90
       50
102
RTVSPost2010PropOp47
 70
     0
102
RTVSPost2010Prop48
 90
       50
102
RTVSPost2010PropOp48
 70
     0
102
RTVSPost2010Prop49
280
     0
102
RTVSPost2010PropOp49
 70
     0
102
RTVSPost2010Prop50
 90
       50
102
RTVSPost2010PropOp50
 70
     0
102
RTVSPost2010Prop51ColorIndex
 90
      256
102
RTVSPost2010Prop51ColorRGB
 90
-16777216
102
RTVSPost2010PropOp51
 70
     0
102
RTVSPost2010Prop52
140
1.0
102
RTVSPost2010PropOp52
 70
     0
102
RTVSPost2010Prop53
 90
        2
102
RTVSPost2010PropOp53
 70
     0
102
RTVSPost2010Prop54
  1
strokes_ogs.tif
102
RTVSPost2010PropOp54
 70
     0
102
RTVSPost2010Prop55
280
     0
102
RTVSPost2010PropOp55
 70
     0
102
RTVSPost2010Prop56
140
1.0
102
RTVSPost2010PropOp56
 70
     0
102
RTVSPost2010Prop57
140
1.0
102
RTVSPost2010PropOp57
 70
     0
  0
XRECORD
  5
126
102
{ACAD_REACTORS
330
125
102
}
330
125
100
AcDbXrecord
280
     1
102
RTVSPost2010Prop28
280
     0
102
RTVSPost2010PropOp28
 70
     1
102
RTVSPost2010Prop29
280
     1
102
RTVSPost2010PropOp29
 70
     1
102
RTVSPost2010Prop30
280
     1
102
RTVSPost2010PropOp30
 70
     1
102
RTVSPost2010Prop31
280
     0
102
RTVSPost2010PropOp31
 70
     1
102
RTVSPost2010Prop32
280
     0
102
RTVSPost2010PropOp32
 70
     1
102
RTVSPost2010Prop33
280
     0
102
RTVSPost2010PropOp33
 70
     1
102
RTVSPost2010Prop34
280
     0
102
RTVSPost2010PropOp34
 70
     1
102
RTVSPost2010Prop35
280
     0
102
RTVSPost2010PropOp35
 70
     1
102
RTVSPost2010Prop36
280
     0
102
RTVSPost2010PropOp36
 70
     1
102
RTVSPost2010Prop37
 90
       50
102
RTVSPost2010PropOp37
 70
     1
102
RTVSPost2010Prop38
140
0.0
102
RTVSPost2010PropOp38
 70
     1
102
RTVSPost2010Prop39
140
1.0
102
RTVSPost2010PropOp39
 70
     1
102
RTVSPost2010Prop40
 90
        0
102
RTVSPost2010PropOp40
 70
     1
102
RTVSPost2010Prop41ColorIndex
 90
       18
102
RTVSPost2010Prop41ColorRGB
 90
        0
102
RTVSPost2010PropOp41
 70
     1
102
RTVSPost2010Prop42
 90
       50
102
RTVSPost2010PropOp42
 70
     1
102
RTVSPost2010Prop43
 90
        3
102
RTVSPost2010PropOp43
 70
     1
102
RTVSPost2010Prop44ColorIndex
 90
        5
102
RTVSPost2010Prop44ColorRGB
 90
      255
102
RTVSPost2010PropOp44
 70
     1
102
RTVSPost2010Prop45
280
     0
102
RTVSPost2010PropOp45
 70
     1
102
RTVSPost2010Prop46
 90
       50
102
RTVSPost2010PropOp46
 70
     1
102
RTVSPost2010Prop47
 90
       50
102
RTVSPost2010PropOp47
 70
     1
102
RTVSPost2010Prop48
 90
       50
102
RTVSPost2010PropOp48
 70
     1
102
RTVSPost2010Prop49
280
     0
102
RTVSPost2010PropOp49
 70
     1
102
RTVSPost2010Prop50
 90
       50
102
RTVSPost2010PropOp50
 70
     1
102
RTVSPost2010Prop51ColorIndex
 90
      256
102
RTVSPost2010Prop51ColorRGB
 90
-16777216
102
RTVSPost2010PropOp51
 70
     0
102
RTVSPost2010Prop52
140
1.0
102
RTVSPost2010PropOp52
 70
     0
102
RTVSPost2010Prop53
 90
        2
102
RTVSPost2010PropOp53
 70
     1
102
RTVSPost2010Prop54
  1
strokes_ogs.tif
102
RTVSPost2010PropOp54
 70
     1
102
RTVSPost2010Prop55
280
     0
102
RTVSPost2010PropOp55
 70
     1
102
RTVSPost2010Prop56
140
1.0
102
RTVSPost2010PropOp56
 70
     1
102
RTVSPost2010Prop57
140
1.0
102
RTVSPost2010PropOp57
 70
     1
  0
XRECORD
  5
138
102
{ACAD_REACTORS
330
137
102
}
330
137
100
AcDbXrecord
280
     1
102
RTVSPost2010Prop28
280
     0
102
RTVSPost2010PropOp28
 70
     0
102
RTVSPost2010Prop29
280
     1
102
RTVSPost2010PropOp29
 70
     0
102
RTVSPost2010Prop30
280
     1
102
RTVSPost2010PropOp30
 70
     0
102
RTVSPost2010Prop31
280
     0
102
RTVSPost2010PropOp31
 70
     0
102
RTVSPost2010Prop32
280
     0
102
RTVSPost2010PropOp32
 70
     0
102
RTVSPost2010Prop33
280
     0
102
RTVSPost2010PropOp33
 70
     0
102
RTVSPost2010Prop34
280
     0
102
RTVSPost2010PropOp34
 70
     0
102
RTVSPost2010Prop35
280
     0
102
RTVSPost2010PropOp35
 70
     0
102
RTVSPost2010Prop36
280
     0
102
RTVSPost2010PropOp36
 70
     0
102
RTVSPost2010Prop37
 90
       50
102
RTVSPost2010PropOp37
 70
     0
102
RTVSPost2010Prop38
140
0.0
102
RTVSPost2010PropOp38
 70
     0
102
RTVSPost2010Prop39
140
1.0
102
RTVSPost2010PropOp39
 70
     0
102
RTVSPost2010Prop40
 90
        0
102
RTVSPost2010PropOp40
 70
     0
102
RTVSPost2010Prop41ColorIndex
 90
       18
102
RTVSPost2010Prop41ColorRGB
 90
        0
102
RTVSPost2010PropOp41
 70
     0
102
RTVSPost2010Prop42
 90
       50
102
RTVSPost2010PropOp42
 70
     0
102
RTVSPost2010Prop43
 90
        3
102
RTVSPost2010PropOp43
 70
     0
102
RTVSPost2010Prop44ColorIndex
 90
        5
102
RTVSPost2010Prop44ColorRGB
 90
      255
102
RTVSPost2010PropOp44
 70
     0
102
RTVSPost2010Prop45
280
     0
102
RTVSPost2010PropOp45
 70
     0
102
RTVSPost2010Prop46
 90
       50
102
RTVSPost2010PropOp46
 70
     0
102
RTVSPost2010Prop47
 90
       50
102
RTVSPost2010PropOp47
 70
     0
102
RTVSPost2010Prop48
 90
       50
102
RTVSPost2010PropOp48
 70
     0
102
RTVSPost2010Prop49
280
     0
102
RTVSPost2010PropOp49
 70
     0
102
RTVSPost2010Prop50
 90
       50
102
RTVSPost2010PropOp50
 70
     0
102
RTVSPost2010Prop51ColorIndex
 90
      256
102
RTVSPost2010Prop51ColorRGB
 90
-16777216
102
RTVSPost2010PropOp51
 70
     0
102
RTVSPost2010Prop52
140
1.0
102
RTVSPost2010PropOp52
 70
     0
102
RTVSPost2010Prop53
 90
        2
102
RTVSPost2010PropOp53
 70
     0
102
RTVSPost2010Prop54
  1
strokes_ogs.tif
102
RTVSPost2010PropOp54
 70
     0
102
RTVSPost2010Prop55
280
     0
102
RTVSPost2010PropOp55
 70
     0
102
RTVSPost2010Prop56
140
1.0
102
RTVSPost2010PropOp56
 70
     0
102
RTVSPost2010Prop57
140
1.0
102
RTVSPost2010PropOp57
 70
     0
  0
XRECORD
  5
11E
102
{ACAD_REACTORS
330
11D
102
}
330
11D
100
AcDbXrecord
280
     1
102
RTVSPost2010Prop28
280
     0
102
RTVSPost2010PropOp28
 70
     1
102
RTVSPost2010Prop29
280
     1
102
RTVSPost2010PropOp29
 70
     1
102
RTVSPost2010Prop30
280
     1
102
RTVSPost2010PropOp30
 70
     1
102
RTVSPost2010Prop31
280
     0
102
RTVSPost2010PropOp31
 70
     1
102
RTVSPost2010Prop32
280
     0
102
RTVSPost2010PropOp32
 70
     1
102
RTVSPost2010Prop33
280
     0
102
RTVSPost2010PropOp33
 70
     1
102
RTVSPost2010Prop34
280
     0
102
RTVSPost2010PropOp34
 70
     1
102
RTVSPost2010Prop35
280
     0
102
RTVSPost2010PropOp35
 70
     1
102
RTVSPost2010Prop36
280
     0
102
RTVSPost2010PropOp36
 70
     1
102
RTVSPost2010Prop37
 90
       50
102
RTVSPost2010PropOp37
 70
     1
102
RTVSPost2010Prop38
140
0.0
102
RTVSPost2010PropOp38
 70
     1
102
RTVSPost2010Prop39
140
1.0
102
RTVSPost2010PropOp39
 70
     1
102
RTVSPost2010Prop40
 90
        0
102
RTVSPost2010PropOp40
 70
     1
102
RTVSPost2010Prop41ColorIndex
 90
       18
102
RTVSPost2010Prop41ColorRGB
 90
        0
102
RTVSPost2010PropOp41
 70
     1
102
RTVSPost2010Prop42
 90
       50
102
RTVSPost2010PropOp42
 70
     1
102
RTVSPost2010Prop43
 90
        3
102
RTVSPost2010PropOp43
 70
     1
102
RTVSPost2010Prop44ColorIndex
 90
        5
102
RTVSPost2010Prop44ColorRGB
 90
      255
102
RTVSPost2010PropOp44
 70
     1
102
RTVSPost2010Prop45
280
     0
102
RTVSPost2010PropOp45
 70
     1
102
RTVSPost2010Prop46
 90
       50
102
RTVSPost2010PropOp46
 70
     1
102
RTVSPost2010Prop47
 90
       50
102
RTVSPost2010PropOp47
 70
     1
102
RTVSPost2010Prop48
 90
       50
102
RTVSPost2010PropOp48
 70
     1
102
RTVSPost2010Prop49
280
     0
102
RTVSPost2010PropOp49
 70
     1
102
RTVSPost2010Prop50
 90
       50
102
RTVSPost2010PropOp50
 70
     1
102
RTVSPost2010Prop51ColorIndex
 90
      256
102
RTVSPost2010Prop51ColorRGB
 90
-16777216
102
RTVSPost2010PropOp51
 70
     0
102
RTVSPost2010Prop52
140
1.0
102
RTVSPost2010PropOp52
 70
     0
102
RTVSPost2010Prop53
 90
        2
102
RTVSPost2010PropOp53
 70
     1
102
RTVSPost2010Prop54
  1
strokes_ogs.tif
102
RTVSPost2010PropOp54
 70
     1
102
RTVSPost2010Prop55
280
     0
102
RTVSPost2010PropOp55
 70
     1
102
RTVSPost2010Prop56
140
1.0
102
RTVSPost2010PropOp56
 70
     1
102
RTVSPost2010Prop57
140
1.0
102
RTVSPost2010PropOp57
 70
     1
  0
XRECORD
  5
134
102
{ACAD_REACTORS
330
133
102
}
330
133
100
AcDbXrecord
280
     1
102
RTVSPost2010Prop28
280
     0
102
RTVSPost2010PropOp28
 70
     1
102
RTVSPost2010Prop29
280
     1
102
RTVSPost2010PropOp29
 70
     1
102
RTVSPost2010Prop30
280
     1
102
RTVSPost2010PropOp30
 70
     1
102
RTVSPost2010Prop31
280
     0
102
RTVSPost2010PropOp31
 70
     1
102
RTVSPost2010Prop32
280
     0
102
RTVSPost2010PropOp32
 70
     1
102
RTVSPost2010Prop33
280
     0
102
RTVSPost2010PropOp33
 70
     1
102
RTVSPost2010Prop34
280
     0
102
RTVSPost2010PropOp34
 70
     1
102
RTVSPost2010Prop35
280
     0
102
RTVSPost2010PropOp35
 70
     1
102
RTVSPost2010Prop36
280
     0
102
RTVSPost2010PropOp36
 70
     1
102
RTVSPost2010Prop37
 90
       50
102
RTVSPost2010PropOp37
 70
     1
102
RTVSPost2010Prop38
140
0.0
102
RTVSPost2010PropOp38
 70
     1
102
RTVSPost2010Prop39
140
1.0
102
RTVSPost2010PropOp39
 70
     1
102
RTVSPost2010Prop40
 90
        0
102
RTVSPost2010PropOp40
 70
     1
102
RTVSPost2010Prop41ColorIndex
 90
       18
102
RTVSPost2010Prop41ColorRGB
 90
        0
102
RTVSPost2010PropOp41
 70
     1
102
RTVSPost2010Prop42
 90
       50
102
RTVSPost2010PropOp42
 70
     1
102
RTVSPost2010Prop43
 90
        3
102
RTVSPost2010PropOp43
 70
     1
102
RTVSPost2010Prop44ColorIndex
 90
        5
102
RTVSPost2010Prop44ColorRGB
 90
      255
102
RTVSPost2010PropOp44
 70
     1
102
RTVSPost2010Prop45
280
     0
102
RTVSPost2010PropOp45
 70
     1
102
RTVSPost2010Prop46
 90
       50
102
RTVSPost2010PropOp46
 70
     1
102
RTVSPost2010Prop47
 90
       50
102
RTVSPost2010PropOp47
 70
     1
102
RTVSPost2010Prop48
 90
       50
102
RTVSPost2010PropOp48
 70
     1
102
RTVSPost2010Prop49
280
     0
102
RTVSPost2010PropOp49
 70
     1
102
RTVSPost2010Prop50
 90
       50
102
RTVSPost2010PropOp50
 70
     1
102
RTVSPost2010Prop51ColorIndex
 90
      256
102
RTVSPost2010Prop51ColorRGB
 90
-16777216
102
RTVSPost2010PropOp51
 70
     0
102
RTVSPost2010Prop52
140
1.0
102
RTVSPost2010PropOp52
 70
     0
102
RTVSPost2010Prop53
 90
        2
102
RTVSPost2010PropOp53
 70
     1
102
RTVSPost2010Prop54
  1
strokes_ogs.tif
102
RTVSPost2010PropOp54
 70
     1
102
RTVSPost2010Prop55
280
     0
102
RTVSPost2010PropOp55
 70
     1
102
RTVSPost2010Prop56
140
1.0
102
RTVSPost2010PropOp56
 70
     1
102
RTVSPost2010Prop57
140
1.0
102
RTVSPost2010PropOp57
 70
     1
  0
XRECORD
  5
132
102
{ACAD_REACTORS
330
131
102
}
330
131
100
AcDbXrecord
280
     1
102
RTVSPost2010Prop28
280
     0
102
RTVSPost2010PropOp28
 70
     1
102
RTVSPost2010Prop29
280
     1
102
RTVSPost2010PropOp29
 70
     1
102
RTVSPost2010Prop30
280
     1
102
RTVSPost2010PropOp30
 70
     1
102
RTVSPost2010Prop31
280
     0
102
RTVSPost2010PropOp31
 70
     1
102
RTVSPost2010Prop32
280
     0
102
RTVSPost2010PropOp32
 70
     1
102
RTVSPost2010Prop33
280
     0
102
RTVSPost2010PropOp33
 70
     1
102
RTVSPost2010Prop34
280
     0
102
RTVSPost2010PropOp34
 70
     1
102
RTVSPost2010Prop35
280
     0
102
RTVSPost2010PropOp35
 70
     1
102
RTVSPost2010Prop36
280
     0
102
RTVSPost2010PropOp36
 70
     1
102
RTVSPost2010Prop37
 90
       50
102
RTVSPost2010PropOp37
 70
     1
102
RTVSPost2010Prop38
140
0.0
102
RTVSPost2010PropOp38
 70
     1
102
RTVSPost2010Prop39
140
1.0
102
RTVSPost2010PropOp39
 70
     1
102
RTVSPost2010Prop40
 90
        0
102
RTVSPost2010PropOp40
 70
     1
102
RTVSPost2010Prop41ColorIndex
 90
       18
102
RTVSPost2010Prop41ColorRGB
 90
        0
102
RTVSPost2010PropOp41
 70
     1
102
RTVSPost2010Prop42
 90
       50
102
RTVSPost2010PropOp42
 70
     1
102
RTVSPost2010Prop43
 90
        3
102
RTVSPost2010PropOp43
 70
     1
102
RTVSPost2010Prop44ColorIndex
 90
        5
102
RTVSPost2010Prop44ColorRGB
 90
      255
102
RTVSPost2010PropOp44
 70
     1
102
RTVSPost2010Prop45
280
     0
102
RTVSPost2010PropOp45
 70
     1
102
RTVSPost2010Prop46
 90
       50
102
RTVSPost2010PropOp46
 70
     1
102
RTVSPost2010Prop47
 90
       50
102
RTVSPost2010PropOp47
 70
     1
102
RTVSPost2010Prop48
 90
       50
102
RTVSPost2010PropOp48
 70
     1
102
RTVSPost2010Prop49
280
     0
102
RTVSPost2010PropOp49
 70
     1
102
RTVSPost2010Prop50
 90
       50
102
RTVSPost2010PropOp50
 70
     1
102
RTVSPost2010Prop51ColorIndex
 90
      256
102
RTVSPost2010Prop51ColorRGB
 90
-16777216
102
RTVSPost2010PropOp51
 70
     0
102
RTVSPost2010Prop52
140
1.0
102
RTVSPost2010PropOp52
 70
     0
102
RTVSPost2010Prop53
 90
        2
102
RTVSPost2010PropOp53
 70
     1
102
RTVSPost2010Prop54
  1
strokes_ogs.tif
102
RTVSPost2010PropOp54
 70
     1
102
RTVSPost2010Prop55
280
     0
102
RTVSPost2010PropOp55
 70
     1
102
RTVSPost2010Prop56
140
1.0
102
RTVSPost2010PropOp56
 70
     1
102
RTVSPost2010Prop57
140
1.0
102
RTVSPost2010PropOp57
 70
     1
  0
XRECORD
  5
12C
102
{ACAD_REACTORS
330
12B
102
}
330
12B
100
AcDbXrecord
280
     1
102
RTVSPost2010Prop28
280
     0
102
RTVSPost2010PropOp28
 70
     1
102
RTVSPost2010Prop29
280
     1
102
RTVSPost2010PropOp29
 70
     1
102
RTVSPost2010Prop30
280
     1
102
RTVSPost2010PropOp30
 70
     1
102
RTVSPost2010Prop31
280
     0
102
RTVSPost2010PropOp31
 70
     1
102
RTVSPost2010Prop32
280
     0
102
RTVSPost2010PropOp32
 70
     1
102
RTVSPost2010Prop33
280
     0
102
RTVSPost2010PropOp33
 70
     1
102
RTVSPost2010Prop34
280
     0
102
RTVSPost2010PropOp34
 70
     1
102
RTVSPost2010Prop35
280
     0
102
RTVSPost2010PropOp35
 70
     1
102
RTVSPost2010Prop36
280
     0
102
RTVSPost2010PropOp36
 70
     1
102
RTVSPost2010Prop37
 90
       50
102
RTVSPost2010PropOp37
 70
     1
102
RTVSPost2010Prop38
140
0.0
102
RTVSPost2010PropOp38
 70
     1
102
RTVSPost2010Prop39
140
1.0
102
RTVSPost2010PropOp39
 70
     1
102
RTVSPost2010Prop40
 90
        0
102
RTVSPost2010PropOp40
 70
     1
102
RTVSPost2010Prop41ColorIndex
 90
       18
102
RTVSPost2010Prop41ColorRGB
 90
        0
102
RTVSPost2010PropOp41
 70
     1
102
RTVSPost2010Prop42
 90
       50
102
RTVSPost2010PropOp42
 70
     1
102
RTVSPost2010Prop43
 90
        3
102
RTVSPost2010PropOp43
 70
     1
102
RTVSPost2010Prop44ColorIndex
 90
        5
102
RTVSPost2010Prop44ColorRGB
 90
      255
102
RTVSPost2010PropOp44
 70
     1
102
RTVSPost2010Prop45
280
     0
102
RTVSPost2010PropOp45
 70
     1
102
RTVSPost2010Prop46
 90
       50
102
RTVSPost2010PropOp46
 70
     1
102
RTVSPost2010Prop47
 90
       50
102
RTVSPost2010PropOp47
 70
     1
102
RTVSPost2010Prop48
 90
       50
102
RTVSPost2010PropOp48
 70
     1
102
RTVSPost2010Prop49
280
     0
102
RTVSPost2010PropOp49
 70
     1
102
RTVSPost2010Prop50
 90
       50
102
RTVSPost2010PropOp50
 70
     1
102
RTVSPost2010Prop51ColorIndex
 90
      256
102
RTVSPost2010Prop51ColorRGB
 90
-16777216
102
RTVSPost2010PropOp51
 70
     0
102
RTVSPost2010Prop52
140
1.0
102
RTVSPost2010PropOp52
 70
     0
102
RTVSPost2010Prop53
 90
        2
102
RTVSPost2010PropOp53
 70
     1
102
RTVSPost2010Prop54
  1
strokes_ogs.tif
102
RTVSPost2010PropOp54
 70
     1
102
RTVSPost2010Prop55
280
     0
102
RTVSPost2010PropOp55
 70
     1
102
RTVSPost2010Prop56
140
1.0
102
RTVSPost2010PropOp56
 70
     1
102
RTVSPost2010Prop57
140
1.0
102
RTVSPost2010PropOp57
 70
     1
  0
XRECORD
  5
12E
102
{ACAD_REACTORS
330
12D
102
}
330
12D
100
AcDbXrecord
280
     1
102
RTVSPost2010Prop28
280
     0
102
RTVSPost2010PropOp28
 70
     1
102
RTVSPost2010Prop29
280
     1
102
RTVSPost2010PropOp29
 70
     1
102
RTVSPost2010Prop30
280
     1
102
RTVSPost2010PropOp30
 70
     1
102
RTVSPost2010Prop31
280
     0
102
RTVSPost2010PropOp31
 70
     1
102
RTVSPost2010Prop32
280
     0
102
RTVSPost2010PropOp32
 70
     1
102
RTVSPost2010Prop33
280
     0
102
RTVSPost2010PropOp33
 70
     1
102
RTVSPost2010Prop34
280
     0
102
RTVSPost2010PropOp34
 70
     1
102
RTVSPost2010Prop35
280
     0
102
RTVSPost2010PropOp35
 70
     1
102
RTVSPost2010Prop36
280
     0
102
RTVSPost2010PropOp36
 70
     1
102
RTVSPost2010Prop37
 90
       50
102
RTVSPost2010PropOp37
 70
     1
102
RTVSPost2010Prop38
140
0.0
102
RTVSPost2010PropOp38
 70
     1
102
RTVSPost2010Prop39
140
1.0
102
RTVSPost2010PropOp39
 70
     1
102
RTVSPost2010Prop40
 90
        0
102
RTVSPost2010PropOp40
 70
     1
102
RTVSPost2010Prop41ColorIndex
 90
       18
102
RTVSPost2010Prop41ColorRGB
 90
        0
102
RTVSPost2010PropOp41
 70
     1
102
RTVSPost2010Prop42
 90
       50
102
RTVSPost2010PropOp42
 70
     1
102
RTVSPost2010Prop43
 90
        3
102
RTVSPost2010PropOp43
 70
     1
102
RTVSPost2010Prop44ColorIndex
 90
        5
102
RTVSPost2010Prop44ColorRGB
 90
      255
102
RTVSPost2010PropOp44
 70
     1
102
RTVSPost2010Prop45
280
     0
102
RTVSPost2010PropOp45
 70
     1
102
RTVSPost2010Prop46
 90
       50
102
RTVSPost2010PropOp46
 70
     1
102
RTVSPost2010Prop47
 90
       50
102
RTVSPost2010PropOp47
 70
     1
102
RTVSPost2010Prop48
 90
       50
102
RTVSPost2010PropOp48
 70
     1
102
RTVSPost2010Prop49
280
     0
102
RTVSPost2010PropOp49
 70
     1
102
RTVSPost2010Prop50
 90
       50
102
RTVSPost2010PropOp50
 70
     1
102
RTVSPost2010Prop51ColorIndex
 90
      256
102
RTVSPost2010Prop51ColorRGB
 90
-16777216
102
RTVSPost2010PropOp51
 70
     0
102
RTVSPost2010Prop52
140
1.0
102
RTVSPost2010PropOp52
 70
     0
102
RTVSPost2010Prop53
 90
        2
102
RTVSPost2010PropOp53
 70
     1
102
RTVSPost2010Prop54
  1
strokes_ogs.tif
102
RTVSPost2010PropOp54
 70
     1
102
RTVSPost2010Prop55
280
     0
102
RTVSPost2010PropOp55
 70
     1
102
RTVSPost2010Prop56
140
1.0
102
RTVSPost2010PropOp56
 70
     1
102
RTVSPost2010Prop57
140
1.0
102
RTVSPost2010PropOp57
 70
     1
  0
XRECORD
  5
124
102
{ACAD_REACTORS
330
123
102
}
330
123
100
AcDbXrecord
280
     1
102
RTVSPost2010Prop28
280
     0
102
RTVSPost2010PropOp28
 70
     1
102
RTVSPost2010Prop29
280
     1
102
RTVSPost2010PropOp29
 70
     1
102
RTVSPost2010Prop30
280
     1
102
RTVSPost2010PropOp30
 70
     1
102
RTVSPost2010Prop31
280
     0
102
RTVSPost2010PropOp31
 70
     1
102
RTVSPost2010Prop32
280
     0
102
RTVSPost2010PropOp32
 70
     1
102
RTVSPost2010Prop33
280
     0
102
RTVSPost2010PropOp33
 70
     1
102
RTVSPost2010Prop34
280
     0
102
RTVSPost2010PropOp34
 70
     1
102
RTVSPost2010Prop35
280
     0
102
RTVSPost2010PropOp35
 70
     1
102
RTVSPost2010Prop36
280
     0
102
RTVSPost2010PropOp36
 70
     1
102
RTVSPost2010Prop37
 90
       50
102
RTVSPost2010PropOp37
 70
     1
102
RTVSPost2010Prop38
140
0.0
102
RTVSPost2010PropOp38
 70
     1
102
RTVSPost2010Prop39
140
1.0
102
RTVSPost2010PropOp39
 70
     1
102
RTVSPost2010Prop40
 90
        0
102
RTVSPost2010PropOp40
 70
     1
102
RTVSPost2010Prop41ColorIndex
 90
       18
102
RTVSPost2010Prop41ColorRGB
 90
        0
102
RTVSPost2010PropOp41
 70
     1
102
RTVSPost2010Prop42
 90
       50
102
RTVSPost2010PropOp42
 70
     1
102
RTVSPost2010Prop43
 90
        3
102
RTVSPost2010PropOp43
 70
     1
102
RTVSPost2010Prop44ColorIndex
 90
        5
102
RTVSPost2010Prop44ColorRGB
 90
      255
102
RTVSPost2010PropOp44
 70
     1
102
RTVSPost2010Prop45
280
     0
102
RTVSPost2010PropOp45
 70
     1
102
RTVSPost2010Prop46
 90
       50
102
RTVSPost2010PropOp46
 70
     1
102
RTVSPost2010Prop47
 90
       50
102
RTVSPost2010PropOp47
 70
     1
102
RTVSPost2010Prop48
 90
       50
102
RTVSPost2010PropOp48
 70
     1
102
RTVSPost2010Prop49
280
     0
102
RTVSPost2010PropOp49
 70
     1
102
RTVSPost2010Prop50
 90
       50
102
RTVSPost2010PropOp50
 70
     1
102
RTVSPost2010Prop51ColorIndex
 90
      256
102
RTVSPost2010Prop51ColorRGB
 90
-16777216
102
RTVSPost2010PropOp51
 70
     0
102
RTVSPost2010Prop52
140
1.0
102
RTVSPost2010PropOp52
 70
     0
102
RTVSPost2010Prop53
 90
        2
102
RTVSPost2010PropOp53
 70
     1
102
RTVSPost2010Prop54
  1
strokes_ogs.tif
102
RTVSPost2010PropOp54
 70
     1
102
RTVSPost2010Prop55
280
     0
102
RTVSPost2010PropOp55
 70
     1
102
RTVSPost2010Prop56
140
1.0
102
RTVSPost2010PropOp56
 70
     1
102
RTVSPost2010Prop57
140
1.0
102
RTVSPost2010PropOp57
 70
     1
  0
XRECORD
  5
118
102
{ACAD_REACTORS
330
117
102
}
330
117
100
AcDbXrecord
280
     1
102
RTVSPost2010Prop28
280
     0
102
RTVSPost2010PropOp28
 70
     1
102
RTVSPost2010Prop29
280
     1
102
RTVSPost2010PropOp29
 70
     1
102
RTVSPost2010Prop30
280
     1
102
RTVSPost2010PropOp30
 70
     1
102
RTVSPost2010Prop31
280
     0
102
RTVSPost2010PropOp31
 70
     1
102
RTVSPost2010Prop32
280
     0
102
RTVSPost2010PropOp32
 70
     1
102
RTVSPost2010Prop33
280
     0
102
RTVSPost2010PropOp33
 70
     1
102
RTVSPost2010Prop34
280
     0
102
RTVSPost2010PropOp34
 70
     1
102
RTVSPost2010Prop35
280
     0
102
RTVSPost2010PropOp35
 70
     1
102
RTVSPost2010Prop36
280
     0
102
RTVSPost2010PropOp36
 70
     1
102
RTVSPost2010Prop37
 90
       50
102
RTVSPost2010PropOp37
 70
     1
102
RTVSPost2010Prop38
140
0.0
102
RTVSPost2010PropOp38
 70
     1
102
RTVSPost2010Prop39
140
1.0
102
RTVSPost2010PropOp39
 70
     1
102
RTVSPost2010Prop40
 90
        0
102
RTVSPost2010PropOp40
 70
     1
102
RTVSPost2010Prop41ColorIndex
 90
       18
102
RTVSPost2010Prop41ColorRGB
 90
        0
102
RTVSPost2010PropOp41
 70
     1
102
RTVSPost2010Prop42
 90
       50
102
RTVSPost2010PropOp42
 70
     1
102
RTVSPost2010Prop43
 90
        3
102
RTVSPost2010PropOp43
 70
     1
102
RTVSPost2010Prop44ColorIndex
 90
        5
102
RTVSPost2010Prop44ColorRGB
 90
      255
102
RTVSPost2010PropOp44
 70
     1
102
RTVSPost2010Prop45
280
     0
102
RTVSPost2010PropOp45
 70
     1
102
RTVSPost2010Prop46
 90
       50
102
RTVSPost2010PropOp46
 70
     1
102
RTVSPost2010Prop47
 90
       50
102
RTVSPost2010PropOp47
 70
     1
102
RTVSPost2010Prop48
 90
       50
102
RTVSPost2010PropOp48
 70
     1
102
RTVSPost2010Prop49
280
     0
102
RTVSPost2010PropOp49
 70
     1
102
RTVSPost2010Prop50
 90
       50
102
RTVSPost2010PropOp50
 70
     1
102
RTVSPost2010Prop51ColorIndex
 90
      256
102
RTVSPost2010Prop51ColorRGB
 90
-16777216
102
RTVSPost2010PropOp51
 70
     0
102
RTVSPost2010Prop52
140
1.0
102
RTVSPost2010PropOp52
 70
     0
102
RTVSPost2010Prop53
 90
        2
102
RTVSPost2010PropOp53
 70
     1
102
RTVSPost2010Prop54
  1
strokes_ogs.tif
102
RTVSPost2010PropOp54
 70
     1
102
RTVSPost2010Prop55
280
     0
102
RTVSPost2010PropOp55
 70
     1
102
RTVSPost2010Prop56
140
1.0
102
RTVSPost2010PropOp56
 70
     1
102
RTVSPost2010Prop57
140
1.0
102
RTVSPost2010PropOp57
 70
     1
  0
XRECORD
  5
130
102
{ACAD_REACTORS
330
12F
102
}
330
12F
100
AcDbXrecord
280
     1
102
RTVSPost2010Prop28
280
     0
102
RTVSPost2010PropOp28
 70
     1
102
RTVSPost2010Prop29
280
     1
102
RTVSPost2010PropOp29
 70
     1
102
RTVSPost2010Prop30
280
     1
102
RTVSPost2010PropOp30
 70
     1
102
RTVSPost2010Prop31
280
     0
102
RTVSPost2010PropOp31
 70
     1
102
RTVSPost2010Prop32
280
     0
102
RTVSPost2010PropOp32
 70
     1
102
RTVSPost2010Prop33
280
     0
102
RTVSPost2010PropOp33
 70
     1
102
RTVSPost2010Prop34
280
     0
102
RTVSPost2010PropOp34
 70
     1
102
RTVSPost2010Prop35
280
     0
102
RTVSPost2010PropOp35
 70
     1
102
RTVSPost2010Prop36
280
     0
102
RTVSPost2010PropOp36
 70
     1
102
RTVSPost2010Prop37
 90
       50
102
RTVSPost2010PropOp37
 70
     1
102
RTVSPost2010Prop38
140
0.0
102
RTVSPost2010PropOp38
 70
     1
102
RTVSPost2010Prop39
140
1.0
102
RTVSPost2010PropOp39
 70
     1
102
RTVSPost2010Prop40
 90
        0
102
RTVSPost2010PropOp40
 70
     1
102
RTVSPost2010Prop41ColorIndex
 90
       18
102
RTVSPost2010Prop41ColorRGB
 90
        0
102
RTVSPost2010PropOp41
 70
     1
102
RTVSPost2010Prop42
 90
       50
102
RTVSPost2010PropOp42
 70
     1
102
RTVSPost2010Prop43
 90
        3
102
RTVSPost2010PropOp43
 70
     1
102
RTVSPost2010Prop44ColorIndex
 90
        5
102
RTVSPost2010Prop44ColorRGB
 90
      255
102
RTVSPost2010PropOp44
 70
     1
102
RTVSPost2010Prop45
280
     0
102
RTVSPost2010PropOp45
 70
     1
102
RTVSPost2010Prop46
 90
       50
102
RTVSPost2010PropOp46
 70
     1
102
RTVSPost2010Prop47
 90
       50
102
RTVSPost2010PropOp47
 70
     1
102
RTVSPost2010Prop48
 90
       50
102
RTVSPost2010PropOp48
 70
     1
102
RTVSPost2010Prop49
280
     0
102
RTVSPost2010PropOp49
 70
     1
102
RTVSPost2010Prop50
 90
       50
102
RTVSPost2010PropOp50
 70
     1
102
RTVSPost2010Prop51ColorIndex
 90
      256
102
RTVSPost2010Prop51ColorRGB
 90
-16777216
102
RTVSPost2010PropOp51
 70
     0
102
RTVSPost2010Prop52
140
1.0
102
RTVSPost2010PropOp52
 70
     0
102
RTVSPost2010Prop53
 90
        2
102
RTVSPost2010PropOp53
 70
     1
102
RTVSPost2010Prop54
  1
strokes_ogs.tif
102
RTVSPost2010PropOp54
 70
     1
102
RTVSPost2010Prop55
280
     0
102
RTVSPost2010PropOp55
 70
     1
102
RTVSPost2010Prop56
140
1.0
102
RTVSPost2010PropOp56
 70
     1
102
RTVSPost2010Prop57
140
1.0
102
RTVSPost2010PropOp57
 70
     1
  0
ENDSEC
  0
EOF
