  0
SECTION
  2
HEADER
  9
$ACADVER
  1
AC1024
  9
$ACADMAINTVER
 70
   226
  9
$DWGCODEPAGE
  3
ANSI_1252
  9
$INSBASE
 10
0.0
 20
0.0
 30
0.0
  9
$EXTMIN
 10
1.000000000000000E+20
 20
1.000000000000000E+20
 30
1.000000000000000E+20
  9
$EXTMAX
 10
-1.000000000000000E+20
 20
-1.000000000000000E+20
 30
-1.000000000000000E+20
  9
$LIMMIN
 10
0.0
 20
0.0
  9
$LIMMAX
 10
12.0
 20
9.0
  9
$ORTHOMODE
 70
     0
  9
$REGENMODE
 70
     1
  9
$FILLMODE
 70
     1
  9
$QTEXTMODE
 70
     0
  9
$MIRRTEXT
 70
     0
  9
$LTSCALE
 40
1.0
  9
$ATTMODE
 70
     1
  9
$TEXTSIZE
 40
0.2
  9
$TRACEWID
 40
0.05
  9
$TEXTSTYLE
  7
Standard
  9
$CLAYER
  8
0
  9
$CELTYPE
  6
ByLayer
  9
$CECOLOR
 62
   256
  9
$CELTSCALE
 40
1.0
  9
$DISPSILH
 70
     0
  9
$DIMSCALE
 40
1.0
  9
$DIMASZ
 40
0.18
  9
$DIMEXO
 40
0.0625
  9
$DIMDLI
 40
0.38
  9
$DIMRND
 40
0.0
  9
$DIMDLE
 40
0.0
  9
$DIMEXE
 40
0.18
  9
$DIMTP
 40
0.0
  9
$DIMTM
 40
0.0
  9
$DIMTXT
 40
0.18
  9
$DIMCEN
 40
0.09
  9
$DIMTSZ
 40
0.0
  9
$DIMTOL
 70
     0
  9
$DIMLIM
 70
     0
  9
$DIMTIH
 70
     1
  9
$DIMTOH
 70
     1
  9
$DIMSE1
 70
     0
  9
$DIMSE2
 70
     0
  9
$DIMTAD
 70
     0
  9
$DIMZIN
 70
     0
  9
$DIMBLK
  1

  9
$DIMASO
 70
     1
  9
$DIMSHO
 70
     1
  9
$DIMPOST
  1

  9
$DIMAPOST
  1

  9
$DIMALT
 70
     0
  9
$DIMALTD
 70
     2
  9
$DIMALTF
 40
25.4
  9
$DIMLFAC
 40
1.0
  9
$DIMTOFL
 70
     0
  9
$DIMTVP
 40
0.0
  9
$DIMTIX
 70
     0
  9
$DIMSOXD
 70
     0
  9
$DIMSAH
 70
     0
  9
$DIMBLK1
  1

  9
$DIMBLK2
  1

  9
$DIMSTYLE
  2
Standard
  9
$DIMCLRD
 70
     0
  9
$DIMCLRE
 70
     0
  9
$DIMCLRT
 70
     0
  9
$DIMTFAC
 40
1.0
  9
$DIMGAP
 40
0.09
  9
$DIMJUST
 70
     0
  9
$DIMSD1
 70
     0
  9
$DIMSD2
 70
     0
  9
$DIMTOLJ
 70
     1
  9
$DIMTZIN
 70
     0
  9
$DIMALTZ
 70
     0
  9
$DIMALTTZ
 70
     0
  9
$DIMUPT
 70
     0
  9
$DIMDEC
 70
     4
  9
$DIMTDEC
 70
     4
  9
$DIMALTU
 70
     2
  9
$DIMALTTD
 70
     2
  9
$DIMTXSTY
  7
Standard
  9
$DIMAUNIT
 70
     0
  9
$DIMADEC
 70
     0
  9
$DIMALTRND
 40
0.0
  9
$DIMAZIN
 70
     0
  9
$DIMDSEP
 70
    46
  9
$DIMATFIT
 70
     3
  9
$DIMFRAC
 70
     0
  9
$DIMLDRBLK
  1

  9
$DIMLUNIT
 70
     2
  9
$DIMLWD
 70
    -2
  9
$DIMLWE
 70
    -2
  9
$DIMTMOVE
 70
     0
  9
$DIMFXL
 40
1.0
  9
$DIMFXLON
 70
     0
  9
$DIMJOGANG
 40
0.7853981633974483
  9
$DIMTFILL
 70
     0
  9
$DIMTFILLCLR
 70
     0
  9
$DIMARCSYM
 70
     0
  9
$DIMLTYPE
  6

  9
$DIMLTEX1
  6

  9
$DIMLTEX2
  6

  9
$DIMTXTDIRECTION
 70
     0
  9
$LUNITS
 70
     2
  9
$LUPREC
 70
     4
  9
$SKETCHINC
 40
0.1
  9
$FILLETRAD
 40
0.0
  9
$AUNITS
 70
     0
  9
$AUPREC
 70
     0
  9
$MENU
  1
.
  9
$ELEVATION
 40
0.0
  9
$PELEVATION
 40
0.0
  9
$THICKNESS
 40
0.0
  9
$LIMCHECK
 70
     0
  9
$CHAMFERA
 40
0.0
  9
$CHAMFERB
 40
0.0
  9
$CHAMFERC
 40
0.0
  9
$CHAMFERD
 40
0.0
  9
$SKPOLY
 70
     0
  9
$TDCREATE
 40
2460209.905324074
  9
$TDUCREATE
 40
2460209.821990741
  9
$TDUPDATE
 40
2460209.905324074
  9
$TDUUPDATE
 40
2460209.821990741
  9
$TDINDWG
 40
0.0000000000
  9
$TDUSRTIMER
 40
0.0000000000
  9
$USRTIMER
 70
     1
  9
$ANGBASE
 50
0.0
  9
$ANGDIR
 70
     0
  9
$PDMODE
 70
     0
  9
$PDSIZE
 40
0.0
  9
$PLINEWID
 40
0.0
  9
$SPLFRAME
 70
     0
  9
$SPLINETYPE
 70
     6
  9
$SPLINESEGS
 70
     8
  9
$HANDSEED
  5
146
  9
$SURFTAB1
 70
     6
  9
$SURFTAB2
 70
     6
  9
$SURFTYPE
 70
     6
  9
$SURFU
 70
     6
  9
$SURFV
 70
     6
  9
$UCSBASE
  2

  9
$UCSNAME
  2

  9
$UCSORG
 10
0.0
 20
0.0
 30
0.0
  9
$UCSXDIR
 10
1.0
 20
0.0
 30
0.0
  9
$UCSYDIR
 10
0.0
 20
1.0
 30
0.0
  9
$UCSORTHOREF
  2

  9
$UCSORTHOVIEW
 70
     0
  9
$UCSORGTOP
 10
0.0
 20
0.0
 30
0.0
  9
$UCSORGBOTTOM
 10
0.0
 20
0.0
 30
0.0
  9
$UCSORGLEFT
 10
0.0
 20
0.0
 30
0.0
  9
$UCSORGRIGHT
 10
0.0
 20
0.0
 30
0.0
  9
$UCSORGFRONT
 10
0.0
 20
0.0
 30
0.0
  9
$UCSORGBACK
 10
0.0
 20
0.0
 30
0.0
  9
$PUCSBASE
  2

  9
$PUCSNAME
  2

  9
$PUCSORG
 10
0.0
 20
0.0
 30
0.0
  9
$PUCSXDIR
 10
1.0
 20
0.0
 30
0.0
  9
$PUCSYDIR
 10
0.0
 20
1.0
 30
0.0
  9
$PUCSORTHOREF
  2

  9
$PUCSORTHOVIEW
 70
     0
  9
$PUCSORGTOP
 10
0.0
 20
0.0
 30
0.0
  9
$PUCSORGBOTTOM
 10
0.0
 20
0.0
 30
0.0
  9
$PUCSORGLEFT
 10
0.0
 20
0.0
 30
0.0
  9
$PUCSORGRIGHT
 10
0.0
 20
0.0
 30
0.0
  9
$PUCSORGFRONT
 10
0.0
 20
0.0
 30
0.0
  9
$PUCSORGBACK
 10
0.0
 20
0.0
 30
0.0
  9
$USERI1
 70
     0
  9
$USERI2
 70
     0
  9
$USERI3
 70
     0
  9
$USERI4
 70
     0
  9
$USERI5
 70
     0
  9
$USERR1
 40
0.0
  9
$USERR2
 40
0.0
  9
$USERR3
 40
0.0
  9
$USERR4
 40
0.0
  9
$USERR5
 40
0.0
  9
$WORLDVIEW
 70
     1
  9
$SHADEDGE
 70
     3
  9
$SHADEDIF
 70
    70
  9
$TILEMODE
 70
     1
  9
$MAXACTVP
 70
    64
  9
$PINSBASE
 10
0.0
 20
0.0
 30
0.0
  9
$PLIMCHECK
 70
     0
  9
$PEXTMIN
 10
1.000000000000000E+20
 20
1.000000000000000E+20
 30
1.000000000000000E+20
  9
$PEXTMAX
 10
-1.000000000000000E+20
 20
-1.000000000000000E+20
 30
-1.000000000000000E+20
  9
$PLIMMIN
 10
0.0
 20
0.0
  9
$PLIMMAX
 10
12.0
 20
9.0
  9
$UNITMODE
 70
     0
  9
$VISRETAIN
 70
     1
  9
$PLINEGEN
 70
     0
  9
$PSLTSCALE
 70
     1
  9
$TREEDEPTH
 70
  3020
  9
$CMLSTYLE
  2
Standard
  9
$CMLJUST
 70
     0
  9
$CMLSCALE
 40
1.0
  9
$PROXYGRAPHICS
 70
     1
  9
$MEASUREMENT
 70
     0
  9
$CELWEIGHT
370
    -1
  9
$ENDCAPS
280
     0
  9
$JOINSTYLE
280
     0
  9
$LWDISPLAY
290
     1
  9
$INSUNITS
 70
     4
  9
$HYPERLINKBASE
  1

  9
$STYLESHEET
  1

  9
$XEDIT
290
     1
  9
$CEPSNTYPE
380
     0
  9
$PSTYLEMODE
290
     1
  9
$FINGERPRINTGUID
  2
{01BFA124-2438-5D4E-8924-F237C60803A5}
  9
$VERSIONGUID
  2
{A2F8ADA8-7C52-A64B-8A7B-605264C9A12A}
  9
$EXTNAMES
290
     1
  9
$PSVPSCALE
 40
0.0
  9
$OLESTARTUP
290
     0
  9
$SORTENTS
280
   127
  9
$INDEXCTL
280
     0
  9
$HIDETEXT
280
     1
  9
$XCLIPFRAME
280
     2
  9
$HALOGAP
280
     0
  9
$OBSCOLOR
 70
   257
  9
$OBSLTYPE
280
     0
  9
$INTERSECTIONDISPLAY
280
     0
  9
$INTERSECTIONCOLOR
 70
   257
  9
$DIMASSOC
280
     2
  9
$PROJECTNAME
  1

  9
$CAMERADISPLAY
290
     0
  9
$LENSLENGTH
 40
50.0
  9
$CAMERAHEIGHT
 40
0.0
  9
$STEPSPERSEC
 40
2.0
  9
$STEPSIZE
 40
6.0
  9
$3DDWFPREC
 40
2.0
  9
$PSOLWIDTH
 40
0.25
  9
$PSOLHEIGHT
 40
4.0
  9
$LOFTANG1
 40
1.570796326794896
  9
$LOFTANG2
 40
1.570796326794896
  9
$LOFTMAG1
 40
0.0
  9
$LOFTMAG2
 40
0.0
  9
$LOFTPARAM
 70
     7
  9
$LOFTNORMALS
280
     1
  9
$LATITUDE
 40
37.795
  9
$LONGITUDE
 40
-122.394
  9
$NORTHDIRECTION
 40
0.0
  9
$TIMEZONE
 70
 -8000
  9
$LIGHTGLYPHDISPLAY
280
     1
  9
$TILEMODELIGHTSYNCH
280
     1
  9
$CMATERIAL
347
11
  9
$SOLIDHIST
280
     0
  9
$SHOWHIST
280
     1
  9
$DWFFRAME
280
     2
  9
$DGNFRAME
280
     0
  9
$REALWORLDSCALE
290
     1
  9
$INTERFERECOLOR
 62
     1
  9
$INTERFEREOBJVS
345
33
  9
$INTERFEREVPVS
346
30
  9
$CSHADOW
280
     0
  9
$SHADOWPLANELOCATION
 40
0.0
  0
ENDSEC
  0
SECTION
  2
CLASSES
  0
CLASS
  1
ACDBDICTIONARYWDFLT
  2
AcDbDictionaryWithDefault
  3
ObjectDBX Classes
 90
        0
 91
        1
280
     0
281
     0
  0
CLASS
  1
MATERIAL
  2
AcDbMaterial
  3
ObjectDBX Classes
 90
     1153
 91
        3
280
     0
281
     0
  0
CLASS
  1
VISUALSTYLE
  2
AcDbVisualStyle
  3
ObjectDBX Classes
 90
     4095
 91
       24
280
     0
281
     0
  0
CLASS
  1
SCALE
  2
AcDbScale
  3
ObjectDBX Classes
 90
     1153
 91
       17
280
     0
281
     0
  0
CLASS
  1
TABLESTYLE
  2
AcDbTableStyle
  3
ObjectDBX Classes
 90
     4095
 91
        1
280
     0
281
     0
  0
CLASS
  1
MLEADERSTYLE
  2
AcDbMLeaderStyle
  3
ACDB_MLEADERSTYLE_CLASS
 90
     4095
 91
        1
280
     0
281
     0
  0
CLASS
  1
ACDBSECTIONVIEWSTYLE
  2
AcDbSectionViewStyle
  3
ObjectDBX Classes
 90
     1025
 91
        1
280
     0
281
     0
  0
CLASS
  1
ACDBDETAILVIEWSTYLE
  2
AcDbDetailViewStyle
  3
ObjectDBX Classes
 90
     1025
 91
        1
280
     0
281
     0
  0
CLASS
  1
DICTIONARYVAR
  2
AcDbDictionaryVar
  3
ObjectDBX Classes
 90
        0
 91
        5
280
     0
281
     0
  0
CLASS
  1
CELLSTYLEMAP
  2
AcDbCellStyleMap
  3
ObjectDBX Classes
 90
     1152
 91
        1
280
     0
281
     0
  0
ENDSEC
  0
SECTION
  2
TABLES
  0
TABLE
  2
VPORT
  5
8
330
0
100
AcDbSymbolTable
 70
     1
  0
VPORT
  5
57
330
8
100
AcDbSymbolTableRecord
100
AcDbViewportTableRecord
  2
*Active
 70
     0
 10
0.0
 20
0.0
 11
1.0
 21
1.0
 12
0.0
 22
0.0
 13
0.0
 23
0.0
 14
1.0
 24
1.0
 15
0.0
 25
0.0
 16
0.0
 26
0.0
 36
1.0
 17
104.951388862651
 27
148.5194444073146
 37
0.0
 40
302.9796665909217
 41
0.7066508313539194
 42
50.0
 43
0.0
 44
0.0
 50
0.0
 51
0.0
 71
     0
 72
   100
 73
     1
 74
     1
 75
     0
 76
     0
 77
     0
 78
     0
281
     0
 65
     1
110
0.0
120
0.0
130
0.0
111
1.0
121
0.0
131
0.0
112
0.0
122
1.0
132
0.0
 79
     0
146
0.0
 60
     3
 61
     5
292
     1
282
     1
141
0.0
142
0.0
 63
   250
421
  3355443
  0
ENDTAB
  0
TABLE
  2
LTYPE
  5
5
330
0
100
AcDbSymbolTable
 70
     1
  0
LTYPE
  5
5B
330
5
100
AcDbSymbolTableRecord
100
AcDbLinetypeTableRecord
  2
ByBlock
 70
     0
  3

 72
    65
 73
     0
 40
0.0
  0
LTYPE
  5
5C
330
5
100
AcDbSymbolTableRecord
100
AcDbLinetypeTableRecord
  2
ByLayer
 70
     0
  3

 72
    65
 73
     0
 40
0.0
  0
LTYPE
  5
5D
330
5
100
AcDbSymbolTableRecord
100
AcDbLinetypeTableRecord
  2
Continuous
 70
     0
  3
Solid line
 72
    65
 73
     0
 40
0.0
  0
ENDTAB
  0
TABLE
  2
LAYER
  5
2
330
0
100
AcDbSymbolTable
 70
     2
  0
LAYER
  5
54
330
2
100
AcDbSymbolTableRecord
100
AcDbLayerTableRecord
  2
0
 70
     0
 62
     7
  6
Continuous
370
    -3
390
F
347
21
  0
LAYER
  5
78
330
2
100
AcDbSymbolTableRecord
100
AcDbLayerTableRecord
  2
Capa 1
 70
     0
 62
     7
  6
Continuous
370
     0
390
F
347
21
  0
ENDTAB
  0
TABLE
  2
STYLE
  5
3
330
0
100
AcDbSymbolTable
 70
     2
  0
STYLE
  5
55
330
3
100
AcDbSymbolTableRecord
100
AcDbTextStyleTableRecord
  2
Standard
 70
     0
 40
0.0
 41
1.0
 50
0.0
 71
     0
 42
0.2
  3
txt
  4

  0
STYLE
  5
5A
330
3
100
AcDbSymbolTableRecord
100
AcDbTextStyleTableRecord
  2
Annotative
 70
     0
 40
0.0
 41
1.0
 50
0.0
 71
     0
 42
0.2
  3
txt
  4

1001
AcadAnnotative
1000
AnnotativeData
1002
{
1070
     1
1070
     1
1002
}
  0
ENDTAB
  0
TABLE
  2
VIEW
  5
6
330
0
100
AcDbSymbolTable
 70
     0
  0
ENDTAB
  0
TABLE
  2
UCS
  5
7
330
0
100
AcDbSymbolTable
 70
     0
  0
ENDTAB
  0
TABLE
  2
APPID
  5
9
330
0
100
AcDbSymbolTable
 70
     2
  0
APPID
  5
56
330
9
100
AcDbSymbolTableRecord
100
AcDbRegAppTableRecord
  2
ACAD
 70
     0
  0
APPID
  5
5E
330
9
100
AcDbSymbolTableRecord
100
AcDbRegAppTableRecord
  2
AcadAnnotative
 70
     0
  0
ENDTAB
  0
TABLE
  2
DIMSTYLE
  5
A
330
0
100
AcDbSymbolTable
 70
     2
100
AcDbDimStyleTable
 71
     0
  0
DIMSTYLE
105
58
330
A
100
AcDbSymbolTableRecord
100
AcDbDimStyleTableRecord
  2
Standard
 70
     0
340
55
  0
DIMSTYLE
105
59
330
A
100
AcDbSymbolTableRecord
100
AcDbDimStyleTableRecord
  2
Annotative
 70
     0
340
55
1001
AcadAnnotative
1000
AnnotativeData
1002
{
1070
     1
1070
     1
1002
}
  0
ENDTAB
  0
TABLE
  2
BLOCK_RECORD
  5
1
330
0
100
AcDbSymbolTable
 70
     1
  0
BLOCK_RECORD
  5
70
330
1
100
AcDbSymbolTableRecord
100
AcDbBlockTableRecord
  2
*Model_Space
340
73
 70
     0
280
     1
281
     0
  0
BLOCK_RECORD
  5
6C
330
1
100
AcDbSymbolTableRecord
100
AcDbBlockTableRecord
  2
*Paper_Space
340
6F
 70
     0
280
     1
281
     0
  0
BLOCK_RECORD
  5
74
330
1
100
AcDbSymbolTableRecord
100
AcDbBlockTableRecord
  2
*Paper_Space0
340
77
 70
     0
280
     1
281
     0
  0
ENDTAB
  0
ENDSEC
  0
SECTION
  2
BLOCKS
  0
BLOCK
  5
71
330
70
100
AcDbEntity
  8
0
100
AcDbBlockBegin
  2
*Model_Space
 70
     0
 10
0.0
 20
0.0
 30
0.0
  3
*Model_Space
  1

  0
ENDBLK
  5
72
330
70
100
AcDbEntity
  8
0
100
AcDbBlockEnd
  0
BLOCK
  5
6D
330
6C
100
AcDbEntity
 67
     1
  8
0
100
AcDbBlockBegin
  2
*Paper_Space
 70
     0
 10
0.0
 20
0.0
 30
0.0
  3
*Paper_Space
  1

  0
ENDBLK
  5
6E
330
6C
100
AcDbEntity
 67
     1
  8
0
100
AcDbBlockEnd
  0
BLOCK
  5
75
330
74
100
AcDbEntity
 67
     1
  8
0
100
AcDbBlockBegin
  2
*Paper_Space0
 70
     0
 10
0.0
 20
0.0
 30
0.0
  3
*Paper_Space0
  1

  0
ENDBLK
  5
76
330
74
100
AcDbEntity
 67
     1
  8
0
100
AcDbBlockEnd
  0
ENDSEC
  0
SECTION
  2
ENTITIES
  0
LWPOLYLINE
  5
79
330
70
100
AcDbEntity
  8
Capa 1
 62
    18
420
        0
370
     9
100
AcDbPolyline
 90
        4
 70
     1
 43
0.0
 10
107.3573251243922
 20
80.20777645225166
 10
105.917996528425
 20
80.96977774397197
 10
105.917996528425
 20
105.1847725499299
 10
107.3573251243922
 20
104.4227712582096
  0
LWPOLYLINE
  5
7A
330
70
100
AcDbEntity
  8
Capa 1
 62
    18
420
        0
370
     9
100
AcDbPolyline
 90
        3
 70
     0
 43
0.0
 10
158.6653259728391
 20
134.0561045841346
 10
158.6653259728391
 20
109.8414435218018
 10
107.3573251243922
 20
80.20777645225166
  0
LWPOLYLINE
  5
7B
330
70
100
AcDbEntity
  8
Capa 1
 62
    18
420
        0
370
     9
100
AcDbPolyline
 90
        4
 70
     0
 43
0.0
 10
107.3573251243922
 20
104.4227712582096
 10
158.6653259728391
 20
134.0561045841346
 10
157.3106605984219
 20
134.8181058758549
 10
105.917996528425
 20
105.1847725499299
  0
LWPOLYLINE
  5
7C
330
70
100
AcDbEntity
  8
Capa 1
 62
    18
420
        0
370
     9
100
AcDbPolyline
 90
        4
 70
     1
 43
0.0
 10
107.3573251243922
 20
108.4021041599112
 10
105.917996528425
 20
109.1641054516315
 10
105.917996528425
 20
133.3787772798877
 10
107.3573251243922
 20
132.6167759881674
  0
LWPOLYLINE
  5
7D
330
70
100
AcDbEntity
  8
Capa 1
 62
    18
420
        0
370
     9
100
AcDbPolyline
 90
        3
 70
     0
 43
0.0
 10
157.3106605984219
 20
163.0121106058127
 10
158.6653259728391
 20
162.2501093140924
 10
107.3573251243922
 20
132.6167759881674
  0
LINE
  5
7E
330
70
100
AcDbEntity
  8
Capa 1
 62
    18
420
        0
370
     9
100
AcDbLine
 10
105.917996528425
 20
133.3787772798877
 30
0.0
 11
157.3106605984219
 21
163.0121106058127
 31
0.0
  0
LWPOLYLINE
  5
7F
330
70
100
AcDbEntity
  8
Capa 1
 62
    18
420
        0
370
     9
100
AcDbPolyline
 90
        3
 70
     0
 43
0.0
 10
158.6653259728391
 20
162.2501093140924
 10
158.6653259728391
 20
138.0354374858362
 10
107.3573251243922
 20
108.4021041599112
  0
SPLINE
  5
80
330
70
100
AcDbEntity
  8
Capa 1
 62
    18
420
        0
370
     9
100
AcDbSpline
210
0.0
220
0.0
230
1.0
 70
    24
 71
     3
 72
     8
 73
     4
 74
     0
 42
0.0000000001
 43
0.0000000001
 40
0.0
 40
0.0
 40
0.0
 40
0.0
 40
1.0
 40
1.0
 40
1.0
 40
1.0
 10
107.2726619028422
 20
105.9467738416502
 30
0.0
 10
107.2726619028422
 20
105.9467738416502
 30
0.0
 10
107.2726619028422
 20
108.4021041599112
 30
0.0
 10
107.2726619028422
 20
108.4021041599112
 30
0.0
  0
SPLINE
  5
81
330
70
100
AcDbEntity
  8
Capa 1
 62
    18
420
        0
370
     9
100
AcDbSpline
210
0.0
220
0.0
230
1.0
 70
    24
 71
     3
 72
     8
 73
     4
 74
     0
 42
0.0000000001
 43
0.0000000001
 40
0.0
 40
0.0
 40
0.0
 40
0.0
 40
1.0
 40
1.0
 40
1.0
 40
1.0
 10
107.2726619028422
 20
134.140778571608
 30
0.0
 10
107.2726619028422
 20
134.140778571608
 30
0.0
 10
107.2726619028422
 20
138.1201114733096
 30
0.0
 10
107.2726619028422
 20
138.1201114733096
 30
0.0
  0
LWPOLYLINE
  5
82
330
70
100
AcDbEntity
  8
Capa 1
 62
    18
420
        0
370
     9
100
AcDbPolyline
 90
        3
 70
     0
 43
0.0
 10
106.002659749975
 20
80.96977774397197
 10
105.8333225409516
 20
80.88510913946025
 10
105.8333225409516
 20
137.3581101815893
  0
LWPOLYLINE
  5
83
330
70
100
AcDbEntity
  8
Capa 1
 62
    18
420
        0
370
     9
100
AcDbPolyline
 90
        3
 70
     0
 43
0.0
 10
105.8333225409516
 20
80.88510913946025
 10
68.24132879458517
 20
102.5601050226455
 10
68.24132879458517
 20
159.0327777041111
  0
SPLINE
  5
84
330
70
100
AcDbEntity
  8
Capa 1
 62
    18
420
        0
370
     9
100
AcDbSpline
210
0.0
220
0.0
230
1.0
 70
    24
 71
     3
 72
     8
 73
     4
 74
     0
 42
0.0000000001
 43
0.0000000001
 40
0.0
 40
0.0
 40
0.0
 40
0.0
 40
1.0
 40
1.0
 40
1.0
 40
1.0
 10
155.1939939322844
 20
136.0881080287221
 30
0.0
 10
155.1939939322844
 20
136.0881080287221
 30
0.0
 10
155.1939939322844
 20
133.6327777104612
 30
0.0
 10
155.1939939322844
 20
133.6327777104612
 30
0.0
  0
SPLINE
  5
85
330
70
100
AcDbEntity
  8
Capa 1
 62
    18
420
        0
370
     9
100
AcDbSpline
210
0.0
220
0.0
230
1.0
 70
    24
 71
     3
 72
     8
 73
     4
 74
     0
 42
0.0000000001
 43
0.0000000001
 40
0.0
 40
0.0
 40
0.0
 40
0.0
 40
1.0
 40
1.0
 40
1.0
 40
1.0
 10
155.9559952240047
 20
136.5114456683189
 30
0.0
 10
155.9559952240047
 20
136.5114456683189
 30
0.0
 10
155.9559952240047
 20
134.0561045841346
 30
0.0
 10
155.9559952240047
 20
134.0561045841346
 30
0.0
  0
SPLINE
  5
86
330
70
100
AcDbEntity
  8
Capa 1
 62
    18
420
        0
370
     9
100
AcDbSpline
210
0.0
220
0.0
230
1.0
 70
    24
 71
     3
 72
     8
 73
     4
 74
     0
 42
0.0000000001
 43
0.0000000001
 40
0.0
 40
0.0
 40
0.0
 40
0.0
 40
1.0
 40
1.0
 40
1.0
 40
1.0
 10
157.3953238199719
 20
137.2734469600393
 30
0.0
 10
157.3953238199719
 20
137.2734469600393
 30
0.0
 10
157.3953238199719
 20
134.7334426543049
 30
0.0
 10
157.3953238199719
 20
134.7334426543049
 30
0.0
  0
SPLINE
  5
87
330
70
100
AcDbEntity
  8
Capa 1
 62
    18
420
        0
370
     9
100
AcDbSpline
210
0.0
220
0.0
230
1.0
 70
    24
 71
     3
 72
     8
 73
     4
 74
     0
 42
0.0000000001
 43
0.0000000001
 40
0.0
 40
0.0
 40
0.0
 40
0.0
 40
1.0
 40
1.0
 40
1.0
 40
1.0
 10
107.2726619028422
 20
80.03844462618994
 30
0.0
 10
107.2726619028422
 20
80.03844462618994
 30
0.0
 10
89.74666449104532
 20
69.9631121566493
 30
0.0
 10
89.74666449104532
 20
69.9631121566493
 30
0.0
  0
SPLINE
  5
88
330
70
100
AcDbEntity
  8
Capa 1
 62
    18
420
        0
370
     9
100
AcDbSpline
210
0.0
220
0.0
230
1.0
 70
    24
 71
     3
 72
     8
 73
     4
 74
     0
 42
0.0000000001
 43
0.0000000001
 40
0.0
 40
0.0
 40
0.0
 40
0.0
 40
1.0
 40
1.0
 40
1.0
 40
1.0
 10
68.24132879458517
 20
102.5601050226455
 30
0.0
 10
68.24132879458517
 20
102.5601050226455
 30
0.0
 10
50.79999460433831
 20
92.40010933155494
 30
0.0
 10
50.79999460433831
 20
92.40010933155494
 30
0.0
  0
SPLINE
  5
89
330
70
100
AcDbEntity
  8
Capa 1
 62
    18
420
        0
370
     9
100
AcDbSpline
210
0.0
220
0.0
230
1.0
 70
    24
 71
     3
 72
     8
 73
     4
 74
     0
 42
0.0000000001
 43
0.0000000001
 40
0.0
 40
0.0
 40
0.0
 40
0.0
 40
1.0
 40
1.0
 40
1.0
 40
1.0
 10
88.22266190760471
 20
72.58777430097199
 30
0.0
 10
88.22266190760471
 20
72.58777430097199
 30
0.0
 10
55.28732836718674
 20
91.55344481828461
 30
0.0
 10
55.28732836718674
 20
91.55344481828461
 30
0.0
  0
LWPOLYLINE
  5
8A
330
70
100
AcDbEntity
  8
Capa 1
100
AcDbPolyline
 90
        3
 70
     0
 43
0.0
 10
88.47666233817815
 20
73.09577516211885
 10
87.96866147703127
 20
72.0797788227868
 10
91.27065630856256
 20
70.80977666991962
  0
HATCH
  5
8B
330
70
100
AcDbEntity
  8
Capa 1
 62
    18
420
        0
440
 33554687
100
AcDbHatch
 10
0.0
 20
0.0
 30
0.0
210
0.0
220
0.0
230
1.0
  2
SOLID
 70
     1
 71
     1
 91
        1
 92
        3
 72
     0
 73
     1
 93
        3
 10
88.47666233817815
 20
73.09577516211885
 10
87.96866147703127
 20
72.0797788227868
 10
91.27065630856256
 20
70.80977666991962
 97
        0
 75
     0
 76
     1
 98
        1
 10
0.0
 20
0.0
450
        0
451
        0
460
0.0
461
0.0
452
        0
462
0.0
453
        0
470

  0
LWPOLYLINE
  5
8C
330
70
100
AcDbEntity
  8
Capa 1
100
AcDbPolyline
 90
        3
 70
     0
 43
0.0
 10
55.62599740227189
 20
92.06144567943146
 10
55.0333279366133
 20
91.04544395713773
 10
52.32399718777892
 20
93.33144783229865
  0
HATCH
  5
8D
330
70
100
AcDbEntity
  8
Capa 1
 62
    18
420
        0
440
 33554687
100
AcDbHatch
 10
0.0
 20
0.0
 30
0.0
210
0.0
220
0.0
230
1.0
  2
SOLID
 70
     1
 71
     1
 91
        1
 92
        3
 72
     0
 73
     1
 93
        3
 10
55.62599740227189
 20
92.06144567943146
 10
55.0333279366133
 20
91.04544395713773
 10
52.32399718777892
 20
93.33144783229865
 97
        0
 75
     0
 76
     1
 98
        1
 10
0.0
 20
0.0
450
        0
451
        0
460
0.0
461
0.0
452
        0
462
0.0
453
        0
470

  0
LWPOLYLINE
  5
8E
330
70
100
AcDbEntity
  8
Capa 1
100
AcDbPolyline
 90
       13
 70
     0
 43
0.0
 10
72.30533030079846
 20
85.79611966849238
 10
72.13599309177503
 20
85.8807828900424
 10
70.35799546072268
 20
85.11878698128379
 10
70.18866363466095
 20
84.86478655071035
 10
71.11999675244298
 20
84.27177795846494
 10
70.78132771735784
 20
83.76377709731807
 10
71.11999675244298
 20
83.67910849280635
 10
71.37399718301643
 20
84.18710935395322
 10
71.71266083513987
 20
84.01777752789149
 10
71.79732943965158
 20
84.27177795846494
 10
71.54332900907815
 20
84.44110978452666
 10
70.61199589129611
 20
84.94944977226037
 10
71.79732943965158
 20
85.54211923791894
  0
HATCH
  5
8F
330
70
100
AcDbEntity
  8
Capa 1
 62
    18
420
        0
440
 33554687
100
AcDbHatch
 10
0.0
 20
0.0
 30
0.0
210
0.0
220
0.0
230
1.0
  2
SOLID
 70
     1
 71
     1
 91
        1
 92
        3
 72
     0
 73
     1
 93
       13
 10
72.30533030079846
 20
85.79611966849238
 10
72.13599309177503
 20
85.8807828900424
 10
70.35799546072268
 20
85.11878698128379
 10
70.18866363466095
 20
84.86478655071035
 10
71.11999675244298
 20
84.27177795846494
 10
70.78132771735784
 20
83.76377709731807
 10
71.11999675244298
 20
83.67910849280635
 10
71.37399718301643
 20
84.18710935395322
 10
71.71266083513987
 20
84.01777752789149
 10
71.79732943965158
 20
84.27177795846494
 10
71.54332900907815
 20
84.44110978452666
 10
70.61199589129611
 20
84.94944977226037
 10
71.79732943965158
 20
85.54211923791894
 97
        0
 75
     0
 76
     1
 98
        1
 10
0.0
 20
0.0
450
        0
451
        0
460
0.0
461
0.0
452
        0
462
0.0
453
        0
470

  0
LWPOLYLINE
  5
90
330
70
100
AcDbEntity
  8
Capa 1
100
AcDbPolyline
 90
        5
 70
     0
 43
0.0
 10
72.30533030079846
 20
85.79611966849238
 10
71.79732943965158
 20
85.54211923791894
 10
71.28932857850471
 20
84.52577838903838
 10
70.61199589129611
 20
84.94944977226037
 10
71.54332900907815
 20
84.44110978452666
  0
HATCH
  5
91
330
70
100
AcDbEntity
  8
Capa 1
 62
    18
420
        0
440
 33554687
100
AcDbHatch
 10
0.0
 20
0.0
 30
0.0
210
0.0
220
0.0
230
1.0
  2
SOLID
 70
     1
 71
     1
 91
        1
 92
        3
 72
     0
 73
     1
 93
        5
 10
72.30533030079846
 20
85.79611966849238
 10
71.79732943965158
 20
85.54211923791894
 10
71.28932857850471
 20
84.52577838903838
 10
70.61199589129611
 20
84.94944977226037
 10
71.54332900907815
 20
84.44110978452666
 97
        0
 75
     0
 76
     1
 98
        1
 10
0.0
 20
0.0
450
        0
451
        0
460
0.0
461
0.0
452
        0
462
0.0
453
        0
470

  0
LWPOLYLINE
  5
92
330
70
100
AcDbEntity
  8
Capa 1
100
AcDbPolyline
 90
       34
 70
     0
 43
0.0
 10
72.30533030079846
 20
83.76377709731807
 10
71.96666126571331
 20
83.84844570182977
 10
71.96666126571331
 20
83.67910849280635
 10
71.88199804416329
 20
83.67910849280635
 10
71.88199804416329
 20
83.59444527125635
 10
71.88199804416329
 20
83.50977666674463
 10
71.88199804416329
 20
83.42510806223293
 10
71.96666126571331
 20
83.34044484068291
 10
71.96666126571331
 20
83.25577623617119
 10
71.96666126571331
 20
83.17110763165947
 10
72.05132987022501
 20
83.17110763165947
 10
72.05132987022501
 20
83.08644441010946
 10
72.13599309177503
 20
83.08644441010946
 10
72.13599309177503
 20
83.00177580559775
 10
72.22066169628674
 20
82.91711258404774
 10
72.30533030079846
 20
82.91711258404774
 10
72.30533030079846
 20
82.83244397953604
 10
72.38999352234846
 20
82.83244397953604
 10
72.47466212686018
 20
82.83244397953604
 10
72.55933073137189
 20
82.74777537502432
 10
72.64399395292191
 20
82.74777537502432
 10
72.72866255743361
 20
82.74777537502432
 10
72.81333116194533
 20
82.74777537502432
 10
72.89799438349534
 20
82.74777537502432
 10
72.98266298800704
 20
82.74777537502432
 10
72.47466212686018
 20
83.08644441010946
 10
72.38999352234846
 20
83.17110763165947
 10
72.30533030079846
 20
83.17110763165947
 10
72.30533030079846
 20
83.25577623617119
 10
72.22066169628674
 20
83.34044484068291
 10
72.22066169628674
 20
83.42510806223293
 10
72.22066169628674
 20
83.50977666674463
 10
72.22066169628674
 20
83.59444527125635
 10
72.22066169628674
 20
83.67910849280635
  0
HATCH
  5
93
330
70
100
AcDbEntity
  8
Capa 1
 62
    18
420
        0
440
 33554687
100
AcDbHatch
 10
0.0
 20
0.0
 30
0.0
210
0.0
220
0.0
230
1.0
  2
SOLID
 70
     1
 71
     1
 91
        1
 92
        3
 72
     0
 73
     1
 93
       34
 10
72.30533030079846
 20
83.76377709731807
 10
71.96666126571331
 20
83.84844570182977
 10
71.96666126571331
 20
83.67910849280635
 10
71.88199804416329
 20
83.67910849280635
 10
71.88199804416329
 20
83.59444527125635
 10
71.88199804416329
 20
83.50977666674463
 10
71.88199804416329
 20
83.42510806223293
 10
71.96666126571331
 20
83.34044484068291
 10
71.96666126571331
 20
83.25577623617119
 10
71.96666126571331
 20
83.17110763165947
 10
72.05132987022501
 20
83.17110763165947
 10
72.05132987022501
 20
83.08644441010946
 10
72.13599309177503
 20
83.08644441010946
 10
72.13599309177503
 20
83.00177580559775
 10
72.22066169628674
 20
82.91711258404774
 10
72.30533030079846
 20
82.91711258404774
 10
72.30533030079846
 20
82.83244397953604
 10
72.38999352234846
 20
82.83244397953604
 10
72.47466212686018
 20
82.83244397953604
 10
72.55933073137189
 20
82.74777537502432
 10
72.64399395292191
 20
82.74777537502432
 10
72.72866255743361
 20
82.74777537502432
 10
72.81333116194533
 20
82.74777537502432
 10
72.89799438349534
 20
82.74777537502432
 10
72.98266298800704
 20
82.74777537502432
 10
72.47466212686018
 20
83.08644441010946
 10
72.38999352234846
 20
83.17110763165947
 10
72.30533030079846
 20
83.17110763165947
 10
72.30533030079846
 20
83.25577623617119
 10
72.22066169628674
 20
83.34044484068291
 10
72.22066169628674
 20
83.42510806223293
 10
72.22066169628674
 20
83.50977666674463
 10
72.22066169628674
 20
83.59444527125635
 10
72.22066169628674
 20
83.67910849280635
 97
        0
 75
     0
 76
     1
 98
        1
 10
0.0
 20
0.0
450
        0
451
        0
460
0.0
461
0.0
452
        0
462
0.0
453
        0
470

  0
LWPOLYLINE
  5
94
330
70
100
AcDbEntity
  8
Capa 1
100
AcDbPolyline
 90
       38
 70
     0
 43
0.0
 10
73.57532707070394
 20
83.84844570182977
 10
73.06733159251876
 20
84.1024407494415
 10
73.15199481406877
 20
84.01777752789149
 10
73.23666341858049
 20
83.93310892337979
 10
73.23666341858049
 20
83.84844570182977
 10
73.32132664013051
 20
83.76377709731807
 10
73.32132664013051
 20
83.67910849280635
 10
73.32132664013051
 20
83.59444527125635
 10
73.23666341858049
 20
83.50977666674463
 10
73.23666341858049
 20
83.42510806223293
 10
73.23666341858049
 20
83.34044484068291
 10
73.15199481406877
 20
83.25577623617119
 10
73.06733159251876
 20
83.17110763165947
 10
72.98266298800704
 20
83.08644441010946
 10
72.89799438349534
 20
83.08644441010946
 10
72.81333116194533
 20
83.08644441010946
 10
72.81333116194533
 20
83.00177580559775
 10
72.72866255743361
 20
83.00177580559775
 10
72.64399395292191
 20
83.00177580559775
 10
72.55933073137189
 20
83.00177580559775
 10
72.55933073137189
 20
83.08644441010946
 10
72.47466212686018
 20
83.08644441010946
 10
72.98266298800704
 20
82.74777537502432
 10
73.06733159251876
 20
82.83244397953604
 10
73.15199481406877
 20
82.83244397953604
 10
73.15199481406877
 20
82.91711258404774
 10
73.23666341858049
 20
82.91711258404774
 10
73.32132664013051
 20
82.91711258404774
 10
73.32132664013051
 20
83.00177580559775
 10
73.40599524464221
 20
83.08644441010946
 10
73.49066384915392
 20
83.17110763165947
 10
73.49066384915392
 20
83.25577623617119
 10
73.57532707070394
 20
83.34044484068291
 10
73.57532707070394
 20
83.42510806223293
 10
73.65999567521564
 20
83.50977666674463
 10
73.65999567521564
 20
83.59444527125635
 10
73.65999567521564
 20
83.67910849280635
 10
73.65999567521564
 20
83.76377709731807
  0
HATCH
  5
95
330
70
100
AcDbEntity
  8
Capa 1
 62
    18
420
        0
440
 33554687
100
AcDbHatch
 10
0.0
 20
0.0
 30
0.0
210
0.0
220
0.0
230
1.0
  2
SOLID
 70
     1
 71
     1
 91
        1
 92
        3
 72
     0
 73
     1
 93
       38
 10
73.57532707070394
 20
83.84844570182977
 10
73.06733159251876
 20
84.1024407494415
 10
73.15199481406877
 20
84.01777752789149
 10
73.23666341858049
 20
83.93310892337979
 10
73.23666341858049
 20
83.84844570182977
 10
73.32132664013051
 20
83.76377709731807
 10
73.32132664013051
 20
83.67910849280635
 10
73.32132664013051
 20
83.59444527125635
 10
73.23666341858049
 20
83.50977666674463
 10
73.23666341858049
 20
83.42510806223293
 10
73.23666341858049
 20
83.34044484068291
 10
73.15199481406877
 20
83.25577623617119
 10
73.06733159251876
 20
83.17110763165947
 10
72.98266298800704
 20
83.08644441010946
 10
72.89799438349534
 20
83.08644441010946
 10
72.81333116194533
 20
83.08644441010946
 10
72.81333116194533
 20
83.00177580559775
 10
72.72866255743361
 20
83.00177580559775
 10
72.64399395292191
 20
83.00177580559775
 10
72.55933073137189
 20
83.00177580559775
 10
72.55933073137189
 20
83.08644441010946
 10
72.47466212686018
 20
83.08644441010946
 10
72.98266298800704
 20
82.74777537502432
 10
73.06733159251876
 20
82.83244397953604
 10
73.15199481406877
 20
82.83244397953604
 10
73.15199481406877
 20
82.91711258404774
 10
73.23666341858049
 20
82.91711258404774
 10
73.32132664013051
 20
82.91711258404774
 10
73.32132664013051
 20
83.00177580559775
 10
73.40599524464221
 20
83.08644441010946
 10
73.49066384915392
 20
83.17110763165947
 10
73.49066384915392
 20
83.25577623617119
 10
73.57532707070394
 20
83.34044484068291
 10
73.57532707070394
 20
83.42510806223293
 10
73.65999567521564
 20
83.50977666674463
 10
73.65999567521564
 20
83.59444527125635
 10
73.65999567521564
 20
83.67910849280635
 10
73.65999567521564
 20
83.76377709731807
 97
        0
 75
     0
 76
     1
 98
        1
 10
0.0
 20
0.0
450
        0
451
        0
460
0.0
461
0.0
452
        0
462
0.0
453
        0
470

  0
LWPOLYLINE
  5
96
330
70
100
AcDbEntity
  8
Capa 1
100
AcDbPolyline
 90
       14
 70
     0
 43
0.0
 10
73.23666341858049
 20
84.27177795846494
 10
73.23666341858049
 20
84.27177795846494
 10
73.15199481406877
 20
84.35644118001496
 10
73.06733159251876
 20
84.35644118001496
 10
72.98266298800704
 20
84.35644118001496
 10
72.89799438349534
 20
84.44110978452666
 10
72.81333116194533
 20
84.44110978452666
 10
72.72866255743361
 20
84.44110978452666
 10
73.57532707070394
 20
83.93310892337979
 10
73.49066384915392
 20
84.01777752789149
 10
73.49066384915392
 20
84.1024407494415
 10
73.40599524464221
 20
84.18710935395322
 10
73.32132664013051
 20
84.18710935395322
 10
73.32132664013051
 20
84.27177795846494
  0
HATCH
  5
97
330
70
100
AcDbEntity
  8
Capa 1
 62
    18
420
        0
440
 33554687
100
AcDbHatch
 10
0.0
 20
0.0
 30
0.0
210
0.0
220
0.0
230
1.0
  2
SOLID
 70
     1
 71
     1
 91
        1
 92
        3
 72
     0
 73
     1
 93
       14
 10
73.23666341858049
 20
84.27177795846494
 10
73.23666341858049
 20
84.27177795846494
 10
73.15199481406877
 20
84.35644118001496
 10
73.06733159251876
 20
84.35644118001496
 10
72.98266298800704
 20
84.35644118001496
 10
72.89799438349534
 20
84.44110978452666
 10
72.81333116194533
 20
84.44110978452666
 10
72.72866255743361
 20
84.44110978452666
 10
73.57532707070394
 20
83.93310892337979
 10
73.49066384915392
 20
84.01777752789149
 10
73.49066384915392
 20
84.1024407494415
 10
73.40599524464221
 20
84.18710935395322
 10
73.32132664013051
 20
84.18710935395322
 10
73.32132664013051
 20
84.27177795846494
 97
        0
 75
     0
 76
     1
 98
        1
 10
0.0
 20
0.0
450
        0
451
        0
460
0.0
461
0.0
452
        0
462
0.0
453
        0
470

  0
LWPOLYLINE
  5
98
330
70
100
AcDbEntity
  8
Capa 1
100
AcDbPolyline
 90
       16
 70
     0
 43
0.0
 10
74.25265975791254
 20
84.69544934168693
 10
73.15199481406877
 20
85.28811880734551
 10
72.30533030079846
 20
84.27177795846494
 10
72.55933073137189
 20
84.1024407494415
 10
72.55933073137189
 20
84.18710935395322
 10
72.64399395292191
 20
84.18710935395322
 10
72.72866255743361
 20
84.18710935395322
 10
72.81333116194533
 20
84.18710935395322
 10
72.89799438349534
 20
84.18710935395322
 10
72.98266298800704
 20
84.1024407494415
 10
73.06733159251876
 20
84.1024407494415
 10
73.57532707070394
 20
83.84844570182977
 10
73.57532707070394
 20
83.93310892337979
 10
72.72866255743361
 20
84.44110978452666
 10
73.23666341858049
 20
84.94944977226037
 10
74.0833279318508
 20
84.44110978452666
  0
HATCH
  5
99
330
70
100
AcDbEntity
  8
Capa 1
 62
    18
420
        0
440
 33554687
100
AcDbHatch
 10
0.0
 20
0.0
 30
0.0
210
0.0
220
0.0
230
1.0
  2
SOLID
 70
     1
 71
     1
 91
        1
 92
        3
 72
     0
 73
     1
 93
       16
 10
74.25265975791254
 20
84.69544934168693
 10
73.15199481406877
 20
85.28811880734551
 10
72.30533030079846
 20
84.27177795846494
 10
72.55933073137189
 20
84.1024407494415
 10
72.55933073137189
 20
84.18710935395322
 10
72.64399395292191
 20
84.18710935395322
 10
72.72866255743361
 20
84.18710935395322
 10
72.81333116194533
 20
84.18710935395322
 10
72.89799438349534
 20
84.18710935395322
 10
72.98266298800704
 20
84.1024407494415
 10
73.06733159251876
 20
84.1024407494415
 10
73.57532707070394
 20
83.84844570182977
 10
73.57532707070394
 20
83.93310892337979
 10
72.72866255743361
 20
84.44110978452666
 10
73.23666341858049
 20
84.94944977226037
 10
74.0833279318508
 20
84.44110978452666
 97
        0
 75
     0
 76
     1
 98
        1
 10
0.0
 20
0.0
450
        0
451
        0
460
0.0
461
0.0
452
        0
462
0.0
453
        0
470

  0
LWPOLYLINE
  5
9A
330
70
100
AcDbEntity
  8
Capa 1
100
AcDbPolyline
 90
       59
 70
     0
 43
0.0
 10
74.67599739750939
 20
84.18710935395322
 10
74.59132879299769
 20
84.1024407494415
 10
74.50666018848597
 20
84.01777752789149
 10
74.42199696693595
 20
84.01777752789149
 10
74.42199696693595
 20
83.93310892337979
 10
74.33732836242424
 20
83.93310892337979
 10
74.33732836242424
 20
83.84844570182977
 10
74.25265975791254
 20
83.84844570182977
 10
74.25265975791254
 20
83.76377709731807
 10
74.16799653636252
 20
83.67910849280635
 10
74.0833279318508
 20
83.59444527125635
 10
74.0833279318508
 20
83.50977666674463
 10
73.99866471030079
 20
83.50977666674463
 10
73.99866471030079
 20
83.42510806223293
 10
73.91399610578908
 20
83.34044484068291
 10
73.91399610578908
 20
83.25577623617119
 10
73.82932750127737
 20
83.17110763165947
 10
73.82932750127737
 20
83.08644441010946
 10
73.74466427972736
 20
83.00177580559775
 10
73.74466427972736
 20
82.91711258404774
 10
73.74466427972736
 20
82.83244397953604
 10
73.65999567521564
 20
82.83244397953604
 10
73.65999567521564
 20
82.74777537502432
 10
73.65999567521564
 20
82.6631121534743
 10
73.65999567521564
 20
82.5784435489626
 10
73.65999567521564
 20
82.4937749444509
 10
73.65999567521564
 20
82.40911172290088
 10
73.65999567521564
 20
82.32444311838916
 10
74.16799653636252
 20
82.07044268781572
 10
74.16799653636252
 20
82.15511129232742
 10
74.0833279318508
 20
82.15511129232742
 10
73.99866471030079
 20
82.23977451387744
 10
73.99866471030079
 20
82.32444311838916
 10
73.99866471030079
 20
82.40911172290088
 10
73.91399610578908
 20
82.4937749444509
 10
73.91399610578908
 20
82.5784435489626
 10
73.99866471030079
 20
82.5784435489626
 10
73.99866471030079
 20
82.6631121534743
 10
73.99866471030079
 20
82.74777537502432
 10
73.99866471030079
 20
82.83244397953604
 10
74.0833279318508
 20
82.91711258404774
 10
74.0833279318508
 20
83.00177580559775
 10
74.16799653636252
 20
83.08644441010946
 10
74.16799653636252
 20
83.17110763165947
 10
74.25265975791254
 20
83.25577623617119
 10
74.33732836242424
 20
83.34044484068291
 10
74.33732836242424
 20
83.42510806223293
 10
74.42199696693595
 20
83.50977666674463
 10
74.42199696693595
 20
83.59444527125635
 10
74.50666018848597
 20
83.59444527125635
 10
74.50666018848597
 20
83.67910849280635
 10
74.59132879299769
 20
83.76377709731807
 10
74.67599739750939
 20
83.84844570182977
 10
74.76066061905941
 20
83.84844570182977
 10
74.84532922357111
 20
83.93310892337979
 10
74.92999782808282
 20
83.93310892337979
 10
75.01466104963284
 20
83.93310892337979
 10
75.09932965414455
 20
83.93310892337979
 10
75.18399825865626
 20
83.84844570182977
  0
HATCH
  5
9B
330
70
100
AcDbEntity
  8
Capa 1
 62
    18
420
        0
440
 33554687
100
AcDbHatch
 10
0.0
 20
0.0
 30
0.0
210
0.0
220
0.0
230
1.0
  2
SOLID
 70
     1
 71
     1
 91
        1
 92
        3
 72
     0
 73
     1
 93
       59
 10
74.67599739750939
 20
84.18710935395322
 10
74.59132879299769
 20
84.1024407494415
 10
74.50666018848597
 20
84.01777752789149
 10
74.42199696693595
 20
84.01777752789149
 10
74.42199696693595
 20
83.93310892337979
 10
74.33732836242424
 20
83.93310892337979
 10
74.33732836242424
 20
83.84844570182977
 10
74.25265975791254
 20
83.84844570182977
 10
74.25265975791254
 20
83.76377709731807
 10
74.16799653636252
 20
83.67910849280635
 10
74.0833279318508
 20
83.59444527125635
 10
74.0833279318508
 20
83.50977666674463
 10
73.99866471030079
 20
83.50977666674463
 10
73.99866471030079
 20
83.42510806223293
 10
73.91399610578908
 20
83.34044484068291
 10
73.91399610578908
 20
83.25577623617119
 10
73.82932750127737
 20
83.17110763165947
 10
73.82932750127737
 20
83.08644441010946
 10
73.74466427972736
 20
83.00177580559775
 10
73.74466427972736
 20
82.91711258404774
 10
73.74466427972736
 20
82.83244397953604
 10
73.65999567521564
 20
82.83244397953604
 10
73.65999567521564
 20
82.74777537502432
 10
73.65999567521564
 20
82.6631121534743
 10
73.65999567521564
 20
82.5784435489626
 10
73.65999567521564
 20
82.4937749444509
 10
73.65999567521564
 20
82.40911172290088
 10
73.65999567521564
 20
82.32444311838916
 10
74.16799653636252
 20
82.07044268781572
 10
74.16799653636252
 20
82.15511129232742
 10
74.0833279318508
 20
82.15511129232742
 10
73.99866471030079
 20
82.23977451387744
 10
73.99866471030079
 20
82.32444311838916
 10
73.99866471030079
 20
82.40911172290088
 10
73.91399610578908
 20
82.4937749444509
 10
73.91399610578908
 20
82.5784435489626
 10
73.99866471030079
 20
82.5784435489626
 10
73.99866471030079
 20
82.6631121534743
 10
73.99866471030079
 20
82.74777537502432
 10
73.99866471030079
 20
82.83244397953604
 10
74.0833279318508
 20
82.91711258404774
 10
74.0833279318508
 20
83.00177580559775
 10
74.16799653636252
 20
83.08644441010946
 10
74.16799653636252
 20
83.17110763165947
 10
74.25265975791254
 20
83.25577623617119
 10
74.33732836242424
 20
83.34044484068291
 10
74.33732836242424
 20
83.42510806223293
 10
74.42199696693595
 20
83.50977666674463
 10
74.42199696693595
 20
83.59444527125635
 10
74.50666018848597
 20
83.59444527125635
 10
74.50666018848597
 20
83.67910849280635
 10
74.59132879299769
 20
83.76377709731807
 10
74.67599739750939
 20
83.84844570182977
 10
74.76066061905941
 20
83.84844570182977
 10
74.84532922357111
 20
83.93310892337979
 10
74.92999782808282
 20
83.93310892337979
 10
75.01466104963284
 20
83.93310892337979
 10
75.09932965414455
 20
83.93310892337979
 10
75.18399825865626
 20
83.84844570182977
 97
        0
 75
     0
 76
     1
 98
        1
 10
0.0
 20
0.0
450
        0
451
        0
460
0.0
461
0.0
452
        0
462
0.0
453
        0
470

  0
LWPOLYLINE
  5
9C
330
70
100
AcDbEntity
  8
Capa 1
100
AcDbPolyline
 90
       93
 70
     0
 43
0.0
 10
75.26866148020627
 20
84.1024407494415
 10
75.26866148020627
 20
84.1024407494415
 10
75.18399825865626
 20
84.1024407494415
 10
75.18399825865626
 20
84.18710935395322
 10
75.09932965414455
 20
84.18710935395322
 10
75.01466104963284
 20
84.18710935395322
 10
74.92999782808282
 20
84.18710935395322
 10
74.84532922357111
 20
84.18710935395322
 10
74.76066061905941
 20
84.18710935395322
 10
74.67599739750939
 20
84.18710935395322
 10
75.18399825865626
 20
83.84844570182977
 10
75.26866148020627
 20
83.84844570182977
 10
75.26866148020627
 20
83.76377709731807
 10
75.35333008471798
 20
83.76377709731807
 10
75.35333008471798
 20
83.67910849280635
 10
75.35333008471798
 20
83.59444527125635
 10
75.35333008471798
 20
83.50977666674463
 10
75.35333008471798
 20
83.42510806223293
 10
75.35333008471798
 20
83.34044484068291
 10
75.35333008471798
 20
83.25577623617119
 10
75.35333008471798
 20
83.17110763165947
 10
75.26866148020627
 20
83.17110763165947
 10
75.26866148020627
 20
83.08644441010946
 10
75.18399825865626
 20
83.00177580559775
 10
75.18399825865626
 20
82.91711258404774
 10
75.09932965414455
 20
82.83244397953604
 10
75.09932965414455
 20
82.74777537502432
 10
75.01466104963284
 20
82.6631121534743
 10
75.01466104963284
 20
82.5784435489626
 10
74.92999782808282
 20
82.4937749444509
 10
74.92999782808282
 20
82.40911172290088
 10
74.84532922357111
 20
82.40911172290088
 10
74.76066061905941
 20
82.32444311838916
 10
74.76066061905941
 20
82.23977451387744
 10
74.67599739750939
 20
82.15511129232742
 10
74.59132879299769
 20
82.15511129232742
 10
74.59132879299769
 20
82.07044268781572
 10
74.50666018848597
 20
82.07044268781572
 10
74.42199696693595
 20
82.07044268781572
 10
74.33732836242424
 20
82.07044268781572
 10
74.25265975791254
 20
82.07044268781572
 10
74.16799653636252
 20
82.07044268781572
 10
73.65999567521564
 20
82.32444311838916
 10
73.74466427972736
 20
82.23977451387744
 10
73.74466427972736
 20
82.15511129232742
 10
73.82932750127737
 20
82.07044268781572
 10
73.82932750127737
 20
81.98577408330402
 10
73.91399610578908
 20
81.98577408330402
 10
73.99866471030079
 20
81.901110861754
 10
74.0833279318508
 20
81.81644225724229
 10
74.16799653636252
 20
81.81644225724229
 10
74.25265975791254
 20
81.81644225724229
 10
74.33732836242424
 20
81.81644225724229
 10
74.42199696693595
 20
81.81644225724229
 10
74.50666018848597
 20
81.81644225724229
 10
74.59132879299769
 20
81.81644225724229
 10
74.67599739750939
 20
81.81644225724229
 10
74.67599739750939
 20
81.901110861754
 10
74.76066061905941
 20
81.901110861754
 10
74.84532922357111
 20
81.901110861754
 10
74.84532922357111
 20
81.98577408330402
 10
74.92999782808282
 20
81.98577408330402
 10
74.92999782808282
 20
82.07044268781572
 10
75.01466104963284
 20
82.07044268781572
 10
75.01466104963284
 20
82.15511129232742
 10
75.09932965414455
 20
82.15511129232742
 10
75.09932965414455
 20
82.23977451387744
 10
75.18399825865626
 20
82.23977451387744
 10
75.18399825865626
 20
82.32444311838916
 10
75.26866148020627
 20
82.40911172290088
 10
75.35333008471798
 20
82.4937749444509
 10
75.35333008471798
 20
82.5784435489626
 10
75.35333008471798
 20
82.6631121534743
 10
75.437993306268
 20
82.6631121534743
 10
75.437993306268
 20
82.74777537502432
 10
75.52266191077972
 20
82.83244397953604
 10
75.52266191077972
 20
82.91711258404774
 10
75.52266191077972
 20
83.00177580559775
 10
75.60733051529142
 20
83.00177580559775
 10
75.60733051529142
 20
83.08644441010946
 10
75.60733051529142
 20
83.17110763165947
 10
75.60733051529142
 20
83.25577623617119
 10
75.69199373684144
 20
83.34044484068291
 10
75.69199373684144
 20
83.42510806223293
 10
75.69199373684144
 20
83.50977666674463
 10
75.69199373684144
 20
83.59444527125635
 10
75.60733051529142
 20
83.67910849280635
 10
75.60733051529142
 20
83.76377709731807
 10
75.52266191077972
 20
83.84844570182977
 10
75.52266191077972
 20
83.93310892337979
 10
75.437993306268
 20
83.93310892337979
 10
75.437993306268
 20
84.01777752789149
 10
75.35333008471798
 20
84.01777752789149
  0
HATCH
  5
9D
330
70
100
AcDbEntity
  8
Capa 1
 62
    18
420
        0
440
 33554687
100
AcDbHatch
 10
0.0
 20
0.0
 30
0.0
210
0.0
220
0.0
230
1.0
  2
SOLID
 70
     1
 71
     1
 91
        1
 92
        3
 72
     0
 73
     1
 93
       93
 10
75.26866148020627
 20
84.1024407494415
 10
75.26866148020627
 20
84.1024407494415
 10
75.18399825865626
 20
84.1024407494415
 10
75.18399825865626
 20
84.18710935395322
 10
75.09932965414455
 20
84.18710935395322
 10
75.01466104963284
 20
84.18710935395322
 10
74.92999782808282
 20
84.18710935395322
 10
74.84532922357111
 20
84.18710935395322
 10
74.76066061905941
 20
84.18710935395322
 10
74.67599739750939
 20
84.18710935395322
 10
75.18399825865626
 20
83.84844570182977
 10
75.26866148020627
 20
83.84844570182977
 10
75.26866148020627
 20
83.76377709731807
 10
75.35333008471798
 20
83.76377709731807
 10
75.35333008471798
 20
83.67910849280635
 10
75.35333008471798
 20
83.59444527125635
 10
75.35333008471798
 20
83.50977666674463
 10
75.35333008471798
 20
83.42510806223293
 10
75.35333008471798
 20
83.34044484068291
 10
75.35333008471798
 20
83.25577623617119
 10
75.35333008471798
 20
83.17110763165947
 10
75.26866148020627
 20
83.17110763165947
 10
75.26866148020627
 20
83.08644441010946
 10
75.18399825865626
 20
83.00177580559775
 10
75.18399825865626
 20
82.91711258404774
 10
75.09932965414455
 20
82.83244397953604
 10
75.09932965414455
 20
82.74777537502432
 10
75.01466104963284
 20
82.6631121534743
 10
75.01466104963284
 20
82.5784435489626
 10
74.92999782808282
 20
82.4937749444509
 10
74.92999782808282
 20
82.40911172290088
 10
74.84532922357111
 20
82.40911172290088
 10
74.76066061905941
 20
82.32444311838916
 10
74.76066061905941
 20
82.23977451387744
 10
74.67599739750939
 20
82.15511129232742
 10
74.59132879299769
 20
82.15511129232742
 10
74.59132879299769
 20
82.07044268781572
 10
74.50666018848597
 20
82.07044268781572
 10
74.42199696693595
 20
82.07044268781572
 10
74.33732836242424
 20
82.07044268781572
 10
74.25265975791254
 20
82.07044268781572
 10
74.16799653636252
 20
82.07044268781572
 10
73.65999567521564
 20
82.32444311838916
 10
73.74466427972736
 20
82.23977451387744
 10
73.74466427972736
 20
82.15511129232742
 10
73.82932750127737
 20
82.07044268781572
 10
73.82932750127737
 20
81.98577408330402
 10
73.91399610578908
 20
81.98577408330402
 10
73.99866471030079
 20
81.901110861754
 10
74.0833279318508
 20
81.81644225724229
 10
74.16799653636252
 20
81.81644225724229
 10
74.25265975791254
 20
81.81644225724229
 10
74.33732836242424
 20
81.81644225724229
 10
74.42199696693595
 20
81.81644225724229
 10
74.50666018848597
 20
81.81644225724229
 10
74.59132879299769
 20
81.81644225724229
 10
74.67599739750939
 20
81.81644225724229
 10
74.67599739750939
 20
81.901110861754
 10
74.76066061905941
 20
81.901110861754
 10
74.84532922357111
 20
81.901110861754
 10
74.84532922357111
 20
81.98577408330402
 10
74.92999782808282
 20
81.98577408330402
 10
74.92999782808282
 20
82.07044268781572
 10
75.01466104963284
 20
82.07044268781572
 10
75.01466104963284
 20
82.15511129232742
 10
75.09932965414455
 20
82.15511129232742
 10
75.09932965414455
 20
82.23977451387744
 10
75.18399825865626
 20
82.23977451387744
 10
75.18399825865626
 20
82.32444311838916
 10
75.26866148020627
 20
82.40911172290088
 10
75.35333008471798
 20
82.4937749444509
 10
75.35333008471798
 20
82.5784435489626
 10
75.35333008471798
 20
82.6631121534743
 10
75.437993306268
 20
82.6631121534743
 10
75.437993306268
 20
82.74777537502432
 10
75.52266191077972
 20
82.83244397953604
 10
75.52266191077972
 20
82.91711258404774
 10
75.52266191077972
 20
83.00177580559775
 10
75.60733051529142
 20
83.00177580559775
 10
75.60733051529142
 20
83.08644441010946
 10
75.60733051529142
 20
83.17110763165947
 10
75.60733051529142
 20
83.25577623617119
 10
75.69199373684144
 20
83.34044484068291
 10
75.69199373684144
 20
83.42510806223293
 10
75.69199373684144
 20
83.50977666674463
 10
75.69199373684144
 20
83.59444527125635
 10
75.60733051529142
 20
83.67910849280635
 10
75.60733051529142
 20
83.76377709731807
 10
75.52266191077972
 20
83.84844570182977
 10
75.52266191077972
 20
83.93310892337979
 10
75.437993306268
 20
83.93310892337979
 10
75.437993306268
 20
84.01777752789149
 10
75.35333008471798
 20
84.01777752789149
 97
        0
 75
     0
 76
     1
 98
        1
 10
0.0
 20
0.0
450
        0
451
        0
460
0.0
461
0.0
452
        0
462
0.0
453
        0
470

  0
SPLINE
  5
9E
330
70
100
AcDbEntity
  8
Capa 1
 62
    18
420
        0
370
     9
100
AcDbSpline
210
0.0
220
0.0
230
1.0
 70
    24
 71
     3
 72
     8
 73
     4
 74
     0
 42
0.0000000001
 43
0.0000000001
 40
0.0
 40
0.0
 40
0.0
 40
0.0
 40
1.0
 40
1.0
 40
1.0
 40
1.0
 10
107.2726619028422
 20
80.03844462618994
 30
0.0
 10
107.2726619028422
 20
80.03844462618994
 30
0.0
 10
123.020656300625
 20
70.89444527443133
 30
0.0
 10
123.020656300625
 20
70.89444527443133
 30
0.0
  0
SPLINE
  5
9F
330
70
100
AcDbEntity
  8
Capa 1
 62
    18
420
        0
370
     9
100
AcDbSpline
210
0.0
220
0.0
230
1.0
 70
    24
 71
     3
 72
     8
 73
     4
 74
     0
 42
0.0000000001
 43
0.0000000001
 40
0.0
 40
0.0
 40
0.0
 40
0.0
 40
1.0
 40
1.0
 40
1.0
 40
1.0
 10
158.6653259728391
 20
109.8414435218018
 30
0.0
 10
158.6653259728391
 20
109.8414435218018
 30
0.0
 10
174.4979943580953
 20
100.6974387870815
 30
0.0
 10
174.4979943580953
 20
100.6974387870815
 30
0.0
  0
SPLINE
  5
A0
330
70
100
AcDbEntity
  8
Capa 1
 62
    18
420
        0
370
     9
100
AcDbSpline
210
0.0
220
0.0
230
1.0
 70
    24
 71
     3
 72
     8
 73
     4
 74
     0
 42
0.0000000001
 43
0.0000000001
 40
0.0
 40
0.0
 40
0.0
 40
0.0
 40
1.0
 40
1.0
 40
1.0
 40
1.0
 10
124.5446588840656
 20
73.5191128017157
 30
0.0
 10
124.5446588840656
 20
73.5191128017157
 30
0.0
 10
170.0106605952469
 20
99.76611105226117
 30
0.0
 10
170.0106605952469
 20
99.76611105226117
 30
0.0
  0
LWPOLYLINE
  5
A1
330
70
100
AcDbEntity
  8
Capa 1
100
AcDbPolyline
 90
        3
 70
     0
 43
0.0
 10
124.2906584534922
 20
74.02710827990088
 10
124.8833225361891
 20
73.01111194056884
 10
121.4966537171844
 20
71.82577839221337
  0
HATCH
  5
A2
330
70
100
AcDbEntity
  8
Capa 1
 62
    18
420
        0
440
 33554687
100
AcDbHatch
 10
0.0
 20
0.0
 30
0.0
210
0.0
220
0.0
230
1.0
  2
SOLID
 70
     1
 71
     1
 91
        1
 92
        3
 72
     0
 73
     1
 93
        3
 10
124.2906584534922
 20
74.02710827990088
 10
124.8833225361891
 20
73.01111194056884
 10
121.4966537171844
 20
71.82577839221337
 97
        0
 75
     0
 76
     1
 98
        1
 10
0.0
 20
0.0
450
        0
451
        0
460
0.0
461
0.0
452
        0
462
0.0
453
        0
470

  0
LWPOLYLINE
  5
A3
330
70
100
AcDbEntity
  8
Capa 1
100
AcDbPolyline
 90
        3
 70
     0
 43
0.0
 10
169.6719861772001
 20
100.274111913408
 10
170.2646610258203
 20
99.2581101911143
 10
173.0586549962047
 20
101.5441140662752
  0
HATCH
  5
A4
330
70
100
AcDbEntity
  8
Capa 1
 62
    18
420
        0
440
 33554687
100
AcDbHatch
 10
0.0
 20
0.0
 30
0.0
210
0.0
220
0.0
230
1.0
  2
SOLID
 70
     1
 71
     1
 91
        1
 92
        3
 72
     0
 73
     1
 93
        3
 10
169.6719861772001
 20
100.274111913408
 10
170.2646610258203
 20
99.2581101911143
 10
173.0586549962047
 20
101.5441140662752
 97
        0
 75
     0
 76
     1
 98
        1
 10
0.0
 20
0.0
450
        0
451
        0
460
0.0
461
0.0
452
        0
462
0.0
453
        0
470

  0
LWPOLYLINE
  5
A5
330
70
100
AcDbEntity
  8
Capa 1
100
AcDbPolyline
 90
       32
 70
     0
 43
0.0
 10
144.10265974045
 20
86.89677922937445
 10
143.8486593098766
 20
86.72744740331273
 10
143.8486593098766
 20
86.64278418176271
 10
143.9333225314266
 20
86.55811557725099
 10
144.0179965189
 20
86.47345235570098
 10
144.10265974045
 20
86.47345235570098
 10
144.187322962
 20
86.38878375118926
 10
144.2719861835501
 20
86.38878375118926
 10
144.3566601710234
 20
86.38878375118926
 10
144.4413233925734
 20
86.38878375118926
 10
144.5259866141235
 20
86.38878375118926
 10
144.6106606015969
 20
86.38878375118926
 10
144.6953238231469
 20
86.38878375118926
 10
144.7799870446969
 20
86.47345235570098
 10
144.8646610321703
 20
86.47345235570098
 10
144.9493242537203
 20
86.55811557725099
 10
145.0339874752704
 20
86.64278418176271
 10
145.1186614627437
 20
86.64278418176271
 10
145.1186614627437
 20
86.72744740331273
 10
145.2033246842938
 20
86.81211062486273
 10
145.2033246842938
 20
86.89677922937445
 10
145.2033246842938
 20
86.98144783388615
 10
145.2879879058438
 20
86.98144783388615
 10
144.6953238231469
 20
86.72744740331273
 10
144.6953238231469
 20
86.64278418176271
 10
144.6106606015969
 20
86.64278418176271
 10
144.5259866141235
 20
86.64278418176271
 10
144.4413233925734
 20
86.64278418176271
 10
144.3566601710234
 20
86.64278418176271
 10
144.2719861835501
 20
86.72744740331273
 10
144.187322962
 20
86.72744740331273
 10
144.10265974045
 20
86.81211062486273
  0
HATCH
  5
A6
330
70
100
AcDbEntity
  8
Capa 1
 62
    18
420
        0
440
 33554687
100
AcDbHatch
 10
0.0
 20
0.0
 30
0.0
210
0.0
220
0.0
230
1.0
  2
SOLID
 70
     1
 71
     1
 91
        1
 92
        3
 72
     0
 73
     1
 93
       32
 10
144.10265974045
 20
86.89677922937445
 10
143.8486593098766
 20
86.72744740331273
 10
143.8486593098766
 20
86.64278418176271
 10
143.9333225314266
 20
86.55811557725099
 10
144.0179965189
 20
86.47345235570098
 10
144.10265974045
 20
86.47345235570098
 10
144.187322962
 20
86.38878375118926
 10
144.2719861835501
 20
86.38878375118926
 10
144.3566601710234
 20
86.38878375118926
 10
144.4413233925734
 20
86.38878375118926
 10
144.5259866141235
 20
86.38878375118926
 10
144.6106606015969
 20
86.38878375118926
 10
144.6953238231469
 20
86.38878375118926
 10
144.7799870446969
 20
86.47345235570098
 10
144.8646610321703
 20
86.47345235570098
 10
144.9493242537203
 20
86.55811557725099
 10
145.0339874752704
 20
86.64278418176271
 10
145.1186614627437
 20
86.64278418176271
 10
145.1186614627437
 20
86.72744740331273
 10
145.2033246842938
 20
86.81211062486273
 10
145.2033246842938
 20
86.89677922937445
 10
145.2033246842938
 20
86.98144783388615
 10
145.2879879058438
 20
86.98144783388615
 10
144.6953238231469
 20
86.72744740331273
 10
144.6953238231469
 20
86.64278418176271
 10
144.6106606015969
 20
86.64278418176271
 10
144.5259866141235
 20
86.64278418176271
 10
144.4413233925734
 20
86.64278418176271
 10
144.3566601710234
 20
86.64278418176271
 10
144.2719861835501
 20
86.72744740331273
 10
144.187322962
 20
86.72744740331273
 10
144.10265974045
 20
86.81211062486273
 97
        0
 75
     0
 76
     1
 98
        1
 10
0.0
 20
0.0
450
        0
451
        0
460
0.0
461
0.0
452
        0
462
0.0
453
        0
470

  0
LWPOLYLINE
  5
A7
330
70
100
AcDbEntity
  8
Capa 1
100
AcDbPolyline
 90
       40
 70
     0
 43
0.0
 10
144.6953238231469
 20
88.0821127777299
 10
144.10265974045
 20
87.74344374264476
 10
144.187322962
 20
87.74344374264476
 10
144.2719861835501
 20
87.74344374264476
 10
144.3566601710234
 20
87.82811234715648
 10
144.4413233925734
 20
87.82811234715648
 10
144.5259866141235
 20
87.82811234715648
 10
144.5259866141235
 20
87.74344374264476
 10
144.6106606015969
 20
87.74344374264476
 10
144.6953238231469
 20
87.74344374264476
 10
144.7799870446969
 20
87.65878052109476
 10
144.7799870446969
 20
87.57411191658304
 10
144.8646610321703
 20
87.57411191658304
 10
144.8646610321703
 20
87.48944331207132
 10
144.9493242537203
 20
87.40478009052131
 10
144.9493242537203
 20
87.3201114860096
 10
144.9493242537203
 20
87.23544826445959
 10
144.9493242537203
 20
87.15077965994787
 10
144.9493242537203
 20
87.06611105543617
 10
144.9493242537203
 20
86.98144783388615
 10
144.9493242537203
 20
86.89677922937445
 10
144.8646610321703
 20
86.81211062486273
 10
144.7799870446969
 20
86.72744740331273
 10
144.6953238231469
 20
86.72744740331273
 10
145.2879879058438
 20
86.98144783388615
 10
145.2879879058438
 20
87.06611105543617
 10
145.2879879058438
 20
87.15077965994787
 10
145.2879879058438
 20
87.23544826445959
 10
145.2879879058438
 20
87.3201114860096
 10
145.2879879058438
 20
87.40478009052131
 10
145.2033246842938
 20
87.48944331207132
 10
145.2033246842938
 20
87.57411191658304
 10
145.1186614627437
 20
87.65878052109476
 10
145.1186614627437
 20
87.74344374264476
 10
145.0339874752704
 20
87.82811234715648
 10
144.9493242537203
 20
87.91278095166818
 10
144.8646610321703
 20
87.91278095166818
 10
144.8646610321703
 20
87.9974441732182
 10
144.7799870446969
 20
87.9974441732182
 10
144.6953238231469
 20
88.0821127777299
  0
HATCH
  5
A8
330
70
100
AcDbEntity
  8
Capa 1
 62
    18
420
        0
440
 33554687
100
AcDbHatch
 10
0.0
 20
0.0
 30
0.0
210
0.0
220
0.0
230
1.0
  2
SOLID
 70
     1
 71
     1
 91
        1
 92
        3
 72
     0
 73
     1
 93
       40
 10
144.6953238231469
 20
88.0821127777299
 10
144.10265974045
 20
87.74344374264476
 10
144.187322962
 20
87.74344374264476
 10
144.2719861835501
 20
87.74344374264476
 10
144.3566601710234
 20
87.82811234715648
 10
144.4413233925734
 20
87.82811234715648
 10
144.5259866141235
 20
87.82811234715648
 10
144.5259866141235
 20
87.74344374264476
 10
144.6106606015969
 20
87.74344374264476
 10
144.6953238231469
 20
87.74344374264476
 10
144.7799870446969
 20
87.65878052109476
 10
144.7799870446969
 20
87.57411191658304
 10
144.8646610321703
 20
87.57411191658304
 10
144.8646610321703
 20
87.48944331207132
 10
144.9493242537203
 20
87.40478009052131
 10
144.9493242537203
 20
87.3201114860096
 10
144.9493242537203
 20
87.23544826445959
 10
144.9493242537203
 20
87.15077965994787
 10
144.9493242537203
 20
87.06611105543617
 10
144.9493242537203
 20
86.98144783388615
 10
144.9493242537203
 20
86.89677922937445
 10
144.8646610321703
 20
86.81211062486273
 10
144.7799870446969
 20
86.72744740331273
 10
144.6953238231469
 20
86.72744740331273
 10
145.2879879058438
 20
86.98144783388615
 10
145.2879879058438
 20
87.06611105543617
 10
145.2879879058438
 20
87.15077965994787
 10
145.2879879058438
 20
87.23544826445959
 10
145.2879879058438
 20
87.3201114860096
 10
145.2879879058438
 20
87.40478009052131
 10
145.2033246842938
 20
87.48944331207132
 10
145.2033246842938
 20
87.57411191658304
 10
145.1186614627437
 20
87.65878052109476
 10
145.1186614627437
 20
87.74344374264476
 10
145.0339874752704
 20
87.82811234715648
 10
144.9493242537203
 20
87.91278095166818
 10
144.8646610321703
 20
87.91278095166818
 10
144.8646610321703
 20
87.9974441732182
 10
144.7799870446969
 20
87.9974441732182
 10
144.6953238231469
 20
88.0821127777299
 97
        0
 75
     0
 76
     1
 98
        1
 10
0.0
 20
0.0
450
        0
451
        0
460
0.0
461
0.0
452
        0
462
0.0
453
        0
470

  0
LWPOLYLINE
  5
A9
330
70
100
AcDbEntity
  8
Capa 1
100
AcDbPolyline
 90
       15
 70
     0
 43
0.0
 10
144.10265974045
 20
87.9974441732182
 10
144.0179965189
 20
87.9974441732182
 10
144.0179965189
 20
87.91278095166818
 10
143.9333225314266
 20
87.91278095166818
 10
143.9333225314266
 20
87.82811234715648
 10
143.8486593098766
 20
87.82811234715648
 10
143.8486593098766
 20
87.74344374264476
 10
143.7639960883266
 20
87.65878052109476
 10
144.6106606015969
 20
88.0821127777299
 10
144.5259866141235
 20
88.0821127777299
 10
144.4413233925734
 20
88.0821127777299
 10
144.3566601710234
 20
88.0821127777299
 10
144.2719861835501
 20
88.0821127777299
 10
144.187322962
 20
88.0821127777299
 10
144.10265974045
 20
87.9974441732182
  0
HATCH
  5
AA
330
70
100
AcDbEntity
  8
Capa 1
 62
    18
420
        0
440
 33554687
100
AcDbHatch
 10
0.0
 20
0.0
 30
0.0
210
0.0
220
0.0
230
1.0
  2
SOLID
 70
     1
 71
     1
 91
        1
 92
        3
 72
     0
 73
     1
 93
       15
 10
144.10265974045
 20
87.9974441732182
 10
144.0179965189
 20
87.9974441732182
 10
144.0179965189
 20
87.91278095166818
 10
143.9333225314266
 20
87.91278095166818
 10
143.9333225314266
 20
87.82811234715648
 10
143.8486593098766
 20
87.82811234715648
 10
143.8486593098766
 20
87.74344374264476
 10
143.7639960883266
 20
87.65878052109476
 10
144.6106606015969
 20
88.0821127777299
 10
144.5259866141235
 20
88.0821127777299
 10
144.4413233925734
 20
88.0821127777299
 10
144.3566601710234
 20
88.0821127777299
 10
144.2719861835501
 20
88.0821127777299
 10
144.187322962
 20
88.0821127777299
 10
144.10265974045
 20
87.9974441732182
 97
        0
 75
     0
 76
     1
 98
        1
 10
0.0
 20
0.0
450
        0
451
        0
460
0.0
461
0.0
452
        0
462
0.0
453
        0
470

  0
LWPOLYLINE
  5
AB
330
70
100
AcDbEntity
  8
Capa 1
100
AcDbPolyline
 90
       16
 70
     0
 43
0.0
 10
144.2719861835501
 20
89.01344589551193
 10
143.1713212397063
 20
88.42077642985335
 10
143.5946588793031
 20
87.15077965994787
 10
143.8486593098766
 20
87.23544826445959
 10
143.8486593098766
 20
87.3201114860096
 10
143.8486593098766
 20
87.40478009052131
 10
143.9333225314266
 20
87.48944331207132
 10
144.0179965189
 20
87.57411191658304
 10
144.0179965189
 20
87.65878052109476
 10
144.10265974045
 20
87.65878052109476
 10
144.10265974045
 20
87.74344374264476
 10
144.6953238231469
 20
88.0821127777299
 10
144.6106606015969
 20
88.0821127777299
 10
143.7639960883266
 20
87.65878052109476
 10
143.5099956577531
 20
88.25144460379164
 10
144.3566601710234
 20
88.75944546493851
  0
HATCH
  5
AC
330
70
100
AcDbEntity
  8
Capa 1
 62
    18
420
        0
440
 33554687
100
AcDbHatch
 10
0.0
 20
0.0
 30
0.0
210
0.0
220
0.0
230
1.0
  2
SOLID
 70
     1
 71
     1
 91
        1
 92
        3
 72
     0
 73
     1
 93
       16
 10
144.2719861835501
 20
89.01344589551193
 10
143.1713212397063
 20
88.42077642985335
 10
143.5946588793031
 20
87.15077965994787
 10
143.8486593098766
 20
87.23544826445959
 10
143.8486593098766
 20
87.3201114860096
 10
143.8486593098766
 20
87.40478009052131
 10
143.9333225314266
 20
87.48944331207132
 10
144.0179965189
 20
87.57411191658304
 10
144.0179965189
 20
87.65878052109476
 10
144.10265974045
 20
87.65878052109476
 10
144.10265974045
 20
87.74344374264476
 10
144.6953238231469
 20
88.0821127777299
 10
144.6106606015969
 20
88.0821127777299
 10
143.7639960883266
 20
87.65878052109476
 10
143.5099956577531
 20
88.25144460379164
 10
144.3566601710234
 20
88.75944546493851
 97
        0
 75
     0
 76
     1
 98
        1
 10
0.0
 20
0.0
450
        0
451
        0
460
0.0
461
0.0
452
        0
462
0.0
453
        0
470

  0
LWPOLYLINE
  5
AD
330
70
100
AcDbEntity
  8
Capa 1
100
AcDbPolyline
 90
       30
 70
     0
 43
0.0
 10
145.7959887669907
 20
87.82811234715648
 10
145.5419883364172
 20
87.57411191658304
 10
145.6266623238906
 20
87.57411191658304
 10
145.6266623238906
 20
87.48944331207132
 10
145.7113255454407
 20
87.48944331207132
 10
145.7959887669907
 20
87.40478009052131
 10
145.8806627544641
 20
87.40478009052131
 10
145.9653259760141
 20
87.3201114860096
 10
146.0499891975641
 20
87.3201114860096
 10
146.1346631850375
 20
87.3201114860096
 10
146.2193264065875
 20
87.3201114860096
 10
146.3039896281375
 20
87.3201114860096
 10
146.3886528496875
 20
87.40478009052131
 10
146.473326837161
 20
87.40478009052131
 10
146.557990058711
 20
87.48944331207132
 10
146.642653280261
 20
87.48944331207132
 10
146.7273272677344
 20
87.57411191658304
 10
146.7273272677344
 20
87.65878052109476
 10
146.8119904892844
 20
87.65878052109476
 10
146.8119904892844
 20
87.74344374264476
 10
146.8119904892844
 20
87.82811234715648
 10
146.8966537108344
 20
87.82811234715648
 10
146.8966537108344
 20
87.91278095166818
 10
146.3886528496875
 20
87.65878052109476
 10
146.3039896281375
 20
87.57411191658304
 10
146.2193264065875
 20
87.57411191658304
 10
146.1346631850375
 20
87.57411191658304
 10
146.0499891975641
 20
87.57411191658304
 10
145.9653259760141
 20
87.65878052109476
 10
145.8806627544641
 20
87.74344374264476
  0
HATCH
  5
AE
330
70
100
AcDbEntity
  8
Capa 1
 62
    18
420
        0
440
 33554687
100
AcDbHatch
 10
0.0
 20
0.0
 30
0.0
210
0.0
220
0.0
230
1.0
  2
SOLID
 70
     1
 71
     1
 91
        1
 92
        3
 72
     0
 73
     1
 93
       30
 10
145.7959887669907
 20
87.82811234715648
 10
145.5419883364172
 20
87.57411191658304
 10
145.6266623238906
 20
87.57411191658304
 10
145.6266623238906
 20
87.48944331207132
 10
145.7113255454407
 20
87.48944331207132
 10
145.7959887669907
 20
87.40478009052131
 10
145.8806627544641
 20
87.40478009052131
 10
145.9653259760141
 20
87.3201114860096
 10
146.0499891975641
 20
87.3201114860096
 10
146.1346631850375
 20
87.3201114860096
 10
146.2193264065875
 20
87.3201114860096
 10
146.3039896281375
 20
87.3201114860096
 10
146.3886528496875
 20
87.40478009052131
 10
146.473326837161
 20
87.40478009052131
 10
146.557990058711
 20
87.48944331207132
 10
146.642653280261
 20
87.48944331207132
 10
146.7273272677344
 20
87.57411191658304
 10
146.7273272677344
 20
87.65878052109476
 10
146.8119904892844
 20
87.65878052109476
 10
146.8119904892844
 20
87.74344374264476
 10
146.8119904892844
 20
87.82811234715648
 10
146.8966537108344
 20
87.82811234715648
 10
146.8966537108344
 20
87.91278095166818
 10
146.3886528496875
 20
87.65878052109476
 10
146.3039896281375
 20
87.57411191658304
 10
146.2193264065875
 20
87.57411191658304
 10
146.1346631850375
 20
87.57411191658304
 10
146.0499891975641
 20
87.57411191658304
 10
145.9653259760141
 20
87.65878052109476
 10
145.8806627544641
 20
87.74344374264476
 97
        0
 75
     0
 76
     1
 98
        1
 10
0.0
 20
0.0
450
        0
451
        0
460
0.0
461
0.0
452
        0
462
0.0
453
        0
470

  0
LWPOLYLINE
  5
AF
330
70
100
AcDbEntity
  8
Capa 1
100
AcDbPolyline
 90
       22
 70
     0
 43
0.0
 10
146.1346631850375
 20
88.67477686042679
 10
146.1346631850375
 20
88.59011363887679
 10
146.0499891975641
 20
88.59011363887679
 10
146.0499891975641
 20
88.50544503436507
 10
145.9653259760141
 20
88.50544503436507
 10
145.4573251148672
 20
88.16678138224162
 10
145.5419883364172
 20
88.0821127777299
 10
145.6266623238906
 20
88.0821127777299
 10
145.7113255454407
 20
88.0821127777299
 10
145.7959887669907
 20
88.0821127777299
 10
145.8806627544641
 20
88.0821127777299
 10
145.8806627544641
 20
88.16678138224162
 10
145.9653259760141
 20
88.16678138224162
 10
146.0499891975641
 20
88.16678138224162
 10
146.1346631850375
 20
88.25144460379164
 10
146.2193264065875
 20
88.33611320830334
 10
146.2193264065875
 20
88.42077642985335
 10
146.3039896281375
 20
88.42077642985335
 10
146.3039896281375
 20
88.50544503436507
 10
146.3886528496875
 20
88.59011363887679
 10
146.3886528496875
 20
88.67477686042679
 10
146.3886528496875
 20
88.75944546493851
  0
HATCH
  5
B0
330
70
100
AcDbEntity
  8
Capa 1
 62
    18
420
        0
440
 33554687
100
AcDbHatch
 10
0.0
 20
0.0
 30
0.0
210
0.0
220
0.0
230
1.0
  2
SOLID
 70
     1
 71
     1
 91
        1
 92
        3
 72
     0
 73
     1
 93
       22
 10
146.1346631850375
 20
88.67477686042679
 10
146.1346631850375
 20
88.59011363887679
 10
146.0499891975641
 20
88.59011363887679
 10
146.0499891975641
 20
88.50544503436507
 10
145.9653259760141
 20
88.50544503436507
 10
145.4573251148672
 20
88.16678138224162
 10
145.5419883364172
 20
88.0821127777299
 10
145.6266623238906
 20
88.0821127777299
 10
145.7113255454407
 20
88.0821127777299
 10
145.7959887669907
 20
88.0821127777299
 10
145.8806627544641
 20
88.0821127777299
 10
145.8806627544641
 20
88.16678138224162
 10
145.9653259760141
 20
88.16678138224162
 10
146.0499891975641
 20
88.16678138224162
 10
146.1346631850375
 20
88.25144460379164
 10
146.2193264065875
 20
88.33611320830334
 10
146.2193264065875
 20
88.42077642985335
 10
146.3039896281375
 20
88.42077642985335
 10
146.3039896281375
 20
88.50544503436507
 10
146.3886528496875
 20
88.59011363887679
 10
146.3886528496875
 20
88.67477686042679
 10
146.3886528496875
 20
88.75944546493851
 97
        0
 75
     0
 76
     1
 98
        1
 10
0.0
 20
0.0
450
        0
451
        0
460
0.0
461
0.0
452
        0
462
0.0
453
        0
470

  0
LWPOLYLINE
  5
B1
330
70
100
AcDbEntity
  8
Capa 1
100
AcDbPolyline
 90
       34
 70
     0
 43
0.0
 10
144.8646610321703
 20
89.18277772157367
 10
144.8646610321703
 20
88.75944546493851
 10
144.9493242537203
 20
88.75944546493851
 10
144.9493242537203
 20
88.59011363887679
 10
145.0339874752704
 20
88.50544503436507
 10
145.0339874752704
 20
88.42077642985335
 10
145.1186614627437
 20
88.42077642985335
 10
145.1186614627437
 20
88.33611320830334
 10
145.2033246842938
 20
88.25144460379164
 10
145.2879879058438
 20
88.25144460379164
 10
145.2879879058438
 20
88.16678138224162
 10
145.3726618933172
 20
88.16678138224162
 10
145.4573251148672
 20
88.16678138224162
 10
145.9653259760141
 20
88.50544503436507
 10
145.8806627544641
 20
88.42077642985335
 10
145.7959887669907
 20
88.42077642985335
 10
145.7113255454407
 20
88.42077642985335
 10
145.6266623238906
 20
88.42077642985335
 10
145.5419883364172
 20
88.42077642985335
 10
145.4573251148672
 20
88.50544503436507
 10
145.3726618933172
 20
88.50544503436507
 10
145.3726618933172
 20
88.59011363887679
 10
145.2879879058438
 20
88.59011363887679
 10
145.2879879058438
 20
88.67477686042679
 10
145.2879879058438
 20
88.75944546493851
 10
145.2033246842938
 20
88.84411406945021
 10
145.2033246842938
 20
88.92877729100023
 10
145.2033246842938
 20
89.01344589551193
 10
145.2033246842938
 20
89.09811450002365
 10
145.2033246842938
 20
89.18277772157367
 10
145.2033246842938
 20
89.26744632608537
 10
145.2879879058438
 20
89.35211493059709
 10
145.3726618933172
 20
89.4367781521471
 10
145.4573251148672
 20
89.4367781521471
  0
HATCH
  5
B2
330
70
100
AcDbEntity
  8
Capa 1
 62
    18
420
        0
440
 33554687
100
AcDbHatch
 10
0.0
 20
0.0
 30
0.0
210
0.0
220
0.0
230
1.0
  2
SOLID
 70
     1
 71
     1
 91
        1
 92
        3
 72
     0
 73
     1
 93
       34
 10
144.8646610321703
 20
89.18277772157367
 10
144.8646610321703
 20
88.75944546493851
 10
144.9493242537203
 20
88.75944546493851
 10
144.9493242537203
 20
88.59011363887679
 10
145.0339874752704
 20
88.50544503436507
 10
145.0339874752704
 20
88.42077642985335
 10
145.1186614627437
 20
88.42077642985335
 10
145.1186614627437
 20
88.33611320830334
 10
145.2033246842938
 20
88.25144460379164
 10
145.2879879058438
 20
88.25144460379164
 10
145.2879879058438
 20
88.16678138224162
 10
145.3726618933172
 20
88.16678138224162
 10
145.4573251148672
 20
88.16678138224162
 10
145.9653259760141
 20
88.50544503436507
 10
145.8806627544641
 20
88.42077642985335
 10
145.7959887669907
 20
88.42077642985335
 10
145.7113255454407
 20
88.42077642985335
 10
145.6266623238906
 20
88.42077642985335
 10
145.5419883364172
 20
88.42077642985335
 10
145.4573251148672
 20
88.50544503436507
 10
145.3726618933172
 20
88.50544503436507
 10
145.3726618933172
 20
88.59011363887679
 10
145.2879879058438
 20
88.59011363887679
 10
145.2879879058438
 20
88.67477686042679
 10
145.2879879058438
 20
88.75944546493851
 10
145.2033246842938
 20
88.84411406945021
 10
145.2033246842938
 20
88.92877729100023
 10
145.2033246842938
 20
89.01344589551193
 10
145.2033246842938
 20
89.09811450002365
 10
145.2033246842938
 20
89.18277772157367
 10
145.2033246842938
 20
89.26744632608537
 10
145.2879879058438
 20
89.35211493059709
 10
145.3726618933172
 20
89.4367781521471
 10
145.4573251148672
 20
89.4367781521471
 97
        0
 75
     0
 76
     1
 98
        1
 10
0.0
 20
0.0
450
        0
451
        0
460
0.0
461
0.0
452
        0
462
0.0
453
        0
470

  0
LWPOLYLINE
  5
B3
330
70
100
AcDbEntity
  8
Capa 1
100
AcDbPolyline
 90
       75
 70
     0
 43
0.0
 10
145.2879879058438
 20
89.60610997820884
 10
145.2879879058438
 20
89.60610997820884
 10
145.2033246842938
 20
89.60610997820884
 10
145.1186614627437
 20
89.52144675665882
 10
145.0339874752704
 20
89.4367781521471
 10
144.9493242537203
 20
89.35211493059709
 10
144.9493242537203
 20
89.26744632608537
 10
144.8646610321703
 20
89.18277772157367
 10
145.4573251148672
 20
89.4367781521471
 10
145.5419883364172
 20
89.52144675665882
 10
145.6266623238906
 20
89.52144675665882
 10
145.7113255454407
 20
89.52144675665882
 10
145.7959887669907
 20
89.52144675665882
 10
145.7959887669907
 20
89.4367781521471
 10
145.8806627544641
 20
89.4367781521471
 10
145.9653259760141
 20
89.4367781521471
 10
145.9653259760141
 20
89.35211493059709
 10
146.0499891975641
 20
89.35211493059709
 10
146.0499891975641
 20
89.26744632608537
 10
146.1346631850375
 20
89.18277772157367
 10
146.1346631850375
 20
89.09811450002365
 10
146.2193264065875
 20
89.01344589551193
 10
146.2193264065875
 20
88.92877729100023
 10
146.2193264065875
 20
88.84411406945021
 10
146.2193264065875
 20
88.75944546493851
 10
146.2193264065875
 20
88.67477686042679
 10
146.1346631850375
 20
88.67477686042679
 10
146.3886528496875
 20
88.75944546493851
 10
146.473326837161
 20
88.67477686042679
 10
146.473326837161
 20
88.59011363887679
 10
146.557990058711
 20
88.50544503436507
 10
146.557990058711
 20
88.42077642985335
 10
146.557990058711
 20
88.33611320830334
 10
146.642653280261
 20
88.25144460379164
 10
146.642653280261
 20
88.16678138224162
 10
146.642653280261
 20
88.0821127777299
 10
146.642653280261
 20
87.9974441732182
 10
146.557990058711
 20
87.91278095166818
 10
146.557990058711
 20
87.82811234715648
 10
146.473326837161
 20
87.74344374264476
 10
146.473326837161
 20
87.65878052109476
 10
146.3886528496875
 20
87.65878052109476
 10
146.8966537108344
 20
87.91278095166818
 10
146.8966537108344
 20
87.9974441732182
 10
146.8966537108344
 20
88.0821127777299
 10
146.8966537108344
 20
88.16678138224162
 10
146.8966537108344
 20
88.25144460379164
 10
146.8966537108344
 20
88.33611320830334
 10
146.8966537108344
 20
88.42077642985335
 10
146.8119904892844
 20
88.50544503436507
 10
146.8119904892844
 20
88.59011363887679
 10
146.8119904892844
 20
88.67477686042679
 10
146.7273272677344
 20
88.75944546493851
 10
146.7273272677344
 20
88.84411406945021
 10
146.642653280261
 20
88.92877729100023
 10
146.557990058711
 20
89.01344589551193
 10
146.557990058711
 20
89.09811450002365
 10
146.473326837161
 20
89.18277772157367
 10
146.473326837161
 20
89.26744632608537
 10
146.3886528496875
 20
89.35211493059709
 10
146.3039896281375
 20
89.4367781521471
 10
146.2193264065875
 20
89.52144675665882
 10
146.1346631850375
 20
89.60610997820884
 10
146.0499891975641
 20
89.60610997820884
 10
146.0499891975641
 20
89.69077858272054
 10
145.9653259760141
 20
89.69077858272054
 10
145.8806627544641
 20
89.69077858272054
 10
145.8806627544641
 20
89.77544718723224
 10
145.7959887669907
 20
89.77544718723224
 10
145.7113255454407
 20
89.77544718723224
 10
145.6266623238906
 20
89.77544718723224
 10
145.5419883364172
 20
89.77544718723224
 10
145.4573251148672
 20
89.69077858272054
 10
145.3726618933172
 20
89.69077858272054
 10
145.2879879058438
 20
89.69077858272054
  0
HATCH
  5
B4
330
70
100
AcDbEntity
  8
Capa 1
 62
    18
420
        0
440
 33554687
100
AcDbHatch
 10
0.0
 20
0.0
 30
0.0
210
0.0
220
0.0
230
1.0
  2
SOLID
 70
     1
 71
     1
 91
        1
 92
        3
 72
     0
 73
     1
 93
       75
 10
145.2879879058438
 20
89.60610997820884
 10
145.2879879058438
 20
89.60610997820884
 10
145.2033246842938
 20
89.60610997820884
 10
145.1186614627437
 20
89.52144675665882
 10
145.0339874752704
 20
89.4367781521471
 10
144.9493242537203
 20
89.35211493059709
 10
144.9493242537203
 20
89.26744632608537
 10
144.8646610321703
 20
89.18277772157367
 10
145.4573251148672
 20
89.4367781521471
 10
145.5419883364172
 20
89.52144675665882
 10
145.6266623238906
 20
89.52144675665882
 10
145.7113255454407
 20
89.52144675665882
 10
145.7959887669907
 20
89.52144675665882
 10
145.7959887669907
 20
89.4367781521471
 10
145.8806627544641
 20
89.4367781521471
 10
145.9653259760141
 20
89.4367781521471
 10
145.9653259760141
 20
89.35211493059709
 10
146.0499891975641
 20
89.35211493059709
 10
146.0499891975641
 20
89.26744632608537
 10
146.1346631850375
 20
89.18277772157367
 10
146.1346631850375
 20
89.09811450002365
 10
146.2193264065875
 20
89.01344589551193
 10
146.2193264065875
 20
88.92877729100023
 10
146.2193264065875
 20
88.84411406945021
 10
146.2193264065875
 20
88.75944546493851
 10
146.2193264065875
 20
88.67477686042679
 10
146.1346631850375
 20
88.67477686042679
 10
146.3886528496875
 20
88.75944546493851
 10
146.473326837161
 20
88.67477686042679
 10
146.473326837161
 20
88.59011363887679
 10
146.557990058711
 20
88.50544503436507
 10
146.557990058711
 20
88.42077642985335
 10
146.557990058711
 20
88.33611320830334
 10
146.642653280261
 20
88.25144460379164
 10
146.642653280261
 20
88.16678138224162
 10
146.642653280261
 20
88.0821127777299
 10
146.642653280261
 20
87.9974441732182
 10
146.557990058711
 20
87.91278095166818
 10
146.557990058711
 20
87.82811234715648
 10
146.473326837161
 20
87.74344374264476
 10
146.473326837161
 20
87.65878052109476
 10
146.3886528496875
 20
87.65878052109476
 10
146.8966537108344
 20
87.91278095166818
 10
146.8966537108344
 20
87.9974441732182
 10
146.8966537108344
 20
88.0821127777299
 10
146.8966537108344
 20
88.16678138224162
 10
146.8966537108344
 20
88.25144460379164
 10
146.8966537108344
 20
88.33611320830334
 10
146.8966537108344
 20
88.42077642985335
 10
146.8119904892844
 20
88.50544503436507
 10
146.8119904892844
 20
88.59011363887679
 10
146.8119904892844
 20
88.67477686042679
 10
146.7273272677344
 20
88.75944546493851
 10
146.7273272677344
 20
88.84411406945021
 10
146.642653280261
 20
88.92877729100023
 10
146.557990058711
 20
89.01344589551193
 10
146.557990058711
 20
89.09811450002365
 10
146.473326837161
 20
89.18277772157367
 10
146.473326837161
 20
89.26744632608537
 10
146.3886528496875
 20
89.35211493059709
 10
146.3039896281375
 20
89.4367781521471
 10
146.2193264065875
 20
89.52144675665882
 10
146.1346631850375
 20
89.60610997820884
 10
146.0499891975641
 20
89.60610997820884
 10
146.0499891975641
 20
89.69077858272054
 10
145.9653259760141
 20
89.69077858272054
 10
145.8806627544641
 20
89.69077858272054
 10
145.8806627544641
 20
89.77544718723224
 10
145.7959887669907
 20
89.77544718723224
 10
145.7113255454407
 20
89.77544718723224
 10
145.6266623238906
 20
89.77544718723224
 10
145.5419883364172
 20
89.77544718723224
 10
145.4573251148672
 20
89.69077858272054
 10
145.3726618933172
 20
89.69077858272054
 10
145.2879879058438
 20
89.69077858272054
 97
        0
 75
     0
 76
     1
 98
        1
 10
0.0
 20
0.0
450
        0
451
        0
460
0.0
461
0.0
452
        0
462
0.0
453
        0
470

  0
LWPOLYLINE
  5
B5
330
70
100
AcDbEntity
  8
Capa 1
100
AcDbPolyline
 90
       31
 70
     0
 43
0.0
 10
147.4893285594547
 20
88.84411406945021
 10
147.1506541414078
 20
88.67477686042679
 10
147.2353281288813
 20
88.59011363887679
 10
147.3199913504313
 20
88.50544503436507
 10
147.3199913504313
 20
88.42077642985335
 10
147.4046545719813
 20
88.42077642985335
 10
147.4893285594547
 20
88.42077642985335
 10
147.4893285594547
 20
88.33611320830334
 10
147.5739917810047
 20
88.33611320830334
 10
147.6586550025547
 20
88.33611320830334
 10
147.7433289900281
 20
88.33611320830334
 10
147.8279922115781
 20
88.33611320830334
 10
147.9126554331282
 20
88.33611320830334
 10
147.9973294206016
 20
88.33611320830334
 10
148.0819926421516
 20
88.33611320830334
 10
148.1666558637016
 20
88.42077642985335
 10
148.251329851175
 20
88.42077642985335
 10
148.335993072725
 20
88.50544503436507
 10
148.420656294275
 20
88.59011363887679
 10
148.5053195158251
 20
88.67477686042679
 10
148.5899935032984
 20
88.75944546493851
 10
148.5899935032984
 20
88.84411406945021
 10
148.5899935032984
 20
88.92877729100023
 10
148.0819926421516
 20
88.67477686042679
 10
147.9973294206016
 20
88.59011363887679
 10
147.9126554331282
 20
88.59011363887679
 10
147.8279922115781
 20
88.59011363887679
 10
147.7433289900281
 20
88.59011363887679
 10
147.6586550025547
 20
88.67477686042679
 10
147.5739917810047
 20
88.67477686042679
 10
147.4893285594547
 20
88.75944546493851
  0
HATCH
  5
B6
330
70
100
AcDbEntity
  8
Capa 1
 62
    18
420
        0
440
 33554687
100
AcDbHatch
 10
0.0
 20
0.0
 30
0.0
210
0.0
220
0.0
230
1.0
  2
SOLID
 70
     1
 71
     1
 91
        1
 92
        3
 72
     0
 73
     1
 93
       31
 10
147.4893285594547
 20
88.84411406945021
 10
147.1506541414078
 20
88.67477686042679
 10
147.2353281288813
 20
88.59011363887679
 10
147.3199913504313
 20
88.50544503436507
 10
147.3199913504313
 20
88.42077642985335
 10
147.4046545719813
 20
88.42077642985335
 10
147.4893285594547
 20
88.42077642985335
 10
147.4893285594547
 20
88.33611320830334
 10
147.5739917810047
 20
88.33611320830334
 10
147.6586550025547
 20
88.33611320830334
 10
147.7433289900281
 20
88.33611320830334
 10
147.8279922115781
 20
88.33611320830334
 10
147.9126554331282
 20
88.33611320830334
 10
147.9973294206016
 20
88.33611320830334
 10
148.0819926421516
 20
88.33611320830334
 10
148.1666558637016
 20
88.42077642985335
 10
148.251329851175
 20
88.42077642985335
 10
148.335993072725
 20
88.50544503436507
 10
148.420656294275
 20
88.59011363887679
 10
148.5053195158251
 20
88.67477686042679
 10
148.5899935032984
 20
88.75944546493851
 10
148.5899935032984
 20
88.84411406945021
 10
148.5899935032984
 20
88.92877729100023
 10
148.0819926421516
 20
88.67477686042679
 10
147.9973294206016
 20
88.59011363887679
 10
147.9126554331282
 20
88.59011363887679
 10
147.8279922115781
 20
88.59011363887679
 10
147.7433289900281
 20
88.59011363887679
 10
147.6586550025547
 20
88.67477686042679
 10
147.5739917810047
 20
88.67477686042679
 10
147.4893285594547
 20
88.75944546493851
 97
        0
 75
     0
 76
     1
 98
        1
 10
0.0
 20
0.0
450
        0
451
        0
460
0.0
461
0.0
452
        0
462
0.0
453
        0
470

  0
LWPOLYLINE
  5
B7
330
70
100
AcDbEntity
  8
Capa 1
100
AcDbPolyline
 90
       40
 70
     0
 43
0.0
 10
147.9973294206016
 20
90.02944761780568
 10
147.4893285594547
 20
89.69077858272054
 10
147.5739917810047
 20
89.69077858272054
 10
147.6586550025547
 20
89.69077858272054
 10
147.7433289900281
 20
89.77544718723224
 10
147.8279922115781
 20
89.77544718723224
 10
147.9126554331282
 20
89.69077858272054
 10
147.9973294206016
 20
89.69077858272054
 10
148.0819926421516
 20
89.69077858272054
 10
148.0819926421516
 20
89.60610997820884
 10
148.1666558637016
 20
89.52144675665882
 10
148.251329851175
 20
89.52144675665882
 10
148.251329851175
 20
89.4367781521471
 10
148.251329851175
 20
89.35211493059709
 10
148.335993072725
 20
89.26744632608537
 10
148.335993072725
 20
89.18277772157367
 10
148.335993072725
 20
89.09811450002365
 10
148.335993072725
 20
89.01344589551193
 10
148.335993072725
 20
88.92877729100023
 10
148.251329851175
 20
88.84411406945021
 10
148.251329851175
 20
88.75944546493851
 10
148.1666558637016
 20
88.67477686042679
 10
148.0819926421516
 20
88.67477686042679
 10
148.5899935032984
 20
88.92877729100023
 10
148.6746567248485
 20
89.01344589551193
 10
148.6746567248485
 20
89.09811450002365
 10
148.6746567248485
 20
89.18277772157367
 10
148.6746567248485
 20
89.26744632608537
 10
148.5899935032984
 20
89.35211493059709
 10
148.5899935032984
 20
89.4367781521471
 10
148.5899935032984
 20
89.52144675665882
 10
148.5053195158251
 20
89.60610997820884
 10
148.5053195158251
 20
89.69077858272054
 10
148.420656294275
 20
89.77544718723224
 10
148.335993072725
 20
89.77544718723224
 10
148.335993072725
 20
89.86011040878226
 10
148.251329851175
 20
89.86011040878226
 10
148.251329851175
 20
89.94477901329396
 10
148.1666558637016
 20
89.94477901329396
 10
148.0819926421516
 20
90.02944761780568
  0
HATCH
  5
B8
330
70
100
AcDbEntity
  8
Capa 1
 62
    18
420
        0
440
 33554687
100
AcDbHatch
 10
0.0
 20
0.0
 30
0.0
210
0.0
220
0.0
230
1.0
  2
SOLID
 70
     1
 71
     1
 91
        1
 92
        3
 72
     0
 73
     1
 93
       40
 10
147.9973294206016
 20
90.02944761780568
 10
147.4893285594547
 20
89.69077858272054
 10
147.5739917810047
 20
89.69077858272054
 10
147.6586550025547
 20
89.69077858272054
 10
147.7433289900281
 20
89.77544718723224
 10
147.8279922115781
 20
89.77544718723224
 10
147.9126554331282
 20
89.69077858272054
 10
147.9973294206016
 20
89.69077858272054
 10
148.0819926421516
 20
89.69077858272054
 10
148.0819926421516
 20
89.60610997820884
 10
148.1666558637016
 20
89.52144675665882
 10
148.251329851175
 20
89.52144675665882
 10
148.251329851175
 20
89.4367781521471
 10
148.251329851175
 20
89.35211493059709
 10
148.335993072725
 20
89.26744632608537
 10
148.335993072725
 20
89.18277772157367
 10
148.335993072725
 20
89.09811450002365
 10
148.335993072725
 20
89.01344589551193
 10
148.335993072725
 20
88.92877729100023
 10
148.251329851175
 20
88.84411406945021
 10
148.251329851175
 20
88.75944546493851
 10
148.1666558637016
 20
88.67477686042679
 10
148.0819926421516
 20
88.67477686042679
 10
148.5899935032984
 20
88.92877729100023
 10
148.6746567248485
 20
89.01344589551193
 10
148.6746567248485
 20
89.09811450002365
 10
148.6746567248485
 20
89.18277772157367
 10
148.6746567248485
 20
89.26744632608537
 10
148.5899935032984
 20
89.35211493059709
 10
148.5899935032984
 20
89.4367781521471
 10
148.5899935032984
 20
89.52144675665882
 10
148.5053195158251
 20
89.60610997820884
 10
148.5053195158251
 20
89.69077858272054
 10
148.420656294275
 20
89.77544718723224
 10
148.335993072725
 20
89.77544718723224
 10
148.335993072725
 20
89.86011040878226
 10
148.251329851175
 20
89.86011040878226
 10
148.251329851175
 20
89.94477901329396
 10
148.1666558637016
 20
89.94477901329396
 10
148.0819926421516
 20
90.02944761780568
 97
        0
 75
     0
 76
     1
 98
        1
 10
0.0
 20
0.0
450
        0
451
        0
460
0.0
461
0.0
452
        0
462
0.0
453
        0
470

  0
LWPOLYLINE
  5
B9
330
70
100
AcDbEntity
  8
Capa 1
100
AcDbPolyline
 90
       15
 70
     0
 43
0.0
 10
147.4893285594547
 20
89.94477901329396
 10
147.4046545719813
 20
89.94477901329396
 10
147.4046545719813
 20
89.86011040878226
 10
147.3199913504313
 20
89.86011040878226
 10
147.2353281288813
 20
89.77544718723224
 10
147.1506541414078
 20
89.69077858272054
 10
147.1506541414078
 20
89.60610997820884
 10
147.1506541414078
 20
89.52144675665882
 10
147.9973294206016
 20
90.02944761780568
 10
147.9126554331282
 20
90.02944761780568
 10
147.8279922115781
 20
90.02944761780568
 10
147.7433289900281
 20
90.02944761780568
 10
147.6586550025547
 20
90.02944761780568
 10
147.5739917810047
 20
90.02944761780568
 10
147.4893285594547
 20
89.94477901329396
  0
HATCH
  5
BA
330
70
100
AcDbEntity
  8
Capa 1
 62
    18
420
        0
440
 33554687
100
AcDbHatch
 10
0.0
 20
0.0
 30
0.0
210
0.0
220
0.0
230
1.0
  2
SOLID
 70
     1
 71
     1
 91
        1
 92
        3
 72
     0
 73
     1
 93
       15
 10
147.4893285594547
 20
89.94477901329396
 10
147.4046545719813
 20
89.94477901329396
 10
147.4046545719813
 20
89.86011040878226
 10
147.3199913504313
 20
89.86011040878226
 10
147.2353281288813
 20
89.77544718723224
 10
147.1506541414078
 20
89.69077858272054
 10
147.1506541414078
 20
89.60610997820884
 10
147.1506541414078
 20
89.52144675665882
 10
147.9973294206016
 20
90.02944761780568
 10
147.9126554331282
 20
90.02944761780568
 10
147.8279922115781
 20
90.02944761780568
 10
147.7433289900281
 20
90.02944761780568
 10
147.6586550025547
 20
90.02944761780568
 10
147.5739917810047
 20
90.02944761780568
 10
147.4893285594547
 20
89.94477901329396
 97
        0
 75
     0
 76
     1
 98
        1
 10
0.0
 20
0.0
450
        0
451
        0
460
0.0
461
0.0
452
        0
462
0.0
453
        0
470

  0
LWPOLYLINE
  5
BB
330
70
100
AcDbEntity
  8
Capa 1
100
AcDbPolyline
 90
       15
 70
     0
 43
0.0
 10
147.5739917810047
 20
90.96078073558771
 10
146.557990058711
 20
90.36810588696743
 10
146.9813276983078
 20
89.09811450002365
 10
147.2353281288813
 20
89.18277772157367
 10
147.2353281288813
 20
89.26744632608537
 10
147.2353281288813
 20
89.35211493059709
 10
147.3199913504313
 20
89.4367781521471
 10
147.3199913504313
 20
89.52144675665882
 10
147.4046545719813
 20
89.60610997820884
 10
147.4893285594547
 20
89.60610997820884
 10
147.4893285594547
 20
89.69077858272054
 10
147.9973294206016
 20
90.02944761780568
 10
147.1506541414078
 20
89.52144675665882
 10
146.8966537108344
 20
90.1987794438674
 10
147.7433289900281
 20
90.70678030501428
  0
HATCH
  5
BC
330
70
100
AcDbEntity
  8
Capa 1
 62
    18
420
        0
440
 33554687
100
AcDbHatch
 10
0.0
 20
0.0
 30
0.0
210
0.0
220
0.0
230
1.0
  2
SOLID
 70
     1
 71
     1
 91
        1
 92
        3
 72
     0
 73
     1
 93
       15
 10
147.5739917810047
 20
90.96078073558771
 10
146.557990058711
 20
90.36810588696743
 10
146.9813276983078
 20
89.09811450002365
 10
147.2353281288813
 20
89.18277772157367
 10
147.2353281288813
 20
89.26744632608537
 10
147.2353281288813
 20
89.35211493059709
 10
147.3199913504313
 20
89.4367781521471
 10
147.3199913504313
 20
89.52144675665882
 10
147.4046545719813
 20
89.60610997820884
 10
147.4893285594547
 20
89.60610997820884
 10
147.4893285594547
 20
89.69077858272054
 10
147.9973294206016
 20
90.02944761780568
 10
147.1506541414078
 20
89.52144675665882
 10
146.8966537108344
 20
90.1987794438674
 10
147.7433289900281
 20
90.70678030501428
 97
        0
 75
     0
 76
     1
 98
        1
 10
0.0
 20
0.0
450
        0
451
        0
460
0.0
461
0.0
452
        0
462
0.0
453
        0
470

  0
LINE
  5
BD
330
70
100
AcDbEntity
  8
Capa 1
 62
    18
420
        0
370
     9
100
AcDbLine
 10
105.8333225409516
 20
80.88510913946025
 30
0.0
 11
108.7966537203594
 21
79.10711150840791
 31
0.0
  0
LWPOLYLINE
  5
BE
330
70
100
AcDbEntity
  8
Capa 1
 62
    18
420
        0
370
     9
100
AcDbPolyline
 90
       30
 70
     0
 43
0.0
 10
114.0459887749281
 20
160.1334426479549
 10
113.9613255533781
 20
160.0487794264049
 10
113.7073251228047
 20
159.9641054389315
 10
113.3686614706812
 20
159.7947789958315
 10
113.1146610401078
 20
159.7101050083581
 10
112.7759973879844
 20
159.7101050083581
 10
112.5219969574109
 20
159.625441786808
 10
111.8446588872406
 20
159.625441786808
 10
111.1673208170703
 20
159.625441786808
 10
110.9133203864969
 20
159.7101050083581
 10
110.5746567343735
 20
159.7947789958315
 10
110.3206563038
 20
159.8794422173815
 10
110.0666558732266
 20
160.0487794264049
 10
109.8973294301266
 20
160.1334426479549
 10
109.8126554426531
 20
160.1334426479549
 10
109.5586550120797
 20
160.3027798569783
 10
108.7119904988094
 20
160.8107699522018
 10
107.3573251243922
 20
161.5727712439221
 10
105.5793221103781
 20
162.5887729662158
 10
103.5473294317141
 20
163.774111897533
 10
101.1766623350031
 20
165.1287772719502
 10
96.18132771100784
 20
168.007445229808
 10
91.10132986546252
 20
170.8861131876658
 10
88.8153259903016
 20
172.240778562083
 10
86.7833279286758
 20
173.4261174934002
 10
85.00533029762346
 20
174.4421192156939
 10
83.65065954024457
 20
175.2041205074142
 10
82.80399502697425
 20
175.7121213685611
 10
82.5499945964008
 20
175.8814478116612
 10
82.46533137485078
 20
175.8814478116612
  0
LWPOLYLINE
  5
BF
330
70
100
AcDbEntity
  8
Capa 1
 62
    18
420
        0
370
     9
100
AcDbPolyline
 90
       17
 70
     0
 43
0.0
 10
141.3933289916156
 20
175.8814478116612
 10
141.3086550041422
 20
175.8814478116612
 10
141.1393285610422
 20
175.7121213685611
 10
140.2079900602985
 20
175.2041205074142
 10
138.9379879074313
 20
174.4421192156939
 10
137.1599956593406
 20
173.4261174934002
 10
135.0433289932031
 20
172.240778562083
 10
132.7573251180422
 20
170.8861131876658
 10
127.7619904940469
 20
168.007445229808
 10
122.6819926485016
 20
165.1287772719502
 10
120.3959887733407
 20
163.774111897533
 10
118.3639960946766
 20
162.5887729662158
 10
116.5859930806625
 20
161.5727712439221
 10
115.2313277062453
 20
160.8107699522018
 10
114.384663192975
 20
160.3027798569783
 10
114.1306627624016
 20
160.1334426479549
 10
114.0459887749281
 20
160.1334426479549
  0
LWPOLYLINE
  5
C0
330
70
100
AcDbEntity
  8
Capa 1
 62
    18
420
        0
370
     9
100
AcDbPolyline
 90
       32
 70
     0
 43
0.0
 10
109.3893285689797
 20
148.4494443734236
 10
109.5586550120797
 20
148.3647703859502
 10
109.8973294301266
 20
148.1954439428502
 10
110.23599308225
 20
148.0261067338268
 10
110.5746567343735
 20
147.9414435122768
 10
110.9133203864969
 20
147.8567802907268
 10
111.2519948045438
 20
147.8567802907268
 10
111.6753216782172
 20
147.7721063032533
 10
112.0139960962641
 20
147.7721063032533
 10
112.4373229699375
 20
147.7721063032533
 10
112.7759973879844
 20
147.8567802907268
 10
113.1993242616578
 20
147.9414435122768
 10
113.5379879137813
 20
148.0261067338268
 10
113.8766623318281
 20
148.1107699553768
 10
114.2153259839516
 20
148.2801071644002
 10
114.469326414525
 20
148.4494443734236
 10
114.553989636075
 20
148.4494443734236
 10
114.8079900666485
 20
148.6187708165237
 10
115.6546545799188
 20
149.0421084561205
 10
117.009319954336
 20
149.8887729693909
 10
118.7026597468
 20
150.8201114701346
 10
120.7346631913875
 20
152.0054396355283
 10
123.020656300625
 20
153.3601050099456
 10
127.9313277030703
 20
156.1541097462533
 10
132.8419883395922
 20
159.0327777041111
 10
135.1279922147531
 20
160.3027798569783
 10
137.1599956593406
 20
161.4881080223721
 10
138.8533246858813
 20
162.5041097446658
 10
140.2079900602985
 20
163.2661110363861
 10
141.0546545735688
 20
163.774111897533
 10
141.3086550041422
 20
163.858775119083
 10
141.3933289916156
 20
163.9434383406331
  0
LWPOLYLINE
  5
C1
330
70
100
AcDbEntity
  8
Capa 1
 62
    18
420
        0
370
     9
100
AcDbPolyline
 90
       17
 70
     0
 43
0.0
 10
82.5499945964008
 20
163.9434383406331
 10
82.63466320091252
 20
163.858775119083
 10
82.80399502697425
 20
163.774111897533
 10
83.65065954024457
 20
163.2661110363861
 10
85.00533029762346
 20
162.5041097446658
 10
86.6986647071258
 20
161.4881080223721
 10
88.73066276875158
 20
160.3027798569783
 10
91.0166558779891
 20
159.0327777041111
 10
95.92732728043442
 20
156.1541097462533
 10
100.9226619044297
 20
153.3601050099456
 10
103.1239917921172
 20
152.0054396355283
 10
105.1559952367047
 20
150.8201114701346
 10
106.9339874847953
 20
149.8887729693909
 10
108.2039896376625
 20
149.0421084561205
 10
109.0506541509328
 20
148.6187708165237
 10
109.3046545815063
 20
148.4494443734236
 10
109.3893285689797
 20
148.4494443734236
  0
LWPOLYLINE
  5
C2
330
70
100
AcDbEntity
  8
Capa 1
 62
    18
420
        0
370
     9
100
AcDbPolyline
 90
        9
 70
     0
 43
0.0
 10
143.2559952271797
 20
176.7281230908548
 10
143.2559952271797
 20
177.2361131860783
 10
143.1713212397063
 20
177.4901136166518
 10
143.0019947966063
 20
177.7441140472252
 10
142.8326575875828
 20
177.9134512562486
 10
142.6633203785594
 20
178.1674516868221
 10
142.4939939354594
 20
178.3367888958455
 10
142.239993504886
 20
178.5061153389455
 10
142.0706562958625
 20
178.5907893264189
  0
LWPOLYLINE
  5
C3
330
70
100
AcDbEntity
  8
Capa 1
 62
    18
420
        0
370
     9
100
AcDbPolyline
 90
        9
 70
     0
 43
0.0
 10
81.87266190919222
 20
178.5907893264189
 10
81.70333008313049
 20
178.5061153389455
 10
81.44932965255705
 20
178.3367888958455
 10
81.02599739592189
 20
177.9134512562486
 10
80.85666018689847
 20
177.6594508256752
 10
80.77199696534846
 20
177.4054503951018
 10
80.68732836083674
 20
177.1514499645283
 10
80.60265975632503
 20
176.8974495339549
 10
80.60265975632503
 20
176.7281230908548
  0
LWPOLYLINE
  5
C4
330
70
100
AcDbEntity
  8
Capa 1
 62
    18
420
        0
370
     9
100
AcDbPolyline
 90
       11
 70
     0
 43
0.0
 10
142.5786571570094
 20
165.6367781330971
 10
142.5786571570094
 20
165.8061045761971
 10
142.6633203785594
 20
166.144778994244
 10
142.7479943660328
 20
167.4147703811877
 10
142.8326575875828
 20
169.1927733952018
 10
142.9173208091328
 20
171.2247768397893
 10
143.0866580181563
 20
173.2567695184534
 10
143.1713212397063
 20
175.0347832983908
 10
143.2559952271797
 20
176.304785451258
 10
143.2559952271797
 20
176.6434491033814
 10
143.2559952271797
 20
176.7281230908548
  0
LWPOLYLINE
  5
C5
330
70
100
AcDbEntity
  8
Capa 1
 62
    18
420
        0
370
     9
100
AcDbPolyline
 90
       11
 70
     0
 43
0.0
 10
80.60265975632503
 20
176.7281230908548
 10
80.60265975632503
 20
176.6434491033814
 10
80.68732836083674
 20
176.304785451258
 10
80.77199696534846
 20
175.0347832983908
 10
80.85666018689847
 20
173.2567695184534
 10
80.94132879141019
 20
171.2247768397893
 10
81.11066061747191
 20
169.1927733952018
 10
81.19532922198361
 20
167.4147703811877
 10
81.27999782649533
 20
166.144778994244
 10
81.27999782649533
 20
165.8061045761971
 10
81.27999782649533
 20
165.6367781330971
  0
LWPOLYLINE
  5
C6
330
70
100
AcDbEntity
  8
Capa 1
 62
    18
420
        0
370
     9
100
AcDbPolyline
 90
        7
 70
     0
 43
0.0
 10
142.0706562958625
 20
176.5587858818314
 10
142.0706562958625
 20
176.4741226602814
 10
141.9859930743125
 20
176.389448672808
 10
141.8166558652891
 20
176.220122229708
 10
141.7319926437391
 20
176.1354482422346
 10
141.4779922131656
 20
175.9661217991345
 10
141.3933289916156
 20
175.8814478116612
  0
LWPOLYLINE
  5
C7
330
70
100
AcDbEntity
  8
Capa 1
 62
    18
420
        0
370
     9
100
AcDbPolyline
 90
        6
 70
     0
 43
0.0
 10
82.46533137485078
 20
175.8814478116612
 10
82.38066277033908
 20
175.9661217991345
 10
82.21133094427736
 20
176.1354482422346
 10
82.04199373525394
 20
176.304785451258
 10
81.87266190919222
 20
176.389448672808
 10
81.7879933046805
 20
176.5587858818314
  0
LWPOLYLINE
  5
C8
330
70
100
AcDbEntity
  8
Capa 1
 62
    18
420
        0
370
     9
100
AcDbPolyline
 90
       35
 70
     0
 43
0.0
 10
116.6706563022125
 20
167.0761067290643
 10
116.5859930806625
 20
166.8221062984908
 10
116.5013298591125
 20
166.5681058679174
 10
116.3319926500891
 20
166.3987794248174
 10
116.2473294285391
 20
166.144778994244
 10
115.9933289979656
 20
165.9754417852205
 10
115.8239917889422
 20
165.8061045761971
 10
115.4853281368187
 20
165.6367781330971
 10
115.2313277062453
 20
165.4674409240737
 10
114.8926640541219
 20
165.2981037150502
 10
114.553989636075
 20
165.1287772719502
 10
114.2153259839516
 20
165.0441032844768
 10
113.8766623318281
 20
164.8747768413768
 10
113.4533246922313
 20
164.7901028539034
 10
113.0299870526344
 20
164.7901028539034
 10
112.6066601789609
 20
164.7054396323533
 10
112.1833225393641
 20
164.7054396323533
 10
111.7599956656906
 20
164.7054396323533
 10
111.3366580260938
 20
164.7054396323533
 10
110.9133203864969
 20
164.7901028539034
 10
110.4899935128234
 20
164.7901028539034
 10
110.0666558732266
 20
164.8747768413768
 10
109.7279922211031
 20
165.0441032844768
 10
109.3893285689797
 20
165.1287772719502
 10
108.9659909293828
 20
165.2981037150502
 10
108.7119904988094
 20
165.4674409240737
 10
108.3733268466859
 20
165.5521041456237
 10
108.1193264161125
 20
165.8061045761971
 10
107.8653259855391
 20
165.9754417852205
 10
107.6959887765156
 20
166.144778994244
 10
107.5266623334156
 20
166.3987794248174
 10
107.4419883459422
 20
166.5681058679174
 10
107.3573251243922
 20
166.8221062984908
 10
107.2726619028422
 20
166.9914435075143
 10
107.2726619028422
 20
167.0761067290643
  0
LWPOLYLINE
  5
C9
330
70
100
AcDbEntity
  8
Capa 1
 62
    18
420
        0
370
     9
100
AcDbPolyline
 90
       17
 70
     0
 43
0.0
 10
142.0706562958625
 20
178.5907893264189
 10
141.9859930743125
 20
178.6754525479689
 10
141.7319926437391
 20
178.7601157695189
 10
140.8853281304688
 20
179.2681166306658
 10
139.5306627560516
 20
180.1147811439362
 10
137.7526597420375
 20
181.1307828662299
 10
135.6359930759
 20
182.3161110316237
 10
133.3499892007391
 20
183.6707871719642
 10
128.2699913551938
 20
186.5494443638986
 10
123.2746567311985
 20
189.5127863092298
 10
120.9039896344875
 20
190.8674409177237
 10
118.8719969558234
 20
192.0527690831174
 10
117.0939939418094
 20
193.0687708054112
 10
115.7393285673922
 20
193.8307828630549
 10
114.8079900666485
 20
194.3387837242017
 10
114.6386636235484
 20
194.5081101673018
 10
114.553989636075
 20
194.5081101673018
  0
LWPOLYLINE
  5
CA
330
70
100
AcDbEntity
  8
Capa 1
 62
    18
420
        0
370
     9
100
AcDbPolyline
 90
       17
 70
     0
 43
0.0
 10
109.3893285689797
 20
194.5081101673018
 10
109.3046545815063
 20
194.5081101673018
 10
109.0506541509328
 20
194.3387837242017
 10
108.2039896376625
 20
193.8307828630549
 10
106.8493242632453
 20
193.0687708054112
 10
105.0713212492313
 20
192.0527690831174
 10
102.9546545830938
 20
190.8674409177237
 10
100.6686614738562
 20
189.5127863092298
 10
95.58866362831095
 20
186.5494443638986
 10
90.50865501684224
 20
183.6707871719642
 10
88.22266190760471
 20
182.3161110316237
 10
86.10599524146721
 20
181.1307828662299
 10
84.41266083196486
 20
180.1147811439362
 10
83.05799545754767
 20
179.2681166306658
 10
82.12666233976564
 20
178.7601157695189
 10
81.95733051370392
 20
178.6754525479689
 10
81.87266190919222
 20
178.5907893264189
  0
LWPOLYLINE
  5
CB
330
70
100
AcDbEntity
  8
Capa 1
 62
    18
420
        0
370
     9
100
AcDbPolyline
 90
        9
 70
     0
 43
0.0
 10
141.3933289916156
 20
163.9434383406331
 10
141.4779922131656
 20
164.0281123281065
 10
141.8166558652891
 20
164.1974387712065
 10
141.9859930743125
 20
164.4514392017799
 10
142.239993504886
 20
164.6207764108033
 10
142.409319947986
 20
164.8747768413768
 10
142.4939939354594
 20
165.1287772719502
 10
142.5786571570094
 20
165.3827777025236
 10
142.5786571570094
 20
165.6367781330971
  0
LWPOLYLINE
  5
CC
330
70
100
AcDbEntity
  8
Capa 1
 62
    18
420
        0
370
     9
100
AcDbPolyline
 90
       10
 70
     0
 43
0.0
 10
81.27999782649533
 20
165.6367781330971
 10
81.27999782649533
 20
165.5521041456237
 10
81.36466104804533
 20
165.2981037150502
 10
81.44932965255705
 20
165.1287772719502
 10
81.53399287410707
 20
164.8747768413768
 10
81.70333008313049
 20
164.6207764108033
 10
81.87266190919222
 20
164.4514392017799
 10
82.12666233976564
 20
164.1974387712065
 10
82.38066277033908
 20
164.0281123281065
 10
82.5499945964008
 20
163.9434383406331
  0
LWPOLYLINE
  5
CD
330
70
100
AcDbEntity
  8
Capa 1
 62
    18
420
        0
370
     9
100
AcDbPolyline
 90
       17
 70
     0
 43
0.0
 10
114.553989636075
 20
194.5081101673018
 10
114.384663192975
 20
194.5927733888518
 10
114.0459887749281
 20
194.7621213637986
 10
113.7073251228047
 20
194.8467845853486
 10
113.3686614706812
 20
194.9314478068986
 10
113.0299870526344
 20
195.0161110284487
 10
112.691323400511
 20
195.1007742499987
 10
112.2679965268375
 20
195.1007742499987
 10
111.9293221087906
 20
195.1007742499987
 10
111.5059952351172
 20
195.1007742499987
 10
111.1673208170703
 20
195.1007742499987
 10
110.7439939433969
 20
195.0161110284487
 10
110.4053302912734
 20
194.9314478068986
 10
110.0666558732266
 20
194.8467845853486
 10
109.7279922211031
 20
194.6774366104018
 10
109.4739917905297
 20
194.5927733888518
 10
109.3893285689797
 20
194.5081101673018
  0
LWPOLYLINE
  5
CE
330
70
100
AcDbEntity
  8
Capa 1
 62
    18
420
        0
370
     9
100
AcDbPolyline
 90
        5
 70
     0
 43
0.0
 10
109.3046545815063
 20
159.3714413562346
 10
110.4899935128234
 20
158.9481037166377
 10
111.9293221087906
 20
158.7787772735377
 10
113.3686614706812
 20
158.9481037166377
 10
114.6386636235484
 20
159.3714413562346
  0
LWPOLYLINE
  5
CF
330
70
100
AcDbEntity
  8
Capa 1
 62
    18
420
        0
370
     9
100
AcDbPolyline
 90
       17
 70
     0
 43
0.0
 10
109.3046545815063
 20
159.3714413562346
 10
109.2199913599563
 20
159.4561045777846
 10
108.9659909293828
 20
159.540778565258
 10
108.1193264161125
 20
160.0487794264049
 10
106.7646610416953
 20
160.8954439396752
 10
104.9866580276813
 20
161.911445661969
 10
102.8699913615438
 20
163.0967738273627
 10
100.5839874863828
 20
164.4514392017799
 10
95.50398964083754
 20
167.3301071596377
 10
90.42399179529223
 20
170.2934383390456
 10
88.13799330309299
 20
171.5634404919127
 10
86.02132663695551
 20
172.8334426447799
 10
84.24332900590314
 20
173.8494551329971
 10
82.88866363148596
 20
174.6114564247173
 10
82.04199373525394
 20
175.1194465199408
 10
81.7879933046805
 20
175.2041205074142
 10
81.70333008313049
 20
175.2887837289642
  0
LWPOLYLINE
  5
D0
330
70
100
AcDbEntity
  8
Capa 1
 62
    18
420
        0
370
     9
100
AcDbPolyline
 90
       17
 70
     0
 43
0.0
 10
142.1553195174126
 20
175.2887837289642
 10
142.0706562958625
 20
175.2041205074142
 10
141.8166558652891
 20
175.1194465199408
 10
140.9699913520188
 20
174.6114564247173
 10
139.6153259776016
 20
173.8494551329971
 10
137.8373229635875
 20
172.8334426447799
 10
135.8053195190001
 20
171.5634404919127
 10
133.4346631882125
 20
170.2934383390456
 10
128.4393285642172
 20
167.3301071596377
 10
123.3593199527485
 20
164.4514392017799
 10
120.9886636219609
 20
163.0967738273627
 10
118.9566601773734
 20
161.911445661969
 10
117.1786571633594
 20
160.8954439396752
 10
115.8239917889422
 20
160.0487794264049
 10
114.9773272756719
 20
159.540778565258
 10
114.7233268450984
 20
159.4561045777846
 10
114.6386636235484
 20
159.3714413562346
  0
SPLINE
  5
D1
330
70
100
AcDbEntity
  8
Capa 1
 62
    18
420
        0
370
     9
100
AcDbSpline
210
0.0
220
0.0
230
1.0
 70
    24
 71
     3
 72
     8
 73
     4
 74
     0
 42
0.0000000001
 43
0.0000000001
 40
0.0
 40
0.0
 40
0.0
 40
0.0
 40
1.0
 40
1.0
 40
1.0
 40
1.0
 10
81.7879933046805
 20
176.5587858818314
 30
0.0
 10
81.7879933046805
 20
176.5587858818314
 30
0.0
 10
81.87266190919222
 20
176.5587858818314
 30
0.0
 10
81.87266190919222
 20
176.5587858818314
 30
0.0
  0
SPLINE
  5
D2
330
70
100
AcDbEntity
  8
Capa 1
 62
    18
420
        0
370
     9
100
AcDbSpline
210
0.0
220
0.0
230
1.0
 70
    24
 71
     3
 72
     8
 73
     4
 74
     0
 42
0.0000000001
 43
0.0000000001
 40
0.0
 40
0.0
 40
0.0
 40
0.0
 40
1.0
 40
1.0
 40
1.0
 40
1.0
 10
143.2559952271797
 20
176.7281230908548
 30
0.0
 10
143.2559952271797
 20
176.7281230908548
 30
0.0
 10
143.3406584487297
 20
176.7281230908548
 30
0.0
 10
143.3406584487297
 20
176.7281230908548
 30
0.0
  0
SPLINE
  5
D3
330
70
100
AcDbEntity
  8
Capa 1
 62
    18
420
        0
370
     9
100
AcDbSpline
210
0.0
220
0.0
230
1.0
 70
    24
 71
     3
 72
     8
 73
     4
 74
     0
 42
0.0000000001
 43
0.0000000001
 40
0.0
 40
0.0
 40
0.0
 40
0.0
 40
1.0
 40
1.0
 40
1.0
 40
1.0
 10
142.5786571570094
 20
165.6367781330971
 30
0.0
 10
142.5786571570094
 20
165.6367781330971
 30
0.0
 10
142.6633203785594
 20
165.6367781330971
 30
0.0
 10
142.6633203785594
 20
165.6367781330971
 30
0.0
  0
LWPOLYLINE
  5
D4
330
70
100
AcDbEntity
  8
Capa 1
 62
    18
420
        0
370
     9
100
AcDbPolyline
 90
       17
 70
     0
 43
0.0
 10
141.3086550041422
 20
178.0827884652721
 10
141.2239917825922
 20
178.1674516868221
 10
141.0546545735688
 20
178.252114908372
 10
140.1233268387485
 20
178.7601157695189
 10
138.7686614643312
 20
179.6067802827893
 10
137.0753216718672
 20
180.622782005083
 10
134.9586550057297
 20
181.8081101704768
 10
132.6726618964922
 20
183.0781230892673
 10
127.6773272724969
 20
186.0414435027518
 10
122.5973294269516
 20
188.920122226533
 10
120.3113255517906
 20
190.2747768350268
 10
118.1946588856531
 20
191.4601050004206
 10
116.5013298591125
 20
192.4761067227143
 10
115.1466537187719
 20
193.238118780358
 10
114.2999892055016
 20
193.7461196415049
 10
114.0459887749281
 20
193.8307828630549
 10
113.9613255533781
 20
193.9154460846049
  0
LWPOLYLINE
  5
D5
330
70
100
AcDbEntity
  8
Capa 1
 62
    18
420
        0
370
     9
100
AcDbPolyline
 90
       17
 70
     0
 43
0.0
 10
109.9819926516766
 20
193.9154460846049
 10
109.8973294301266
 20
193.8307828630549
 10
109.6433289995531
 20
193.7461196415049
 10
108.7966537203594
 20
193.238118780358
 10
107.4419883459422
 20
192.4761067227143
 10
105.6639960978515
 20
191.4601050004206
 10
103.6319926532641
 20
190.2747768350268
 10
101.2613255565531
 20
188.920122226533
 10
96.26599093255785
 20
186.0414435027518
 10
91.27065630856256
 20
183.0781230892673
 10
88.8999945948133
 20
181.8081101704768
 10
86.86799653318752
 20
180.622782005083
 10
85.08999351917347
 20
179.6067802827893
 10
83.73532814475629
 20
178.7601157695189
 10
82.88866363148596
 20
178.252114908372
 10
82.63466320091252
 20
178.1674516868221
 10
82.5499945964008
 20
178.0827884652721
  0
LWPOLYLINE
  5
D6
330
70
100
AcDbEntity
  8
Capa 1
 62
    18
420
        0
370
     9
100
AcDbPolyline
 90
        3
 70
     0
 43
0.0
 10
108.9659909293828
 20
167.3301071596377
 10
108.2886636251359
 20
166.8221062984908
 10
107.780662763989
 20
166.0601050067706
  0
LWPOLYLINE
  5
D7
330
70
100
AcDbEntity
  8
Capa 1
 62
    18
420
        0
370
     9
100
AcDbPolyline
 90
       23
 70
     0
 43
0.0
 10
116.1626554410656
 20
166.0601050067706
 10
116.0779922195156
 20
166.144778994244
 10
115.9933289979656
 20
166.314105437344
 10
115.8239917889422
 20
166.5681058679174
 10
115.6546545799188
 20
166.8221062984908
 10
115.4006541493453
 20
166.9914435075143
 10
115.1466537187719
 20
167.1607699506143
 10
114.8079900666485
 20
167.4147703811877
 10
114.469326414525
 20
167.4994443686611
 10
114.1306627624016
 20
167.6687708117612
 10
113.7073251228047
 20
167.7534447992346
 10
113.3686614706812
 20
167.9227712423346
 10
112.9453238310844
 20
167.9227712423346
 10
112.5219969574109
 20
168.007445229808
 10
112.0986593178141
 20
168.007445229808
 10
111.5906584566672
 20
168.007445229808
 10
111.1673208170703
 20
168.007445229808
 10
110.7439939433969
 20
167.9227712423346
 10
110.4053302912734
 20
167.8381080207846
 10
109.9819926516766
 20
167.7534447992346
 10
109.5586550120797
 20
167.5841075902112
 10
109.2199913599563
 20
167.4994443686611
 10
108.9659909293828
 20
167.3301071596377
  0
LINE
  5
D8
330
70
100
AcDbEntity
  8
Capa 1
 62
    18
420
        0
370
     9
100
AcDbLine
 10
109.9819926516766
 20
165.7214413546471
 30
0.0
 11
109.3046545815063
 21
165.1287772719502
 31
0.0
  0
LWPOLYLINE
  5
D9
330
70
100
AcDbEntity
  8
Capa 1
 62
    18
420
        0
370
     9
100
AcDbPolyline
 90
       17
 70
     0
 43
0.0
 10
114.553989636075
 20
165.1287772719502
 10
114.469326414525
 20
165.2981037150502
 10
114.2999892055016
 20
165.4674409240737
 10
114.0459887749281
 20
165.6367781330971
 10
113.7919883443547
 20
165.8061045761971
 10
113.5379879137813
 20
165.8907785636705
 10
113.1993242616578
 20
165.9754417852205
 10
112.9453238310844
 20
166.0601050067706
 10
112.6066601789609
 20
166.144778994244
 10
112.1833225393641
 20
166.144778994244
 10
111.8446588872406
 20
166.144778994244
 10
111.5059952351172
 20
166.144778994244
 10
111.1673208170703
 20
166.144778994244
 10
110.8286571649469
 20
166.0601050067706
 10
110.4899935128234
 20
165.9754417852205
 10
110.23599308225
 20
165.8061045761971
 10
109.9819926516766
 20
165.7214413546471
  0
LWPOLYLINE
  5
DA
330
70
100
AcDbEntity
  8
Capa 1
 62
    18
420
        0
370
     9
100
AcDbPolyline
 90
        5
 70
     0
 43
0.0
 10
113.8766623318281
 20
164.9594400629268
 10
112.9453238310844
 20
165.2981037150502
 10
111.9293221087906
 20
165.3827777025236
 10
110.9979943739703
 20
165.2981037150502
 10
109.9819926516766
 20
164.9594400629268
  0
LWPOLYLINE
  5
DB
330
70
100
AcDbEntity
  8
Capa 1
 62
    18
420
        0
370
     9
100
AcDbPolyline
 90
       10
 70
     0
 43
0.0
 10
109.9819926516766
 20
183.5014391970174
 10
110.3206563038
 20
183.5861024185675
 10
110.7439939433969
 20
183.7554503935143
 10
111.1673208170703
 20
183.8401136150643
 10
111.6753216782172
 20
183.8401136150643
 10
112.0986593178141
 20
183.8401136150643
 10
112.6066601789609
 20
183.8401136150643
 10
113.0299870526344
 20
183.7554503935143
 10
113.4533246922313
 20
183.6707871719642
 10
113.9613255533781
 20
183.5014391970174
  0
LWPOLYLINE
  5
DC
330
70
100
AcDbEntity
  8
Capa 1
 62
    18
420
        0
370
     9
100
AcDbPolyline
 90
        5
 70
     0
 43
0.0
 10
113.9613255533781
 20
193.9154460846049
 10
113.0299870526344
 20
194.3387837242017
 10
111.9293221087906
 20
194.4234469457517
 10
110.9133203864969
 20
194.3387837242017
 10
109.9819926516766
 20
193.9154460846049
  0
LWPOLYLINE
  5
DD
330
70
100
AcDbEntity
  8
Capa 1
 62
    18
420
        0
370
     9
100
AcDbPolyline
 90
        5
 70
     0
 43
0.0
 10
142.0706562958625
 20
176.5587858818314
 10
142.239993504886
 20
176.9821127555049
 10
142.0706562958625
 20
177.4054503951018
 10
141.8166558652891
 20
177.8287880346986
 10
141.3086550041422
 20
178.0827884652721
  0
LWPOLYLINE
  5
DE
330
70
100
AcDbEntity
  8
Capa 1
 62
    18
420
        0
370
     9
100
AcDbPolyline
 90
        5
 70
     0
 43
0.0
 10
82.5499945964008
 20
178.0827884652721
 10
82.12666233976564
 20
177.8287880346986
 10
81.7879933046805
 20
177.4054503951018
 10
81.70333008313049
 20
176.9821127555049
 10
81.7879933046805
 20
176.5587858818314
  0
LWPOLYLINE
  5
DF
330
70
100
AcDbEntity
  8
Capa 1
 62
    18
420
        0
370
     9
100
AcDbPolyline
 90
        3
 70
     0
 43
0.0
 10
142.1553195174126
 20
175.2887837289642
 10
142.9173208091328
 20
175.9661217991345
 10
143.2559952271797
 20
176.7281230908548
  0
LWPOLYLINE
  5
E0
330
70
100
AcDbEntity
  8
Capa 1
 62
    18
420
        0
370
     9
100
AcDbPolyline
 90
        3
 70
     0
 43
0.0
 10
80.60265975632503
 20
176.7281230908548
 10
80.94132879141019
 20
175.9661217991345
 10
81.70333008313049
 20
175.2887837289642
  0
LWPOLYLINE
  5
E1
330
70
100
AcDbEntity
  8
Capa 1
 62
    18
420
        0
370
     9
100
AcDbPolyline
 90
        6
 70
     0
 43
0.0
 10
113.9613255533781
 20
183.5014391970174
 10
118.2793221072031
 20
180.8767716697331
 10
122.6819926485016
 20
178.252114908372
 10
127.0846631898
 20
175.7121213685611
 10
131.402659743625
 20
173.2567695184534
 10
134.1966537140094
 20
171.7327777009361
  0
LWPOLYLINE
  5
E2
330
70
100
AcDbEntity
  8
Capa 1
 62
    18
420
        0
370
     9
100
AcDbPolyline
 90
        6
 70
     0
 43
0.0
 10
89.74666449104532
 20
171.7327777009361
 10
90.76265544741568
 20
172.325441783633
 10
95.1653259887141
 20
174.7807828678174
 10
99.56799653001253
 20
177.3207871735517
 10
103.8859930838375
 20
179.8607807133627
 10
109.9819926516766
 20
183.5014391970174
  0
LWPOLYLINE
  5
E3
330
70
100
AcDbEntity
  8
Capa 1
 62
    18
420
        0
370
     9
100
AcDbPolyline
 90
       35
 70
     0
 43
0.0
 10
116.6706563022125
 20
167.0761067290643
 10
116.6706563022125
 20
167.4994443686611
 10
116.5859930806625
 20
167.7534447992346
 10
116.5013298591125
 20
168.007445229808
 10
116.3319926500891
 20
168.2614456603815
 10
116.1626554410656
 20
168.5154460909549
 10
115.9086550104922
 20
168.7694465215283
 10
115.6546545799188
 20
168.9387729646283
 10
115.4006541493453
 20
169.1927733952018
 10
115.0619904972219
 20
169.3621106042252
 10
114.6386636235484
 20
169.5314370473252
 10
114.2999892055016
 20
169.7007742563487
 10
113.8766623318281
 20
169.7854374778987
 10
113.4533246922313
 20
169.8701114653721
 10
113.0299870526344
 20
169.9547746869221
 10
112.6066601789609
 20
170.0394379084721
 10
112.0986593178141
 20
170.0394379084721
 10
111.6753216782172
 20
170.0394379084721
 10
111.2519948045438
 20
169.9547746869221
 10
110.7439939433969
 20
169.9547746869221
 10
110.3206563038
 20
169.8701114653721
 10
109.8973294301266
 20
169.7854374778987
 10
109.4739917905297
 20
169.6161110347986
 10
109.1353281384062
 20
169.4467738257752
 10
108.7966537203594
 20
169.2774366167518
 10
108.457990068236
 20
169.1081101736518
 10
108.2039896376625
 20
168.9387729646283
 10
107.9499892070891
 20
168.6847725340549
 10
107.6959887765156
 20
168.5154460909549
 10
107.5266623334156
 20
168.2614456603815
 10
107.3573251243922
 20
168.007445229808
 10
107.2726619028422
 20
167.7534447992346
 10
107.2726619028422
 20
167.4994443686611
 10
107.2726619028422
 20
167.1607699506143
 10
107.2726619028422
 20
167.0761067290643
  0
LINE
  5
E4
330
70
100
AcDbEntity
  8
Capa 1
 62
    18
420
        0
370
     9
100
AcDbLine
 10
111.9293221087906
 20
184.3481144762111
 30
0.0
 11
111.9293221087906
 21
194.0847725277049
 31
0.0
  0
LINE
  5
E5
330
70
100
AcDbEntity
  8
Capa 1
 62
    18
420
        0
370
     9
100
AcDbLine
 10
111.9293221087906
 20
148.5341075949737
 30
0.0
 11
111.9293221087906
 21
158.2707764123908
 31
0.0
  0
SPLINE
  5
E6
330
70
100
AcDbEntity
  8
Capa 1
 62
    18
420
        0
370
     9
100
AcDbSpline
210
0.0
220
0.0
230
1.0
 70
    24
 71
     3
 72
     8
 73
     4
 74
     0
 42
0.0000000001
 43
0.0000000001
 40
0.0
 40
0.0
 40
0.0
 40
0.0
 40
1.0
 40
1.0
 40
1.0
 40
1.0
 10
68.24132879458517
 20
102.5601050226455
 30
0.0
 10
68.24132879458517
 20
102.5601050226455
 30
0.0
 10
50.79999460433831
 20
92.40010933155494
 30
0.0
 10
50.79999460433831
 20
92.40010933155494
 30
0.0
  0
SPLINE
  5
E7
330
70
100
AcDbEntity
  8
Capa 1
 62
    18
420
        0
370
     9
100
AcDbSpline
210
0.0
220
0.0
230
1.0
 70
    24
 71
     3
 72
     8
 73
     4
 74
     0
 42
0.0000000001
 43
0.0000000001
 40
0.0
 40
0.0
 40
0.0
 40
0.0
 40
1.0
 40
1.0
 40
1.0
 40
1.0
 10
68.24132879458517
 20
160.6414435091018
 30
0.0
 10
68.24132879458517
 20
160.6414435091018
 30
0.0
 10
50.79999460433831
 20
150.4814370520877
 30
0.0
 10
50.79999460433831
 20
150.4814370520877
 30
0.0
  0
SPLINE
  5
E8
330
70
100
AcDbEntity
  8
Capa 1
 62
    18
420
        0
370
     9
100
AcDbSpline
210
0.0
220
0.0
230
1.0
 70
    24
 71
     3
 72
     8
 73
     4
 74
     0
 42
0.0000000001
 43
0.0000000001
 40
0.0
 40
0.0
 40
0.0
 40
0.0
 40
1.0
 40
1.0
 40
1.0
 40
1.0
 10
52.32399718777892
 20
96.80277987285336
 30
0.0
 10
52.32399718777892
 20
96.80277987285336
 30
0.0
 10
52.32399718777892
 20
147.8567802907268
 30
0.0
 10
52.32399718777892
 20
147.8567802907268
 30
0.0
  0
LWPOLYLINE
  5
E9
330
70
100
AcDbEntity
  8
Capa 1
100
AcDbPolyline
 90
        3
 70
     0
 43
0.0
 10
51.73132772212034
 20
96.80277987285336
 10
52.9166612704758
 20
96.80277987285336
 10
52.32399718777892
 20
93.33144783229865
  0
HATCH
  5
EA
330
70
100
AcDbEntity
  8
Capa 1
 62
    18
420
        0
440
 33554687
100
AcDbHatch
 10
0.0
 20
0.0
 30
0.0
210
0.0
220
0.0
230
1.0
  2
SOLID
 70
     1
 71
     1
 91
        1
 92
        3
 72
     0
 73
     1
 93
        3
 10
51.73132772212034
 20
96.80277987285336
 10
52.9166612704758
 20
96.80277987285336
 10
52.32399718777892
 20
93.33144783229865
 97
        0
 75
     0
 76
     1
 98
        1
 10
0.0
 20
0.0
450
        0
451
        0
460
0.0
461
0.0
452
        0
462
0.0
453
        0
470

  0
LWPOLYLINE
  5
EB
330
70
100
AcDbEntity
  8
Capa 1
100
AcDbPolyline
 90
        3
 70
     0
 43
0.0
 10
51.73132772212034
 20
147.8567802907268
 10
52.9166612704758
 20
147.8567802907268
 10
52.32399718777892
 20
151.4127755528315
  0
HATCH
  5
EC
330
70
100
AcDbEntity
  8
Capa 1
 62
    18
420
        0
440
 33554687
100
AcDbHatch
 10
0.0
 20
0.0
 30
0.0
210
0.0
220
0.0
230
1.0
  2
SOLID
 70
     1
 71
     1
 91
        1
 92
        3
 72
     0
 73
     1
 93
        3
 10
51.73132772212034
 20
147.8567802907268
 10
52.9166612704758
 20
147.8567802907268
 10
52.32399718777892
 20
151.4127755528315
 97
        0
 75
     0
 76
     1
 98
        1
 10
0.0
 20
0.0
450
        0
451
        0
460
0.0
461
0.0
452
        0
462
0.0
453
        0
470

  0
LWPOLYLINE
  5
ED
330
70
100
AcDbEntity
  8
Capa 1
100
AcDbPolyline
 90
       30
 70
     0
 43
0.0
 10
50.54599417376486
 20
120.9327777136361
 10
50.54599417376486
 20
120.6787772830627
 10
50.71533138278829
 20
120.6787772830627
 10
50.79999460433831
 20
120.6787772830627
 10
50.88466320885001
 20
120.7634405046127
 10
50.96933181336172
 20
120.8481037261627
 10
51.05399503491174
 20
120.8481037261627
 10
51.05399503491174
 20
120.9327777136361
 10
51.13866363942346
 20
120.9327777136361
 10
51.13866363942346
 20
121.0174409351862
 10
51.22332686097347
 20
121.1021041567362
 10
51.22332686097347
 20
121.1867781442096
 10
51.22332686097347
 20
121.2714413657596
 10
51.22332686097347
 20
121.3561045873096
 10
51.30799546548518
 20
121.440778574783
 10
51.22332686097347
 20
121.525441796333
 10
51.22332686097347
 20
121.610105017883
 10
51.22332686097347
 20
121.6947790053565
 10
51.22332686097347
 20
121.7794422269065
 10
51.13866363942346
 20
121.8641054484565
 10
51.13866363942346
 20
121.9487794359299
 10
51.05399503491174
 20
122.0334426574799
 10
51.05399503491174
 20
121.440778574783
 10
50.96933181336172
 20
121.3561045873096
 10
50.96933181336172
 20
121.2714413657596
 10
50.96933181336172
 20
121.1867781442096
 10
50.88466320885001
 20
121.1021041567362
 10
50.79999460433831
 20
121.1021041567362
 10
50.71533138278829
 20
121.0174409351862
 10
50.63066277827658
 20
121.0174409351862
  0
HATCH
  5
EE
330
70
100
AcDbEntity
  8
Capa 1
 62
    18
420
        0
440
 33554687
100
AcDbHatch
 10
0.0
 20
0.0
 30
0.0
210
0.0
220
0.0
230
1.0
  2
SOLID
 70
     1
 71
     1
 91
        1
 92
        3
 72
     0
 73
     1
 93
       30
 10
50.54599417376486
 20
120.9327777136361
 10
50.54599417376486
 20
120.6787772830627
 10
50.71533138278829
 20
120.6787772830627
 10
50.79999460433831
 20
120.6787772830627
 10
50.88466320885001
 20
120.7634405046127
 10
50.96933181336172
 20
120.8481037261627
 10
51.05399503491174
 20
120.8481037261627
 10
51.05399503491174
 20
120.9327777136361
 10
51.13866363942346
 20
120.9327777136361
 10
51.13866363942346
 20
121.0174409351862
 10
51.22332686097347
 20
121.1021041567362
 10
51.22332686097347
 20
121.1867781442096
 10
51.22332686097347
 20
121.2714413657596
 10
51.22332686097347
 20
121.3561045873096
 10
51.30799546548518
 20
121.440778574783
 10
51.22332686097347
 20
121.525441796333
 10
51.22332686097347
 20
121.610105017883
 10
51.22332686097347
 20
121.6947790053565
 10
51.22332686097347
 20
121.7794422269065
 10
51.13866363942346
 20
121.8641054484565
 10
51.13866363942346
 20
121.9487794359299
 10
51.05399503491174
 20
122.0334426574799
 10
51.05399503491174
 20
121.440778574783
 10
50.96933181336172
 20
121.3561045873096
 10
50.96933181336172
 20
121.2714413657596
 10
50.96933181336172
 20
121.1867781442096
 10
50.88466320885001
 20
121.1021041567362
 10
50.79999460433831
 20
121.1021041567362
 10
50.71533138278829
 20
121.0174409351862
 10
50.63066277827658
 20
121.0174409351862
 97
        0
 75
     0
 76
     1
 98
        1
 10
0.0
 20
0.0
450
        0
451
        0
460
0.0
461
0.0
452
        0
462
0.0
453
        0
470

  0
LWPOLYLINE
  5
EF
330
70
100
AcDbEntity
  8
Capa 1
100
AcDbPolyline
 90
       39
 70
     0
 43
0.0
 10
49.78399826500626
 20
122.1181058790299
 10
49.86866148655628
 20
121.440778574783
 10
49.86866148655628
 20
121.6947790053565
 10
49.95333009106798
 20
121.6947790053565
 10
49.95333009106798
 20
121.7794422269065
 10
50.03799869557969
 20
121.8641054484565
 10
50.12266191712971
 20
121.9487794359299
 10
50.20733052164143
 20
121.9487794359299
 10
50.29199374319143
 20
121.9487794359299
 10
50.37666234770314
 20
121.9487794359299
 10
50.46133095221486
 20
121.9487794359299
 10
50.54599417376486
 20
121.9487794359299
 10
50.63066277827658
 20
121.9487794359299
 10
50.71533138278829
 20
121.9487794359299
 10
50.71533138278829
 20
121.8641054484565
 10
50.79999460433831
 20
121.8641054484565
 10
50.88466320885001
 20
121.8641054484565
 10
50.88466320885001
 20
121.7794422269065
 10
50.96933181336172
 20
121.6947790053565
 10
50.96933181336172
 20
121.610105017883
 10
50.96933181336172
 20
121.525441796333
 10
51.05399503491174
 20
121.440778574783
 10
51.05399503491174
 20
122.0334426574799
 10
50.96933181336172
 20
122.1181058790299
 10
50.88466320885001
 20
122.1181058790299
 10
50.79999460433831
 20
122.2027798665033
 10
50.71533138278829
 20
122.2027798665033
 10
50.63066277827658
 20
122.2874430880533
 10
50.54599417376486
 20
122.2874430880533
 10
50.46133095221486
 20
122.2874430880533
 10
50.37666234770314
 20
122.2874430880533
 10
50.29199374319143
 20
122.2874430880533
 10
50.20733052164143
 20
122.2874430880533
 10
50.12266191712971
 20
122.2874430880533
 10
50.03799869557969
 20
122.2874430880533
 10
50.03799869557969
 20
122.2027798665033
 10
49.95333009106798
 20
122.2027798665033
 10
49.86866148655628
 20
122.2027798665033
 10
49.86866148655628
 20
122.1181058790299
  0
HATCH
  5
F0
330
70
100
AcDbEntity
  8
Capa 1
 62
    18
420
        0
440
 33554687
100
AcDbHatch
 10
0.0
 20
0.0
 30
0.0
210
0.0
220
0.0
230
1.0
  2
SOLID
 70
     1
 71
     1
 91
        1
 92
        3
 72
     0
 73
     1
 93
       39
 10
49.78399826500626
 20
122.1181058790299
 10
49.86866148655628
 20
121.440778574783
 10
49.86866148655628
 20
121.6947790053565
 10
49.95333009106798
 20
121.6947790053565
 10
49.95333009106798
 20
121.7794422269065
 10
50.03799869557969
 20
121.8641054484565
 10
50.12266191712971
 20
121.9487794359299
 10
50.20733052164143
 20
121.9487794359299
 10
50.29199374319143
 20
121.9487794359299
 10
50.37666234770314
 20
121.9487794359299
 10
50.46133095221486
 20
121.9487794359299
 10
50.54599417376486
 20
121.9487794359299
 10
50.63066277827658
 20
121.9487794359299
 10
50.71533138278829
 20
121.9487794359299
 10
50.71533138278829
 20
121.8641054484565
 10
50.79999460433831
 20
121.8641054484565
 10
50.88466320885001
 20
121.8641054484565
 10
50.88466320885001
 20
121.7794422269065
 10
50.96933181336172
 20
121.6947790053565
 10
50.96933181336172
 20
121.610105017883
 10
50.96933181336172
 20
121.525441796333
 10
51.05399503491174
 20
121.440778574783
 10
51.05399503491174
 20
122.0334426574799
 10
50.96933181336172
 20
122.1181058790299
 10
50.88466320885001
 20
122.1181058790299
 10
50.79999460433831
 20
122.2027798665033
 10
50.71533138278829
 20
122.2027798665033
 10
50.63066277827658
 20
122.2874430880533
 10
50.54599417376486
 20
122.2874430880533
 10
50.46133095221486
 20
122.2874430880533
 10
50.37666234770314
 20
122.2874430880533
 10
50.29199374319143
 20
122.2874430880533
 10
50.20733052164143
 20
122.2874430880533
 10
50.12266191712971
 20
122.2874430880533
 10
50.03799869557969
 20
122.2874430880533
 10
50.03799869557969
 20
122.2027798665033
 10
49.95333009106798
 20
122.2027798665033
 10
49.86866148655628
 20
122.2027798665033
 10
49.86866148655628
 20
122.1181058790299
 97
        0
 75
     0
 76
     1
 98
        1
 10
0.0
 20
0.0
450
        0
451
        0
460
0.0
461
0.0
452
        0
462
0.0
453
        0
470

  0
LWPOLYLINE
  5
F1
330
70
100
AcDbEntity
  8
Capa 1
100
AcDbPolyline
 90
       12
 70
     0
 43
0.0
 10
49.61466105598283
 20
121.525441796333
 10
49.61466105598283
 20
121.525441796333
 10
49.61466105598283
 20
121.2714413657596
 10
49.69932966049455
 20
121.1867781442096
 10
49.69932966049455
 20
121.1021041567362
 10
49.69932966049455
 20
121.0174409351862
 10
49.78399826500626
 20
122.0334426574799
 10
49.69932966049455
 20
121.9487794359299
 10
49.61466105598283
 20
121.8641054484565
 10
49.61466105598283
 20
121.7794422269065
 10
49.61466105598283
 20
121.6947790053565
 10
49.61466105598283
 20
121.610105017883
  0
HATCH
  5
F2
330
70
100
AcDbEntity
  8
Capa 1
 62
    18
420
        0
440
 33554687
100
AcDbHatch
 10
0.0
 20
0.0
 30
0.0
210
0.0
220
0.0
230
1.0
  2
SOLID
 70
     1
 71
     1
 91
        1
 92
        3
 72
     0
 73
     1
 93
       12
 10
49.61466105598283
 20
121.525441796333
 10
49.61466105598283
 20
121.525441796333
 10
49.61466105598283
 20
121.2714413657596
 10
49.69932966049455
 20
121.1867781442096
 10
49.69932966049455
 20
121.1021041567362
 10
49.69932966049455
 20
121.0174409351862
 10
49.78399826500626
 20
122.0334426574799
 10
49.69932966049455
 20
121.9487794359299
 10
49.61466105598283
 20
121.8641054484565
 10
49.61466105598283
 20
121.7794422269065
 10
49.61466105598283
 20
121.6947790053565
 10
49.61466105598283
 20
121.610105017883
 97
        0
 75
     0
 76
     1
 98
        1
 10
0.0
 20
0.0
450
        0
451
        0
460
0.0
461
0.0
452
        0
462
0.0
453
        0
470

  0
LWPOLYLINE
  5
F3
330
70
100
AcDbEntity
  8
Capa 1
100
AcDbPolyline
 90
       16
 70
     0
 43
0.0
 10
48.76799654271252
 20
122.2027798665033
 10
48.76799654271252
 20
120.9327777136361
 10
50.03799869557969
 20
120.6787772830627
 10
50.12266191712971
 20
121.0174409351862
 10
50.03799869557969
 20
121.0174409351862
 10
49.95333009106798
 20
121.1021041567362
 10
49.95333009106798
 20
121.1867781442096
 10
49.86866148655628
 20
121.1867781442096
 10
49.86866148655628
 20
121.2714413657596
 10
49.86866148655628
 20
121.3561045873096
 10
49.86866148655628
 20
121.440778574783
 10
49.78399826500626
 20
122.1181058790299
 10
49.78399826500626
 20
122.0334426574799
 10
49.69932966049455
 20
121.0174409351862
 10
49.02199697328595
 20
121.1867781442096
 10
49.02199697328595
 20
122.2027798665033
  0
HATCH
  5
F4
330
70
100
AcDbEntity
  8
Capa 1
 62
    18
420
        0
440
 33554687
100
AcDbHatch
 10
0.0
 20
0.0
 30
0.0
210
0.0
220
0.0
230
1.0
  2
SOLID
 70
     1
 71
     1
 91
        1
 92
        3
 72
     0
 73
     1
 93
       16
 10
48.76799654271252
 20
122.2027798665033
 10
48.76799654271252
 20
120.9327777136361
 10
50.03799869557969
 20
120.6787772830627
 10
50.12266191712971
 20
121.0174409351862
 10
50.03799869557969
 20
121.0174409351862
 10
49.95333009106798
 20
121.1021041567362
 10
49.95333009106798
 20
121.1867781442096
 10
49.86866148655628
 20
121.1867781442096
 10
49.86866148655628
 20
121.2714413657596
 10
49.86866148655628
 20
121.3561045873096
 10
49.86866148655628
 20
121.440778574783
 10
49.78399826500626
 20
122.1181058790299
 10
49.78399826500626
 20
122.0334426574799
 10
49.69932966049455
 20
121.0174409351862
 10
49.02199697328595
 20
121.1867781442096
 10
49.02199697328595
 20
122.2027798665033
 97
        0
 75
     0
 76
     1
 98
        1
 10
0.0
 20
0.0
450
        0
451
        0
460
0.0
461
0.0
452
        0
462
0.0
453
        0
470

  0
LWPOLYLINE
  5
F5
330
70
100
AcDbEntity
  8
Capa 1
100
AcDbPolyline
 90
       50
 70
     0
 43
0.0
 10
50.03799869557969
 20
123.980772114594
 10
50.03799869557969
 20
123.3881080318971
 10
50.03799869557969
 20
123.6421084624705
 10
50.12266191712971
 20
123.7267716840205
 10
50.12266191712971
 20
123.811445671494
 10
50.20733052164143
 20
123.811445671494
 10
50.29199374319143
 20
123.896108893044
 10
50.37666234770314
 20
123.896108893044
 10
50.46133095221486
 20
123.896108893044
 10
50.54599417376486
 20
123.896108893044
 10
50.63066277827658
 20
123.896108893044
 10
50.71533138278829
 20
123.896108893044
 10
50.79999460433831
 20
123.896108893044
 10
50.79999460433831
 20
123.811445671494
 10
50.88466320885001
 20
123.811445671494
 10
50.88466320885001
 20
123.7267716840205
 10
50.96933181336172
 20
123.6421084624705
 10
50.96933181336172
 20
123.5574452409205
 10
50.96933181336172
 20
123.4727712534471
 10
51.05399503491174
 20
123.3881080318971
 10
51.05399503491174
 20
122.7954439492002
 10
51.05399503491174
 20
122.8801071707502
 10
51.13866363942346
 20
122.8801071707502
 10
51.13866363942346
 20
122.9647703923002
 10
51.13866363942346
 20
123.0494443797736
 10
51.22332686097347
 20
123.0494443797736
 10
51.22332686097347
 20
123.1341076013237
 10
51.22332686097347
 20
123.2187708228737
 10
51.22332686097347
 20
123.3034448103471
 10
51.30799546548518
 20
123.3881080318971
 10
51.22332686097347
 20
123.4727712534471
 10
51.22332686097347
 20
123.5574452409205
 10
51.22332686097347
 20
123.6421084624705
 10
51.22332686097347
 20
123.7267716840205
 10
51.22332686097347
 20
123.811445671494
 10
51.13866363942346
 20
123.896108893044
 10
51.05399503491174
 20
123.980772114594
 10
50.96933181336172
 20
124.0654461020674
 10
50.88466320885001
 20
124.1501093236174
 10
50.79999460433831
 20
124.1501093236174
 10
50.71533138278829
 20
124.2347725451674
 10
50.63066277827658
 20
124.2347725451674
 10
50.54599417376486
 20
124.2347725451674
 10
50.46133095221486
 20
124.2347725451674
 10
50.37666234770314
 20
124.2347725451674
 10
50.29199374319143
 20
124.2347725451674
 10
50.20733052164143
 20
124.1501093236174
 10
50.12266191712971
 20
124.1501093236174
 10
50.12266191712971
 20
124.0654461020674
 10
50.03799869557969
 20
124.0654461020674
  0
HATCH
  5
F6
330
70
100
AcDbEntity
  8
Capa 1
 62
    18
420
        0
440
 33554687
100
AcDbHatch
 10
0.0
 20
0.0
 30
0.0
210
0.0
220
0.0
230
1.0
  2
SOLID
 70
     1
 71
     1
 91
        1
 92
        3
 72
     0
 73
     1
 93
       50
 10
50.03799869557969
 20
123.980772114594
 10
50.03799869557969
 20
123.3881080318971
 10
50.03799869557969
 20
123.6421084624705
 10
50.12266191712971
 20
123.7267716840205
 10
50.12266191712971
 20
123.811445671494
 10
50.20733052164143
 20
123.811445671494
 10
50.29199374319143
 20
123.896108893044
 10
50.37666234770314
 20
123.896108893044
 10
50.46133095221486
 20
123.896108893044
 10
50.54599417376486
 20
123.896108893044
 10
50.63066277827658
 20
123.896108893044
 10
50.71533138278829
 20
123.896108893044
 10
50.79999460433831
 20
123.896108893044
 10
50.79999460433831
 20
123.811445671494
 10
50.88466320885001
 20
123.811445671494
 10
50.88466320885001
 20
123.7267716840205
 10
50.96933181336172
 20
123.6421084624705
 10
50.96933181336172
 20
123.5574452409205
 10
50.96933181336172
 20
123.4727712534471
 10
51.05399503491174
 20
123.3881080318971
 10
51.05399503491174
 20
122.7954439492002
 10
51.05399503491174
 20
122.8801071707502
 10
51.13866363942346
 20
122.8801071707502
 10
51.13866363942346
 20
122.9647703923002
 10
51.13866363942346
 20
123.0494443797736
 10
51.22332686097347
 20
123.0494443797736
 10
51.22332686097347
 20
123.1341076013237
 10
51.22332686097347
 20
123.2187708228737
 10
51.22332686097347
 20
123.3034448103471
 10
51.30799546548518
 20
123.3881080318971
 10
51.22332686097347
 20
123.4727712534471
 10
51.22332686097347
 20
123.5574452409205
 10
51.22332686097347
 20
123.6421084624705
 10
51.22332686097347
 20
123.7267716840205
 10
51.22332686097347
 20
123.811445671494
 10
51.13866363942346
 20
123.896108893044
 10
51.05399503491174
 20
123.980772114594
 10
50.96933181336172
 20
124.0654461020674
 10
50.88466320885001
 20
124.1501093236174
 10
50.79999460433831
 20
124.1501093236174
 10
50.71533138278829
 20
124.2347725451674
 10
50.63066277827658
 20
124.2347725451674
 10
50.54599417376486
 20
124.2347725451674
 10
50.46133095221486
 20
124.2347725451674
 10
50.37666234770314
 20
124.2347725451674
 10
50.29199374319143
 20
124.2347725451674
 10
50.20733052164143
 20
124.1501093236174
 10
50.12266191712971
 20
124.1501093236174
 10
50.12266191712971
 20
124.0654461020674
 10
50.03799869557969
 20
124.0654461020674
 97
        0
 75
     0
 76
     1
 98
        1
 10
0.0
 20
0.0
450
        0
451
        0
460
0.0
461
0.0
452
        0
462
0.0
453
        0
470

  0
LWPOLYLINE
  5
F7
330
70
100
AcDbEntity
  8
Capa 1
100
AcDbPolyline
 90
       26
 70
     0
 43
0.0
 10
48.93732836877424
 20
123.980772114594
 10
48.93732836877424
 20
123.3881080318971
 10
49.02199697328595
 20
123.4727712534471
 10
49.02199697328595
 20
123.6421084624705
 10
49.10666019483596
 20
123.7267716840205
 10
49.19132879934767
 20
123.811445671494
 10
49.27599740385939
 20
123.811445671494
 10
49.3606606254094
 20
123.811445671494
 10
49.44532922992111
 20
123.811445671494
 10
49.52999783443282
 20
123.811445671494
 10
49.61466105598283
 20
123.7267716840205
 10
49.69932966049455
 20
123.6421084624705
 10
49.69932966049455
 20
123.5574452409205
 10
49.78399826500626
 20
123.4727712534471
 10
49.78399826500626
 20
123.3881080318971
 10
49.78399826500626
 20
123.980772114594
 10
49.69932966049455
 20
123.980772114594
 10
49.69932966049455
 20
124.0654461020674
 10
49.61466105598283
 20
124.0654461020674
 10
49.52999783443282
 20
124.1501093236174
 10
49.44532922992111
 20
124.1501093236174
 10
49.3606606254094
 20
124.1501093236174
 10
49.27599740385939
 20
124.1501093236174
 10
49.19132879934767
 20
124.1501093236174
 10
49.10666019483596
 20
124.0654461020674
 10
49.02199697328595
 20
124.0654461020674
  0
HATCH
  5
F8
330
70
100
AcDbEntity
  8
Capa 1
 62
    18
420
        0
440
 33554687
100
AcDbHatch
 10
0.0
 20
0.0
 30
0.0
210
0.0
220
0.0
230
1.0
  2
SOLID
 70
     1
 71
     1
 91
        1
 92
        3
 72
     0
 73
     1
 93
       26
 10
48.93732836877424
 20
123.980772114594
 10
48.93732836877424
 20
123.3881080318971
 10
49.02199697328595
 20
123.4727712534471
 10
49.02199697328595
 20
123.6421084624705
 10
49.10666019483596
 20
123.7267716840205
 10
49.19132879934767
 20
123.811445671494
 10
49.27599740385939
 20
123.811445671494
 10
49.3606606254094
 20
123.811445671494
 10
49.44532922992111
 20
123.811445671494
 10
49.52999783443282
 20
123.811445671494
 10
49.61466105598283
 20
123.7267716840205
 10
49.69932966049455
 20
123.6421084624705
 10
49.69932966049455
 20
123.5574452409205
 10
49.78399826500626
 20
123.4727712534471
 10
49.78399826500626
 20
123.3881080318971
 10
49.78399826500626
 20
123.980772114594
 10
49.69932966049455
 20
123.980772114594
 10
49.69932966049455
 20
124.0654461020674
 10
49.61466105598283
 20
124.0654461020674
 10
49.52999783443282
 20
124.1501093236174
 10
49.44532922992111
 20
124.1501093236174
 10
49.3606606254094
 20
124.1501093236174
 10
49.27599740385939
 20
124.1501093236174
 10
49.19132879934767
 20
124.1501093236174
 10
49.10666019483596
 20
124.0654461020674
 10
49.02199697328595
 20
124.0654461020674
 97
        0
 75
     0
 76
     1
 98
        1
 10
0.0
 20
0.0
450
        0
451
        0
460
0.0
461
0.0
452
        0
462
0.0
453
        0
470

  0
LWPOLYLINE
  5
F9
330
70
100
AcDbEntity
  8
Capa 1
100
AcDbPolyline
 90
       91
 70
     0
 43
0.0
 10
48.76799654271252
 20
123.3881080318971
 10
48.76799654271252
 20
123.3881080318971
 10
48.76799654271252
 20
123.0494443797736
 10
48.85266514722423
 20
122.9647703923002
 10
48.93732836877424
 20
122.8801071707502
 10
49.02199697328595
 20
122.7954439492002
 10
49.10666019483596
 20
122.7107807276502
 10
49.19132879934767
 20
122.7107807276502
 10
49.27599740385939
 20
122.7107807276502
 10
49.3606606254094
 20
122.7107807276502
 10
49.44532922992111
 20
122.7107807276502
 10
49.52999783443282
 20
122.7107807276502
 10
49.61466105598283
 20
122.7954439492002
 10
49.69932966049455
 20
122.7954439492002
 10
49.78399826500626
 20
122.8801071707502
 10
49.78399826500626
 20
122.9647703923002
 10
49.86866148655628
 20
122.9647703923002
 10
49.86866148655628
 20
123.0494443797736
 10
49.86866148655628
 20
122.9647703923002
 10
49.95333009106798
 20
122.9647703923002
 10
49.95333009106798
 20
122.8801071707502
 10
50.03799869557969
 20
122.7954439492002
 10
50.12266191712971
 20
122.7107807276502
 10
50.20733052164143
 20
122.7107807276502
 10
50.20733052164143
 20
122.6261067401768
 10
50.29199374319143
 20
122.6261067401768
 10
50.37666234770314
 20
122.6261067401768
 10
50.46133095221486
 20
122.6261067401768
 10
50.54599417376486
 20
122.6261067401768
 10
50.63066277827658
 20
122.6261067401768
 10
50.71533138278829
 20
122.6261067401768
 10
50.79999460433831
 20
122.6261067401768
 10
50.88466320885001
 20
122.7107807276502
 10
50.96933181336172
 20
122.7107807276502
 10
50.96933181336172
 20
122.7954439492002
 10
51.05399503491174
 20
122.7954439492002
 10
51.05399503491174
 20
123.3881080318971
 10
50.96933181336172
 20
123.3881080318971
 10
50.96933181336172
 20
123.3034448103471
 10
50.96933181336172
 20
123.2187708228737
 10
50.96933181336172
 20
123.1341076013237
 10
50.88466320885001
 20
123.1341076013237
 10
50.88466320885001
 20
123.0494443797736
 10
50.79999460433831
 20
123.0494443797736
 10
50.79999460433831
 20
122.9647703923002
 10
50.71533138278829
 20
122.9647703923002
 10
50.63066277827658
 20
122.9647703923002
 10
50.54599417376486
 20
122.8801071707502
 10
50.46133095221486
 20
122.8801071707502
 10
50.37666234770314
 20
122.9647703923002
 10
50.29199374319143
 20
122.9647703923002
 10
50.20733052164143
 20
123.0494443797736
 10
50.12266191712971
 20
123.0494443797736
 10
50.12266191712971
 20
123.1341076013237
 10
50.03799869557969
 20
123.1341076013237
 10
50.03799869557969
 20
123.2187708228737
 10
50.03799869557969
 20
123.3034448103471
 10
50.03799869557969
 20
123.3881080318971
 10
50.03799869557969
 20
123.980772114594
 10
49.95333009106798
 20
123.980772114594
 10
49.95333009106798
 20
123.896108893044
 10
49.86866148655628
 20
123.811445671494
 10
49.86866148655628
 20
123.7267716840205
 10
49.86866148655628
 20
123.811445671494
 10
49.78399826500626
 20
123.896108893044
 10
49.78399826500626
 20
123.980772114594
 10
49.78399826500626
 20
123.3881080318971
 10
49.78399826500626
 20
123.3034448103471
 10
49.69932966049455
 20
123.2187708228737
 10
49.69932966049455
 20
123.1341076013237
 10
49.61466105598283
 20
123.1341076013237
 10
49.61466105598283
 20
123.0494443797736
 10
49.52999783443282
 20
123.0494443797736
 10
49.44532922992111
 20
123.0494443797736
 10
49.3606606254094
 20
123.0494443797736
 10
49.27599740385939
 20
123.0494443797736
 10
49.19132879934767
 20
123.0494443797736
 10
49.10666019483596
 20
123.0494443797736
 10
49.10666019483596
 20
123.1341076013237
 10
49.02199697328595
 20
123.1341076013237
 10
49.02199697328595
 20
123.2187708228737
 10
49.02199697328595
 20
123.3034448103471
 10
48.93732836877424
 20
123.3881080318971
 10
48.93732836877424
 20
123.980772114594
 10
48.93732836877424
 20
123.896108893044
 10
48.85266514722423
 20
123.896108893044
 10
48.85266514722423
 20
123.811445671494
 10
48.76799654271252
 20
123.7267716840205
 10
48.76799654271252
 20
123.6421084624705
 10
48.76799654271252
 20
123.5574452409205
 10
48.76799654271252
 20
123.4727712534471
  0
HATCH
  5
FA
330
70
100
AcDbEntity
  8
Capa 1
 62
    18
420
        0
440
 33554687
100
AcDbHatch
 10
0.0
 20
0.0
 30
0.0
210
0.0
220
0.0
230
1.0
  2
SOLID
 70
     1
 71
     1
 91
        1
 92
        3
 72
     0
 73
     1
 93
       91
 10
48.76799654271252
 20
123.3881080318971
 10
48.76799654271252
 20
123.3881080318971
 10
48.76799654271252
 20
123.0494443797736
 10
48.85266514722423
 20
122.9647703923002
 10
48.93732836877424
 20
122.8801071707502
 10
49.02199697328595
 20
122.7954439492002
 10
49.10666019483596
 20
122.7107807276502
 10
49.19132879934767
 20
122.7107807276502
 10
49.27599740385939
 20
122.7107807276502
 10
49.3606606254094
 20
122.7107807276502
 10
49.44532922992111
 20
122.7107807276502
 10
49.52999783443282
 20
122.7107807276502
 10
49.61466105598283
 20
122.7954439492002
 10
49.69932966049455
 20
122.7954439492002
 10
49.78399826500626
 20
122.8801071707502
 10
49.78399826500626
 20
122.9647703923002
 10
49.86866148655628
 20
122.9647703923002
 10
49.86866148655628
 20
123.0494443797736
 10
49.86866148655628
 20
122.9647703923002
 10
49.95333009106798
 20
122.9647703923002
 10
49.95333009106798
 20
122.8801071707502
 10
50.03799869557969
 20
122.7954439492002
 10
50.12266191712971
 20
122.7107807276502
 10
50.20733052164143
 20
122.7107807276502
 10
50.20733052164143
 20
122.6261067401768
 10
50.29199374319143
 20
122.6261067401768
 10
50.37666234770314
 20
122.6261067401768
 10
50.46133095221486
 20
122.6261067401768
 10
50.54599417376486
 20
122.6261067401768
 10
50.63066277827658
 20
122.6261067401768
 10
50.71533138278829
 20
122.6261067401768
 10
50.79999460433831
 20
122.6261067401768
 10
50.88466320885001
 20
122.7107807276502
 10
50.96933181336172
 20
122.7107807276502
 10
50.96933181336172
 20
122.7954439492002
 10
51.05399503491174
 20
122.7954439492002
 10
51.05399503491174
 20
123.3881080318971
 10
50.96933181336172
 20
123.3881080318971
 10
50.96933181336172
 20
123.3034448103471
 10
50.96933181336172
 20
123.2187708228737
 10
50.96933181336172
 20
123.1341076013237
 10
50.88466320885001
 20
123.1341076013237
 10
50.88466320885001
 20
123.0494443797736
 10
50.79999460433831
 20
123.0494443797736
 10
50.79999460433831
 20
122.9647703923002
 10
50.71533138278829
 20
122.9647703923002
 10
50.63066277827658
 20
122.9647703923002
 10
50.54599417376486
 20
122.8801071707502
 10
50.46133095221486
 20
122.8801071707502
 10
50.37666234770314
 20
122.9647703923002
 10
50.29199374319143
 20
122.9647703923002
 10
50.20733052164143
 20
123.0494443797736
 10
50.12266191712971
 20
123.0494443797736
 10
50.12266191712971
 20
123.1341076013237
 10
50.03799869557969
 20
123.1341076013237
 10
50.03799869557969
 20
123.2187708228737
 10
50.03799869557969
 20
123.3034448103471
 10
50.03799869557969
 20
123.3881080318971
 10
50.03799869557969
 20
123.980772114594
 10
49.95333009106798
 20
123.980772114594
 10
49.95333009106798
 20
123.896108893044
 10
49.86866148655628
 20
123.811445671494
 10
49.86866148655628
 20
123.7267716840205
 10
49.86866148655628
 20
123.811445671494
 10
49.78399826500626
 20
123.896108893044
 10
49.78399826500626
 20
123.980772114594
 10
49.78399826500626
 20
123.3881080318971
 10
49.78399826500626
 20
123.3034448103471
 10
49.69932966049455
 20
123.2187708228737
 10
49.69932966049455
 20
123.1341076013237
 10
49.61466105598283
 20
123.1341076013237
 10
49.61466105598283
 20
123.0494443797736
 10
49.52999783443282
 20
123.0494443797736
 10
49.44532922992111
 20
123.0494443797736
 10
49.3606606254094
 20
123.0494443797736
 10
49.27599740385939
 20
123.0494443797736
 10
49.19132879934767
 20
123.0494443797736
 10
49.10666019483596
 20
123.0494443797736
 10
49.10666019483596
 20
123.1341076013237
 10
49.02199697328595
 20
123.1341076013237
 10
49.02199697328595
 20
123.2187708228737
 10
49.02199697328595
 20
123.3034448103471
 10
48.93732836877424
 20
123.3881080318971
 10
48.93732836877424
 20
123.980772114594
 10
48.93732836877424
 20
123.896108893044
 10
48.85266514722423
 20
123.896108893044
 10
48.85266514722423
 20
123.811445671494
 10
48.76799654271252
 20
123.7267716840205
 10
48.76799654271252
 20
123.6421084624705
 10
48.76799654271252
 20
123.5574452409205
 10
48.76799654271252
 20
123.4727712534471
 97
        0
 75
     0
 76
     1
 98
        1
 10
0.0
 20
0.0
450
        0
451
        0
460
0.0
461
0.0
452
        0
462
0.0
453
        0
470

  0
LWPOLYLINE
  5
FB
330
70
100
AcDbEntity
  8
Capa 1
100
AcDbPolyline
 90
       58
 70
     0
 43
0.0
 10
48.93732836877424
 20
124.8274473937877
 10
49.02199697328595
 20
124.7427734063143
 10
49.10666019483596
 20
124.7427734063143
 10
49.19132879934767
 20
124.6581101847643
 10
49.27599740385939
 20
124.6581101847643
 10
49.3606606254094
 20
124.6581101847643
 10
49.44532922992111
 20
124.5734469632143
 10
49.52999783443282
 20
124.5734469632143
 10
49.61466105598283
 20
124.5734469632143
 10
49.69932966049455
 20
124.5734469632143
 10
49.78399826500626
 20
124.5734469632143
 10
49.86866148655628
 20
124.5734469632143
 10
49.95333009106798
 20
124.5734469632143
 10
50.03799869557969
 20
124.5734469632143
 10
50.12266191712971
 20
124.5734469632143
 10
50.20733052164143
 20
124.5734469632143
 10
50.29199374319143
 20
124.5734469632143
 10
50.37666234770314
 20
124.5734469632143
 10
50.46133095221486
 20
124.5734469632143
 10
50.54599417376486
 20
124.5734469632143
 10
50.63066277827658
 20
124.6581101847643
 10
50.71533138278829
 20
124.6581101847643
 10
50.79999460433831
 20
124.6581101847643
 10
50.88466320885001
 20
124.7427734063143
 10
50.96933181336172
 20
124.7427734063143
 10
50.96933181336172
 20
124.8274473937877
 10
51.05399503491174
 20
124.8274473937877
 10
51.05399503491174
 20
125.3354374890112
 10
50.96933181336172
 20
125.2507742674612
 10
50.96933181336172
 20
125.1661110459111
 10
50.88466320885001
 20
125.0814370584377
 10
50.79999460433831
 20
124.9967738368877
 10
50.71533138278829
 20
124.9967738368877
 10
50.71533138278829
 20
124.9121106153377
 10
50.63066277827658
 20
124.9121106153377
 10
50.54599417376486
 20
124.9121106153377
 10
50.46133095221486
 20
124.9121106153377
 10
50.37666234770314
 20
124.9121106153377
 10
50.29199374319143
 20
124.9121106153377
 10
50.20733052164143
 20
124.8274473937877
 10
50.12266191712971
 20
124.8274473937877
 10
50.03799869557969
 20
124.8274473937877
 10
49.95333009106798
 20
124.8274473937877
 10
49.86866148655628
 20
124.8274473937877
 10
49.78399826500626
 20
124.8274473937877
 10
49.69932966049455
 20
124.9121106153377
 10
49.61466105598283
 20
124.9121106153377
 10
49.52999783443282
 20
124.9121106153377
 10
49.44532922992111
 20
124.9121106153377
 10
49.3606606254094
 20
124.9121106153377
 10
49.27599740385939
 20
124.9121106153377
 10
49.27599740385939
 20
124.9967738368877
 10
49.19132879934767
 20
124.9967738368877
 10
49.10666019483596
 20
125.0814370584377
 10
49.02199697328595
 20
125.0814370584377
 10
49.02199697328595
 20
125.1661110459111
 10
49.02199697328595
 20
125.2507742674612
 10
49.02199697328595
 20
125.3354374890112
  0
HATCH
  5
FC
330
70
100
AcDbEntity
  8
Capa 1
 62
    18
420
        0
440
 33554687
100
AcDbHatch
 10
0.0
 20
0.0
 30
0.0
210
0.0
220
0.0
230
1.0
  2
SOLID
 70
     1
 71
     1
 91
        1
 92
        3
 72
     0
 73
     1
 93
       58
 10
48.93732836877424
 20
124.8274473937877
 10
49.02199697328595
 20
124.7427734063143
 10
49.10666019483596
 20
124.7427734063143
 10
49.19132879934767
 20
124.6581101847643
 10
49.27599740385939
 20
124.6581101847643
 10
49.3606606254094
 20
124.6581101847643
 10
49.44532922992111
 20
124.5734469632143
 10
49.52999783443282
 20
124.5734469632143
 10
49.61466105598283
 20
124.5734469632143
 10
49.69932966049455
 20
124.5734469632143
 10
49.78399826500626
 20
124.5734469632143
 10
49.86866148655628
 20
124.5734469632143
 10
49.95333009106798
 20
124.5734469632143
 10
50.03799869557969
 20
124.5734469632143
 10
50.12266191712971
 20
124.5734469632143
 10
50.20733052164143
 20
124.5734469632143
 10
50.29199374319143
 20
124.5734469632143
 10
50.37666234770314
 20
124.5734469632143
 10
50.46133095221486
 20
124.5734469632143
 10
50.54599417376486
 20
124.5734469632143
 10
50.63066277827658
 20
124.6581101847643
 10
50.71533138278829
 20
124.6581101847643
 10
50.79999460433831
 20
124.6581101847643
 10
50.88466320885001
 20
124.7427734063143
 10
50.96933181336172
 20
124.7427734063143
 10
50.96933181336172
 20
124.8274473937877
 10
51.05399503491174
 20
124.8274473937877
 10
51.05399503491174
 20
125.3354374890112
 10
50.96933181336172
 20
125.2507742674612
 10
50.96933181336172
 20
125.1661110459111
 10
50.88466320885001
 20
125.0814370584377
 10
50.79999460433831
 20
124.9967738368877
 10
50.71533138278829
 20
124.9967738368877
 10
50.71533138278829
 20
124.9121106153377
 10
50.63066277827658
 20
124.9121106153377
 10
50.54599417376486
 20
124.9121106153377
 10
50.46133095221486
 20
124.9121106153377
 10
50.37666234770314
 20
124.9121106153377
 10
50.29199374319143
 20
124.9121106153377
 10
50.20733052164143
 20
124.8274473937877
 10
50.12266191712971
 20
124.8274473937877
 10
50.03799869557969
 20
124.8274473937877
 10
49.95333009106798
 20
124.8274473937877
 10
49.86866148655628
 20
124.8274473937877
 10
49.78399826500626
 20
124.8274473937877
 10
49.69932966049455
 20
124.9121106153377
 10
49.61466105598283
 20
124.9121106153377
 10
49.52999783443282
 20
124.9121106153377
 10
49.44532922992111
 20
124.9121106153377
 10
49.3606606254094
 20
124.9121106153377
 10
49.27599740385939
 20
124.9121106153377
 10
49.27599740385939
 20
124.9967738368877
 10
49.19132879934767
 20
124.9967738368877
 10
49.10666019483596
 20
125.0814370584377
 10
49.02199697328595
 20
125.0814370584377
 10
49.02199697328595
 20
125.1661110459111
 10
49.02199697328595
 20
125.2507742674612
 10
49.02199697328595
 20
125.3354374890112
 97
        0
 75
     0
 76
     1
 98
        1
 10
0.0
 20
0.0
450
        0
451
        0
460
0.0
461
0.0
452
        0
462
0.0
453
        0
470

  0
LWPOLYLINE
  5
FD
330
70
100
AcDbEntity
  8
Capa 1
100
AcDbPolyline
 90
       86
 70
     0
 43
0.0
 10
48.76799654271252
 20
125.3354374890112
 10
48.76799654271252
 20
125.3354374890112
 10
48.76799654271252
 20
124.9967738368877
 10
48.85266514722423
 20
124.9967738368877
 10
48.85266514722423
 20
124.9121106153377
 10
48.93732836877424
 20
124.8274473937877
 10
49.02199697328595
 20
125.3354374890112
 10
49.02199697328595
 20
125.4201114764846
 10
49.02199697328595
 20
125.5047746980346
 10
49.02199697328595
 20
125.5894379195846
 10
49.10666019483596
 20
125.5894379195846
 10
49.10666019483596
 20
125.674111907058
 10
49.19132879934767
 20
125.674111907058
 10
49.19132879934767
 20
125.758775128608
 10
49.27599740385939
 20
125.758775128608
 10
49.3606606254094
 20
125.758775128608
 10
49.44532922992111
 20
125.843438350158
 10
49.52999783443282
 20
125.843438350158
 10
49.61466105598283
 20
125.843438350158
 10
49.69932966049455
 20
125.843438350158
 10
49.78399826500626
 20
125.843438350158
 10
49.86866148655628
 20
125.843438350158
 10
50.03799869557969
 20
125.843438350158
 10
50.12266191712971
 20
125.843438350158
 10
50.20733052164143
 20
125.843438350158
 10
50.29199374319143
 20
125.843438350158
 10
50.37666234770314
 20
125.843438350158
 10
50.46133095221486
 20
125.843438350158
 10
50.54599417376486
 20
125.843438350158
 10
50.63066277827658
 20
125.758775128608
 10
50.71533138278829
 20
125.758775128608
 10
50.79999460433831
 20
125.758775128608
 10
50.79999460433831
 20
125.674111907058
 10
50.88466320885001
 20
125.674111907058
 10
50.96933181336172
 20
125.5894379195846
 10
50.96933181336172
 20
125.5047746980346
 10
50.96933181336172
 20
125.4201114764846
 10
51.05399503491174
 20
125.3354374890112
 10
51.05399503491174
 20
124.8274473937877
 10
51.13866363942346
 20
124.9121106153377
 10
51.13866363942346
 20
124.9967738368877
 10
51.22332686097347
 20
124.9967738368877
 10
51.22332686097347
 20
125.0814370584377
 10
51.22332686097347
 20
125.1661110459111
 10
51.22332686097347
 20
125.2507742674612
 10
51.30799546548518
 20
125.3354374890112
 10
51.22332686097347
 20
125.3354374890112
 10
51.22332686097347
 20
125.4201114764846
 10
51.22332686097347
 20
125.5047746980346
 10
51.22332686097347
 20
125.5894379195846
 10
51.22332686097347
 20
125.674111907058
 10
51.13866363942346
 20
125.758775128608
 10
51.13866363942346
 20
125.843438350158
 10
51.05399503491174
 20
125.843438350158
 10
51.05399503491174
 20
125.9281123376315
 10
50.96933181336172
 20
125.9281123376315
 10
50.88466320885001
 20
126.0127755591815
 10
50.79999460433831
 20
126.0127755591815
 10
50.71533138278829
 20
126.0974387807315
 10
50.63066277827658
 20
126.0974387807315
 10
50.54599417376486
 20
126.0974387807315
 10
50.46133095221486
 20
126.0974387807315
 10
50.37666234770314
 20
126.1821127682049
 10
50.29199374319143
 20
126.1821127682049
 10
50.20733052164143
 20
126.1821127682049
 10
50.12266191712971
 20
126.1821127682049
 10
50.03799869557969
 20
126.1821127682049
 10
49.95333009106798
 20
126.1821127682049
 10
49.86866148655628
 20
126.1821127682049
 10
49.78399826500626
 20
126.1821127682049
 10
49.69932966049455
 20
126.1821127682049
 10
49.61466105598283
 20
126.1821127682049
 10
49.52999783443282
 20
126.0974387807315
 10
49.44532922992111
 20
126.0974387807315
 10
49.3606606254094
 20
126.0974387807315
 10
49.27599740385939
 20
126.0974387807315
 10
49.19132879934767
 20
126.0127755591815
 10
49.10666019483596
 20
126.0127755591815
 10
49.02199697328595
 20
125.9281123376315
 10
48.93732836877424
 20
125.843438350158
 10
48.85266514722423
 20
125.843438350158
 10
48.85266514722423
 20
125.758775128608
 10
48.76799654271252
 20
125.674111907058
 10
48.76799654271252
 20
125.5894379195846
 10
48.76799654271252
 20
125.5047746980346
 10
48.76799654271252
 20
125.4201114764846
  0
HATCH
  5
FE
330
70
100
AcDbEntity
  8
Capa 1
 62
    18
420
        0
440
 33554687
100
AcDbHatch
 10
0.0
 20
0.0
 30
0.0
210
0.0
220
0.0
230
1.0
  2
SOLID
 70
     1
 71
     1
 91
        1
 92
        3
 72
     0
 73
     1
 93
       86
 10
48.76799654271252
 20
125.3354374890112
 10
48.76799654271252
 20
125.3354374890112
 10
48.76799654271252
 20
124.9967738368877
 10
48.85266514722423
 20
124.9967738368877
 10
48.85266514722423
 20
124.9121106153377
 10
48.93732836877424
 20
124.8274473937877
 10
49.02199697328595
 20
125.3354374890112
 10
49.02199697328595
 20
125.4201114764846
 10
49.02199697328595
 20
125.5047746980346
 10
49.02199697328595
 20
125.5894379195846
 10
49.10666019483596
 20
125.5894379195846
 10
49.10666019483596
 20
125.674111907058
 10
49.19132879934767
 20
125.674111907058
 10
49.19132879934767
 20
125.758775128608
 10
49.27599740385939
 20
125.758775128608
 10
49.3606606254094
 20
125.758775128608
 10
49.44532922992111
 20
125.843438350158
 10
49.52999783443282
 20
125.843438350158
 10
49.61466105598283
 20
125.843438350158
 10
49.69932966049455
 20
125.843438350158
 10
49.78399826500626
 20
125.843438350158
 10
49.86866148655628
 20
125.843438350158
 10
50.03799869557969
 20
125.843438350158
 10
50.12266191712971
 20
125.843438350158
 10
50.20733052164143
 20
125.843438350158
 10
50.29199374319143
 20
125.843438350158
 10
50.37666234770314
 20
125.843438350158
 10
50.46133095221486
 20
125.843438350158
 10
50.54599417376486
 20
125.843438350158
 10
50.63066277827658
 20
125.758775128608
 10
50.71533138278829
 20
125.758775128608
 10
50.79999460433831
 20
125.758775128608
 10
50.79999460433831
 20
125.674111907058
 10
50.88466320885001
 20
125.674111907058
 10
50.96933181336172
 20
125.5894379195846
 10
50.96933181336172
 20
125.5047746980346
 10
50.96933181336172
 20
125.4201114764846
 10
51.05399503491174
 20
125.3354374890112
 10
51.05399503491174
 20
124.8274473937877
 10
51.13866363942346
 20
124.9121106153377
 10
51.13866363942346
 20
124.9967738368877
 10
51.22332686097347
 20
124.9967738368877
 10
51.22332686097347
 20
125.0814370584377
 10
51.22332686097347
 20
125.1661110459111
 10
51.22332686097347
 20
125.2507742674612
 10
51.30799546548518
 20
125.3354374890112
 10
51.22332686097347
 20
125.3354374890112
 10
51.22332686097347
 20
125.4201114764846
 10
51.22332686097347
 20
125.5047746980346
 10
51.22332686097347
 20
125.5894379195846
 10
51.22332686097347
 20
125.674111907058
 10
51.13866363942346
 20
125.758775128608
 10
51.13866363942346
 20
125.843438350158
 10
51.05399503491174
 20
125.843438350158
 10
51.05399503491174
 20
125.9281123376315
 10
50.96933181336172
 20
125.9281123376315
 10
50.88466320885001
 20
126.0127755591815
 10
50.79999460433831
 20
126.0127755591815
 10
50.71533138278829
 20
126.0974387807315
 10
50.63066277827658
 20
126.0974387807315
 10
50.54599417376486
 20
126.0974387807315
 10
50.46133095221486
 20
126.0974387807315
 10
50.37666234770314
 20
126.1821127682049
 10
50.29199374319143
 20
126.1821127682049
 10
50.20733052164143
 20
126.1821127682049
 10
50.12266191712971
 20
126.1821127682049
 10
50.03799869557969
 20
126.1821127682049
 10
49.95333009106798
 20
126.1821127682049
 10
49.86866148655628
 20
126.1821127682049
 10
49.78399826500626
 20
126.1821127682049
 10
49.69932966049455
 20
126.1821127682049
 10
49.61466105598283
 20
126.1821127682049
 10
49.52999783443282
 20
126.0974387807315
 10
49.44532922992111
 20
126.0974387807315
 10
49.3606606254094
 20
126.0974387807315
 10
49.27599740385939
 20
126.0974387807315
 10
49.19132879934767
 20
126.0127755591815
 10
49.10666019483596
 20
126.0127755591815
 10
49.02199697328595
 20
125.9281123376315
 10
48.93732836877424
 20
125.843438350158
 10
48.85266514722423
 20
125.843438350158
 10
48.85266514722423
 20
125.758775128608
 10
48.76799654271252
 20
125.674111907058
 10
48.76799654271252
 20
125.5894379195846
 10
48.76799654271252
 20
125.5047746980346
 10
48.76799654271252
 20
125.4201114764846
 97
        0
 75
     0
 76
     1
 98
        1
 10
0.0
 20
0.0
450
        0
451
        0
460
0.0
461
0.0
452
        0
462
0.0
453
        0
470

  0
SPLINE
  5
FF
330
70
100
AcDbEntity
  8
Capa 1
 62
    18
420
        0
370
     9
100
AcDbSpline
210
0.0
220
0.0
230
1.0
 70
    24
 71
     3
 72
     8
 73
     4
 74
     0
 42
0.0000000001
 43
0.0000000001
 40
0.0
 40
0.0
 40
0.0
 40
0.0
 40
1.0
 40
1.0
 40
1.0
 40
1.0
 10
155.1939939322844
 20
164.2821127586799
 30
0.0
 10
155.1939939322844
 20
164.2821127586799
 30
0.0
 10
155.1939939322844
 20
161.8267716744955
 30
0.0
 10
155.1939939322844
 20
161.8267716744955
 30
0.0
  0
SPLINE
  5
100
330
70
100
AcDbEntity
  8
Capa 1
 62
    18
420
        0
370
     9
100
AcDbSpline
210
0.0
220
0.0
230
1.0
 70
    24
 71
     3
 72
     8
 73
     4
 74
     0
 42
0.0000000001
 43
0.0000000001
 40
0.0
 40
0.0
 40
0.0
 40
0.0
 40
1.0
 40
1.0
 40
1.0
 40
1.0
 10
155.9559952240047
 20
164.7054396323533
 30
0.0
 10
155.9559952240047
 20
164.7054396323533
 30
0.0
 10
155.9559952240047
 20
162.2501093140924
 30
0.0
 10
155.9559952240047
 20
162.2501093140924
 30
0.0
  0
SPLINE
  5
101
330
70
100
AcDbEntity
  8
Capa 1
 62
    18
420
        0
370
     9
100
AcDbSpline
210
0.0
220
0.0
230
1.0
 70
    24
 71
     3
 72
     8
 73
     4
 74
     0
 42
0.0000000001
 43
0.0000000001
 40
0.0
 40
0.0
 40
0.0
 40
0.0
 40
1.0
 40
1.0
 40
1.0
 40
1.0
 10
157.3953238199719
 20
165.4674409240737
 30
0.0
 10
157.3953238199719
 20
165.4674409240737
 30
0.0
 10
157.3953238199719
 20
162.9274366183393
 30
0.0
 10
157.3953238199719
 20
162.9274366183393
 30
0.0
  0
LWPOLYLINE
  5
102
330
70
100
AcDbEntity
  8
Capa 1
 62
    18
420
        0
370
     9
100
AcDbPolyline
 90
        3
 70
     0
 43
0.0
 10
68.24132879458517
 20
159.0327777041111
 10
107.2726619028422
 20
136.5114456683189
 10
158.7499891943891
 20
166.229442215794
  0
LWPOLYLINE
  5
103
330
70
100
AcDbEntity
  8
Capa 1
 62
    18
420
        0
370
     9
100
AcDbPolyline
 90
        5
 70
     0
 43
0.0
 10
81.19532922198361
 20
168.007445229808
 10
68.24132879458517
 20
160.6414435091018
 10
107.2726619028422
 20
138.1201114733096
 10
158.7499891943891
 20
167.8381080207846
 10
143.2559952271797
 20
176.8127863124049
  0
SPLINE
  5
104
330
70
100
AcDbEntity
  8
Capa 1
 62
    18
420
        0
370
     9
100
AcDbSpline
210
0.0
220
0.0
230
1.0
 70
    24
 71
     3
 72
     8
 73
     4
 74
     0
 42
0.0000000001
 43
0.0000000001
 40
0.0
 40
0.0
 40
0.0
 40
0.0
 40
1.0
 40
1.0
 40
1.0
 40
1.0
 10
158.7499891943891
 20
166.229442215794
 30
0.0
 10
158.7499891943891
 20
166.229442215794
 30
0.0
 10
158.7499891943891
 20
167.8381080207846
 30
0.0
 10
158.7499891943891
 20
167.8381080207846
 30
0.0
  0
SPLINE
  5
105
330
70
100
AcDbEntity
  8
Capa 1
 62
    18
420
        0
370
     9
100
AcDbSpline
210
0.0
220
0.0
230
1.0
 70
    24
 71
     3
 72
     8
 73
     4
 74
     0
 42
0.0000000001
 43
0.0000000001
 40
0.0
 40
0.0
 40
0.0
 40
0.0
 40
1.0
 40
1.0
 40
1.0
 40
1.0
 10
68.24132879458517
 20
159.0327777041111
 30
0.0
 10
68.24132879458517
 20
159.0327777041111
 30
0.0
 10
68.24132879458517
 20
160.6414435091018
 30
0.0
 10
68.24132879458517
 20
160.6414435091018
 30
0.0
  0
SPLINE
  5
106
330
70
100
AcDbEntity
  8
Capa 1
 62
    18
420
        0
370
     9
100
AcDbSpline
210
0.0
220
0.0
230
1.0
 70
    24
 71
     3
 72
     8
 73
     4
 74
     0
 42
0.0000000001
 43
0.0000000001
 40
0.0
 40
0.0
 40
0.0
 40
0.0
 40
1.0
 40
1.0
 40
1.0
 40
1.0
 10
107.2726619028422
 20
136.5114456683189
 30
0.0
 10
107.2726619028422
 20
136.5114456683189
 30
0.0
 10
107.2726619028422
 20
138.1201114733096
 30
0.0
 10
107.2726619028422
 20
138.1201114733096
 30
0.0
  0
ENDSEC
  0
SECTION
  2
OBJECTS
  0
DICTIONARY
  5
C
330
0
100
AcDbDictionary
281
     1
  3
ACAD_COLOR
350
63
  3
ACAD_DETAILVIEWSTYLE
350
6A
  3
ACAD_GROUP
350
D
  3
ACAD_LAYOUT
350
62
  3
ACAD_MATERIAL
350
10
  3
ACAD_MLEADERSTYLE
350
66
  3
ACAD_MLINESTYLE
350
5F
  3
ACAD_PLOTSETTINGS
350
61
  3
ACAD_PLOTSTYLENAME
350
E
  3
ACAD_SCALELIST
350
42
  3
ACAD_SECTIONVIEWSTYLE
350
68
  3
ACAD_TABLESTYLE
350
64
  3
ACAD_VISUALSTYLE
350
29
  3
ACDB_RECOMPOSE_DATA
350
10F
  3
AcDbVariableDictionary
350
107
  0
DICTIONARY
  5
63
102
{ACAD_REACTORS
330
C
102
}
330
C
100
AcDbDictionary
281
     1
  0
DICTIONARY
  5
6A
102
{ACAD_REACTORS
330
C
102
}
330
C
100
AcDbDictionary
281
     1
  3
Imperial24
350
6B
  0
DICTIONARY
  5
D
102
{ACAD_REACTORS
330
C
102
}
330
C
100
AcDbDictionary
281
     1
  0
DICTIONARY
  5
62
102
{ACAD_REACTORS
330
C
102
}
330
C
100
AcDbDictionary
281
     1
  3
Layout1
350
6F
  3
Layout2
350
77
  3
Model
350
73
  0
DICTIONARY
  5
10
102
{ACAD_REACTORS
330
C
102
}
330
C
100
AcDbDictionary
281
     1
  3
ByBlock
350
19
  3
ByLayer
350
11
  3
Global
350
21
  0
DICTIONARY
  5
66
102
{ACAD_REACTORS
330
C
102
}
330
C
100
AcDbDictionary
281
     1
  3
Standard
350
67
  0
DICTIONARY
  5
5F
102
{ACAD_REACTORS
330
C
102
}
330
C
100
AcDbDictionary
281
     1
  3
Standard
350
60
  0
DICTIONARY
  5
61
102
{ACAD_REACTORS
330
C
102
}
330
C
100
AcDbDictionary
281
     1
  0
ACDBDICTIONARYWDFLT
  5
E
102
{ACAD_REACTORS
330
C
102
}
330
C
100
AcDbDictionary
281
     1
  3
Normal
350
F
100
AcDbDictionaryWithDefault
340
F
  0
DICTIONARY
  5
42
102
{ACAD_REACTORS
330
C
102
}
330
C
100
AcDbDictionary
281
     1
  3
A0
350
43
  3
A1
350
44
  3
A2
350
45
  3
A3
350
46
  3
A4
350
47
  3
A5
350
48
  3
A6
350
49
  3
A7
350
4A
  3
A8
350
4B
  3
A9
350
4C
  3
B0
350
4D
  3
B1
350
4E
  3
B2
350
4F
  3
B3
350
50
  3
B4
350
51
  3
B5
350
52
  3
B6
350
53
  0
DICTIONARY
  5
68
102
{ACAD_REACTORS
330
C
102
}
330
C
100
AcDbDictionary
281
     1
  3
Imperial24
350
69
  0
DICTIONARY
  5
64
102
{ACAD_REACTORS
330
C
102
}
330
C
100
AcDbDictionary
281
     1
  3
Standard
350
65
  0
DICTIONARY
  5
29
102
{ACAD_REACTORS
330
C
102
}
330
C
100
AcDbDictionary
281
     1
  3
2dWireframe
350
2F
  3
Basic
350
2E
  3
Brighten
350
35
  3
ColorChange
350
39
  3
Conceptual
350
32
  3
Dim
350
34
  3
EdgeColorOff
350
41
  3
Facepattern
350
38
  3
Flat
350
2A
  3
FlatWithEdges
350
2B
  3
Gouraud
350
2C
  3
GouraudWithEdges
350
2D
  3
Hidden
350
31
  3
JitterOff
350
3F
  3
Linepattern
350
37
  3
OverhangOff
350
40
  3
Realistic
350
33
  3
Shaded
350
3E
  3
Shaded with edges
350
3D
  3
Shades of Gray
350
3A
  3
Sketchy
350
3B
  3
Thicken
350
36
  3
Wireframe
350
30
  3
X-Ray
350
3C
  0
XRECORD
  5
10F
102
{ACAD_REACTORS
330
C
102
}
330
C
100
AcDbXrecord
280
     1
 90
        1
330
65
  0
DICTIONARY
  5
107
102
{ACAD_REACTORS
330
C
102
}
330
C
100
AcDbDictionary
281
     1
  3
CANNOSCALE
350
10C
  3
CMLEADERSTYLE
350
109
  3
CTABLESTYLE
350
108
  3
CVIEWDETAILSTYLE
350
10A
  3
CVIEWSECTIONSTYLE
350
10B
  0
ACDBDETAILVIEWSTYLE
  5
6B
102
{ACAD_XDICTIONARY
360
144
102
}
102
{ACAD_REACTORS
330
6A
102
}
330
6A
100
AcDbModelDocViewStyle
 70
     0
  3
Imperial24
290
     0
100
AcDbDetailViewStyle
 70
     0
 71
     0
 90
        3
 71
     1
340
55
 62
   256
 40
0.24
340
0
 62
   256
 40
0.24
300

 40
0.36
280
     3
 71
     2
340
5D
 90
       25
 62
   256
 71
     3
340
55
 62
   256
 40
0.24
 90
        1
 40
0.75
 90
        1
300
%<\AcVar ViewType \f "%tc1">% %<\AcVar ViewDetailId>%\PSCALE %<\AcVar ViewScale \f "%sn">%
 71
     4
340
5D
 90
       25
 62
   256
340
5D
 90
       25
 62
   256
280
     0
  0
LAYOUT
  5
6F
102
{ACAD_REACTORS
330
62
102
}
330
62
100
AcDbPlotSettings
  1

  2

  4

  6

 40
0.0
 41
0.0
 42
0.0
 43
0.0
 44
0.0
 45
0.0
 46
0.0
 47
0.0
 48
0.0
 49
0.0
140
0.0
141
0.0
142
1.0
143
1.0
 70
   688
 72
     0
 73
     0
 74
     5
  7

 75
    16
147
1.0
 76
     0
 77
     2
 78
   300
148
0.0
149
0.0
100
AcDbLayout
  1
Layout1
 70
     1
 71
     1
 10
0.0
 20
0.0
 11
12.0
 21
9.0
 12
0.0
 22
0.0
 32
0.0
 14
0.0
 24
0.0
 34
0.0
 15
0.0
 25
0.0
 35
0.0
146
0.0
 13
0.0
 23
0.0
 33
0.0
 16
1.0
 26
0.0
 36
0.0
 17
0.0
 27
1.0
 37
0.0
 76
     0
330
6C
  0
LAYOUT
  5
77
102
{ACAD_REACTORS
330
62
102
}
330
62
100
AcDbPlotSettings
  1

  2

  4

  6

 40
0.0
 41
0.0
 42
0.0
 43
0.0
 44
0.0
 45
0.0
 46
0.0
 47
0.0
 48
0.0
 49
0.0
140
0.0
141
0.0
142
1.0
143
1.0
 70
   688
 72
     0
 73
     0
 74
     5
  7

 75
    16
147
1.0
 76
     0
 77
     2
 78
   300
148
0.0
149
0.0
100
AcDbLayout
  1
Layout2
 70
     1
 71
     2
 10
0.0
 20
0.0
 11
12.0
 21
9.0
 12
0.0
 22
0.0
 32
0.0
 14
0.0
 24
0.0
 34
0.0
 15
0.0
 25
0.0
 35
0.0
146
0.0
 13
0.0
 23
0.0
 33
0.0
 16
1.0
 26
0.0
 36
0.0
 17
0.0
 27
1.0
 37
0.0
 76
     0
330
74
  0
LAYOUT
  5
73
102
{ACAD_REACTORS
330
62
102
}
330
62
100
AcDbPlotSettings
  1

  2

  4

  6

 40
0.0
 41
0.0
 42
0.0
 43
0.0
 44
0.0
 45
0.0
 46
0.0
 47
0.0
 48
0.0
 49
0.0
140
0.0
141
0.0
142
1.0
143
1.0
 70
  1712
 72
     0
 73
     0
 74
     0
  7

 75
     0
147
1.0
 76
     0
 77
     2
 78
   300
148
0.0
149
0.0
100
AcDbLayout
  1
Model
 70
     1
 71
     0
 10
0.0
 20
0.0
 11
12.0
 21
9.0
 12
0.0
 22
0.0
 32
0.0
 14
0.0
 24
0.0
 34
0.0
 15
0.0
 25
0.0
 35
0.0
146
0.0
 13
0.0
 23
0.0
 33
0.0
 16
1.0
 26
0.0
 36
0.0
 17
0.0
 27
1.0
 37
0.0
 76
     0
330
70
  0
MATERIAL
  5
19
102
{ACAD_XDICTIONARY
360
1A
102
}
102
{ACAD_REACTORS
330
10
102
}
330
10
100
AcDbMaterial
  1
ByBlock
 72
     0
 43
0.0208333333333333
 43
0.0
 43
0.0
 43
0.0
 43
0.0
 43
0.0208333333333333
 43
0.0
 43
0.0
 43
0.0
 43
0.0
 43
1.0
 43
0.0
 43
0.0
 43
0.0
 43
0.0
 43
1.0
 77
     0
 47
0.0208333333333333
 47
0.0
 47
0.0
 47
0.0
 47
0.0
 47
0.0208333333333333
 47
0.0
 47
0.0
 47
0.0
 47
0.0
 47
1.0
 47
0.0
 47
0.0
 47
0.0
 47
0.0
 47
1.0
171
     0
 49
0.0208333333333333
 49
0.0
 49
0.0
 49
0.0
 49
0.0
 49
0.0208333333333333
 49
0.0
 49
0.0
 49
0.0
 49
0.0
 49
1.0
 49
0.0
 49
0.0
 49
0.0
 49
0.0
 49
1.0
175
     0
142
0.0208333333333333
142
0.0
142
0.0
142
0.0
142
0.0
142
0.0208333333333333
142
0.0
142
0.0
142
0.0
142
0.0
142
1.0
142
0.0
142
0.0
142
0.0
142
0.0
142
1.0
179
     0
144
0.0208333333333333
144
0.0
144
0.0
144
0.0
144
0.0
144
0.0208333333333333
144
0.0
144
0.0
144
0.0
144
0.0
144
1.0
144
0.0
144
0.0
144
0.0
144
0.0
144
1.0
147
0.0208333333333333
147
0.0
147
0.0
147
0.0
147
0.0
147
0.0208333333333333
147
0.0
147
0.0
147
0.0
147
0.0
147
1.0
147
0.0
147
0.0
147
0.0
147
0.0
147
1.0
  0
MATERIAL
  5
11
102
{ACAD_XDICTIONARY
360
12
102
}
102
{ACAD_REACTORS
330
10
102
}
330
10
100
AcDbMaterial
  1
ByLayer
 72
     0
 43
0.0208333333333333
 43
0.0
 43
0.0
 43
0.0
 43
0.0
 43
0.0208333333333333
 43
0.0
 43
0.0
 43
0.0
 43
0.0
 43
1.0
 43
0.0
 43
0.0
 43
0.0
 43
0.0
 43
1.0
 77
     0
 47
0.0208333333333333
 47
0.0
 47
0.0
 47
0.0
 47
0.0
 47
0.0208333333333333
 47
0.0
 47
0.0
 47
0.0
 47
0.0
 47
1.0
 47
0.0
 47
0.0
 47
0.0
 47
0.0
 47
1.0
171
     0
 49
0.0208333333333333
 49
0.0
 49
0.0
 49
0.0
 49
0.0
 49
0.0208333333333333
 49
0.0
 49
0.0
 49
0.0
 49
0.0
 49
1.0
 49
0.0
 49
0.0
 49
0.0
 49
0.0
 49
1.0
175
     0
142
0.0208333333333333
142
0.0
142
0.0
142
0.0
142
0.0
142
0.0208333333333333
142
0.0
142
0.0
142
0.0
142
0.0
142
1.0
142
0.0
142
0.0
142
0.0
142
0.0
142
1.0
179
     0
144
0.0208333333333333
144
0.0
144
0.0
144
0.0
144
0.0
144
0.0208333333333333
144
0.0
144
0.0
144
0.0
144
0.0
144
1.0
144
0.0
144
0.0
144
0.0
144
0.0
144
1.0
147
0.0208333333333333
147
0.0
147
0.0
147
0.0
147
0.0
147
0.0208333333333333
147
0.0
147
0.0
147
0.0
147
0.0
147
1.0
147
0.0
147
0.0
147
0.0
147
0.0
147
1.0
  0
MATERIAL
  5
21
102
{ACAD_XDICTIONARY
360
22
102
}
102
{ACAD_REACTORS
330
10
102
}
330
10
100
AcDbMaterial
  1
Global
 72
     0
 43
0.0208333333333333
 43
0.0
 43
0.0
 43
0.0
 43
0.0
 43
0.0208333333333333
 43
0.0
 43
0.0
 43
0.0
 43
0.0
 43
1.0
 43
0.0
 43
0.0
 43
0.0
 43
0.0
 43
1.0
 77
     0
 47
0.0208333333333333
 47
0.0
 47
0.0
 47
0.0
 47
0.0
 47
0.0208333333333333
 47
0.0
 47
0.0
 47
0.0
 47
0.0
 47
1.0
 47
0.0
 47
0.0
 47
0.0
 47
0.0
 47
1.0
171
     0
 49
0.0208333333333333
 49
0.0
 49
0.0
 49
0.0
 49
0.0
 49
0.0208333333333333
 49
0.0
 49
0.0
 49
0.0
 49
0.0
 49
1.0
 49
0.0
 49
0.0
 49
0.0
 49
0.0
 49
1.0
175
     0
142
0.0208333333333333
142
0.0
142
0.0
142
0.0
142
0.0
142
0.0208333333333333
142
0.0
142
0.0
142
0.0
142
0.0
142
1.0
142
0.0
142
0.0
142
0.0
142
0.0
142
1.0
179
     0
144
0.0208333333333333
144
0.0
144
0.0
144
0.0
144
0.0
144
0.0208333333333333
144
0.0
144
0.0
144
0.0
144
0.0
144
1.0
144
0.0
144
0.0
144
0.0
144
0.0
144
1.0
147
0.0208333333333333
147
0.0
147
0.0
147
0.0
147
0.0
147
0.0208333333333333
147
0.0
147
0.0
147
0.0
147
0.0
147
1.0
147
0.0
147
0.0
147
0.0
147
0.0
147
1.0
  0
MLEADERSTYLE
  5
67
102
{ACAD_XDICTIONARY
360
140
102
}
102
{ACAD_REACTORS
330
66
102
}
330
66
100
AcDbMLeaderStyle
179
     2
170
     2
171
     1
172
     0
 90
        2
 40
0.0
 41
0.0
173
     1
 91
-1056964608
340
5B
 92
       -2
290
     1
 42
0.09
291
     1
 43
0.36
  3
Standard
 44
0.18
300

342
55
174
     1
178
     6
175
     1
176
     0
 93
-1056964608
 45
0.18
292
     0
297
     0
 46
0.18
 94
-1056964608
 47
1.0
 49
1.0
140
1.0
293
     1
141
0.0
294
     1
177
     0
142
1.0
295
     0
296
     0
143
0.125
271
     0
272
     9
273
     9
  0
MLINESTYLE
  5
60
102
{ACAD_REACTORS
330
5F
102
}
330
5F
100
AcDbMlineStyle
  2
STANDARD
 70
     0
  3

 62
   256
 51
90.0
 52
90.0
 71
     2
 49
0.5
 62
   256
  6
BYLAYER
 49
-0.5
 62
   256
  6
BYLAYER
  0
ACDBPLACEHOLDER
  5
F
102
{ACAD_REACTORS
330
E
102
}
330
E
  0
SCALE
  5
43
102
{ACAD_REACTORS
330
42
102
}
330
42
100
AcDbScale
 70
     0
300
1:1
140
1.0
141
1.0
290
     1
  0
SCALE
  5
44
102
{ACAD_REACTORS
330
42
102
}
330
42
100
AcDbScale
 70
     0
300
1/128" = 1'-0"
140
0.0078125
141
12.0
290
     0
  0
SCALE
  5
45
102
{ACAD_REACTORS
330
42
102
}
330
42
100
AcDbScale
 70
     0
300
1/64" = 1'-0"
140
0.015625
141
12.0
290
     0
  0
SCALE
  5
46
102
{ACAD_REACTORS
330
42
102
}
330
42
100
AcDbScale
 70
     0
300
1/32" = 1'-0"
140
0.03125
141
12.0
290
     0
  0
SCALE
  5
47
102
{ACAD_REACTORS
330
42
102
}
330
42
100
AcDbScale
 70
     0
300
1/16" = 1'-0"
140
0.0625
141
12.0
290
     0
  0
SCALE
  5
48
102
{ACAD_REACTORS
330
42
102
}
330
42
100
AcDbScale
 70
     0
300
3/32" = 1'-0"
140
0.09375
141
12.0
290
     0
  0
SCALE
  5
49
102
{ACAD_REACTORS
330
42
102
}
330
42
100
AcDbScale
 70
     0
300
1/8" = 1'-0"
140
0.125
141
12.0
290
     0
  0
SCALE
  5
4A
102
{ACAD_REACTORS
330
42
102
}
330
42
100
AcDbScale
 70
     0
300
3/16" = 1'-0"
140
0.1875
141
12.0
290
     0
  0
SCALE
  5
4B
102
{ACAD_REACTORS
330
42
102
}
330
42
100
AcDbScale
 70
     0
300
1/4" = 1'-0"
140
0.25
141
12.0
290
     0
  0
SCALE
  5
4C
102
{ACAD_REACTORS
330
42
102
}
330
42
100
AcDbScale
 70
     0
300
3/8" = 1'-0"
140
0.375
141
12.0
290
     0
  0
SCALE
  5
4D
102
{ACAD_REACTORS
330
42
102
}
330
42
100
AcDbScale
 70
     0
300
1/2" = 1'-0"
140
0.5
141
12.0
290
     0
  0
SCALE
  5
4E
102
{ACAD_REACTORS
330
42
102
}
330
42
100
AcDbScale
 70
     0
300
3/4" = 1'-0"
140
0.75
141
12.0
290
     0
  0
SCALE
  5
4F
102
{ACAD_REACTORS
330
42
102
}
330
42
100
AcDbScale
 70
     0
300
1" = 1'-0"
140
1.0
141
12.0
290
     0
  0
SCALE
  5
50
102
{ACAD_REACTORS
330
42
102
}
330
42
100
AcDbScale
 70
     0
300
1-1/2" = 1'-0"
140
1.5
141
12.0
290
     0
  0
SCALE
  5
51
102
{ACAD_REACTORS
330
42
102
}
330
42
100
AcDbScale
 70
     0
300
3" = 1'-0"
140
3.0
141
12.0
290
     0
  0
SCALE
  5
52
102
{ACAD_REACTORS
330
42
102
}
330
42
100
AcDbScale
 70
     0
300
6" = 1'-0"
140
6.0
141
12.0
290
     0
  0
SCALE
  5
53
102
{ACAD_REACTORS
330
42
102
}
330
42
100
AcDbScale
 70
     0
300
1'-0" = 1'-0"
140
12.0
141
12.0
290
     0
  0
ACDBSECTIONVIEWSTYLE
  5
69
102
{ACAD_XDICTIONARY
360
142
102
}
102
{ACAD_REACTORS
330
68
102
}
330
68
100
AcDbModelDocViewStyle
 70
     0
  3
Imperial24
290
     0
100
AcDbSectionViewStyle
 70
     0
 71
     0
 90
       78
 71
     1
340
55
 62
   256
 40
0.24
340
0
340
0
 62
   256
 40
0.24
300
I, O, Q, S, X, Z
 40
0.48
 90
        3
 40
0.18
 90
        1
 71
     2
340
5D
 90
       25
 62
   256
340
5D
 90
       50
 62
   256
 40
0.24
 40
0.0
 40
0.24
 71
     3
340
55
 62
   256
 40
0.24
 90
        1
 40
0.75
 90
        1
300
%<\AcVar ViewType \f "%tc1">% %<\AcVar ViewSectionStartId>%-%<\AcVar ViewSectionEndId>%\PSCALE %<\AcVar ViewScale \f "%sn">%
 71
     4
 62
   256
 62
   257
300
ANSI31
 40
1.0
 90
        0
290
     0
290
     0
 90
        6
 40
0.0
 40
1.570796326794896
 40
0.2617993877991494
 40
1.308996938995747
 40
-0.2617993877991494
 40
1.832595714594046
  0
TABLESTYLE
  5
65
102
{ACAD_XDICTIONARY
360
10D
102
}
102
{ACAD_REACTORS
330
64
102
}
330
64
100
AcDbTableStyle
280
     0
  3
Standard
 70
     0
 71
     0
 40
0.06
 41
0.06
280
     0
281
     0
  7
Standard
140
0.18
170
     2
 62
     0
 63
     7
283
     0
 90
      512
 91
        0
  1

274
    -2
284
     1
 64
     0
275
    -2
285
     1
 65
     0
276
    -2
286
     1
 66
     0
277
    -2
287
     1
 67
     0
278
    -2
288
     1
 68
     0
279
    -2
289
     1
 69
     0
  7
Standard
140
0.25
170
     5
 62
     0
 63
     7
283
     0
 90
      512
 91
        0
  1

274
    -2
284
     1
 64
     0
275
    -2
285
     1
 65
     0
276
    -2
286
     1
 66
     0
277
    -2
287
     1
 67
     0
278
    -2
288
     1
 68
     0
279
    -2
289
     1
 69
     0
  7
Standard
140
0.18
170
     5
 62
     0
 63
     7
283
     0
 90
      512
 91
        0
  1

274
    -2
284
     1
 64
     0
275
    -2
285
     1
 65
     0
276
    -2
286
     1
 66
     0
277
    -2
287
     1
 67
     0
278
    -2
288
     1
 68
     0
279
    -2
289
     1
 69
     0
  0
VISUALSTYLE
  5
2F
102
{ACAD_XDICTIONARY
360
11A
102
}
102
{ACAD_REACTORS
330
29
102
}
330
29
100
AcDbVisualStyle
  2
2dWireframe
 70
     4
177
     2
291
     0
 71
     0
176
     1
 72
     2
176
     1
 73
     0
176
     1
 90
        0
176
     1
 40
0.6
176
     1
 41
30.0
176
     1
 63
     7
421
 16777215
176
     1
 74
     1
176
     1
 91
        4
176
     1
 64
     7
176
     1
 65
   257
176
     1
 75
     1
176
     1
175
     1
176
     1
 42
1.0
176
     1
 92
        0
176
     1
 66
   257
176
     1
 43
1.0
176
     1
 76
     1
176
     1
 77
     6
176
     1
 78
     2
176
     1
 67
     7
176
     1
 79
     5
176
     1
170
     0
176
     1
171
     0
176
     1
290
     0
176
     1
 93
        1
176
     1
 44
0.0
176
     1
173
     0
176
     1
1001
ACAD
1000
AcDbSavedByObjectVersion
1070
     0
  0
VISUALSTYLE
  5
2E
102
{ACAD_XDICTIONARY
360
118
102
}
102
{ACAD_REACTORS
330
29
102
}
330
29
100
AcDbVisualStyle
  2
Basic
 70
     7
177
     2
291
     1
 71
     1
176
     1
 72
     0
176
     1
 73
     1
176
     1
 90
        0
176
     1
 40
0.6
176
     1
 41
30.0
176
     1
 63
     7
421
 16777215
176
     1
 74
     0
176
     1
 91
        4
176
     1
 64
     7
176
     1
 65
   257
176
     1
 75
     1
176
     1
175
     1
176
     1
 42
1.0
176
     1
 92
        8
176
     1
 66
     7
176
     1
 43
1.0
176
     1
 76
     1
176
     1
 77
     6
176
     1
 78
     2
176
     1
 67
     7
176
     1
 79
     5
176
     1
170
     0
176
     1
171
     0
176
     1
290
     0
176
     1
 93
        1
176
     1
 44
0.0
176
     1
173
     0
176
     1
1001
ACAD
1000
AcDbSavedByObjectVersion
1070
     0
  0
VISUALSTYLE
  5
35
102
{ACAD_XDICTIONARY
360
126
102
}
102
{ACAD_REACTORS
330
29
102
}
330
29
100
AcDbVisualStyle
  2
Brighten
 70
    12
177
     2
291
     1
 71
     2
176
     1
 72
     2
176
     1
 73
     0
176
     1
 90
        0
176
     1
 40
0.6
176
     1
 41
30.0
176
     1
 63
     7
421
 16777215
176
     1
 74
     1
176
     1
 91
        4
176
     1
 64
     7
176
     1
 65
   257
176
     1
 75
     1
176
     1
175
     1
176
     1
 42
1.0
176
     1
 92
        8
176
     1
 66
     7
176
     1
 43
1.0
176
     1
 76
     1
176
     1
 77
     6
176
     1
 78
     2
176
     1
 67
     7
176
     1
 79
     5
176
     1
170
     0
176
     1
171
     0
176
     1
290
     0
176
     1
 93
        1
176
     1
 44
50.0
176
     1
173
     0
176
     1
1001
ACAD
1000
AcDbSavedByObjectVersion
1070
     0
  0
VISUALSTYLE
  5
39
102
{ACAD_XDICTIONARY
360
12E
102
}
102
{ACAD_REACTORS
330
29
102
}
330
29
100
AcDbVisualStyle
  2
ColorChange
 70
    16
177
     2
291
     1
 71
     2
176
     1
 72
     2
176
     1
 73
     3
176
     1
 90
        0
176
     1
 40
0.6
176
     1
 41
30.0
176
     1
 63
     8
421
  8421504
176
     1
 74
     1
176
     1
 91
        4
176
     1
 64
     7
176
     1
 65
   257
176
     1
 75
     1
176
     1
175
     1
176
     1
 42
1.0
176
     1
 92
        8
176
     1
 66
     8
424
  8421504
176
     1
 43
1.0
176
     1
 76
     1
176
     1
 77
     6
176
     1
 78
     2
176
     1
 67
     7
176
     1
 79
     5
176
     1
170
     0
176
     1
171
     0
176
     1
290
     0
176
     1
 93
        1
176
     1
 44
0.0
176
     1
173
     0
176
     1
1001
ACAD
1000
AcDbSavedByObjectVersion
1070
     0
  0
VISUALSTYLE
  5
32
102
{ACAD_XDICTIONARY
360
120
102
}
102
{ACAD_REACTORS
330
29
102
}
330
29
100
AcDbVisualStyle
  2
Conceptual
 70
     9
177
     2
291
     0
 71
     3
176
     1
 72
     2
176
     1
 73
     0
176
     1
 90
        0
176
     1
 40
0.6
176
     1
 41
30.0
176
     1
 63
     7
421
 16777215
176
     1
 74
     2
176
     1
 91
        2
176
     1
 64
     7
176
     1
 65
   257
176
     1
 75
     1
176
     1
175
     1
176
     1
 42
179.0
176
     1
 92
        8
176
     1
 66
     7
176
     1
 43
1.0
176
     1
 76
     1
176
     1
 77
     6
176
     1
 78
     2
176
     1
 67
     7
176
     1
 79
     3
176
     1
170
     0
176
     1
171
     0
176
     1
290
     0
176
     1
 93
        1
176
     1
 44
0.0
176
     1
173
     0
176
     1
1001
ACAD
1000
AcDbSavedByObjectVersion
1070
     0
  0
VISUALSTYLE
  5
34
102
{ACAD_XDICTIONARY
360
124
102
}
102
{ACAD_REACTORS
330
29
102
}
330
29
100
AcDbVisualStyle
  2
Dim
 70
    11
177
     2
291
     1
 71
     2
176
     1
 72
     2
176
     1
 73
     0
176
     1
 90
        0
176
     1
 40
0.6
176
     1
 41
30.0
176
     1
 63
     7
421
 16777215
176
     1
 74
     1
176
     1
 91
        4
176
     1
 64
     7
176
     1
 65
   257
176
     1
 75
     1
176
     1
175
     1
176
     1
 42
1.0
176
     1
 92
        8
176
     1
 66
     7
176
     1
 43
1.0
176
     1
 76
     1
176
     1
 77
     6
176
     1
 78
     2
176
     1
 67
     7
176
     1
 79
     5
176
     1
170
     0
176
     1
171
     0
176
     1
290
     0
176
     1
 93
        1
176
     1
 44
-50.0
176
     1
173
     0
176
     1
1001
ACAD
1000
AcDbSavedByObjectVersion
1070
     0
  0
VISUALSTYLE
  5
41
102
{ACAD_XDICTIONARY
360
13E
102
}
102
{ACAD_REACTORS
330
29
102
}
330
29
100
AcDbVisualStyle
  2
EdgeColorOff
 70
    22
177
     2
291
     1
 71
     2
176
     0
 72
     2
176
     0
 73
     0
176
     0
 90
        0
176
     0
 40
0.6
176
     0
 41
30.0
176
     0
 63
     7
421
 16777215
176
     0
 74
     1
176
     0
 91
        4
176
     0
 64
     7
176
     0
 65
   257
176
     0
 75
     1
176
     0
175
     1
176
     0
 42
1.0
176
     0
 92
        8
176
     2
 66
     7
176
     0
 43
1.0
176
     0
 76
     1
176
     0
 77
     6
176
     0
 78
     2
176
     0
 67
     7
176
     0
 79
     5
176
     0
170
     0
176
     0
171
     0
176
     0
290
     0
176
     0
 93
        1
176
     0
 44
0.0
176
     0
173
     0
176
     0
1001
ACAD
1000
AcDbSavedByObjectVersion
1070
     0
  0
VISUALSTYLE
  5
38
102
{ACAD_XDICTIONARY
360
12C
102
}
102
{ACAD_REACTORS
330
29
102
}
330
29
100
AcDbVisualStyle
  2
Facepattern
 70
    15
177
     2
291
     1
 71
     2
176
     1
 72
     2
176
     1
 73
     0
176
     1
 90
        0
176
     1
 40
0.6
176
     1
 41
30.0
176
     1
 63
     7
421
 16777215
176
     1
 74
     1
176
     1
 91
        4
176
     1
 64
     7
176
     1
 65
   257
176
     1
 75
     1
176
     1
175
     1
176
     1
 42
1.0
176
     1
 92
        8
176
     1
 66
     7
176
     1
 43
1.0
176
     1
 76
     1
176
     1
 77
     6
176
     1
 78
     2
176
     1
 67
     7
176
     1
 79
     5
176
     1
170
     0
176
     1
171
     0
176
     1
290
     0
176
     1
 93
        1
176
     1
 44
0.0
176
     1
173
     0
176
     1
1001
ACAD
1000
AcDbSavedByObjectVersion
1070
     0
  0
VISUALSTYLE
  5
2A
102
{ACAD_XDICTIONARY
360
110
102
}
102
{ACAD_REACTORS
330
29
102
}
330
29
100
AcDbVisualStyle
  2
Flat
 70
     0
177
     2
291
     1
 71
     2
176
     1
 72
     1
176
     1
 73
     1
176
     1
 90
        2
176
     1
 40
0.6
176
     1
 41
30.0
176
     1
 63
     7
421
 16777215
176
     1
 74
     0
176
     1
 91
        0
176
     1
 64
     7
176
     1
 65
   257
176
     1
 75
     1
176
     1
175
     1
176
     1
 42
1.0
176
     1
 92
        8
176
     1
 66
     7
176
     1
 43
1.0
176
     1
 76
     1
176
     1
 77
     6
176
     1
 78
     2
176
     1
 67
     7
176
     1
 79
     5
176
     1
170
     0
176
     1
171
     0
176
     1
290
     0
176
     1
 93
       13
176
     1
 44
0.0
176
     1
173
     0
176
     1
1001
ACAD
1000
AcDbSavedByObjectVersion
1070
     0
  0
VISUALSTYLE
  5
2B
102
{ACAD_XDICTIONARY
360
112
102
}
102
{ACAD_REACTORS
330
29
102
}
330
29
100
AcDbVisualStyle
  2
FlatWithEdges
 70
     1
177
     2
291
     1
 71
     2
176
     1
 72
     1
176
     1
 73
     1
176
     1
 90
        2
176
     1
 40
0.6
176
     1
 41
30.0
176
     1
 63
     7
421
 16777215
176
     1
 74
     1
176
     1
 91
        0
176
     1
 64
     7
176
     1
 65
   257
176
     1
 75
     1
176
     1
175
     1
176
     1
 42
1.0
176
     1
 92
        0
176
     1
 66
   257
176
     1
 43
1.0
176
     1
 76
     1
176
     1
 77
     6
176
     1
 78
     2
176
     1
 67
     7
176
     1
 79
     5
176
     1
170
     0
176
     1
171
     0
176
     1
290
     0
176
     1
 93
       13
176
     1
 44
0.0
176
     1
173
     0
176
     1
1001
ACAD
1000
AcDbSavedByObjectVersion
1070
     0
  0
VISUALSTYLE
  5
2C
102
{ACAD_XDICTIONARY
360
114
102
}
102
{ACAD_REACTORS
330
29
102
}
330
29
100
AcDbVisualStyle
  2
Gouraud
 70
     2
177
     2
291
     1
 71
     2
176
     1
 72
     2
176
     1
 73
     1
176
     1
 90
        2
176
     1
 40
0.6
176
     1
 41
30.0
176
     1
 63
     7
421
 16777215
176
     1
 74
     0
176
     1
 91
        0
176
     1
 64
     7
176
     1
 65
   257
176
     1
 75
     1
176
     1
175
     1
176
     1
 42
1.0
176
     1
 92
        0
176
     1
 66
     7
176
     1
 43
1.0
176
     1
 76
     1
176
     1
 77
     6
176
     1
 78
     2
176
     1
 67
     7
176
     1
 79
     5
176
     1
170
     0
176
     1
171
     0
176
     1
290
     0
176
     1
 93
       13
176
     1
 44
0.0
176
     1
173
     0
176
     1
1001
ACAD
1000
AcDbSavedByObjectVersion
1070
     0
  0
VISUALSTYLE
  5
2D
102
{ACAD_XDICTIONARY
360
116
102
}
102
{ACAD_REACTORS
330
29
102
}
330
29
100
AcDbVisualStyle
  2
GouraudWithEdges
 70
     3
177
     2
291
     1
 71
     2
176
     1
 72
     2
176
     1
 73
     1
176
     1
 90
        2
176
     1
 40
0.6
176
     1
 41
30.0
176
     1
 63
     7
421
 16777215
176
     1
 74
     1
176
     1
 91
        0
176
     1
 64
     7
176
     1
 65
   257
176
     1
 75
     1
176
     1
175
     1
176
     1
 42
1.0
176
     1
 92
        0
176
     1
 66
   257
176
     1
 43
1.0
176
     1
 76
     1
176
     1
 77
     6
176
     1
 78
     2
176
     1
 67
     7
176
     1
 79
     5
176
     1
170
     0
176
     1
171
     0
176
     1
290
     0
176
     1
 93
       13
176
     1
 44
0.0
176
     1
173
     0
176
     1
1001
ACAD
1000
AcDbSavedByObjectVersion
1070
     0
  0
VISUALSTYLE
  5
31
102
{ACAD_XDICTIONARY
360
11E
102
}
102
{ACAD_REACTORS
330
29
102
}
330
29
100
AcDbVisualStyle
  2
Hidden
 70
     6
177
     2
291
     0
 71
     1
176
     1
 72
     2
176
     1
 73
     2
176
     1
 90
        0
176
     1
 40
0.6
176
     1
 41
30.0
176
     1
 63
     7
421
 16777215
176
     1
 74
     2
176
     1
 91
        2
176
     1
 64
     7
176
     1
 65
   257
176
     1
 75
     2
176
     1
175
     1
176
     1
 42
40.0
176
     1
 92
        0
176
     1
 66
   257
176
     1
 43
1.0
176
     1
 76
     1
176
     1
 77
     6
176
     1
 78
     2
176
     1
 67
     7
176
     1
 79
     3
176
     1
170
     0
176
     1
171
     0
176
     1
290
     0
176
     1
 93
        1
176
     1
 44
0.0
176
     1
173
     0
176
     1
1001
ACAD
1000
AcDbSavedByObjectVersion
1070
     0
  0
VISUALSTYLE
  5
3F
102
{ACAD_XDICTIONARY
360
13A
102
}
102
{ACAD_REACTORS
330
29
102
}
330
29
100
AcDbVisualStyle
  2
JitterOff
 70
    20
177
     2
291
     1
 71
     2
176
     0
 72
     2
176
     0
 73
     0
176
     0
 90
        0
176
     0
 40
0.6
176
     0
 41
30.0
176
     0
 63
     7
421
 16777215
176
     0
 74
     1
176
     0
 91
        4
176
     0
 64
     7
176
     0
 65
   257
176
     0
 75
     1
176
     0
175
     1
176
     0
 42
1.0
176
     0
 92
       10
176
     2
 66
     7
176
     0
 43
1.0
176
     0
 76
     1
176
     0
 77
     6
176
     0
 78
     2
176
     0
 67
     7
176
     0
 79
     5
176
     0
170
     0
176
     0
171
     0
176
     0
290
     0
176
     0
 93
        1
176
     0
 44
0.0
176
     0
173
     0
176
     0
1001
ACAD
1000
AcDbSavedByObjectVersion
1070
     0
  0
VISUALSTYLE
  5
37
102
{ACAD_XDICTIONARY
360
12A
102
}
102
{ACAD_REACTORS
330
29
102
}
330
29
100
AcDbVisualStyle
  2
Linepattern
 70
    14
177
     2
291
     1
 71
     2
176
     1
 72
     2
176
     1
 73
     0
176
     1
 90
        0
176
     1
 40
0.6
176
     1
 41
30.0
176
     1
 63
     7
421
 16777215
176
     1
 74
     1
176
     1
 91
        4
176
     1
 64
     7
176
     1
 65
   257
176
     1
 75
     7
176
     1
175
     7
176
     1
 42
1.0
176
     1
 92
        8
176
     1
 66
     7
176
     1
 43
1.0
176
     1
 76
     1
176
     1
 77
     6
176
     1
 78
     2
176
     1
 67
     7
176
     1
 79
     5
176
     1
170
     0
176
     1
171
     0
176
     1
290
     0
176
     1
 93
        1
176
     1
 44
0.0
176
     1
173
     0
176
     1
1001
ACAD
1000
AcDbSavedByObjectVersion
1070
     0
  0
VISUALSTYLE
  5
40
102
{ACAD_XDICTIONARY
360
13C
102
}
102
{ACAD_REACTORS
330
29
102
}
330
29
100
AcDbVisualStyle
  2
OverhangOff
 70
    21
177
     2
291
     1
 71
     2
176
     0
 72
     2
176
     0
 73
     0
176
     0
 90
        0
176
     0
 40
0.6
176
     0
 41
30.0
176
     0
 63
     7
421
 16777215
176
     0
 74
     1
176
     0
 91
        4
176
     0
 64
     7
176
     0
 65
   257
176
     0
 75
     1
176
     0
175
     1
176
     0
 42
1.0
176
     0
 92
        9
176
     2
 66
     7
176
     0
 43
1.0
176
     0
 76
     1
176
     0
 77
     6
176
     0
 78
     2
176
     0
 67
     7
176
     0
 79
     5
176
     0
170
     0
176
     0
171
     0
176
     0
290
     0
176
     0
 93
        1
176
     0
 44
0.0
176
     0
173
     0
176
     0
1001
ACAD
1000
AcDbSavedByObjectVersion
1070
     0
  0
VISUALSTYLE
  5
33
102
{ACAD_XDICTIONARY
360
122
102
}
102
{ACAD_REACTORS
330
29
102
}
330
29
100
AcDbVisualStyle
  2
Realistic
 70
     8
177
     2
291
     0
 71
     2
176
     1
 72
     3
176
     1
 73
     0
176
     1
 90
        2
176
     1
 40
0.6
176
     1
 41
30.0
176
     1
 63
     7
421
 16777215
176
     1
 74
     0
176
     1
 91
        0
176
     1
 64
     7
176
     1
 65
   257
176
     1
 75
     1
176
     1
175
     1
176
     1
 42
1.0
176
     1
 92
        8
176
     1
 66
   257
176
     1
 43
1.0
176
     1
 76
     1
176
     1
 77
     6
176
     1
 78
     2
176
     1
 67
     7
176
     1
 79
     3
176
     1
170
     0
176
     1
171
     0
176
     1
290
     0
176
     1
 93
       13
176
     1
 44
0.0
176
     1
173
     0
176
     1
1001
ACAD
1000
AcDbSavedByObjectVersion
1070
     0
  0
VISUALSTYLE
  5
3E
102
{ACAD_XDICTIONARY
360
138
102
}
102
{ACAD_REACTORS
330
29
102
}
330
29
100
AcDbVisualStyle
  2
Shaded
 70
    27
177
     2
291
     0
 71
     2
176
     1
 72
     2
176
     1
 73
     1
176
     1
 90
        2
176
     1
 40
0.6
176
     1
 41
30.0
176
     1
 63
     7
421
 16777215
176
     1
 74
     0
176
     1
 91
        4
176
     1
 64
     7
176
     1
 65
   257
176
     1
 75
     1
176
     1
175
     1
176
     1
 42
1.0
176
     1
 92
        8
176
     1
 66
   257
176
     1
 43
1.0
176
     1
 76
     1
176
     1
 77
     6
176
     1
 78
     2
176
     1
 67
     8
425
  7895160
176
     1
 79
     3
176
     1
170
     0
176
     1
171
     0
176
     1
290
     0
176
     1
 93
        5
176
     1
 44
0.0
176
     1
173
     0
176
     1
1001
ACAD
1000
AcDbSavedByObjectVersion
1070
     0
  0
VISUALSTYLE
  5
3D
102
{ACAD_XDICTIONARY
360
136
102
}
102
{ACAD_REACTORS
330
29
102
}
330
29
100
AcDbVisualStyle
  2
Shaded with edges
 70
    26
177
     2
291
     0
 71
     2
176
     1
 72
     2
176
     1
 73
     1
176
     1
 90
        2
176
     1
 40
0.6
176
     1
 41
30.0
176
     1
 63
     7
421
 16777215
176
     1
 74
     1
176
     1
 91
        2
176
     1
 64
     7
176
     1
 65
   257
176
     1
 75
     2
176
     1
175
     1
176
     1
 42
1.0
176
     1
 92
        8
176
     1
 66
   257
176
     1
 43
1.0
176
     1
 76
     1
176
     1
 77
     6
176
     1
 78
     2
176
     1
 67
     7
176
     1
 79
     3
176
     1
170
     0
176
     1
171
     0
176
     1
290
     0
176
     1
 93
        5
176
     1
 44
0.0
176
     1
173
     0
176
     1
1001
ACAD
1000
AcDbSavedByObjectVersion
1070
     0
  0
VISUALSTYLE
  5
3A
102
{ACAD_XDICTIONARY
360
130
102
}
102
{ACAD_REACTORS
330
29
102
}
330
29
100
AcDbVisualStyle
  2
Shades of Gray
 70
    23
177
     2
291
     0
 71
     2
176
     1
 72
     2
176
     1
 73
     3
176
     1
 90
        0
176
     1
 40
0.6
176
     1
 41
30.0
176
     1
 63
     7
421
 16777215
176
     1
 74
     2
176
     1
 91
        2
176
     1
 64
     7
176
     1
 65
     7
176
     1
 75
     1
176
     1
175
     1
176
     1
 42
40.0
176
     1
 92
        8
176
     1
 66
     7
176
     1
 43
1.0
176
     1
 76
     1
176
     1
 77
     6
176
     1
 78
     2
176
     1
 67
     7
176
     1
 79
     3
176
     1
170
     0
176
     1
171
     0
176
     1
290
     0
176
     1
 93
        1
176
     1
 44
0.0
176
     1
173
     0
176
     1
1001
ACAD
1000
AcDbSavedByObjectVersion
1070
     0
  0
VISUALSTYLE
  5
3B
102
{ACAD_XDICTIONARY
360
132
102
}
102
{ACAD_REACTORS
330
29
102
}
330
29
100
AcDbVisualStyle
  2
Sketchy
 70
    24
177
     2
291
     0
 71
     1
176
     1
 72
     2
176
     1
 73
     2
176
     1
 90
        0
176
     1
 40
0.6
176
     1
 41
30.0
176
     1
 63
     7
421
 16777215
176
     1
 74
     2
176
     1
 91
        2
176
     1
 64
     7
176
     1
 65
     7
176
     1
 75
     1
176
     1
175
     1
176
     1
 42
40.0
176
     1
 92
       11
176
     1
 66
     7
176
     1
 43
1.0
176
     1
 76
     1
176
     1
 77
     6
176
     1
 78
     2
176
     1
 67
     7
176
     1
 79
     6
176
     1
170
     0
176
     1
171
     0
176
     1
290
     0
176
     1
 93
        1
176
     1
 44
0.0
176
     1
173
     0
176
     1
1001
ACAD
1000
AcDbSavedByObjectVersion
1070
     0
  0
VISUALSTYLE
  5
36
102
{ACAD_XDICTIONARY
360
128
102
}
102
{ACAD_REACTORS
330
29
102
}
330
29
100
AcDbVisualStyle
  2
Thicken
 70
    13
177
     2
291
     1
 71
     2
176
     1
 72
     2
176
     1
 73
     0
176
     1
 90
        0
176
     1
 40
0.6
176
     1
 41
30.0
176
     1
 63
     7
421
 16777215
176
     1
 74
     1
176
     1
 91
        4
176
     1
 64
     7
176
     1
 65
   257
176
     1
 75
     1
176
     1
175
     1
176
     1
 42
1.0
176
     1
 92
       12
176
     1
 66
     7
176
     1
 43
1.0
176
     1
 76
     1
176
     1
 77
     6
176
     1
 78
     2
176
     1
 67
     7
176
     1
 79
     5
176
     1
170
     0
176
     1
171
     0
176
     1
290
     0
176
     1
 93
        1
176
     1
 44
0.0
176
     1
173
     0
176
     1
1001
ACAD
1000
AcDbSavedByObjectVersion
1070
     0
  0
VISUALSTYLE
  5
30
102
{ACAD_XDICTIONARY
360
11C
102
}
102
{ACAD_REACTORS
330
29
102
}
330
29
100
AcDbVisualStyle
  2
Wireframe
 70
     5
177
     2
291
     0
 71
     0
176
     1
 72
     2
176
     1
 73
     0
176
     1
 90
        0
176
     1
 40
0.6
176
     1
 41
30.0
176
     1
 63
     7
421
 16777215
176
     1
 74
     1
176
     1
 91
        4
176
     1
 64
     7
176
     1
 65
   257
176
     1
 75
     1
176
     1
175
     1
176
     1
 42
1.0
176
     1
 92
        0
176
     1
 66
   257
176
     1
 43
1.0
176
     1
 76
     1
176
     1
 77
     6
176
     1
 78
     2
176
     1
 67
     7
176
     1
 79
     3
176
     1
170
     0
176
     1
171
     0
176
     1
290
     0
176
     1
 93
        1
176
     1
 44
0.0
176
     1
173
     0
176
     1
1001
ACAD
1000
AcDbSavedByObjectVersion
1070
     0
  0
VISUALSTYLE
  5
3C
102
{ACAD_XDICTIONARY
360
134
102
}
102
{ACAD_REACTORS
330
29
102
}
330
29
100
AcDbVisualStyle
  2
X-Ray
 70
    25
177
     2
291
     0
 71
     2
176
     1
 72
     2
176
     1
 73
     1
176
     1
 90
        1
176
     1
 40
0.5
176
     1
 41
30.0
176
     1
 63
     7
421
 16777215
176
     1
 74
     1
176
     1
 91
        0
176
     1
 64
     7
176
     1
 65
   257
176
     1
 75
     1
176
     1
175
     1
176
     1
 42
1.0
176
     1
 92
        8
176
     1
 66
     7
176
     1
 43
1.0
176
     1
 76
     1
176
     1
 77
     6
176
     1
 78
     2
176
     1
 67
     7
176
     1
 79
     3
176
     1
170
     0
176
     1
171
     0
176
     1
290
     0
176
     1
 93
       13
176
     1
 44
0.0
176
     1
173
     0
176
     1
1001
ACAD
1000
AcDbSavedByObjectVersion
1070
     0
  0
DICTIONARYVAR
  5
10C
102
{ACAD_REACTORS
330
107
102
}
330
107
100
DictionaryVariables
280
     0
  1
1:1
  0
DICTIONARYVAR
  5
109
102
{ACAD_REACTORS
330
107
102
}
330
107
100
DictionaryVariables
280
     0
  1
STANDARD
  0
DICTIONARYVAR
  5
108
102
{ACAD_REACTORS
330
107
102
}
330
107
100
DictionaryVariables
280
     0
  1
STANDARD
  0
DICTIONARYVAR
  5
10A
102
{ACAD_REACTORS
330
107
102
}
330
107
100
DictionaryVariables
280
     0
  1
Imperial24
  0
DICTIONARYVAR
  5
10B
102
{ACAD_REACTORS
330
107
102
}
330
107
100
DictionaryVariables
280
     0
  1
Imperial24
  0
DICTIONARY
  5
144
330
6B
100
AcDbDictionary
280
     1
281
     1
  3
ACAD_XREC_ROUNDTRIP
360
145
  0
DICTIONARY
  5
1A
330
19
100
AcDbDictionary
280
     1
281
     1
  3
BUMPTILE
360
1C
  3
DIFFUSETILE
360
1B
  3
OPACITYTILE
360
1F
  3
REFLECTIONTILE
360
1E
  3
REFRACTIONTILE
360
20
  3
SPECULARTILE
360
1D
  0
DICTIONARY
  5
12
330
11
100
AcDbDictionary
280
     1
281
     1
  3
BUMPTILE
360
14
  3
DIFFUSETILE
360
13
  3
OPACITYTILE
360
17
  3
REFLECTIONTILE
360
16
  3
REFRACTIONTILE
360
18
  3
SPECULARTILE
360
15
  0
DICTIONARY
  5
22
330
21
100
AcDbDictionary
280
     1
281
     1
  3
BUMPTILE
360
24
  3
DIFFUSETILE
360
23
  3
OPACITYTILE
360
27
  3
REFLECTIONTILE
360
26
  3
REFRACTIONTILE
360
28
  3
SPECULARTILE
360
25
  0
DICTIONARY
  5
140
330
67
100
AcDbDictionary
280
     1
281
     1
  3
ACAD_XREC_ROUNDTRIP
360
141
  0
DICTIONARY
  5
142
330
69
100
AcDbDictionary
280
     1
281
     1
  3
ACAD_XREC_ROUNDTRIP
360
143
  0
DICTIONARY
  5
10D
330
65
100
AcDbDictionary
280
     1
281
     1
  3
ACAD_ROUNDTRIP_2008_TABLESTYLE_CELLSTYLEMAP
360
10E
  0
DICTIONARY
  5
11A
330
2F
100
AcDbDictionary
280
     1
281
     1
  3
ACAD_XREC_ROUNDTRIP
360
11B
  0
DICTIONARY
  5
118
330
2E
100
AcDbDictionary
280
     1
281
     1
  3
ACAD_XREC_ROUNDTRIP
360
119
  0
DICTIONARY
  5
126
330
35
100
AcDbDictionary
280
     1
281
     1
  3
ACAD_XREC_ROUNDTRIP
360
127
  0
DICTIONARY
  5
12E
330
39
100
AcDbDictionary
280
     1
281
     1
  3
ACAD_XREC_ROUNDTRIP
360
12F
  0
DICTIONARY
  5
120
330
32
100
AcDbDictionary
280
     1
281
     1
  3
ACAD_XREC_ROUNDTRIP
360
121
  0
DICTIONARY
  5
124
330
34
100
AcDbDictionary
280
     1
281
     1
  3
ACAD_XREC_ROUNDTRIP
360
125
  0
DICTIONARY
  5
13E
330
41
100
AcDbDictionary
280
     1
281
     1
  3
ACAD_XREC_ROUNDTRIP
360
13F
  0
DICTIONARY
  5
12C
330
38
100
AcDbDictionary
280
     1
281
     1
  3
ACAD_XREC_ROUNDTRIP
360
12D
  0
DICTIONARY
  5
110
330
2A
100
AcDbDictionary
280
     1
281
     1
  3
ACAD_XREC_ROUNDTRIP
360
111
  0
DICTIONARY
  5
112
330
2B
100
AcDbDictionary
280
     1
281
     1
  3
ACAD_XREC_ROUNDTRIP
360
113
  0
DICTIONARY
  5
114
330
2C
100
AcDbDictionary
280
     1
281
     1
  3
ACAD_XREC_ROUNDTRIP
360
115
  0
DICTIONARY
  5
116
330
2D
100
AcDbDictionary
280
     1
281
     1
  3
ACAD_XREC_ROUNDTRIP
360
117
  0
DICTIONARY
  5
11E
330
31
100
AcDbDictionary
280
     1
281
     1
  3
ACAD_XREC_ROUNDTRIP
360
11F
  0
DICTIONARY
  5
13A
330
3F
100
AcDbDictionary
280
     1
281
     1
  3
ACAD_XREC_ROUNDTRIP
360
13B
  0
DICTIONARY
  5
12A
330
37
100
AcDbDictionary
280
     1
281
     1
  3
ACAD_XREC_ROUNDTRIP
360
12B
  0
DICTIONARY
  5
13C
330
40
100
AcDbDictionary
280
     1
281
     1
  3
ACAD_XREC_ROUNDTRIP
360
13D
  0
DICTIONARY
  5
122
330
33
100
AcDbDictionary
280
     1
281
     1
  3
ACAD_XREC_ROUNDTRIP
360
123
  0
DICTIONARY
  5
138
330
3E
100
AcDbDictionary
280
     1
281
     1
  3
ACAD_XREC_ROUNDTRIP
360
139
  0
DICTIONARY
  5
136
330
3D
100
AcDbDictionary
280
     1
281
     1
  3
ACAD_XREC_ROUNDTRIP
360
137
  0
DICTIONARY
  5
130
330
3A
100
AcDbDictionary
280
     1
281
     1
  3
ACAD_XREC_ROUNDTRIP
360
131
  0
DICTIONARY
  5
132
330
3B
100
AcDbDictionary
280
     1
281
     1
  3
ACAD_XREC_ROUNDTRIP
360
133
  0
DICTIONARY
  5
128
330
36
100
AcDbDictionary
280
     1
281
     1
  3
ACAD_XREC_ROUNDTRIP
360
129
  0
DICTIONARY
  5
11C
330
30
100
AcDbDictionary
280
     1
281
     1
  3
ACAD_XREC_ROUNDTRIP
360
11D
  0
DICTIONARY
  5
134
330
3C
100
AcDbDictionary
280
     1
281
     1
  3
ACAD_XREC_ROUNDTRIP
360
135
  0
XRECORD
  5
145
102
{ACAD_REACTORS
330
144
102
}
330
144
100
AcDbXrecord
280
     1
102
DISPLAYNAME
  1
Imperial24
102
FLAGS
 90
        0
  0
XRECORD
  5
1C
102
{ACAD_REACTORS
330
1A
102
}
330
1A
100
AcDbXrecord
280
     1
270
     1
271
     1
  0
XRECORD
  5
1B
102
{ACAD_REACTORS
330
1A
102
}
330
1A
100
AcDbXrecord
280
     1
270
     1
271
     1
  0
XRECORD
  5
1F
102
{ACAD_REACTORS
330
1A
102
}
330
1A
100
AcDbXrecord
280
     1
270
     1
271
     1
  0
XRECORD
  5
1E
102
{ACAD_REACTORS
330
1A
102
}
330
1A
100
AcDbXrecord
280
     1
270
     1
271
     1
  0
XRECORD
  5
20
102
{ACAD_REACTORS
330
1A
102
}
330
1A
100
AcDbXrecord
280
     1
270
     1
271
     1
  0
XRECORD
  5
1D
102
{ACAD_REACTORS
330
1A
102
}
330
1A
100
AcDbXrecord
280
     1
270
     1
271
     1
  0
XRECORD
  5
14
102
{ACAD_REACTORS
330
12
102
}
330
12
100
AcDbXrecord
280
     1
270
     1
271
     1
  0
XRECORD
  5
13
102
{ACAD_REACTORS
330
12
102
}
330
12
100
AcDbXrecord
280
     1
270
     1
271
     1
  0
XRECORD
  5
17
102
{ACAD_REACTORS
330
12
102
}
330
12
100
AcDbXrecord
280
     1
270
     1
271
     1
  0
XRECORD
  5
16
102
{ACAD_REACTORS
330
12
102
}
330
12
100
AcDbXrecord
280
     1
270
     1
271
     1
  0
XRECORD
  5
18
102
{ACAD_REACTORS
330
12
102
}
330
12
100
AcDbXrecord
280
     1
270
     1
271
     1
  0
XRECORD
  5
15
102
{ACAD_REACTORS
330
12
102
}
330
12
100
AcDbXrecord
280
     1
270
     1
271
     1
  0
XRECORD
  5
24
102
{ACAD_REACTORS
330
22
102
}
330
22
100
AcDbXrecord
280
     1
270
     1
271
     1
  0
XRECORD
  5
23
102
{ACAD_REACTORS
330
22
102
}
330
22
100
AcDbXrecord
280
     1
270
     1
271
     1
  0
XRECORD
  5
27
102
{ACAD_REACTORS
330
22
102
}
330
22
100
AcDbXrecord
280
     1
270
     1
271
     1
  0
XRECORD
  5
26
102
{ACAD_REACTORS
330
22
102
}
330
22
100
AcDbXrecord
280
     1
270
     1
271
     1
  0
XRECORD
  5
28
102
{ACAD_REACTORS
330
22
102
}
330
22
100
AcDbXrecord
280
     1
270
     1
271
     1
  0
XRECORD
  5
25
102
{ACAD_REACTORS
330
22
102
}
330
22
100
AcDbXrecord
280
     1
270
     1
271
     1
  0
XRECORD
  5
141
102
{ACAD_REACTORS
330
140
102
}
330
140
100
AcDbXrecord
280
     1
102
ACAD_ROUNDTRIP_2012_MLEADER_STYLE
298
     1
  0
XRECORD
  5
143
102
{ACAD_REACTORS
330
142
102
}
330
142
100
AcDbXrecord
280
     1
102
DISPLAYNAME
  1
Imperial24
102
FLAGS
 90
        0
  0
CELLSTYLEMAP
  5
10E
102
{ACAD_REACTORS
330
10D
102
}
330
10D
100
AcDbCellStyleMap
 90
        3
300
CELLSTYLE
  1
TABLEFORMAT_BEGIN
 90
        5
170
     1
 91
        0
 92
    32768
 62
   257
 93
        1
300
CONTENTFORMAT
  1
CONTENTFORMAT_BEGIN
 90
        0
 91
        0
 92
      512
 93
        0
300

 40
0.0
140
1.0
 94
        5
 62
     0
340
55
144
0.25
309
CONTENTFORMAT_END
171
     0
 94
        0
309
TABLEFORMAT_END
  1
CELLSTYLE_BEGIN
 90
        1
 91
        1
300
_TITLE
309
CELLSTYLE_END
300
CELLSTYLE
  1
TABLEFORMAT_BEGIN
 90
        5
170
     1
 91
        0
 92
        0
 62
   257
 93
        1
300
CONTENTFORMAT
  1
CONTENTFORMAT_BEGIN
 90
        0
 91
        0
 92
      512
 93
        0
300

 40
0.0
140
1.0
 94
        5
 62
     0
340
55
144
0.18
309
CONTENTFORMAT_END
171
     0
 94
        0
309
TABLEFORMAT_END
  1
CELLSTYLE_BEGIN
 90
        2
 91
        1
300
_HEADER
309
CELLSTYLE_END
300
CELLSTYLE
  1
TABLEFORMAT_BEGIN
 90
        5
170
     1
 91
        0
 92
        0
 62
   257
 93
        1
300
CONTENTFORMAT
  1
CONTENTFORMAT_BEGIN
 90
        0
 91
        0
 92
      512
 93
        0
300

 40
0.0
140
1.0
 94
        2
 62
     0
340
55
144
0.18
309
CONTENTFORMAT_END
171
     0
 94
        0
309
TABLEFORMAT_END
  1
CELLSTYLE_BEGIN
 90
        3
 91
        2
300
_DATA
309
CELLSTYLE_END
  0
XRECORD
  5
11B
102
{ACAD_REACTORS
330
11A
102
}
330
11A
100
AcDbXrecord
280
     1
102
RTVSPost2010Prop28
280
     1
102
RTVSPost2010PropOp28
 70
     1
102
RTVSPost2010Prop29
280
     1
102
RTVSPost2010PropOp29
 70
     1
102
RTVSPost2010Prop30
280
     0
102
RTVSPost2010PropOp30
 70
     1
102
RTVSPost2010Prop31
280
     0
102
RTVSPost2010PropOp31
 70
     1
102
RTVSPost2010Prop32
280
     0
102
RTVSPost2010PropOp32
 70
     1
102
RTVSPost2010Prop33
280
     0
102
RTVSPost2010PropOp33
 70
     1
102
RTVSPost2010Prop34
280
     0
102
RTVSPost2010PropOp34
 70
     1
102
RTVSPost2010Prop35
280
     0
102
RTVSPost2010PropOp35
 70
     1
102
RTVSPost2010Prop36
280
     0
102
RTVSPost2010PropOp36
 70
     1
102
RTVSPost2010Prop37
 90
       50
102
RTVSPost2010PropOp37
 70
     1
102
RTVSPost2010Prop38
140
0.0
102
RTVSPost2010PropOp38
 70
     1
102
RTVSPost2010Prop39
140
1.0
102
RTVSPost2010PropOp39
 70
     1
102
RTVSPost2010Prop40
 90
        0
102
RTVSPost2010PropOp40
 70
     1
102
RTVSPost2010Prop41ColorIndex
 90
       18
102
RTVSPost2010Prop41ColorRGB
 90
        0
102
RTVSPost2010PropOp41
 70
     1
102
RTVSPost2010Prop42
 90
       50
102
RTVSPost2010PropOp42
 70
     1
102
RTVSPost2010Prop43
 90
        3
102
RTVSPost2010PropOp43
 70
     1
102
RTVSPost2010Prop44ColorIndex
 90
        5
102
RTVSPost2010Prop44ColorRGB
 90
      255
102
RTVSPost2010PropOp44
 70
     1
102
RTVSPost2010Prop45
280
     0
102
RTVSPost2010PropOp45
 70
     1
102
RTVSPost2010Prop46
 90
       50
102
RTVSPost2010PropOp46
 70
     1
102
RTVSPost2010Prop47
 90
       50
102
RTVSPost2010PropOp47
 70
     1
102
RTVSPost2010Prop48
 90
       50
102
RTVSPost2010PropOp48
 70
     1
102
RTVSPost2010Prop49
280
     0
102
RTVSPost2010PropOp49
 70
     1
102
RTVSPost2010Prop50
 90
       50
102
RTVSPost2010PropOp50
 70
     1
102
RTVSPost2010Prop51ColorIndex
 90
      256
102
RTVSPost2010Prop51ColorRGB
 90
-16777216
102
RTVSPost2010PropOp51
 70
     0
102
RTVSPost2010Prop52
140
1.0
102
RTVSPost2010PropOp52
 70
     0
102
RTVSPost2010Prop53
 90
        2
102
RTVSPost2010PropOp53
 70
     1
102
RTVSPost2010Prop54
  1
strokes_ogs.tif
102
RTVSPost2010PropOp54
 70
     1
102
RTVSPost2010Prop55
280
     0
102
RTVSPost2010PropOp55
 70
     1
102
RTVSPost2010Prop56
140
1.0
102
RTVSPost2010PropOp56
 70
     1
102
RTVSPost2010Prop57
140
1.0
102
RTVSPost2010PropOp57
 70
     1
  0
XRECORD
  5
119
102
{ACAD_REACTORS
330
118
102
}
330
118
100
AcDbXrecord
280
     1
102
RTVSPost2010Prop28
280
     0
102
RTVSPost2010PropOp28
 70
     1
102
RTVSPost2010Prop29
280
     1
102
RTVSPost2010PropOp29
 70
     1
102
RTVSPost2010Prop30
280
     1
102
RTVSPost2010PropOp30
 70
     1
102
RTVSPost2010Prop31
280
     0
102
RTVSPost2010PropOp31
 70
     1
102
RTVSPost2010Prop32
280
     0
102
RTVSPost2010PropOp32
 70
     1
102
RTVSPost2010Prop33
280
     0
102
RTVSPost2010PropOp33
 70
     1
102
RTVSPost2010Prop34
280
     0
102
RTVSPost2010PropOp34
 70
     1
102
RTVSPost2010Prop35
280
     0
102
RTVSPost2010PropOp35
 70
     1
102
RTVSPost2010Prop36
280
     0
102
RTVSPost2010PropOp36
 70
     1
102
RTVSPost2010Prop37
 90
       50
102
RTVSPost2010PropOp37
 70
     1
102
RTVSPost2010Prop38
140
0.0
102
RTVSPost2010PropOp38
 70
     1
102
RTVSPost2010Prop39
140
1.0
102
RTVSPost2010PropOp39
 70
     1
102
RTVSPost2010Prop40
 90
        0
102
RTVSPost2010PropOp40
 70
     1
102
RTVSPost2010Prop41ColorIndex
 90
       18
102
RTVSPost2010Prop41ColorRGB
 90
        0
102
RTVSPost2010PropOp41
 70
     1
102
RTVSPost2010Prop42
 90
       50
102
RTVSPost2010PropOp42
 70
     1
102
RTVSPost2010Prop43
 90
        3
102
RTVSPost2010PropOp43
 70
     1
102
RTVSPost2010Prop44ColorIndex
 90
        5
102
RTVSPost2010Prop44ColorRGB
 90
      255
102
RTVSPost2010PropOp44
 70
     1
102
RTVSPost2010Prop45
280
     0
102
RTVSPost2010PropOp45
 70
     1
102
RTVSPost2010Prop46
 90
       50
102
RTVSPost2010PropOp46
 70
     1
102
RTVSPost2010Prop47
 90
       50
102
RTVSPost2010PropOp47
 70
     1
102
RTVSPost2010Prop48
 90
       50
102
RTVSPost2010PropOp48
 70
     1
102
RTVSPost2010Prop49
280
     0
102
RTVSPost2010PropOp49
 70
     1
102
RTVSPost2010Prop50
 90
       50
102
RTVSPost2010PropOp50
 70
     1
102
RTVSPost2010Prop51ColorIndex
 90
      256
102
RTVSPost2010Prop51ColorRGB
 90
-16777216
102
RTVSPost2010PropOp51
 70
     0
102
RTVSPost2010Prop52
140
1.0
102
RTVSPost2010PropOp52
 70
     0
102
RTVSPost2010Prop53
 90
        2
102
RTVSPost2010PropOp53
 70
     1
102
RTVSPost2010Prop54
  1
strokes_ogs.tif
102
RTVSPost2010PropOp54
 70
     1
102
RTVSPost2010Prop55
280
     0
102
RTVSPost2010PropOp55
 70
     1
102
RTVSPost2010Prop56
140
1.0
102
RTVSPost2010PropOp56
 70
     1
102
RTVSPost2010Prop57
140
1.0
102
RTVSPost2010PropOp57
 70
     1
  0
XRECORD
  5
127
102
{ACAD_REACTORS
330
126
102
}
330
126
100
AcDbXrecord
280
     1
102
RTVSPost2010Prop28
280
     0
102
RTVSPost2010PropOp28
 70
     1
102
RTVSPost2010Prop29
280
     1
102
RTVSPost2010PropOp29
 70
     1
102
RTVSPost2010Prop30
280
     1
102
RTVSPost2010PropOp30
 70
     1
102
RTVSPost2010Prop31
280
     0
102
RTVSPost2010PropOp31
 70
     1
102
RTVSPost2010Prop32
280
     0
102
RTVSPost2010PropOp32
 70
     1
102
RTVSPost2010Prop33
280
     0
102
RTVSPost2010PropOp33
 70
     1
102
RTVSPost2010Prop34
280
     0
102
RTVSPost2010PropOp34
 70
     1
102
RTVSPost2010Prop35
280
     0
102
RTVSPost2010PropOp35
 70
     1
102
RTVSPost2010Prop36
280
     0
102
RTVSPost2010PropOp36
 70
     1
102
RTVSPost2010Prop37
 90
       50
102
RTVSPost2010PropOp37
 70
     1
102
RTVSPost2010Prop38
140
0.0
102
RTVSPost2010PropOp38
 70
     1
102
RTVSPost2010Prop39
140
1.0
102
RTVSPost2010PropOp39
 70
     1
102
RTVSPost2010Prop40
 90
        0
102
RTVSPost2010PropOp40
 70
     1
102
RTVSPost2010Prop41ColorIndex
 90
       18
102
RTVSPost2010Prop41ColorRGB
 90
        0
102
RTVSPost2010PropOp41
 70
     1
102
RTVSPost2010Prop42
 90
       50
102
RTVSPost2010PropOp42
 70
     1
102
RTVSPost2010Prop43
 90
        3
102
RTVSPost2010PropOp43
 70
     1
102
RTVSPost2010Prop44ColorIndex
 90
        5
102
RTVSPost2010Prop44ColorRGB
 90
      255
102
RTVSPost2010PropOp44
 70
     1
102
RTVSPost2010Prop45
280
     0
102
RTVSPost2010PropOp45
 70
     1
102
RTVSPost2010Prop46
 90
       50
102
RTVSPost2010PropOp46
 70
     1
102
RTVSPost2010Prop47
 90
       50
102
RTVSPost2010PropOp47
 70
     1
102
RTVSPost2010Prop48
 90
       50
102
RTVSPost2010PropOp48
 70
     1
102
RTVSPost2010Prop49
280
     0
102
RTVSPost2010PropOp49
 70
     1
102
RTVSPost2010Prop50
 90
       50
102
RTVSPost2010PropOp50
 70
     1
102
RTVSPost2010Prop51ColorIndex
 90
      256
102
RTVSPost2010Prop51ColorRGB
 90
-16777216
102
RTVSPost2010PropOp51
 70
     0
102
RTVSPost2010Prop52
140
1.0
102
RTVSPost2010PropOp52
 70
     0
102
RTVSPost2010Prop53
 90
        2
102
RTVSPost2010PropOp53
 70
     1
102
RTVSPost2010Prop54
  1
strokes_ogs.tif
102
RTVSPost2010PropOp54
 70
     1
102
RTVSPost2010Prop55
280
     0
102
RTVSPost2010PropOp55
 70
     1
102
RTVSPost2010Prop56
140
1.0
102
RTVSPost2010PropOp56
 70
     1
102
RTVSPost2010Prop57
140
1.0
102
RTVSPost2010PropOp57
 70
     1
  0
XRECORD
  5
12F
102
{ACAD_REACTORS
330
12E
102
}
330
12E
100
AcDbXrecord
280
     1
102
RTVSPost2010Prop28
280
     0
102
RTVSPost2010PropOp28
 70
     1
102
RTVSPost2010Prop29
280
     1
102
RTVSPost2010PropOp29
 70
     1
102
RTVSPost2010Prop30
280
     1
102
RTVSPost2010PropOp30
 70
     1
102
RTVSPost2010Prop31
280
     0
102
RTVSPost2010PropOp31
 70
     1
102
RTVSPost2010Prop32
280
     0
102
RTVSPost2010PropOp32
 70
     1
102
RTVSPost2010Prop33
280
     0
102
RTVSPost2010PropOp33
 70
     1
102
RTVSPost2010Prop34
280
     0
102
RTVSPost2010PropOp34
 70
     1
102
RTVSPost2010Prop35
280
     0
102
RTVSPost2010PropOp35
 70
     1
102
RTVSPost2010Prop36
280
     0
102
RTVSPost2010PropOp36
 70
     1
102
RTVSPost2010Prop37
 90
       50
102
RTVSPost2010PropOp37
 70
     1
102
RTVSPost2010Prop38
140
0.0
102
RTVSPost2010PropOp38
 70
     1
102
RTVSPost2010Prop39
140
1.0
102
RTVSPost2010PropOp39
 70
     1
102
RTVSPost2010Prop40
 90
        0
102
RTVSPost2010PropOp40
 70
     1
102
RTVSPost2010Prop41ColorIndex
 90
       18
102
RTVSPost2010Prop41ColorRGB
 90
        0
102
RTVSPost2010PropOp41
 70
     1
102
RTVSPost2010Prop42
 90
       50
102
RTVSPost2010PropOp42
 70
     1
102
RTVSPost2010Prop43
 90
        3
102
RTVSPost2010PropOp43
 70
     1
102
RTVSPost2010Prop44ColorIndex
 90
        5
102
RTVSPost2010Prop44ColorRGB
 90
      255
102
RTVSPost2010PropOp44
 70
     1
102
RTVSPost2010Prop45
280
     0
102
RTVSPost2010PropOp45
 70
     1
102
RTVSPost2010Prop46
 90
       50
102
RTVSPost2010PropOp46
 70
     1
102
RTVSPost2010Prop47
 90
       50
102
RTVSPost2010PropOp47
 70
     1
102
RTVSPost2010Prop48
 90
       50
102
RTVSPost2010PropOp48
 70
     1
102
RTVSPost2010Prop49
280
     0
102
RTVSPost2010PropOp49
 70
     1
102
RTVSPost2010Prop50
 90
       50
102
RTVSPost2010PropOp50
 70
     1
102
RTVSPost2010Prop51ColorIndex
 90
      256
102
RTVSPost2010Prop51ColorRGB
 90
-16777216
102
RTVSPost2010PropOp51
 70
     0
102
RTVSPost2010Prop52
140
1.0
102
RTVSPost2010PropOp52
 70
     0
102
RTVSPost2010Prop53
 90
        2
102
RTVSPost2010PropOp53
 70
     1
102
RTVSPost2010Prop54
  1
strokes_ogs.tif
102
RTVSPost2010PropOp54
 70
     1
102
RTVSPost2010Prop55
280
     0
102
RTVSPost2010PropOp55
 70
     1
102
RTVSPost2010Prop56
140
1.0
102
RTVSPost2010PropOp56
 70
     1
102
RTVSPost2010Prop57
140
1.0
102
RTVSPost2010PropOp57
 70
     1
  0
XRECORD
  5
121
102
{ACAD_REACTORS
330
120
102
}
330
120
100
AcDbXrecord
280
     1
102
RTVSPost2010Prop28
280
     0
102
RTVSPost2010PropOp28
 70
     1
102
RTVSPost2010Prop29
280
     1
102
RTVSPost2010PropOp29
 70
     1
102
RTVSPost2010Prop30
280
     1
102
RTVSPost2010PropOp30
 70
     1
102
RTVSPost2010Prop31
280
     0
102
RTVSPost2010PropOp31
 70
     1
102
RTVSPost2010Prop32
280
     0
102
RTVSPost2010PropOp32
 70
     1
102
RTVSPost2010Prop33
280
     0
102
RTVSPost2010PropOp33
 70
     1
102
RTVSPost2010Prop34
280
     0
102
RTVSPost2010PropOp34
 70
     1
102
RTVSPost2010Prop35
280
     0
102
RTVSPost2010PropOp35
 70
     1
102
RTVSPost2010Prop36
280
     0
102
RTVSPost2010PropOp36
 70
     1
102
RTVSPost2010Prop37
 90
       50
102
RTVSPost2010PropOp37
 70
     1
102
RTVSPost2010Prop38
140
0.0
102
RTVSPost2010PropOp38
 70
     1
102
RTVSPost2010Prop39
140
1.0
102
RTVSPost2010PropOp39
 70
     1
102
RTVSPost2010Prop40
 90
        0
102
RTVSPost2010PropOp40
 70
     1
102
RTVSPost2010Prop41ColorIndex
 90
       18
102
RTVSPost2010Prop41ColorRGB
 90
        0
102
RTVSPost2010PropOp41
 70
     1
102
RTVSPost2010Prop42
 90
       50
102
RTVSPost2010PropOp42
 70
     1
102
RTVSPost2010Prop43
 90
        3
102
RTVSPost2010PropOp43
 70
     1
102
RTVSPost2010Prop44ColorIndex
 90
        5
102
RTVSPost2010Prop44ColorRGB
 90
      255
102
RTVSPost2010PropOp44
 70
     1
102
RTVSPost2010Prop45
280
     0
102
RTVSPost2010PropOp45
 70
     1
102
RTVSPost2010Prop46
 90
       50
102
RTVSPost2010PropOp46
 70
     1
102
RTVSPost2010Prop47
 90
       50
102
RTVSPost2010PropOp47
 70
     1
102
RTVSPost2010Prop48
 90
       50
102
RTVSPost2010PropOp48
 70
     1
102
RTVSPost2010Prop49
280
     0
102
RTVSPost2010PropOp49
 70
     1
102
RTVSPost2010Prop50
 90
       50
102
RTVSPost2010PropOp50
 70
     1
102
RTVSPost2010Prop51ColorIndex
 90
      256
102
RTVSPost2010Prop51ColorRGB
 90
-16777216
102
RTVSPost2010PropOp51
 70
     0
102
RTVSPost2010Prop52
140
1.0
102
RTVSPost2010PropOp52
 70
     0
102
RTVSPost2010Prop53
 90
        2
102
RTVSPost2010PropOp53
 70
     1
102
RTVSPost2010Prop54
  1
strokes_ogs.tif
102
RTVSPost2010PropOp54
 70
     1
102
RTVSPost2010Prop55
280
     0
102
RTVSPost2010PropOp55
 70
     1
102
RTVSPost2010Prop56
140
1.0
102
RTVSPost2010PropOp56
 70
     1
102
RTVSPost2010Prop57
140
1.0
102
RTVSPost2010PropOp57
 70
     1
  0
XRECORD
  5
125
102
{ACAD_REACTORS
330
124
102
}
330
124
100
AcDbXrecord
280
     1
102
RTVSPost2010Prop28
280
     0
102
RTVSPost2010PropOp28
 70
     1
102
RTVSPost2010Prop29
280
     1
102
RTVSPost2010PropOp29
 70
     1
102
RTVSPost2010Prop30
280
     1
102
RTVSPost2010PropOp30
 70
     1
102
RTVSPost2010Prop31
280
     0
102
RTVSPost2010PropOp31
 70
     1
102
RTVSPost2010Prop32
280
     0
102
RTVSPost2010PropOp32
 70
     1
102
RTVSPost2010Prop33
280
     0
102
RTVSPost2010PropOp33
 70
     1
102
RTVSPost2010Prop34
280
     0
102
RTVSPost2010PropOp34
 70
     1
102
RTVSPost2010Prop35
280
     0
102
RTVSPost2010PropOp35
 70
     1
102
RTVSPost2010Prop36
280
     0
102
RTVSPost2010PropOp36
 70
     1
102
RTVSPost2010Prop37
 90
       50
102
RTVSPost2010PropOp37
 70
     1
102
RTVSPost2010Prop38
140
0.0
102
RTVSPost2010PropOp38
 70
     1
102
RTVSPost2010Prop39
140
1.0
102
RTVSPost2010PropOp39
 70
     1
102
RTVSPost2010Prop40
 90
        0
102
RTVSPost2010PropOp40
 70
     1
102
RTVSPost2010Prop41ColorIndex
 90
       18
102
RTVSPost2010Prop41ColorRGB
 90
        0
102
RTVSPost2010PropOp41
 70
     1
102
RTVSPost2010Prop42
 90
       50
102
RTVSPost2010PropOp42
 70
     1
102
RTVSPost2010Prop43
 90
        3
102
RTVSPost2010PropOp43
 70
     1
102
RTVSPost2010Prop44ColorIndex
 90
        5
102
RTVSPost2010Prop44ColorRGB
 90
      255
102
RTVSPost2010PropOp44
 70
     1
102
RTVSPost2010Prop45
280
     0
102
RTVSPost2010PropOp45
 70
     1
102
RTVSPost2010Prop46
 90
       50
102
RTVSPost2010PropOp46
 70
     1
102
RTVSPost2010Prop47
 90
       50
102
RTVSPost2010PropOp47
 70
     1
102
RTVSPost2010Prop48
 90
       50
102
RTVSPost2010PropOp48
 70
     1
102
RTVSPost2010Prop49
280
     0
102
RTVSPost2010PropOp49
 70
     1
102
RTVSPost2010Prop50
 90
       50
102
RTVSPost2010PropOp50
 70
     1
102
RTVSPost2010Prop51ColorIndex
 90
      256
102
RTVSPost2010Prop51ColorRGB
 90
-16777216
102
RTVSPost2010PropOp51
 70
     0
102
RTVSPost2010Prop52
140
1.0
102
RTVSPost2010PropOp52
 70
     0
102
RTVSPost2010Prop53
 90
        2
102
RTVSPost2010PropOp53
 70
     1
102
RTVSPost2010Prop54
  1
strokes_ogs.tif
102
RTVSPost2010PropOp54
 70
     1
102
RTVSPost2010Prop55
280
     0
102
RTVSPost2010PropOp55
 70
     1
102
RTVSPost2010Prop56
140
1.0
102
RTVSPost2010PropOp56
 70
     1
102
RTVSPost2010Prop57
140
1.0
102
RTVSPost2010PropOp57
 70
     1
  0
XRECORD
  5
13F
102
{ACAD_REACTORS
330
13E
102
}
330
13E
100
AcDbXrecord
280
     1
102
RTVSPost2010Prop28
280
     0
102
RTVSPost2010PropOp28
 70
     0
102
RTVSPost2010Prop29
280
     1
102
RTVSPost2010PropOp29
 70
     0
102
RTVSPost2010Prop30
280
     1
102
RTVSPost2010PropOp30
 70
     0
102
RTVSPost2010Prop31
280
     0
102
RTVSPost2010PropOp31
 70
     0
102
RTVSPost2010Prop32
280
     0
102
RTVSPost2010PropOp32
 70
     0
102
RTVSPost2010Prop33
280
     0
102
RTVSPost2010PropOp33
 70
     0
102
RTVSPost2010Prop34
280
     0
102
RTVSPost2010PropOp34
 70
     0
102
RTVSPost2010Prop35
280
     0
102
RTVSPost2010PropOp35
 70
     0
102
RTVSPost2010Prop36
280
     0
102
RTVSPost2010PropOp36
 70
     0
102
RTVSPost2010Prop37
 90
       50
102
RTVSPost2010PropOp37
 70
     0
102
RTVSPost2010Prop38
140
0.0
102
RTVSPost2010PropOp38
 70
     0
102
RTVSPost2010Prop39
140
1.0
102
RTVSPost2010PropOp39
 70
     0
102
RTVSPost2010Prop40
 90
        0
102
RTVSPost2010PropOp40
 70
     0
102
RTVSPost2010Prop41ColorIndex
 90
       18
102
RTVSPost2010Prop41ColorRGB
 90
        0
102
RTVSPost2010PropOp41
 70
     0
102
RTVSPost2010Prop42
 90
       50
102
RTVSPost2010PropOp42
 70
     0
102
RTVSPost2010Prop43
 90
        3
102
RTVSPost2010PropOp43
 70
     0
102
RTVSPost2010Prop44ColorIndex
 90
        5
102
RTVSPost2010Prop44ColorRGB
 90
      255
102
RTVSPost2010PropOp44
 70
     0
102
RTVSPost2010Prop45
280
     0
102
RTVSPost2010PropOp45
 70
     0
102
RTVSPost2010Prop46
 90
       50
102
RTVSPost2010PropOp46
 70
     0
102
RTVSPost2010Prop47
 90
       50
102
RTVSPost2010PropOp47
 70
     0
102
RTVSPost2010Prop48
 90
       50
102
RTVSPost2010PropOp48
 70
     0
102
RTVSPost2010Prop49
280
     0
102
RTVSPost2010PropOp49
 70
     0
102
RTVSPost2010Prop50
 90
       50
102
RTVSPost2010PropOp50
 70
     0
102
RTVSPost2010Prop51ColorIndex
 90
      256
102
RTVSPost2010Prop51ColorRGB
 90
-16777216
102
RTVSPost2010PropOp51
 70
     0
102
RTVSPost2010Prop52
140
1.0
102
RTVSPost2010PropOp52
 70
     0
102
RTVSPost2010Prop53
 90
        2
102
RTVSPost2010PropOp53
 70
     0
102
RTVSPost2010Prop54
  1
strokes_ogs.tif
102
RTVSPost2010PropOp54
 70
     0
102
RTVSPost2010Prop55
280
     0
102
RTVSPost2010PropOp55
 70
     0
102
RTVSPost2010Prop56
140
1.0
102
RTVSPost2010PropOp56
 70
     0
102
RTVSPost2010Prop57
140
1.0
102
RTVSPost2010PropOp57
 70
     0
  0
XRECORD
  5
12D
102
{ACAD_REACTORS
330
12C
102
}
330
12C
100
AcDbXrecord
280
     1
102
RTVSPost2010Prop28
280
     0
102
RTVSPost2010PropOp28
 70
     1
102
RTVSPost2010Prop29
280
     1
102
RTVSPost2010PropOp29
 70
     1
102
RTVSPost2010Prop30
280
     1
102
RTVSPost2010PropOp30
 70
     1
102
RTVSPost2010Prop31
280
     0
102
RTVSPost2010PropOp31
 70
     1
102
RTVSPost2010Prop32
280
     0
102
RTVSPost2010PropOp32
 70
     1
102
RTVSPost2010Prop33
280
     0
102
RTVSPost2010PropOp33
 70
     1
102
RTVSPost2010Prop34
280
     0
102
RTVSPost2010PropOp34
 70
     1
102
RTVSPost2010Prop35
280
     0
102
RTVSPost2010PropOp35
 70
     1
102
RTVSPost2010Prop36
280
     0
102
RTVSPost2010PropOp36
 70
     1
102
RTVSPost2010Prop37
 90
       50
102
RTVSPost2010PropOp37
 70
     1
102
RTVSPost2010Prop38
140
0.0
102
RTVSPost2010PropOp38
 70
     1
102
RTVSPost2010Prop39
140
1.0
102
RTVSPost2010PropOp39
 70
     1
102
RTVSPost2010Prop40
 90
        0
102
RTVSPost2010PropOp40
 70
     1
102
RTVSPost2010Prop41ColorIndex
 90
       18
102
RTVSPost2010Prop41ColorRGB
 90
        0
102
RTVSPost2010PropOp41
 70
     1
102
RTVSPost2010Prop42
 90
       50
102
RTVSPost2010PropOp42
 70
     1
102
RTVSPost2010Prop43
 90
        3
102
RTVSPost2010PropOp43
 70
     1
102
RTVSPost2010Prop44ColorIndex
 90
        5
102
RTVSPost2010Prop44ColorRGB
 90
      255
102
RTVSPost2010PropOp44
 70
     1
102
RTVSPost2010Prop45
280
     0
102
RTVSPost2010PropOp45
 70
     1
102
RTVSPost2010Prop46
 90
       50
102
RTVSPost2010PropOp46
 70
     1
102
RTVSPost2010Prop47
 90
       50
102
RTVSPost2010PropOp47
 70
     1
102
RTVSPost2010Prop48
 90
       50
102
RTVSPost2010PropOp48
 70
     1
102
RTVSPost2010Prop49
280
     0
102
RTVSPost2010PropOp49
 70
     1
102
RTVSPost2010Prop50
 90
       50
102
RTVSPost2010PropOp50
 70
     1
102
RTVSPost2010Prop51ColorIndex
 90
      256
102
RTVSPost2010Prop51ColorRGB
 90
-16777216
102
RTVSPost2010PropOp51
 70
     0
102
RTVSPost2010Prop52
140
1.0
102
RTVSPost2010PropOp52
 70
     0
102
RTVSPost2010Prop53
 90
        2
102
RTVSPost2010PropOp53
 70
     1
102
RTVSPost2010Prop54
  1
strokes_ogs.tif
102
RTVSPost2010PropOp54
 70
     1
102
RTVSPost2010Prop55
280
     0
102
RTVSPost2010PropOp55
 70
     1
102
RTVSPost2010Prop56
140
1.0
102
RTVSPost2010PropOp56
 70
     1
102
RTVSPost2010Prop57
140
1.0
102
RTVSPost2010PropOp57
 70
     1
  0
XRECORD
  5
111
102
{ACAD_REACTORS
330
110
102
}
330
110
100
AcDbXrecord
280
     1
102
RTVSPost2010Prop28
280
     0
102
RTVSPost2010PropOp28
 70
     1
102
RTVSPost2010Prop29
280
     1
102
RTVSPost2010PropOp29
 70
     1
102
RTVSPost2010Prop30
280
     1
102
RTVSPost2010PropOp30
 70
     1
102
RTVSPost2010Prop31
280
     0
102
RTVSPost2010PropOp31
 70
     1
102
RTVSPost2010Prop32
280
     0
102
RTVSPost2010PropOp32
 70
     1
102
RTVSPost2010Prop33
280
     0
102
RTVSPost2010PropOp33
 70
     1
102
RTVSPost2010Prop34
280
     0
102
RTVSPost2010PropOp34
 70
     1
102
RTVSPost2010Prop35
280
     0
102
RTVSPost2010PropOp35
 70
     1
102
RTVSPost2010Prop36
280
     0
102
RTVSPost2010PropOp36
 70
     1
102
RTVSPost2010Prop37
 90
       50
102
RTVSPost2010PropOp37
 70
     1
102
RTVSPost2010Prop38
140
0.0
102
RTVSPost2010PropOp38
 70
     1
102
RTVSPost2010Prop39
140
1.0
102
RTVSPost2010PropOp39
 70
     1
102
RTVSPost2010Prop40
 90
        0
102
RTVSPost2010PropOp40
 70
     1
102
RTVSPost2010Prop41ColorIndex
 90
       18
102
RTVSPost2010Prop41ColorRGB
 90
        0
102
RTVSPost2010PropOp41
 70
     1
102
RTVSPost2010Prop42
 90
       50
102
RTVSPost2010PropOp42
 70
     1
102
RTVSPost2010Prop43
 90
        3
102
RTVSPost2010PropOp43
 70
     1
102
RTVSPost2010Prop44ColorIndex
 90
        5
102
RTVSPost2010Prop44ColorRGB
 90
      255
102
RTVSPost2010PropOp44
 70
     1
102
RTVSPost2010Prop45
280
     0
102
RTVSPost2010PropOp45
 70
     1
102
RTVSPost2010Prop46
 90
       50
102
RTVSPost2010PropOp46
 70
     1
102
RTVSPost2010Prop47
 90
       50
102
RTVSPost2010PropOp47
 70
     1
102
RTVSPost2010Prop48
 90
       50
102
RTVSPost2010PropOp48
 70
     1
102
RTVSPost2010Prop49
280
     0
102
RTVSPost2010PropOp49
 70
     1
102
RTVSPost2010Prop50
 90
       50
102
RTVSPost2010PropOp50
 70
     1
102
RTVSPost2010Prop51ColorIndex
 90
      256
102
RTVSPost2010Prop51ColorRGB
 90
-16777216
102
RTVSPost2010PropOp51
 70
     0
102
RTVSPost2010Prop52
140
1.0
102
RTVSPost2010PropOp52
 70
     0
102
RTVSPost2010Prop53
 90
        2
102
RTVSPost2010PropOp53
 70
     1
102
RTVSPost2010Prop54
  1
strokes_ogs.tif
102
RTVSPost2010PropOp54
 70
     1
102
RTVSPost2010Prop55
280
     0
102
RTVSPost2010PropOp55
 70
     1
102
RTVSPost2010Prop56
140
1.0
102
RTVSPost2010PropOp56
 70
     1
102
RTVSPost2010Prop57
140
1.0
102
RTVSPost2010PropOp57
 70
     1
  0
XRECORD
  5
113
102
{ACAD_REACTORS
330
112
102
}
330
112
100
AcDbXrecord
280
     1
102
RTVSPost2010Prop28
280
     0
102
RTVSPost2010PropOp28
 70
     1
102
RTVSPost2010Prop29
280
     1
102
RTVSPost2010PropOp29
 70
     1
102
RTVSPost2010Prop30
280
     1
102
RTVSPost2010PropOp30
 70
     1
102
RTVSPost2010Prop31
280
     0
102
RTVSPost2010PropOp31
 70
     1
102
RTVSPost2010Prop32
280
     0
102
RTVSPost2010PropOp32
 70
     1
102
RTVSPost2010Prop33
280
     0
102
RTVSPost2010PropOp33
 70
     1
102
RTVSPost2010Prop34
280
     0
102
RTVSPost2010PropOp34
 70
     1
102
RTVSPost2010Prop35
280
     0
102
RTVSPost2010PropOp35
 70
     1
102
RTVSPost2010Prop36
280
     0
102
RTVSPost2010PropOp36
 70
     1
102
RTVSPost2010Prop37
 90
       50
102
RTVSPost2010PropOp37
 70
     1
102
RTVSPost2010Prop38
140
0.0
102
RTVSPost2010PropOp38
 70
     1
102
RTVSPost2010Prop39
140
1.0
102
RTVSPost2010PropOp39
 70
     1
102
RTVSPost2010Prop40
 90
        0
102
RTVSPost2010PropOp40
 70
     1
102
RTVSPost2010Prop41ColorIndex
 90
       18
102
RTVSPost2010Prop41ColorRGB
 90
        0
102
RTVSPost2010PropOp41
 70
     1
102
RTVSPost2010Prop42
 90
       50
102
RTVSPost2010PropOp42
 70
     1
102
RTVSPost2010Prop43
 90
        3
102
RTVSPost2010PropOp43
 70
     1
102
RTVSPost2010Prop44ColorIndex
 90
        5
102
RTVSPost2010Prop44ColorRGB
 90
      255
102
RTVSPost2010PropOp44
 70
     1
102
RTVSPost2010Prop45
280
     0
102
RTVSPost2010PropOp45
 70
     1
102
RTVSPost2010Prop46
 90
       50
102
RTVSPost2010PropOp46
 70
     1
102
RTVSPost2010Prop47
 90
       50
102
RTVSPost2010PropOp47
 70
     1
102
RTVSPost2010Prop48
 90
       50
102
RTVSPost2010PropOp48
 70
     1
102
RTVSPost2010Prop49
280
     0
102
RTVSPost2010PropOp49
 70
     1
102
RTVSPost2010Prop50
 90
       50
102
RTVSPost2010PropOp50
 70
     1
102
RTVSPost2010Prop51ColorIndex
 90
      256
102
RTVSPost2010Prop51ColorRGB
 90
-16777216
102
RTVSPost2010PropOp51
 70
     0
102
RTVSPost2010Prop52
140
1.0
102
RTVSPost2010PropOp52
 70
     0
102
RTVSPost2010Prop53
 90
        2
102
RTVSPost2010PropOp53
 70
     1
102
RTVSPost2010Prop54
  1
strokes_ogs.tif
102
RTVSPost2010PropOp54
 70
     1
102
RTVSPost2010Prop55
280
     0
102
RTVSPost2010PropOp55
 70
     1
102
RTVSPost2010Prop56
140
1.0
102
RTVSPost2010PropOp56
 70
     1
102
RTVSPost2010Prop57
140
1.0
102
RTVSPost2010PropOp57
 70
     1
  0
XRECORD
  5
115
102
{ACAD_REACTORS
330
114
102
}
330
114
100
AcDbXrecord
280
     1
102
RTVSPost2010Prop28
280
     0
102
RTVSPost2010PropOp28
 70
     1
102
RTVSPost2010Prop29
280
     1
102
RTVSPost2010PropOp29
 70
     1
102
RTVSPost2010Prop30
280
     1
102
RTVSPost2010PropOp30
 70
     1
102
RTVSPost2010Prop31
280
     0
102
RTVSPost2010PropOp31
 70
     1
102
RTVSPost2010Prop32
280
     0
102
RTVSPost2010PropOp32
 70
     1
102
RTVSPost2010Prop33
280
     0
102
RTVSPost2010PropOp33
 70
     1
102
RTVSPost2010Prop34
280
     0
102
RTVSPost2010PropOp34
 70
     1
102
RTVSPost2010Prop35
280
     0
102
RTVSPost2010PropOp35
 70
     1
102
RTVSPost2010Prop36
280
     0
102
RTVSPost2010PropOp36
 70
     1
102
RTVSPost2010Prop37
 90
       50
102
RTVSPost2010PropOp37
 70
     1
102
RTVSPost2010Prop38
140
0.0
102
RTVSPost2010PropOp38
 70
     1
102
RTVSPost2010Prop39
140
1.0
102
RTVSPost2010PropOp39
 70
     1
102
RTVSPost2010Prop40
 90
        0
102
RTVSPost2010PropOp40
 70
     1
102
RTVSPost2010Prop41ColorIndex
 90
       18
102
RTVSPost2010Prop41ColorRGB
 90
        0
102
RTVSPost2010PropOp41
 70
     1
102
RTVSPost2010Prop42
 90
       50
102
RTVSPost2010PropOp42
 70
     1
102
RTVSPost2010Prop43
 90
        3
102
RTVSPost2010PropOp43
 70
     1
102
RTVSPost2010Prop44ColorIndex
 90
        5
102
RTVSPost2010Prop44ColorRGB
 90
      255
102
RTVSPost2010PropOp44
 70
     1
102
RTVSPost2010Prop45
280
     0
102
RTVSPost2010PropOp45
 70
     1
102
RTVSPost2010Prop46
 90
       50
102
RTVSPost2010PropOp46
 70
     1
102
RTVSPost2010Prop47
 90
       50
102
RTVSPost2010PropOp47
 70
     1
102
RTVSPost2010Prop48
 90
       50
102
RTVSPost2010PropOp48
 70
     1
102
RTVSPost2010Prop49
280
     0
102
RTVSPost2010PropOp49
 70
     1
102
RTVSPost2010Prop50
 90
       50
102
RTVSPost2010PropOp50
 70
     1
102
RTVSPost2010Prop51ColorIndex
 90
      256
102
RTVSPost2010Prop51ColorRGB
 90
-16777216
102
RTVSPost2010PropOp51
 70
     0
102
RTVSPost2010Prop52
140
1.0
102
RTVSPost2010PropOp52
 70
     0
102
RTVSPost2010Prop53
 90
        2
102
RTVSPost2010PropOp53
 70
     1
102
RTVSPost2010Prop54
  1
strokes_ogs.tif
102
RTVSPost2010PropOp54
 70
     1
102
RTVSPost2010Prop55
280
     0
102
RTVSPost2010PropOp55
 70
     1
102
RTVSPost2010Prop56
140
1.0
102
RTVSPost2010PropOp56
 70
     1
102
RTVSPost2010Prop57
140
1.0
102
RTVSPost2010PropOp57
 70
     1
  0
XRECORD
  5
117
102
{ACAD_REACTORS
330
116
102
}
330
116
100
AcDbXrecord
280
     1
102
RTVSPost2010Prop28
280
     0
102
RTVSPost2010PropOp28
 70
     1
102
RTVSPost2010Prop29
280
     1
102
RTVSPost2010PropOp29
 70
     1
102
RTVSPost2010Prop30
280
     1
102
RTVSPost2010PropOp30
 70
     1
102
RTVSPost2010Prop31
280
     0
102
RTVSPost2010PropOp31
 70
     1
102
RTVSPost2010Prop32
280
     0
102
RTVSPost2010PropOp32
 70
     1
102
RTVSPost2010Prop33
280
     0
102
RTVSPost2010PropOp33
 70
     1
102
RTVSPost2010Prop34
280
     0
102
RTVSPost2010PropOp34
 70
     1
102
RTVSPost2010Prop35
280
     0
102
RTVSPost2010PropOp35
 70
     1
102
RTVSPost2010Prop36
280
     0
102
RTVSPost2010PropOp36
 70
     1
102
RTVSPost2010Prop37
 90
       50
102
RTVSPost2010PropOp37
 70
     1
102
RTVSPost2010Prop38
140
0.0
102
RTVSPost2010PropOp38
 70
     1
102
RTVSPost2010Prop39
140
1.0
102
RTVSPost2010PropOp39
 70
     1
102
RTVSPost2010Prop40
 90
        0
102
RTVSPost2010PropOp40
 70
     1
102
RTVSPost2010Prop41ColorIndex
 90
       18
102
RTVSPost2010Prop41ColorRGB
 90
        0
102
RTVSPost2010PropOp41
 70
     1
102
RTVSPost2010Prop42
 90
       50
102
RTVSPost2010PropOp42
 70
     1
102
RTVSPost2010Prop43
 90
        3
102
RTVSPost2010PropOp43
 70
     1
102
RTVSPost2010Prop44ColorIndex
 90
        5
102
RTVSPost2010Prop44ColorRGB
 90
      255
102
RTVSPost2010PropOp44
 70
     1
102
RTVSPost2010Prop45
280
     0
102
RTVSPost2010PropOp45
 70
     1
102
RTVSPost2010Prop46
 90
       50
102
RTVSPost2010PropOp46
 70
     1
102
RTVSPost2010Prop47
 90
       50
102
RTVSPost2010PropOp47
 70
     1
102
RTVSPost2010Prop48
 90
       50
102
RTVSPost2010PropOp48
 70
     1
102
RTVSPost2010Prop49
280
     0
102
RTVSPost2010PropOp49
 70
     1
102
RTVSPost2010Prop50
 90
       50
102
RTVSPost2010PropOp50
 70
     1
102
RTVSPost2010Prop51ColorIndex
 90
      256
102
RTVSPost2010Prop51ColorRGB
 90
-16777216
102
RTVSPost2010PropOp51
 70
     0
102
RTVSPost2010Prop52
140
1.0
102
RTVSPost2010PropOp52
 70
     0
102
RTVSPost2010Prop53
 90
        2
102
RTVSPost2010PropOp53
 70
     1
102
RTVSPost2010Prop54
  1
strokes_ogs.tif
102
RTVSPost2010PropOp54
 70
     1
102
RTVSPost2010Prop55
280
     0
102
RTVSPost2010PropOp55
 70
     1
102
RTVSPost2010Prop56
140
1.0
102
RTVSPost2010PropOp56
 70
     1
102
RTVSPost2010Prop57
140
1.0
102
RTVSPost2010PropOp57
 70
     1
  0
XRECORD
  5
11F
102
{ACAD_REACTORS
330
11E
102
}
330
11E
100
AcDbXrecord
280
     1
102
RTVSPost2010Prop28
280
     0
102
RTVSPost2010PropOp28
 70
     1
102
RTVSPost2010Prop29
280
     1
102
RTVSPost2010PropOp29
 70
     1
102
RTVSPost2010Prop30
280
     1
102
RTVSPost2010PropOp30
 70
     1
102
RTVSPost2010Prop31
280
     0
102
RTVSPost2010PropOp31
 70
     1
102
RTVSPost2010Prop32
280
     0
102
RTVSPost2010PropOp32
 70
     1
102
RTVSPost2010Prop33
280
     0
102
RTVSPost2010PropOp33
 70
     1
102
RTVSPost2010Prop34
280
     0
102
RTVSPost2010PropOp34
 70
     1
102
RTVSPost2010Prop35
280
     0
102
RTVSPost2010PropOp35
 70
     1
102
RTVSPost2010Prop36
280
     0
102
RTVSPost2010PropOp36
 70
     1
102
RTVSPost2010Prop37
 90
       50
102
RTVSPost2010PropOp37
 70
     1
102
RTVSPost2010Prop38
140
0.0
102
RTVSPost2010PropOp38
 70
     1
102
RTVSPost2010Prop39
140
1.0
102
RTVSPost2010PropOp39
 70
     1
102
RTVSPost2010Prop40
 90
        0
102
RTVSPost2010PropOp40
 70
     1
102
RTVSPost2010Prop41ColorIndex
 90
       18
102
RTVSPost2010Prop41ColorRGB
 90
        0
102
RTVSPost2010PropOp41
 70
     1
102
RTVSPost2010Prop42
 90
       50
102
RTVSPost2010PropOp42
 70
     1
102
RTVSPost2010Prop43
 90
        3
102
RTVSPost2010PropOp43
 70
     1
102
RTVSPost2010Prop44ColorIndex
 90
        5
102
RTVSPost2010Prop44ColorRGB
 90
      255
102
RTVSPost2010PropOp44
 70
     1
102
RTVSPost2010Prop45
280
     0
102
RTVSPost2010PropOp45
 70
     1
102
RTVSPost2010Prop46
 90
       50
102
RTVSPost2010PropOp46
 70
     1
102
RTVSPost2010Prop47
 90
       50
102
RTVSPost2010PropOp47
 70
     1
102
RTVSPost2010Prop48
 90
       50
102
RTVSPost2010PropOp48
 70
     1
102
RTVSPost2010Prop49
280
     0
102
RTVSPost2010PropOp49
 70
     1
102
RTVSPost2010Prop50
 90
       50
102
RTVSPost2010PropOp50
 70
     1
102
RTVSPost2010Prop51ColorIndex
 90
      256
102
RTVSPost2010Prop51ColorRGB
 90
-16777216
102
RTVSPost2010PropOp51
 70
     0
102
RTVSPost2010Prop52
140
1.0
102
RTVSPost2010PropOp52
 70
     0
102
RTVSPost2010Prop53
 90
        2
102
RTVSPost2010PropOp53
 70
     1
102
RTVSPost2010Prop54
  1
strokes_ogs.tif
102
RTVSPost2010PropOp54
 70
     1
102
RTVSPost2010Prop55
280
     0
102
RTVSPost2010PropOp55
 70
     1
102
RTVSPost2010Prop56
140
1.0
102
RTVSPost2010PropOp56
 70
     1
102
RTVSPost2010Prop57
140
1.0
102
RTVSPost2010PropOp57
 70
     1
  0
XRECORD
  5
13B
102
{ACAD_REACTORS
330
13A
102
}
330
13A
100
AcDbXrecord
280
     1
102
RTVSPost2010Prop28
280
     0
102
RTVSPost2010PropOp28
 70
     0
102
RTVSPost2010Prop29
280
     1
102
RTVSPost2010PropOp29
 70
     0
102
RTVSPost2010Prop30
280
     1
102
RTVSPost2010PropOp30
 70
     0
102
RTVSPost2010Prop31
280
     0
102
RTVSPost2010PropOp31
 70
     0
102
RTVSPost2010Prop32
280
     0
102
RTVSPost2010PropOp32
 70
     0
102
RTVSPost2010Prop33
280
     0
102
RTVSPost2010PropOp33
 70
     0
102
RTVSPost2010Prop34
280
     0
102
RTVSPost2010PropOp34
 70
     0
102
RTVSPost2010Prop35
280
     0
102
RTVSPost2010PropOp35
 70
     0
102
RTVSPost2010Prop36
280
     0
102
RTVSPost2010PropOp36
 70
     0
102
RTVSPost2010Prop37
 90
       50
102
RTVSPost2010PropOp37
 70
     0
102
RTVSPost2010Prop38
140
0.0
102
RTVSPost2010PropOp38
 70
     0
102
RTVSPost2010Prop39
140
1.0
102
RTVSPost2010PropOp39
 70
     0
102
RTVSPost2010Prop40
 90
        0
102
RTVSPost2010PropOp40
 70
     0
102
RTVSPost2010Prop41ColorIndex
 90
       18
102
RTVSPost2010Prop41ColorRGB
 90
        0
102
RTVSPost2010PropOp41
 70
     0
102
RTVSPost2010Prop42
 90
       50
102
RTVSPost2010PropOp42
 70
     0
102
RTVSPost2010Prop43
 90
        3
102
RTVSPost2010PropOp43
 70
     0
102
RTVSPost2010Prop44ColorIndex
 90
        5
102
RTVSPost2010Prop44ColorRGB
 90
      255
102
RTVSPost2010PropOp44
 70
     0
102
RTVSPost2010Prop45
280
     0
102
RTVSPost2010PropOp45
 70
     0
102
RTVSPost2010Prop46
 90
       50
102
RTVSPost2010PropOp46
 70
     0
102
RTVSPost2010Prop47
 90
       50
102
RTVSPost2010PropOp47
 70
     0
102
RTVSPost2010Prop48
 90
       50
102
RTVSPost2010PropOp48
 70
     0
102
RTVSPost2010Prop49
280
     0
102
RTVSPost2010PropOp49
 70
     0
102
RTVSPost2010Prop50
 90
       50
102
RTVSPost2010PropOp50
 70
     0
102
RTVSPost2010Prop51ColorIndex
 90
      256
102
RTVSPost2010Prop51ColorRGB
 90
-16777216
102
RTVSPost2010PropOp51
 70
     0
102
RTVSPost2010Prop52
140
1.0
102
RTVSPost2010PropOp52
 70
     0
102
RTVSPost2010Prop53
 90
        2
102
RTVSPost2010PropOp53
 70
     0
102
RTVSPost2010Prop54
  1
strokes_ogs.tif
102
RTVSPost2010PropOp54
 70
     0
102
RTVSPost2010Prop55
280
     0
102
RTVSPost2010PropOp55
 70
     0
102
RTVSPost2010Prop56
140
1.0
102
RTVSPost2010PropOp56
 70
     0
102
RTVSPost2010Prop57
140
1.0
102
RTVSPost2010PropOp57
 70
     0
  0
XRECORD
  5
12B
102
{ACAD_REACTORS
330
12A
102
}
330
12A
100
AcDbXrecord
280
     1
102
RTVSPost2010Prop28
280
     0
102
RTVSPost2010PropOp28
 70
     1
102
RTVSPost2010Prop29
280
     1
102
RTVSPost2010PropOp29
 70
     1
102
RTVSPost2010Prop30
280
     1
102
RTVSPost2010PropOp30
 70
     1
102
RTVSPost2010Prop31
280
     0
102
RTVSPost2010PropOp31
 70
     1
102
RTVSPost2010Prop32
280
     0
102
RTVSPost2010PropOp32
 70
     1
102
RTVSPost2010Prop33
280
     0
102
RTVSPost2010PropOp33
 70
     1
102
RTVSPost2010Prop34
280
     0
102
RTVSPost2010PropOp34
 70
     1
102
RTVSPost2010Prop35
280
     0
102
RTVSPost2010PropOp35
 70
     1
102
RTVSPost2010Prop36
280
     0
102
RTVSPost2010PropOp36
 70
     1
102
RTVSPost2010Prop37
 90
       50
102
RTVSPost2010PropOp37
 70
     1
102
RTVSPost2010Prop38
140
0.0
102
RTVSPost2010PropOp38
 70
     1
102
RTVSPost2010Prop39
140
1.0
102
RTVSPost2010PropOp39
 70
     1
102
RTVSPost2010Prop40
 90
        0
102
RTVSPost2010PropOp40
 70
     1
102
RTVSPost2010Prop41ColorIndex
 90
       18
102
RTVSPost2010Prop41ColorRGB
 90
        0
102
RTVSPost2010PropOp41
 70
     1
102
RTVSPost2010Prop42
 90
       50
102
RTVSPost2010PropOp42
 70
     1
102
RTVSPost2010Prop43
 90
        3
102
RTVSPost2010PropOp43
 70
     1
102
RTVSPost2010Prop44ColorIndex
 90
        5
102
RTVSPost2010Prop44ColorRGB
 90
      255
102
RTVSPost2010PropOp44
 70
     1
102
RTVSPost2010Prop45
280
     0
102
RTVSPost2010PropOp45
 70
     1
102
RTVSPost2010Prop46
 90
       50
102
RTVSPost2010PropOp46
 70
     1
102
RTVSPost2010Prop47
 90
       50
102
RTVSPost2010PropOp47
 70
     1
102
RTVSPost2010Prop48
 90
       50
102
RTVSPost2010PropOp48
 70
     1
102
RTVSPost2010Prop49
280
     0
102
RTVSPost2010PropOp49
 70
     1
102
RTVSPost2010Prop50
 90
       50
102
RTVSPost2010PropOp50
 70
     1
102
RTVSPost2010Prop51ColorIndex
 90
      256
102
RTVSPost2010Prop51ColorRGB
 90
-16777216
102
RTVSPost2010PropOp51
 70
     0
102
RTVSPost2010Prop52
140
1.0
102
RTVSPost2010PropOp52
 70
     0
102
RTVSPost2010Prop53
 90
        2
102
RTVSPost2010PropOp53
 70
     1
102
RTVSPost2010Prop54
  1
strokes_ogs.tif
102
RTVSPost2010PropOp54
 70
     1
102
RTVSPost2010Prop55
280
     0
102
RTVSPost2010PropOp55
 70
     1
102
RTVSPost2010Prop56
140
1.0
102
RTVSPost2010PropOp56
 70
     1
102
RTVSPost2010Prop57
140
1.0
102
RTVSPost2010PropOp57
 70
     1
  0
XRECORD
  5
13D
102
{ACAD_REACTORS
330
13C
102
}
330
13C
100
AcDbXrecord
280
     1
102
RTVSPost2010Prop28
280
     0
102
RTVSPost2010PropOp28
 70
     0
102
RTVSPost2010Prop29
280
     1
102
RTVSPost2010PropOp29
 70
     0
102
RTVSPost2010Prop30
280
     1
102
RTVSPost2010PropOp30
 70
     0
102
RTVSPost2010Prop31
280
     0
102
RTVSPost2010PropOp31
 70
     0
102
RTVSPost2010Prop32
280
     0
102
RTVSPost2010PropOp32
 70
     0
102
RTVSPost2010Prop33
280
     0
102
RTVSPost2010PropOp33
 70
     0
102
RTVSPost2010Prop34
280
     0
102
RTVSPost2010PropOp34
 70
     0
102
RTVSPost2010Prop35
280
     0
102
RTVSPost2010PropOp35
 70
     0
102
RTVSPost2010Prop36
280
     0
102
RTVSPost2010PropOp36
 70
     0
102
RTVSPost2010Prop37
 90
       50
102
RTVSPost2010PropOp37
 70
     0
102
RTVSPost2010Prop38
140
0.0
102
RTVSPost2010PropOp38
 70
     0
102
RTVSPost2010Prop39
140
1.0
102
RTVSPost2010PropOp39
 70
     0
102
RTVSPost2010Prop40
 90
        0
102
RTVSPost2010PropOp40
 70
     0
102
RTVSPost2010Prop41ColorIndex
 90
       18
102
RTVSPost2010Prop41ColorRGB
 90
        0
102
RTVSPost2010PropOp41
 70
     0
102
RTVSPost2010Prop42
 90
       50
102
RTVSPost2010PropOp42
 70
     0
102
RTVSPost2010Prop43
 90
        3
102
RTVSPost2010PropOp43
 70
     0
102
RTVSPost2010Prop44ColorIndex
 90
        5
102
RTVSPost2010Prop44ColorRGB
 90
      255
102
RTVSPost2010PropOp44
 70
     0
102
RTVSPost2010Prop45
280
     0
102
RTVSPost2010PropOp45
 70
     0
102
RTVSPost2010Prop46
 90
       50
102
RTVSPost2010PropOp46
 70
     0
102
RTVSPost2010Prop47
 90
       50
102
RTVSPost2010PropOp47
 70
     0
102
RTVSPost2010Prop48
 90
       50
102
RTVSPost2010PropOp48
 70
     0
102
RTVSPost2010Prop49
280
     0
102
RTVSPost2010PropOp49
 70
     0
102
RTVSPost2010Prop50
 90
       50
102
RTVSPost2010PropOp50
 70
     0
102
RTVSPost2010Prop51ColorIndex
 90
      256
102
RTVSPost2010Prop51ColorRGB
 90
-16777216
102
RTVSPost2010PropOp51
 70
     0
102
RTVSPost2010Prop52
140
1.0
102
RTVSPost2010PropOp52
 70
     0
102
RTVSPost2010Prop53
 90
        2
102
RTVSPost2010PropOp53
 70
     0
102
RTVSPost2010Prop54
  1
strokes_ogs.tif
102
RTVSPost2010PropOp54
 70
     0
102
RTVSPost2010Prop55
280
     0
102
RTVSPost2010PropOp55
 70
     0
102
RTVSPost2010Prop56
140
1.0
102
RTVSPost2010PropOp56
 70
     0
102
RTVSPost2010Prop57
140
1.0
102
RTVSPost2010PropOp57
 70
     0
  0
XRECORD
  5
123
102
{ACAD_REACTORS
330
122
102
}
330
122
100
AcDbXrecord
280
     1
102
RTVSPost2010Prop28
280
     0
102
RTVSPost2010PropOp28
 70
     1
102
RTVSPost2010Prop29
280
     1
102
RTVSPost2010PropOp29
 70
     1
102
RTVSPost2010Prop30
280
     1
102
RTVSPost2010PropOp30
 70
     1
102
RTVSPost2010Prop31
280
     0
102
RTVSPost2010PropOp31
 70
     1
102
RTVSPost2010Prop32
280
     0
102
RTVSPost2010PropOp32
 70
     1
102
RTVSPost2010Prop33
280
     0
102
RTVSPost2010PropOp33
 70
     1
102
RTVSPost2010Prop34
280
     0
102
RTVSPost2010PropOp34
 70
     1
102
RTVSPost2010Prop35
280
     0
102
RTVSPost2010PropOp35
 70
     1
102
RTVSPost2010Prop36
280
     0
102
RTVSPost2010PropOp36
 70
     1
102
RTVSPost2010Prop37
 90
       50
102
RTVSPost2010PropOp37
 70
     1
102
RTVSPost2010Prop38
140
0.0
102
RTVSPost2010PropOp38
 70
     1
102
RTVSPost2010Prop39
140
1.0
102
RTVSPost2010PropOp39
 70
     1
102
RTVSPost2010Prop40
 90
        0
102
RTVSPost2010PropOp40
 70
     1
102
RTVSPost2010Prop41ColorIndex
 90
       18
102
RTVSPost2010Prop41ColorRGB
 90
        0
102
RTVSPost2010PropOp41
 70
     1
102
RTVSPost2010Prop42
 90
       50
102
RTVSPost2010PropOp42
 70
     1
102
RTVSPost2010Prop43
 90
        3
102
RTVSPost2010PropOp43
 70
     1
102
RTVSPost2010Prop44ColorIndex
 90
        5
102
RTVSPost2010Prop44ColorRGB
 90
      255
102
RTVSPost2010PropOp44
 70
     1
102
RTVSPost2010Prop45
280
     0
102
RTVSPost2010PropOp45
 70
     1
102
RTVSPost2010Prop46
 90
       50
102
RTVSPost2010PropOp46
 70
     1
102
RTVSPost2010Prop47
 90
       50
102
RTVSPost2010PropOp47
 70
     1
102
RTVSPost2010Prop48
 90
       50
102
RTVSPost2010PropOp48
 70
     1
102
RTVSPost2010Prop49
280
     0
102
RTVSPost2010PropOp49
 70
     1
102
RTVSPost2010Prop50
 90
       50
102
RTVSPost2010PropOp50
 70
     1
102
RTVSPost2010Prop51ColorIndex
 90
      256
102
RTVSPost2010Prop51ColorRGB
 90
-16777216
102
RTVSPost2010PropOp51
 70
     0
102
RTVSPost2010Prop52
140
1.0
102
RTVSPost2010PropOp52
 70
     0
102
RTVSPost2010Prop53
 90
        2
102
RTVSPost2010PropOp53
 70
     1
102
RTVSPost2010Prop54
  1
strokes_ogs.tif
102
RTVSPost2010PropOp54
 70
     1
102
RTVSPost2010Prop55
280
     0
102
RTVSPost2010PropOp55
 70
     1
102
RTVSPost2010Prop56
140
1.0
102
RTVSPost2010PropOp56
 70
     1
102
RTVSPost2010Prop57
140
1.0
102
RTVSPost2010PropOp57
 70
     1
  0
XRECORD
  5
139
102
{ACAD_REACTORS
330
138
102
}
330
138
100
AcDbXrecord
280
     1
102
RTVSPost2010Prop28
280
     0
102
RTVSPost2010PropOp28
 70
     1
102
RTVSPost2010Prop29
280
     1
102
RTVSPost2010PropOp29
 70
     1
102
RTVSPost2010Prop30
280
     1
102
RTVSPost2010PropOp30
 70
     1
102
RTVSPost2010Prop31
280
     0
102
RTVSPost2010PropOp31
 70
     1
102
RTVSPost2010Prop32
280
     0
102
RTVSPost2010PropOp32
 70
     1
102
RTVSPost2010Prop33
280
     0
102
RTVSPost2010PropOp33
 70
     1
102
RTVSPost2010Prop34
280
     0
102
RTVSPost2010PropOp34
 70
     1
102
RTVSPost2010Prop35
280
     0
102
RTVSPost2010PropOp35
 70
     1
102
RTVSPost2010Prop36
280
     0
102
RTVSPost2010PropOp36
 70
     1
102
RTVSPost2010Prop37
 90
       50
102
RTVSPost2010PropOp37
 70
     1
102
RTVSPost2010Prop38
140
0.0
102
RTVSPost2010PropOp38
 70
     1
102
RTVSPost2010Prop39
140
1.0
102
RTVSPost2010PropOp39
 70
     1
102
RTVSPost2010Prop40
 90
        0
102
RTVSPost2010PropOp40
 70
     1
102
RTVSPost2010Prop41ColorIndex
 90
       18
102
RTVSPost2010Prop41ColorRGB
 90
        0
102
RTVSPost2010PropOp41
 70
     1
102
RTVSPost2010Prop42
 90
       50
102
RTVSPost2010PropOp42
 70
     1
102
RTVSPost2010Prop43
 90
        3
102
RTVSPost2010PropOp43
 70
     1
102
RTVSPost2010Prop44ColorIndex
 90
        5
102
RTVSPost2010Prop44ColorRGB
 90
      255
102
RTVSPost2010PropOp44
 70
     1
102
RTVSPost2010Prop45
280
     0
102
RTVSPost2010PropOp45
 70
     1
102
RTVSPost2010Prop46
 90
       50
102
RTVSPost2010PropOp46
 70
     1
102
RTVSPost2010Prop47
 90
       50
102
RTVSPost2010PropOp47
 70
     1
102
RTVSPost2010Prop48
 90
       50
102
RTVSPost2010PropOp48
 70
     1
102
RTVSPost2010Prop49
280
     0
102
RTVSPost2010PropOp49
 70
     1
102
RTVSPost2010Prop50
 90
       50
102
RTVSPost2010PropOp50
 70
     1
102
RTVSPost2010Prop51ColorIndex
 90
      256
102
RTVSPost2010Prop51ColorRGB
 90
-16777216
102
RTVSPost2010PropOp51
 70
     0
102
RTVSPost2010Prop52
140
1.0
102
RTVSPost2010PropOp52
 70
     0
102
RTVSPost2010Prop53
 90
        2
102
RTVSPost2010PropOp53
 70
     1
102
RTVSPost2010Prop54
  1
strokes_ogs.tif
102
RTVSPost2010PropOp54
 70
     1
102
RTVSPost2010Prop55
280
     0
102
RTVSPost2010PropOp55
 70
     1
102
RTVSPost2010Prop56
140
1.0
102
RTVSPost2010PropOp56
 70
     1
102
RTVSPost2010Prop57
140
1.0
102
RTVSPost2010PropOp57
 70
     1
  0
XRECORD
  5
137
102
{ACAD_REACTORS
330
136
102
}
330
136
100
AcDbXrecord
280
     1
102
RTVSPost2010Prop28
280
     0
102
RTVSPost2010PropOp28
 70
     1
102
RTVSPost2010Prop29
280
     1
102
RTVSPost2010PropOp29
 70
     1
102
RTVSPost2010Prop30
280
     1
102
RTVSPost2010PropOp30
 70
     1
102
RTVSPost2010Prop31
280
     0
102
RTVSPost2010PropOp31
 70
     1
102
RTVSPost2010Prop32
280
     0
102
RTVSPost2010PropOp32
 70
     1
102
RTVSPost2010Prop33
280
     0
102
RTVSPost2010PropOp33
 70
     1
102
RTVSPost2010Prop34
280
     0
102
RTVSPost2010PropOp34
 70
     1
102
RTVSPost2010Prop35
280
     0
102
RTVSPost2010PropOp35
 70
     1
102
RTVSPost2010Prop36
280
     0
102
RTVSPost2010PropOp36
 70
     1
102
RTVSPost2010Prop37
 90
       50
102
RTVSPost2010PropOp37
 70
     1
102
RTVSPost2010Prop38
140
0.0
102
RTVSPost2010PropOp38
 70
     1
102
RTVSPost2010Prop39
140
1.0
102
RTVSPost2010PropOp39
 70
     1
102
RTVSPost2010Prop40
 90
        0
102
RTVSPost2010PropOp40
 70
     1
102
RTVSPost2010Prop41ColorIndex
 90
       18
102
RTVSPost2010Prop41ColorRGB
 90
        0
102
RTVSPost2010PropOp41
 70
     1
102
RTVSPost2010Prop42
 90
       50
102
RTVSPost2010PropOp42
 70
     1
102
RTVSPost2010Prop43
 90
        3
102
RTVSPost2010PropOp43
 70
     1
102
RTVSPost2010Prop44ColorIndex
 90
        5
102
RTVSPost2010Prop44ColorRGB
 90
      255
102
RTVSPost2010PropOp44
 70
     1
102
RTVSPost2010Prop45
280
     0
102
RTVSPost2010PropOp45
 70
     1
102
RTVSPost2010Prop46
 90
       50
102
RTVSPost2010PropOp46
 70
     1
102
RTVSPost2010Prop47
 90
       50
102
RTVSPost2010PropOp47
 70
     1
102
RTVSPost2010Prop48
 90
       50
102
RTVSPost2010PropOp48
 70
     1
102
RTVSPost2010Prop49
280
     0
102
RTVSPost2010PropOp49
 70
     1
102
RTVSPost2010Prop50
 90
       50
102
RTVSPost2010PropOp50
 70
     1
102
RTVSPost2010Prop51ColorIndex
 90
      256
102
RTVSPost2010Prop51ColorRGB
 90
-16777216
102
RTVSPost2010PropOp51
 70
     0
102
RTVSPost2010Prop52
140
1.0
102
RTVSPost2010PropOp52
 70
     0
102
RTVSPost2010Prop53
 90
        2
102
RTVSPost2010PropOp53
 70
     1
102
RTVSPost2010Prop54
  1
strokes_ogs.tif
102
RTVSPost2010PropOp54
 70
     1
102
RTVSPost2010Prop55
280
     0
102
RTVSPost2010PropOp55
 70
     1
102
RTVSPost2010Prop56
140
1.0
102
RTVSPost2010PropOp56
 70
     1
102
RTVSPost2010Prop57
140
1.0
102
RTVSPost2010PropOp57
 70
     1
  0
XRECORD
  5
131
102
{ACAD_REACTORS
330
130
102
}
330
130
100
AcDbXrecord
280
     1
102
RTVSPost2010Prop28
280
     0
102
RTVSPost2010PropOp28
 70
     1
102
RTVSPost2010Prop29
280
     1
102
RTVSPost2010PropOp29
 70
     1
102
RTVSPost2010Prop30
280
     1
102
RTVSPost2010PropOp30
 70
     1
102
RTVSPost2010Prop31
280
     0
102
RTVSPost2010PropOp31
 70
     1
102
RTVSPost2010Prop32
280
     0
102
RTVSPost2010PropOp32
 70
     1
102
RTVSPost2010Prop33
280
     0
102
RTVSPost2010PropOp33
 70
     1
102
RTVSPost2010Prop34
280
     0
102
RTVSPost2010PropOp34
 70
     1
102
RTVSPost2010Prop35
280
     0
102
RTVSPost2010PropOp35
 70
     1
102
RTVSPost2010Prop36
280
     0
102
RTVSPost2010PropOp36
 70
     1
102
RTVSPost2010Prop37
 90
       50
102
RTVSPost2010PropOp37
 70
     1
102
RTVSPost2010Prop38
140
0.0
102
RTVSPost2010PropOp38
 70
     1
102
RTVSPost2010Prop39
140
1.0
102
RTVSPost2010PropOp39
 70
     1
102
RTVSPost2010Prop40
 90
        0
102
RTVSPost2010PropOp40
 70
     1
102
RTVSPost2010Prop41ColorIndex
 90
       18
102
RTVSPost2010Prop41ColorRGB
 90
        0
102
RTVSPost2010PropOp41
 70
     1
102
RTVSPost2010Prop42
 90
       50
102
RTVSPost2010PropOp42
 70
     1
102
RTVSPost2010Prop43
 90
        3
102
RTVSPost2010PropOp43
 70
     1
102
RTVSPost2010Prop44ColorIndex
 90
        5
102
RTVSPost2010Prop44ColorRGB
 90
      255
102
RTVSPost2010PropOp44
 70
     1
102
RTVSPost2010Prop45
280
     0
102
RTVSPost2010PropOp45
 70
     1
102
RTVSPost2010Prop46
 90
       50
102
RTVSPost2010PropOp46
 70
     1
102
RTVSPost2010Prop47
 90
       50
102
RTVSPost2010PropOp47
 70
     1
102
RTVSPost2010Prop48
 90
       50
102
RTVSPost2010PropOp48
 70
     1
102
RTVSPost2010Prop49
280
     0
102
RTVSPost2010PropOp49
 70
     1
102
RTVSPost2010Prop50
 90
       50
102
RTVSPost2010PropOp50
 70
     1
102
RTVSPost2010Prop51ColorIndex
 90
      256
102
RTVSPost2010Prop51ColorRGB
 90
-16777216
102
RTVSPost2010PropOp51
 70
     0
102
RTVSPost2010Prop52
140
1.0
102
RTVSPost2010PropOp52
 70
     0
102
RTVSPost2010Prop53
 90
        2
102
RTVSPost2010PropOp53
 70
     1
102
RTVSPost2010Prop54
  1
strokes_ogs.tif
102
RTVSPost2010PropOp54
 70
     1
102
RTVSPost2010Prop55
280
     0
102
RTVSPost2010PropOp55
 70
     1
102
RTVSPost2010Prop56
140
1.0
102
RTVSPost2010PropOp56
 70
     1
102
RTVSPost2010Prop57
140
1.0
102
RTVSPost2010PropOp57
 70
     1
  0
XRECORD
  5
133
102
{ACAD_REACTORS
330
132
102
}
330
132
100
AcDbXrecord
280
     1
102
RTVSPost2010Prop28
280
     0
102
RTVSPost2010PropOp28
 70
     1
102
RTVSPost2010Prop29
280
     1
102
RTVSPost2010PropOp29
 70
     1
102
RTVSPost2010Prop30
280
     1
102
RTVSPost2010PropOp30
 70
     1
102
RTVSPost2010Prop31
280
     0
102
RTVSPost2010PropOp31
 70
     1
102
RTVSPost2010Prop32
280
     0
102
RTVSPost2010PropOp32
 70
     1
102
RTVSPost2010Prop33
280
     0
102
RTVSPost2010PropOp33
 70
     1
102
RTVSPost2010Prop34
280
     0
102
RTVSPost2010PropOp34
 70
     1
102
RTVSPost2010Prop35
280
     0
102
RTVSPost2010PropOp35
 70
     1
102
RTVSPost2010Prop36
280
     0
102
RTVSPost2010PropOp36
 70
     1
102
RTVSPost2010Prop37
 90
       50
102
RTVSPost2010PropOp37
 70
     1
102
RTVSPost2010Prop38
140
0.0
102
RTVSPost2010PropOp38
 70
     1
102
RTVSPost2010Prop39
140
1.0
102
RTVSPost2010PropOp39
 70
     1
102
RTVSPost2010Prop40
 90
        0
102
RTVSPost2010PropOp40
 70
     1
102
RTVSPost2010Prop41ColorIndex
 90
       18
102
RTVSPost2010Prop41ColorRGB
 90
        0
102
RTVSPost2010PropOp41
 70
     1
102
RTVSPost2010Prop42
 90
       50
102
RTVSPost2010PropOp42
 70
     1
102
RTVSPost2010Prop43
 90
        3
102
RTVSPost2010PropOp43
 70
     1
102
RTVSPost2010Prop44ColorIndex
 90
        5
102
RTVSPost2010Prop44ColorRGB
 90
      255
102
RTVSPost2010PropOp44
 70
     1
102
RTVSPost2010Prop45
280
     0
102
RTVSPost2010PropOp45
 70
     1
102
RTVSPost2010Prop46
 90
       50
102
RTVSPost2010PropOp46
 70
     1
102
RTVSPost2010Prop47
 90
       50
102
RTVSPost2010PropOp47
 70
     1
102
RTVSPost2010Prop48
 90
       50
102
RTVSPost2010PropOp48
 70
     1
102
RTVSPost2010Prop49
280
     0
102
RTVSPost2010PropOp49
 70
     1
102
RTVSPost2010Prop50
 90
       50
102
RTVSPost2010PropOp50
 70
     1
102
RTVSPost2010Prop51ColorIndex
 90
      256
102
RTVSPost2010Prop51ColorRGB
 90
-16777216
102
RTVSPost2010PropOp51
 70
     0
102
RTVSPost2010Prop52
140
1.0
102
RTVSPost2010PropOp52
 70
     0
102
RTVSPost2010Prop53
 90
        2
102
RTVSPost2010PropOp53
 70
     1
102
RTVSPost2010Prop54
  1
strokes_ogs.tif
102
RTVSPost2010PropOp54
 70
     1
102
RTVSPost2010Prop55
280
     0
102
RTVSPost2010PropOp55
 70
     1
102
RTVSPost2010Prop56
140
1.0
102
RTVSPost2010PropOp56
 70
     1
102
RTVSPost2010Prop57
140
1.0
102
RTVSPost2010PropOp57
 70
     1
  0
XRECORD
  5
129
102
{ACAD_REACTORS
330
128
102
}
330
128
100
AcDbXrecord
280
     1
102
RTVSPost2010Prop28
280
     0
102
RTVSPost2010PropOp28
 70
     1
102
RTVSPost2010Prop29
280
     1
102
RTVSPost2010PropOp29
 70
     1
102
RTVSPost2010Prop30
280
     1
102
RTVSPost2010PropOp30
 70
     1
102
RTVSPost2010Prop31
280
     0
102
RTVSPost2010PropOp31
 70
     1
102
RTVSPost2010Prop32
280
     0
102
RTVSPost2010PropOp32
 70
     1
102
RTVSPost2010Prop33
280
     0
102
RTVSPost2010PropOp33
 70
     1
102
RTVSPost2010Prop34
280
     0
102
RTVSPost2010PropOp34
 70
     1
102
RTVSPost2010Prop35
280
     0
102
RTVSPost2010PropOp35
 70
     1
102
RTVSPost2010Prop36
280
     0
102
RTVSPost2010PropOp36
 70
     1
102
RTVSPost2010Prop37
 90
       50
102
RTVSPost2010PropOp37
 70
     1
102
RTVSPost2010Prop38
140
0.0
102
RTVSPost2010PropOp38
 70
     1
102
RTVSPost2010Prop39
140
1.0
102
RTVSPost2010PropOp39
 70
     1
102
RTVSPost2010Prop40
 90
        0
102
RTVSPost2010PropOp40
 70
     1
102
RTVSPost2010Prop41ColorIndex
 90
       18
102
RTVSPost2010Prop41ColorRGB
 90
        0
102
RTVSPost2010PropOp41
 70
     1
102
RTVSPost2010Prop42
 90
       50
102
RTVSPost2010PropOp42
 70
     1
102
RTVSPost2010Prop43
 90
        3
102
RTVSPost2010PropOp43
 70
     1
102
RTVSPost2010Prop44ColorIndex
 90
        5
102
RTVSPost2010Prop44ColorRGB
 90
      255
102
RTVSPost2010PropOp44
 70
     1
102
RTVSPost2010Prop45
280
     0
102
RTVSPost2010PropOp45
 70
     1
102
RTVSPost2010Prop46
 90
       50
102
RTVSPost2010PropOp46
 70
     1
102
RTVSPost2010Prop47
 90
       50
102
RTVSPost2010PropOp47
 70
     1
102
RTVSPost2010Prop48
 90
       50
102
RTVSPost2010PropOp48
 70
     1
102
RTVSPost2010Prop49
280
     0
102
RTVSPost2010PropOp49
 70
     1
102
RTVSPost2010Prop50
 90
       50
102
RTVSPost2010PropOp50
 70
     1
102
RTVSPost2010Prop51ColorIndex
 90
      256
102
RTVSPost2010Prop51ColorRGB
 90
-16777216
102
RTVSPost2010PropOp51
 70
     0
102
RTVSPost2010Prop52
140
1.0
102
RTVSPost2010PropOp52
 70
     0
102
RTVSPost2010Prop53
 90
        2
102
RTVSPost2010PropOp53
 70
     1
102
RTVSPost2010Prop54
  1
strokes_ogs.tif
102
RTVSPost2010PropOp54
 70
     1
102
RTVSPost2010Prop55
280
     0
102
RTVSPost2010PropOp55
 70
     1
102
RTVSPost2010Prop56
140
1.0
102
RTVSPost2010PropOp56
 70
     1
102
RTVSPost2010Prop57
140
1.0
102
RTVSPost2010PropOp57
 70
     1
  0
XRECORD
  5
11D
102
{ACAD_REACTORS
330
11C
102
}
330
11C
100
AcDbXrecord
280
     1
102
RTVSPost2010Prop28
280
     0
102
RTVSPost2010PropOp28
 70
     1
102
RTVSPost2010Prop29
280
     1
102
RTVSPost2010PropOp29
 70
     1
102
RTVSPost2010Prop30
280
     1
102
RTVSPost2010PropOp30
 70
     1
102
RTVSPost2010Prop31
280
     0
102
RTVSPost2010PropOp31
 70
     1
102
RTVSPost2010Prop32
280
     0
102
RTVSPost2010PropOp32
 70
     1
102
RTVSPost2010Prop33
280
     0
102
RTVSPost2010PropOp33
 70
     1
102
RTVSPost2010Prop34
280
     0
102
RTVSPost2010PropOp34
 70
     1
102
RTVSPost2010Prop35
280
     0
102
RTVSPost2010PropOp35
 70
     1
102
RTVSPost2010Prop36
280
     0
102
RTVSPost2010PropOp36
 70
     1
102
RTVSPost2010Prop37
 90
       50
102
RTVSPost2010PropOp37
 70
     1
102
RTVSPost2010Prop38
140
0.0
102
RTVSPost2010PropOp38
 70
     1
102
RTVSPost2010Prop39
140
1.0
102
RTVSPost2010PropOp39
 70
     1
102
RTVSPost2010Prop40
 90
        0
102
RTVSPost2010PropOp40
 70
     1
102
RTVSPost2010Prop41ColorIndex
 90
       18
102
RTVSPost2010Prop41ColorRGB
 90
        0
102
RTVSPost2010PropOp41
 70
     1
102
RTVSPost2010Prop42
 90
       50
102
RTVSPost2010PropOp42
 70
     1
102
RTVSPost2010Prop43
 90
        3
102
RTVSPost2010PropOp43
 70
     1
102
RTVSPost2010Prop44ColorIndex
 90
        5
102
RTVSPost2010Prop44ColorRGB
 90
      255
102
RTVSPost2010PropOp44
 70
     1
102
RTVSPost2010Prop45
280
     0
102
RTVSPost2010PropOp45
 70
     1
102
RTVSPost2010Prop46
 90
       50
102
RTVSPost2010PropOp46
 70
     1
102
RTVSPost2010Prop47
 90
       50
102
RTVSPost2010PropOp47
 70
     1
102
RTVSPost2010Prop48
 90
       50
102
RTVSPost2010PropOp48
 70
     1
102
RTVSPost2010Prop49
280
     0
102
RTVSPost2010PropOp49
 70
     1
102
RTVSPost2010Prop50
 90
       50
102
RTVSPost2010PropOp50
 70
     1
102
RTVSPost2010Prop51ColorIndex
 90
      256
102
RTVSPost2010Prop51ColorRGB
 90
-16777216
102
RTVSPost2010PropOp51
 70
     0
102
RTVSPost2010Prop52
140
1.0
102
RTVSPost2010PropOp52
 70
     0
102
RTVSPost2010Prop53
 90
        2
102
RTVSPost2010PropOp53
 70
     1
102
RTVSPost2010Prop54
  1
strokes_ogs.tif
102
RTVSPost2010PropOp54
 70
     1
102
RTVSPost2010Prop55
280
     0
102
RTVSPost2010PropOp55
 70
     1
102
RTVSPost2010Prop56
140
1.0
102
RTVSPost2010PropOp56
 70
     1
102
RTVSPost2010Prop57
140
1.0
102
RTVSPost2010PropOp57
 70
     1
  0
XRECORD
  5
135
102
{ACAD_REACTORS
330
134
102
}
330
134
100
AcDbXrecord
280
     1
102
RTVSPost2010Prop28
280
     0
102
RTVSPost2010PropOp28
 70
     1
102
RTVSPost2010Prop29
280
     1
102
RTVSPost2010PropOp29
 70
     1
102
RTVSPost2010Prop30
280
     1
102
RTVSPost2010PropOp30
 70
     1
102
RTVSPost2010Prop31
280
     0
102
RTVSPost2010PropOp31
 70
     1
102
RTVSPost2010Prop32
280
     0
102
RTVSPost2010PropOp32
 70
     1
102
RTVSPost2010Prop33
280
     0
102
RTVSPost2010PropOp33
 70
     1
102
RTVSPost2010Prop34
280
     0
102
RTVSPost2010PropOp34
 70
     1
102
RTVSPost2010Prop35
280
     0
102
RTVSPost2010PropOp35
 70
     1
102
RTVSPost2010Prop36
280
     0
102
RTVSPost2010PropOp36
 70
     1
102
RTVSPost2010Prop37
 90
       50
102
RTVSPost2010PropOp37
 70
     1
102
RTVSPost2010Prop38
140
0.0
102
RTVSPost2010PropOp38
 70
     1
102
RTVSPost2010Prop39
140
1.0
102
RTVSPost2010PropOp39
 70
     1
102
RTVSPost2010Prop40
 90
        0
102
RTVSPost2010PropOp40
 70
     1
102
RTVSPost2010Prop41ColorIndex
 90
       18
102
RTVSPost2010Prop41ColorRGB
 90
        0
102
RTVSPost2010PropOp41
 70
     1
102
RTVSPost2010Prop42
 90
       50
102
RTVSPost2010PropOp42
 70
     1
102
RTVSPost2010Prop43
 90
        3
102
RTVSPost2010PropOp43
 70
     1
102
RTVSPost2010Prop44ColorIndex
 90
        5
102
RTVSPost2010Prop44ColorRGB
 90
      255
102
RTVSPost2010PropOp44
 70
     1
102
RTVSPost2010Prop45
280
     0
102
RTVSPost2010PropOp45
 70
     1
102
RTVSPost2010Prop46
 90
       50
102
RTVSPost2010PropOp46
 70
     1
102
RTVSPost2010Prop47
 90
       50
102
RTVSPost2010PropOp47
 70
     1
102
RTVSPost2010Prop48
 90
       50
102
RTVSPost2010PropOp48
 70
     1
102
RTVSPost2010Prop49
280
     0
102
RTVSPost2010PropOp49
 70
     1
102
RTVSPost2010Prop50
 90
       50
102
RTVSPost2010PropOp50
 70
     1
102
RTVSPost2010Prop51ColorIndex
 90
      256
102
RTVSPost2010Prop51ColorRGB
 90
-16777216
102
RTVSPost2010PropOp51
 70
     0
102
RTVSPost2010Prop52
140
1.0
102
RTVSPost2010PropOp52
 70
     0
102
RTVSPost2010Prop53
 90
        2
102
RTVSPost2010PropOp53
 70
     1
102
RTVSPost2010Prop54
  1
strokes_ogs.tif
102
RTVSPost2010PropOp54
 70
     1
102
RTVSPost2010Prop55
280
     0
102
RTVSPost2010PropOp55
 70
     1
102
RTVSPost2010Prop56
140
1.0
102
RTVSPost2010PropOp56
 70
     1
102
RTVSPost2010Prop57
140
1.0
102
RTVSPost2010PropOp57
 70
     1
  0
ENDSEC
  0
EOF
