  0
SECTION
  2
HEADER
  9
$ACADVER
  1
AC1024
  9
$ACADMAINTVER
 70
   226
  9
$DWGCODEPAGE
  3
ANSI_1252
  9
$INSBASE
 10
0.0
 20
0.0
 30
0.0
  9
$EXTMIN
 10
1.000000000000000E+20
 20
1.000000000000000E+20
 30
1.000000000000000E+20
  9
$EXTMAX
 10
-1.000000000000000E+20
 20
-1.000000000000000E+20
 30
-1.000000000000000E+20
  9
$LIMMIN
 10
0.0
 20
0.0
  9
$LIMMAX
 10
12.0
 20
9.0
  9
$ORTHOMODE
 70
     0
  9
$REGENMODE
 70
     1
  9
$FILLMODE
 70
     1
  9
$QTEXTMODE
 70
     0
  9
$MIRRTEXT
 70
     0
  9
$LTSCALE
 40
1.0
  9
$ATTMODE
 70
     1
  9
$TEXTSIZE
 40
0.2
  9
$TRACEWID
 40
0.05
  9
$TEXTSTYLE
  7
Standard
  9
$CLAYER
  8
0
  9
$CELTYPE
  6
ByLayer
  9
$CECOLOR
 62
   256
  9
$CELTSCALE
 40
1.0
  9
$DISPSILH
 70
     0
  9
$DIMSCALE
 40
1.0
  9
$DIMASZ
 40
0.18
  9
$DIMEXO
 40
0.0625
  9
$DIMDLI
 40
0.38
  9
$DIMRND
 40
0.0
  9
$DIMDLE
 40
0.0
  9
$DIMEXE
 40
0.18
  9
$DIMTP
 40
0.0
  9
$DIMTM
 40
0.0
  9
$DIMTXT
 40
0.18
  9
$DIMCEN
 40
0.09
  9
$DIMTSZ
 40
0.0
  9
$DIMTOL
 70
     0
  9
$DIMLIM
 70
     0
  9
$DIMTIH
 70
     1
  9
$DIMTOH
 70
     1
  9
$DIMSE1
 70
     0
  9
$DIMSE2
 70
     0
  9
$DIMTAD
 70
     0
  9
$DIMZIN
 70
     0
  9
$DIMBLK
  1

  9
$DIMASO
 70
     1
  9
$DIMSHO
 70
     1
  9
$DIMPOST
  1

  9
$DIMAPOST
  1

  9
$DIMALT
 70
     0
  9
$DIMALTD
 70
     2
  9
$DIMALTF
 40
25.4
  9
$DIMLFAC
 40
1.0
  9
$DIMTOFL
 70
     0
  9
$DIMTVP
 40
0.0
  9
$DIMTIX
 70
     0
  9
$DIMSOXD
 70
     0
  9
$DIMSAH
 70
     0
  9
$DIMBLK1
  1

  9
$DIMBLK2
  1

  9
$DIMSTYLE
  2
Standard
  9
$DIMCLRD
 70
     0
  9
$DIMCLRE
 70
     0
  9
$DIMCLRT
 70
     0
  9
$DIMTFAC
 40
1.0
  9
$DIMGAP
 40
0.09
  9
$DIMJUST
 70
     0
  9
$DIMSD1
 70
     0
  9
$DIMSD2
 70
     0
  9
$DIMTOLJ
 70
     1
  9
$DIMTZIN
 70
     0
  9
$DIMALTZ
 70
     0
  9
$DIMALTTZ
 70
     0
  9
$DIMUPT
 70
     0
  9
$DIMDEC
 70
     4
  9
$DIMTDEC
 70
     4
  9
$DIMALTU
 70
     2
  9
$DIMALTTD
 70
     2
  9
$DIMTXSTY
  7
Standard
  9
$DIMAUNIT
 70
     0
  9
$DIMADEC
 70
     0
  9
$DIMALTRND
 40
0.0
  9
$DIMAZIN
 70
     0
  9
$DIMDSEP
 70
    46
  9
$DIMATFIT
 70
     3
  9
$DIMFRAC
 70
     0
  9
$DIMLDRBLK
  1

  9
$DIMLUNIT
 70
     2
  9
$DIMLWD
 70
    -2
  9
$DIMLWE
 70
    -2
  9
$DIMTMOVE
 70
     0
  9
$DIMFXL
 40
1.0
  9
$DIMFXLON
 70
     0
  9
$DIMJOGANG
 40
0.7853981633974483
  9
$DIMTFILL
 70
     0
  9
$DIMTFILLCLR
 70
     0
  9
$DIMARCSYM
 70
     0
  9
$DIMLTYPE
  6

  9
$DIMLTEX1
  6

  9
$DIMLTEX2
  6

  9
$DIMTXTDIRECTION
 70
     0
  9
$LUNITS
 70
     2
  9
$LUPREC
 70
     4
  9
$SKETCHINC
 40
0.1
  9
$FILLETRAD
 40
0.0
  9
$AUNITS
 70
     0
  9
$AUPREC
 70
     0
  9
$MENU
  1
.
  9
$ELEVATION
 40
0.0
  9
$PELEVATION
 40
0.0
  9
$THICKNESS
 40
0.0
  9
$LIMCHECK
 70
     0
  9
$CHAMFERA
 40
0.0
  9
$CHAMFERB
 40
0.0
  9
$CHAMFERC
 40
0.0
  9
$CHAMFERD
 40
0.0
  9
$SKPOLY
 70
     0
  9
$TDCREATE
 40
2460209.830254630
  9
$TDUCREATE
 40
2460209.746921297
  9
$TDUPDATE
 40
2460209.830254630
  9
$TDUUPDATE
 40
2460209.746921297
  9
$TDINDWG
 40
0.0000115741
  9
$TDUSRTIMER
 40
0.0000115741
  9
$USRTIMER
 70
     1
  9
$ANGBASE
 50
0.0
  9
$ANGDIR
 70
     0
  9
$PDMODE
 70
     0
  9
$PDSIZE
 40
0.0
  9
$PLINEWID
 40
0.0
  9
$SPLFRAME
 70
     0
  9
$SPLINETYPE
 70
     6
  9
$SPLINESEGS
 70
     8
  9
$HANDSEED
  5
160
  9
$SURFTAB1
 70
     6
  9
$SURFTAB2
 70
     6
  9
$SURFTYPE
 70
     6
  9
$SURFU
 70
     6
  9
$SURFV
 70
     6
  9
$UCSBASE
  2

  9
$UCSNAME
  2

  9
$UCSORG
 10
0.0
 20
0.0
 30
0.0
  9
$UCSXDIR
 10
1.0
 20
0.0
 30
0.0
  9
$UCSYDIR
 10
0.0
 20
1.0
 30
0.0
  9
$UCSORTHOREF
  2

  9
$UCSORTHOVIEW
 70
     0
  9
$UCSORGTOP
 10
0.0
 20
0.0
 30
0.0
  9
$UCSORGBOTTOM
 10
0.0
 20
0.0
 30
0.0
  9
$UCSORGLEFT
 10
0.0
 20
0.0
 30
0.0
  9
$UCSORGRIGHT
 10
0.0
 20
0.0
 30
0.0
  9
$UCSORGFRONT
 10
0.0
 20
0.0
 30
0.0
  9
$UCSORGBACK
 10
0.0
 20
0.0
 30
0.0
  9
$PUCSBASE
  2

  9
$PUCSNAME
  2

  9
$PUCSORG
 10
0.0
 20
0.0
 30
0.0
  9
$PUCSXDIR
 10
1.0
 20
0.0
 30
0.0
  9
$PUCSYDIR
 10
0.0
 20
1.0
 30
0.0
  9
$PUCSORTHOREF
  2

  9
$PUCSORTHOVIEW
 70
     0
  9
$PUCSORGTOP
 10
0.0
 20
0.0
 30
0.0
  9
$PUCSORGBOTTOM
 10
0.0
 20
0.0
 30
0.0
  9
$PUCSORGLEFT
 10
0.0
 20
0.0
 30
0.0
  9
$PUCSORGRIGHT
 10
0.0
 20
0.0
 30
0.0
  9
$PUCSORGFRONT
 10
0.0
 20
0.0
 30
0.0
  9
$PUCSORGBACK
 10
0.0
 20
0.0
 30
0.0
  9
$USERI1
 70
     0
  9
$USERI2
 70
     0
  9
$USERI3
 70
     0
  9
$USERI4
 70
     0
  9
$USERI5
 70
     0
  9
$USERR1
 40
0.0
  9
$USERR2
 40
0.0
  9
$USERR3
 40
0.0
  9
$USERR4
 40
0.0
  9
$USERR5
 40
0.0
  9
$WORLDVIEW
 70
     1
  9
$SHADEDGE
 70
     3
  9
$SHADEDIF
 70
    70
  9
$TILEMODE
 70
     1
  9
$MAXACTVP
 70
    64
  9
$PINSBASE
 10
0.0
 20
0.0
 30
0.0
  9
$PLIMCHECK
 70
     0
  9
$PEXTMIN
 10
1.000000000000000E+20
 20
1.000000000000000E+20
 30
1.000000000000000E+20
  9
$PEXTMAX
 10
-1.000000000000000E+20
 20
-1.000000000000000E+20
 30
-1.000000000000000E+20
  9
$PLIMMIN
 10
0.0
 20
0.0
  9
$PLIMMAX
 10
12.0
 20
9.0
  9
$UNITMODE
 70
     0
  9
$VISRETAIN
 70
     1
  9
$PLINEGEN
 70
     0
  9
$PSLTSCALE
 70
     1
  9
$TREEDEPTH
 70
  3020
  9
$CMLSTYLE
  2
Standard
  9
$CMLJUST
 70
     0
  9
$CMLSCALE
 40
1.0
  9
$PROXYGRAPHICS
 70
     1
  9
$MEASUREMENT
 70
     0
  9
$CELWEIGHT
370
    -1
  9
$ENDCAPS
280
     0
  9
$JOINSTYLE
280
     0
  9
$LWDISPLAY
290
     1
  9
$INSUNITS
 70
     4
  9
$HYPERLINKBASE
  1

  9
$STYLESHEET
  1

  9
$XEDIT
290
     1
  9
$CEPSNTYPE
380
     0
  9
$PSTYLEMODE
290
     1
  9
$FINGERPRINTGUID
  2
{B3C8C33D-D4CD-9E41-9233-20A382499BBD}
  9
$VERSIONGUID
  2
{8352E80C-B3EE-F64F-8840-F4447EB6A9FA}
  9
$EXTNAMES
290
     1
  9
$PSVPSCALE
 40
0.0
  9
$OLESTARTUP
290
     0
  9
$SORTENTS
280
   127
  9
$INDEXCTL
280
     0
  9
$HIDETEXT
280
     1
  9
$XCLIPFRAME
280
     2
  9
$HALOGAP
280
     0
  9
$OBSCOLOR
 70
   257
  9
$OBSLTYPE
280
     0
  9
$INTERSECTIONDISPLAY
280
     0
  9
$INTERSECTIONCOLOR
 70
   257
  9
$DIMASSOC
280
     2
  9
$PROJECTNAME
  1

  9
$CAMERADISPLAY
290
     0
  9
$LENSLENGTH
 40
50.0
  9
$CAMERAHEIGHT
 40
0.0
  9
$STEPSPERSEC
 40
2.0
  9
$STEPSIZE
 40
6.0
  9
$3DDWFPREC
 40
2.0
  9
$PSOLWIDTH
 40
0.25
  9
$PSOLHEIGHT
 40
4.0
  9
$LOFTANG1
 40
1.570796326794896
  9
$LOFTANG2
 40
1.570796326794896
  9
$LOFTMAG1
 40
0.0
  9
$LOFTMAG2
 40
0.0
  9
$LOFTPARAM
 70
     7
  9
$LOFTNORMALS
280
     1
  9
$LATITUDE
 40
37.795
  9
$LONGITUDE
 40
-122.394
  9
$NORTHDIRECTION
 40
0.0
  9
$TIMEZONE
 70
 -8000
  9
$LIGHTGLYPHDISPLAY
280
     1
  9
$TILEMODELIGHTSYNCH
280
     1
  9
$CMATERIAL
347
11
  9
$SOLIDHIST
280
     0
  9
$SHOWHIST
280
     1
  9
$DWFFRAME
280
     2
  9
$DGNFRAME
280
     0
  9
$REALWORLDSCALE
290
     1
  9
$INTERFERECOLOR
 62
     1
  9
$INTERFEREOBJVS
345
33
  9
$INTERFEREVPVS
346
30
  9
$CSHADOW
280
     0
  9
$SHADOWPLANELOCATION
 40
0.0
  0
ENDSEC
  0
SECTION
  2
CLASSES
  0
CLASS
  1
ACDBDICTIONARYWDFLT
  2
AcDbDictionaryWithDefault
  3
ObjectDBX Classes
 90
        0
 91
        1
280
     0
281
     0
  0
CLASS
  1
MATERIAL
  2
AcDbMaterial
  3
ObjectDBX Classes
 90
     1153
 91
        3
280
     0
281
     0
  0
CLASS
  1
VISUALSTYLE
  2
AcDbVisualStyle
  3
ObjectDBX Classes
 90
     4095
 91
       24
280
     0
281
     0
  0
CLASS
  1
SCALE
  2
AcDbScale
  3
ObjectDBX Classes
 90
     1153
 91
       17
280
     0
281
     0
  0
CLASS
  1
TABLESTYLE
  2
AcDbTableStyle
  3
ObjectDBX Classes
 90
     4095
 91
        1
280
     0
281
     0
  0
CLASS
  1
MLEADERSTYLE
  2
AcDbMLeaderStyle
  3
ACDB_MLEADERSTYLE_CLASS
 90
     4095
 91
        1
280
     0
281
     0
  0
CLASS
  1
ACDBSECTIONVIEWSTYLE
  2
AcDbSectionViewStyle
  3
ObjectDBX Classes
 90
     1025
 91
        1
280
     0
281
     0
  0
CLASS
  1
ACDBDETAILVIEWSTYLE
  2
AcDbDetailViewStyle
  3
ObjectDBX Classes
 90
     1025
 91
        1
280
     0
281
     0
  0
CLASS
  1
DICTIONARYVAR
  2
AcDbDictionaryVar
  3
ObjectDBX Classes
 90
        0
 91
        5
280
     0
281
     0
  0
CLASS
  1
CELLSTYLEMAP
  2
AcDbCellStyleMap
  3
ObjectDBX Classes
 90
     1152
 91
        1
280
     0
281
     0
  0
ENDSEC
  0
SECTION
  2
TABLES
  0
TABLE
  2
VPORT
  5
8
330
0
100
AcDbSymbolTable
 70
     1
  0
VPORT
  5
57
330
8
100
AcDbSymbolTableRecord
100
AcDbViewportTableRecord
  2
*Active
 70
     0
 10
0.0
 20
0.0
 11
1.0
 21
1.0
 12
0.0
 22
0.0
 13
0.0
 23
0.0
 14
1.0
 24
1.0
 15
0.0
 25
0.0
 16
0.0
 26
0.0
 36
1.0
 17
104.951388862651
 27
148.5194444073146
 37
0.0
 40
302.9796665909217
 41
0.7066508313539194
 42
50.0
 43
0.0
 44
0.0
 50
0.0
 51
0.0
 71
     0
 72
   100
 73
     1
 74
     1
 75
     0
 76
     0
 77
     0
 78
     0
281
     0
 65
     1
110
0.0
120
0.0
130
0.0
111
1.0
121
0.0
131
0.0
112
0.0
122
1.0
132
0.0
 79
     0
146
0.0
 60
     3
 61
     5
292
     1
282
     1
141
0.0
142
0.0
 63
   250
421
  3355443
  0
ENDTAB
  0
TABLE
  2
LTYPE
  5
5
330
0
100
AcDbSymbolTable
 70
     1
  0
LTYPE
  5
5B
330
5
100
AcDbSymbolTableRecord
100
AcDbLinetypeTableRecord
  2
ByBlock
 70
     0
  3

 72
    65
 73
     0
 40
0.0
  0
LTYPE
  5
5C
330
5
100
AcDbSymbolTableRecord
100
AcDbLinetypeTableRecord
  2
ByLayer
 70
     0
  3

 72
    65
 73
     0
 40
0.0
  0
LTYPE
  5
5D
330
5
100
AcDbSymbolTableRecord
100
AcDbLinetypeTableRecord
  2
Continuous
 70
     0
  3
Solid line
 72
    65
 73
     0
 40
0.0
  0
ENDTAB
  0
TABLE
  2
LAYER
  5
2
330
0
100
AcDbSymbolTable
 70
     2
  0
LAYER
  5
54
330
2
100
AcDbSymbolTableRecord
100
AcDbLayerTableRecord
  2
0
 70
     0
 62
     7
  6
Continuous
370
    -3
390
F
347
21
  0
LAYER
  5
78
330
2
100
AcDbSymbolTableRecord
100
AcDbLayerTableRecord
  2
Capa 1
 70
     0
 62
     7
  6
Continuous
370
     0
390
F
347
21
  0
ENDTAB
  0
TABLE
  2
STYLE
  5
3
330
0
100
AcDbSymbolTable
 70
     2
  0
STYLE
  5
55
330
3
100
AcDbSymbolTableRecord
100
AcDbTextStyleTableRecord
  2
Standard
 70
     0
 40
0.0
 41
1.0
 50
0.0
 71
     0
 42
0.2
  3
txt
  4

  0
STYLE
  5
5A
330
3
100
AcDbSymbolTableRecord
100
AcDbTextStyleTableRecord
  2
Annotative
 70
     0
 40
0.0
 41
1.0
 50
0.0
 71
     0
 42
0.2
  3
txt
  4

1001
AcadAnnotative
1000
AnnotativeData
1002
{
1070
     1
1070
     1
1002
}
  0
ENDTAB
  0
TABLE
  2
VIEW
  5
6
330
0
100
AcDbSymbolTable
 70
     0
  0
ENDTAB
  0
TABLE
  2
UCS
  5
7
330
0
100
AcDbSymbolTable
 70
     0
  0
ENDTAB
  0
TABLE
  2
APPID
  5
9
330
0
100
AcDbSymbolTable
 70
     2
  0
APPID
  5
56
330
9
100
AcDbSymbolTableRecord
100
AcDbRegAppTableRecord
  2
ACAD
 70
     0
  0
APPID
  5
5E
330
9
100
AcDbSymbolTableRecord
100
AcDbRegAppTableRecord
  2
AcadAnnotative
 70
     0
  0
ENDTAB
  0
TABLE
  2
DIMSTYLE
  5
A
330
0
100
AcDbSymbolTable
 70
     2
100
AcDbDimStyleTable
 71
     0
  0
DIMSTYLE
105
58
330
A
100
AcDbSymbolTableRecord
100
AcDbDimStyleTableRecord
  2
Standard
 70
     0
340
55
  0
DIMSTYLE
105
59
330
A
100
AcDbSymbolTableRecord
100
AcDbDimStyleTableRecord
  2
Annotative
 70
     0
340
55
1001
AcadAnnotative
1000
AnnotativeData
1002
{
1070
     1
1070
     1
1002
}
  0
ENDTAB
  0
TABLE
  2
BLOCK_RECORD
  5
1
330
0
100
AcDbSymbolTable
 70
     1
  0
BLOCK_RECORD
  5
70
330
1
100
AcDbSymbolTableRecord
100
AcDbBlockTableRecord
  2
*Model_Space
340
73
 70
     0
280
     1
281
     0
  0
BLOCK_RECORD
  5
6C
330
1
100
AcDbSymbolTableRecord
100
AcDbBlockTableRecord
  2
*Paper_Space
340
6F
 70
     0
280
     1
281
     0
  0
BLOCK_RECORD
  5
74
330
1
100
AcDbSymbolTableRecord
100
AcDbBlockTableRecord
  2
*Paper_Space0
340
77
 70
     0
280
     1
281
     0
  0
ENDTAB
  0
ENDSEC
  0
SECTION
  2
BLOCKS
  0
BLOCK
  5
71
330
70
100
AcDbEntity
  8
0
100
AcDbBlockBegin
  2
*Model_Space
 70
     0
 10
0.0
 20
0.0
 30
0.0
  3
*Model_Space
  1

  0
ENDBLK
  5
72
330
70
100
AcDbEntity
  8
0
100
AcDbBlockEnd
  0
BLOCK
  5
6D
330
6C
100
AcDbEntity
 67
     1
  8
0
100
AcDbBlockBegin
  2
*Paper_Space
 70
     0
 10
0.0
 20
0.0
 30
0.0
  3
*Paper_Space
  1

  0
ENDBLK
  5
6E
330
6C
100
AcDbEntity
 67
     1
  8
0
100
AcDbBlockEnd
  0
BLOCK
  5
75
330
74
100
AcDbEntity
 67
     1
  8
0
100
AcDbBlockBegin
  2
*Paper_Space0
 70
     0
 10
0.0
 20
0.0
 30
0.0
  3
*Paper_Space0
  1

  0
ENDBLK
  5
76
330
74
100
AcDbEntity
 67
     1
  8
0
100
AcDbBlockEnd
  0
ENDSEC
  0
SECTION
  2
ENTITIES
  0
LWPOLYLINE
  5
79
330
70
100
AcDbEntity
  8
Capa 1
 62
    18
420
        0
370
     9
100
AcDbPolyline
 90
        4
 70
     1
 43
0.0
 10
130.7253216734547
 20
145.8247768461393
 10
132.1646610353453
 20
145.062775554419
 10
80.26399610420158
 20
115.0907785763705
 10
78.90933072978438
 20
115.9374430896408
  0
LWPOLYLINE
  5
7A
330
70
100
AcDbEntity
  8
Capa 1
 62
    18
420
        0
370
     9
100
AcDbPolyline
 90
        3
 70
     0
 43
0.0
 10
80.26399610420158
 20
90.62210631754087
 10
78.90933072978438
 20
91.46878159673459
 10
78.90933072978438
 20
115.9374430896408
  0
LINE
  5
7B
330
70
100
AcDbEntity
  8
Capa 1
 62
    18
420
        0
370
     9
100
AcDbLine
 10
80.26399610420158
 20
90.62210631754087
 30
0.0
 11
80.26399610420158
 21
115.0907785763705
 31
0.0
  0
LWPOLYLINE
  5
7C
330
70
100
AcDbEntity
  8
Capa 1
 62
    18
420
        0
370
     9
100
AcDbPolyline
 90
        3
 70
     0
 43
0.0
 10
132.1646610353453
 20
145.062775554419
 10
132.1646610353453
 20
120.5941140615127
 10
80.26399610420158
 20
90.62210631754087
  0
LWPOLYLINE
  5
7D
330
70
100
AcDbEntity
  8
Capa 1
 62
    18
420
        0
370
     9
100
AcDbPolyline
 90
        4
 70
     1
 43
0.0
 10
130.7253216734547
 20
117.376771685608
 10
132.1646610353453
 20
116.5301071723377
 10
80.26399610420158
 20
86.64278418176271
 10
78.90933072978438
 20
87.40478009052131
  0
LWPOLYLINE
  5
7E
330
70
100
AcDbEntity
  8
Capa 1
 62
    18
420
        0
370
     9
100
AcDbPolyline
 90
        4
 70
     0
 43
0.0
 10
132.1646610353453
 20
116.5301071723377
 10
132.1646610353453
 20
92.14610890098148
 10
80.26399610420158
 20
62.1737781793079
 10
80.26399610420158
 20
86.64278418176271
  0
LWPOLYLINE
  5
7F
330
70
100
AcDbEntity
  8
Capa 1
 62
    18
420
        0
370
     9
100
AcDbPolyline
 90
        3
 70
     0
 43
0.0
 10
80.26399610420158
 20
62.1737781793079
 10
78.90933072978438
 20
63.02044269257823
 10
78.90933072978438
 20
87.40478009052131
  0
LWPOLYLINE
  5
80
330
70
100
AcDbEntity
  8
Capa 1
 62
    18
420
        0
370
     9
100
AcDbPolyline
 90
        4
 70
     1
 43
0.0
 10
184.1499784221157
 20
175.1194465199408
 10
184.1499784221157
 20
150.6507742611112
 10
132.3339874784454
 20
120.6787772830627
 10
132.3339874784454
 20
145.147438775969
  0
LINE
  5
81
330
70
100
AcDbEntity
  8
Capa 1
 62
    18
420
        0
370
     9
100
AcDbLine
 10
132.1646610353453
 20
120.7634405046127
 30
0.0
 11
132.3339874784454
 21
120.6787772830627
 31
0.0
  0
LWPOLYLINE
  5
82
330
70
100
AcDbEntity
  8
Capa 1
 62
    18
420
        0
370
     9
100
AcDbPolyline
 90
        3
 70
     0
 43
0.0
 10
130.8946588824781
 20
145.7401136245892
 10
130.8946588824781
 20
145.9941032892393
 10
132.3339874784454
 20
145.147438775969
  0
LWPOLYLINE
  5
83
330
70
100
AcDbEntity
  8
Capa 1
 62
    18
420
        0
370
     9
100
AcDbPolyline
 90
        3
 70
     0
 43
0.0
 10
184.1499784221157
 20
175.1194465199408
 10
182.7953238136219
 20
175.8814478116612
 10
130.8946588824781
 20
145.9941032892393
  0
LINE
  5
84
330
70
100
AcDbEntity
  8
Capa 1
 62
    18
420
        0
370
     9
100
AcDbLine
 10
132.1646610353453
 20
92.31544611000492
 30
0.0
 11
132.3339874784454
 21
92.2307721225315
 31
0.0
  0
LWPOLYLINE
  5
85
330
70
100
AcDbEntity
  8
Capa 1
 62
    18
420
        0
370
     9
100
AcDbPolyline
 90
        4
 70
     0
 43
0.0
 10
130.8946588824781
 20
117.292108464058
 10
130.8946588824781
 20
117.4614456730814
 10
132.3339874784454
 20
116.6994443813611
 10
132.3339874784454
 20
92.2307721225315
  0
LWPOLYLINE
  5
86
330
70
100
AcDbEntity
  8
Capa 1
 62
    18
420
        0
370
     9
100
AcDbPolyline
 90
        3
 70
     0
 43
0.0
 10
184.1499784221157
 20
146.5867781378596
 10
184.1499784221157
 20
122.2027798665033
 10
132.3339874784454
 20
92.2307721225315
  0
LWPOLYLINE
  5
87
330
70
100
AcDbEntity
  8
Capa 1
 62
    18
420
        0
370
     9
100
AcDbPolyline
 90
        4
 70
     0
 43
0.0
 10
132.3339874784454
 20
116.6994443813611
 10
184.1499784221157
 20
146.5867781378596
 10
182.7953238136219
 20
147.4334426511299
 10
130.8946588824781
 20
117.4614456730814
  0
SPLINE
  5
88
330
70
100
AcDbEntity
  8
Capa 1
 62
    18
420
        0
370
     9
100
AcDbSpline
210
0.0
220
0.0
230
1.0
 70
    24
 71
     3
 72
     8
 73
     4
 74
     0
 42
0.0000000001
 43
0.0000000001
 40
0.0
 40
0.0
 40
0.0
 40
0.0
 40
1.0
 40
1.0
 40
1.0
 40
1.0
 10
180.6786571474844
 20
176.220122229708
 30
0.0
 10
180.6786571474844
 20
176.220122229708
 30
0.0
 10
180.6786571474844
 20
174.6961196462674
 30
0.0
 10
180.6786571474844
 20
174.6961196462674
 30
0.0
  0
SPLINE
  5
89
330
70
100
AcDbEntity
  8
Capa 1
 62
    18
420
        0
370
     9
100
AcDbSpline
210
0.0
220
0.0
230
1.0
 70
    24
 71
     3
 72
     8
 73
     4
 74
     0
 42
0.0000000001
 43
0.0000000001
 40
0.0
 40
0.0
 40
0.0
 40
0.0
 40
1.0
 40
1.0
 40
1.0
 40
1.0
 10
128.6933289947906
 20
118.6467738384752
 30
0.0
 10
128.6933289947906
 20
118.6467738384752
 30
0.0
 10
128.6933289947906
 20
116.1914435202143
 30
0.0
 10
128.6933289947906
 20
116.1914435202143
 30
0.0
  0
SPLINE
  5
8A
330
70
100
AcDbEntity
  8
Capa 1
 62
    18
420
        0
370
     9
100
AcDbSpline
210
0.0
220
0.0
230
1.0
 70
    24
 71
     3
 72
     8
 73
     4
 74
     0
 42
0.0000000001
 43
0.0000000001
 40
0.0
 40
0.0
 40
0.0
 40
0.0
 40
1.0
 40
1.0
 40
1.0
 40
1.0
 10
180.6786571474844
 20
148.6187708165237
 30
0.0
 10
180.6786571474844
 20
148.6187708165237
 30
0.0
 10
180.6786571474844
 20
146.2481037198128
 30
0.0
 10
180.6786571474844
 20
146.2481037198128
 30
0.0
  0
SPLINE
  5
8B
330
70
100
AcDbEntity
  8
Capa 1
 62
    18
420
        0
370
     9
100
AcDbSpline
210
0.0
220
0.0
230
1.0
 70
    24
 71
     3
 72
     8
 73
     4
 74
     0
 42
0.0000000001
 43
0.0000000001
 40
0.0
 40
0.0
 40
0.0
 40
0.0
 40
1.0
 40
1.0
 40
1.0
 40
1.0
 10
128.6933289947906
 20
146.1634404982627
 30
0.0
 10
128.6933289947906
 20
146.1634404982627
 30
0.0
 10
128.6933289947906
 20
144.6394379148221
 30
0.0
 10
128.6933289947906
 20
144.6394379148221
 30
0.0
  0
SPLINE
  5
8C
330
70
100
AcDbEntity
  8
Capa 1
 62
    18
420
        0
370
     9
100
AcDbSpline
210
0.0
220
0.0
230
1.0
 70
    24
 71
     3
 72
     8
 73
     4
 74
     0
 42
0.0000000001
 43
0.0000000001
 40
0.0
 40
0.0
 40
0.0
 40
0.0
 40
1.0
 40
1.0
 40
1.0
 40
1.0
 10
132.2493242568953
 20
118.2234469648018
 30
0.0
 10
132.2493242568953
 20
118.2234469648018
 30
0.0
 10
132.2493242568953
 20
120.7634405046127
 30
0.0
 10
132.2493242568953
 20
120.7634405046127
 30
0.0
  0
SPLINE
  5
8D
330
70
100
AcDbEntity
  8
Capa 1
 62
    18
420
        0
370
     9
100
AcDbSpline
210
0.0
220
0.0
230
1.0
 70
    24
 71
     3
 72
     8
 73
     4
 74
     0
 42
0.0000000001
 43
0.0000000001
 40
0.0
 40
0.0
 40
0.0
 40
0.0
 40
1.0
 40
1.0
 40
1.0
 40
1.0
 10
132.2493242568953
 20
146.6714413594096
 30
0.0
 10
132.2493242568953
 20
146.6714413594096
 30
0.0
 10
132.2493242568953
 20
148.1954439428502
 30
0.0
 10
132.2493242568953
 20
148.1954439428502
 30
0.0
  0
SPLINE
  5
8E
330
70
100
AcDbEntity
  8
Capa 1
 62
    18
420
        0
370
     9
100
AcDbSpline
210
0.0
220
0.0
230
1.0
 70
    24
 71
     3
 72
     8
 73
     4
 74
     0
 42
0.0000000001
 43
0.0000000001
 40
0.0
 40
0.0
 40
0.0
 40
0.0
 40
1.0
 40
1.0
 40
1.0
 40
1.0
 10
130.8099956609281
 20
147.4334426511299
 30
0.0
 10
130.8099956609281
 20
147.4334426511299
 30
0.0
 10
130.8099956609281
 20
145.8247768461393
 30
0.0
 10
130.8099956609281
 20
145.8247768461393
 30
0.0
  0
SPLINE
  5
8F
330
70
100
AcDbEntity
  8
Capa 1
 62
    18
420
        0
370
     9
100
AcDbSpline
210
0.0
220
0.0
230
1.0
 70
    24
 71
     3
 72
     8
 73
     4
 74
     0
 42
0.0000000001
 43
0.0000000001
 40
0.0
 40
0.0
 40
0.0
 40
0.0
 40
1.0
 40
1.0
 40
1.0
 40
1.0
 10
130.8099956609281
 20
119.8321127697924
 30
0.0
 10
130.8099956609281
 20
119.8321127697924
 30
0.0
 10
130.8099956609281
 20
117.292108464058
 30
0.0
 10
130.8099956609281
 20
117.292108464058
 30
0.0
  0
SPLINE
  5
90
330
70
100
AcDbEntity
  8
Capa 1
 62
    18
420
        0
370
     9
100
AcDbSpline
210
0.0
220
0.0
230
1.0
 70
    24
 71
     3
 72
     8
 73
     4
 74
     0
 42
0.0000000001
 43
0.0000000001
 40
0.0
 40
0.0
 40
0.0
 40
0.0
 40
1.0
 40
1.0
 40
1.0
 40
1.0
 10
78.82466212527268
 20
119.2394379211721
 30
0.0
 10
78.82466212527268
 20
119.2394379211721
 30
0.0
 10
78.82466212527268
 20
62.85111086651649
 30
0.0
 10
78.82466212527268
 20
62.85111086651649
 30
0.0
  0
SPLINE
  5
91
330
70
100
AcDbEntity
  8
Capa 1
 62
    18
420
        0
370
     9
100
AcDbSpline
210
0.0
220
0.0
230
1.0
 70
    24
 71
     3
 72
     8
 73
     4
 74
     0
 42
0.0000000001
 43
0.0000000001
 40
0.0
 40
0.0
 40
0.0
 40
0.0
 40
1.0
 40
1.0
 40
1.0
 40
1.0
 10
80.17932749968988
 20
88.16678138224162
 30
0.0
 10
80.17932749968988
 20
88.16678138224162
 30
0.0
 10
80.17932749968988
 20
90.70678030501428
 30
0.0
 10
80.17932749968988
 20
90.70678030501428
 30
0.0
  0
SPLINE
  5
92
330
70
100
AcDbEntity
  8
Capa 1
 62
    18
420
        0
370
     9
100
AcDbSpline
210
0.0
220
0.0
230
1.0
 70
    24
 71
     3
 72
     8
 73
     4
 74
     0
 42
0.0000000001
 43
0.0000000001
 40
0.0
 40
0.0
 40
0.0
 40
0.0
 40
1.0
 40
1.0
 40
1.0
 40
1.0
 10
80.17932749968988
 20
116.6994443813611
 30
0.0
 10
80.17932749968988
 20
116.6994443813611
 30
0.0
 10
80.17932749968988
 20
118.4774473953752
 30
0.0
 10
80.17932749968988
 20
118.4774473953752
 30
0.0
  0
SPLINE
  5
93
330
70
100
AcDbEntity
  8
Capa 1
 62
    18
420
        0
370
     9
100
AcDbSpline
210
0.0
220
0.0
230
1.0
 70
    24
 71
     3
 72
     8
 73
     4
 74
     0
 42
0.0000000001
 43
0.0000000001
 40
0.0
 40
0.0
 40
0.0
 40
0.0
 40
1.0
 40
1.0
 40
1.0
 40
1.0
 10
78.82466212527268
 20
62.85111086651649
 30
0.0
 10
78.82466212527268
 20
62.85111086651649
 30
0.0
 10
78.9939939513344
 20
62.93577947102821
 30
0.0
 10
78.9939939513344
 20
62.93577947102821
 30
0.0
  0
SPLINE
  5
94
330
70
100
AcDbEntity
  8
Capa 1
 62
    18
420
        0
370
     9
100
AcDbSpline
210
0.0
220
0.0
230
1.0
 70
    24
 71
     3
 72
     8
 73
     4
 74
     0
 42
0.0000000001
 43
0.0000000001
 40
0.0
 40
0.0
 40
0.0
 40
0.0
 40
1.0
 40
1.0
 40
1.0
 40
1.0
 10
129.4553302865109
 20
146.5867781378596
 30
0.0
 10
129.4553302865109
 20
146.5867781378596
 30
0.0
 10
129.4553302865109
 20
145.062775554419
 30
0.0
 10
129.4553302865109
 20
145.062775554419
 30
0.0
  0
SPLINE
  5
95
330
70
100
AcDbEntity
  8
Capa 1
 62
    18
420
        0
370
     9
100
AcDbSpline
210
0.0
220
0.0
230
1.0
 70
    24
 71
     3
 72
     8
 73
     4
 74
     0
 42
0.0000000001
 43
0.0000000001
 40
0.0
 40
0.0
 40
0.0
 40
0.0
 40
1.0
 40
1.0
 40
1.0
 40
1.0
 10
129.4553302865109
 20
119.0701114780721
 30
0.0
 10
129.4553302865109
 20
119.0701114780721
 30
0.0
 10
129.4553302865109
 20
116.6147703938877
 30
0.0
 10
129.4553302865109
 20
116.6147703938877
 30
0.0
  0
SPLINE
  5
96
330
70
100
AcDbEntity
  8
Capa 1
 62
    18
420
        0
370
     9
100
AcDbSpline
210
0.0
220
0.0
230
1.0
 70
    24
 71
     3
 72
     8
 73
     4
 74
     0
 42
0.0000000001
 43
0.0000000001
 40
0.0
 40
0.0
 40
0.0
 40
0.0
 40
1.0
 40
1.0
 40
1.0
 40
1.0
 10
130.8099956609281
 20
147.4334426511299
 30
0.0
 10
130.8099956609281
 20
147.4334426511299
 30
0.0
 10
130.8099956609281
 20
145.8247768461393
 30
0.0
 10
130.8099956609281
 20
145.8247768461393
 30
0.0
  0
SPLINE
  5
97
330
70
100
AcDbEntity
  8
Capa 1
 62
    18
420
        0
370
     9
100
AcDbSpline
210
0.0
220
0.0
230
1.0
 70
    24
 71
     3
 72
     8
 73
     4
 74
     0
 42
0.0000000001
 43
0.0000000001
 40
0.0
 40
0.0
 40
0.0
 40
0.0
 40
1.0
 40
1.0
 40
1.0
 40
1.0
 10
130.8099956609281
 20
119.8321127697924
 30
0.0
 10
130.8099956609281
 20
119.8321127697924
 30
0.0
 10
130.8099956609281
 20
117.292108464058
 30
0.0
 10
130.8099956609281
 20
117.292108464058
 30
0.0
  0
SPLINE
  5
98
330
70
100
AcDbEntity
  8
Capa 1
 62
    18
420
        0
370
     9
100
AcDbSpline
210
0.0
220
0.0
230
1.0
 70
    24
 71
     3
 72
     8
 73
     4
 74
     0
 42
0.0000000001
 43
0.0000000001
 40
0.0
 40
0.0
 40
0.0
 40
0.0
 40
1.0
 40
1.0
 40
1.0
 40
1.0
 10
181.4406476732813
 20
176.6434491033814
 30
0.0
 10
181.4406476732813
 20
176.6434491033814
 30
0.0
 10
181.4406476732813
 20
175.1194465199408
 30
0.0
 10
181.4406476732813
 20
175.1194465199408
 30
0.0
  0
SPLINE
  5
99
330
70
100
AcDbEntity
  8
Capa 1
 62
    18
420
        0
370
     9
100
AcDbSpline
210
0.0
220
0.0
230
1.0
 70
    24
 71
     3
 72
     8
 73
     4
 74
     0
 42
0.0000000001
 43
0.0000000001
 40
0.0
 40
0.0
 40
0.0
 40
0.0
 40
1.0
 40
1.0
 40
1.0
 40
1.0
 10
181.4406476732813
 20
149.0421084561205
 30
0.0
 10
181.4406476732813
 20
149.0421084561205
 30
0.0
 10
181.4406476732813
 20
146.6714413594096
 30
0.0
 10
181.4406476732813
 20
146.6714413594096
 30
0.0
  0
SPLINE
  5
9A
330
70
100
AcDbEntity
  8
Capa 1
 62
    18
420
        0
370
     9
100
AcDbSpline
210
0.0
220
0.0
230
1.0
 70
    24
 71
     3
 72
     8
 73
     4
 74
     0
 42
0.0000000001
 43
0.0000000001
 40
0.0
 40
0.0
 40
0.0
 40
0.0
 40
1.0
 40
1.0
 40
1.0
 40
1.0
 10
182.8799870351719
 20
177.4054503951018
 30
0.0
 10
182.8799870351719
 20
177.4054503951018
 30
0.0
 10
182.8799870351719
 20
175.8814478116612
 30
0.0
 10
182.8799870351719
 20
175.8814478116612
 30
0.0
  0
SPLINE
  5
9B
330
70
100
AcDbEntity
  8
Capa 1
 62
    18
420
        0
370
     9
100
AcDbSpline
210
0.0
220
0.0
230
1.0
 70
    24
 71
     3
 72
     8
 73
     4
 74
     0
 42
0.0000000001
 43
0.0000000001
 40
0.0
 40
0.0
 40
0.0
 40
0.0
 40
1.0
 40
1.0
 40
1.0
 40
1.0
 10
182.8799870351719
 20
149.8887729693909
 30
0.0
 10
182.8799870351719
 20
149.8887729693909
 30
0.0
 10
182.8799870351719
 20
147.3487794295799
 30
0.0
 10
182.8799870351719
 20
147.3487794295799
 30
0.0
  0
SPLINE
  5
9C
330
70
100
AcDbEntity
  8
Capa 1
 62
    18
420
        0
370
     9
100
AcDbSpline
210
0.0
220
0.0
230
1.0
 70
    24
 71
     3
 72
     8
 73
     4
 74
     0
 42
0.0000000001
 43
0.0000000001
 40
0.0
 40
0.0
 40
0.0
 40
0.0
 40
1.0
 40
1.0
 40
1.0
 40
1.0
 10
80.09466427813986
 20
62.08910957479619
 30
0.0
 10
80.09466427813986
 20
62.08910957479619
 30
0.0
 10
95.58866362831095
 20
53.11444204909932
 30
0.0
 10
95.58866362831095
 20
53.11444204909932
 30
0.0
  0
SPLINE
  5
9D
330
70
100
AcDbEntity
  8
Capa 1
 62
    18
420
        0
370
     9
100
AcDbSpline
210
0.0
220
0.0
230
1.0
 70
    24
 71
     3
 72
     8
 73
     4
 74
     0
 42
0.0000000001
 43
0.0000000001
 40
0.0
 40
0.0
 40
0.0
 40
0.0
 40
1.0
 40
1.0
 40
1.0
 40
1.0
 10
183.9806519790157
 20
122.0334426574799
 30
0.0
 10
183.9806519790157
 20
122.0334426574799
 30
0.0
 10
199.4746459462251
 20
113.143438353333
 30
0.0
 10
199.4746459462251
 20
113.143438353333
 30
0.0
  0
SPLINE
  5
9E
330
70
100
AcDbEntity
  8
Capa 1
 62
    18
420
        0
370
     9
100
AcDbSpline
210
0.0
220
0.0
230
1.0
 70
    24
 71
     3
 72
     8
 73
     4
 74
     0
 42
0.0000000001
 43
0.0000000001
 40
0.0
 40
0.0
 40
0.0
 40
0.0
 40
1.0
 40
1.0
 40
1.0
 40
1.0
 10
97.11265544582818
 20
55.73910957638369
 30
0.0
 10
97.11265544582818
 20
55.73910957638369
 30
0.0
 10
194.90265972775
 20
112.2121106185127
 30
0.0
 10
194.90265972775
 20
112.2121106185127
 30
0.0
  0
LWPOLYLINE
  5
9F
330
70
100
AcDbEntity
  8
Capa 1
100
AcDbPolyline
 90
        3
 70
     0
 43
0.0
 10
96.77399179370473
 20
56.24711043753056
 10
97.3666558764016
 20
55.23110871523682
 10
94.06466104487034
 20
54.04577516688135
  0
HATCH
  5
A0
330
70
100
AcDbEntity
  8
Capa 1
 62
    18
420
        0
440
 33554687
100
AcDbHatch
 10
0.0
 20
0.0
 30
0.0
210
0.0
220
0.0
230
1.0
  2
SOLID
 70
     1
 71
     1
 91
        1
 92
        3
 72
     0
 73
     1
 93
        3
 10
96.77399179370473
 20
56.24711043753056
 10
97.3666558764016
 20
55.23110871523682
 10
94.06466104487034
 20
54.04577516688135
 97
        0
 75
     0
 76
     1
 98
        1
 10
0.0
 20
0.0
450
        0
451
        0
460
0.0
461
0.0
452
        0
462
0.0
453
        0
470

  0
LWPOLYLINE
  5
A1
330
70
100
AcDbEntity
  8
Capa 1
100
AcDbPolyline
 90
        3
 70
     0
 43
0.0
 10
194.6486485312532
 20
112.7201114796596
 10
195.2413126139501
 20
111.7041097573658
 10
197.9506433627845
 20
113.9901136325268
  0
HATCH
  5
A2
330
70
100
AcDbEntity
  8
Capa 1
 62
    18
420
        0
440
 33554687
100
AcDbHatch
 10
0.0
 20
0.0
 30
0.0
210
0.0
220
0.0
230
1.0
  2
SOLID
 70
     1
 71
     1
 91
        1
 92
        3
 72
     0
 73
     1
 93
        3
 10
194.6486485312532
 20
112.7201114796596
 10
195.2413126139501
 20
111.7041097573658
 10
197.9506433627845
 20
113.9901136325268
 97
        0
 75
     0
 76
     1
 98
        1
 10
0.0
 20
0.0
450
        0
451
        0
460
0.0
461
0.0
452
        0
462
0.0
453
        0
470

  0
LWPOLYLINE
  5
A3
330
70
100
AcDbEntity
  8
Capa 1
100
AcDbPolyline
 90
       13
 70
     0
 43
0.0
 10
139.784663186625
 20
83.93310892337979
 10
139.784663186625
 20
83.84844570182977
 10
139.6999891991516
 20
83.76377709731807
 10
139.6999891991516
 20
83.67910849280635
 10
139.869326408175
 20
83.42510806223293
 10
139.869326408175
 20
83.50977666674463
 10
139.953989629725
 20
83.59444527125635
 10
139.953989629725
 20
83.67910849280635
 10
140.038652851275
 20
83.76377709731807
 10
140.038652851275
 20
83.84844570182977
 10
140.1233268387485
 20
83.93310892337979
 10
140.1233268387485
 20
84.01777752789149
 10
140.2079900602985
 20
84.1024407494415
  0
HATCH
  5
A4
330
70
100
AcDbEntity
  8
Capa 1
 62
    18
420
        0
440
 33554687
100
AcDbHatch
 10
0.0
 20
0.0
 30
0.0
210
0.0
220
0.0
230
1.0
  2
SOLID
 70
     1
 71
     1
 91
        1
 92
        3
 72
     0
 73
     1
 93
       13
 10
139.784663186625
 20
83.93310892337979
 10
139.784663186625
 20
83.84844570182977
 10
139.6999891991516
 20
83.76377709731807
 10
139.6999891991516
 20
83.67910849280635
 10
139.869326408175
 20
83.42510806223293
 10
139.869326408175
 20
83.50977666674463
 10
139.953989629725
 20
83.59444527125635
 10
139.953989629725
 20
83.67910849280635
 10
140.038652851275
 20
83.76377709731807
 10
140.038652851275
 20
83.84844570182977
 10
140.1233268387485
 20
83.93310892337979
 10
140.1233268387485
 20
84.01777752789149
 10
140.2079900602985
 20
84.1024407494415
 97
        0
 75
     0
 76
     1
 98
        1
 10
0.0
 20
0.0
450
        0
451
        0
460
0.0
461
0.0
452
        0
462
0.0
453
        0
470

  0
LWPOLYLINE
  5
A5
330
70
100
AcDbEntity
  8
Capa 1
100
AcDbPolyline
 90
       10
 70
     0
 43
0.0
 10
140.1233268387485
 20
84.69544934168693
 10
139.953989629725
 20
84.61044161058838
 10
139.953989629725
 20
84.18710935395322
 10
139.869326408175
 20
84.1024407494415
 10
139.869326408175
 20
84.01777752789149
 10
139.869326408175
 20
83.93310892337979
 10
139.784663186625
 20
83.93310892337979
 10
140.2079900602985
 20
84.1024407494415
 10
141.1393285610422
 20
82.40911172290088
 10
141.3933289916156
 20
82.5784435489626
  0
HATCH
  5
A6
330
70
100
AcDbEntity
  8
Capa 1
 62
    18
420
        0
440
 33554687
100
AcDbHatch
 10
0.0
 20
0.0
 30
0.0
210
0.0
220
0.0
230
1.0
  2
SOLID
 70
     1
 71
     1
 91
        1
 92
        3
 72
     0
 73
     1
 93
       10
 10
140.1233268387485
 20
84.69544934168693
 10
139.953989629725
 20
84.61044161058838
 10
139.953989629725
 20
84.18710935395322
 10
139.869326408175
 20
84.1024407494415
 10
139.869326408175
 20
84.01777752789149
 10
139.869326408175
 20
83.93310892337979
 10
139.784663186625
 20
83.93310892337979
 10
140.2079900602985
 20
84.1024407494415
 10
141.1393285610422
 20
82.40911172290088
 10
141.3933289916156
 20
82.5784435489626
 97
        0
 75
     0
 76
     1
 98
        1
 10
0.0
 20
0.0
450
        0
451
        0
460
0.0
461
0.0
452
        0
462
0.0
453
        0
470

  0
LWPOLYLINE
  5
A7
330
70
100
AcDbEntity
  8
Capa 1
100
AcDbPolyline
 90
       73
 70
     0
 43
0.0
 10
142.239993504886
 20
85.62678245946896
 10
141.7319926437391
 20
85.28811880734551
 10
141.8166558652891
 20
85.37278202889552
 10
141.9013298527625
 20
85.37278202889552
 10
141.9859930743125
 20
85.37278202889552
 10
142.0706562958625
 20
85.37278202889552
 10
142.1553195174126
 20
85.37278202889552
 10
142.1553195174126
 20
85.28811880734551
 10
142.239993504886
 20
85.28811880734551
 10
142.239993504886
 20
85.20345020283379
 10
142.324656726436
 20
85.11878698128379
 10
142.324656726436
 20
85.03411837677207
 10
142.409319947986
 20
85.03411837677207
 10
142.409319947986
 20
84.94944977226037
 10
142.409319947986
 20
84.86478655071035
 10
142.409319947986
 20
84.78011794619865
 10
142.324656726436
 20
84.69544934168693
 10
142.324656726436
 20
84.61044161058838
 10
142.324656726436
 20
84.52577838903838
 10
142.324656726436
 20
84.44110978452666
 10
142.239993504886
 20
84.35644118001496
 10
142.239993504886
 20
84.27177795846494
 10
142.239993504886
 20
84.18710935395322
 10
142.1553195174126
 20
84.1024407494415
 10
142.1553195174126
 20
84.01777752789149
 10
142.1553195174126
 20
83.93310892337979
 10
142.0706562958625
 20
83.93310892337979
 10
142.0706562958625
 20
83.84844570182977
 10
142.0706562958625
 20
83.76377709731807
 10
142.0706562958625
 20
83.67910849280635
 10
142.0706562958625
 20
83.59444527125635
 10
141.9859930743125
 20
83.59444527125635
 10
141.9859930743125
 20
83.50977666674463
 10
141.9859930743125
 20
83.42510806223293
 10
141.9859930743125
 20
83.34044484068291
 10
141.9859930743125
 20
83.25577623617119
 10
141.9859930743125
 20
83.17110763165947
 10
141.9859930743125
 20
83.08644441010946
 10
142.0706562958625
 20
83.00177580559775
 10
142.0706562958625
 20
82.91711258404774
 10
143.5099956577531
 20
83.76377709731807
 10
143.3406584487297
 20
84.01777752789149
 10
142.324656726436
 20
83.42510806223293
 10
142.324656726436
 20
83.50977666674463
 10
142.324656726436
 20
83.59444527125635
 10
142.324656726436
 20
83.67910849280635
 10
142.324656726436
 20
83.76377709731807
 10
142.409319947986
 20
83.76377709731807
 10
142.409319947986
 20
83.84844570182977
 10
142.409319947986
 20
83.93310892337979
 10
142.4939939354594
 20
84.01777752789149
 10
142.4939939354594
 20
84.1024407494415
 10
142.4939939354594
 20
84.18710935395322
 10
142.4939939354594
 20
84.27177795846494
 10
142.5786571570094
 20
84.27177795846494
 10
142.5786571570094
 20
84.35644118001496
 10
142.5786571570094
 20
84.44110978452666
 10
142.5786571570094
 20
84.52577838903838
 10
142.6633203785594
 20
84.52577838903838
 10
142.6633203785594
 20
84.61044161058838
 10
142.6633203785594
 20
84.69544934168693
 10
142.6633203785594
 20
84.78011794619865
 10
142.6633203785594
 20
84.86478655071035
 10
142.6633203785594
 20
84.94944977226037
 10
142.6633203785594
 20
85.03411837677207
 10
142.6633203785594
 20
85.11878698128379
 10
142.6633203785594
 20
85.20345020283379
 10
142.5786571570094
 20
85.28811880734551
 10
142.5786571570094
 20
85.37278202889552
 10
142.4939939354594
 20
85.45745063340723
 10
142.409319947986
 20
85.54211923791894
 10
142.324656726436
 20
85.54211923791894
 10
142.324656726436
 20
85.62678245946896
  0
HATCH
  5
A8
330
70
100
AcDbEntity
  8
Capa 1
 62
    18
420
        0
440
 33554687
100
AcDbHatch
 10
0.0
 20
0.0
 30
0.0
210
0.0
220
0.0
230
1.0
  2
SOLID
 70
     1
 71
     1
 91
        1
 92
        3
 72
     0
 73
     1
 93
       73
 10
142.239993504886
 20
85.62678245946896
 10
141.7319926437391
 20
85.28811880734551
 10
141.8166558652891
 20
85.37278202889552
 10
141.9013298527625
 20
85.37278202889552
 10
141.9859930743125
 20
85.37278202889552
 10
142.0706562958625
 20
85.37278202889552
 10
142.1553195174126
 20
85.37278202889552
 10
142.1553195174126
 20
85.28811880734551
 10
142.239993504886
 20
85.28811880734551
 10
142.239993504886
 20
85.20345020283379
 10
142.324656726436
 20
85.11878698128379
 10
142.324656726436
 20
85.03411837677207
 10
142.409319947986
 20
85.03411837677207
 10
142.409319947986
 20
84.94944977226037
 10
142.409319947986
 20
84.86478655071035
 10
142.409319947986
 20
84.78011794619865
 10
142.324656726436
 20
84.69544934168693
 10
142.324656726436
 20
84.61044161058838
 10
142.324656726436
 20
84.52577838903838
 10
142.324656726436
 20
84.44110978452666
 10
142.239993504886
 20
84.35644118001496
 10
142.239993504886
 20
84.27177795846494
 10
142.239993504886
 20
84.18710935395322
 10
142.1553195174126
 20
84.1024407494415
 10
142.1553195174126
 20
84.01777752789149
 10
142.1553195174126
 20
83.93310892337979
 10
142.0706562958625
 20
83.93310892337979
 10
142.0706562958625
 20
83.84844570182977
 10
142.0706562958625
 20
83.76377709731807
 10
142.0706562958625
 20
83.67910849280635
 10
142.0706562958625
 20
83.59444527125635
 10
141.9859930743125
 20
83.59444527125635
 10
141.9859930743125
 20
83.50977666674463
 10
141.9859930743125
 20
83.42510806223293
 10
141.9859930743125
 20
83.34044484068291
 10
141.9859930743125
 20
83.25577623617119
 10
141.9859930743125
 20
83.17110763165947
 10
141.9859930743125
 20
83.08644441010946
 10
142.0706562958625
 20
83.00177580559775
 10
142.0706562958625
 20
82.91711258404774
 10
143.5099956577531
 20
83.76377709731807
 10
143.3406584487297
 20
84.01777752789149
 10
142.324656726436
 20
83.42510806223293
 10
142.324656726436
 20
83.50977666674463
 10
142.324656726436
 20
83.59444527125635
 10
142.324656726436
 20
83.67910849280635
 10
142.324656726436
 20
83.76377709731807
 10
142.409319947986
 20
83.76377709731807
 10
142.409319947986
 20
83.84844570182977
 10
142.409319947986
 20
83.93310892337979
 10
142.4939939354594
 20
84.01777752789149
 10
142.4939939354594
 20
84.1024407494415
 10
142.4939939354594
 20
84.18710935395322
 10
142.4939939354594
 20
84.27177795846494
 10
142.5786571570094
 20
84.27177795846494
 10
142.5786571570094
 20
84.35644118001496
 10
142.5786571570094
 20
84.44110978452666
 10
142.5786571570094
 20
84.52577838903838
 10
142.6633203785594
 20
84.52577838903838
 10
142.6633203785594
 20
84.61044161058838
 10
142.6633203785594
 20
84.69544934168693
 10
142.6633203785594
 20
84.78011794619865
 10
142.6633203785594
 20
84.86478655071035
 10
142.6633203785594
 20
84.94944977226037
 10
142.6633203785594
 20
85.03411837677207
 10
142.6633203785594
 20
85.11878698128379
 10
142.6633203785594
 20
85.20345020283379
 10
142.5786571570094
 20
85.28811880734551
 10
142.5786571570094
 20
85.37278202889552
 10
142.4939939354594
 20
85.45745063340723
 10
142.409319947986
 20
85.54211923791894
 10
142.324656726436
 20
85.54211923791894
 10
142.324656726436
 20
85.62678245946896
 97
        0
 75
     0
 76
     1
 98
        1
 10
0.0
 20
0.0
450
        0
451
        0
460
0.0
461
0.0
452
        0
462
0.0
453
        0
470

  0
LWPOLYLINE
  5
A9
330
70
100
AcDbEntity
  8
Capa 1
100
AcDbPolyline
 90
       34
 70
     0
 43
0.0
 10
141.5626554347157
 20
85.54211923791894
 10
141.4779922131656
 20
85.45745063340723
 10
141.3933289916156
 20
85.37278202889552
 10
141.3086550041422
 20
85.37278202889552
 10
141.3086550041422
 20
85.28811880734551
 10
141.2239917825922
 20
85.28811880734551
 10
141.2239917825922
 20
85.20345020283379
 10
141.2239917825922
 20
85.11878698128379
 10
141.1393285610422
 20
85.11878698128379
 10
141.1393285610422
 20
85.03411837677207
 10
141.1393285610422
 20
84.94944977226037
 10
141.1393285610422
 20
84.86478655071035
 10
141.1393285610422
 20
84.78011794619865
 10
141.1393285610422
 20
84.69544934168693
 10
141.1393285610422
 20
84.61044161058838
 10
141.2239917825922
 20
84.52577838903838
 10
141.4779922131656
 20
84.61044161058838
 10
141.4779922131656
 20
84.69544934168693
 10
141.4779922131656
 20
84.78011794619865
 10
141.4779922131656
 20
84.86478655071035
 10
141.4779922131656
 20
84.94944977226037
 10
141.4779922131656
 20
85.03411837677207
 10
141.4779922131656
 20
85.11878698128379
 10
141.5626554347157
 20
85.20345020283379
 10
141.647329422189
 20
85.28811880734551
 10
141.7319926437391
 20
85.28811880734551
 10
142.239993504886
 20
85.62678245946896
 10
142.1553195174126
 20
85.62678245946896
 10
142.0706562958625
 20
85.62678245946896
 10
141.9859930743125
 20
85.62678245946896
 10
141.9013298527625
 20
85.62678245946896
 10
141.8166558652891
 20
85.62678245946896
 10
141.7319926437391
 20
85.62678245946896
 10
141.647329422189
 20
85.54211923791894
  0
HATCH
  5
AA
330
70
100
AcDbEntity
  8
Capa 1
 62
    18
420
        0
440
 33554687
100
AcDbHatch
 10
0.0
 20
0.0
 30
0.0
210
0.0
220
0.0
230
1.0
  2
SOLID
 70
     1
 71
     1
 91
        1
 92
        3
 72
     0
 73
     1
 93
       34
 10
141.5626554347157
 20
85.54211923791894
 10
141.4779922131656
 20
85.45745063340723
 10
141.3933289916156
 20
85.37278202889552
 10
141.3086550041422
 20
85.37278202889552
 10
141.3086550041422
 20
85.28811880734551
 10
141.2239917825922
 20
85.28811880734551
 10
141.2239917825922
 20
85.20345020283379
 10
141.2239917825922
 20
85.11878698128379
 10
141.1393285610422
 20
85.11878698128379
 10
141.1393285610422
 20
85.03411837677207
 10
141.1393285610422
 20
84.94944977226037
 10
141.1393285610422
 20
84.86478655071035
 10
141.1393285610422
 20
84.78011794619865
 10
141.1393285610422
 20
84.69544934168693
 10
141.1393285610422
 20
84.61044161058838
 10
141.2239917825922
 20
84.52577838903838
 10
141.4779922131656
 20
84.61044161058838
 10
141.4779922131656
 20
84.69544934168693
 10
141.4779922131656
 20
84.78011794619865
 10
141.4779922131656
 20
84.86478655071035
 10
141.4779922131656
 20
84.94944977226037
 10
141.4779922131656
 20
85.03411837677207
 10
141.4779922131656
 20
85.11878698128379
 10
141.5626554347157
 20
85.20345020283379
 10
141.647329422189
 20
85.28811880734551
 10
141.7319926437391
 20
85.28811880734551
 10
142.239993504886
 20
85.62678245946896
 10
142.1553195174126
 20
85.62678245946896
 10
142.0706562958625
 20
85.62678245946896
 10
141.9859930743125
 20
85.62678245946896
 10
141.9013298527625
 20
85.62678245946896
 10
141.8166558652891
 20
85.62678245946896
 10
141.7319926437391
 20
85.62678245946896
 10
141.647329422189
 20
85.54211923791894
 97
        0
 75
     0
 76
     1
 98
        1
 10
0.0
 20
0.0
450
        0
451
        0
460
0.0
461
0.0
452
        0
462
0.0
453
        0
470

  0
LWPOLYLINE
  5
AB
330
70
100
AcDbEntity
  8
Capa 1
100
AcDbPolyline
 90
       51
 70
     0
 43
0.0
 10
142.9173208091328
 20
85.9654514945541
 10
142.9173208091328
 20
85.9654514945541
 10
142.9173208091328
 20
85.45745063340723
 10
143.0019947966063
 20
85.37278202889552
 10
143.0019947966063
 20
85.28811880734551
 10
143.0866580181563
 20
85.20345020283379
 10
143.0866580181563
 20
85.11878698128379
 10
143.1713212397063
 20
85.03411837677207
 10
143.1713212397063
 20
84.94944977226037
 10
143.2559952271797
 20
84.86478655071035
 10
143.2559952271797
 20
84.78011794619865
 10
143.3406584487297
 20
84.69544934168693
 10
143.4253216702797
 20
84.61044161058838
 10
143.5099956577531
 20
84.52577838903838
 10
143.5946588793031
 20
84.44110978452666
 10
143.6793221008531
 20
84.35644118001496
 10
143.7639960883266
 20
84.27177795846494
 10
143.8486593098766
 20
84.27177795846494
 10
143.9333225314266
 20
84.27177795846494
 10
143.9333225314266
 20
84.18710935395322
 10
144.3566601710234
 20
84.52577838903838
 10
144.2719861835501
 20
84.44110978452666
 10
144.187322962
 20
84.44110978452666
 10
144.10265974045
 20
84.44110978452666
 10
144.0179965189
 20
84.44110978452666
 10
144.0179965189
 20
84.52577838903838
 10
143.9333225314266
 20
84.52577838903838
 10
143.8486593098766
 20
84.61044161058838
 10
143.7639960883266
 20
84.69544934168693
 10
143.6793221008531
 20
84.78011794619865
 10
143.6793221008531
 20
84.86478655071035
 10
143.5946588793031
 20
84.86478655071035
 10
143.5099956577531
 20
84.94944977226037
 10
143.5099956577531
 20
85.03411837677207
 10
143.4253216702797
 20
85.11878698128379
 10
143.4253216702797
 20
85.20345020283379
 10
143.3406584487297
 20
85.28811880734551
 10
143.3406584487297
 20
85.37278202889552
 10
143.3406584487297
 20
85.45745063340723
 10
143.2559952271797
 20
85.45745063340723
 10
143.2559952271797
 20
85.54211923791894
 10
143.2559952271797
 20
85.62678245946896
 10
143.1713212397063
 20
85.71145106398068
 10
143.1713212397063
 20
85.79611966849238
 10
143.1713212397063
 20
85.8807828900424
 10
143.1713212397063
 20
85.9654514945541
 10
143.1713212397063
 20
86.05012009906582
 10
143.2559952271797
 20
86.13478332061582
 10
143.2559952271797
 20
86.21945192512754
 10
143.3406584487297
 20
86.21945192512754
 10
143.3406584487297
 20
86.30411514667756
  0
HATCH
  5
AC
330
70
100
AcDbEntity
  8
Capa 1
 62
    18
420
        0
440
 33554687
100
AcDbHatch
 10
0.0
 20
0.0
 30
0.0
210
0.0
220
0.0
230
1.0
  2
SOLID
 70
     1
 71
     1
 91
        1
 92
        3
 72
     0
 73
     1
 93
       51
 10
142.9173208091328
 20
85.9654514945541
 10
142.9173208091328
 20
85.9654514945541
 10
142.9173208091328
 20
85.45745063340723
 10
143.0019947966063
 20
85.37278202889552
 10
143.0019947966063
 20
85.28811880734551
 10
143.0866580181563
 20
85.20345020283379
 10
143.0866580181563
 20
85.11878698128379
 10
143.1713212397063
 20
85.03411837677207
 10
143.1713212397063
 20
84.94944977226037
 10
143.2559952271797
 20
84.86478655071035
 10
143.2559952271797
 20
84.78011794619865
 10
143.3406584487297
 20
84.69544934168693
 10
143.4253216702797
 20
84.61044161058838
 10
143.5099956577531
 20
84.52577838903838
 10
143.5946588793031
 20
84.44110978452666
 10
143.6793221008531
 20
84.35644118001496
 10
143.7639960883266
 20
84.27177795846494
 10
143.8486593098766
 20
84.27177795846494
 10
143.9333225314266
 20
84.27177795846494
 10
143.9333225314266
 20
84.18710935395322
 10
144.3566601710234
 20
84.52577838903838
 10
144.2719861835501
 20
84.44110978452666
 10
144.187322962
 20
84.44110978452666
 10
144.10265974045
 20
84.44110978452666
 10
144.0179965189
 20
84.44110978452666
 10
144.0179965189
 20
84.52577838903838
 10
143.9333225314266
 20
84.52577838903838
 10
143.8486593098766
 20
84.61044161058838
 10
143.7639960883266
 20
84.69544934168693
 10
143.6793221008531
 20
84.78011794619865
 10
143.6793221008531
 20
84.86478655071035
 10
143.5946588793031
 20
84.86478655071035
 10
143.5099956577531
 20
84.94944977226037
 10
143.5099956577531
 20
85.03411837677207
 10
143.4253216702797
 20
85.11878698128379
 10
143.4253216702797
 20
85.20345020283379
 10
143.3406584487297
 20
85.28811880734551
 10
143.3406584487297
 20
85.37278202889552
 10
143.3406584487297
 20
85.45745063340723
 10
143.2559952271797
 20
85.45745063340723
 10
143.2559952271797
 20
85.54211923791894
 10
143.2559952271797
 20
85.62678245946896
 10
143.1713212397063
 20
85.71145106398068
 10
143.1713212397063
 20
85.79611966849238
 10
143.1713212397063
 20
85.8807828900424
 10
143.1713212397063
 20
85.9654514945541
 10
143.1713212397063
 20
86.05012009906582
 10
143.2559952271797
 20
86.13478332061582
 10
143.2559952271797
 20
86.21945192512754
 10
143.3406584487297
 20
86.21945192512754
 10
143.3406584487297
 20
86.30411514667756
 97
        0
 75
     0
 76
     1
 98
        1
 10
0.0
 20
0.0
450
        0
451
        0
460
0.0
461
0.0
452
        0
462
0.0
453
        0
470

  0
LWPOLYLINE
  5
AD
330
70
100
AcDbEntity
  8
Capa 1
100
AcDbPolyline
 90
       88
 70
     0
 43
0.0
 10
143.2559952271797
 20
86.47345235570098
 10
143.2559952271797
 20
86.47345235570098
 10
143.1713212397063
 20
86.47345235570098
 10
143.0866580181563
 20
86.38878375118926
 10
143.0019947966063
 20
86.30411514667756
 10
143.0019947966063
 20
86.21945192512754
 10
142.9173208091328
 20
86.21945192512754
 10
142.9173208091328
 20
86.13478332061582
 10
142.9173208091328
 20
86.05012009906582
 10
142.9173208091328
 20
85.9654514945541
 10
143.3406584487297
 20
86.30411514667756
 10
143.4253216702797
 20
86.30411514667756
 10
143.5099956577531
 20
86.30411514667756
 10
143.5946588793031
 20
86.30411514667756
 10
143.6793221008531
 20
86.30411514667756
 10
143.7639960883266
 20
86.30411514667756
 10
143.8486593098766
 20
86.21945192512754
 10
143.9333225314266
 20
86.21945192512754
 10
143.9333225314266
 20
86.13478332061582
 10
144.0179965189
 20
86.13478332061582
 10
144.0179965189
 20
86.05012009906582
 10
144.10265974045
 20
85.9654514945541
 10
144.187322962
 20
85.8807828900424
 10
144.187322962
 20
85.79611966849238
 10
144.2719861835501
 20
85.71145106398068
 10
144.2719861835501
 20
85.62678245946896
 10
144.3566601710234
 20
85.62678245946896
 10
144.3566601710234
 20
85.54211923791894
 10
144.4413233925734
 20
85.45745063340723
 10
144.4413233925734
 20
85.37278202889552
 10
144.4413233925734
 20
85.28811880734551
 10
144.5259866141235
 20
85.20345020283379
 10
144.5259866141235
 20
85.11878698128379
 10
144.6106606015969
 20
85.03411837677207
 10
144.6106606015969
 20
84.94944977226037
 10
144.6106606015969
 20
84.86478655071035
 10
144.6106606015969
 20
84.78011794619865
 10
144.5259866141235
 20
84.69544934168693
 10
144.5259866141235
 20
84.61044161058838
 10
144.4413233925734
 20
84.52577838903838
 10
144.3566601710234
 20
84.52577838903838
 10
143.9333225314266
 20
84.18710935395322
 10
144.0179965189
 20
84.18710935395322
 10
144.10265974045
 20
84.18710935395322
 10
144.187322962
 20
84.18710935395322
 10
144.2719861835501
 20
84.18710935395322
 10
144.3566601710234
 20
84.18710935395322
 10
144.4413233925734
 20
84.27177795846494
 10
144.5259866141235
 20
84.27177795846494
 10
144.6106606015969
 20
84.35644118001496
 10
144.6953238231469
 20
84.44110978452666
 10
144.7799870446969
 20
84.52577838903838
 10
144.7799870446969
 20
84.61044161058838
 10
144.8646610321703
 20
84.61044161058838
 10
144.8646610321703
 20
84.69544934168693
 10
144.8646610321703
 20
84.78011794619865
 10
144.8646610321703
 20
84.86478655071035
 10
144.8646610321703
 20
84.94944977226037
 10
144.8646610321703
 20
85.03411837677207
 10
144.8646610321703
 20
85.11878698128379
 10
144.8646610321703
 20
85.20345020283379
 10
144.8646610321703
 20
85.28811880734551
 10
144.7799870446969
 20
85.28811880734551
 10
144.7799870446969
 20
85.37278202889552
 10
144.7799870446969
 20
85.45745063340723
 10
144.6953238231469
 20
85.54211923791894
 10
144.6953238231469
 20
85.62678245946896
 10
144.6106606015969
 20
85.71145106398068
 10
144.6106606015969
 20
85.79611966849238
 10
144.5259866141235
 20
85.79611966849238
 10
144.5259866141235
 20
85.8807828900424
 10
144.4413233925734
 20
85.9654514945541
 10
144.4413233925734
 20
86.05012009906582
 10
144.3566601710234
 20
86.05012009906582
 10
144.3566601710234
 20
86.13478332061582
 10
144.2719861835501
 20
86.21945192512754
 10
144.2719861835501
 20
86.30411514667756
 10
144.187322962
 20
86.30411514667756
 10
144.10265974045
 20
86.38878375118926
 10
144.0179965189
 20
86.47345235570098
 10
143.9333225314266
 20
86.55811557725099
 10
143.8486593098766
 20
86.55811557725099
 10
143.7639960883266
 20
86.55811557725099
 10
143.6793221008531
 20
86.55811557725099
 10
143.5946588793031
 20
86.55811557725099
 10
143.5099956577531
 20
86.55811557725099
 10
143.4253216702797
 20
86.55811557725099
 10
143.3406584487297
 20
86.55811557725099
  0
HATCH
  5
AE
330
70
100
AcDbEntity
  8
Capa 1
 62
    18
420
        0
440
 33554687
100
AcDbHatch
 10
0.0
 20
0.0
 30
0.0
210
0.0
220
0.0
230
1.0
  2
SOLID
 70
     1
 71
     1
 91
        1
 92
        3
 72
     0
 73
     1
 93
       88
 10
143.2559952271797
 20
86.47345235570098
 10
143.2559952271797
 20
86.47345235570098
 10
143.1713212397063
 20
86.47345235570098
 10
143.0866580181563
 20
86.38878375118926
 10
143.0019947966063
 20
86.30411514667756
 10
143.0019947966063
 20
86.21945192512754
 10
142.9173208091328
 20
86.21945192512754
 10
142.9173208091328
 20
86.13478332061582
 10
142.9173208091328
 20
86.05012009906582
 10
142.9173208091328
 20
85.9654514945541
 10
143.3406584487297
 20
86.30411514667756
 10
143.4253216702797
 20
86.30411514667756
 10
143.5099956577531
 20
86.30411514667756
 10
143.5946588793031
 20
86.30411514667756
 10
143.6793221008531
 20
86.30411514667756
 10
143.7639960883266
 20
86.30411514667756
 10
143.8486593098766
 20
86.21945192512754
 10
143.9333225314266
 20
86.21945192512754
 10
143.9333225314266
 20
86.13478332061582
 10
144.0179965189
 20
86.13478332061582
 10
144.0179965189
 20
86.05012009906582
 10
144.10265974045
 20
85.9654514945541
 10
144.187322962
 20
85.8807828900424
 10
144.187322962
 20
85.79611966849238
 10
144.2719861835501
 20
85.71145106398068
 10
144.2719861835501
 20
85.62678245946896
 10
144.3566601710234
 20
85.62678245946896
 10
144.3566601710234
 20
85.54211923791894
 10
144.4413233925734
 20
85.45745063340723
 10
144.4413233925734
 20
85.37278202889552
 10
144.4413233925734
 20
85.28811880734551
 10
144.5259866141235
 20
85.20345020283379
 10
144.5259866141235
 20
85.11878698128379
 10
144.6106606015969
 20
85.03411837677207
 10
144.6106606015969
 20
84.94944977226037
 10
144.6106606015969
 20
84.86478655071035
 10
144.6106606015969
 20
84.78011794619865
 10
144.5259866141235
 20
84.69544934168693
 10
144.5259866141235
 20
84.61044161058838
 10
144.4413233925734
 20
84.52577838903838
 10
144.3566601710234
 20
84.52577838903838
 10
143.9333225314266
 20
84.18710935395322
 10
144.0179965189
 20
84.18710935395322
 10
144.10265974045
 20
84.18710935395322
 10
144.187322962
 20
84.18710935395322
 10
144.2719861835501
 20
84.18710935395322
 10
144.3566601710234
 20
84.18710935395322
 10
144.4413233925734
 20
84.27177795846494
 10
144.5259866141235
 20
84.27177795846494
 10
144.6106606015969
 20
84.35644118001496
 10
144.6953238231469
 20
84.44110978452666
 10
144.7799870446969
 20
84.52577838903838
 10
144.7799870446969
 20
84.61044161058838
 10
144.8646610321703
 20
84.61044161058838
 10
144.8646610321703
 20
84.69544934168693
 10
144.8646610321703
 20
84.78011794619865
 10
144.8646610321703
 20
84.86478655071035
 10
144.8646610321703
 20
84.94944977226037
 10
144.8646610321703
 20
85.03411837677207
 10
144.8646610321703
 20
85.11878698128379
 10
144.8646610321703
 20
85.20345020283379
 10
144.8646610321703
 20
85.28811880734551
 10
144.7799870446969
 20
85.28811880734551
 10
144.7799870446969
 20
85.37278202889552
 10
144.7799870446969
 20
85.45745063340723
 10
144.6953238231469
 20
85.54211923791894
 10
144.6953238231469
 20
85.62678245946896
 10
144.6106606015969
 20
85.71145106398068
 10
144.6106606015969
 20
85.79611966849238
 10
144.5259866141235
 20
85.79611966849238
 10
144.5259866141235
 20
85.8807828900424
 10
144.4413233925734
 20
85.9654514945541
 10
144.4413233925734
 20
86.05012009906582
 10
144.3566601710234
 20
86.05012009906582
 10
144.3566601710234
 20
86.13478332061582
 10
144.2719861835501
 20
86.21945192512754
 10
144.2719861835501
 20
86.30411514667756
 10
144.187322962
 20
86.30411514667756
 10
144.10265974045
 20
86.38878375118926
 10
144.0179965189
 20
86.47345235570098
 10
143.9333225314266
 20
86.55811557725099
 10
143.8486593098766
 20
86.55811557725099
 10
143.7639960883266
 20
86.55811557725099
 10
143.6793221008531
 20
86.55811557725099
 10
143.5946588793031
 20
86.55811557725099
 10
143.5099956577531
 20
86.55811557725099
 10
143.4253216702797
 20
86.55811557725099
 10
143.3406584487297
 20
86.55811557725099
 97
        0
 75
     0
 76
     1
 98
        1
 10
0.0
 20
0.0
450
        0
451
        0
460
0.0
461
0.0
452
        0
462
0.0
453
        0
470

  0
LWPOLYLINE
  5
AF
330
70
100
AcDbEntity
  8
Capa 1
100
AcDbPolyline
 90
       61
 70
     0
 43
0.0
 10
144.6106606015969
 20
86.98144783388615
 10
144.6106606015969
 20
86.89677922937445
 10
144.5259866141235
 20
86.81211062486273
 10
144.5259866141235
 20
86.72744740331273
 10
144.6106606015969
 20
86.72744740331273
 10
144.6106606015969
 20
86.64278418176271
 10
144.6106606015969
 20
86.55811557725099
 10
144.6106606015969
 20
86.47345235570098
 10
144.6106606015969
 20
86.38878375118926
 10
144.6953238231469
 20
86.38878375118926
 10
144.6953238231469
 20
86.30411514667756
 10
144.6953238231469
 20
86.21945192512754
 10
144.7799870446969
 20
86.13478332061582
 10
144.8646610321703
 20
86.05012009906582
 10
144.8646610321703
 20
85.9654514945541
 10
144.8646610321703
 20
85.8807828900424
 10
144.9493242537203
 20
85.8807828900424
 10
144.9493242537203
 20
85.79611966849238
 10
145.0339874752704
 20
85.71145106398068
 10
145.0339874752704
 20
85.62678245946896
 10
145.1186614627437
 20
85.54211923791894
 10
145.2033246842938
 20
85.45745063340723
 10
145.2879879058438
 20
85.45745063340723
 10
145.2879879058438
 20
85.37278202889552
 10
145.3726618933172
 20
85.37278202889552
 10
145.3726618933172
 20
85.28811880734551
 10
145.4573251148672
 20
85.28811880734551
 10
145.5419883364172
 20
85.20345020283379
 10
145.6266623238906
 20
85.20345020283379
 10
146.0499891975641
 20
85.45745063340723
 10
145.9653259760141
 20
85.45745063340723
 10
145.8806627544641
 20
85.45745063340723
 10
145.7959887669907
 20
85.45745063340723
 10
145.7113255454407
 20
85.45745063340723
 10
145.6266623238906
 20
85.45745063340723
 10
145.6266623238906
 20
85.54211923791894
 10
145.5419883364172
 20
85.54211923791894
 10
145.5419883364172
 20
85.62678245946896
 10
145.4573251148672
 20
85.62678245946896
 10
145.4573251148672
 20
85.71145106398068
 10
145.3726618933172
 20
85.71145106398068
 10
145.2879879058438
 20
85.79611966849238
 10
145.2879879058438
 20
85.8807828900424
 10
145.2033246842938
 20
85.9654514945541
 10
145.2033246842938
 20
86.05012009906582
 10
145.1186614627437
 20
86.13478332061582
 10
145.0339874752704
 20
86.21945192512754
 10
145.0339874752704
 20
86.30411514667756
 10
144.9493242537203
 20
86.38878375118926
 10
144.9493242537203
 20
86.47345235570098
 10
144.9493242537203
 20
86.55811557725099
 10
144.8646610321703
 20
86.55811557725099
 10
144.8646610321703
 20
86.64278418176271
 10
144.8646610321703
 20
86.72744740331273
 10
144.8646610321703
 20
86.81211062486273
 10
144.8646610321703
 20
86.89677922937445
 10
144.8646610321703
 20
86.98144783388615
 10
144.8646610321703
 20
87.06611105543617
 10
144.9493242537203
 20
87.06611105543617
 10
144.9493242537203
 20
87.15077965994787
 10
145.0339874752704
 20
87.23544826445959
  0
HATCH
  5
B0
330
70
100
AcDbEntity
  8
Capa 1
 62
    18
420
        0
440
 33554687
100
AcDbHatch
 10
0.0
 20
0.0
 30
0.0
210
0.0
220
0.0
230
1.0
  2
SOLID
 70
     1
 71
     1
 91
        1
 92
        3
 72
     0
 73
     1
 93
       61
 10
144.6106606015969
 20
86.98144783388615
 10
144.6106606015969
 20
86.89677922937445
 10
144.5259866141235
 20
86.81211062486273
 10
144.5259866141235
 20
86.72744740331273
 10
144.6106606015969
 20
86.72744740331273
 10
144.6106606015969
 20
86.64278418176271
 10
144.6106606015969
 20
86.55811557725099
 10
144.6106606015969
 20
86.47345235570098
 10
144.6106606015969
 20
86.38878375118926
 10
144.6953238231469
 20
86.38878375118926
 10
144.6953238231469
 20
86.30411514667756
 10
144.6953238231469
 20
86.21945192512754
 10
144.7799870446969
 20
86.13478332061582
 10
144.8646610321703
 20
86.05012009906582
 10
144.8646610321703
 20
85.9654514945541
 10
144.8646610321703
 20
85.8807828900424
 10
144.9493242537203
 20
85.8807828900424
 10
144.9493242537203
 20
85.79611966849238
 10
145.0339874752704
 20
85.71145106398068
 10
145.0339874752704
 20
85.62678245946896
 10
145.1186614627437
 20
85.54211923791894
 10
145.2033246842938
 20
85.45745063340723
 10
145.2879879058438
 20
85.45745063340723
 10
145.2879879058438
 20
85.37278202889552
 10
145.3726618933172
 20
85.37278202889552
 10
145.3726618933172
 20
85.28811880734551
 10
145.4573251148672
 20
85.28811880734551
 10
145.5419883364172
 20
85.20345020283379
 10
145.6266623238906
 20
85.20345020283379
 10
146.0499891975641
 20
85.45745063340723
 10
145.9653259760141
 20
85.45745063340723
 10
145.8806627544641
 20
85.45745063340723
 10
145.7959887669907
 20
85.45745063340723
 10
145.7113255454407
 20
85.45745063340723
 10
145.6266623238906
 20
85.45745063340723
 10
145.6266623238906
 20
85.54211923791894
 10
145.5419883364172
 20
85.54211923791894
 10
145.5419883364172
 20
85.62678245946896
 10
145.4573251148672
 20
85.62678245946896
 10
145.4573251148672
 20
85.71145106398068
 10
145.3726618933172
 20
85.71145106398068
 10
145.2879879058438
 20
85.79611966849238
 10
145.2879879058438
 20
85.8807828900424
 10
145.2033246842938
 20
85.9654514945541
 10
145.2033246842938
 20
86.05012009906582
 10
145.1186614627437
 20
86.13478332061582
 10
145.0339874752704
 20
86.21945192512754
 10
145.0339874752704
 20
86.30411514667756
 10
144.9493242537203
 20
86.38878375118926
 10
144.9493242537203
 20
86.47345235570098
 10
144.9493242537203
 20
86.55811557725099
 10
144.8646610321703
 20
86.55811557725099
 10
144.8646610321703
 20
86.64278418176271
 10
144.8646610321703
 20
86.72744740331273
 10
144.8646610321703
 20
86.81211062486273
 10
144.8646610321703
 20
86.89677922937445
 10
144.8646610321703
 20
86.98144783388615
 10
144.8646610321703
 20
87.06611105543617
 10
144.9493242537203
 20
87.06611105543617
 10
144.9493242537203
 20
87.15077965994787
 10
145.0339874752704
 20
87.23544826445959
 97
        0
 75
     0
 76
     1
 98
        1
 10
0.0
 20
0.0
450
        0
451
        0
460
0.0
461
0.0
452
        0
462
0.0
453
        0
470

  0
LWPOLYLINE
  5
B1
330
70
100
AcDbEntity
  8
Capa 1
100
AcDbPolyline
 90
       86
 70
     0
 43
0.0
 10
144.9493242537203
 20
87.48944331207132
 10
144.9493242537203
 20
87.48944331207132
 10
144.8646610321703
 20
87.40478009052131
 10
144.7799870446969
 20
87.40478009052131
 10
144.7799870446969
 20
87.3201114860096
 10
144.6953238231469
 20
87.23544826445959
 10
144.6106606015969
 20
87.15077965994787
 10
144.6106606015969
 20
87.06611105543617
 10
144.6106606015969
 20
86.98144783388615
 10
145.0339874752704
 20
87.23544826445959
 10
145.1186614627437
 20
87.23544826445959
 10
145.2033246842938
 20
87.3201114860096
 10
145.2879879058438
 20
87.3201114860096
 10
145.3726618933172
 20
87.23544826445959
 10
145.4573251148672
 20
87.23544826445959
 10
145.5419883364172
 20
87.23544826445959
 10
145.5419883364172
 20
87.15077965994787
 10
145.6266623238906
 20
87.15077965994787
 10
145.7113255454407
 20
87.06611105543617
 10
145.7959887669907
 20
86.98144783388615
 10
145.7959887669907
 20
86.89677922937445
 10
145.8806627544641
 20
86.81211062486273
 10
145.9653259760141
 20
86.72744740331273
 10
145.9653259760141
 20
86.64278418176271
 10
145.9653259760141
 20
86.55811557725099
 10
146.0499891975641
 20
86.47345235570098
 10
146.1346631850375
 20
86.38878375118926
 10
146.1346631850375
 20
86.30411514667756
 10
146.2193264065875
 20
86.21945192512754
 10
146.2193264065875
 20
86.13478332061582
 10
146.2193264065875
 20
86.05012009906582
 10
146.3039896281375
 20
85.9654514945541
 10
146.3039896281375
 20
85.8807828900424
 10
146.3039896281375
 20
85.79611966849238
 10
146.3039896281375
 20
85.71145106398068
 10
146.2193264065875
 20
85.62678245946896
 10
146.1346631850375
 20
85.54211923791894
 10
146.0499891975641
 20
85.45745063340723
 10
145.6266623238906
 20
85.20345020283379
 10
145.7113255454407
 20
85.20345020283379
 10
145.7113255454407
 20
85.11878698128379
 10
145.7959887669907
 20
85.11878698128379
 10
145.8806627544641
 20
85.11878698128379
 10
145.9653259760141
 20
85.20345020283379
 10
146.0499891975641
 20
85.20345020283379
 10
146.1346631850375
 20
85.20345020283379
 10
146.2193264065875
 20
85.28811880734551
 10
146.3039896281375
 20
85.28811880734551
 10
146.3039896281375
 20
85.37278202889552
 10
146.3886528496875
 20
85.37278202889552
 10
146.3886528496875
 20
85.45745063340723
 10
146.473326837161
 20
85.54211923791894
 10
146.557990058711
 20
85.62678245946896
 10
146.557990058711
 20
85.71145106398068
 10
146.557990058711
 20
85.79611966849238
 10
146.557990058711
 20
85.8807828900424
 10
146.557990058711
 20
85.9654514945541
 10
146.557990058711
 20
86.05012009906582
 10
146.557990058711
 20
86.13478332061582
 10
146.557990058711
 20
86.21945192512754
 10
146.473326837161
 20
86.21945192512754
 10
146.473326837161
 20
86.30411514667756
 10
146.473326837161
 20
86.38878375118926
 10
146.3886528496875
 20
86.47345235570098
 10
146.3886528496875
 20
86.55811557725099
 10
146.3039896281375
 20
86.64278418176271
 10
146.3039896281375
 20
86.72744740331273
 10
146.2193264065875
 20
86.81211062486273
 10
146.2193264065875
 20
86.89677922937445
 10
146.1346631850375
 20
86.98144783388615
 10
146.0499891975641
 20
87.06611105543617
 10
146.0499891975641
 20
87.15077965994787
 10
145.9653259760141
 20
87.15077965994787
 10
145.9653259760141
 20
87.23544826445959
 10
145.8806627544641
 20
87.3201114860096
 10
145.7959887669907
 20
87.3201114860096
 10
145.7959887669907
 20
87.40478009052131
 10
145.7113255454407
 20
87.40478009052131
 10
145.6266623238906
 20
87.48944331207132
 10
145.5419883364172
 20
87.48944331207132
 10
145.4573251148672
 20
87.57411191658304
 10
145.3726618933172
 20
87.57411191658304
 10
145.2879879058438
 20
87.57411191658304
 10
145.2033246842938
 20
87.57411191658304
 10
145.1186614627437
 20
87.57411191658304
 10
145.0339874752704
 20
87.48944331207132
  0
HATCH
  5
B2
330
70
100
AcDbEntity
  8
Capa 1
 62
    18
420
        0
440
 33554687
100
AcDbHatch
 10
0.0
 20
0.0
 30
0.0
210
0.0
220
0.0
230
1.0
  2
SOLID
 70
     1
 71
     1
 91
        1
 92
        3
 72
     0
 73
     1
 93
       86
 10
144.9493242537203
 20
87.48944331207132
 10
144.9493242537203
 20
87.48944331207132
 10
144.8646610321703
 20
87.40478009052131
 10
144.7799870446969
 20
87.40478009052131
 10
144.7799870446969
 20
87.3201114860096
 10
144.6953238231469
 20
87.23544826445959
 10
144.6106606015969
 20
87.15077965994787
 10
144.6106606015969
 20
87.06611105543617
 10
144.6106606015969
 20
86.98144783388615
 10
145.0339874752704
 20
87.23544826445959
 10
145.1186614627437
 20
87.23544826445959
 10
145.2033246842938
 20
87.3201114860096
 10
145.2879879058438
 20
87.3201114860096
 10
145.3726618933172
 20
87.23544826445959
 10
145.4573251148672
 20
87.23544826445959
 10
145.5419883364172
 20
87.23544826445959
 10
145.5419883364172
 20
87.15077965994787
 10
145.6266623238906
 20
87.15077965994787
 10
145.7113255454407
 20
87.06611105543617
 10
145.7959887669907
 20
86.98144783388615
 10
145.7959887669907
 20
86.89677922937445
 10
145.8806627544641
 20
86.81211062486273
 10
145.9653259760141
 20
86.72744740331273
 10
145.9653259760141
 20
86.64278418176271
 10
145.9653259760141
 20
86.55811557725099
 10
146.0499891975641
 20
86.47345235570098
 10
146.1346631850375
 20
86.38878375118926
 10
146.1346631850375
 20
86.30411514667756
 10
146.2193264065875
 20
86.21945192512754
 10
146.2193264065875
 20
86.13478332061582
 10
146.2193264065875
 20
86.05012009906582
 10
146.3039896281375
 20
85.9654514945541
 10
146.3039896281375
 20
85.8807828900424
 10
146.3039896281375
 20
85.79611966849238
 10
146.3039896281375
 20
85.71145106398068
 10
146.2193264065875
 20
85.62678245946896
 10
146.1346631850375
 20
85.54211923791894
 10
146.0499891975641
 20
85.45745063340723
 10
145.6266623238906
 20
85.20345020283379
 10
145.7113255454407
 20
85.20345020283379
 10
145.7113255454407
 20
85.11878698128379
 10
145.7959887669907
 20
85.11878698128379
 10
145.8806627544641
 20
85.11878698128379
 10
145.9653259760141
 20
85.20345020283379
 10
146.0499891975641
 20
85.20345020283379
 10
146.1346631850375
 20
85.20345020283379
 10
146.2193264065875
 20
85.28811880734551
 10
146.3039896281375
 20
85.28811880734551
 10
146.3039896281375
 20
85.37278202889552
 10
146.3886528496875
 20
85.37278202889552
 10
146.3886528496875
 20
85.45745063340723
 10
146.473326837161
 20
85.54211923791894
 10
146.557990058711
 20
85.62678245946896
 10
146.557990058711
 20
85.71145106398068
 10
146.557990058711
 20
85.79611966849238
 10
146.557990058711
 20
85.8807828900424
 10
146.557990058711
 20
85.9654514945541
 10
146.557990058711
 20
86.05012009906582
 10
146.557990058711
 20
86.13478332061582
 10
146.557990058711
 20
86.21945192512754
 10
146.473326837161
 20
86.21945192512754
 10
146.473326837161
 20
86.30411514667756
 10
146.473326837161
 20
86.38878375118926
 10
146.3886528496875
 20
86.47345235570098
 10
146.3886528496875
 20
86.55811557725099
 10
146.3039896281375
 20
86.64278418176271
 10
146.3039896281375
 20
86.72744740331273
 10
146.2193264065875
 20
86.81211062486273
 10
146.2193264065875
 20
86.89677922937445
 10
146.1346631850375
 20
86.98144783388615
 10
146.0499891975641
 20
87.06611105543617
 10
146.0499891975641
 20
87.15077965994787
 10
145.9653259760141
 20
87.15077965994787
 10
145.9653259760141
 20
87.23544826445959
 10
145.8806627544641
 20
87.3201114860096
 10
145.7959887669907
 20
87.3201114860096
 10
145.7959887669907
 20
87.40478009052131
 10
145.7113255454407
 20
87.40478009052131
 10
145.6266623238906
 20
87.48944331207132
 10
145.5419883364172
 20
87.48944331207132
 10
145.4573251148672
 20
87.57411191658304
 10
145.3726618933172
 20
87.57411191658304
 10
145.2879879058438
 20
87.57411191658304
 10
145.2033246842938
 20
87.57411191658304
 10
145.1186614627437
 20
87.57411191658304
 10
145.0339874752704
 20
87.48944331207132
 97
        0
 75
     0
 76
     1
 98
        1
 10
0.0
 20
0.0
450
        0
451
        0
460
0.0
461
0.0
452
        0
462
0.0
453
        0
470

  0
SPLINE
  5
B3
330
70
100
AcDbEntity
  8
Capa 1
 62
    18
420
        0
370
     9
100
AcDbSpline
210
0.0
220
0.0
230
1.0
 70
    24
 71
     3
 72
     8
 73
     4
 74
     0
 42
0.0000000001
 43
0.0000000001
 40
0.0
 40
0.0
 40
0.0
 40
0.0
 40
1.0
 40
1.0
 40
1.0
 40
1.0
 10
80.09466427813986
 20
62.08910957479619
 30
0.0
 10
80.09466427813986
 20
62.08910957479619
 30
0.0
 10
62.65333008789298
 20
52.01377710525556
 30
0.0
 10
62.65333008789298
 20
52.01377710525556
 30
0.0
  0
SPLINE
  5
B4
330
70
100
AcDbEntity
  8
Capa 1
 62
    18
420
        0
370
     9
100
AcDbSpline
210
0.0
220
0.0
230
1.0
 70
    24
 71
     3
 72
     8
 73
     4
 74
     0
 42
0.0000000001
 43
0.0000000001
 40
0.0
 40
0.0
 40
0.0
 40
0.0
 40
1.0
 40
1.0
 40
1.0
 40
1.0
 10
41.14799708291368
 20
84.61044161058838
 30
0.0
 10
41.14799708291368
 20
84.61044161058838
 30
0.0
 10
23.62199697963595
 20
74.45044591949773
 30
0.0
 10
23.62199697963595
 20
74.45044591949773
 30
0.0
  0
SPLINE
  5
B5
330
70
100
AcDbEntity
  8
Capa 1
 62
    18
420
        0
370
     9
100
AcDbSpline
210
0.0
220
0.0
230
1.0
 70
    24
 71
     3
 72
     8
 73
     4
 74
     0
 42
0.0000000001
 43
0.0000000001
 40
0.0
 40
0.0
 40
0.0
 40
0.0
 40
1.0
 40
1.0
 40
1.0
 40
1.0
 10
61.04466428290235
 20
54.63844463253994
 30
0.0
 10
61.04466428290235
 20
54.63844463253994
 30
0.0
 10
28.1939993469961
 20
73.60377602326572
 30
0.0
 10
28.1939993469961
 20
73.60377602326572
 30
0.0
  0
LWPOLYLINE
  5
B6
330
70
100
AcDbEntity
  8
Capa 1
100
AcDbPolyline
 90
        3
 70
     0
 43
0.0
 10
61.38332793502581
 20
55.1464454936868
 10
60.79066385232891
 20
54.13044377139306
 10
64.09266406682188
 20
52.86044161852588
  0
HATCH
  5
B7
330
70
100
AcDbEntity
  8
Capa 1
 62
    18
420
        0
440
 33554687
100
AcDbHatch
 10
0.0
 20
0.0
 30
0.0
210
0.0
220
0.0
230
1.0
  2
SOLID
 70
     1
 71
     1
 91
        1
 92
        3
 72
     0
 73
     1
 93
        3
 10
61.38332793502581
 20
55.1464454936868
 10
60.79066385232891
 20
54.13044377139306
 10
64.09266406682188
 20
52.86044161852588
 97
        0
 75
     0
 76
     1
 98
        1
 10
0.0
 20
0.0
450
        0
451
        0
460
0.0
461
0.0
452
        0
462
0.0
453
        0
470

  0
LWPOLYLINE
  5
B8
330
70
100
AcDbEntity
  8
Capa 1
100
AcDbPolyline
 90
        3
 70
     0
 43
0.0
 10
28.44799708608869
 20
74.11177688441259
 10
27.85533031191095
 20
73.09577516211885
 10
25.14599687159572
 20
75.38177903727977
  0
HATCH
  5
B9
330
70
100
AcDbEntity
  8
Capa 1
 62
    18
420
        0
440
 33554687
100
AcDbHatch
 10
0.0
 20
0.0
 30
0.0
210
0.0
220
0.0
230
1.0
  2
SOLID
 70
     1
 71
     1
 91
        1
 92
        3
 72
     0
 73
     1
 93
        3
 10
28.44799708608869
 20
74.11177688441259
 10
27.85533031191095
 20
73.09577516211885
 10
25.14599687159572
 20
75.38177903727977
 97
        0
 75
     0
 76
     1
 98
        1
 10
0.0
 20
0.0
450
        0
451
        0
460
0.0
461
0.0
452
        0
462
0.0
453
        0
470

  0
LWPOLYLINE
  5
BA
330
70
100
AcDbEntity
  8
Capa 1
100
AcDbPolyline
 90
       13
 70
     0
 43
0.0
 10
45.12732998461525
 20
67.84644549051181
 10
44.95799815855352
 20
67.93110871206183
 10
43.17999783602032
 20
67.16911280330321
 10
43.01066331847775
 20
66.91511237272978
 10
43.94199643625978
 20
66.32244290707119
 10
43.60333009265548
 20
65.81444204592433
 10
43.94199643625978
 20
65.72977882437431
 10
44.19599686683322
 20
66.23777968552118
 10
44.53466321043751
 20
66.06844247649776
 10
44.61933181494923
 20
66.32244290707119
 10
44.36533138437579
 20
66.49177473313291
 10
43.43399826659376
 20
66.9997755942798
 10
44.61933181494923
 20
67.59244505993837
  0
HATCH
  5
BB
330
70
100
AcDbEntity
  8
Capa 1
 62
    18
420
        0
440
 33554687
100
AcDbHatch
 10
0.0
 20
0.0
 30
0.0
210
0.0
220
0.0
230
1.0
  2
SOLID
 70
     1
 71
     1
 91
        1
 92
        3
 72
     0
 73
     1
 93
       13
 10
45.12732998461525
 20
67.84644549051181
 10
44.95799815855352
 20
67.93110871206183
 10
43.17999783602032
 20
67.16911280330321
 10
43.01066331847775
 20
66.91511237272978
 10
43.94199643625978
 20
66.32244290707119
 10
43.60333009265548
 20
65.81444204592433
 10
43.94199643625978
 20
65.72977882437431
 10
44.19599686683322
 20
66.23777968552118
 10
44.53466321043751
 20
66.06844247649776
 10
44.61933181494923
 20
66.32244290707119
 10
44.36533138437579
 20
66.49177473313291
 10
43.43399826659376
 20
66.9997755942798
 10
44.61933181494923
 20
67.59244505993837
 97
        0
 75
     0
 76
     1
 98
        1
 10
0.0
 20
0.0
450
        0
451
        0
460
0.0
461
0.0
452
        0
462
0.0
453
        0
470

  0
LWPOLYLINE
  5
BC
330
70
100
AcDbEntity
  8
Capa 1
100
AcDbPolyline
 90
        5
 70
     0
 43
0.0
 10
45.12732998461525
 20
67.84644549051181
 10
44.61933181494923
 20
67.59244505993837
 10
44.11133095380235
 20
66.57644333764463
 10
43.43399826659376
 20
66.9997755942798
 10
44.36533138437579
 20
66.49177473313291
  0
HATCH
  5
BD
330
70
100
AcDbEntity
  8
Capa 1
 62
    18
420
        0
440
 33554687
100
AcDbHatch
 10
0.0
 20
0.0
 30
0.0
210
0.0
220
0.0
230
1.0
  2
SOLID
 70
     1
 71
     1
 91
        1
 92
        3
 72
     0
 73
     1
 93
        5
 10
45.12732998461525
 20
67.84644549051181
 10
44.61933181494923
 20
67.59244505993837
 10
44.11133095380235
 20
66.57644333764463
 10
43.43399826659376
 20
66.9997755942798
 10
44.36533138437579
 20
66.49177473313291
 97
        0
 75
     0
 76
     1
 98
        1
 10
0.0
 20
0.0
450
        0
451
        0
460
0.0
461
0.0
452
        0
462
0.0
453
        0
470

  0
LWPOLYLINE
  5
BE
330
70
100
AcDbEntity
  8
Capa 1
100
AcDbPolyline
 90
       34
 70
     0
 43
0.0
 10
45.12732998461525
 20
65.81444204592433
 10
44.78866364101095
 20
65.89911065043603
 10
44.78866364101095
 20
65.72977882437431
 10
44.70399772798009
 20
65.72977882437431
 10
44.70399772798009
 20
65.6451102198626
 10
44.70399772798009
 20
65.56044161535088
 10
44.70399772798009
 20
65.47577839380086
 10
44.78866364101095
 20
65.39110978928916
 10
44.78866364101095
 20
65.30644118477745
 10
44.78866364101095
 20
65.22177796322743
 10
44.87333224552266
 20
65.22177796322743
 10
44.87333224552266
 20
65.13710935871571
 10
44.95799815855352
 20
65.13710935871571
 10
44.95799815855352
 20
65.05244613716572
 10
45.04266407158438
 20
64.967777532654
 10
45.12732998461525
 20
64.967777532654
 10
45.12732998461525
 20
64.88310892814229
 10
45.21199589764611
 20
64.88310892814229
 10
45.29666450215782
 20
64.88310892814229
 10
45.38132772370784
 20
64.79844570659228
 10
45.46599632821954
 20
64.79844570659228
 10
45.55066493273126
 20
64.79844570659228
 10
45.63532815428128
 20
64.79844570659228
 10
45.71999675879299
 20
64.79844570659228
 10
45.80466536330469
 20
64.79844570659228
 10
45.29666450215782
 20
65.13710935871571
 10
45.21199589764611
 20
65.22177796322743
 10
45.12732998461525
 20
65.22177796322743
 10
45.12732998461525
 20
65.30644118477745
 10
45.04266407158438
 20
65.39110978928916
 10
45.04266407158438
 20
65.47577839380086
 10
45.04266407158438
 20
65.56044161535088
 10
45.04266407158438
 20
65.6451102198626
 10
45.04266407158438
 20
65.72977882437431
  0
HATCH
  5
BF
330
70
100
AcDbEntity
  8
Capa 1
 62
    18
420
        0
440
 33554687
100
AcDbHatch
 10
0.0
 20
0.0
 30
0.0
210
0.0
220
0.0
230
1.0
  2
SOLID
 70
     1
 71
     1
 91
        1
 92
        3
 72
     0
 73
     1
 93
       34
 10
45.12732998461525
 20
65.81444204592433
 10
44.78866364101095
 20
65.89911065043603
 10
44.78866364101095
 20
65.72977882437431
 10
44.70399772798009
 20
65.72977882437431
 10
44.70399772798009
 20
65.6451102198626
 10
44.70399772798009
 20
65.56044161535088
 10
44.70399772798009
 20
65.47577839380086
 10
44.78866364101095
 20
65.39110978928916
 10
44.78866364101095
 20
65.30644118477745
 10
44.78866364101095
 20
65.22177796322743
 10
44.87333224552266
 20
65.22177796322743
 10
44.87333224552266
 20
65.13710935871571
 10
44.95799815855352
 20
65.13710935871571
 10
44.95799815855352
 20
65.05244613716572
 10
45.04266407158438
 20
64.967777532654
 10
45.12732998461525
 20
64.967777532654
 10
45.12732998461525
 20
64.88310892814229
 10
45.21199589764611
 20
64.88310892814229
 10
45.29666450215782
 20
64.88310892814229
 10
45.38132772370784
 20
64.79844570659228
 10
45.46599632821954
 20
64.79844570659228
 10
45.55066493273126
 20
64.79844570659228
 10
45.63532815428128
 20
64.79844570659228
 10
45.71999675879299
 20
64.79844570659228
 10
45.80466536330469
 20
64.79844570659228
 10
45.29666450215782
 20
65.13710935871571
 10
45.21199589764611
 20
65.22177796322743
 10
45.12732998461525
 20
65.22177796322743
 10
45.12732998461525
 20
65.30644118477745
 10
45.04266407158438
 20
65.39110978928916
 10
45.04266407158438
 20
65.47577839380086
 10
45.04266407158438
 20
65.56044161535088
 10
45.04266407158438
 20
65.6451102198626
 10
45.04266407158438
 20
65.72977882437431
 97
        0
 75
     0
 76
     1
 98
        1
 10
0.0
 20
0.0
450
        0
451
        0
460
0.0
461
0.0
452
        0
462
0.0
453
        0
470

  0
LWPOLYLINE
  5
C0
330
70
100
AcDbEntity
  8
Capa 1
100
AcDbPolyline
 90
       38
 70
     0
 43
0.0
 10
46.39732944600157
 20
65.89911065043603
 10
45.8893285848547
 20
66.15311108100947
 10
45.97399718936642
 20
66.06844247649776
 10
46.05866041091643
 20
65.98377925494775
 10
46.05866041091643
 20
65.89911065043603
 10
46.14332901542814
 20
65.81444204592433
 10
46.14332901542814
 20
65.72977882437431
 10
46.14332901542814
 20
65.6451102198626
 10
46.05866041091643
 20
65.56044161535088
 10
46.05866041091643
 20
65.47577839380086
 10
46.05866041091643
 20
65.39110978928916
 10
45.97399718936642
 20
65.30644118477745
 10
45.8893285848547
 20
65.22177796322743
 10
45.80466536330469
 20
65.13710935871571
 10
45.71999675879299
 20
65.13710935871571
 10
45.63532815428128
 20
65.13710935871571
 10
45.63532815428128
 20
65.05244613716572
 10
45.55066493273126
 20
65.05244613716572
 10
45.46599632821954
 20
65.05244613716572
 10
45.38132772370784
 20
65.05244613716572
 10
45.38132772370784
 20
65.13710935871571
 10
45.29666450215782
 20
65.13710935871571
 10
45.80466536330469
 20
64.79844570659228
 10
45.8893285848547
 20
64.88310892814229
 10
45.97399718936642
 20
64.88310892814229
 10
45.97399718936642
 20
64.967777532654
 10
46.05866041091643
 20
64.967777532654
 10
46.14332901542814
 20
64.967777532654
 10
46.14332901542814
 20
65.05244613716572
 10
46.22799761993985
 20
65.13710935871571
 10
46.31266084148987
 20
65.22177796322743
 10
46.31266084148987
 20
65.30644118477745
 10
46.39732944600157
 20
65.39110978928916
 10
46.39732944600157
 20
65.47577839380086
 10
46.48199805051329
 20
65.56044161535088
 10
46.48199805051329
 20
65.6451102198626
 10
46.48199805051329
 20
65.72977882437431
 10
46.48199805051329
 20
65.81444204592433
  0
HATCH
  5
C1
330
70
100
AcDbEntity
  8
Capa 1
 62
    18
420
        0
440
 33554687
100
AcDbHatch
 10
0.0
 20
0.0
 30
0.0
210
0.0
220
0.0
230
1.0
  2
SOLID
 70
     1
 71
     1
 91
        1
 92
        3
 72
     0
 73
     1
 93
       38
 10
46.39732944600157
 20
65.89911065043603
 10
45.8893285848547
 20
66.15311108100947
 10
45.97399718936642
 20
66.06844247649776
 10
46.05866041091643
 20
65.98377925494775
 10
46.05866041091643
 20
65.89911065043603
 10
46.14332901542814
 20
65.81444204592433
 10
46.14332901542814
 20
65.72977882437431
 10
46.14332901542814
 20
65.6451102198626
 10
46.05866041091643
 20
65.56044161535088
 10
46.05866041091643
 20
65.47577839380086
 10
46.05866041091643
 20
65.39110978928916
 10
45.97399718936642
 20
65.30644118477745
 10
45.8893285848547
 20
65.22177796322743
 10
45.80466536330469
 20
65.13710935871571
 10
45.71999675879299
 20
65.13710935871571
 10
45.63532815428128
 20
65.13710935871571
 10
45.63532815428128
 20
65.05244613716572
 10
45.55066493273126
 20
65.05244613716572
 10
45.46599632821954
 20
65.05244613716572
 10
45.38132772370784
 20
65.05244613716572
 10
45.38132772370784
 20
65.13710935871571
 10
45.29666450215782
 20
65.13710935871571
 10
45.80466536330469
 20
64.79844570659228
 10
45.8893285848547
 20
64.88310892814229
 10
45.97399718936642
 20
64.88310892814229
 10
45.97399718936642
 20
64.967777532654
 10
46.05866041091643
 20
64.967777532654
 10
46.14332901542814
 20
64.967777532654
 10
46.14332901542814
 20
65.05244613716572
 10
46.22799761993985
 20
65.13710935871571
 10
46.31266084148987
 20
65.22177796322743
 10
46.31266084148987
 20
65.30644118477745
 10
46.39732944600157
 20
65.39110978928916
 10
46.39732944600157
 20
65.47577839380086
 10
46.48199805051329
 20
65.56044161535088
 10
46.48199805051329
 20
65.6451102198626
 10
46.48199805051329
 20
65.72977882437431
 10
46.48199805051329
 20
65.81444204592433
 97
        0
 75
     0
 76
     1
 98
        1
 10
0.0
 20
0.0
450
        0
451
        0
460
0.0
461
0.0
452
        0
462
0.0
453
        0
470

  0
LWPOLYLINE
  5
C2
330
70
100
AcDbEntity
  8
Capa 1
100
AcDbPolyline
 90
       14
 70
     0
 43
0.0
 10
46.05866041091643
 20
66.32244290707119
 10
46.05866041091643
 20
66.32244290707119
 10
45.97399718936642
 20
66.40711151158289
 10
45.8893285848547
 20
66.40711151158289
 10
45.80466536330469
 20
66.40711151158289
 10
45.71999675879299
 20
66.49177473313291
 10
45.63532815428128
 20
66.49177473313291
 10
45.55066493273126
 20
66.49177473313291
 10
46.39732944600157
 20
65.98377925494775
 10
46.31266084148987
 20
66.06844247649776
 10
46.31266084148987
 20
66.15311108100947
 10
46.22799761993985
 20
66.23777968552118
 10
46.14332901542814
 20
66.23777968552118
 10
46.14332901542814
 20
66.32244290707119
  0
HATCH
  5
C3
330
70
100
AcDbEntity
  8
Capa 1
 62
    18
420
        0
440
 33554687
100
AcDbHatch
 10
0.0
 20
0.0
 30
0.0
210
0.0
220
0.0
230
1.0
  2
SOLID
 70
     1
 71
     1
 91
        1
 92
        3
 72
     0
 73
     1
 93
       14
 10
46.05866041091643
 20
66.32244290707119
 10
46.05866041091643
 20
66.32244290707119
 10
45.97399718936642
 20
66.40711151158289
 10
45.8893285848547
 20
66.40711151158289
 10
45.80466536330469
 20
66.40711151158289
 10
45.71999675879299
 20
66.49177473313291
 10
45.63532815428128
 20
66.49177473313291
 10
45.55066493273126
 20
66.49177473313291
 10
46.39732944600157
 20
65.98377925494775
 10
46.31266084148987
 20
66.06844247649776
 10
46.31266084148987
 20
66.15311108100947
 10
46.22799761993985
 20
66.23777968552118
 10
46.14332901542814
 20
66.23777968552118
 10
46.14332901542814
 20
66.32244290707119
 97
        0
 75
     0
 76
     1
 98
        1
 10
0.0
 20
0.0
450
        0
451
        0
460
0.0
461
0.0
452
        0
462
0.0
453
        0
470

  0
LWPOLYLINE
  5
C4
330
70
100
AcDbEntity
  8
Capa 1
100
AcDbPolyline
 90
       16
 70
     0
 43
0.0
 10
47.07466213321017
 20
66.74577516370636
 10
45.97399718936642
 20
67.33844462936494
 10
45.12732998461525
 20
66.32244290707119
 10
45.38132772370784
 20
66.15311108100947
 10
45.38132772370784
 20
66.23777968552118
 10
45.46599632821954
 20
66.23777968552118
 10
45.55066493273126
 20
66.23777968552118
 10
45.63532815428128
 20
66.23777968552118
 10
45.71999675879299
 20
66.23777968552118
 10
45.80466536330469
 20
66.15311108100947
 10
45.8893285848547
 20
66.15311108100947
 10
46.39732944600157
 20
65.89911065043603
 10
46.39732944600157
 20
65.98377925494775
 10
45.55066493273126
 20
66.49177473313291
 10
46.05866041091643
 20
66.9997755942798
 10
46.90533030714845
 20
66.49177473313291
  0
HATCH
  5
C5
330
70
100
AcDbEntity
  8
Capa 1
 62
    18
420
        0
440
 33554687
100
AcDbHatch
 10
0.0
 20
0.0
 30
0.0
210
0.0
220
0.0
230
1.0
  2
SOLID
 70
     1
 71
     1
 91
        1
 92
        3
 72
     0
 73
     1
 93
       16
 10
47.07466213321017
 20
66.74577516370636
 10
45.97399718936642
 20
67.33844462936494
 10
45.12732998461525
 20
66.32244290707119
 10
45.38132772370784
 20
66.15311108100947
 10
45.38132772370784
 20
66.23777968552118
 10
45.46599632821954
 20
66.23777968552118
 10
45.55066493273126
 20
66.23777968552118
 10
45.63532815428128
 20
66.23777968552118
 10
45.71999675879299
 20
66.23777968552118
 10
45.80466536330469
 20
66.15311108100947
 10
45.8893285848547
 20
66.15311108100947
 10
46.39732944600157
 20
65.89911065043603
 10
46.39732944600157
 20
65.98377925494775
 10
45.55066493273126
 20
66.49177473313291
 10
46.05866041091643
 20
66.9997755942798
 10
46.90533030714845
 20
66.49177473313291
 97
        0
 75
     0
 76
     1
 98
        1
 10
0.0
 20
0.0
450
        0
451
        0
460
0.0
461
0.0
452
        0
462
0.0
453
        0
470

  0
LWPOLYLINE
  5
C6
330
70
100
AcDbEntity
  8
Capa 1
100
AcDbPolyline
 90
       59
 70
     0
 43
0.0
 10
47.49799438984534
 20
66.23777968552118
 10
47.41333116829532
 20
66.15311108100947
 10
47.32866256378361
 20
66.06844247649776
 10
47.2439939592719
 20
66.06844247649776
 10
47.2439939592719
 20
65.98377925494775
 10
47.15933073772188
 20
65.98377925494775
 10
47.15933073772188
 20
65.89911065043603
 10
47.07466213321017
 20
65.89911065043603
 10
47.07466213321017
 20
65.81444204592433
 10
46.98999891166017
 20
65.72977882437431
 10
46.90533030714845
 20
65.6451102198626
 10
46.90533030714845
 20
65.56044161535088
 10
46.82066170263674
 20
65.56044161535088
 10
46.82066170263674
 20
65.47577839380086
 10
46.73599848108672
 20
65.39110978928916
 10
46.73599848108672
 20
65.30644118477745
 10
46.65132987657502
 20
65.22177796322743
 10
46.65132987657502
 20
65.13710935871571
 10
46.56666127206331
 20
65.05244613716572
 10
46.56666127206331
 20
64.967777532654
 10
46.56666127206331
 20
64.88310892814229
 10
46.48199805051329
 20
64.88310892814229
 10
46.48199805051329
 20
64.79844570659228
 10
46.48199805051329
 20
64.71377710208057
 10
46.48199805051329
 20
64.62910849756885
 10
46.48199805051329
 20
64.54444527601883
 10
46.48199805051329
 20
64.45977667150713
 10
46.48199805051329
 20
64.37510806699542
 10
46.98999891166017
 20
64.20577624093368
 10
46.90533030714845
 20
64.20577624093368
 10
46.90533030714845
 20
64.2904448454454
 10
46.82066170263674
 20
64.2904448454454
 10
46.82066170263674
 20
64.37510806699542
 10
46.82066170263674
 20
64.45977667150713
 10
46.73599848108672
 20
64.54444527601883
 10
46.73599848108672
 20
64.62910849756885
 10
46.82066170263674
 20
64.62910849756885
 10
46.82066170263674
 20
64.71377710208057
 10
46.82066170263674
 20
64.79844570659228
 10
46.82066170263674
 20
64.88310892814229
 10
46.90533030714845
 20
64.967777532654
 10
46.90533030714845
 20
65.05244613716572
 10
46.98999891166017
 20
65.13710935871571
 10
46.98999891166017
 20
65.22177796322743
 10
47.07466213321017
 20
65.30644118477745
 10
47.15933073772188
 20
65.39110978928916
 10
47.15933073772188
 20
65.47577839380086
 10
47.2439939592719
 20
65.56044161535088
 10
47.2439939592719
 20
65.6451102198626
 10
47.32866256378361
 20
65.6451102198626
 10
47.32866256378361
 20
65.72977882437431
 10
47.41333116829532
 20
65.81444204592433
 10
47.49799438984534
 20
65.89911065043603
 10
47.58266299435705
 20
65.89911065043603
 10
47.66733159886875
 20
65.98377925494775
 10
47.75199482041877
 20
65.98377925494775
 10
47.83666342493048
 20
65.98377925494775
 10
47.9213320294422
 20
65.98377925494775
 10
48.00599525099221
 20
65.89911065043603
  0
HATCH
  5
C7
330
70
100
AcDbEntity
  8
Capa 1
 62
    18
420
        0
440
 33554687
100
AcDbHatch
 10
0.0
 20
0.0
 30
0.0
210
0.0
220
0.0
230
1.0
  2
SOLID
 70
     1
 71
     1
 91
        1
 92
        3
 72
     0
 73
     1
 93
       59
 10
47.49799438984534
 20
66.23777968552118
 10
47.41333116829532
 20
66.15311108100947
 10
47.32866256378361
 20
66.06844247649776
 10
47.2439939592719
 20
66.06844247649776
 10
47.2439939592719
 20
65.98377925494775
 10
47.15933073772188
 20
65.98377925494775
 10
47.15933073772188
 20
65.89911065043603
 10
47.07466213321017
 20
65.89911065043603
 10
47.07466213321017
 20
65.81444204592433
 10
46.98999891166017
 20
65.72977882437431
 10
46.90533030714845
 20
65.6451102198626
 10
46.90533030714845
 20
65.56044161535088
 10
46.82066170263674
 20
65.56044161535088
 10
46.82066170263674
 20
65.47577839380086
 10
46.73599848108672
 20
65.39110978928916
 10
46.73599848108672
 20
65.30644118477745
 10
46.65132987657502
 20
65.22177796322743
 10
46.65132987657502
 20
65.13710935871571
 10
46.56666127206331
 20
65.05244613716572
 10
46.56666127206331
 20
64.967777532654
 10
46.56666127206331
 20
64.88310892814229
 10
46.48199805051329
 20
64.88310892814229
 10
46.48199805051329
 20
64.79844570659228
 10
46.48199805051329
 20
64.71377710208057
 10
46.48199805051329
 20
64.62910849756885
 10
46.48199805051329
 20
64.54444527601883
 10
46.48199805051329
 20
64.45977667150713
 10
46.48199805051329
 20
64.37510806699542
 10
46.98999891166017
 20
64.20577624093368
 10
46.90533030714845
 20
64.20577624093368
 10
46.90533030714845
 20
64.2904448454454
 10
46.82066170263674
 20
64.2904448454454
 10
46.82066170263674
 20
64.37510806699542
 10
46.82066170263674
 20
64.45977667150713
 10
46.73599848108672
 20
64.54444527601883
 10
46.73599848108672
 20
64.62910849756885
 10
46.82066170263674
 20
64.62910849756885
 10
46.82066170263674
 20
64.71377710208057
 10
46.82066170263674
 20
64.79844570659228
 10
46.82066170263674
 20
64.88310892814229
 10
46.90533030714845
 20
64.967777532654
 10
46.90533030714845
 20
65.05244613716572
 10
46.98999891166017
 20
65.13710935871571
 10
46.98999891166017
 20
65.22177796322743
 10
47.07466213321017
 20
65.30644118477745
 10
47.15933073772188
 20
65.39110978928916
 10
47.15933073772188
 20
65.47577839380086
 10
47.2439939592719
 20
65.56044161535088
 10
47.2439939592719
 20
65.6451102198626
 10
47.32866256378361
 20
65.6451102198626
 10
47.32866256378361
 20
65.72977882437431
 10
47.41333116829532
 20
65.81444204592433
 10
47.49799438984534
 20
65.89911065043603
 10
47.58266299435705
 20
65.89911065043603
 10
47.66733159886875
 20
65.98377925494775
 10
47.75199482041877
 20
65.98377925494775
 10
47.83666342493048
 20
65.98377925494775
 10
47.9213320294422
 20
65.98377925494775
 10
48.00599525099221
 20
65.89911065043603
 97
        0
 75
     0
 76
     1
 98
        1
 10
0.0
 20
0.0
450
        0
451
        0
460
0.0
461
0.0
452
        0
462
0.0
453
        0
470

  0
LWPOLYLINE
  5
C8
330
70
100
AcDbEntity
  8
Capa 1
100
AcDbPolyline
 90
       93
 70
     0
 43
0.0
 10
48.09066385550392
 20
66.15311108100947
 10
48.09066385550392
 20
66.15311108100947
 10
48.00599525099221
 20
66.15311108100947
 10
48.00599525099221
 20
66.23777968552118
 10
47.9213320294422
 20
66.23777968552118
 10
47.83666342493048
 20
66.23777968552118
 10
47.75199482041877
 20
66.23777968552118
 10
47.66733159886875
 20
66.23777968552118
 10
47.58266299435705
 20
66.23777968552118
 10
47.49799438984534
 20
66.23777968552118
 10
48.00599525099221
 20
65.89911065043603
 10
48.09066385550392
 20
65.89911065043603
 10
48.09066385550392
 20
65.81444204592433
 10
48.17532707705393
 20
65.81444204592433
 10
48.17532707705393
 20
65.72977882437431
 10
48.17532707705393
 20
65.6451102198626
 10
48.17532707705393
 20
65.56044161535088
 10
48.17532707705393
 20
65.47577839380086
 10
48.17532707705393
 20
65.39110978928916
 10
48.17532707705393
 20
65.30644118477745
 10
48.17532707705393
 20
65.22177796322743
 10
48.09066385550392
 20
65.22177796322743
 10
48.09066385550392
 20
65.13710935871571
 10
48.00599525099221
 20
65.05244613716572
 10
48.00599525099221
 20
64.967777532654
 10
47.9213320294422
 20
64.88310892814229
 10
47.9213320294422
 20
64.79844570659228
 10
47.83666342493048
 20
64.71377710208057
 10
47.83666342493048
 20
64.62910849756885
 10
47.75199482041877
 20
64.54444527601883
 10
47.75199482041877
 20
64.45977667150713
 10
47.66733159886875
 20
64.45977667150713
 10
47.66733159886875
 20
64.37510806699542
 10
47.58266299435705
 20
64.2904448454454
 10
47.49799438984534
 20
64.20577624093368
 10
47.41333116829532
 20
64.20577624093368
 10
47.41333116829532
 20
64.12111301938368
 10
47.32866256378361
 20
64.12111301938368
 10
47.2439939592719
 20
64.12111301938368
 10
47.15933073772188
 20
64.12111301938368
 10
47.07466213321017
 20
64.12111301938368
 10
46.98999891166017
 20
64.20577624093368
 10
46.48199805051329
 20
64.37510806699542
 10
46.56666127206331
 20
64.2904448454454
 10
46.56666127206331
 20
64.20577624093368
 10
46.65132987657502
 20
64.12111301938368
 10
46.65132987657502
 20
64.03644441487196
 10
46.73599848108672
 20
64.03644441487196
 10
46.82066170263674
 20
63.95177581036026
 10
46.90533030714845
 20
63.86711258881025
 10
46.98999891166017
 20
63.86711258881025
 10
47.07466213321017
 20
63.86711258881025
 10
47.15933073772188
 20
63.86711258881025
 10
47.2439939592719
 20
63.86711258881025
 10
47.32866256378361
 20
63.86711258881025
 10
47.41333116829532
 20
63.86711258881025
 10
47.49799438984534
 20
63.86711258881025
 10
47.49799438984534
 20
63.95177581036026
 10
47.58266299435705
 20
63.95177581036026
 10
47.66733159886875
 20
63.95177581036026
 10
47.66733159886875
 20
64.03644441487196
 10
47.75199482041877
 20
64.03644441487196
 10
47.75199482041877
 20
64.12111301938368
 10
47.83666342493048
 20
64.12111301938368
 10
47.83666342493048
 20
64.20577624093368
 10
47.9213320294422
 20
64.20577624093368
 10
47.9213320294422
 20
64.2904448454454
 10
48.00599525099221
 20
64.2904448454454
 10
48.00599525099221
 20
64.37510806699542
 10
48.09066385550392
 20
64.45977667150713
 10
48.17532707705393
 20
64.54444527601883
 10
48.17532707705393
 20
64.62910849756885
 10
48.17532707705393
 20
64.71377710208057
 10
48.25999568156564
 20
64.71377710208057
 10
48.25999568156564
 20
64.79844570659228
 10
48.34466428607735
 20
64.88310892814229
 10
48.34466428607735
 20
64.967777532654
 10
48.34466428607735
 20
65.05244613716572
 10
48.42932750762737
 20
65.05244613716572
 10
48.42932750762737
 20
65.13710935871571
 10
48.42932750762737
 20
65.22177796322743
 10
48.42932750762737
 20
65.30644118477745
 10
48.51399611213908
 20
65.39110978928916
 10
48.51399611213908
 20
65.47577839380086
 10
48.51399611213908
 20
65.56044161535088
 10
48.51399611213908
 20
65.6451102198626
 10
48.42932750762737
 20
65.72977882437431
 10
48.42932750762737
 20
65.81444204592433
 10
48.34466428607735
 20
65.89911065043603
 10
48.34466428607735
 20
65.98377925494775
 10
48.25999568156564
 20
65.98377925494775
 10
48.25999568156564
 20
66.06844247649776
 10
48.17532707705393
 20
66.06844247649776
  0
HATCH
  5
C9
330
70
100
AcDbEntity
  8
Capa 1
 62
    18
420
        0
440
 33554687
100
AcDbHatch
 10
0.0
 20
0.0
 30
0.0
210
0.0
220
0.0
230
1.0
  2
SOLID
 70
     1
 71
     1
 91
        1
 92
        3
 72
     0
 73
     1
 93
       93
 10
48.09066385550392
 20
66.15311108100947
 10
48.09066385550392
 20
66.15311108100947
 10
48.00599525099221
 20
66.15311108100947
 10
48.00599525099221
 20
66.23777968552118
 10
47.9213320294422
 20
66.23777968552118
 10
47.83666342493048
 20
66.23777968552118
 10
47.75199482041877
 20
66.23777968552118
 10
47.66733159886875
 20
66.23777968552118
 10
47.58266299435705
 20
66.23777968552118
 10
47.49799438984534
 20
66.23777968552118
 10
48.00599525099221
 20
65.89911065043603
 10
48.09066385550392
 20
65.89911065043603
 10
48.09066385550392
 20
65.81444204592433
 10
48.17532707705393
 20
65.81444204592433
 10
48.17532707705393
 20
65.72977882437431
 10
48.17532707705393
 20
65.6451102198626
 10
48.17532707705393
 20
65.56044161535088
 10
48.17532707705393
 20
65.47577839380086
 10
48.17532707705393
 20
65.39110978928916
 10
48.17532707705393
 20
65.30644118477745
 10
48.17532707705393
 20
65.22177796322743
 10
48.09066385550392
 20
65.22177796322743
 10
48.09066385550392
 20
65.13710935871571
 10
48.00599525099221
 20
65.05244613716572
 10
48.00599525099221
 20
64.967777532654
 10
47.9213320294422
 20
64.88310892814229
 10
47.9213320294422
 20
64.79844570659228
 10
47.83666342493048
 20
64.71377710208057
 10
47.83666342493048
 20
64.62910849756885
 10
47.75199482041877
 20
64.54444527601883
 10
47.75199482041877
 20
64.45977667150713
 10
47.66733159886875
 20
64.45977667150713
 10
47.66733159886875
 20
64.37510806699542
 10
47.58266299435705
 20
64.2904448454454
 10
47.49799438984534
 20
64.20577624093368
 10
47.41333116829532
 20
64.20577624093368
 10
47.41333116829532
 20
64.12111301938368
 10
47.32866256378361
 20
64.12111301938368
 10
47.2439939592719
 20
64.12111301938368
 10
47.15933073772188
 20
64.12111301938368
 10
47.07466213321017
 20
64.12111301938368
 10
46.98999891166017
 20
64.20577624093368
 10
46.48199805051329
 20
64.37510806699542
 10
46.56666127206331
 20
64.2904448454454
 10
46.56666127206331
 20
64.20577624093368
 10
46.65132987657502
 20
64.12111301938368
 10
46.65132987657502
 20
64.03644441487196
 10
46.73599848108672
 20
64.03644441487196
 10
46.82066170263674
 20
63.95177581036026
 10
46.90533030714845
 20
63.86711258881025
 10
46.98999891166017
 20
63.86711258881025
 10
47.07466213321017
 20
63.86711258881025
 10
47.15933073772188
 20
63.86711258881025
 10
47.2439939592719
 20
63.86711258881025
 10
47.32866256378361
 20
63.86711258881025
 10
47.41333116829532
 20
63.86711258881025
 10
47.49799438984534
 20
63.86711258881025
 10
47.49799438984534
 20
63.95177581036026
 10
47.58266299435705
 20
63.95177581036026
 10
47.66733159886875
 20
63.95177581036026
 10
47.66733159886875
 20
64.03644441487196
 10
47.75199482041877
 20
64.03644441487196
 10
47.75199482041877
 20
64.12111301938368
 10
47.83666342493048
 20
64.12111301938368
 10
47.83666342493048
 20
64.20577624093368
 10
47.9213320294422
 20
64.20577624093368
 10
47.9213320294422
 20
64.2904448454454
 10
48.00599525099221
 20
64.2904448454454
 10
48.00599525099221
 20
64.37510806699542
 10
48.09066385550392
 20
64.45977667150713
 10
48.17532707705393
 20
64.54444527601883
 10
48.17532707705393
 20
64.62910849756885
 10
48.17532707705393
 20
64.71377710208057
 10
48.25999568156564
 20
64.71377710208057
 10
48.25999568156564
 20
64.79844570659228
 10
48.34466428607735
 20
64.88310892814229
 10
48.34466428607735
 20
64.967777532654
 10
48.34466428607735
 20
65.05244613716572
 10
48.42932750762737
 20
65.05244613716572
 10
48.42932750762737
 20
65.13710935871571
 10
48.42932750762737
 20
65.22177796322743
 10
48.42932750762737
 20
65.30644118477745
 10
48.51399611213908
 20
65.39110978928916
 10
48.51399611213908
 20
65.47577839380086
 10
48.51399611213908
 20
65.56044161535088
 10
48.51399611213908
 20
65.6451102198626
 10
48.42932750762737
 20
65.72977882437431
 10
48.42932750762737
 20
65.81444204592433
 10
48.34466428607735
 20
65.89911065043603
 10
48.34466428607735
 20
65.98377925494775
 10
48.25999568156564
 20
65.98377925494775
 10
48.25999568156564
 20
66.06844247649776
 10
48.17532707705393
 20
66.06844247649776
 97
        0
 75
     0
 76
     1
 98
        1
 10
0.0
 20
0.0
450
        0
451
        0
460
0.0
461
0.0
452
        0
462
0.0
453
        0
470

  0
SPLINE
  5
CA
330
70
100
AcDbEntity
  8
Capa 1
 62
    18
420
        0
370
     9
100
AcDbSpline
210
0.0
220
0.0
230
1.0
 70
    24
 71
     3
 72
     8
 73
     4
 74
     0
 42
0.0000000001
 43
0.0000000001
 40
0.0
 40
0.0
 40
0.0
 40
0.0
 40
1.0
 40
1.0
 40
1.0
 40
1.0
 10
41.14799708291368
 20
84.61044161058838
 30
0.0
 10
41.14799708291368
 20
84.61044161058838
 30
0.0
 10
23.62199697963595
 20
74.45044591949773
 30
0.0
 10
23.62199697963595
 20
74.45044591949773
 30
0.0
  0
SPLINE
  5
CB
330
70
100
AcDbEntity
  8
Capa 1
 62
    18
420
        0
370
     9
100
AcDbSpline
210
0.0
220
0.0
230
1.0
 70
    24
 71
     3
 72
     8
 73
     4
 74
     0
 42
0.0000000001
 43
0.0000000001
 40
0.0
 40
0.0
 40
0.0
 40
0.0
 40
1.0
 40
1.0
 40
1.0
 40
1.0
 10
41.14799708291368
 20
142.5227712486846
 30
0.0
 10
41.14799708291368
 20
142.5227712486846
 30
0.0
 10
23.62199697963595
 20
132.447438779144
 30
0.0
 10
23.62199697963595
 20
132.447438779144
 30
0.0
  0
SPLINE
  5
CC
330
70
100
AcDbEntity
  8
Capa 1
 62
    18
420
        0
370
     9
100
AcDbSpline
210
0.0
220
0.0
230
1.0
 70
    24
 71
     3
 72
     8
 73
     4
 74
     0
 42
0.0000000001
 43
0.0000000001
 40
0.0
 40
0.0
 40
0.0
 40
0.0
 40
1.0
 40
1.0
 40
1.0
 40
1.0
 10
25.14599687159572
 20
78.85311107783447
 30
0.0
 10
25.14599687159572
 20
78.85311107783447
 30
0.0
 10
25.14599687159572
 20
129.8227712518596
 30
0.0
 10
25.14599687159572
 20
129.8227712518596
 30
0.0
  0
LWPOLYLINE
  5
CD
330
70
100
AcDbEntity
  8
Capa 1
100
AcDbPolyline
 90
        3
 70
     0
 43
0.0
 10
24.55333009741798
 20
78.85311107783447
 10
25.73866364577345
 20
78.85311107783447
 10
25.14599687159572
 20
75.38177903727977
  0
HATCH
  5
CE
330
70
100
AcDbEntity
  8
Capa 1
 62
    18
420
        0
440
 33554687
100
AcDbHatch
 10
0.0
 20
0.0
 30
0.0
210
0.0
220
0.0
230
1.0
  2
SOLID
 70
     1
 71
     1
 91
        1
 92
        3
 72
     0
 73
     1
 93
        3
 10
24.55333009741798
 20
78.85311107783447
 10
25.73866364577345
 20
78.85311107783447
 10
25.14599687159572
 20
75.38177903727977
 97
        0
 75
     0
 76
     1
 98
        1
 10
0.0
 20
0.0
450
        0
451
        0
460
0.0
461
0.0
452
        0
462
0.0
453
        0
470

  0
LWPOLYLINE
  5
CF
330
70
100
AcDbEntity
  8
Capa 1
100
AcDbPolyline
 90
        3
 70
     0
 43
0.0
 10
24.55333009741798
 20
129.8227712518596
 10
25.73866364577345
 20
129.8227712518596
 10
25.14599687159572
 20
133.2941140583377
  0
HATCH
  5
D0
330
70
100
AcDbEntity
  8
Capa 1
 62
    18
420
        0
440
 33554687
100
AcDbHatch
 10
0.0
 20
0.0
 30
0.0
210
0.0
220
0.0
230
1.0
  2
SOLID
 70
     1
 71
     1
 91
        1
 92
        3
 72
     0
 73
     1
 93
        3
 10
24.55333009741798
 20
129.8227712518596
 10
25.73866364577345
 20
129.8227712518596
 10
25.14599687159572
 20
133.2941140583377
 97
        0
 75
     0
 76
     1
 98
        1
 10
0.0
 20
0.0
450
        0
451
        0
460
0.0
461
0.0
452
        0
462
0.0
453
        0
470

  0
LWPOLYLINE
  5
D1
330
70
100
AcDbEntity
  8
Capa 1
100
AcDbPolyline
 90
       30
 70
     0
 43
0.0
 10
23.45266515357423
 20
102.9834426622424
 10
23.45266515357423
 20
102.7294422316689
 10
23.62199697963595
 20
102.7294422316689
 10
23.70666558414766
 20
102.7294422316689
 10
23.79133149717853
 20
102.814105453219
 10
23.87599741020939
 20
102.8987794406924
 10
23.9606660147211
 20
102.8987794406924
 10
23.9606660147211
 20
102.9834426622424
 10
24.04533192775196
 20
102.9834426622424
 10
24.04533192775196
 20
103.0681058837924
 10
24.12999784078282
 20
103.1527798712658
 10
24.12999784078282
 20
103.2374430928158
 10
24.12999784078282
 20
103.3221063143659
 10
24.12999784078282
 20
103.4067803018392
 10
24.21466375381369
 20
103.4914435233893
 10
24.12999784078282
 20
103.5761067449393
 10
24.12999784078282
 20
103.6607807324127
 10
24.12999784078282
 20
103.7454439539627
 10
24.12999784078282
 20
103.8301071755127
 10
24.04533192775196
 20
103.9147811629861
 10
24.04533192775196
 20
103.9994443845361
 10
23.9606660147211
 20
104.0841076060861
 10
23.9606660147211
 20
103.4914435233893
 10
23.87599741020939
 20
103.4067803018392
 10
23.87599741020939
 20
103.3221063143659
 10
23.87599741020939
 20
103.2374430928158
 10
23.79133149717853
 20
103.1527798712658
 10
23.70666558414766
 20
103.1527798712658
 10
23.62199697963595
 20
103.0681058837924
 10
23.53733106660509
 20
103.0681058837924
  0
HATCH
  5
D2
330
70
100
AcDbEntity
  8
Capa 1
 62
    18
420
        0
440
 33554687
100
AcDbHatch
 10
0.0
 20
0.0
 30
0.0
210
0.0
220
0.0
230
1.0
  2
SOLID
 70
     1
 71
     1
 91
        1
 92
        3
 72
     0
 73
     1
 93
       30
 10
23.45266515357423
 20
102.9834426622424
 10
23.45266515357423
 20
102.7294422316689
 10
23.62199697963595
 20
102.7294422316689
 10
23.70666558414766
 20
102.7294422316689
 10
23.79133149717853
 20
102.814105453219
 10
23.87599741020939
 20
102.8987794406924
 10
23.9606660147211
 20
102.8987794406924
 10
23.9606660147211
 20
102.9834426622424
 10
24.04533192775196
 20
102.9834426622424
 10
24.04533192775196
 20
103.0681058837924
 10
24.12999784078282
 20
103.1527798712658
 10
24.12999784078282
 20
103.2374430928158
 10
24.12999784078282
 20
103.3221063143659
 10
24.12999784078282
 20
103.4067803018392
 10
24.21466375381369
 20
103.4914435233893
 10
24.12999784078282
 20
103.5761067449393
 10
24.12999784078282
 20
103.6607807324127
 10
24.12999784078282
 20
103.7454439539627
 10
24.12999784078282
 20
103.8301071755127
 10
24.04533192775196
 20
103.9147811629861
 10
24.04533192775196
 20
103.9994443845361
 10
23.9606660147211
 20
104.0841076060861
 10
23.9606660147211
 20
103.4914435233893
 10
23.87599741020939
 20
103.4067803018392
 10
23.87599741020939
 20
103.3221063143659
 10
23.87599741020939
 20
103.2374430928158
 10
23.79133149717853
 20
103.1527798712658
 10
23.70666558414766
 20
103.1527798712658
 10
23.62199697963595
 20
103.0681058837924
 10
23.53733106660509
 20
103.0681058837924
 97
        0
 75
     0
 76
     1
 98
        1
 10
0.0
 20
0.0
450
        0
451
        0
460
0.0
461
0.0
452
        0
462
0.0
453
        0
470

  0
LWPOLYLINE
  5
D3
330
70
100
AcDbEntity
  8
Capa 1
100
AcDbPolyline
 90
       39
 70
     0
 43
0.0
 10
22.69066386185392
 20
104.1687708276362
 10
22.77533246636563
 20
103.4914435233893
 10
22.77533246636563
 20
103.7454439539627
 10
22.8599983793965
 20
103.7454439539627
 10
22.8599983793965
 20
103.8301071755127
 10
22.94466429242735
 20
103.9147811629861
 10
23.02933020545822
 20
103.9994443845361
 10
23.11399880996993
 20
103.9994443845361
 10
23.19866472300079
 20
103.9994443845361
 10
23.28333063603166
 20
103.9994443845361
 10
23.36799924054336
 20
103.9994443845361
 10
23.45266515357423
 20
103.9994443845361
 10
23.53733106660509
 20
103.9994443845361
 10
23.62199697963595
 20
103.9994443845361
 10
23.62199697963595
 20
103.9147811629861
 10
23.70666558414766
 20
103.9147811629861
 10
23.79133149717853
 20
103.9147811629861
 10
23.79133149717853
 20
103.8301071755127
 10
23.87599741020939
 20
103.7454439539627
 10
23.87599741020939
 20
103.6607807324127
 10
23.87599741020939
 20
103.5761067449393
 10
23.9606660147211
 20
103.4914435233893
 10
23.9606660147211
 20
104.0841076060861
 10
23.87599741020939
 20
104.1687708276362
 10
23.79133149717853
 20
104.1687708276362
 10
23.70666558414766
 20
104.2534448151096
 10
23.62199697963595
 20
104.2534448151096
 10
23.53733106660509
 20
104.3381080366596
 10
23.45266515357423
 20
104.3381080366596
 10
23.36799924054336
 20
104.3381080366596
 10
23.28333063603166
 20
104.3381080366596
 10
23.19866472300079
 20
104.3381080366596
 10
23.11399880996993
 20
104.3381080366596
 10
23.02933020545822
 20
104.3381080366596
 10
22.94466429242735
 20
104.3381080366596
 10
22.94466429242735
 20
104.2534448151096
 10
22.8599983793965
 20
104.2534448151096
 10
22.77533246636563
 20
104.2534448151096
 10
22.77533246636563
 20
104.1687708276362
  0
HATCH
  5
D4
330
70
100
AcDbEntity
  8
Capa 1
 62
    18
420
        0
440
 33554687
100
AcDbHatch
 10
0.0
 20
0.0
 30
0.0
210
0.0
220
0.0
230
1.0
  2
SOLID
 70
     1
 71
     1
 91
        1
 92
        3
 72
     0
 73
     1
 93
       39
 10
22.69066386185392
 20
104.1687708276362
 10
22.77533246636563
 20
103.4914435233893
 10
22.77533246636563
 20
103.7454439539627
 10
22.8599983793965
 20
103.7454439539627
 10
22.8599983793965
 20
103.8301071755127
 10
22.94466429242735
 20
103.9147811629861
 10
23.02933020545822
 20
103.9994443845361
 10
23.11399880996993
 20
103.9994443845361
 10
23.19866472300079
 20
103.9994443845361
 10
23.28333063603166
 20
103.9994443845361
 10
23.36799924054336
 20
103.9994443845361
 10
23.45266515357423
 20
103.9994443845361
 10
23.53733106660509
 20
103.9994443845361
 10
23.62199697963595
 20
103.9994443845361
 10
23.62199697963595
 20
103.9147811629861
 10
23.70666558414766
 20
103.9147811629861
 10
23.79133149717853
 20
103.9147811629861
 10
23.79133149717853
 20
103.8301071755127
 10
23.87599741020939
 20
103.7454439539627
 10
23.87599741020939
 20
103.6607807324127
 10
23.87599741020939
 20
103.5761067449393
 10
23.9606660147211
 20
103.4914435233893
 10
23.9606660147211
 20
104.0841076060861
 10
23.87599741020939
 20
104.1687708276362
 10
23.79133149717853
 20
104.1687708276362
 10
23.70666558414766
 20
104.2534448151096
 10
23.62199697963595
 20
104.2534448151096
 10
23.53733106660509
 20
104.3381080366596
 10
23.45266515357423
 20
104.3381080366596
 10
23.36799924054336
 20
104.3381080366596
 10
23.28333063603166
 20
104.3381080366596
 10
23.19866472300079
 20
104.3381080366596
 10
23.11399880996993
 20
104.3381080366596
 10
23.02933020545822
 20
104.3381080366596
 10
22.94466429242735
 20
104.3381080366596
 10
22.94466429242735
 20
104.2534448151096
 10
22.8599983793965
 20
104.2534448151096
 10
22.77533246636563
 20
104.2534448151096
 10
22.77533246636563
 20
104.1687708276362
 97
        0
 75
     0
 76
     1
 98
        1
 10
0.0
 20
0.0
450
        0
451
        0
460
0.0
461
0.0
452
        0
462
0.0
453
        0
470

  0
LWPOLYLINE
  5
D5
330
70
100
AcDbEntity
  8
Capa 1
100
AcDbPolyline
 90
       12
 70
     0
 43
0.0
 10
22.52133203579219
 20
103.5761067449393
 10
22.52133203579219
 20
103.5761067449393
 10
22.52133203579219
 20
103.3221063143659
 10
22.60599794882306
 20
103.2374430928158
 10
22.60599794882306
 20
103.1527798712658
 10
22.60599794882306
 20
103.0681058837924
 10
22.69066386185392
 20
104.0841076060861
 10
22.60599794882306
 20
103.9994443845361
 10
22.52133203579219
 20
103.9147811629861
 10
22.52133203579219
 20
103.8301071755127
 10
22.52133203579219
 20
103.7454439539627
 10
22.52133203579219
 20
103.6607807324127
  0
HATCH
  5
D6
330
70
100
AcDbEntity
  8
Capa 1
 62
    18
420
        0
440
 33554687
100
AcDbHatch
 10
0.0
 20
0.0
 30
0.0
210
0.0
220
0.0
230
1.0
  2
SOLID
 70
     1
 71
     1
 91
        1
 92
        3
 72
     0
 73
     1
 93
       12
 10
22.52133203579219
 20
103.5761067449393
 10
22.52133203579219
 20
103.5761067449393
 10
22.52133203579219
 20
103.3221063143659
 10
22.60599794882306
 20
103.2374430928158
 10
22.60599794882306
 20
103.1527798712658
 10
22.60599794882306
 20
103.0681058837924
 10
22.69066386185392
 20
104.0841076060861
 10
22.60599794882306
 20
103.9994443845361
 10
22.52133203579219
 20
103.9147811629861
 10
22.52133203579219
 20
103.8301071755127
 10
22.52133203579219
 20
103.7454439539627
 10
22.52133203579219
 20
103.6607807324127
 97
        0
 75
     0
 76
     1
 98
        1
 10
0.0
 20
0.0
450
        0
451
        0
460
0.0
461
0.0
452
        0
462
0.0
453
        0
470

  0
LWPOLYLINE
  5
D7
330
70
100
AcDbEntity
  8
Capa 1
100
AcDbPolyline
 90
       16
 70
     0
 43
0.0
 10
21.67466617678145
 20
104.2534448151096
 10
21.67466617678145
 20
102.9834426622424
 10
22.94466429242735
 20
102.7294422316689
 10
23.02933020545822
 20
103.0681058837924
 10
22.94466429242735
 20
103.0681058837924
 10
22.8599983793965
 20
103.1527798712658
 10
22.8599983793965
 20
103.2374430928158
 10
22.77533246636563
 20
103.2374430928158
 10
22.77533246636563
 20
103.3221063143659
 10
22.77533246636563
 20
103.4067803018392
 10
22.77533246636563
 20
103.4914435233893
 10
22.69066386185392
 20
104.1687708276362
 10
22.69066386185392
 20
104.0841076060861
 10
22.60599794882306
 20
103.0681058837924
 10
21.92866526161446
 20
103.2374430928158
 10
21.92866526161446
 20
104.2534448151096
  0
HATCH
  5
D8
330
70
100
AcDbEntity
  8
Capa 1
 62
    18
420
        0
440
 33554687
100
AcDbHatch
 10
0.0
 20
0.0
 30
0.0
210
0.0
220
0.0
230
1.0
  2
SOLID
 70
     1
 71
     1
 91
        1
 92
        3
 72
     0
 73
     1
 93
       16
 10
21.67466617678145
 20
104.2534448151096
 10
21.67466617678145
 20
102.9834426622424
 10
22.94466429242735
 20
102.7294422316689
 10
23.02933020545822
 20
103.0681058837924
 10
22.94466429242735
 20
103.0681058837924
 10
22.8599983793965
 20
103.1527798712658
 10
22.8599983793965
 20
103.2374430928158
 10
22.77533246636563
 20
103.2374430928158
 10
22.77533246636563
 20
103.3221063143659
 10
22.77533246636563
 20
103.4067803018392
 10
22.77533246636563
 20
103.4914435233893
 10
22.69066386185392
 20
104.1687708276362
 10
22.69066386185392
 20
104.0841076060861
 10
22.60599794882306
 20
103.0681058837924
 10
21.92866526161446
 20
103.2374430928158
 10
21.92866526161446
 20
104.2534448151096
 97
        0
 75
     0
 76
     1
 98
        1
 10
0.0
 20
0.0
450
        0
451
        0
460
0.0
461
0.0
452
        0
462
0.0
453
        0
470

  0
LWPOLYLINE
  5
D9
330
70
100
AcDbEntity
  8
Capa 1
100
AcDbPolyline
 90
       51
 70
     0
 43
0.0
 10
22.94466429242735
 20
106.0314478291236
 10
22.94466429242735
 20
105.4387729805033
 10
22.94466429242735
 20
105.6927734110768
 10
23.02933020545822
 20
105.7774473985502
 10
23.02933020545822
 20
105.8621106201002
 10
23.11399880996993
 20
105.8621106201002
 10
23.19866472300079
 20
105.9467738416502
 10
23.28333063603166
 20
105.9467738416502
 10
23.36799924054336
 20
105.9467738416502
 10
23.45266515357423
 20
105.9467738416502
 10
23.53733106660509
 20
105.9467738416502
 10
23.62199697963595
 20
105.9467738416502
 10
23.70666558414766
 20
105.9467738416502
 10
23.70666558414766
 20
105.8621106201002
 10
23.79133149717853
 20
105.8621106201002
 10
23.79133149717853
 20
105.7774473985502
 10
23.87599741020939
 20
105.6927734110768
 10
23.87599741020939
 20
105.6081101895268
 10
23.87599741020939
 20
105.5234469679767
 10
23.9606660147211
 20
105.4387729805033
 10
23.9606660147211
 20
104.8461088978065
 10
23.9606660147211
 20
104.9307721193565
 10
24.04533192775196
 20
104.9307721193565
 10
24.04533192775196
 20
105.0154461068299
 10
24.04533192775196
 20
105.1001093283799
 10
24.12999784078282
 20
105.1001093283799
 10
24.12999784078282
 20
105.1847725499299
 10
24.12999784078282
 20
105.2694465374033
 10
24.12999784078282
 20
105.3541097589533
 10
24.21466375381369
 20
105.4387729805033
 10
24.12999784078282
 20
105.5234469679767
 10
24.12999784078282
 20
105.6081101895268
 10
24.12999784078282
 20
105.6927734110768
 10
24.12999784078282
 20
105.7774473985502
 10
24.12999784078282
 20
105.8621106201002
 10
24.04533192775196
 20
105.8621106201002
 10
24.04533192775196
 20
105.9467738416502
 10
23.9606660147211
 20
106.0314478291236
 10
23.87599741020939
 20
106.1161110506736
 10
23.79133149717853
 20
106.2007742722236
 10
23.70666558414766
 20
106.2007742722236
 10
23.62199697963595
 20
106.2854374937737
 10
23.53733106660509
 20
106.2854374937737
 10
23.45266515357423
 20
106.2854374937737
 10
23.36799924054336
 20
106.2854374937737
 10
23.28333063603166
 20
106.2854374937737
 10
23.19866472300079
 20
106.2854374937737
 10
23.11399880996993
 20
106.2007742722236
 10
23.02933020545822
 20
106.2007742722236
 10
23.02933020545822
 20
106.1161110506736
 10
22.94466429242735
 20
106.1161110506736
  0
HATCH
  5
DA
330
70
100
AcDbEntity
  8
Capa 1
 62
    18
420
        0
440
 33554687
100
AcDbHatch
 10
0.0
 20
0.0
 30
0.0
210
0.0
220
0.0
230
1.0
  2
SOLID
 70
     1
 71
     1
 91
        1
 92
        3
 72
     0
 73
     1
 93
       51
 10
22.94466429242735
 20
106.0314478291236
 10
22.94466429242735
 20
105.4387729805033
 10
22.94466429242735
 20
105.6927734110768
 10
23.02933020545822
 20
105.7774473985502
 10
23.02933020545822
 20
105.8621106201002
 10
23.11399880996993
 20
105.8621106201002
 10
23.19866472300079
 20
105.9467738416502
 10
23.28333063603166
 20
105.9467738416502
 10
23.36799924054336
 20
105.9467738416502
 10
23.45266515357423
 20
105.9467738416502
 10
23.53733106660509
 20
105.9467738416502
 10
23.62199697963595
 20
105.9467738416502
 10
23.70666558414766
 20
105.9467738416502
 10
23.70666558414766
 20
105.8621106201002
 10
23.79133149717853
 20
105.8621106201002
 10
23.79133149717853
 20
105.7774473985502
 10
23.87599741020939
 20
105.6927734110768
 10
23.87599741020939
 20
105.6081101895268
 10
23.87599741020939
 20
105.5234469679767
 10
23.9606660147211
 20
105.4387729805033
 10
23.9606660147211
 20
104.8461088978065
 10
23.9606660147211
 20
104.9307721193565
 10
24.04533192775196
 20
104.9307721193565
 10
24.04533192775196
 20
105.0154461068299
 10
24.04533192775196
 20
105.1001093283799
 10
24.12999784078282
 20
105.1001093283799
 10
24.12999784078282
 20
105.1847725499299
 10
24.12999784078282
 20
105.2694465374033
 10
24.12999784078282
 20
105.3541097589533
 10
24.21466375381369
 20
105.4387729805033
 10
24.12999784078282
 20
105.5234469679767
 10
24.12999784078282
 20
105.6081101895268
 10
24.12999784078282
 20
105.6927734110768
 10
24.12999784078282
 20
105.7774473985502
 10
24.12999784078282
 20
105.8621106201002
 10
24.04533192775196
 20
105.8621106201002
 10
24.04533192775196
 20
105.9467738416502
 10
23.9606660147211
 20
106.0314478291236
 10
23.87599741020939
 20
106.1161110506736
 10
23.79133149717853
 20
106.2007742722236
 10
23.70666558414766
 20
106.2007742722236
 10
23.62199697963595
 20
106.2854374937737
 10
23.53733106660509
 20
106.2854374937737
 10
23.45266515357423
 20
106.2854374937737
 10
23.36799924054336
 20
106.2854374937737
 10
23.28333063603166
 20
106.2854374937737
 10
23.19866472300079
 20
106.2854374937737
 10
23.11399880996993
 20
106.2007742722236
 10
23.02933020545822
 20
106.2007742722236
 10
23.02933020545822
 20
106.1161110506736
 10
22.94466429242735
 20
106.1161110506736
 97
        0
 75
     0
 76
     1
 98
        1
 10
0.0
 20
0.0
450
        0
451
        0
460
0.0
461
0.0
452
        0
462
0.0
453
        0
470

  0
LWPOLYLINE
  5
DB
330
70
100
AcDbEntity
  8
Capa 1
100
AcDbPolyline
 90
       26
 70
     0
 43
0.0
 10
21.8439993485836
 20
106.0314478291236
 10
21.8439993485836
 20
105.4387729805033
 10
21.92866526161446
 20
105.5234469679767
 10
21.92866526161446
 20
105.6927734110768
 10
22.01333252038574
 20
105.7774473985502
 10
22.09799843341661
 20
105.8621106201002
 10
22.1826656921879
 20
105.8621106201002
 10
22.26733160521876
 20
105.8621106201002
 10
22.35199886399005
 20
105.8621106201002
 10
22.43666612276133
 20
105.8621106201002
 10
22.52133203579219
 20
105.7774473985502
 10
22.60599794882306
 20
105.6927734110768
 10
22.60599794882306
 20
105.6081101895268
 10
22.69066386185392
 20
105.5234469679767
 10
22.69066386185392
 20
105.4387729805033
 10
22.69066386185392
 20
106.0314478291236
 10
22.60599794882306
 20
106.0314478291236
 10
22.60599794882306
 20
106.1161110506736
 10
22.52133203579219
 20
106.1161110506736
 10
22.43666612276133
 20
106.2007742722236
 10
22.35199886399005
 20
106.2007742722236
 10
22.26733160521876
 20
106.2007742722236
 10
22.1826656921879
 20
106.2007742722236
 10
22.09799843341661
 20
106.2007742722236
 10
22.01333252038574
 20
106.1161110506736
 10
21.92866526161446
 20
106.1161110506736
  0
HATCH
  5
DC
330
70
100
AcDbEntity
  8
Capa 1
 62
    18
420
        0
440
 33554687
100
AcDbHatch
 10
0.0
 20
0.0
 30
0.0
210
0.0
220
0.0
230
1.0
  2
SOLID
 70
     1
 71
     1
 91
        1
 92
        3
 72
     0
 73
     1
 93
       26
 10
21.8439993485836
 20
106.0314478291236
 10
21.8439993485836
 20
105.4387729805033
 10
21.92866526161446
 20
105.5234469679767
 10
21.92866526161446
 20
105.6927734110768
 10
22.01333252038574
 20
105.7774473985502
 10
22.09799843341661
 20
105.8621106201002
 10
22.1826656921879
 20
105.8621106201002
 10
22.26733160521876
 20
105.8621106201002
 10
22.35199886399005
 20
105.8621106201002
 10
22.43666612276133
 20
105.8621106201002
 10
22.52133203579219
 20
105.7774473985502
 10
22.60599794882306
 20
105.6927734110768
 10
22.60599794882306
 20
105.6081101895268
 10
22.69066386185392
 20
105.5234469679767
 10
22.69066386185392
 20
105.4387729805033
 10
22.69066386185392
 20
106.0314478291236
 10
22.60599794882306
 20
106.0314478291236
 10
22.60599794882306
 20
106.1161110506736
 10
22.52133203579219
 20
106.1161110506736
 10
22.43666612276133
 20
106.2007742722236
 10
22.35199886399005
 20
106.2007742722236
 10
22.26733160521876
 20
106.2007742722236
 10
22.1826656921879
 20
106.2007742722236
 10
22.09799843341661
 20
106.2007742722236
 10
22.01333252038574
 20
106.1161110506736
 10
21.92866526161446
 20
106.1161110506736
 97
        0
 75
     0
 76
     1
 98
        1
 10
0.0
 20
0.0
450
        0
451
        0
460
0.0
461
0.0
452
        0
462
0.0
453
        0
470

  0
LWPOLYLINE
  5
DD
330
70
100
AcDbEntity
  8
Capa 1
100
AcDbPolyline
 90
       91
 70
     0
 43
0.0
 10
21.67466617678145
 20
105.4387729805033
 10
21.67466617678145
 20
105.4387729805033
 10
21.67466617678145
 20
105.1001093283799
 10
21.75933208981231
 20
105.0154461068299
 10
21.8439993485836
 20
104.9307721193565
 10
21.92866526161446
 20
104.8461088978065
 10
22.01333252038574
 20
104.7614456762564
 10
22.09799843341661
 20
104.7614456762564
 10
22.1826656921879
 20
104.7614456762564
 10
22.26733160521876
 20
104.7614456762564
 10
22.35199886399005
 20
104.7614456762564
 10
22.43666612276133
 20
104.7614456762564
 10
22.52133203579219
 20
104.8461088978065
 10
22.60599794882306
 20
104.8461088978065
 10
22.69066386185392
 20
104.9307721193565
 10
22.69066386185392
 20
105.0154461068299
 10
22.77533246636563
 20
105.0154461068299
 10
22.77533246636563
 20
105.1001093283799
 10
22.77533246636563
 20
105.0154461068299
 10
22.8599983793965
 20
105.0154461068299
 10
22.8599983793965
 20
104.9307721193565
 10
22.94466429242735
 20
104.8461088978065
 10
23.02933020545822
 20
104.7614456762564
 10
23.11399880996993
 20
104.7614456762564
 10
23.11399880996993
 20
104.676771688783
 10
23.19866472300079
 20
104.676771688783
 10
23.28333063603166
 20
104.676771688783
 10
23.36799924054336
 20
104.676771688783
 10
23.45266515357423
 20
104.676771688783
 10
23.53733106660509
 20
104.676771688783
 10
23.62199697963595
 20
104.676771688783
 10
23.70666558414766
 20
104.676771688783
 10
23.79133149717853
 20
104.7614456762564
 10
23.87599741020939
 20
104.7614456762564
 10
23.87599741020939
 20
104.8461088978065
 10
23.9606660147211
 20
104.8461088978065
 10
23.9606660147211
 20
105.4387729805033
 10
23.87599741020939
 20
105.4387729805033
 10
23.87599741020939
 20
105.3541097589533
 10
23.87599741020939
 20
105.2694465374033
 10
23.87599741020939
 20
105.1847725499299
 10
23.79133149717853
 20
105.1847725499299
 10
23.79133149717853
 20
105.1001093283799
 10
23.70666558414766
 20
105.1001093283799
 10
23.70666558414766
 20
105.0154461068299
 10
23.62199697963595
 20
105.0154461068299
 10
23.53733106660509
 20
105.0154461068299
 10
23.45266515357423
 20
104.9307721193565
 10
23.36799924054336
 20
104.9307721193565
 10
23.28333063603166
 20
105.0154461068299
 10
23.19866472300079
 20
105.0154461068299
 10
23.11399880996993
 20
105.1001093283799
 10
23.02933020545822
 20
105.1001093283799
 10
23.02933020545822
 20
105.1847725499299
 10
22.94466429242735
 20
105.1847725499299
 10
22.94466429242735
 20
105.2694465374033
 10
22.94466429242735
 20
105.3541097589533
 10
22.94466429242735
 20
105.4387729805033
 10
22.94466429242735
 20
106.0314478291236
 10
22.8599983793965
 20
106.0314478291236
 10
22.8599983793965
 20
105.9467738416502
 10
22.77533246636563
 20
105.8621106201002
 10
22.77533246636563
 20
105.7774473985502
 10
22.77533246636563
 20
105.8621106201002
 10
22.69066386185392
 20
105.9467738416502
 10
22.69066386185392
 20
106.0314478291236
 10
22.69066386185392
 20
105.4387729805033
 10
22.69066386185392
 20
105.3541097589533
 10
22.60599794882306
 20
105.2694465374033
 10
22.60599794882306
 20
105.1847725499299
 10
22.52133203579219
 20
105.1847725499299
 10
22.52133203579219
 20
105.1001093283799
 10
22.43666612276133
 20
105.1001093283799
 10
22.35199886399005
 20
105.1001093283799
 10
22.26733160521876
 20
105.1001093283799
 10
22.1826656921879
 20
105.1001093283799
 10
22.09799843341661
 20
105.1001093283799
 10
22.01333252038574
 20
105.1001093283799
 10
22.01333252038574
 20
105.1847725499299
 10
21.92866526161446
 20
105.1847725499299
 10
21.92866526161446
 20
105.2694465374033
 10
21.92866526161446
 20
105.3541097589533
 10
21.8439993485836
 20
105.4387729805033
 10
21.8439993485836
 20
106.0314478291236
 10
21.8439993485836
 20
105.9467738416502
 10
21.75933208981231
 20
105.9467738416502
 10
21.75933208981231
 20
105.8621106201002
 10
21.67466617678145
 20
105.7774473985502
 10
21.67466617678145
 20
105.6927734110768
 10
21.67466617678145
 20
105.6081101895268
 10
21.67466617678145
 20
105.5234469679767
  0
HATCH
  5
DE
330
70
100
AcDbEntity
  8
Capa 1
 62
    18
420
        0
440
 33554687
100
AcDbHatch
 10
0.0
 20
0.0
 30
0.0
210
0.0
220
0.0
230
1.0
  2
SOLID
 70
     1
 71
     1
 91
        1
 92
        3
 72
     0
 73
     1
 93
       91
 10
21.67466617678145
 20
105.4387729805033
 10
21.67466617678145
 20
105.4387729805033
 10
21.67466617678145
 20
105.1001093283799
 10
21.75933208981231
 20
105.0154461068299
 10
21.8439993485836
 20
104.9307721193565
 10
21.92866526161446
 20
104.8461088978065
 10
22.01333252038574
 20
104.7614456762564
 10
22.09799843341661
 20
104.7614456762564
 10
22.1826656921879
 20
104.7614456762564
 10
22.26733160521876
 20
104.7614456762564
 10
22.35199886399005
 20
104.7614456762564
 10
22.43666612276133
 20
104.7614456762564
 10
22.52133203579219
 20
104.8461088978065
 10
22.60599794882306
 20
104.8461088978065
 10
22.69066386185392
 20
104.9307721193565
 10
22.69066386185392
 20
105.0154461068299
 10
22.77533246636563
 20
105.0154461068299
 10
22.77533246636563
 20
105.1001093283799
 10
22.77533246636563
 20
105.0154461068299
 10
22.8599983793965
 20
105.0154461068299
 10
22.8599983793965
 20
104.9307721193565
 10
22.94466429242735
 20
104.8461088978065
 10
23.02933020545822
 20
104.7614456762564
 10
23.11399880996993
 20
104.7614456762564
 10
23.11399880996993
 20
104.676771688783
 10
23.19866472300079
 20
104.676771688783
 10
23.28333063603166
 20
104.676771688783
 10
23.36799924054336
 20
104.676771688783
 10
23.45266515357423
 20
104.676771688783
 10
23.53733106660509
 20
104.676771688783
 10
23.62199697963595
 20
104.676771688783
 10
23.70666558414766
 20
104.676771688783
 10
23.79133149717853
 20
104.7614456762564
 10
23.87599741020939
 20
104.7614456762564
 10
23.87599741020939
 20
104.8461088978065
 10
23.9606660147211
 20
104.8461088978065
 10
23.9606660147211
 20
105.4387729805033
 10
23.87599741020939
 20
105.4387729805033
 10
23.87599741020939
 20
105.3541097589533
 10
23.87599741020939
 20
105.2694465374033
 10
23.87599741020939
 20
105.1847725499299
 10
23.79133149717853
 20
105.1847725499299
 10
23.79133149717853
 20
105.1001093283799
 10
23.70666558414766
 20
105.1001093283799
 10
23.70666558414766
 20
105.0154461068299
 10
23.62199697963595
 20
105.0154461068299
 10
23.53733106660509
 20
105.0154461068299
 10
23.45266515357423
 20
104.9307721193565
 10
23.36799924054336
 20
104.9307721193565
 10
23.28333063603166
 20
105.0154461068299
 10
23.19866472300079
 20
105.0154461068299
 10
23.11399880996993
 20
105.1001093283799
 10
23.02933020545822
 20
105.1001093283799
 10
23.02933020545822
 20
105.1847725499299
 10
22.94466429242735
 20
105.1847725499299
 10
22.94466429242735
 20
105.2694465374033
 10
22.94466429242735
 20
105.3541097589533
 10
22.94466429242735
 20
105.4387729805033
 10
22.94466429242735
 20
106.0314478291236
 10
22.8599983793965
 20
106.0314478291236
 10
22.8599983793965
 20
105.9467738416502
 10
22.77533246636563
 20
105.8621106201002
 10
22.77533246636563
 20
105.7774473985502
 10
22.77533246636563
 20
105.8621106201002
 10
22.69066386185392
 20
105.9467738416502
 10
22.69066386185392
 20
106.0314478291236
 10
22.69066386185392
 20
105.4387729805033
 10
22.69066386185392
 20
105.3541097589533
 10
22.60599794882306
 20
105.2694465374033
 10
22.60599794882306
 20
105.1847725499299
 10
22.52133203579219
 20
105.1847725499299
 10
22.52133203579219
 20
105.1001093283799
 10
22.43666612276133
 20
105.1001093283799
 10
22.35199886399005
 20
105.1001093283799
 10
22.26733160521876
 20
105.1001093283799
 10
22.1826656921879
 20
105.1001093283799
 10
22.09799843341661
 20
105.1001093283799
 10
22.01333252038574
 20
105.1001093283799
 10
22.01333252038574
 20
105.1847725499299
 10
21.92866526161446
 20
105.1847725499299
 10
21.92866526161446
 20
105.2694465374033
 10
21.92866526161446
 20
105.3541097589533
 10
21.8439993485836
 20
105.4387729805033
 10
21.8439993485836
 20
106.0314478291236
 10
21.8439993485836
 20
105.9467738416502
 10
21.75933208981231
 20
105.9467738416502
 10
21.75933208981231
 20
105.8621106201002
 10
21.67466617678145
 20
105.7774473985502
 10
21.67466617678145
 20
105.6927734110768
 10
21.67466617678145
 20
105.6081101895268
 10
21.67466617678145
 20
105.5234469679767
 97
        0
 75
     0
 76
     1
 98
        1
 10
0.0
 20
0.0
450
        0
451
        0
460
0.0
461
0.0
452
        0
462
0.0
453
        0
470

  0
LWPOLYLINE
  5
DF
330
70
100
AcDbEntity
  8
Capa 1
100
AcDbPolyline
 90
       58
 70
     0
 43
0.0
 10
21.8439993485836
 20
106.8781123423939
 10
21.92866526161446
 20
106.7934383549205
 10
22.01333252038574
 20
106.7934383549205
 10
22.09799843341661
 20
106.7087751333705
 10
22.1826656921879
 20
106.7087751333705
 10
22.26733160521876
 20
106.7087751333705
 10
22.35199886399005
 20
106.6241119118205
 10
22.43666612276133
 20
106.6241119118205
 10
22.52133203579219
 20
106.6241119118205
 10
22.60599794882306
 20
106.6241119118205
 10
22.69066386185392
 20
106.6241119118205
 10
22.77533246636563
 20
106.6241119118205
 10
22.8599983793965
 20
106.6241119118205
 10
22.94466429242735
 20
106.6241119118205
 10
23.02933020545822
 20
106.6241119118205
 10
23.11399880996993
 20
106.6241119118205
 10
23.19866472300079
 20
106.6241119118205
 10
23.28333063603166
 20
106.6241119118205
 10
23.36799924054336
 20
106.6241119118205
 10
23.45266515357423
 20
106.6241119118205
 10
23.53733106660509
 20
106.7087751333705
 10
23.62199697963595
 20
106.7087751333705
 10
23.70666558414766
 20
106.7087751333705
 10
23.79133149717853
 20
106.7934383549205
 10
23.87599741020939
 20
106.7934383549205
 10
23.87599741020939
 20
106.8781123423939
 10
23.9606660147211
 20
106.8781123423939
 10
23.9606660147211
 20
107.3861132035408
 10
23.87599741020939
 20
107.3014392160674
 10
23.87599741020939
 20
107.2167759945174
 10
23.79133149717853
 20
107.1321127729674
 10
23.70666558414766
 20
107.047438785494
 10
23.62199697963595
 20
107.047438785494
 10
23.62199697963595
 20
106.962775563944
 10
23.53733106660509
 20
106.962775563944
 10
23.45266515357423
 20
106.962775563944
 10
23.36799924054336
 20
106.962775563944
 10
23.28333063603166
 20
106.962775563944
 10
23.19866472300079
 20
106.962775563944
 10
23.11399880996993
 20
106.8781123423939
 10
23.02933020545822
 20
106.8781123423939
 10
22.94466429242735
 20
106.8781123423939
 10
22.8599983793965
 20
106.8781123423939
 10
22.77533246636563
 20
106.8781123423939
 10
22.69066386185392
 20
106.8781123423939
 10
22.60599794882306
 20
106.962775563944
 10
22.52133203579219
 20
106.962775563944
 10
22.43666612276133
 20
106.962775563944
 10
22.35199886399005
 20
106.962775563944
 10
22.26733160521876
 20
106.962775563944
 10
22.1826656921879
 20
106.962775563944
 10
22.1826656921879
 20
107.047438785494
 10
22.09799843341661
 20
107.047438785494
 10
22.01333252038574
 20
107.1321127729674
 10
21.92866526161446
 20
107.1321127729674
 10
21.92866526161446
 20
107.2167759945174
 10
21.92866526161446
 20
107.3014392160674
 10
21.92866526161446
 20
107.3861132035408
  0
HATCH
  5
E0
330
70
100
AcDbEntity
  8
Capa 1
 62
    18
420
        0
440
 33554687
100
AcDbHatch
 10
0.0
 20
0.0
 30
0.0
210
0.0
220
0.0
230
1.0
  2
SOLID
 70
     1
 71
     1
 91
        1
 92
        3
 72
     0
 73
     1
 93
       58
 10
21.8439993485836
 20
106.8781123423939
 10
21.92866526161446
 20
106.7934383549205
 10
22.01333252038574
 20
106.7934383549205
 10
22.09799843341661
 20
106.7087751333705
 10
22.1826656921879
 20
106.7087751333705
 10
22.26733160521876
 20
106.7087751333705
 10
22.35199886399005
 20
106.6241119118205
 10
22.43666612276133
 20
106.6241119118205
 10
22.52133203579219
 20
106.6241119118205
 10
22.60599794882306
 20
106.6241119118205
 10
22.69066386185392
 20
106.6241119118205
 10
22.77533246636563
 20
106.6241119118205
 10
22.8599983793965
 20
106.6241119118205
 10
22.94466429242735
 20
106.6241119118205
 10
23.02933020545822
 20
106.6241119118205
 10
23.11399880996993
 20
106.6241119118205
 10
23.19866472300079
 20
106.6241119118205
 10
23.28333063603166
 20
106.6241119118205
 10
23.36799924054336
 20
106.6241119118205
 10
23.45266515357423
 20
106.6241119118205
 10
23.53733106660509
 20
106.7087751333705
 10
23.62199697963595
 20
106.7087751333705
 10
23.70666558414766
 20
106.7087751333705
 10
23.79133149717853
 20
106.7934383549205
 10
23.87599741020939
 20
106.7934383549205
 10
23.87599741020939
 20
106.8781123423939
 10
23.9606660147211
 20
106.8781123423939
 10
23.9606660147211
 20
107.3861132035408
 10
23.87599741020939
 20
107.3014392160674
 10
23.87599741020939
 20
107.2167759945174
 10
23.79133149717853
 20
107.1321127729674
 10
23.70666558414766
 20
107.047438785494
 10
23.62199697963595
 20
107.047438785494
 10
23.62199697963595
 20
106.962775563944
 10
23.53733106660509
 20
106.962775563944
 10
23.45266515357423
 20
106.962775563944
 10
23.36799924054336
 20
106.962775563944
 10
23.28333063603166
 20
106.962775563944
 10
23.19866472300079
 20
106.962775563944
 10
23.11399880996993
 20
106.8781123423939
 10
23.02933020545822
 20
106.8781123423939
 10
22.94466429242735
 20
106.8781123423939
 10
22.8599983793965
 20
106.8781123423939
 10
22.77533246636563
 20
106.8781123423939
 10
22.69066386185392
 20
106.8781123423939
 10
22.60599794882306
 20
106.962775563944
 10
22.52133203579219
 20
106.962775563944
 10
22.43666612276133
 20
106.962775563944
 10
22.35199886399005
 20
106.962775563944
 10
22.26733160521876
 20
106.962775563944
 10
22.1826656921879
 20
106.962775563944
 10
22.1826656921879
 20
107.047438785494
 10
22.09799843341661
 20
107.047438785494
 10
22.01333252038574
 20
107.1321127729674
 10
21.92866526161446
 20
107.1321127729674
 10
21.92866526161446
 20
107.2167759945174
 10
21.92866526161446
 20
107.3014392160674
 10
21.92866526161446
 20
107.3861132035408
 97
        0
 75
     0
 76
     1
 98
        1
 10
0.0
 20
0.0
450
        0
451
        0
460
0.0
461
0.0
452
        0
462
0.0
453
        0
470

  0
LWPOLYLINE
  5
E1
330
70
100
AcDbEntity
  8
Capa 1
100
AcDbPolyline
 90
       86
 70
     0
 43
0.0
 10
21.67466617678145
 20
107.3861132035408
 10
21.67466617678145
 20
107.3861132035408
 10
21.67466617678145
 20
107.047438785494
 10
21.75933208981231
 20
107.047438785494
 10
21.75933208981231
 20
106.962775563944
 10
21.8439993485836
 20
106.8781123423939
 10
21.92866526161446
 20
107.3861132035408
 10
21.92866526161446
 20
107.4707764250908
 10
21.92866526161446
 20
107.5554396466408
 10
21.92866526161446
 20
107.6401136341143
 10
22.01333252038574
 20
107.6401136341143
 10
22.01333252038574
 20
107.7247768556643
 10
22.09799843341661
 20
107.7247768556643
 10
22.09799843341661
 20
107.8094400772143
 10
22.1826656921879
 20
107.8094400772143
 10
22.26733160521876
 20
107.8094400772143
 10
22.35199886399005
 20
107.8941140646877
 10
22.43666612276133
 20
107.8941140646877
 10
22.52133203579219
 20
107.8941140646877
 10
22.60599794882306
 20
107.8941140646877
 10
22.69066386185392
 20
107.8941140646877
 10
22.77533246636563
 20
107.8941140646877
 10
22.94466429242735
 20
107.8941140646877
 10
23.02933020545822
 20
107.8941140646877
 10
23.11399880996993
 20
107.8941140646877
 10
23.19866472300079
 20
107.8941140646877
 10
23.28333063603166
 20
107.8941140646877
 10
23.36799924054336
 20
107.8941140646877
 10
23.45266515357423
 20
107.8941140646877
 10
23.53733106660509
 20
107.8094400772143
 10
23.62199697963595
 20
107.8094400772143
 10
23.70666558414766
 20
107.8094400772143
 10
23.70666558414766
 20
107.7247768556643
 10
23.79133149717853
 20
107.7247768556643
 10
23.87599741020939
 20
107.6401136341143
 10
23.87599741020939
 20
107.5554396466408
 10
23.87599741020939
 20
107.4707764250908
 10
23.9606660147211
 20
107.3861132035408
 10
23.9606660147211
 20
106.8781123423939
 10
24.04533192775196
 20
106.962775563944
 10
24.04533192775196
 20
107.047438785494
 10
24.12999784078282
 20
107.047438785494
 10
24.12999784078282
 20
107.1321127729674
 10
24.12999784078282
 20
107.2167759945174
 10
24.12999784078282
 20
107.3014392160674
 10
24.21466375381369
 20
107.3861132035408
 10
24.12999784078282
 20
107.3861132035408
 10
24.12999784078282
 20
107.4707764250908
 10
24.12999784078282
 20
107.5554396466408
 10
24.12999784078282
 20
107.6401136341143
 10
24.12999784078282
 20
107.7247768556643
 10
24.04533192775196
 20
107.8094400772143
 10
24.04533192775196
 20
107.8941140646877
 10
23.9606660147211
 20
107.8941140646877
 10
23.9606660147211
 20
107.9787772862377
 10
23.87599741020939
 20
107.9787772862377
 10
23.79133149717853
 20
108.0634405077877
 10
23.70666558414766
 20
108.0634405077877
 10
23.62199697963595
 20
108.1481144952611
 10
23.53733106660509
 20
108.1481144952611
 10
23.45266515357423
 20
108.1481144952611
 10
23.36799924054336
 20
108.1481144952611
 10
23.28333063603166
 20
108.2327777168111
 10
23.19866472300079
 20
108.2327777168111
 10
23.11399880996993
 20
108.2327777168111
 10
23.02933020545822
 20
108.2327777168111
 10
22.94466429242735
 20
108.2327777168111
 10
22.8599983793965
 20
108.2327777168111
 10
22.77533246636563
 20
108.2327777168111
 10
22.69066386185392
 20
108.2327777168111
 10
22.60599794882306
 20
108.2327777168111
 10
22.52133203579219
 20
108.2327777168111
 10
22.43666612276133
 20
108.1481144952611
 10
22.35199886399005
 20
108.1481144952611
 10
22.26733160521876
 20
108.1481144952611
 10
22.1826656921879
 20
108.1481144952611
 10
22.09799843341661
 20
108.0634405077877
 10
22.01333252038574
 20
108.0634405077877
 10
21.92866526161446
 20
107.9787772862377
 10
21.8439993485836
 20
107.8941140646877
 10
21.75933208981231
 20
107.8941140646877
 10
21.75933208981231
 20
107.8094400772143
 10
21.67466617678145
 20
107.7247768556643
 10
21.67466617678145
 20
107.6401136341143
 10
21.67466617678145
 20
107.5554396466408
 10
21.67466617678145
 20
107.4707764250908
  0
HATCH
  5
E2
330
70
100
AcDbEntity
  8
Capa 1
 62
    18
420
        0
440
 33554687
100
AcDbHatch
 10
0.0
 20
0.0
 30
0.0
210
0.0
220
0.0
230
1.0
  2
SOLID
 70
     1
 71
     1
 91
        1
 92
        3
 72
     0
 73
     1
 93
       86
 10
21.67466617678145
 20
107.3861132035408
 10
21.67466617678145
 20
107.3861132035408
 10
21.67466617678145
 20
107.047438785494
 10
21.75933208981231
 20
107.047438785494
 10
21.75933208981231
 20
106.962775563944
 10
21.8439993485836
 20
106.8781123423939
 10
21.92866526161446
 20
107.3861132035408
 10
21.92866526161446
 20
107.4707764250908
 10
21.92866526161446
 20
107.5554396466408
 10
21.92866526161446
 20
107.6401136341143
 10
22.01333252038574
 20
107.6401136341143
 10
22.01333252038574
 20
107.7247768556643
 10
22.09799843341661
 20
107.7247768556643
 10
22.09799843341661
 20
107.8094400772143
 10
22.1826656921879
 20
107.8094400772143
 10
22.26733160521876
 20
107.8094400772143
 10
22.35199886399005
 20
107.8941140646877
 10
22.43666612276133
 20
107.8941140646877
 10
22.52133203579219
 20
107.8941140646877
 10
22.60599794882306
 20
107.8941140646877
 10
22.69066386185392
 20
107.8941140646877
 10
22.77533246636563
 20
107.8941140646877
 10
22.94466429242735
 20
107.8941140646877
 10
23.02933020545822
 20
107.8941140646877
 10
23.11399880996993
 20
107.8941140646877
 10
23.19866472300079
 20
107.8941140646877
 10
23.28333063603166
 20
107.8941140646877
 10
23.36799924054336
 20
107.8941140646877
 10
23.45266515357423
 20
107.8941140646877
 10
23.53733106660509
 20
107.8094400772143
 10
23.62199697963595
 20
107.8094400772143
 10
23.70666558414766
 20
107.8094400772143
 10
23.70666558414766
 20
107.7247768556643
 10
23.79133149717853
 20
107.7247768556643
 10
23.87599741020939
 20
107.6401136341143
 10
23.87599741020939
 20
107.5554396466408
 10
23.87599741020939
 20
107.4707764250908
 10
23.9606660147211
 20
107.3861132035408
 10
23.9606660147211
 20
106.8781123423939
 10
24.04533192775196
 20
106.962775563944
 10
24.04533192775196
 20
107.047438785494
 10
24.12999784078282
 20
107.047438785494
 10
24.12999784078282
 20
107.1321127729674
 10
24.12999784078282
 20
107.2167759945174
 10
24.12999784078282
 20
107.3014392160674
 10
24.21466375381369
 20
107.3861132035408
 10
24.12999784078282
 20
107.3861132035408
 10
24.12999784078282
 20
107.4707764250908
 10
24.12999784078282
 20
107.5554396466408
 10
24.12999784078282
 20
107.6401136341143
 10
24.12999784078282
 20
107.7247768556643
 10
24.04533192775196
 20
107.8094400772143
 10
24.04533192775196
 20
107.8941140646877
 10
23.9606660147211
 20
107.8941140646877
 10
23.9606660147211
 20
107.9787772862377
 10
23.87599741020939
 20
107.9787772862377
 10
23.79133149717853
 20
108.0634405077877
 10
23.70666558414766
 20
108.0634405077877
 10
23.62199697963595
 20
108.1481144952611
 10
23.53733106660509
 20
108.1481144952611
 10
23.45266515357423
 20
108.1481144952611
 10
23.36799924054336
 20
108.1481144952611
 10
23.28333063603166
 20
108.2327777168111
 10
23.19866472300079
 20
108.2327777168111
 10
23.11399880996993
 20
108.2327777168111
 10
23.02933020545822
 20
108.2327777168111
 10
22.94466429242735
 20
108.2327777168111
 10
22.8599983793965
 20
108.2327777168111
 10
22.77533246636563
 20
108.2327777168111
 10
22.69066386185392
 20
108.2327777168111
 10
22.60599794882306
 20
108.2327777168111
 10
22.52133203579219
 20
108.2327777168111
 10
22.43666612276133
 20
108.1481144952611
 10
22.35199886399005
 20
108.1481144952611
 10
22.26733160521876
 20
108.1481144952611
 10
22.1826656921879
 20
108.1481144952611
 10
22.09799843341661
 20
108.0634405077877
 10
22.01333252038574
 20
108.0634405077877
 10
21.92866526161446
 20
107.9787772862377
 10
21.8439993485836
 20
107.8941140646877
 10
21.75933208981231
 20
107.8941140646877
 10
21.75933208981231
 20
107.8094400772143
 10
21.67466617678145
 20
107.7247768556643
 10
21.67466617678145
 20
107.6401136341143
 10
21.67466617678145
 20
107.5554396466408
 10
21.67466617678145
 20
107.4707764250908
 97
        0
 75
     0
 76
     1
 98
        1
 10
0.0
 20
0.0
450
        0
451
        0
460
0.0
461
0.0
452
        0
462
0.0
453
        0
470

  0
LWPOLYLINE
  5
E3
330
70
100
AcDbEntity
  8
Capa 1
 62
    18
420
        0
370
     9
100
AcDbPolyline
 90
        4
 70
     0
 43
0.0
 10
41.14799708291368
 20
142.5227712486846
 10
41.14799708291368
 20
140.9987794311674
 10
80.09466427813986
 20
118.4774473953752
 10
183.5573143394188
 20
178.1674516868221
  0
LWPOLYLINE
  5
E4
330
70
100
AcDbEntity
  8
Capa 1
 62
    18
420
        0
370
     9
100
AcDbPolyline
 90
        3
 70
     0
 43
0.0
 10
41.14799708291368
 20
142.5227712486846
 10
80.09466427813986
 20
120.0861132003658
 10
183.5573143394188
 20
179.7761174918127
  0
SPLINE
  5
E5
330
70
100
AcDbEntity
  8
Capa 1
 62
    18
420
        0
370
     9
100
AcDbSpline
210
0.0
220
0.0
230
1.0
 70
    24
 71
     3
 72
     8
 73
     4
 74
     0
 42
0.0000000001
 43
0.0000000001
 40
0.0
 40
0.0
 40
0.0
 40
0.0
 40
1.0
 40
1.0
 40
1.0
 40
1.0
 10
41.14799708291368
 20
142.5227712486846
 30
0.0
 10
41.14799708291368
 20
142.5227712486846
 30
0.0
 10
61.72199697011095
 20
154.4607699537893
 30
0.0
 10
61.72199697011095
 20
154.4607699537893
 30
0.0
  0
SPLINE
  5
E6
330
70
100
AcDbEntity
  8
Capa 1
 62
    18
420
        0
370
     9
100
AcDbSpline
210
0.0
220
0.0
230
1.0
 70
    24
 71
     3
 72
     8
 73
     4
 74
     0
 42
0.0000000001
 43
0.0000000001
 40
0.0
 40
0.0
 40
0.0
 40
0.0
 40
1.0
 40
1.0
 40
1.0
 40
1.0
 10
91.94799437873284
 20
171.9867781315096
 30
0.0
 10
91.94799437873284
 20
171.9867781315096
 30
0.0
 10
113.7073251228047
 20
184.5174409193112
 30
0.0
 10
113.7073251228047
 20
184.5174409193112
 30
0.0
  0
LWPOLYLINE
  5
E7
330
70
100
AcDbEntity
  8
Capa 1
 62
    18
420
        0
370
     9
100
AcDbPolyline
 90
        3
 70
     0
 43
0.0
 10
183.5573143394188
 20
178.1674516868221
 10
183.5573143394188
 20
179.7761174918127
 10
158.0726618901422
 20
194.5081101673018
  0
SPLINE
  5
E8
330
70
100
AcDbEntity
  8
Capa 1
 62
    18
420
        0
370
     9
100
AcDbSpline
210
0.0
220
0.0
230
1.0
 70
    24
 71
     3
 72
     8
 73
     4
 74
     0
 42
0.0000000001
 43
0.0000000001
 40
0.0
 40
0.0
 40
0.0
 40
0.0
 40
1.0
 40
1.0
 40
1.0
 40
1.0
 10
41.14799708291368
 20
140.9987794311674
 30
0.0
 10
41.14799708291368
 20
140.9987794311674
 30
0.0
 10
41.14799708291368
 20
84.61044161058838
 30
0.0
 10
41.14799708291368
 20
84.61044161058838
 30
0.0
  0
SPLINE
  5
E9
330
70
100
AcDbEntity
  8
Capa 1
 62
    18
420
        0
370
     9
100
AcDbSpline
210
0.0
220
0.0
230
1.0
 70
    24
 71
     3
 72
     8
 73
     4
 74
     0
 42
0.0000000001
 43
0.0000000001
 40
0.0
 40
0.0
 40
0.0
 40
0.0
 40
1.0
 40
1.0
 40
1.0
 40
1.0
 10
40.80933073930938
 20
84.78011794619865
 30
0.0
 10
40.80933073930938
 20
84.78011794619865
 30
0.0
 10
78.82466212527268
 20
62.85111086651649
 30
0.0
 10
78.82466212527268
 20
62.85111086651649
 30
0.0
  0
SPLINE
  5
EA
330
70
100
AcDbEntity
  8
Capa 1
 62
    18
420
        0
370
     9
100
AcDbSpline
210
0.0
220
0.0
230
1.0
 70
    24
 71
     3
 72
     8
 73
     4
 74
     0
 42
0.0000000001
 43
0.0000000001
 40
0.0
 40
0.0
 40
0.0
 40
0.0
 40
1.0
 40
1.0
 40
1.0
 40
1.0
 10
80.09466427813986
 20
118.4774473953752
 30
0.0
 10
80.09466427813986
 20
118.4774473953752
 30
0.0
 10
80.09466427813986
 20
120.0861132003658
 30
0.0
 10
80.09466427813986
 20
120.0861132003658
 30
0.0
  0
SPLINE
  5
EB
330
70
100
AcDbEntity
  8
Capa 1
 62
    18
420
        0
370
     9
100
AcDbSpline
210
0.0
220
0.0
230
1.0
 70
    24
 71
     3
 72
     8
 73
     4
 74
     0
 42
0.0000000001
 43
0.0000000001
 40
0.0
 40
0.0
 40
0.0
 40
0.0
 40
1.0
 40
1.0
 40
1.0
 40
1.0
 10
80.09466427813986
 20
62.08910957479619
 30
0.0
 10
80.09466427813986
 20
62.08910957479619
 30
0.0
 10
183.9806519790157
 20
122.0334426574799
 30
0.0
 10
183.9806519790157
 20
122.0334426574799
 30
0.0
  0
LWPOLYLINE
  5
EC
330
70
100
AcDbEntity
  8
Capa 1
 62
    18
420
        0
370
     9
100
AcDbPolyline
 90
      236
 70
     0
 43
0.0
 10
108.0346631945625
 20
159.4561045777846
 10
108.0346631945625
 20
158.1861131908408
 10
107.9499892070891
 20
156.9161110379736
 10
107.8653259855391
 20
155.1381080239596
 10
107.780662763989
 20
153.1061045793721
 10
107.6959887765156
 20
151.074111900708
 10
107.6113255549656
 20
149.2961088866939
 10
107.6113255549656
 20
148.0261067338268
 10
107.6113255549656
 20
147.6874430817033
 10
107.6113255549656
 20
147.6027798601533
 10
107.5266623334156
 20
147.3487794295799
 10
107.5266623334156
 20
146.9254417899831
 10
107.4419883459422
 20
146.5021041503862
 10
107.3573251243922
 20
145.9094400676893
 10
107.1879879153688
 20
145.4014392065424
 10
107.0186614722687
 20
144.8087751238455
 10
106.7646610416953
 20
144.3007742626987
 10
106.5106606111219
 20
143.7081101800018
 10
106.1719969589984
 20
143.2001093188549
 10
105.8333225409516
 20
142.692108457708
 10
105.4099956672781
 20
142.1841075965611
 10
104.9866580276813
 20
141.6761067354143
 10
104.5633203880844
 20
141.1681058742674
 10
104.0553302928609
 20
140.744779000594
 10
103.5473294317141
 20
140.2367781394471
 10
102.9546545830938
 20
139.8134404998502
 10
102.3619905003969
 20
139.3901136261767
 10
101.7693264177
 20
138.9667759865799
 10
101.1766623350031
 20
138.543438346983
 10
100.7533246954063
 20
138.374111903883
 10
100.4146610432828
 20
138.1201114733096
 10
99.73732297311256
 20
137.7814370552627
 10
98.97532168139225
 20
137.4427734031393
 10
98.29799437714534
 20
137.1041097510159
 10
97.45132986387503
 20
136.7654460988924
 10
95.92732728043442
 20
136.1727712502721
 10
95.08066276716409
 20
135.9187708196987
 10
94.23398748797037
 20
135.6647703891252
 10
93.38732297470006
 20
135.4954439460252
 10
92.45599523987971
 20
135.2414435154518
 10
91.60933072660938
 20
135.0721063064283
 10
90.67799222586566
 20
134.9874430848783
 10
89.74666449104532
 20
134.8181058758549
 10
88.8153259903016
 20
134.7334426543049
 10
87.88399287251957
 20
134.6487794327549
 10
86.02132663695551
 20
134.4794422237315
 10
85.08999351917347
 20
134.4794422237315
 10
83.22732728360939
 20
134.5641054452815
 10
82.29599416582736
 20
134.5641054452815
 10
81.36466104804533
 20
134.6487794327549
 10
80.4333279302633
 20
134.7334426543049
 10
79.50199481248127
 20
134.8181058758549
 10
78.65533029921095
 20
134.9874430848783
 10
77.72399718142892
 20
135.1567802939018
 10
75.94599416741487
 20
135.5801071675752
 10
74.25265975791254
 20
136.0034448071721
 10
72.64399395292191
 20
136.596108889869
 10
71.88199804416329
 20
136.8501093204424
 10
71.11999675244298
 20
137.1887729725659
 10
70.35799546072268
 20
137.5274366246893
 10
69.59599416900236
 20
137.8661110427362
 10
68.91866148179378
 20
138.2894379164096
 10
68.24132879458517
 20
138.6281123344565
 10
67.64866471188828
 20
139.0514392081299
 10
67.05599524622972
 20
139.4747768477268
 10
66.46333116353282
 20
139.8981037214003
 10
65.87066169787424
 20
140.4061045825471
 10
65.36266083672737
 20
140.829442222144
 10
64.93932858009221
 20
141.3374430832908
 10
64.51599632345704
 20
141.8454439444377
 10
63.66933181018673
 20
142.8614456667314
 10
63.33066277510158
 20
143.3694465278783
 10
62.82266191395471
 20
144.3854374842487
 10
62.56866148338128
 20
144.978112332869
 10
62.39932965731955
 20
145.4861131940158
 10
62.22999783125782
 20
146.0787772767127
 10
62.14532922674611
 20
146.5867781378596
 10
62.0606606222344
 20
146.9254417899831
 10
62.0606606222344
 20
147.3487794295799
 10
61.97599740068439
 20
147.6027798601533
 10
61.97599740068439
 20
147.6874430817033
 10
61.97599740068439
 20
148.0261067338268
 10
61.97599740068439
 20
149.2961088866939
 10
61.89132879617268
 20
151.074111900708
 10
61.80666019166096
 20
153.1061045793721
 10
61.72199697011095
 20
155.1381080239596
 10
61.63732836559924
 20
156.9161110379736
 10
61.55266514404923
 20
158.1861131908408
 10
61.55266514404923
 20
158.5247768429643
 10
61.55266514404923
 20
158.6941032860643
 10
61.55266514404923
 20
159.540778565258
 10
61.63732836559924
 20
159.9641054389315
 10
61.72199697011095
 20
160.5567695216284
 10
61.80666019166096
 20
161.1494443702486
 10
61.97599740068439
 20
161.6574452313955
 10
62.14532922674611
 20
162.2501093140924
 10
62.39932965731955
 20
162.7581101752393
 10
62.99199374001643
 20
163.858775119083
 10
63.41533137961329
 20
164.3667759802299
 10
63.75399503173674
 20
164.8747768413768
 10
64.1773272883719
 20
165.3827777025236
 10
64.68532814951878
 20
165.8907785636705
 10
65.10866040615393
 20
166.314105437344
 10
65.70132987181252
 20
166.8221062984908
 10
66.20933073295939
 20
167.2454439380877
 10
66.80199481565627
 20
167.6687708117612
 10
67.47932750286487
 20
168.092108451358
 10
68.07199696852345
 20
168.5154460909549
 10
68.4106606206469
 20
168.7694465215283
 10
68.57999782967032
 20
168.8541097430783
 10
69.25733051687892
 20
169.1927733952018
 10
70.01932642563753
 20
169.5314370473252
 10
71.54332900907815
 20
170.2087751174955
 10
72.30533030079846
 20
170.547438769619
 10
73.15199481406877
 20
170.8014392001924
 10
73.91399610578908
 20
171.0554396307658
 10
74.76066061905941
 20
171.3094400613393
 10
75.69199373684144
 20
171.5634404919127
 10
76.53866363307345
 20
171.7327777009361
 10
77.46999675085548
 20
171.9867781315096
 10
78.31666126412581
 20
172.1561045746096
 10
79.24799438190785
 20
172.240778562083
 10
80.17932749968988
 20
172.4101050051831
 10
81.11066061747191
 20
172.4947789926565
 10
82.04199373525394
 20
172.5794422142065
 10
82.97332685303597
 20
172.5794422142065
 10
83.904659970818
 20
172.6641054357565
 10
86.7833279286758
 20
172.5794422142065
 10
87.71466104645783
 20
172.5794422142065
 10
88.64599416423986
 20
172.4947789926565
 10
89.57732728202191
 20
172.325441783633
 10
90.50865501684224
 20
172.240778562083
 10
91.43999351758598
 20
172.0714413530596
 10
92.37132125240631
 20
171.9021041440362
 10
93.21799653160002
 20
171.7327777009361
 10
94.06466104487034
 20
171.4787772703627
 10
94.99598877969068
 20
171.3094400613393
 10
95.8426640588844
 20
171.0554396307658
 10
96.60465458468131
 20
170.8014392001924
 10
97.45132986387503
 20
170.462775548069
 10
98.21332038967193
 20
170.1241118959455
 10
98.97532168139225
 20
169.8701114653721
 10
99.73732297311256
 20
169.4467738257752
 10
100.4146610432828
 20
169.1081101736518
 10
101.1766623350031
 20
168.7694465215283
 10
101.7693264177
 20
168.3461088819315
 10
102.4466537219469
 20
167.9227712423346
 10
103.0393285705672
 20
167.4994443686611
 10
103.6319926532641
 20
167.0761067290643
 10
104.6479943755578
 20
166.144778994244
 10
105.1559952367047
 20
165.6367781330971
 10
105.5793221103781
 20
165.1287772719502
 10
106.002659749975
 20
164.6207764108033
 10
106.3413234020984
 20
164.1127755496565
 10
106.6799870542219
 20
163.6047746885096
 10
107.0186614722687
 20
163.0967738273627
 10
107.2726619028422
 20
162.5041097446658
 10
107.5266623334156
 20
161.996108883519
 10
107.6959887765156
 20
161.4034448008221
 10
107.8653259855391
 20
160.8954439396752
 10
107.9499892070891
 20
160.3027798569783
 10
108.0346631945625
 20
159.7947789958315
 10
108.0346631945625
 20
159.4561045777846
 10
108.0346631945625
 20
159.7947789958315
 10
107.9499892070891
 20
160.3027798569783
 10
107.8653259855391
 20
160.8954439396752
 10
107.6959887765156
 20
161.4034448008221
 10
107.5266623334156
 20
161.996108883519
 10
107.2726619028422
 20
162.5041097446658
 10
107.0186614722687
 20
163.0967738273627
 10
106.6799870542219
 20
163.6047746885096
 10
106.3413234020984
 20
164.1127755496565
 10
106.002659749975
 20
164.6207764108033
 10
105.5793221103781
 20
165.1287772719502
 10
105.1559952367047
 20
165.6367781330971
 10
104.6479943755578
 20
166.144778994244
 10
104.1399935144109
 20
166.5681058679174
 10
103.6319926532641
 20
167.0761067290643
 10
103.0393285705672
 20
167.4994443686611
 10
102.4466537219469
 20
167.9227712423346
 10
101.7693264177
 20
168.3461088819315
 10
101.1766623350031
 20
168.7694465215283
 10
100.4146610432828
 20
169.1081101736518
 10
99.73732297311256
 20
169.4467738257752
 10
98.97532168139225
 20
169.8701114653721
 10
98.21332038967193
 20
170.1241118959455
 10
97.45132986387503
 20
170.462775548069
 10
96.60465458468131
 20
170.8014392001924
 10
95.8426640588844
 20
171.0554396307658
 10
94.99598877969068
 20
171.3094400613393
 10
94.06466104487034
 20
171.4787772703627
 10
93.21799653160002
 20
171.7327777009361
 10
92.37132125240631
 20
171.9021041440362
 10
91.43999351758598
 20
172.0714413530596
 10
89.57732728202191
 20
172.325441783633
 10
88.64599416423986
 20
172.4947789926565
 10
87.71466104645783
 20
172.5794422142065
 10
86.7833279286758
 20
172.5794422142065
 10
84.92066169311174
 20
172.6641054357565
 10
83.904659970818
 20
172.6641054357565
 10
82.97332685303597
 20
172.5794422142065
 10
82.04199373525394
 20
172.5794422142065
 10
81.11066061747191
 20
172.4947789926565
 10
80.17932749968988
 20
172.4101050051831
 10
79.24799438190785
 20
172.240778562083
 10
78.31666126412581
 20
172.1561045746096
 10
77.46999675085548
 20
171.9867781315096
 10
76.53866363307345
 20
171.7327777009361
 10
75.69199373684144
 20
171.5634404919127
 10
74.76066061905941
 20
171.3094400613393
 10
73.91399610578908
 20
171.0554396307658
 10
72.30533030079846
 20
170.547438769619
 10
71.54332900907815
 20
170.2087751174955
 10
70.78132771735784
 20
169.8701114653721
 10
69.25733051687892
 20
169.1927733952018
 10
68.57999782967032
 20
168.8541097430783
 10
68.4106606206469
 20
168.7694465215283
 10
68.07199696852345
 20
168.5154460909549
 10
67.47932750286487
 20
168.092108451358
 10
66.80199481565627
 20
167.6687708117612
 10
66.20933073295939
 20
167.2454439380877
 10
65.70132987181252
 20
166.8221062984908
 10
65.10866040615393
 20
166.314105437344
 10
64.68532814951878
 20
165.8907785636705
 10
64.1773272883719
 20
165.3827777025236
 10
63.75399503173674
 20
164.8747768413768
 10
63.41533137961329
 20
164.3667759802299
 10
62.99199374001643
 20
163.858775119083
 10
62.73799330944299
 20
163.2661110363861
 10
62.39932965731955
 20
162.7581101752393
 10
62.14532922674611
 20
162.2501093140924
 10
61.97599740068439
 20
161.6574452313955
 10
61.80666019166096
 20
161.1494443702486
 10
61.72199697011095
 20
160.5567695216284
 10
61.63732836559924
 20
160.0487794264049
 10
61.55266514404923
 20
159.540778565258
  0
LWPOLYLINE
  5
ED
330
70
100
AcDbEntity
  8
Capa 1
 62
    18
420
        0
370
     9
100
AcDbPolyline
 90
       10
 70
     0
 43
0.0
 10
61.55266514404923
 20
158.6941032860643
 10
61.55266514404923
 20
158.1861131908408
 10
61.63732836559924
 20
156.9161110379736
 10
61.72199697011095
 20
155.1381080239596
 10
61.80666019166096
 20
153.1061045793721
 10
61.89132879617268
 20
151.074111900708
 10
61.97599740068439
 20
149.2961088866939
 10
61.97599740068439
 20
148.0261067338268
 10
61.97599740068439
 20
147.6874430817033
 10
61.97599740068439
 20
147.6027798601533
  0
LWPOLYLINE
  5
EE
330
70
100
AcDbEntity
  8
Capa 1
 62
    18
420
        0
370
     9
100
AcDbPolyline
 90
        9
 70
     0
 43
0.0
 10
107.6113255549656
 20
147.6027798601533
 10
107.6113255549656
 20
149.2961088866939
 10
107.6959887765156
 20
151.074111900708
 10
107.780662763989
 20
153.1061045793721
 10
107.8653259855391
 20
155.1381080239596
 10
107.9499892070891
 20
156.9161110379736
 10
108.0346631945625
 20
158.1861131908408
 10
108.0346631945625
 20
158.5247768429643
 10
108.0346631945625
 20
158.6941032860643
  0
LWPOLYLINE
  5
EF
330
70
100
AcDbEntity
  8
Capa 1
 62
    18
420
        0
370
     9
100
AcDbPolyline
 90
       62
 70
     0
 43
0.0
 10
106.2566601805484
 20
155.8154460941299
 10
106.087322971525
 20
155.476771676083
 10
105.8333225409516
 20
155.0534448024096
 10
105.4946588888281
 20
154.5454439412627
 10
105.1559952367047
 20
154.0374430801158
 10
104.8173208186579
 20
153.529442218969
 10
104.3939939449844
 20
153.1061045793721
 10
103.8859930838375
 20
152.6827777056986
 10
103.4626554442407
 20
152.1747768445518
 10
102.8699913615438
 20
151.7514392049549
 10
101.7693264177
 20
150.9047746916846
 10
101.1766623350031
 20
150.5661110395612
 10
100.5839874863828
 20
150.1427733999643
 10
99.90666018213596
 20
149.8041097478408
 10
99.22932211196567
 20
149.4654460957174
 10
98.46732082024537
 20
149.1267716776706
 10
97.70533029444846
 20
148.7881080255471
 10
96.94332900272815
 20
148.5341075949737
 10
96.18132771100784
 20
148.1954439428502
 10
94.57266190601721
 20
147.6874430817033
 10
93.72599739274688
 20
147.5181058726799
 10
92.87932211355316
 20
147.2641054421065
 10
92.03265760028285
 20
147.0947789990065
 10
91.10132986546252
 20
146.9254417899831
 10
90.25465996923051
 20
146.840778568433
 10
89.32332685144848
 20
146.6714413594096
 10
88.39199373366644
 20
146.5867781378596
 10
87.46066061588441
 20
146.5021041503862
 10
86.61399610261408
 20
146.4174409288362
 10
85.68266298483205
 20
146.4174409288362
 10
84.75132986705002
 20
146.4174409288362
 10
83.81999674926799
 20
146.4174409288362
 10
82.88866363148596
 20
146.5021041503862
 10
81.95733051370392
 20
146.5021041503862
 10
81.02599739592189
 20
146.5867781378596
 10
80.09466427813986
 20
146.6714413594096
 10
79.24799438190785
 20
146.840778568433
 10
78.31666126412581
 20
146.9254417899831
 10
77.46999675085548
 20
147.0947789990065
 10
76.62332685462347
 20
147.3487794295799
 10
75.77666234135314
 20
147.5181058726799
 10
74.92999782808282
 20
147.7721063032533
 10
74.0833279318508
 20
148.0261067338268
 10
73.23666341858049
 20
148.2801071644002
 10
72.47466212686018
 20
148.5341075949737
 10
71.71266083513987
 20
148.8727712470971
 10
71.03532814793128
 20
149.1267716776706
 10
70.27332685621097
 20
149.4654460957174
 10
69.59599416900236
 20
149.8887729693909
 10
68.91866148179378
 20
150.2274366215143
 10
68.32599739909689
 20
150.5661110395612
 10
67.7333279334383
 20
150.9894379132346
 10
67.14066385074142
 20
151.4127755528315
 10
66.63266298959455
 20
151.8361131924283
 10
66.12466212844768
 20
152.2594400661018
 10
65.61666126730081
 20
152.6827777056986
 10
65.19332901066565
 20
153.1907785668455
 10
64.34666449739532
 20
154.1221063016658
 10
64.00799546231017
 20
154.6301071628127
 10
63.75399503173674
 20
155.0534448024096
 10
63.49999460116331
 20
155.5614456635565
 10
63.24599417058987
 20
156.0694465247033
  0
LWPOLYLINE
  5
F0
330
70
100
AcDbEntity
  8
Capa 1
 62
    18
420
        0
370
     9
100
AcDbPolyline
 90
       73
 70
     0
 43
0.0
 10
62.0606606222344
 20
146.9254417899831
 10
62.14532922674611
 20
146.5867781378596
 10
62.22999783125782
 20
146.0787772767127
 10
62.39932965731955
 20
145.4861131940158
 10
62.56866148338128
 20
144.978112332869
 10
62.82266191395471
 20
144.3854374842487
 10
63.07666234452814
 20
143.8774366231018
 10
63.33066277510158
 20
143.3694465278783
 10
63.66933181018673
 20
142.8614456667314
 10
64.09266406682188
 20
142.3534448055846
 10
64.51599632345704
 20
141.8454439444377
 10
64.93932858009221
 20
141.3374430832908
 10
65.36266083672737
 20
140.829442222144
 10
65.95533030238596
 20
140.4061045825471
 10
66.46333116353282
 20
139.8981037214003
 10
67.64866471188828
 20
139.0514392081299
 10
68.24132879458517
 20
138.6281123344565
 10
68.91866148179378
 20
138.2894379164096
 10
69.59599416900236
 20
137.8661110427362
 10
70.35799546072268
 20
137.5274366246893
 10
71.11999675244298
 20
137.1887729725659
 10
71.88199804416329
 20
136.8501093204424
 10
72.64399395292191
 20
136.596108889869
 10
73.40599524464221
 20
136.2574452377455
 10
74.25265975791254
 20
136.0034448071721
 10
75.09932965414455
 20
135.7494443765986
 10
75.94599416741487
 20
135.5801071675752
 10
76.8773272851969
 20
135.3261067370018
 10
77.72399718142892
 20
135.1567802939018
 10
78.65533029921095
 20
134.9874430848783
 10
79.50199481248127
 20
134.8181058758549
 10
80.4333279302633
 20
134.7334426543049
 10
81.36466104804533
 20
134.6487794327549
 10
82.29599416582736
 20
134.5641054452815
 10
84.15866040139144
 20
134.4794422237315
 10
85.08999351917347
 20
134.4794422237315
 10
86.02132663695551
 20
134.4794422237315
 10
86.95265975473754
 20
134.5641054452815
 10
87.88399287251957
 20
134.6487794327549
 10
88.8153259903016
 20
134.7334426543049
 10
89.74666449104532
 20
134.8181058758549
 10
90.67799222586566
 20
134.9874430848783
 10
91.60933072660938
 20
135.0721063064283
 10
92.45599523987971
 20
135.2414435154518
 10
93.38732297470006
 20
135.4954439460252
 10
94.23398748797037
 20
135.6647703891252
 10
95.08066276716409
 20
135.9187708196987
 10
95.92732728043442
 20
136.1727712502721
 10
96.68932857215471
 20
136.4267716808456
 10
97.45132986387503
 20
136.7654460988924
 10
98.29799437714534
 20
137.1041097510159
 10
98.97532168139225
 20
137.4427734031393
 10
99.73732297311256
 20
137.7814370552627
 10
100.4146610432828
 20
138.1201114733096
 10
100.7533246954063
 20
138.374111903883
 10
101.0919883475297
 20
138.543438346983
 10
101.7693264177
 20
138.9667759865799
 10
102.3619905003969
 20
139.3901136261767
 10
102.9546545830938
 20
139.8134404998502
 10
103.5473294317141
 20
140.2367781394471
 10
104.0553302928609
 20
140.744779000594
 10
104.5633203880844
 20
141.1681058742674
 10
104.9866580276813
 20
141.6761067354143
 10
105.4099956672781
 20
142.1841075965611
 10
105.8333225409516
 20
142.692108457708
 10
106.1719969589984
 20
143.2001093188549
 10
106.4259973895719
 20
143.7081101800018
 10
106.7646610416953
 20
144.3007742626987
 10
107.0186614722687
 20
144.8087751238455
 10
107.1879879153688
 20
145.4014392065424
 10
107.3573251243922
 20
145.9094400676893
 10
107.4419883459422
 20
146.5021041503862
 10
107.5266623334156
 20
146.9254417899831
  0
LWPOLYLINE
  5
F1
330
70
100
AcDbEntity
  8
Capa 1
 62
    18
420
        0
370
     9
100
AcDbPolyline
 90
       34
 70
     0
 43
0.0
 10
89.4926640604719
 20
149.2114456651439
 10
89.40799545596018
 20
149.0421084561205
 10
89.32332685144848
 20
148.7881080255471
 10
89.23866362989846
 20
148.5341075949737
 10
89.06932642087502
 20
148.3647703859502
 10
88.8999945948133
 20
148.1954439428502
 10
88.64599416423986
 20
147.9414435122768
 10
88.39199373366644
 20
147.7721063032533
 10
88.22266190760471
 20
147.6874430817033
 10
88.05333008154297
 20
147.6027798601533
 10
87.71466104645783
 20
147.4334426511299
 10
87.3759973943344
 20
147.2641054421065
 10
87.03732835924924
 20
147.1794422205565
 10
86.61399610261408
 20
147.0947789990065
 10
86.27532706752893
 20
147.010105011533
 10
85.85199481089377
 20
146.9254417899831
 10
85.42866255425861
 20
146.840778568433
 10
85.00533029762346
 20
146.840778568433
 10
84.5819980409883
 20
146.840778568433
 10
84.15866040139144
 20
146.840778568433
 10
83.73532814475629
 20
146.9254417899831
 10
83.31199588812111
 20
147.010105011533
 10
82.88866363148596
 20
147.0947789990065
 10
82.5499945964008
 20
147.1794422205565
 10
81.7879933046805
 20
147.4334426511299
 10
81.53399287410707
 20
147.6027798601533
 10
81.19532922198361
 20
147.7721063032533
 10
80.94132879141019
 20
147.9414435122768
 10
80.68732836083674
 20
148.1107699553768
 10
80.51799653477502
 20
148.3647703859502
 10
80.34866470871328
 20
148.5341075949737
 10
80.26399610420158
 20
148.7881080255471
 10
80.17932749968988
 20
148.9574452345705
 10
80.09466427813986
 20
149.2114456651439
  0
SPLINE
  5
F2
330
70
100
AcDbEntity
  8
Capa 1
 62
    18
420
        0
370
     9
100
AcDbSpline
210
0.0
220
0.0
230
1.0
 70
    24
 71
     3
 72
     8
 73
     4
 74
     0
 42
0.0000000001
 43
0.0000000001
 40
0.0
 40
0.0
 40
0.0
 40
0.0
 40
1.0
 40
1.0
 40
1.0
 40
1.0
 10
61.55266514404923
 20
159.4561045777846
 30
0.0
 10
61.55266514404923
 20
159.4561045777846
 30
0.0
 10
61.63732836559924
 20
157.847438772794
 30
0.0
 10
61.63732836559924
 20
157.847438772794
 30
0.0
  0
SPLINE
  5
F3
330
70
100
AcDbEntity
  8
Capa 1
 62
    18
420
        0
370
     9
100
AcDbSpline
210
0.0
220
0.0
230
1.0
 70
    24
 71
     3
 72
     8
 73
     4
 74
     0
 42
0.0000000001
 43
0.0000000001
 40
0.0
 40
0.0
 40
0.0
 40
0.0
 40
1.0
 40
1.0
 40
1.0
 40
1.0
 10
107.9499892070891
 20
157.847438772794
 30
0.0
 10
107.9499892070891
 20
157.847438772794
 30
0.0
 10
108.0346631945625
 20
159.4561045777846
 30
0.0
 10
108.0346631945625
 20
159.4561045777846
 30
0.0
  0
LWPOLYLINE
  5
F4
330
70
100
AcDbEntity
  8
Capa 1
 62
    18
420
        0
370
     9
100
AcDbPolyline
 90
        3
 70
     0
 43
0.0
 10
107.5266623334156
 20
146.9254417899831
 10
107.5266623334156
 20
147.3487794295799
 10
107.6113255549656
 20
147.6027798601533
  0
LWPOLYLINE
  5
F5
330
70
100
AcDbEntity
  8
Capa 1
 62
    18
420
        0
370
     9
100
AcDbPolyline
 90
        3
 70
     0
 43
0.0
 10
61.97599740068439
 20
147.6027798601533
 10
62.0606606222344
 20
147.3487794295799
 10
62.0606606222344
 20
146.9254417899831
  0
SPLINE
  5
F6
330
70
100
AcDbEntity
  8
Capa 1
 62
    18
420
        0
370
     9
100
AcDbSpline
210
0.0
220
0.0
230
1.0
 70
    24
 71
     3
 72
     8
 73
     4
 74
     0
 42
0.0000000001
 43
0.0000000001
 40
0.0
 40
0.0
 40
0.0
 40
0.0
 40
1.0
 40
1.0
 40
1.0
 40
1.0
 10
106.2566601805484
 20
155.8154460941299
 30
0.0
 10
106.2566601805484
 20
155.8154460941299
 30
0.0
 10
106.8493242632453
 20
157.5087751206705
 30
0.0
 10
106.8493242632453
 20
157.5087751206705
 30
0.0
  0
SPLINE
  5
F7
330
70
100
AcDbEntity
  8
Capa 1
 62
    18
420
        0
370
     9
100
AcDbSpline
210
0.0
220
0.0
230
1.0
 70
    24
 71
     3
 72
     8
 73
     4
 74
     0
 42
0.0000000001
 43
0.0000000001
 40
0.0
 40
0.0
 40
0.0
 40
0.0
 40
1.0
 40
1.0
 40
1.0
 40
1.0
 10
62.73799330944299
 20
157.5087751206705
 30
0.0
 10
62.73799330944299
 20
157.5087751206705
 30
0.0
 10
63.24599417058987
 20
156.0694465247033
 30
0.0
 10
63.24599417058987
 20
156.0694465247033
 30
0.0
  0
SPLINE
  5
F8
330
70
100
AcDbEntity
  8
Capa 1
 62
    18
420
        0
370
     9
100
AcDbSpline
210
0.0
220
0.0
230
1.0
 70
    24
 71
     3
 72
     8
 73
     4
 74
     0
 42
0.0000000001
 43
0.0000000001
 40
0.0
 40
0.0
 40
0.0
 40
0.0
 40
1.0
 40
1.0
 40
1.0
 40
1.0
 10
80.09466427813986
 20
149.2114456651439
 30
0.0
 10
80.09466427813986
 20
149.2114456651439
 30
0.0
 10
80.17932749968988
 20
149.2114456651439
 30
0.0
 10
80.17932749968988
 20
149.2114456651439
 30
0.0
  0
SPLINE
  5
F9
330
70
100
AcDbEntity
  8
Capa 1
 62
    18
420
        0
370
     9
100
AcDbSpline
210
0.0
220
0.0
230
1.0
 70
    24
 71
     3
 72
     8
 73
     4
 74
     0
 42
0.0000000001
 43
0.0000000001
 40
0.0
 40
0.0
 40
0.0
 40
0.0
 40
1.0
 40
1.0
 40
1.0
 40
1.0
 10
89.4926640604719
 20
149.2114456651439
 30
0.0
 10
89.4926640604719
 20
149.2114456651439
 30
0.0
 10
89.57732728202191
 20
149.2114456651439
 30
0.0
 10
89.57732728202191
 20
149.2114456651439
 30
0.0
  0
LWPOLYLINE
  5
FA
330
70
100
AcDbEntity
  8
Capa 1
 62
    18
420
        0
370
     9
100
AcDbPolyline
 90
        3
 70
     0
 43
0.0
 10
81.7879933046805
 20
149.4654460957174
 10
81.11066061747191
 20
148.9574452345705
 10
80.60265975632503
 20
148.2801071644002
  0
LWPOLYLINE
  5
FB
330
70
100
AcDbEntity
  8
Capa 1
 62
    18
420
        0
370
     9
100
AcDbPolyline
 90
       23
 70
     0
 43
0.0
 10
88.984663199325
 20
148.1954439428502
 10
88.984663199325
 20
148.2801071644002
 10
88.8153259903016
 20
148.5341075949737
 10
88.64599416423986
 20
148.7034448039971
 10
88.47666233817815
 20
148.9574452345705
 10
88.22266190760471
 20
149.2114456651439
 10
87.96866147703127
 20
149.380772108244
 10
87.62999782490783
 20
149.5501093172674
 10
87.29132878982268
 20
149.7194465262908
 10
86.95265975473754
 20
149.8041097478408
 10
86.61399610261408
 20
149.9734469568642
 10
86.19066384597891
 20
150.0581101784143
 10
85.76732620638207
 20
150.1427733999643
 10
85.34399394974689
 20
150.1427733999643
 10
84.92066169311174
 20
150.1427733999643
 10
84.49732943647658
 20
150.1427733999643
 10
84.07399717984143
 20
150.1427733999643
 10
83.65065954024457
 20
150.0581101784143
 10
83.22732728360939
 20
149.9734469568642
 10
82.80399502697425
 20
149.8887729693909
 10
82.46533137485078
 20
149.8041097478408
 10
82.12666233976564
 20
149.6347725388174
 10
81.7879933046805
 20
149.4654460957174
  0
LINE
  5
FC
330
70
100
AcDbEntity
  8
Capa 1
 62
    18
420
        0
370
     9
100
AcDbLine
 10
82.80399502697425
 20
147.8567802907268
 30
0.0
 11
82.21133094427736
 21
147.2641054421065
 31
0.0
  0
LWPOLYLINE
  5
FD
330
70
100
AcDbEntity
  8
Capa 1
 62
    18
420
        0
370
     9
100
AcDbPolyline
 90
       17
 70
     0
 43
0.0
 10
87.46066061588441
 20
147.2641054421065
 10
87.29132878982268
 20
147.4334426511299
 10
87.12199696376094
 20
147.6027798601533
 10
86.86799653318752
 20
147.7721063032533
 10
86.6986647071258
 20
147.9414435122768
 10
86.35999567204065
 20
148.0261067338268
 10
86.10599524146721
 20
148.1954439428502
 10
85.76732620638207
 20
148.2801071644002
 10
85.42866255425861
 20
148.2801071644002
 10
85.08999351917347
 20
148.3647703859502
 10
84.66666126253832
 20
148.3647703859502
 10
84.32799761041485
 20
148.2801071644002
 10
83.98932857532971
 20
148.2801071644002
 10
83.65065954024457
 20
148.1954439428502
 10
83.39666449263281
 20
148.1107699553768
 10
83.05799545754767
 20
148.0261067338268
 10
82.80399502697425
 20
147.8567802907268
  0
LWPOLYLINE
  5
FE
330
70
100
AcDbEntity
  8
Capa 1
 62
    18
420
        0
370
     9
100
AcDbPolyline
 90
        5
 70
     0
 43
0.0
 10
86.6986647071258
 20
147.0947789990065
 10
85.76732620638207
 20
147.4334426511299
 10
84.83599308860004
 20
147.5181058726799
 10
83.81999674926799
 20
147.4334426511299
 10
82.88866363148596
 20
147.0947789990065
  0
LWPOLYLINE
  5
FF
330
70
100
AcDbEntity
  8
Capa 1
 62
    18
420
        0
370
     9
100
AcDbPolyline
 90
       54
 70
     0
 43
0.0
 10
101.2613255565531
 20
149.4654460957174
 10
100.4993242648328
 20
149.1267716776706
 10
99.73732297311256
 20
148.7034448039971
 10
98.97532168139225
 20
148.3647703859502
 10
98.21332038967193
 20
148.0261067338268
 10
97.3666558764016
 20
147.6874430817033
 10
96.51999136313129
 20
147.4334426511299
 10
95.58866362831095
 20
147.0947789990065
 10
94.74198834911723
 20
146.840778568433
 10
93.8106606142969
 20
146.5867781378596
 10
92.87932211355316
 20
146.4174409288362
 10
91.94799437873284
 20
146.2481037198128
 10
91.0166558779891
 20
146.0787772767127
 10
90.00065953865705
 20
145.9094400676893
 10
89.06932642087502
 20
145.8247768461393
 10
88.05333008154297
 20
145.7401136245892
 10
87.03732835924924
 20
145.6554396371158
 10
86.02132663695551
 20
145.5707764155658
 10
85.00533029762346
 20
145.5707764155658
 10
84.07399717984143
 20
145.5707764155658
 10
83.05799545754767
 20
145.5707764155658
 10
82.04199373525394
 20
145.6554396371158
 10
81.02599739592189
 20
145.7401136245892
 10
80.09466427813986
 20
145.8247768461393
 10
79.07866255584611
 20
145.9941032892393
 10
78.14732943806408
 20
146.1634404982627
 10
77.21599632028205
 20
146.3327777072861
 10
76.28466320250002
 20
146.5021041503862
 10
75.35333008471798
 20
146.7561045809596
 10
74.42199696693595
 20
147.010105011533
 10
73.49066384915392
 20
147.2641054421065
 10
72.64399395292191
 20
147.5181058726799
 10
71.79732943965158
 20
147.8567802907268
 10
71.03532814793128
 20
148.1954439428502
 10
70.18866363466095
 20
148.5341075949737
 10
69.42666234294065
 20
148.8727712470971
 10
68.66466105122033
 20
149.2961088866939
 10
67.98732836401175
 20
149.7194465262908
 10
67.30999567680314
 20
150.1427733999643
 10
66.71733159410625
 20
150.5661110395612
 10
66.03999352393596
 20
151.074111900708
 10
65.53199804575079
 20
151.4974387743815
 10
64.93932858009221
 20
152.0054396355283
 10
64.43132771894534
 20
152.5134404966752
 10
64.00799546231017
 20
153.0214413578221
 10
63.58466320567502
 20
153.529442218969
 10
63.16133094903985
 20
154.0374430801158
 10
62.82266191395471
 20
154.6301071628127
 10
62.48399826183126
 20
155.1381080239596
 10
62.22999783125782
 20
155.7307721066565
 10
62.0606606222344
 20
156.2387729678034
 10
61.80666019166096
 20
156.8314370505002
 10
61.72199697011095
 20
157.4241118991205
 10
61.63732836559924
 20
157.847438772794
  0
LWPOLYLINE
  5
100
330
70
100
AcDbEntity
  8
Capa 1
 62
    18
420
        0
370
     9
100
AcDbPolyline
 90
       18
 70
     0
 43
0.0
 10
107.9499892070891
 20
157.847438772794
 10
107.9499892070891
 20
157.678112329694
 10
107.8653259855391
 20
157.0854374810737
 10
107.6959887765156
 20
156.5774366199268
 10
107.4419883459422
 20
155.9847725372299
 10
107.1879879153688
 20
155.392108454533
 10
106.9339874847953
 20
154.8841075933862
 10
106.5953238326719
 20
154.2914435106893
 10
106.2566601805484
 20
153.7834426495424
 10
105.8333225409516
 20
153.2754417883955
 10
105.4099956672781
 20
152.7674409272487
 10
104.9019948061312
 20
152.2594400661018
 10
104.3939939449844
 20
151.7514392049549
 10
103.8013298622875
 20
151.243438343808
 10
103.2086550136672
 20
150.8201114701346
 10
102.6159909309703
 20
150.3121106089877
 10
101.9386636267234
 20
149.8887729693909
 10
101.2613255565531
 20
149.4654460957174
  0
LWPOLYLINE
  5
101
330
70
100
AcDbEntity
  8
Capa 1
 62
    18
420
        0
370
     9
100
AcDbPolyline
 90
       79
 70
     0
 43
0.0
 10
106.8493242632453
 20
157.5087751206705
 10
106.8493242632453
 20
157.5934383422205
 10
106.9339874847953
 20
158.1014392033674
 10
107.0186614722687
 20
158.6941032860643
 10
107.0186614722687
 20
159.2867781346846
 10
106.9339874847953
 20
159.7947789958315
 10
106.8493242632453
 20
160.3874430785284
 10
106.7646610416953
 20
160.9801071612252
 10
106.5953238326719
 20
161.4881080223721
 10
106.4259973895719
 20
162.080772105069
 10
106.1719969589984
 20
162.5887729662158
 10
105.8333225409516
 20
163.1814370489127
 10
105.4946588888281
 20
163.6894379100596
 10
105.1559952367047
 20
164.1974387712065
 10
104.7326575971078
 20
164.7054396323533
 10
104.3093307234344
 20
165.2134404935002
 10
103.8013298622875
 20
165.7214413546471
 10
103.2933290011406
 20
166.229442215794
 10
102.7006541525203
 20
166.6527798553908
 10
102.1079900698235
 20
167.1607699506143
 10
101.5153259871266
 20
167.5841075902112
 10
100.8379879169563
 20
168.007445229808
 10
100.1606606127094
 20
168.3461088819315
 10
99.39865932098911
 20
168.7694465215283
 10
98.63665802926879
 20
169.1081101736518
 10
97.87465673754848
 20
169.4467738257752
 10
97.11265544582818
 20
169.7854374778987
 10
96.26599093255785
 20
170.1241118959455
 10
95.41932641928752
 20
170.378112326519
 10
94.48798791854381
 20
170.6321127570924
 10
93.64132340527348
 20
170.8861131876658
 10
92.70999567045315
 20
171.0554396307658
 10
91.77865716970941
 20
171.3094400613393
 10
90.84732943488909
 20
171.4787772703627
 10
89.91599631710704
 20
171.5634404919127
 10
88.984663199325
 20
171.7327777009361
 10
87.96866147703127
 20
171.8174409224862
 10
87.03732835924924
 20
171.9021041440362
 10
86.02132663695551
 20
171.9021041440362
 10
85.00533029762346
 20
171.9021041440362
 10
84.07399717984143
 20
171.9021041440362
 10
83.05799545754767
 20
171.9021041440362
 10
82.12666233976564
 20
171.8174409224862
 10
81.11066061747191
 20
171.7327777009361
 10
80.17932749968988
 20
171.6481037134627
 10
79.24799438190785
 20
171.4787772703627
 10
78.2319980425758
 20
171.3941032828893
 10
77.30065954183206
 20
171.2247768397893
 10
76.45399502856175
 20
170.9707764092158
 10
75.52266191077972
 20
170.7167759786424
 10
74.59132879299769
 20
170.547438769619
 10
73.74466427972736
 20
170.2087751174955
 10
72.89799438349534
 20
169.9547746869221
 10
72.13599309177503
 20
169.6161110347986
 10
71.28932857850471
 20
169.2774366167518
 10
70.5273272867844
 20
168.9387729646283
 10
69.84999459957581
 20
168.6001093125049
 10
69.0879933078555
 20
168.1767716729081
 10
68.4106606206469
 20
167.7534447992346
 10
67.7333279334383
 20
167.3301071596377
 10
67.14066385074142
 20
166.9067695200409
 10
66.54799438508284
 20
166.3987794248174
 10
66.03999352393596
 20
165.9754417852205
 10
65.53199804575079
 20
165.4674409240737
 10
65.02399718460392
 20
164.9594400629268
 10
64.60066492796876
 20
164.4514392017799
 10
64.26199589288362
 20
163.9434383406331
 10
63.92332685779846
 20
163.4354374794862
 10
63.58466320567502
 20
162.9274366183393
 10
63.33066277510158
 20
162.3347725356424
 10
63.07666234452814
 20
161.8267716744955
 10
62.90733051846642
 20
161.2341075917987
 10
62.73799330944299
 20
160.6414435091018
 10
62.65333008789298
 20
160.1334426479549
 10
62.65333008789298
 20
159.540778565258
 10
62.56866148338128
 20
158.9481037166377
 10
62.65333008789298
 20
158.4401028554909
 10
62.73799330944299
 20
157.847438772794
 10
62.73799330944299
 20
157.5087751206705
  0
LWPOLYLINE
  5
102
330
70
100
AcDbEntity
  8
Capa 1
 62
    18
420
        0
370
     9
100
AcDbPolyline
 90
       14
 70
     0
 43
0.0
 10
71.03532814793128
 20
158.6941032860643
 10
70.35799546072268
 20
158.2707764123908
 10
69.76533137802579
 20
157.9321127602674
 10
69.25733051687892
 20
157.5087751206705
 10
68.66466105122033
 20
157.0854374810737
 10
68.15666019007347
 20
156.5774366199268
 10
67.7333279334383
 20
156.1541097462533
 10
67.30999567680314
 20
155.6461088851064
 10
66.88666342016799
 20
155.2227712455096
 10
66.54799438508284
 20
154.7147703843627
 10
66.2939939545094
 20
154.2067695232159
 10
66.03999352393596
 20
153.6987794279924
 10
65.78599847632422
 20
153.1907785668455
 10
65.61666126730081
 20
152.6827777056986
  0
LWPOLYLINE
  5
103
330
70
100
AcDbEntity
  8
Capa 1
 62
    18
420
        0
370
     9
100
AcDbPolyline
 90
       48
 70
     0
 43
0.0
 10
103.9706563053875
 20
152.6827777056986
 10
103.9706563053875
 20
152.7674409272487
 10
103.7166558748141
 20
153.2754417883955
 10
103.5473294317141
 20
153.8681058710924
 10
103.2933290011406
 20
154.2914435106893
 10
102.9546545830938
 20
154.7994443718361
 10
102.6159909309703
 20
155.307445232983
 10
102.1926640572969
 20
155.8154460941299
 10
101.7693264177
 20
156.2387729678034
 10
101.2613255565531
 20
156.7467738289502
 10
100.7533246954063
 20
157.1701114685471
 10
100.2453238342594
 20
157.5934383422205
 10
99.65265975156254
 20
158.0167759818174
 10
99.05999566886565
 20
158.4401028554909
 10
98.38265759869535
 20
158.7787772735377
 10
97.70533029444846
 20
159.1174409256612
 10
97.02799222427817
 20
159.4561045777846
 10
96.26599093255785
 20
159.7947789958315
 10
95.50398964083754
 20
160.1334426479549
 10
94.74198834911723
 20
160.3874430785284
 10
93.97999782332034
 20
160.6414435091018
 10
93.13332254412662
 20
160.8954439396752
 10
92.28665803085629
 20
161.1494443702486
 10
91.43999351758598
 20
161.3187708133487
 10
90.59332900431565
 20
161.4881080223721
 10
89.66199588653362
 20
161.6574452313955
 10
88.8153259903016
 20
161.7421084529455
 10
87.88399287251957
 20
161.8267716744955
 10
86.95265975473754
 20
161.911445661969
 10
86.02132663695551
 20
161.996108883519
 10
85.17466212368518
 20
161.996108883519
 10
84.24332900590314
 20
161.996108883519
 10
83.31199588812111
 20
161.996108883519
 10
82.38066277033908
 20
161.911445661969
 10
81.44932965255705
 20
161.8267716744955
 10
80.60265975632503
 20
161.7421084529455
 10
79.671326638543
 20
161.5727712439221
 10
78.82466212527268
 20
161.4034448008221
 10
77.89332900749065
 20
161.2341075917987
 10
77.04666449422032
 20
161.0647703827752
 10
76.28466320250002
 20
160.8107699522018
 10
75.437993306268
 20
160.6414435091018
 10
74.59132879299769
 20
160.3027798569783
 10
73.82932750127737
 20
160.0487794264049
 10
73.06733159251876
 20
159.7101050083581
 10
72.38999352234846
 20
159.3714413562346
 10
71.71266083513987
 20
159.0327777041111
 10
71.03532814793128
 20
158.6941032860643
  0
LWPOLYLINE
  5
104
330
70
100
AcDbEntity
  8
Capa 1
 62
    18
420
        0
370
     9
100
AcDbPolyline
 90
       10
 70
     0
 43
0.0
 10
81.44932965255705
 20
151.4127755528315
 10
81.19532922198361
 20
151.158775122258
 10
80.85666018689847
 20
150.9894379132346
 10
80.68732836083674
 20
150.7354374826612
 10
80.4333279302633
 20
150.4814370520877
 10
80.26399610420158
 20
150.2274366215143
 10
80.17932749968988
 20
149.9734469568642
 10
80.09466427813986
 20
149.7194465262908
 10
80.09466427813986
 20
149.4654460957174
 10
80.09466427813986
 20
149.2114456651439
  0
LWPOLYLINE
  5
105
330
70
100
AcDbEntity
  8
Capa 1
 62
    18
420
        0
370
     9
100
AcDbPolyline
 90
       25
 70
     0
 43
0.0
 10
89.4926640604719
 20
149.2114456651439
 10
89.4926640604719
 20
149.8041097478408
 10
89.40799545596018
 20
150.0581101784143
 10
89.23866362989846
 20
150.3121106089877
 10
89.06932642087502
 20
150.5661110395612
 10
88.8999945948133
 20
150.8201114701346
 10
88.64599416423986
 20
151.074111900708
 10
88.39199373366644
 20
151.243438343808
 10
88.05333008154297
 20
151.4127755528315
 10
87.71466104645783
 20
151.5821127618549
 10
87.29132878982268
 20
151.7514392049549
 10
86.95265975473754
 20
151.9207764139783
 10
86.52932749810238
 20
152.0054396355283
 10
86.10599524146721
 20
152.0901136230018
 10
85.68266298483205
 20
152.1747768445518
 10
85.17466212368518
 20
152.1747768445518
 10
84.75132986705002
 20
152.1747768445518
 10
84.24332900590314
 20
152.1747768445518
 10
83.81999674926799
 20
152.0901136230018
 10
83.39666449263281
 20
152.0901136230018
 10
82.97332685303597
 20
152.0054396355283
 10
82.5499945964008
 20
151.8361131924283
 10
82.12666233976564
 20
151.7514392049549
 10
81.7879933046805
 20
151.5821127618549
 10
81.44932965255705
 20
151.4127755528315
  0
LWPOLYLINE
  5
106
330
70
100
AcDbEntity
  8
Capa 1
 62
    18
420
        0
370
     9
100
AcDbPolyline
 90
      163
 70
     1
 43
0.0
 10
160.0199913472563
 20
189.4281230876798
 10
160.0199913472563
 20
188.1581101688893
 10
159.9353281257063
 20
186.9727820034955
 10
159.8506541382328
 20
185.1947897554049
 10
159.7659909166828
 20
183.1627863108174
 10
159.6813276951328
 20
181.0461196446799
 10
159.5966537076594
 20
179.2681166306658
 10
159.5119904861094
 20
178.0827884652721
 10
159.5119904861094
 20
177.6594508256752
 10
159.5119904861094
 20
177.5747876041252
 10
159.5119904861094
 20
177.3207871735517
 10
159.5119904861094
 20
176.8974495339549
 10
159.4273272645594
 20
176.4741226602814
 10
159.257990055536
 20
175.8814478116612
 10
159.173326833986
 20
175.3734469505143
 10
158.9193264034125
 20
174.7807828678174
 10
158.6653259728391
 20
174.2727820066705
 10
158.4113255422656
 20
173.7647811455236
 10
158.0726618901422
 20
173.2567695184534
 10
157.7339874720953
 20
172.6641054357565
 10
157.3953238199719
 20
172.1561045746096
 10
156.971986180375
 20
171.6481037134627
 10
156.4639960851516
 20
171.2247768397893
 10
156.0406584455547
 20
170.7167759786424
 10
155.5326575844079
 20
170.2934383390456
 10
154.9399935017109
 20
169.7854374778987
 10
154.3473294190141
 20
169.3621106042252
 10
153.7546545703938
 20
168.9387729646283
 10
153.0773272661469
 20
168.5154460909549
 10
152.7386528481
 20
168.3461088819315
 10
152.3999891959766
 20
168.1767716729081
 10
151.7226618917297
 20
167.7534447992346
 10
150.9606606000094
 20
167.4147703811877
 10
150.1986593082891
 20
167.0761067290643
 10
149.4366580165688
 20
166.7374430769408
 10
147.8279922115781
 20
166.229442215794
 10
146.9813276983078
 20
165.8907785636705
 10
146.1346631850375
 20
165.7214413546471
 10
145.2879879058438
 20
165.4674409240737
 10
144.4413233925734
 20
165.2981037150502
 10
143.5099956577531
 20
165.1287772719502
 10
142.6633203785594
 20
164.9594400629268
 10
141.7319926437391
 20
164.7901028539034
 10
140.8006541429953
 20
164.7054396323533
 10
139.869326408175
 20
164.6207764108033
 10
138.0066601726109
 20
164.5361131892533
 10
137.0753216718672
 20
164.5361131892533
 10
135.2126554363032
 20
164.5361131892533
 10
134.2813277014828
 20
164.6207764108033
 10
133.3499892007391
 20
164.6207764108033
 10
132.4186614659188
 20
164.7054396323533
 10
131.487322965175
 20
164.8747768413768
 10
130.5559952303547
 20
164.9594400629268
 10
129.709319951161
 20
165.1287772719502
 10
127.9313277030703
 20
165.5521041456237
 10
126.2379879106063
 20
165.9754417852205
 10
124.6293221056157
 20
166.5681058679174
 10
123.7826575923453
 20
166.8221062984908
 10
123.020656300625
 20
167.1607699506143
 10
122.3433289963781
 20
167.4994443686611
 10
121.5813277046578
 20
167.9227712423346
 10
120.9039896344875
 20
168.2614456603815
 10
120.2266623302406
 20
168.6847725340549
 10
119.6339874816203
 20
169.0234361861784
 10
118.9566601773734
 20
169.4467738257752
 10
118.4486593162266
 20
169.9547746869221
 10
117.8559952335297
 20
170.378112326519
 10
117.3479943723828
 20
170.8861131876658
 10
116.8399935112359
 20
171.3094400613393
 10
116.4166558716391
 20
171.8174409224862
 10
115.6546545799188
 20
172.8334426447799
 10
115.3159909277953
 20
173.3414435059268
 10
114.7233268450984
 20
174.4421192156939
 10
114.553989636075
 20
174.9501200768408
 10
114.2999892055016
 20
175.4581209379877
 10
114.2153259839516
 20
176.0507850206846
 10
114.0459887749281
 20
176.5587858818314
 10
114.0459887749281
 20
176.8974495339549
 10
113.9613255533781
 20
177.3207871735517
 10
113.9613255533781
 20
177.5747876041252
 10
113.9613255533781
 20
177.6594508256752
 10
113.9613255533781
 20
178.0827884652721
 10
113.8766623318281
 20
179.2681166306658
 10
113.7919883443547
 20
181.0461196446799
 10
113.7073251228047
 20
183.1627863108174
 10
113.6226619012547
 20
185.1947897554049
 10
113.5379879137813
 20
186.9727820034955
 10
113.5379879137813
 20
188.1581101688893
 10
113.5379879137813
 20
188.5814478084861
 10
113.5379879137813
 20
188.6661110300362
 10
113.5379879137813
 20
189.5127863092298
 10
113.5379879137813
 20
190.0207871703767
 10
113.6226619012547
 20
190.5287880315236
 10
113.7919883443547
 20
191.1214521142205
 10
113.9613255533781
 20
191.7141161969174
 10
114.1306627624016
 20
192.2221170580642
 10
114.384663192975
 20
192.7301179192111
 10
114.9773272756719
 20
193.8307828630549
 10
115.3159909277953
 20
194.3387837242017
 10
115.7393285673922
 20
194.8467845853486
 10
116.1626554410656
 20
195.3547854464955
 10
116.5859930806625
 20
195.8627863076424
 10
117.0939939418094
 20
196.3707871687892
 10
117.6019948029563
 20
196.7941032765393
 10
118.1946588856531
 20
197.2174409161361
 10
118.78732296835
 20
197.725441777283
 10
119.3799870510469
 20
198.1487794168799
 10
120.0573251212172
 20
198.4874538349267
 10
120.3959887733407
 20
198.7414434995768
 10
120.5653259823641
 20
198.8261067211268
 10
121.242653286611
 20
199.1647811391736
 10
121.9199913567813
 20
199.5881187787705
 10
123.4439939402219
 20
200.1807828614674
 10
124.2906584534922
 20
200.5194357476675
 10
125.0526597452125
 20
200.7734469441643
 10
125.8993242584828
 20
201.1121213622111
 10
126.7459887717532
 20
201.3661110268612
 10
127.5926532850235
 20
201.5354374699612
 10
128.5239917857672
 20
201.789448666458
 10
129.3706562990375
 20
201.958775109558
 10
130.3019947997813
 20
202.1281015526581
 10
131.2333225346016
 20
202.2974495276049
 10
132.1646610353453
 20
202.3821127491549
 10
133.0959887701657
 20
202.4667759707049
 10
134.0273272709094
 20
202.5514391922549
 10
134.9586550057297
 20
202.636102413805
 10
135.8899935064735
 20
202.636102413805
 10
138.7686614643312
 20
202.636102413805
 10
139.6999891991516
 20
202.5514391922549
 10
140.6313276998953
 20
202.4667759707049
 10
141.5626554347157
 20
202.3821127491549
 10
142.4939939354594
 20
202.2127863060549
 10
143.4253216702797
 20
202.1281015526581
 10
144.2719861835501
 20
201.958775109558
 10
145.2033246842938
 20
201.704785444908
 10
146.0499891975641
 20
201.5354374699612
 10
146.8966537108344
 20
201.2814478053111
 10
147.7433289900281
 20
201.0274366088143
 10
148.5899935032984
 20
200.7734469441643
 10
149.4366580165688
 20
200.4347725261175
 10
150.1986593082891
 20
200.1807828614674
 10
150.9606606000094
 20
199.8421084434205
 10
151.7226618917297
 20
199.5034555572205
 10
152.3999891959766
 20
199.0801179176236
 10
153.0773272661469
 20
198.7414434995768
 10
153.7546545703938
 20
198.3181058599799
 10
154.4319926405641
 20
197.8947682203831
 10
155.024656723261
 20
197.471452112633
 10
155.6173208059578
 20
197.0481144730361
 10
156.6333225282516
 20
196.1167759722924
 10
157.1413233893984
 20
195.6087751111455
 10
157.5646610289953
 20
195.1007742499987
 10
157.9879879026688
 20
194.5927733888518
 10
158.3266623207156
 20
194.0847725277049
 10
158.6653259728391
 20
193.576771666558
 10
159.0039896249625
 20
193.0687708054112
 10
159.257990055536
 20
192.5607699442643
 10
159.4273272645594
 20
191.9681058615674
 10
159.6813276951328
 20
191.4601050004206
 10
159.7659909166828
 20
190.8674409177237
 10
159.9353281257063
 20
190.3594400565768
 10
160.0199913472563
 20
189.7667759738799
 10
160.0199913472563
 20
189.5127863092298
  0
LWPOLYLINE
  5
107
330
70
100
AcDbEntity
  8
Capa 1
 62
    18
420
        0
370
     9
100
AcDbPolyline
 90
       74
 70
     0
 43
0.0
 10
160.0199913472563
 20
189.5127863092298
 10
160.0199913472563
 20
189.7667759738799
 10
159.9353281257063
 20
190.3594400565768
 10
159.7659909166828
 20
190.8674409177237
 10
159.6813276951328
 20
191.4601050004206
 10
159.4273272645594
 20
191.9681058615674
 10
159.257990055536
 20
192.5607699442643
 10
159.0039896249625
 20
193.0687708054112
 10
158.6653259728391
 20
193.576771666558
 10
158.3266623207156
 20
194.0847725277049
 10
157.9879879026688
 20
194.5927733888518
 10
157.5646610289953
 20
195.1007742499987
 10
157.1413233893984
 20
195.6087751111455
 10
156.6333225282516
 20
196.1167759722924
 10
156.1253216671047
 20
196.6247768334393
 10
155.6173208059578
 20
197.0481144730361
 10
155.024656723261
 20
197.471452112633
 10
154.4319926405641
 20
197.8947682203831
 10
153.7546545703938
 20
198.3181058599799
 10
153.0773272661469
 20
198.7414434995768
 10
152.3999891959766
 20
199.0801179176236
 10
151.7226618917297
 20
199.5034555572205
 10
150.9606606000094
 20
199.8421084434205
 10
150.1986593082891
 20
200.1807828614674
 10
149.4366580165688
 20
200.4347725261175
 10
148.5899935032984
 20
200.7734469441643
 10
147.7433289900281
 20
201.0274366088143
 10
146.8966537108344
 20
201.2814478053111
 10
146.0499891975641
 20
201.5354374699612
 10
145.2033246842938
 20
201.704785444908
 10
144.2719861835501
 20
201.958775109558
 10
143.4253216702797
 20
202.1281015526581
 10
141.5626554347157
 20
202.3821127491549
 10
140.6313276998953
 20
202.4667759707049
 10
139.6999891991516
 20
202.5514391922549
 10
138.7686614643312
 20
202.636102413805
 10
136.8213212412938
 20
202.636102413805
 10
135.8899935064735
 20
202.636102413805
 10
134.9586550057297
 20
202.636102413805
 10
134.0273272709094
 20
202.5514391922549
 10
133.0959887701657
 20
202.4667759707049
 10
132.1646610353453
 20
202.3821127491549
 10
131.2333225346016
 20
202.2974495276049
 10
130.3019947997813
 20
202.1281015526581
 10
129.3706562990375
 20
201.958775109558
 10
128.5239917857672
 20
201.789448666458
 10
127.5926532850235
 20
201.5354374699612
 10
126.7459887717532
 20
201.3661110268612
 10
125.8993242584828
 20
201.1121213622111
 10
124.2906584534922
 20
200.5194357476675
 10
123.4439939402219
 20
200.1807828614674
 10
122.6819926485016
 20
199.9267716649706
 10
121.242653286611
 20
199.1647811391736
 10
120.5653259823641
 20
198.8261067211268
 10
120.3959887733407
 20
198.7414434995768
 10
120.0573251212172
 20
198.4874538349267
 10
119.3799870510469
 20
198.1487794168799
 10
118.78732296835
 20
197.725441777283
 10
118.1946588856531
 20
197.2174409161361
 10
117.6019948029563
 20
196.7941032765393
 10
117.0939939418094
 20
196.3707871687892
 10
116.5859930806625
 20
195.8627863076424
 10
116.1626554410656
 20
195.3547854464955
 10
115.7393285673922
 20
194.8467845853486
 10
115.3159909277953
 20
194.3387837242017
 10
114.9773272756719
 20
193.8307828630549
 10
114.6386636235484
 20
193.322782001908
 10
114.384663192975
 20
192.7301179192111
 10
114.1306627624016
 20
192.2221170580642
 10
113.9613255533781
 20
191.7141161969174
 10
113.7919883443547
 20
191.1214521142205
 10
113.6226619012547
 20
190.5287880315236
 10
113.5379879137813
 20
190.0207871703767
 10
113.5379879137813
 20
189.5127863092298
  0
LWPOLYLINE
  5
108
330
70
100
AcDbEntity
  8
Capa 1
 62
    18
420
        0
370
     9
100
AcDbPolyline
 90
        9
 70
     0
 43
0.0
 10
113.5379879137813
 20
188.6661110300362
 10
113.5379879137813
 20
186.9727820034955
 10
113.6226619012547
 20
185.1947897554049
 10
113.7073251228047
 20
183.1627863108174
 10
113.7919883443547
 20
181.0461196446799
 10
113.8766623318281
 20
179.2681166306658
 10
113.9613255533781
 20
178.0827884652721
 10
113.9613255533781
 20
177.6594508256752
 10
113.9613255533781
 20
177.5747876041252
  0
LWPOLYLINE
  5
109
330
70
100
AcDbEntity
  8
Capa 1
 62
    18
420
        0
370
     9
100
AcDbPolyline
 90
       11
 70
     0
 43
0.0
 10
159.5119904861094
 20
177.5747876041252
 10
159.5119904861094
 20
177.6594508256752
 10
159.5966537076594
 20
178.0827884652721
 10
159.5966537076594
 20
179.2681166306658
 10
159.6813276951328
 20
181.0461196446799
 10
159.7659909166828
 20
183.1627863108174
 10
159.8506541382328
 20
185.1947897554049
 10
159.9353281257063
 20
186.9727820034955
 10
160.0199913472563
 20
188.1581101688893
 10
160.0199913472563
 20
188.5814478084861
 10
160.0199913472563
 20
188.6661110300362
  0
LWPOLYLINE
  5
10A
330
70
100
AcDbEntity
  8
Capa 1
 62
    18
420
        0
370
     9
100
AcDbPolyline
 90
       63
 70
     0
 43
0.0
 10
158.2419883332422
 20
185.8721170596517
 10
158.0726618901422
 20
185.5334426416049
 10
157.8186614595687
 20
185.025441780458
 10
157.4799870415219
 20
184.5174409193112
 10
157.1413233893984
 20
184.0094400581643
 10
156.7179857498016
 20
183.5861024185675
 10
156.2946588761281
 20
183.0781230892673
 10
155.8713212365313
 20
182.6547854496705
 10
155.3633203753844
 20
182.2314478100736
 10
154.8553195142376
 20
181.8081101704768
 10
153.7546545703938
 20
180.9614564231299
 10
153.1619904876969
 20
180.538118783533
 10
152.48466318345
 20
180.1994551314095
 10
151.8073251132797
 20
179.7761174918127
 10
151.1299870431094
 20
179.4374538396892
 10
150.4526597388625
 20
179.0987794216424
 10
149.6906584471422
 20
178.7601157695189
 10
148.9286571554219
 20
178.5061153389455
 10
148.1666558637016
 20
178.252114908372
 10
146.557990058711
 20
177.7441140472252
 10
145.7113255454407
 20
177.4901136166518
 10
144.8646610321703
 20
177.3207871735517
 10
143.9333225314266
 20
177.0667867429783
 10
143.0866580181563
 20
176.9821127555049
 10
142.1553195174126
 20
176.8127863124049
 10
141.3086550041422
 20
176.6434491033814
 10
140.3773272693219
 20
176.5587858818314
 10
139.4459887685782
 20
176.4741226602814
 10
138.5146610337578
 20
176.4741226602814
 10
137.5833225330141
 20
176.389448672808
 10
136.6519947981938
 20
176.389448672808
 10
135.72065629745
 20
176.389448672808
 10
134.8739917841797
 20
176.4741226602814
 10
133.942653283436
 20
176.5587858818314
 10
133.0113255486156
 20
176.5587858818314
 10
132.0799870478719
 20
176.7281230908548
 10
131.1486593130516
 20
176.8127863124049
 10
130.3019947997813
 20
176.9821127555049
 10
129.3706562990375
 20
177.1514499645283
 10
128.5239917857672
 20
177.3207871735517
 10
127.6773272724969
 20
177.4901136166518
 10
126.8306627592266
 20
177.7441140472252
 10
126.0686614675063
 20
177.9981144777986
 10
125.2219969542359
 20
178.252114908372
 10
124.4599956625156
 20
178.5061153389455
 10
123.6979943707953
 20
178.8447897569924
 10
122.935993079075
 20
179.1834534091158
 10
122.2586550089047
 20
179.5221170612393
 10
121.5813277046578
 20
179.8607807133627
 10
120.9039896344875
 20
180.1994551314095
 10
120.3113255517906
 20
180.622782005083
 10
119.6339874816203
 20
180.9614564231299
 10
119.1259866204735
 20
181.3847725308799
 10
118.5333225377766
 20
181.8081101704768
 10
118.0253216766297
 20
182.2314478100736
 10
117.6019948029563
 20
182.7394486712205
 10
117.0939939418094
 20
183.1627863108174
 10
116.3319926500891
 20
184.0941032797143
 10
115.9933289979656
 20
184.6021041408612
 10
115.6546545799188
 20
185.1101050020081
 10
115.4006541493453
 20
185.6181058631549
 10
115.2313277062453
 20
186.0414435027518
 10
115.1466537187719
 20
186.1261067243018
  0
LWPOLYLINE
  5
10B
330
70
100
AcDbEntity
  8
Capa 1
 62
    18
420
        0
370
     9
100
AcDbPolyline
 90
       73
 70
     0
 43
0.0
 10
114.0459887749281
 20
176.8974495339549
 10
114.0459887749281
 20
176.5587858818314
 10
114.2153259839516
 20
176.0507850206846
 10
114.2999892055016
 20
175.4581209379877
 10
114.553989636075
 20
174.9501200768408
 10
114.7233268450984
 20
174.4421192156939
 10
114.9773272756719
 20
173.8494551329971
 10
115.3159909277953
 20
173.3414435059268
 10
115.6546545799188
 20
172.8334426447799
 10
115.9933289979656
 20
172.325441783633
 10
116.4166558716391
 20
171.8174409224862
 10
116.8399935112359
 20
171.3094400613393
 10
117.3479943723828
 20
170.8861131876658
 10
117.8559952335297
 20
170.378112326519
 10
118.4486593162266
 20
169.9547746869221
 10
119.6339874816203
 20
169.0234361861784
 10
120.2266623302406
 20
168.6847725340549
 10
120.9039896344875
 20
168.2614456603815
 10
121.5813277046578
 20
167.9227712423346
 10
122.3433289963781
 20
167.4994443686611
 10
123.020656300625
 20
167.1607699506143
 10
123.7826575923453
 20
166.8221062984908
 10
124.6293221056157
 20
166.5681058679174
 10
125.391323397336
 20
166.314105437344
 10
126.2379879106063
 20
165.9754417852205
 10
127.0846631898
 20
165.8061045761971
 10
127.9313277030703
 20
165.5521041456237
 10
128.7779922163406
 20
165.2981037150502
 10
129.709319951161
 20
165.1287772719502
 10
130.5559952303547
 20
164.9594400629268
 10
131.487322965175
 20
164.8747768413768
 10
132.4186614659188
 20
164.7054396323533
 10
133.3499892007391
 20
164.6207764108033
 10
134.2813277014828
 20
164.6207764108033
 10
136.1439939370469
 20
164.5361131892533
 10
137.0753216718672
 20
164.5361131892533
 10
138.0066601726109
 20
164.5361131892533
 10
138.9379879074313
 20
164.5361131892533
 10
139.869326408175
 20
164.6207764108033
 10
140.8006541429953
 20
164.7054396323533
 10
141.7319926437391
 20
164.7901028539034
 10
142.6633203785594
 20
164.9594400629268
 10
143.5099956577531
 20
165.1287772719502
 10
144.4413233925734
 20
165.2981037150502
 10
145.2879879058438
 20
165.4674409240737
 10
146.1346631850375
 20
165.7214413546471
 10
146.9813276983078
 20
165.8907785636705
 10
147.8279922115781
 20
166.144778994244
 10
148.6746567248485
 20
166.4834426463674
 10
149.4366580165688
 20
166.7374430769408
 10
150.1986593082891
 20
167.0761067290643
 10
150.9606606000094
 20
167.4147703811877
 10
151.7226618917297
 20
167.7534447992346
 10
152.3999891959766
 20
168.1767716729081
 10
152.7386528481
 20
168.3461088819315
 10
153.0773272661469
 20
168.5154460909549
 10
153.7546545703938
 20
168.9387729646283
 10
154.3473294190141
 20
169.3621106042252
 10
154.9399935017109
 20
169.7854374778987
 10
155.5326575844079
 20
170.2934383390456
 10
156.0406584455547
 20
170.7167759786424
 10
156.4639960851516
 20
171.2247768397893
 10
156.971986180375
 20
171.6481037134627
 10
157.3953238199719
 20
172.1561045746096
 10
157.7339874720953
 20
172.6641054357565
 10
158.0726618901422
 20
173.2567695184534
 10
158.4113255422656
 20
173.7647811455236
 10
158.6653259728391
 20
174.2727820066705
 10
158.9193264034125
 20
174.8654460893674
 10
159.173326833986
 20
175.3734469505143
 10
159.257990055536
 20
175.8814478116612
 10
159.4273272645594
 20
176.4741226602814
 10
159.5119904861094
 20
176.8974495339549
  0
LWPOLYLINE
  5
10C
330
70
100
AcDbEntity
  8
Capa 1
 62
    18
420
        0
370
     9
100
AcDbPolyline
 90
       34
 70
     0
 43
0.0
 10
141.4779922131656
 20
179.1834534091158
 10
141.3933289916156
 20
179.0141162000924
 10
141.3086550041422
 20
178.7601157695189
 10
141.2239917825922
 20
178.5907893264189
 10
141.0546545735688
 20
178.3367888958455
 10
140.8006541429953
 20
178.1674516868221
 10
140.6313276998953
 20
177.9981144777986
 10
140.3773272693219
 20
177.7441140472252
 10
140.1233268387485
 20
177.6594508256752
 10
140.038652851275
 20
177.5747876041252
 10
139.6999891991516
 20
177.4054503951018
 10
139.3613255470282
 20
177.3207871735517
 10
139.0226618949047
 20
177.1514499645283
 10
138.5993242553078
 20
177.0667867429783
 10
138.175986615711
 20
176.9821127555049
 10
137.7526597420375
 20
176.8974495339549
 10
137.3293221024406
 20
176.8974495339549
 10
136.9059952287672
 20
176.8974495339549
 10
136.4826575891703
 20
176.8974495339549
 10
136.0593199495735
 20
176.8974495339549
 10
135.6359930759
 20
176.8974495339549
 10
135.2973294237765
 20
176.9821127555049
 10
134.8739917841797
 20
177.0667867429783
 10
134.4506541445829
 20
177.1514499645283
 10
133.773326840336
 20
177.4054503951018
 10
133.4346631882125
 20
177.5747876041252
 10
133.1806627576391
 20
177.7441140472252
 10
132.9266623270656
 20
177.9134512562486
 10
132.6726618964922
 20
178.1674516868221
 10
132.5033246874688
 20
178.3367888958455
 10
132.3339874784454
 20
178.5061153389455
 10
132.2493242568953
 20
178.7601157695189
 10
132.0799870478719
 20
178.9294529785423
 10
132.0799870478719
 20
179.1834534091158
  0
SPLINE
  5
10D
330
70
100
AcDbEntity
  8
Capa 1
 62
    18
420
        0
370
     9
100
AcDbSpline
210
0.0
220
0.0
230
1.0
 70
    24
 71
     3
 72
     8
 73
     4
 74
     0
 42
0.0000000001
 43
0.0000000001
 40
0.0
 40
0.0
 40
0.0
 40
0.0
 40
1.0
 40
1.0
 40
1.0
 40
1.0
 10
113.5379879137813
 20
189.5127863092298
 30
0.0
 10
113.5379879137813
 20
189.5127863092298
 30
0.0
 10
113.5379879137813
 20
187.9041205042392
 30
0.0
 10
113.5379879137813
 20
187.9041205042392
 30
0.0
  0
SPLINE
  5
10E
330
70
100
AcDbEntity
  8
Capa 1
 62
    18
420
        0
370
     9
100
AcDbSpline
210
0.0
220
0.0
230
1.0
 70
    24
 71
     3
 72
     8
 73
     4
 74
     0
 42
0.0000000001
 43
0.0000000001
 40
0.0
 40
0.0
 40
0.0
 40
0.0
 40
1.0
 40
1.0
 40
1.0
 40
1.0
 10
159.9353281257063
 20
187.8194357508424
 30
0.0
 10
159.9353281257063
 20
187.8194357508424
 30
0.0
 10
160.0199913472563
 20
189.4281230876798
 30
0.0
 10
160.0199913472563
 20
189.4281230876798
 30
0.0
  0
LINE
  5
10F
330
70
100
AcDbEntity
  8
Capa 1
 62
    18
420
        0
370
     9
100
AcDbLine
 10
159.5119904861094
 20
176.8974495339549
 30
0.0
 11
159.5119904861094
 21
177.5747876041252
 31
0.0
  0
LWPOLYLINE
  5
110
330
70
100
AcDbEntity
  8
Capa 1
 62
    18
420
        0
370
     9
100
AcDbPolyline
 90
        3
 70
     0
 43
0.0
 10
113.9613255533781
 20
177.5747876041252
 10
113.9613255533781
 20
177.3207871735517
 10
114.0459887749281
 20
176.8974495339549
  0
SPLINE
  5
111
330
70
100
AcDbEntity
  8
Capa 1
 62
    18
420
        0
370
     9
100
AcDbSpline
210
0.0
220
0.0
230
1.0
 70
    24
 71
     3
 72
     8
 73
     4
 74
     0
 42
0.0000000001
 43
0.0000000001
 40
0.0
 40
0.0
 40
0.0
 40
0.0
 40
1.0
 40
1.0
 40
1.0
 40
1.0
 10
158.2419883332422
 20
185.7874538381017
 30
0.0
 10
158.2419883332422
 20
185.7874538381017
 30
0.0
 10
158.7499891943891
 20
187.5654460861924
 30
0.0
 10
158.7499891943891
 20
187.5654460861924
 30
0.0
  0
SPLINE
  5
112
330
70
100
AcDbEntity
  8
Capa 1
 62
    18
420
        0
370
     9
100
AcDbSpline
210
0.0
220
0.0
230
1.0
 70
    24
 71
     3
 72
     8
 73
     4
 74
     0
 42
0.0000000001
 43
0.0000000001
 40
0.0
 40
0.0
 40
0.0
 40
0.0
 40
1.0
 40
1.0
 40
1.0
 40
1.0
 10
114.7233268450984
 20
187.5654460861924
 30
0.0
 10
114.7233268450984
 20
187.5654460861924
 30
0.0
 10
115.2313277062453
 20
186.0414435027518
 30
0.0
 10
115.2313277062453
 20
186.0414435027518
 30
0.0
  0
SPLINE
  5
113
330
70
100
AcDbEntity
  8
Capa 1
 62
    18
420
        0
370
     9
100
AcDbSpline
210
0.0
220
0.0
230
1.0
 70
    24
 71
     3
 72
     8
 73
     4
 74
     0
 42
0.0000000001
 43
0.0000000001
 40
0.0
 40
0.0
 40
0.0
 40
0.0
 40
1.0
 40
1.0
 40
1.0
 40
1.0
 10
132.0799870478719
 20
179.2681166306658
 30
0.0
 10
132.0799870478719
 20
179.2681166306658
 30
0.0
 10
132.0799870478719
 20
179.1834534091158
 30
0.0
 10
132.0799870478719
 20
179.1834534091158
 30
0.0
  0
SPLINE
  5
114
330
70
100
AcDbEntity
  8
Capa 1
 62
    18
420
        0
370
     9
100
AcDbSpline
210
0.0
220
0.0
230
1.0
 70
    24
 71
     3
 72
     8
 73
     4
 74
     0
 42
0.0000000001
 43
0.0000000001
 40
0.0
 40
0.0
 40
0.0
 40
0.0
 40
1.0
 40
1.0
 40
1.0
 40
1.0
 10
141.4779922131656
 20
179.1834534091158
 30
0.0
 10
141.4779922131656
 20
179.1834534091158
 30
0.0
 10
141.5626554347157
 20
179.1834534091158
 30
0.0
 10
141.5626554347157
 20
179.1834534091158
 30
0.0
  0
LWPOLYLINE
  5
115
330
70
100
AcDbEntity
  8
Capa 1
 62
    18
420
        0
370
     9
100
AcDbPolyline
 90
        3
 70
     0
 43
0.0
 10
133.773326840336
 20
179.4374538396892
 10
133.0113255486156
 20
178.9294529785423
 10
132.5879879090188
 20
178.252114908372
  0
LWPOLYLINE
  5
116
330
70
100
AcDbEntity
  8
Capa 1
 62
    18
420
        0
370
     9
100
AcDbPolyline
 90
       23
 70
     0
 43
0.0
 10
140.9699913520188
 20
178.252114908372
 10
140.8853281304688
 20
178.252114908372
 10
140.8006541429953
 20
178.5061153389455
 10
140.6313276998953
 20
178.7601157695189
 10
140.4619904908719
 20
178.9294529785423
 10
140.2079900602985
 20
179.1834534091158
 10
139.953989629725
 20
179.3527798522158
 10
139.6153259776016
 20
179.5221170612393
 10
139.2766623254781
 20
179.6914542702627
 10
138.9379879074313
 20
179.8607807133627
 10
138.5146610337578
 20
179.9454547008361
 10
138.175986615711
 20
180.0301179223861
 10
137.7526597420375
 20
180.1147811439362
 10
137.3293221024406
 20
180.1994551314095
 10
136.8213212412938
 20
180.1994551314095
 10
136.3979943676203
 20
180.1994551314095
 10
135.9746567280235
 20
180.1147811439362
 10
135.55132985435
 20
180.1147811439362
 10
135.1279922147531
 20
180.0301179223861
 10
134.7893285626297
 20
179.8607807133627
 10
134.3659909230328
 20
179.7761174918127
 10
134.0273272709094
 20
179.6067802827893
 10
133.773326840336
 20
179.4374538396892
  0
LINE
  5
117
330
70
100
AcDbEntity
  8
Capa 1
 62
    18
420
        0
370
     9
100
AcDbLine
 10
134.7893285626297
 20
177.8287880346986
 30
0.0
 11
134.1119904924594
 21
177.3207871735517
 31
0.0
  0
LWPOLYLINE
  5
118
330
70
100
AcDbEntity
  8
Capa 1
 62
    18
420
        0
370
     9
100
AcDbPolyline
 90
       17
 70
     0
 43
0.0
 10
139.3613255470282
 20
177.3207871735517
 10
139.2766623254781
 20
177.4901136166518
 10
139.1073251164547
 20
177.6594508256752
 10
138.8533246858813
 20
177.8287880346986
 10
138.5993242553078
 20
177.9134512562486
 10
138.3453238247344
 20
178.0827884652721
 10
138.0066601726109
 20
178.1674516868221
 10
137.6679965204875
 20
178.252114908372
 10
137.3293221024406
 20
178.3367888958455
 10
136.9906584503172
 20
178.3367888958455
 10
136.6519947981938
 20
178.3367888958455
 10
136.3133203801469
 20
178.3367888958455
 10
135.9746567280235
 20
178.252114908372
 10
135.6359930759
 20
178.1674516868221
 10
135.2973294237765
 20
178.0827884652721
 10
135.0433289932031
 20
177.9981144777986
 10
134.7893285626297
 20
177.8287880346986
  0
LWPOLYLINE
  5
119
330
70
100
AcDbEntity
  8
Capa 1
 62
    18
420
        0
370
     9
100
AcDbPolyline
 90
        5
 70
     0
 43
0.0
 10
138.6839874768579
 20
177.0667867429783
 10
137.7526597420375
 20
177.4054503951018
 10
136.7366580197438
 20
177.5747876041252
 10
135.8053195190001
 20
177.4054503951018
 10
134.7893285626297
 20
177.0667867429783
  0
LWPOLYLINE
  5
11A
330
70
100
AcDbEntity
  8
Capa 1
 62
    18
420
        0
370
     9
100
AcDbPolyline
 90
       54
 70
     0
 43
0.0
 10
153.1619904876969
 20
179.5221170612393
 10
152.48466318345
 20
179.0987794216424
 10
151.7226618917297
 20
178.7601157695189
 10
150.9606606000094
 20
178.3367888958455
 10
150.1139960867391
 20
177.9981144777986
 10
149.3519947950188
 20
177.6594508256752
 10
148.420656294275
 20
177.4054503951018
 10
147.5739917810047
 20
177.1514499645283
 10
146.7273272677344
 20
176.8974495339549
 10
145.7959887669907
 20
176.6434491033814
 10
144.8646610321703
 20
176.389448672808
 10
143.9333225314266
 20
176.220122229708
 10
142.9173208091328
 20
176.0507850206846
 10
141.9859930743125
 20
175.8814478116612
 10
140.9699913520188
 20
175.7967845901111
 10
140.038652851275
 20
175.7121213685611
 10
139.0226618949047
 20
175.6274473810877
 10
138.0066601726109
 20
175.6274473810877
 10
136.9906584503172
 20
175.5427841595377
 10
135.9746567280235
 20
175.5427841595377
 10
135.0433289932031
 20
175.6274473810877
 10
134.0273272709094
 20
175.6274473810877
 10
133.0113255486156
 20
175.7121213685611
 10
131.9953238263219
 20
175.8814478116612
 10
131.0639960915016
 20
175.9661217991345
 10
130.1326575907578
 20
176.1354482422346
 10
129.1166558684641
 20
176.304785451258
 10
128.1853281336437
 20
176.4741226602814
 10
127.2539896329
 20
176.7281230908548
 10
126.4073251196297
 20
176.9821127555049
 10
125.475986618886
 20
177.2361131860783
 10
124.6293221056157
 20
177.5747876041252
 10
123.7826575923453
 20
177.8287880346986
 10
122.935993079075
 20
178.1674516868221
 10
122.1739917873547
 20
178.5061153389455
 10
121.4119904956344
 20
178.9294529785423
 10
120.6499892039141
 20
179.2681166306658
 10
119.9726618996672
 20
179.6914542702627
 10
119.2953238294969
 20
180.1147811439362
 10
118.61799652525
 20
180.538118783533
 10
118.0253216766297
 20
181.0461196446799
 10
117.4326575939328
 20
181.4694357524299
 10
116.924656732786
 20
181.9774366135768
 10
116.4166558716391
 20
182.4854374747237
 10
115.9086550104922
 20
182.9934383358705
 10
115.4853281368187
 20
183.5014391970174
 10
115.1466537187719
 20
184.0941032797143
 10
114.8079900666485
 20
184.6021041408612
 10
114.469326414525
 20
185.1947897554049
 10
114.2153259839516
 20
185.7027690847049
 10
113.9613255533781
 20
186.2954546992486
 10
113.7919883443547
 20
186.8034555603955
 10
113.6226619012547
 20
187.3961196430924
 10
113.5379879137813
 20
187.9041205042392
  0
LWPOLYLINE
  5
11B
330
70
100
AcDbEntity
  8
Capa 1
 62
    18
420
        0
370
     9
100
AcDbPolyline
 90
       18
 70
     0
 43
0.0
 10
159.9353281257063
 20
187.8194357508424
 10
159.9353281257063
 20
187.7347725292924
 10
159.7659909166828
 20
187.1421084465955
 10
159.5966537076594
 20
186.5494443638986
 10
159.4273272645594
 20
185.9567802812018
 10
159.173326833986
 20
185.4487794200549
 10
158.9193264034125
 20
184.856115337358
 10
158.5806627512891
 20
184.3481144762111
 10
158.1573251116922
 20
183.7554503935143
 10
157.8186614595687
 20
183.2474495323674
 10
157.3106605984219
 20
182.7394486712205
 10
156.887322958825
 20
182.2314478100736
 10
156.2946588761281
 20
181.7234469489268
 10
155.7866580149813
 20
181.3001093093299
 10
155.1939939322844
 20
180.792108448183
 10
154.5166558621141
 20
180.3687815745096
 10
153.9239917794172
 20
179.9454547008361
 10
153.1619904876969
 20
179.5221170612393
  0
LWPOLYLINE
  5
11C
330
70
100
AcDbEntity
  8
Capa 1
 62
    18
420
        0
370
     9
100
AcDbPolyline
 90
       76
 70
     0
 43
0.0
 10
158.7499891943891
 20
187.5654460861924
 10
158.9193264034125
 20
188.1581101688893
 10
158.9193264034125
 20
189.8514391954299
 10
158.8346524159391
 20
190.3594400565768
 10
158.7499891943891
 20
190.9521041392737
 10
158.5806627512891
 20
191.5447897538174
 10
158.3266623207156
 20
192.0527690831174
 10
158.0726618901422
 20
192.6454546976611
 10
157.8186614595687
 20
193.1534555588079
 10
157.4799870415219
 20
193.6614348881081
 10
157.1413233893984
 20
194.2541205026517
 10
156.7179857498016
 20
194.7621213637986
 10
156.2946588761281
 20
195.2701222249455
 10
155.7866580149813
 20
195.6934383326955
 10
155.2786571538344
 20
196.2014391938424
 10
154.6859930711375
 20
196.7094400549893
 10
154.0933289884406
 20
197.1327776945861
 10
153.4159909182703
 20
197.556115334183
 10
152.8233268355735
 20
197.9794529737799
 10
152.0613255438531
 20
198.4027690815299
 10
151.3839874736829
 20
198.7414434995768
 10
150.6219861819625
 20
199.1647811391736
 10
149.8599956561656
 20
199.5034555572205
 10
149.0133203769719
 20
199.7574452218705
 10
148.1666558637016
 20
200.0961196399174
 10
147.3199913504313
 20
200.3501093045674
 10
146.473326837161
 20
200.6041205010642
 10
145.6266623238906
 20
200.8581101657143
 10
144.6953238231469
 20
201.1121213622111
 10
143.7639960883266
 20
201.2814478053111
 10
142.8326575875828
 20
201.4507742484112
 10
141.9013298527625
 20
201.620122223358
 10
140.8853281304688
 20
201.704785444908
 10
139.953989629725
 20
201.789448666458
 10
138.9379879074313
 20
201.874111888008
 10
138.0066601726109
 20
201.874111888008
 10
136.9906584503172
 20
201.958775109558
 10
136.0593199495735
 20
201.958775109558
 10
135.0433289932031
 20
201.874111888008
 10
134.0273272709094
 20
201.874111888008
 10
133.0959887701657
 20
201.789448666458
 10
132.1646610353453
 20
201.620122223358
 10
131.1486593130516
 20
201.5354374699612
 10
130.2173208123078
 20
201.3661110268612
 10
129.2859930774875
 20
201.1967845837611
 10
128.3546545767438
 20
200.9427733872643
 10
127.5079900634735
 20
200.7734469441643
 10
126.5766623286531
 20
200.5194357476675
 10
125.7299870494594
 20
200.2654460830174
 10
124.8833225361891
 20
199.9267716649706
 10
124.0366580229188
 20
199.6727820003205
 10
123.2746567311985
 20
199.3341075822737
 10
122.5126554394782
 20
198.9107699426768
 10
121.7506541477578
 20
198.5721170564767
 10
121.0733268435109
 20
198.1487794168799
 10
120.3959887733407
 20
197.8101049988331
 10
119.7186614690938
 20
197.3021041376862
 10
119.1259866204735
 20
196.8787880299361
 10
118.5333225377766
 20
196.4554503903393
 10
118.0253216766297
 20
195.9474495291924
 10
117.5173208154828
 20
195.5241118895955
 10
117.009319954336
 20
195.0161110284487
 10
116.5859930806625
 20
194.5081101673018
 10
116.1626554410656
 20
193.9154460846049
 10
115.8239917889422
 20
193.407445223458
 10
115.5699913583688
 20
192.8994443623111
 10
115.2313277062453
 20
192.3067802796143
 10
115.0619904972219
 20
191.7987794184674
 10
114.8926640541219
 20
191.2061153357705
 10
114.7233268450984
 20
190.6981144746236
 10
114.6386636235484
 20
190.1054503919268
 10
114.553989636075
 20
189.5127863092298
 10
114.553989636075
 20
189.004785448083
 10
114.553989636075
 20
188.4121213653861
 10
114.6386636235484
 20
187.8194357508424
 10
114.7233268450984
 20
187.5654460861924
  0
LWPOLYLINE
  5
11D
330
70
100
AcDbEntity
  8
Capa 1
 62
    18
420
        0
370
     9
100
AcDbPolyline
 90
       14
 70
     0
 43
0.0
 10
123.020656300625
 20
188.6661110300362
 10
122.3433289963781
 20
188.3274366119893
 10
121.7506541477578
 20
187.9041205042392
 10
121.157990065061
 20
187.4807828646424
 10
120.6499892039141
 20
187.0574452250455
 10
120.1419883427672
 20
186.6341075854487
 10
119.7186614690938
 20
186.1261067243018
 10
119.2953238294969
 20
185.7027690847049
 10
118.8719969558234
 20
185.1947897554049
 10
118.5333225377766
 20
184.686788894258
 10
118.1946588856531
 20
184.1787880331111
 10
117.9406584550797
 20
183.6707871719642
 10
117.7713212460563
 20
183.1627863108174
 10
117.6019948029563
 20
182.6547854496705
  0
LWPOLYLINE
  5
11E
330
70
100
AcDbEntity
  8
Capa 1
 62
    18
420
        0
370
     9
100
AcDbPolyline
 90
       48
 70
     0
 43
0.0
 10
155.9559952240047
 20
182.7394486712205
 10
155.8713212365313
 20
182.8241118927705
 10
155.7019947934312
 20
183.3321127539174
 10
155.4479943628578
 20
183.8401136150643
 10
155.1939939322844
 20
184.3481144762111
 10
154.9399935017109
 20
184.856115337358
 10
154.5166558621141
 20
185.3641161985049
 10
154.1779922099906
 20
185.7874538381017
 10
153.7546545703938
 20
186.2954546992486
 10
153.2466537092469
 20
186.7187708069987
 10
152.7386528481
 20
187.1421084465955
 10
152.2306627528766
 20
187.5654460861924
 10
151.6379879042563
 20
187.9887837257892
 10
151.0453238215594
 20
188.4121213653861
 10
150.3679965173125
 20
188.7507742515862
 10
149.6906584471422
 20
189.174111891183
 10
149.0133203769719
 20
189.5127863092298
 10
148.251329851175
 20
189.8514391954299
 10
147.4893285594547
 20
190.1054503919268
 10
146.7273272677344
 20
190.4441032781268
 10
145.8806627544641
 20
190.6981144746236
 10
145.1186614627437
 20
190.8674409177237
 10
144.2719861835501
 20
191.1214521142205
 10
143.4253216702797
 20
191.2907785573205
 10
142.4939939354594
 20
191.4601050004206
 10
141.647329422189
 20
191.6294529753674
 10
140.7159909214453
 20
191.7141161969174
 10
139.869326408175
 20
191.8834426400174
 10
138.9379879074313
 20
191.8834426400174
 10
138.0066601726109
 20
191.9681058615674
 10
137.0753216718672
 20
191.9681058615674
 10
136.1439939370469
 20
191.9681058615674
 10
135.2973294237765
 20
191.9681058615674
 10
134.3659909230328
 20
191.8834426400174
 10
133.4346631882125
 20
191.7987794184674
 10
132.5033246874688
 20
191.7141161969174
 10
131.6566601741984
 20
191.6294529753674
 10
130.7253216734547
 20
191.4601050004206
 10
129.8786571601844
 20
191.2907785573205
 10
129.0319926469141
 20
191.0367888926705
 10
128.1853281336437
 20
190.8674409177237
 10
127.4233268419235
 20
190.6134512530736
 10
126.5766623286531
 20
190.3594400565768
 10
125.8146610369328
 20
190.0207871703767
 10
125.0526597452125
 20
189.7667759738799
 10
124.3753216750422
 20
189.4281230876798
 10
123.6133203833219
 20
189.089448669633
 10
123.020656300625
 20
188.6661110300362
  0
LWPOLYLINE
  5
11F
330
70
100
AcDbEntity
  8
Capa 1
 62
    18
420
        0
370
     9
100
AcDbPolyline
 90
       10
 70
     0
 43
0.0
 10
133.4346631882125
 20
181.3847725308799
 10
133.0959887701657
 20
181.2154460877799
 10
132.8419883395922
 20
180.9614564231299
 10
132.5879879090188
 20
180.792108448183
 10
132.4186614659188
 20
180.538118783533
 10
132.2493242568953
 20
180.2841183529596
 10
132.1646610353453
 20
180.0301179223861
 10
132.0799870478719
 20
179.7761174918127
 10
132.0799870478719
 20
179.5221170612393
 10
132.0799870478719
 20
179.2681166306658
  0
LWPOLYLINE
  5
120
330
70
100
AcDbEntity
  8
Capa 1
 62
    18
420
        0
370
     9
100
AcDbPolyline
 90
       26
 70
     0
 43
0.0
 10
141.4779922131656
 20
179.1834534091158
 10
141.4779922131656
 20
179.5221170612393
 10
141.3933289916156
 20
179.8607807133627
 10
141.3086550041422
 20
180.1147811439362
 10
141.2239917825922
 20
180.3687815745096
 10
141.0546545735688
 20
180.538118783533
 10
140.8853281304688
 20
180.792108448183
 10
140.6313276998953
 20
181.0461196446799
 10
140.2926532818485
 20
181.2154460877799
 10
140.038652851275
 20
181.4694357524299
 10
139.6999891991516
 20
181.6387837273767
 10
139.2766623254781
 20
181.7234469489268
 10
138.9379879074313
 20
181.8927733920268
 10
138.5146610337578
 20
181.9774366135768
 10
138.0066601726109
 20
182.0621213669736
 10
137.5833225330141
 20
182.1467845885236
 10
137.1599956593406
 20
182.1467845885236
 10
136.7366580197438
 20
182.1467845885236
 10
136.2286571585969
 20
182.1467845885236
 10
135.8053195190001
 20
182.1467845885236
 10
135.3819926453266
 20
182.0621213669736
 10
134.9586550057297
 20
181.9774366135768
 10
134.5353281320562
 20
181.8927733920268
 10
134.1119904924594
 20
181.7234469489268
 10
133.773326840336
 20
181.5541205058267
 10
133.4346631882125
 20
181.3847725308799
  0
ENDSEC
  0
SECTION
  2
OBJECTS
  0
DICTIONARY
  5
C
330
0
100
AcDbDictionary
281
     1
  3
ACAD_COLOR
350
63
  3
ACAD_DETAILVIEWSTYLE
350
6A
  3
ACAD_GROUP
350
D
  3
ACAD_LAYOUT
350
62
  3
ACAD_MATERIAL
350
10
  3
ACAD_MLEADERSTYLE
350
66
  3
ACAD_MLINESTYLE
350
5F
  3
ACAD_PLOTSETTINGS
350
61
  3
ACAD_PLOTSTYLENAME
350
E
  3
ACAD_SCALELIST
350
42
  3
ACAD_SECTIONVIEWSTYLE
350
68
  3
ACAD_TABLESTYLE
350
64
  3
ACAD_VISUALSTYLE
350
29
  3
ACDB_RECOMPOSE_DATA
350
129
  3
AcDbVariableDictionary
350
121
  0
DICTIONARY
  5
63
102
{ACAD_REACTORS
330
C
102
}
330
C
100
AcDbDictionary
281
     1
  0
DICTIONARY
  5
6A
102
{ACAD_REACTORS
330
C
102
}
330
C
100
AcDbDictionary
281
     1
  3
Imperial24
350
6B
  0
DICTIONARY
  5
D
102
{ACAD_REACTORS
330
C
102
}
330
C
100
AcDbDictionary
281
     1
  0
DICTIONARY
  5
62
102
{ACAD_REACTORS
330
C
102
}
330
C
100
AcDbDictionary
281
     1
  3
Layout1
350
6F
  3
Layout2
350
77
  3
Model
350
73
  0
DICTIONARY
  5
10
102
{ACAD_REACTORS
330
C
102
}
330
C
100
AcDbDictionary
281
     1
  3
ByBlock
350
19
  3
ByLayer
350
11
  3
Global
350
21
  0
DICTIONARY
  5
66
102
{ACAD_REACTORS
330
C
102
}
330
C
100
AcDbDictionary
281
     1
  3
Standard
350
67
  0
DICTIONARY
  5
5F
102
{ACAD_REACTORS
330
C
102
}
330
C
100
AcDbDictionary
281
     1
  3
Standard
350
60
  0
DICTIONARY
  5
61
102
{ACAD_REACTORS
330
C
102
}
330
C
100
AcDbDictionary
281
     1
  0
ACDBDICTIONARYWDFLT
  5
E
102
{ACAD_REACTORS
330
C
102
}
330
C
100
AcDbDictionary
281
     1
  3
Normal
350
F
100
AcDbDictionaryWithDefault
340
F
  0
DICTIONARY
  5
42
102
{ACAD_REACTORS
330
C
102
}
330
C
100
AcDbDictionary
281
     1
  3
A0
350
43
  3
A1
350
44
  3
A2
350
45
  3
A3
350
46
  3
A4
350
47
  3
A5
350
48
  3
A6
350
49
  3
A7
350
4A
  3
A8
350
4B
  3
A9
350
4C
  3
B0
350
4D
  3
B1
350
4E
  3
B2
350
4F
  3
B3
350
50
  3
B4
350
51
  3
B5
350
52
  3
B6
350
53
  0
DICTIONARY
  5
68
102
{ACAD_REACTORS
330
C
102
}
330
C
100
AcDbDictionary
281
     1
  3
Imperial24
350
69
  0
DICTIONARY
  5
64
102
{ACAD_REACTORS
330
C
102
}
330
C
100
AcDbDictionary
281
     1
  3
Standard
350
65
  0
DICTIONARY
  5
29
102
{ACAD_REACTORS
330
C
102
}
330
C
100
AcDbDictionary
281
     1
  3
2dWireframe
350
2F
  3
Basic
350
2E
  3
Brighten
350
35
  3
ColorChange
350
39
  3
Conceptual
350
32
  3
Dim
350
34
  3
EdgeColorOff
350
41
  3
Facepattern
350
38
  3
Flat
350
2A
  3
FlatWithEdges
350
2B
  3
Gouraud
350
2C
  3
GouraudWithEdges
350
2D
  3
Hidden
350
31
  3
JitterOff
350
3F
  3
Linepattern
350
37
  3
OverhangOff
350
40
  3
Realistic
350
33
  3
Shaded
350
3E
  3
Shaded with edges
350
3D
  3
Shades of Gray
350
3A
  3
Sketchy
350
3B
  3
Thicken
350
36
  3
Wireframe
350
30
  3
X-Ray
350
3C
  0
XRECORD
  5
129
102
{ACAD_REACTORS
330
C
102
}
330
C
100
AcDbXrecord
280
     1
 90
        1
330
65
  0
DICTIONARY
  5
121
102
{ACAD_REACTORS
330
C
102
}
330
C
100
AcDbDictionary
281
     1
  3
CANNOSCALE
350
126
  3
CMLEADERSTYLE
350
123
  3
CTABLESTYLE
350
122
  3
CVIEWDETAILSTYLE
350
124
  3
CVIEWSECTIONSTYLE
350
125
  0
ACDBDETAILVIEWSTYLE
  5
6B
102
{ACAD_XDICTIONARY
360
15E
102
}
102
{ACAD_REACTORS
330
6A
102
}
330
6A
100
AcDbModelDocViewStyle
 70
     0
  3
Imperial24
290
     0
100
AcDbDetailViewStyle
 70
     0
 71
     0
 90
        3
 71
     1
340
55
 62
   256
 40
0.24
340
0
 62
   256
 40
0.24
300

 40
0.36
280
     3
 71
     2
340
5D
 90
       25
 62
   256
 71
     3
340
55
 62
   256
 40
0.24
 90
        1
 40
0.75
 90
        1
300
%<\AcVar ViewType \f "%tc1">% %<\AcVar ViewDetailId>%\PSCALE %<\AcVar ViewScale \f "%sn">%
 71
     4
340
5D
 90
       25
 62
   256
340
5D
 90
       25
 62
   256
280
     0
  0
LAYOUT
  5
6F
102
{ACAD_REACTORS
330
62
102
}
330
62
100
AcDbPlotSettings
  1

  2

  4

  6

 40
0.0
 41
0.0
 42
0.0
 43
0.0
 44
0.0
 45
0.0
 46
0.0
 47
0.0
 48
0.0
 49
0.0
140
0.0
141
0.0
142
1.0
143
1.0
 70
   688
 72
     0
 73
     0
 74
     5
  7

 75
    16
147
1.0
 76
     0
 77
     2
 78
   300
148
0.0
149
0.0
100
AcDbLayout
  1
Layout1
 70
     1
 71
     1
 10
0.0
 20
0.0
 11
12.0
 21
9.0
 12
0.0
 22
0.0
 32
0.0
 14
0.0
 24
0.0
 34
0.0
 15
0.0
 25
0.0
 35
0.0
146
0.0
 13
0.0
 23
0.0
 33
0.0
 16
1.0
 26
0.0
 36
0.0
 17
0.0
 27
1.0
 37
0.0
 76
     0
330
6C
  0
LAYOUT
  5
77
102
{ACAD_REACTORS
330
62
102
}
330
62
100
AcDbPlotSettings
  1

  2

  4

  6

 40
0.0
 41
0.0
 42
0.0
 43
0.0
 44
0.0
 45
0.0
 46
0.0
 47
0.0
 48
0.0
 49
0.0
140
0.0
141
0.0
142
1.0
143
1.0
 70
   688
 72
     0
 73
     0
 74
     5
  7

 75
    16
147
1.0
 76
     0
 77
     2
 78
   300
148
0.0
149
0.0
100
AcDbLayout
  1
Layout2
 70
     1
 71
     2
 10
0.0
 20
0.0
 11
12.0
 21
9.0
 12
0.0
 22
0.0
 32
0.0
 14
0.0
 24
0.0
 34
0.0
 15
0.0
 25
0.0
 35
0.0
146
0.0
 13
0.0
 23
0.0
 33
0.0
 16
1.0
 26
0.0
 36
0.0
 17
0.0
 27
1.0
 37
0.0
 76
     0
330
74
  0
LAYOUT
  5
73
102
{ACAD_REACTORS
330
62
102
}
330
62
100
AcDbPlotSettings
  1

  2

  4

  6

 40
0.0
 41
0.0
 42
0.0
 43
0.0
 44
0.0
 45
0.0
 46
0.0
 47
0.0
 48
0.0
 49
0.0
140
0.0
141
0.0
142
1.0
143
1.0
 70
  1712
 72
     0
 73
     0
 74
     0
  7

 75
     0
147
1.0
 76
     0
 77
     2
 78
   300
148
0.0
149
0.0
100
AcDbLayout
  1
Model
 70
     1
 71
     0
 10
0.0
 20
0.0
 11
12.0
 21
9.0
 12
0.0
 22
0.0
 32
0.0
 14
0.0
 24
0.0
 34
0.0
 15
0.0
 25
0.0
 35
0.0
146
0.0
 13
0.0
 23
0.0
 33
0.0
 16
1.0
 26
0.0
 36
0.0
 17
0.0
 27
1.0
 37
0.0
 76
     0
330
70
  0
MATERIAL
  5
19
102
{ACAD_XDICTIONARY
360
1A
102
}
102
{ACAD_REACTORS
330
10
102
}
330
10
100
AcDbMaterial
  1
ByBlock
 72
     0
 43
0.0208333333333333
 43
0.0
 43
0.0
 43
0.0
 43
0.0
 43
0.0208333333333333
 43
0.0
 43
0.0
 43
0.0
 43
0.0
 43
1.0
 43
0.0
 43
0.0
 43
0.0
 43
0.0
 43
1.0
 77
     0
 47
0.0208333333333333
 47
0.0
 47
0.0
 47
0.0
 47
0.0
 47
0.0208333333333333
 47
0.0
 47
0.0
 47
0.0
 47
0.0
 47
1.0
 47
0.0
 47
0.0
 47
0.0
 47
0.0
 47
1.0
171
     0
 49
0.0208333333333333
 49
0.0
 49
0.0
 49
0.0
 49
0.0
 49
0.0208333333333333
 49
0.0
 49
0.0
 49
0.0
 49
0.0
 49
1.0
 49
0.0
 49
0.0
 49
0.0
 49
0.0
 49
1.0
175
     0
142
0.0208333333333333
142
0.0
142
0.0
142
0.0
142
0.0
142
0.0208333333333333
142
0.0
142
0.0
142
0.0
142
0.0
142
1.0
142
0.0
142
0.0
142
0.0
142
0.0
142
1.0
179
     0
144
0.0208333333333333
144
0.0
144
0.0
144
0.0
144
0.0
144
0.0208333333333333
144
0.0
144
0.0
144
0.0
144
0.0
144
1.0
144
0.0
144
0.0
144
0.0
144
0.0
144
1.0
147
0.0208333333333333
147
0.0
147
0.0
147
0.0
147
0.0
147
0.0208333333333333
147
0.0
147
0.0
147
0.0
147
0.0
147
1.0
147
0.0
147
0.0
147
0.0
147
0.0
147
1.0
  0
MATERIAL
  5
11
102
{ACAD_XDICTIONARY
360
12
102
}
102
{ACAD_REACTORS
330
10
102
}
330
10
100
AcDbMaterial
  1
ByLayer
 72
     0
 43
0.0208333333333333
 43
0.0
 43
0.0
 43
0.0
 43
0.0
 43
0.0208333333333333
 43
0.0
 43
0.0
 43
0.0
 43
0.0
 43
1.0
 43
0.0
 43
0.0
 43
0.0
 43
0.0
 43
1.0
 77
     0
 47
0.0208333333333333
 47
0.0
 47
0.0
 47
0.0
 47
0.0
 47
0.0208333333333333
 47
0.0
 47
0.0
 47
0.0
 47
0.0
 47
1.0
 47
0.0
 47
0.0
 47
0.0
 47
0.0
 47
1.0
171
     0
 49
0.0208333333333333
 49
0.0
 49
0.0
 49
0.0
 49
0.0
 49
0.0208333333333333
 49
0.0
 49
0.0
 49
0.0
 49
0.0
 49
1.0
 49
0.0
 49
0.0
 49
0.0
 49
0.0
 49
1.0
175
     0
142
0.0208333333333333
142
0.0
142
0.0
142
0.0
142
0.0
142
0.0208333333333333
142
0.0
142
0.0
142
0.0
142
0.0
142
1.0
142
0.0
142
0.0
142
0.0
142
0.0
142
1.0
179
     0
144
0.0208333333333333
144
0.0
144
0.0
144
0.0
144
0.0
144
0.0208333333333333
144
0.0
144
0.0
144
0.0
144
0.0
144
1.0
144
0.0
144
0.0
144
0.0
144
0.0
144
1.0
147
0.0208333333333333
147
0.0
147
0.0
147
0.0
147
0.0
147
0.0208333333333333
147
0.0
147
0.0
147
0.0
147
0.0
147
1.0
147
0.0
147
0.0
147
0.0
147
0.0
147
1.0
  0
MATERIAL
  5
21
102
{ACAD_XDICTIONARY
360
22
102
}
102
{ACAD_REACTORS
330
10
102
}
330
10
100
AcDbMaterial
  1
Global
 72
     0
 43
0.0208333333333333
 43
0.0
 43
0.0
 43
0.0
 43
0.0
 43
0.0208333333333333
 43
0.0
 43
0.0
 43
0.0
 43
0.0
 43
1.0
 43
0.0
 43
0.0
 43
0.0
 43
0.0
 43
1.0
 77
     0
 47
0.0208333333333333
 47
0.0
 47
0.0
 47
0.0
 47
0.0
 47
0.0208333333333333
 47
0.0
 47
0.0
 47
0.0
 47
0.0
 47
1.0
 47
0.0
 47
0.0
 47
0.0
 47
0.0
 47
1.0
171
     0
 49
0.0208333333333333
 49
0.0
 49
0.0
 49
0.0
 49
0.0
 49
0.0208333333333333
 49
0.0
 49
0.0
 49
0.0
 49
0.0
 49
1.0
 49
0.0
 49
0.0
 49
0.0
 49
0.0
 49
1.0
175
     0
142
0.0208333333333333
142
0.0
142
0.0
142
0.0
142
0.0
142
0.0208333333333333
142
0.0
142
0.0
142
0.0
142
0.0
142
1.0
142
0.0
142
0.0
142
0.0
142
0.0
142
1.0
179
     0
144
0.0208333333333333
144
0.0
144
0.0
144
0.0
144
0.0
144
0.0208333333333333
144
0.0
144
0.0
144
0.0
144
0.0
144
1.0
144
0.0
144
0.0
144
0.0
144
0.0
144
1.0
147
0.0208333333333333
147
0.0
147
0.0
147
0.0
147
0.0
147
0.0208333333333333
147
0.0
147
0.0
147
0.0
147
0.0
147
1.0
147
0.0
147
0.0
147
0.0
147
0.0
147
1.0
  0
MLEADERSTYLE
  5
67
102
{ACAD_XDICTIONARY
360
15A
102
}
102
{ACAD_REACTORS
330
66
102
}
330
66
100
AcDbMLeaderStyle
179
     2
170
     2
171
     1
172
     0
 90
        2
 40
0.0
 41
0.0
173
     1
 91
-1056964608
340
5B
 92
       -2
290
     1
 42
0.09
291
     1
 43
0.36
  3
Standard
 44
0.18
300

342
55
174
     1
178
     6
175
     1
176
     0
 93
-1056964608
 45
0.18
292
     0
297
     0
 46
0.18
 94
-1056964608
 47
1.0
 49
1.0
140
1.0
293
     1
141
0.0
294
     1
177
     0
142
1.0
295
     0
296
     0
143
0.125
271
     0
272
     9
273
     9
  0
MLINESTYLE
  5
60
102
{ACAD_REACTORS
330
5F
102
}
330
5F
100
AcDbMlineStyle
  2
STANDARD
 70
     0
  3

 62
   256
 51
90.0
 52
90.0
 71
     2
 49
0.5
 62
   256
  6
BYLAYER
 49
-0.5
 62
   256
  6
BYLAYER
  0
ACDBPLACEHOLDER
  5
F
102
{ACAD_REACTORS
330
E
102
}
330
E
  0
SCALE
  5
43
102
{ACAD_REACTORS
330
42
102
}
330
42
100
AcDbScale
 70
     0
300
1:1
140
1.0
141
1.0
290
     1
  0
SCALE
  5
44
102
{ACAD_REACTORS
330
42
102
}
330
42
100
AcDbScale
 70
     0
300
1/128" = 1'-0"
140
0.0078125
141
12.0
290
     0
  0
SCALE
  5
45
102
{ACAD_REACTORS
330
42
102
}
330
42
100
AcDbScale
 70
     0
300
1/64" = 1'-0"
140
0.015625
141
12.0
290
     0
  0
SCALE
  5
46
102
{ACAD_REACTORS
330
42
102
}
330
42
100
AcDbScale
 70
     0
300
1/32" = 1'-0"
140
0.03125
141
12.0
290
     0
  0
SCALE
  5
47
102
{ACAD_REACTORS
330
42
102
}
330
42
100
AcDbScale
 70
     0
300
1/16" = 1'-0"
140
0.0625
141
12.0
290
     0
  0
SCALE
  5
48
102
{ACAD_REACTORS
330
42
102
}
330
42
100
AcDbScale
 70
     0
300
3/32" = 1'-0"
140
0.09375
141
12.0
290
     0
  0
SCALE
  5
49
102
{ACAD_REACTORS
330
42
102
}
330
42
100
AcDbScale
 70
     0
300
1/8" = 1'-0"
140
0.125
141
12.0
290
     0
  0
SCALE
  5
4A
102
{ACAD_REACTORS
330
42
102
}
330
42
100
AcDbScale
 70
     0
300
3/16" = 1'-0"
140
0.1875
141
12.0
290
     0
  0
SCALE
  5
4B
102
{ACAD_REACTORS
330
42
102
}
330
42
100
AcDbScale
 70
     0
300
1/4" = 1'-0"
140
0.25
141
12.0
290
     0
  0
SCALE
  5
4C
102
{ACAD_REACTORS
330
42
102
}
330
42
100
AcDbScale
 70
     0
300
3/8" = 1'-0"
140
0.375
141
12.0
290
     0
  0
SCALE
  5
4D
102
{ACAD_REACTORS
330
42
102
}
330
42
100
AcDbScale
 70
     0
300
1/2" = 1'-0"
140
0.5
141
12.0
290
     0
  0
SCALE
  5
4E
102
{ACAD_REACTORS
330
42
102
}
330
42
100
AcDbScale
 70
     0
300
3/4" = 1'-0"
140
0.75
141
12.0
290
     0
  0
SCALE
  5
4F
102
{ACAD_REACTORS
330
42
102
}
330
42
100
AcDbScale
 70
     0
300
1" = 1'-0"
140
1.0
141
12.0
290
     0
  0
SCALE
  5
50
102
{ACAD_REACTORS
330
42
102
}
330
42
100
AcDbScale
 70
     0
300
1-1/2" = 1'-0"
140
1.5
141
12.0
290
     0
  0
SCALE
  5
51
102
{ACAD_REACTORS
330
42
102
}
330
42
100
AcDbScale
 70
     0
300
3" = 1'-0"
140
3.0
141
12.0
290
     0
  0
SCALE
  5
52
102
{ACAD_REACTORS
330
42
102
}
330
42
100
AcDbScale
 70
     0
300
6" = 1'-0"
140
6.0
141
12.0
290
     0
  0
SCALE
  5
53
102
{ACAD_REACTORS
330
42
102
}
330
42
100
AcDbScale
 70
     0
300
1'-0" = 1'-0"
140
12.0
141
12.0
290
     0
  0
ACDBSECTIONVIEWSTYLE
  5
69
102
{ACAD_XDICTIONARY
360
15C
102
}
102
{ACAD_REACTORS
330
68
102
}
330
68
100
AcDbModelDocViewStyle
 70
     0
  3
Imperial24
290
     0
100
AcDbSectionViewStyle
 70
     0
 71
     0
 90
       78
 71
     1
340
55
 62
   256
 40
0.24
340
0
340
0
 62
   256
 40
0.24
300
I, O, Q, S, X, Z
 40
0.48
 90
        3
 40
0.18
 90
        1
 71
     2
340
5D
 90
       25
 62
   256
340
5D
 90
       50
 62
   256
 40
0.24
 40
0.0
 40
0.24
 71
     3
340
55
 62
   256
 40
0.24
 90
        1
 40
0.75
 90
        1
300
%<\AcVar ViewType \f "%tc1">% %<\AcVar ViewSectionStartId>%-%<\AcVar ViewSectionEndId>%\PSCALE %<\AcVar ViewScale \f "%sn">%
 71
     4
 62
   256
 62
   257
300
ANSI31
 40
1.0
 90
        0
290
     0
290
     0
 90
        6
 40
0.0
 40
1.570796326794896
 40
0.2617993877991494
 40
1.308996938995747
 40
-0.2617993877991494
 40
1.832595714594046
  0
TABLESTYLE
  5
65
102
{ACAD_XDICTIONARY
360
127
102
}
102
{ACAD_REACTORS
330
64
102
}
330
64
100
AcDbTableStyle
280
     0
  3
Standard
 70
     0
 71
     0
 40
0.06
 41
0.06
280
     0
281
     0
  7
Standard
140
0.18
170
     2
 62
     0
 63
     7
283
     0
 90
      512
 91
        0
  1

274
    -2
284
     1
 64
     0
275
    -2
285
     1
 65
     0
276
    -2
286
     1
 66
     0
277
    -2
287
     1
 67
     0
278
    -2
288
     1
 68
     0
279
    -2
289
     1
 69
     0
  7
Standard
140
0.25
170
     5
 62
     0
 63
     7
283
     0
 90
      512
 91
        0
  1

274
    -2
284
     1
 64
     0
275
    -2
285
     1
 65
     0
276
    -2
286
     1
 66
     0
277
    -2
287
     1
 67
     0
278
    -2
288
     1
 68
     0
279
    -2
289
     1
 69
     0
  7
Standard
140
0.18
170
     5
 62
     0
 63
     7
283
     0
 90
      512
 91
        0
  1

274
    -2
284
     1
 64
     0
275
    -2
285
     1
 65
     0
276
    -2
286
     1
 66
     0
277
    -2
287
     1
 67
     0
278
    -2
288
     1
 68
     0
279
    -2
289
     1
 69
     0
  0
VISUALSTYLE
  5
2F
102
{ACAD_XDICTIONARY
360
134
102
}
102
{ACAD_REACTORS
330
29
102
}
330
29
100
AcDbVisualStyle
  2
2dWireframe
 70
     4
177
     2
291
     0
 71
     0
176
     1
 72
     2
176
     1
 73
     0
176
     1
 90
        0
176
     1
 40
0.6
176
     1
 41
30.0
176
     1
 63
     7
421
 16777215
176
     1
 74
     1
176
     1
 91
        4
176
     1
 64
     7
176
     1
 65
   257
176
     1
 75
     1
176
     1
175
     1
176
     1
 42
1.0
176
     1
 92
        0
176
     1
 66
   257
176
     1
 43
1.0
176
     1
 76
     1
176
     1
 77
     6
176
     1
 78
     2
176
     1
 67
     7
176
     1
 79
     5
176
     1
170
     0
176
     1
171
     0
176
     1
290
     0
176
     1
 93
        1
176
     1
 44
0.0
176
     1
173
     0
176
     1
1001
ACAD
1000
AcDbSavedByObjectVersion
1070
     0
  0
VISUALSTYLE
  5
2E
102
{ACAD_XDICTIONARY
360
132
102
}
102
{ACAD_REACTORS
330
29
102
}
330
29
100
AcDbVisualStyle
  2
Basic
 70
     7
177
     2
291
     1
 71
     1
176
     1
 72
     0
176
     1
 73
     1
176
     1
 90
        0
176
     1
 40
0.6
176
     1
 41
30.0
176
     1
 63
     7
421
 16777215
176
     1
 74
     0
176
     1
 91
        4
176
     1
 64
     7
176
     1
 65
   257
176
     1
 75
     1
176
     1
175
     1
176
     1
 42
1.0
176
     1
 92
        8
176
     1
 66
     7
176
     1
 43
1.0
176
     1
 76
     1
176
     1
 77
     6
176
     1
 78
     2
176
     1
 67
     7
176
     1
 79
     5
176
     1
170
     0
176
     1
171
     0
176
     1
290
     0
176
     1
 93
        1
176
     1
 44
0.0
176
     1
173
     0
176
     1
1001
ACAD
1000
AcDbSavedByObjectVersion
1070
     0
  0
VISUALSTYLE
  5
35
102
{ACAD_XDICTIONARY
360
140
102
}
102
{ACAD_REACTORS
330
29
102
}
330
29
100
AcDbVisualStyle
  2
Brighten
 70
    12
177
     2
291
     1
 71
     2
176
     1
 72
     2
176
     1
 73
     0
176
     1
 90
        0
176
     1
 40
0.6
176
     1
 41
30.0
176
     1
 63
     7
421
 16777215
176
     1
 74
     1
176
     1
 91
        4
176
     1
 64
     7
176
     1
 65
   257
176
     1
 75
     1
176
     1
175
     1
176
     1
 42
1.0
176
     1
 92
        8
176
     1
 66
     7
176
     1
 43
1.0
176
     1
 76
     1
176
     1
 77
     6
176
     1
 78
     2
176
     1
 67
     7
176
     1
 79
     5
176
     1
170
     0
176
     1
171
     0
176
     1
290
     0
176
     1
 93
        1
176
     1
 44
50.0
176
     1
173
     0
176
     1
1001
ACAD
1000
AcDbSavedByObjectVersion
1070
     0
  0
VISUALSTYLE
  5
39
102
{ACAD_XDICTIONARY
360
148
102
}
102
{ACAD_REACTORS
330
29
102
}
330
29
100
AcDbVisualStyle
  2
ColorChange
 70
    16
177
     2
291
     1
 71
     2
176
     1
 72
     2
176
     1
 73
     3
176
     1
 90
        0
176
     1
 40
0.6
176
     1
 41
30.0
176
     1
 63
     8
421
  8421504
176
     1
 74
     1
176
     1
 91
        4
176
     1
 64
     7
176
     1
 65
   257
176
     1
 75
     1
176
     1
175
     1
176
     1
 42
1.0
176
     1
 92
        8
176
     1
 66
     8
424
  8421504
176
     1
 43
1.0
176
     1
 76
     1
176
     1
 77
     6
176
     1
 78
     2
176
     1
 67
     7
176
     1
 79
     5
176
     1
170
     0
176
     1
171
     0
176
     1
290
     0
176
     1
 93
        1
176
     1
 44
0.0
176
     1
173
     0
176
     1
1001
ACAD
1000
AcDbSavedByObjectVersion
1070
     0
  0
VISUALSTYLE
  5
32
102
{ACAD_XDICTIONARY
360
13A
102
}
102
{ACAD_REACTORS
330
29
102
}
330
29
100
AcDbVisualStyle
  2
Conceptual
 70
     9
177
     2
291
     0
 71
     3
176
     1
 72
     2
176
     1
 73
     0
176
     1
 90
        0
176
     1
 40
0.6
176
     1
 41
30.0
176
     1
 63
     7
421
 16777215
176
     1
 74
     2
176
     1
 91
        2
176
     1
 64
     7
176
     1
 65
   257
176
     1
 75
     1
176
     1
175
     1
176
     1
 42
179.0
176
     1
 92
        8
176
     1
 66
     7
176
     1
 43
1.0
176
     1
 76
     1
176
     1
 77
     6
176
     1
 78
     2
176
     1
 67
     7
176
     1
 79
     3
176
     1
170
     0
176
     1
171
     0
176
     1
290
     0
176
     1
 93
        1
176
     1
 44
0.0
176
     1
173
     0
176
     1
1001
ACAD
1000
AcDbSavedByObjectVersion
1070
     0
  0
VISUALSTYLE
  5
34
102
{ACAD_XDICTIONARY
360
13E
102
}
102
{ACAD_REACTORS
330
29
102
}
330
29
100
AcDbVisualStyle
  2
Dim
 70
    11
177
     2
291
     1
 71
     2
176
     1
 72
     2
176
     1
 73
     0
176
     1
 90
        0
176
     1
 40
0.6
176
     1
 41
30.0
176
     1
 63
     7
421
 16777215
176
     1
 74
     1
176
     1
 91
        4
176
     1
 64
     7
176
     1
 65
   257
176
     1
 75
     1
176
     1
175
     1
176
     1
 42
1.0
176
     1
 92
        8
176
     1
 66
     7
176
     1
 43
1.0
176
     1
 76
     1
176
     1
 77
     6
176
     1
 78
     2
176
     1
 67
     7
176
     1
 79
     5
176
     1
170
     0
176
     1
171
     0
176
     1
290
     0
176
     1
 93
        1
176
     1
 44
-50.0
176
     1
173
     0
176
     1
1001
ACAD
1000
AcDbSavedByObjectVersion
1070
     0
  0
VISUALSTYLE
  5
41
102
{ACAD_XDICTIONARY
360
158
102
}
102
{ACAD_REACTORS
330
29
102
}
330
29
100
AcDbVisualStyle
  2
EdgeColorOff
 70
    22
177
     2
291
     1
 71
     2
176
     0
 72
     2
176
     0
 73
     0
176
     0
 90
        0
176
     0
 40
0.6
176
     0
 41
30.0
176
     0
 63
     7
421
 16777215
176
     0
 74
     1
176
     0
 91
        4
176
     0
 64
     7
176
     0
 65
   257
176
     0
 75
     1
176
     0
175
     1
176
     0
 42
1.0
176
     0
 92
        8
176
     2
 66
     7
176
     0
 43
1.0
176
     0
 76
     1
176
     0
 77
     6
176
     0
 78
     2
176
     0
 67
     7
176
     0
 79
     5
176
     0
170
     0
176
     0
171
     0
176
     0
290
     0
176
     0
 93
        1
176
     0
 44
0.0
176
     0
173
     0
176
     0
1001
ACAD
1000
AcDbSavedByObjectVersion
1070
     0
  0
VISUALSTYLE
  5
38
102
{ACAD_XDICTIONARY
360
146
102
}
102
{ACAD_REACTORS
330
29
102
}
330
29
100
AcDbVisualStyle
  2
Facepattern
 70
    15
177
     2
291
     1
 71
     2
176
     1
 72
     2
176
     1
 73
     0
176
     1
 90
        0
176
     1
 40
0.6
176
     1
 41
30.0
176
     1
 63
     7
421
 16777215
176
     1
 74
     1
176
     1
 91
        4
176
     1
 64
     7
176
     1
 65
   257
176
     1
 75
     1
176
     1
175
     1
176
     1
 42
1.0
176
     1
 92
        8
176
     1
 66
     7
176
     1
 43
1.0
176
     1
 76
     1
176
     1
 77
     6
176
     1
 78
     2
176
     1
 67
     7
176
     1
 79
     5
176
     1
170
     0
176
     1
171
     0
176
     1
290
     0
176
     1
 93
        1
176
     1
 44
0.0
176
     1
173
     0
176
     1
1001
ACAD
1000
AcDbSavedByObjectVersion
1070
     0
  0
VISUALSTYLE
  5
2A
102
{ACAD_XDICTIONARY
360
12A
102
}
102
{ACAD_REACTORS
330
29
102
}
330
29
100
AcDbVisualStyle
  2
Flat
 70
     0
177
     2
291
     1
 71
     2
176
     1
 72
     1
176
     1
 73
     1
176
     1
 90
        2
176
     1
 40
0.6
176
     1
 41
30.0
176
     1
 63
     7
421
 16777215
176
     1
 74
     0
176
     1
 91
        0
176
     1
 64
     7
176
     1
 65
   257
176
     1
 75
     1
176
     1
175
     1
176
     1
 42
1.0
176
     1
 92
        8
176
     1
 66
     7
176
     1
 43
1.0
176
     1
 76
     1
176
     1
 77
     6
176
     1
 78
     2
176
     1
 67
     7
176
     1
 79
     5
176
     1
170
     0
176
     1
171
     0
176
     1
290
     0
176
     1
 93
       13
176
     1
 44
0.0
176
     1
173
     0
176
     1
1001
ACAD
1000
AcDbSavedByObjectVersion
1070
     0
  0
VISUALSTYLE
  5
2B
102
{ACAD_XDICTIONARY
360
12C
102
}
102
{ACAD_REACTORS
330
29
102
}
330
29
100
AcDbVisualStyle
  2
FlatWithEdges
 70
     1
177
     2
291
     1
 71
     2
176
     1
 72
     1
176
     1
 73
     1
176
     1
 90
        2
176
     1
 40
0.6
176
     1
 41
30.0
176
     1
 63
     7
421
 16777215
176
     1
 74
     1
176
     1
 91
        0
176
     1
 64
     7
176
     1
 65
   257
176
     1
 75
     1
176
     1
175
     1
176
     1
 42
1.0
176
     1
 92
        0
176
     1
 66
   257
176
     1
 43
1.0
176
     1
 76
     1
176
     1
 77
     6
176
     1
 78
     2
176
     1
 67
     7
176
     1
 79
     5
176
     1
170
     0
176
     1
171
     0
176
     1
290
     0
176
     1
 93
       13
176
     1
 44
0.0
176
     1
173
     0
176
     1
1001
ACAD
1000
AcDbSavedByObjectVersion
1070
     0
  0
VISUALSTYLE
  5
2C
102
{ACAD_XDICTIONARY
360
12E
102
}
102
{ACAD_REACTORS
330
29
102
}
330
29
100
AcDbVisualStyle
  2
Gouraud
 70
     2
177
     2
291
     1
 71
     2
176
     1
 72
     2
176
     1
 73
     1
176
     1
 90
        2
176
     1
 40
0.6
176
     1
 41
30.0
176
     1
 63
     7
421
 16777215
176
     1
 74
     0
176
     1
 91
        0
176
     1
 64
     7
176
     1
 65
   257
176
     1
 75
     1
176
     1
175
     1
176
     1
 42
1.0
176
     1
 92
        0
176
     1
 66
     7
176
     1
 43
1.0
176
     1
 76
     1
176
     1
 77
     6
176
     1
 78
     2
176
     1
 67
     7
176
     1
 79
     5
176
     1
170
     0
176
     1
171
     0
176
     1
290
     0
176
     1
 93
       13
176
     1
 44
0.0
176
     1
173
     0
176
     1
1001
ACAD
1000
AcDbSavedByObjectVersion
1070
     0
  0
VISUALSTYLE
  5
2D
102
{ACAD_XDICTIONARY
360
130
102
}
102
{ACAD_REACTORS
330
29
102
}
330
29
100
AcDbVisualStyle
  2
GouraudWithEdges
 70
     3
177
     2
291
     1
 71
     2
176
     1
 72
     2
176
     1
 73
     1
176
     1
 90
        2
176
     1
 40
0.6
176
     1
 41
30.0
176
     1
 63
     7
421
 16777215
176
     1
 74
     1
176
     1
 91
        0
176
     1
 64
     7
176
     1
 65
   257
176
     1
 75
     1
176
     1
175
     1
176
     1
 42
1.0
176
     1
 92
        0
176
     1
 66
   257
176
     1
 43
1.0
176
     1
 76
     1
176
     1
 77
     6
176
     1
 78
     2
176
     1
 67
     7
176
     1
 79
     5
176
     1
170
     0
176
     1
171
     0
176
     1
290
     0
176
     1
 93
       13
176
     1
 44
0.0
176
     1
173
     0
176
     1
1001
ACAD
1000
AcDbSavedByObjectVersion
1070
     0
  0
VISUALSTYLE
  5
31
102
{ACAD_XDICTIONARY
360
138
102
}
102
{ACAD_REACTORS
330
29
102
}
330
29
100
AcDbVisualStyle
  2
Hidden
 70
     6
177
     2
291
     0
 71
     1
176
     1
 72
     2
176
     1
 73
     2
176
     1
 90
        0
176
     1
 40
0.6
176
     1
 41
30.0
176
     1
 63
     7
421
 16777215
176
     1
 74
     2
176
     1
 91
        2
176
     1
 64
     7
176
     1
 65
   257
176
     1
 75
     2
176
     1
175
     1
176
     1
 42
40.0
176
     1
 92
        0
176
     1
 66
   257
176
     1
 43
1.0
176
     1
 76
     1
176
     1
 77
     6
176
     1
 78
     2
176
     1
 67
     7
176
     1
 79
     3
176
     1
170
     0
176
     1
171
     0
176
     1
290
     0
176
     1
 93
        1
176
     1
 44
0.0
176
     1
173
     0
176
     1
1001
ACAD
1000
AcDbSavedByObjectVersion
1070
     0
  0
VISUALSTYLE
  5
3F
102
{ACAD_XDICTIONARY
360
154
102
}
102
{ACAD_REACTORS
330
29
102
}
330
29
100
AcDbVisualStyle
  2
JitterOff
 70
    20
177
     2
291
     1
 71
     2
176
     0
 72
     2
176
     0
 73
     0
176
     0
 90
        0
176
     0
 40
0.6
176
     0
 41
30.0
176
     0
 63
     7
421
 16777215
176
     0
 74
     1
176
     0
 91
        4
176
     0
 64
     7
176
     0
 65
   257
176
     0
 75
     1
176
     0
175
     1
176
     0
 42
1.0
176
     0
 92
       10
176
     2
 66
     7
176
     0
 43
1.0
176
     0
 76
     1
176
     0
 77
     6
176
     0
 78
     2
176
     0
 67
     7
176
     0
 79
     5
176
     0
170
     0
176
     0
171
     0
176
     0
290
     0
176
     0
 93
        1
176
     0
 44
0.0
176
     0
173
     0
176
     0
1001
ACAD
1000
AcDbSavedByObjectVersion
1070
     0
  0
VISUALSTYLE
  5
37
102
{ACAD_XDICTIONARY
360
144
102
}
102
{ACAD_REACTORS
330
29
102
}
330
29
100
AcDbVisualStyle
  2
Linepattern
 70
    14
177
     2
291
     1
 71
     2
176
     1
 72
     2
176
     1
 73
     0
176
     1
 90
        0
176
     1
 40
0.6
176
     1
 41
30.0
176
     1
 63
     7
421
 16777215
176
     1
 74
     1
176
     1
 91
        4
176
     1
 64
     7
176
     1
 65
   257
176
     1
 75
     7
176
     1
175
     7
176
     1
 42
1.0
176
     1
 92
        8
176
     1
 66
     7
176
     1
 43
1.0
176
     1
 76
     1
176
     1
 77
     6
176
     1
 78
     2
176
     1
 67
     7
176
     1
 79
     5
176
     1
170
     0
176
     1
171
     0
176
     1
290
     0
176
     1
 93
        1
176
     1
 44
0.0
176
     1
173
     0
176
     1
1001
ACAD
1000
AcDbSavedByObjectVersion
1070
     0
  0
VISUALSTYLE
  5
40
102
{ACAD_XDICTIONARY
360
156
102
}
102
{ACAD_REACTORS
330
29
102
}
330
29
100
AcDbVisualStyle
  2
OverhangOff
 70
    21
177
     2
291
     1
 71
     2
176
     0
 72
     2
176
     0
 73
     0
176
     0
 90
        0
176
     0
 40
0.6
176
     0
 41
30.0
176
     0
 63
     7
421
 16777215
176
     0
 74
     1
176
     0
 91
        4
176
     0
 64
     7
176
     0
 65
   257
176
     0
 75
     1
176
     0
175
     1
176
     0
 42
1.0
176
     0
 92
        9
176
     2
 66
     7
176
     0
 43
1.0
176
     0
 76
     1
176
     0
 77
     6
176
     0
 78
     2
176
     0
 67
     7
176
     0
 79
     5
176
     0
170
     0
176
     0
171
     0
176
     0
290
     0
176
     0
 93
        1
176
     0
 44
0.0
176
     0
173
     0
176
     0
1001
ACAD
1000
AcDbSavedByObjectVersion
1070
     0
  0
VISUALSTYLE
  5
33
102
{ACAD_XDICTIONARY
360
13C
102
}
102
{ACAD_REACTORS
330
29
102
}
330
29
100
AcDbVisualStyle
  2
Realistic
 70
     8
177
     2
291
     0
 71
     2
176
     1
 72
     3
176
     1
 73
     0
176
     1
 90
        2
176
     1
 40
0.6
176
     1
 41
30.0
176
     1
 63
     7
421
 16777215
176
     1
 74
     0
176
     1
 91
        0
176
     1
 64
     7
176
     1
 65
   257
176
     1
 75
     1
176
     1
175
     1
176
     1
 42
1.0
176
     1
 92
        8
176
     1
 66
   257
176
     1
 43
1.0
176
     1
 76
     1
176
     1
 77
     6
176
     1
 78
     2
176
     1
 67
     7
176
     1
 79
     3
176
     1
170
     0
176
     1
171
     0
176
     1
290
     0
176
     1
 93
       13
176
     1
 44
0.0
176
     1
173
     0
176
     1
1001
ACAD
1000
AcDbSavedByObjectVersion
1070
     0
  0
VISUALSTYLE
  5
3E
102
{ACAD_XDICTIONARY
360
152
102
}
102
{ACAD_REACTORS
330
29
102
}
330
29
100
AcDbVisualStyle
  2
Shaded
 70
    27
177
     2
291
     0
 71
     2
176
     1
 72
     2
176
     1
 73
     1
176
     1
 90
        2
176
     1
 40
0.6
176
     1
 41
30.0
176
     1
 63
     7
421
 16777215
176
     1
 74
     0
176
     1
 91
        4
176
     1
 64
     7
176
     1
 65
   257
176
     1
 75
     1
176
     1
175
     1
176
     1
 42
1.0
176
     1
 92
        8
176
     1
 66
   257
176
     1
 43
1.0
176
     1
 76
     1
176
     1
 77
     6
176
     1
 78
     2
176
     1
 67
     8
425
  7895160
176
     1
 79
     3
176
     1
170
     0
176
     1
171
     0
176
     1
290
     0
176
     1
 93
        5
176
     1
 44
0.0
176
     1
173
     0
176
     1
1001
ACAD
1000
AcDbSavedByObjectVersion
1070
     0
  0
VISUALSTYLE
  5
3D
102
{ACAD_XDICTIONARY
360
150
102
}
102
{ACAD_REACTORS
330
29
102
}
330
29
100
AcDbVisualStyle
  2
Shaded with edges
 70
    26
177
     2
291
     0
 71
     2
176
     1
 72
     2
176
     1
 73
     1
176
     1
 90
        2
176
     1
 40
0.6
176
     1
 41
30.0
176
     1
 63
     7
421
 16777215
176
     1
 74
     1
176
     1
 91
        2
176
     1
 64
     7
176
     1
 65
   257
176
     1
 75
     2
176
     1
175
     1
176
     1
 42
1.0
176
     1
 92
        8
176
     1
 66
   257
176
     1
 43
1.0
176
     1
 76
     1
176
     1
 77
     6
176
     1
 78
     2
176
     1
 67
     7
176
     1
 79
     3
176
     1
170
     0
176
     1
171
     0
176
     1
290
     0
176
     1
 93
        5
176
     1
 44
0.0
176
     1
173
     0
176
     1
1001
ACAD
1000
AcDbSavedByObjectVersion
1070
     0
  0
VISUALSTYLE
  5
3A
102
{ACAD_XDICTIONARY
360
14A
102
}
102
{ACAD_REACTORS
330
29
102
}
330
29
100
AcDbVisualStyle
  2
Shades of Gray
 70
    23
177
     2
291
     0
 71
     2
176
     1
 72
     2
176
     1
 73
     3
176
     1
 90
        0
176
     1
 40
0.6
176
     1
 41
30.0
176
     1
 63
     7
421
 16777215
176
     1
 74
     2
176
     1
 91
        2
176
     1
 64
     7
176
     1
 65
     7
176
     1
 75
     1
176
     1
175
     1
176
     1
 42
40.0
176
     1
 92
        8
176
     1
 66
     7
176
     1
 43
1.0
176
     1
 76
     1
176
     1
 77
     6
176
     1
 78
     2
176
     1
 67
     7
176
     1
 79
     3
176
     1
170
     0
176
     1
171
     0
176
     1
290
     0
176
     1
 93
        1
176
     1
 44
0.0
176
     1
173
     0
176
     1
1001
ACAD
1000
AcDbSavedByObjectVersion
1070
     0
  0
VISUALSTYLE
  5
3B
102
{ACAD_XDICTIONARY
360
14C
102
}
102
{ACAD_REACTORS
330
29
102
}
330
29
100
AcDbVisualStyle
  2
Sketchy
 70
    24
177
     2
291
     0
 71
     1
176
     1
 72
     2
176
     1
 73
     2
176
     1
 90
        0
176
     1
 40
0.6
176
     1
 41
30.0
176
     1
 63
     7
421
 16777215
176
     1
 74
     2
176
     1
 91
        2
176
     1
 64
     7
176
     1
 65
     7
176
     1
 75
     1
176
     1
175
     1
176
     1
 42
40.0
176
     1
 92
       11
176
     1
 66
     7
176
     1
 43
1.0
176
     1
 76
     1
176
     1
 77
     6
176
     1
 78
     2
176
     1
 67
     7
176
     1
 79
     6
176
     1
170
     0
176
     1
171
     0
176
     1
290
     0
176
     1
 93
        1
176
     1
 44
0.0
176
     1
173
     0
176
     1
1001
ACAD
1000
AcDbSavedByObjectVersion
1070
     0
  0
VISUALSTYLE
  5
36
102
{ACAD_XDICTIONARY
360
142
102
}
102
{ACAD_REACTORS
330
29
102
}
330
29
100
AcDbVisualStyle
  2
Thicken
 70
    13
177
     2
291
     1
 71
     2
176
     1
 72
     2
176
     1
 73
     0
176
     1
 90
        0
176
     1
 40
0.6
176
     1
 41
30.0
176
     1
 63
     7
421
 16777215
176
     1
 74
     1
176
     1
 91
        4
176
     1
 64
     7
176
     1
 65
   257
176
     1
 75
     1
176
     1
175
     1
176
     1
 42
1.0
176
     1
 92
       12
176
     1
 66
     7
176
     1
 43
1.0
176
     1
 76
     1
176
     1
 77
     6
176
     1
 78
     2
176
     1
 67
     7
176
     1
 79
     5
176
     1
170
     0
176
     1
171
     0
176
     1
290
     0
176
     1
 93
        1
176
     1
 44
0.0
176
     1
173
     0
176
     1
1001
ACAD
1000
AcDbSavedByObjectVersion
1070
     0
  0
VISUALSTYLE
  5
30
102
{ACAD_XDICTIONARY
360
136
102
}
102
{ACAD_REACTORS
330
29
102
}
330
29
100
AcDbVisualStyle
  2
Wireframe
 70
     5
177
     2
291
     0
 71
     0
176
     1
 72
     2
176
     1
 73
     0
176
     1
 90
        0
176
     1
 40
0.6
176
     1
 41
30.0
176
     1
 63
     7
421
 16777215
176
     1
 74
     1
176
     1
 91
        4
176
     1
 64
     7
176
     1
 65
   257
176
     1
 75
     1
176
     1
175
     1
176
     1
 42
1.0
176
     1
 92
        0
176
     1
 66
   257
176
     1
 43
1.0
176
     1
 76
     1
176
     1
 77
     6
176
     1
 78
     2
176
     1
 67
     7
176
     1
 79
     3
176
     1
170
     0
176
     1
171
     0
176
     1
290
     0
176
     1
 93
        1
176
     1
 44
0.0
176
     1
173
     0
176
     1
1001
ACAD
1000
AcDbSavedByObjectVersion
1070
     0
  0
VISUALSTYLE
  5
3C
102
{ACAD_XDICTIONARY
360
14E
102
}
102
{ACAD_REACTORS
330
29
102
}
330
29
100
AcDbVisualStyle
  2
X-Ray
 70
    25
177
     2
291
     0
 71
     2
176
     1
 72
     2
176
     1
 73
     1
176
     1
 90
        1
176
     1
 40
0.5
176
     1
 41
30.0
176
     1
 63
     7
421
 16777215
176
     1
 74
     1
176
     1
 91
        0
176
     1
 64
     7
176
     1
 65
   257
176
     1
 75
     1
176
     1
175
     1
176
     1
 42
1.0
176
     1
 92
        8
176
     1
 66
     7
176
     1
 43
1.0
176
     1
 76
     1
176
     1
 77
     6
176
     1
 78
     2
176
     1
 67
     7
176
     1
 79
     3
176
     1
170
     0
176
     1
171
     0
176
     1
290
     0
176
     1
 93
       13
176
     1
 44
0.0
176
     1
173
     0
176
     1
1001
ACAD
1000
AcDbSavedByObjectVersion
1070
     0
  0
DICTIONARYVAR
  5
126
102
{ACAD_REACTORS
330
121
102
}
330
121
100
DictionaryVariables
280
     0
  1
1:1
  0
DICTIONARYVAR
  5
123
102
{ACAD_REACTORS
330
121
102
}
330
121
100
DictionaryVariables
280
     0
  1
STANDARD
  0
DICTIONARYVAR
  5
122
102
{ACAD_REACTORS
330
121
102
}
330
121
100
DictionaryVariables
280
     0
  1
STANDARD
  0
DICTIONARYVAR
  5
124
102
{ACAD_REACTORS
330
121
102
}
330
121
100
DictionaryVariables
280
     0
  1
Imperial24
  0
DICTIONARYVAR
  5
125
102
{ACAD_REACTORS
330
121
102
}
330
121
100
DictionaryVariables
280
     0
  1
Imperial24
  0
DICTIONARY
  5
15E
330
6B
100
AcDbDictionary
280
     1
281
     1
  3
ACAD_XREC_ROUNDTRIP
360
15F
  0
DICTIONARY
  5
1A
330
19
100
AcDbDictionary
280
     1
281
     1
  3
BUMPTILE
360
1C
  3
DIFFUSETILE
360
1B
  3
OPACITYTILE
360
1F
  3
REFLECTIONTILE
360
1E
  3
REFRACTIONTILE
360
20
  3
SPECULARTILE
360
1D
  0
DICTIONARY
  5
12
330
11
100
AcDbDictionary
280
     1
281
     1
  3
BUMPTILE
360
14
  3
DIFFUSETILE
360
13
  3
OPACITYTILE
360
17
  3
REFLECTIONTILE
360
16
  3
REFRACTIONTILE
360
18
  3
SPECULARTILE
360
15
  0
DICTIONARY
  5
22
330
21
100
AcDbDictionary
280
     1
281
     1
  3
BUMPTILE
360
24
  3
DIFFUSETILE
360
23
  3
OPACITYTILE
360
27
  3
REFLECTIONTILE
360
26
  3
REFRACTIONTILE
360
28
  3
SPECULARTILE
360
25
  0
DICTIONARY
  5
15A
330
67
100
AcDbDictionary
280
     1
281
     1
  3
ACAD_XREC_ROUNDTRIP
360
15B
  0
DICTIONARY
  5
15C
330
69
100
AcDbDictionary
280
     1
281
     1
  3
ACAD_XREC_ROUNDTRIP
360
15D
  0
DICTIONARY
  5
127
330
65
100
AcDbDictionary
280
     1
281
     1
  3
ACAD_ROUNDTRIP_2008_TABLESTYLE_CELLSTYLEMAP
360
128
  0
DICTIONARY
  5
134
330
2F
100
AcDbDictionary
280
     1
281
     1
  3
ACAD_XREC_ROUNDTRIP
360
135
  0
DICTIONARY
  5
132
330
2E
100
AcDbDictionary
280
     1
281
     1
  3
ACAD_XREC_ROUNDTRIP
360
133
  0
DICTIONARY
  5
140
330
35
100
AcDbDictionary
280
     1
281
     1
  3
ACAD_XREC_ROUNDTRIP
360
141
  0
DICTIONARY
  5
148
330
39
100
AcDbDictionary
280
     1
281
     1
  3
ACAD_XREC_ROUNDTRIP
360
149
  0
DICTIONARY
  5
13A
330
32
100
AcDbDictionary
280
     1
281
     1
  3
ACAD_XREC_ROUNDTRIP
360
13B
  0
DICTIONARY
  5
13E
330
34
100
AcDbDictionary
280
     1
281
     1
  3
ACAD_XREC_ROUNDTRIP
360
13F
  0
DICTIONARY
  5
158
330
41
100
AcDbDictionary
280
     1
281
     1
  3
ACAD_XREC_ROUNDTRIP
360
159
  0
DICTIONARY
  5
146
330
38
100
AcDbDictionary
280
     1
281
     1
  3
ACAD_XREC_ROUNDTRIP
360
147
  0
DICTIONARY
  5
12A
330
2A
100
AcDbDictionary
280
     1
281
     1
  3
ACAD_XREC_ROUNDTRIP
360
12B
  0
DICTIONARY
  5
12C
330
2B
100
AcDbDictionary
280
     1
281
     1
  3
ACAD_XREC_ROUNDTRIP
360
12D
  0
DICTIONARY
  5
12E
330
2C
100
AcDbDictionary
280
     1
281
     1
  3
ACAD_XREC_ROUNDTRIP
360
12F
  0
DICTIONARY
  5
130
330
2D
100
AcDbDictionary
280
     1
281
     1
  3
ACAD_XREC_ROUNDTRIP
360
131
  0
DICTIONARY
  5
138
330
31
100
AcDbDictionary
280
     1
281
     1
  3
ACAD_XREC_ROUNDTRIP
360
139
  0
DICTIONARY
  5
154
330
3F
100
AcDbDictionary
280
     1
281
     1
  3
ACAD_XREC_ROUNDTRIP
360
155
  0
DICTIONARY
  5
144
330
37
100
AcDbDictionary
280
     1
281
     1
  3
ACAD_XREC_ROUNDTRIP
360
145
  0
DICTIONARY
  5
156
330
40
100
AcDbDictionary
280
     1
281
     1
  3
ACAD_XREC_ROUNDTRIP
360
157
  0
DICTIONARY
  5
13C
330
33
100
AcDbDictionary
280
     1
281
     1
  3
ACAD_XREC_ROUNDTRIP
360
13D
  0
DICTIONARY
  5
152
330
3E
100
AcDbDictionary
280
     1
281
     1
  3
ACAD_XREC_ROUNDTRIP
360
153
  0
DICTIONARY
  5
150
330
3D
100
AcDbDictionary
280
     1
281
     1
  3
ACAD_XREC_ROUNDTRIP
360
151
  0
DICTIONARY
  5
14A
330
3A
100
AcDbDictionary
280
     1
281
     1
  3
ACAD_XREC_ROUNDTRIP
360
14B
  0
DICTIONARY
  5
14C
330
3B
100
AcDbDictionary
280
     1
281
     1
  3
ACAD_XREC_ROUNDTRIP
360
14D
  0
DICTIONARY
  5
142
330
36
100
AcDbDictionary
280
     1
281
     1
  3
ACAD_XREC_ROUNDTRIP
360
143
  0
DICTIONARY
  5
136
330
30
100
AcDbDictionary
280
     1
281
     1
  3
ACAD_XREC_ROUNDTRIP
360
137
  0
DICTIONARY
  5
14E
330
3C
100
AcDbDictionary
280
     1
281
     1
  3
ACAD_XREC_ROUNDTRIP
360
14F
  0
XRECORD
  5
15F
102
{ACAD_REACTORS
330
15E
102
}
330
15E
100
AcDbXrecord
280
     1
102
DISPLAYNAME
  1
Imperial24
102
FLAGS
 90
        0
  0
XRECORD
  5
1C
102
{ACAD_REACTORS
330
1A
102
}
330
1A
100
AcDbXrecord
280
     1
270
     1
271
     1
  0
XRECORD
  5
1B
102
{ACAD_REACTORS
330
1A
102
}
330
1A
100
AcDbXrecord
280
     1
270
     1
271
     1
  0
XRECORD
  5
1F
102
{ACAD_REACTORS
330
1A
102
}
330
1A
100
AcDbXrecord
280
     1
270
     1
271
     1
  0
XRECORD
  5
1E
102
{ACAD_REACTORS
330
1A
102
}
330
1A
100
AcDbXrecord
280
     1
270
     1
271
     1
  0
XRECORD
  5
20
102
{ACAD_REACTORS
330
1A
102
}
330
1A
100
AcDbXrecord
280
     1
270
     1
271
     1
  0
XRECORD
  5
1D
102
{ACAD_REACTORS
330
1A
102
}
330
1A
100
AcDbXrecord
280
     1
270
     1
271
     1
  0
XRECORD
  5
14
102
{ACAD_REACTORS
330
12
102
}
330
12
100
AcDbXrecord
280
     1
270
     1
271
     1
  0
XRECORD
  5
13
102
{ACAD_REACTORS
330
12
102
}
330
12
100
AcDbXrecord
280
     1
270
     1
271
     1
  0
XRECORD
  5
17
102
{ACAD_REACTORS
330
12
102
}
330
12
100
AcDbXrecord
280
     1
270
     1
271
     1
  0
XRECORD
  5
16
102
{ACAD_REACTORS
330
12
102
}
330
12
100
AcDbXrecord
280
     1
270
     1
271
     1
  0
XRECORD
  5
18
102
{ACAD_REACTORS
330
12
102
}
330
12
100
AcDbXrecord
280
     1
270
     1
271
     1
  0
XRECORD
  5
15
102
{ACAD_REACTORS
330
12
102
}
330
12
100
AcDbXrecord
280
     1
270
     1
271
     1
  0
XRECORD
  5
24
102
{ACAD_REACTORS
330
22
102
}
330
22
100
AcDbXrecord
280
     1
270
     1
271
     1
  0
XRECORD
  5
23
102
{ACAD_REACTORS
330
22
102
}
330
22
100
AcDbXrecord
280
     1
270
     1
271
     1
  0
XRECORD
  5
27
102
{ACAD_REACTORS
330
22
102
}
330
22
100
AcDbXrecord
280
     1
270
     1
271
     1
  0
XRECORD
  5
26
102
{ACAD_REACTORS
330
22
102
}
330
22
100
AcDbXrecord
280
     1
270
     1
271
     1
  0
XRECORD
  5
28
102
{ACAD_REACTORS
330
22
102
}
330
22
100
AcDbXrecord
280
     1
270
     1
271
     1
  0
XRECORD
  5
25
102
{ACAD_REACTORS
330
22
102
}
330
22
100
AcDbXrecord
280
     1
270
     1
271
     1
  0
XRECORD
  5
15B
102
{ACAD_REACTORS
330
15A
102
}
330
15A
100
AcDbXrecord
280
     1
102
ACAD_ROUNDTRIP_2012_MLEADER_STYLE
298
     1
  0
XRECORD
  5
15D
102
{ACAD_REACTORS
330
15C
102
}
330
15C
100
AcDbXrecord
280
     1
102
DISPLAYNAME
  1
Imperial24
102
FLAGS
 90
        0
  0
CELLSTYLEMAP
  5
128
102
{ACAD_REACTORS
330
127
102
}
330
127
100
AcDbCellStyleMap
 90
        3
300
CELLSTYLE
  1
TABLEFORMAT_BEGIN
 90
        5
170
     1
 91
        0
 92
    32768
 62
   257
 93
        1
300
CONTENTFORMAT
  1
CONTENTFORMAT_BEGIN
 90
        0
 91
        0
 92
      512
 93
        0
300

 40
0.0
140
1.0
 94
        5
 62
     0
340
55
144
0.25
309
CONTENTFORMAT_END
171
     0
 94
        0
309
TABLEFORMAT_END
  1
CELLSTYLE_BEGIN
 90
        1
 91
        1
300
_TITLE
309
CELLSTYLE_END
300
CELLSTYLE
  1
TABLEFORMAT_BEGIN
 90
        5
170
     1
 91
        0
 92
        0
 62
   257
 93
        1
300
CONTENTFORMAT
  1
CONTENTFORMAT_BEGIN
 90
        0
 91
        0
 92
      512
 93
        0
300

 40
0.0
140
1.0
 94
        5
 62
     0
340
55
144
0.18
309
CONTENTFORMAT_END
171
     0
 94
        0
309
TABLEFORMAT_END
  1
CELLSTYLE_BEGIN
 90
        2
 91
        1
300
_HEADER
309
CELLSTYLE_END
300
CELLSTYLE
  1
TABLEFORMAT_BEGIN
 90
        5
170
     1
 91
        0
 92
        0
 62
   257
 93
        1
300
CONTENTFORMAT
  1
CONTENTFORMAT_BEGIN
 90
        0
 91
        0
 92
      512
 93
        0
300

 40
0.0
140
1.0
 94
        2
 62
     0
340
55
144
0.18
309
CONTENTFORMAT_END
171
     0
 94
        0
309
TABLEFORMAT_END
  1
CELLSTYLE_BEGIN
 90
        3
 91
        2
300
_DATA
309
CELLSTYLE_END
  0
XRECORD
  5
135
102
{ACAD_REACTORS
330
134
102
}
330
134
100
AcDbXrecord
280
     1
102
RTVSPost2010Prop28
280
     1
102
RTVSPost2010PropOp28
 70
     1
102
RTVSPost2010Prop29
280
     1
102
RTVSPost2010PropOp29
 70
     1
102
RTVSPost2010Prop30
280
     0
102
RTVSPost2010PropOp30
 70
     1
102
RTVSPost2010Prop31
280
     0
102
RTVSPost2010PropOp31
 70
     1
102
RTVSPost2010Prop32
280
     0
102
RTVSPost2010PropOp32
 70
     1
102
RTVSPost2010Prop33
280
     0
102
RTVSPost2010PropOp33
 70
     1
102
RTVSPost2010Prop34
280
     0
102
RTVSPost2010PropOp34
 70
     1
102
RTVSPost2010Prop35
280
     0
102
RTVSPost2010PropOp35
 70
     1
102
RTVSPost2010Prop36
280
     0
102
RTVSPost2010PropOp36
 70
     1
102
RTVSPost2010Prop37
 90
       50
102
RTVSPost2010PropOp37
 70
     1
102
RTVSPost2010Prop38
140
0.0
102
RTVSPost2010PropOp38
 70
     1
102
RTVSPost2010Prop39
140
1.0
102
RTVSPost2010PropOp39
 70
     1
102
RTVSPost2010Prop40
 90
        0
102
RTVSPost2010PropOp40
 70
     1
102
RTVSPost2010Prop41ColorIndex
 90
       18
102
RTVSPost2010Prop41ColorRGB
 90
        0
102
RTVSPost2010PropOp41
 70
     1
102
RTVSPost2010Prop42
 90
       50
102
RTVSPost2010PropOp42
 70
     1
102
RTVSPost2010Prop43
 90
        3
102
RTVSPost2010PropOp43
 70
     1
102
RTVSPost2010Prop44ColorIndex
 90
        5
102
RTVSPost2010Prop44ColorRGB
 90
      255
102
RTVSPost2010PropOp44
 70
     1
102
RTVSPost2010Prop45
280
     0
102
RTVSPost2010PropOp45
 70
     1
102
RTVSPost2010Prop46
 90
       50
102
RTVSPost2010PropOp46
 70
     1
102
RTVSPost2010Prop47
 90
       50
102
RTVSPost2010PropOp47
 70
     1
102
RTVSPost2010Prop48
 90
       50
102
RTVSPost2010PropOp48
 70
     1
102
RTVSPost2010Prop49
280
     0
102
RTVSPost2010PropOp49
 70
     1
102
RTVSPost2010Prop50
 90
       50
102
RTVSPost2010PropOp50
 70
     1
102
RTVSPost2010Prop51ColorIndex
 90
      256
102
RTVSPost2010Prop51ColorRGB
 90
-16777216
102
RTVSPost2010PropOp51
 70
     0
102
RTVSPost2010Prop52
140
1.0
102
RTVSPost2010PropOp52
 70
     0
102
RTVSPost2010Prop53
 90
        2
102
RTVSPost2010PropOp53
 70
     1
102
RTVSPost2010Prop54
  1
strokes_ogs.tif
102
RTVSPost2010PropOp54
 70
     1
102
RTVSPost2010Prop55
280
     0
102
RTVSPost2010PropOp55
 70
     1
102
RTVSPost2010Prop56
140
1.0
102
RTVSPost2010PropOp56
 70
     1
102
RTVSPost2010Prop57
140
1.0
102
RTVSPost2010PropOp57
 70
     1
  0
XRECORD
  5
133
102
{ACAD_REACTORS
330
132
102
}
330
132
100
AcDbXrecord
280
     1
102
RTVSPost2010Prop28
280
     0
102
RTVSPost2010PropOp28
 70
     1
102
RTVSPost2010Prop29
280
     1
102
RTVSPost2010PropOp29
 70
     1
102
RTVSPost2010Prop30
280
     1
102
RTVSPost2010PropOp30
 70
     1
102
RTVSPost2010Prop31
280
     0
102
RTVSPost2010PropOp31
 70
     1
102
RTVSPost2010Prop32
280
     0
102
RTVSPost2010PropOp32
 70
     1
102
RTVSPost2010Prop33
280
     0
102
RTVSPost2010PropOp33
 70
     1
102
RTVSPost2010Prop34
280
     0
102
RTVSPost2010PropOp34
 70
     1
102
RTVSPost2010Prop35
280
     0
102
RTVSPost2010PropOp35
 70
     1
102
RTVSPost2010Prop36
280
     0
102
RTVSPost2010PropOp36
 70
     1
102
RTVSPost2010Prop37
 90
       50
102
RTVSPost2010PropOp37
 70
     1
102
RTVSPost2010Prop38
140
0.0
102
RTVSPost2010PropOp38
 70
     1
102
RTVSPost2010Prop39
140
1.0
102
RTVSPost2010PropOp39
 70
     1
102
RTVSPost2010Prop40
 90
        0
102
RTVSPost2010PropOp40
 70
     1
102
RTVSPost2010Prop41ColorIndex
 90
       18
102
RTVSPost2010Prop41ColorRGB
 90
        0
102
RTVSPost2010PropOp41
 70
     1
102
RTVSPost2010Prop42
 90
       50
102
RTVSPost2010PropOp42
 70
     1
102
RTVSPost2010Prop43
 90
        3
102
RTVSPost2010PropOp43
 70
     1
102
RTVSPost2010Prop44ColorIndex
 90
        5
102
RTVSPost2010Prop44ColorRGB
 90
      255
102
RTVSPost2010PropOp44
 70
     1
102
RTVSPost2010Prop45
280
     0
102
RTVSPost2010PropOp45
 70
     1
102
RTVSPost2010Prop46
 90
       50
102
RTVSPost2010PropOp46
 70
     1
102
RTVSPost2010Prop47
 90
       50
102
RTVSPost2010PropOp47
 70
     1
102
RTVSPost2010Prop48
 90
       50
102
RTVSPost2010PropOp48
 70
     1
102
RTVSPost2010Prop49
280
     0
102
RTVSPost2010PropOp49
 70
     1
102
RTVSPost2010Prop50
 90
       50
102
RTVSPost2010PropOp50
 70
     1
102
RTVSPost2010Prop51ColorIndex
 90
      256
102
RTVSPost2010Prop51ColorRGB
 90
-16777216
102
RTVSPost2010PropOp51
 70
     0
102
RTVSPost2010Prop52
140
1.0
102
RTVSPost2010PropOp52
 70
     0
102
RTVSPost2010Prop53
 90
        2
102
RTVSPost2010PropOp53
 70
     1
102
RTVSPost2010Prop54
  1
strokes_ogs.tif
102
RTVSPost2010PropOp54
 70
     1
102
RTVSPost2010Prop55
280
     0
102
RTVSPost2010PropOp55
 70
     1
102
RTVSPost2010Prop56
140
1.0
102
RTVSPost2010PropOp56
 70
     1
102
RTVSPost2010Prop57
140
1.0
102
RTVSPost2010PropOp57
 70
     1
  0
XRECORD
  5
141
102
{ACAD_REACTORS
330
140
102
}
330
140
100
AcDbXrecord
280
     1
102
RTVSPost2010Prop28
280
     0
102
RTVSPost2010PropOp28
 70
     1
102
RTVSPost2010Prop29
280
     1
102
RTVSPost2010PropOp29
 70
     1
102
RTVSPost2010Prop30
280
     1
102
RTVSPost2010PropOp30
 70
     1
102
RTVSPost2010Prop31
280
     0
102
RTVSPost2010PropOp31
 70
     1
102
RTVSPost2010Prop32
280
     0
102
RTVSPost2010PropOp32
 70
     1
102
RTVSPost2010Prop33
280
     0
102
RTVSPost2010PropOp33
 70
     1
102
RTVSPost2010Prop34
280
     0
102
RTVSPost2010PropOp34
 70
     1
102
RTVSPost2010Prop35
280
     0
102
RTVSPost2010PropOp35
 70
     1
102
RTVSPost2010Prop36
280
     0
102
RTVSPost2010PropOp36
 70
     1
102
RTVSPost2010Prop37
 90
       50
102
RTVSPost2010PropOp37
 70
     1
102
RTVSPost2010Prop38
140
0.0
102
RTVSPost2010PropOp38
 70
     1
102
RTVSPost2010Prop39
140
1.0
102
RTVSPost2010PropOp39
 70
     1
102
RTVSPost2010Prop40
 90
        0
102
RTVSPost2010PropOp40
 70
     1
102
RTVSPost2010Prop41ColorIndex
 90
       18
102
RTVSPost2010Prop41ColorRGB
 90
        0
102
RTVSPost2010PropOp41
 70
     1
102
RTVSPost2010Prop42
 90
       50
102
RTVSPost2010PropOp42
 70
     1
102
RTVSPost2010Prop43
 90
        3
102
RTVSPost2010PropOp43
 70
     1
102
RTVSPost2010Prop44ColorIndex
 90
        5
102
RTVSPost2010Prop44ColorRGB
 90
      255
102
RTVSPost2010PropOp44
 70
     1
102
RTVSPost2010Prop45
280
     0
102
RTVSPost2010PropOp45
 70
     1
102
RTVSPost2010Prop46
 90
       50
102
RTVSPost2010PropOp46
 70
     1
102
RTVSPost2010Prop47
 90
       50
102
RTVSPost2010PropOp47
 70
     1
102
RTVSPost2010Prop48
 90
       50
102
RTVSPost2010PropOp48
 70
     1
102
RTVSPost2010Prop49
280
     0
102
RTVSPost2010PropOp49
 70
     1
102
RTVSPost2010Prop50
 90
       50
102
RTVSPost2010PropOp50
 70
     1
102
RTVSPost2010Prop51ColorIndex
 90
      256
102
RTVSPost2010Prop51ColorRGB
 90
-16777216
102
RTVSPost2010PropOp51
 70
     0
102
RTVSPost2010Prop52
140
1.0
102
RTVSPost2010PropOp52
 70
     0
102
RTVSPost2010Prop53
 90
        2
102
RTVSPost2010PropOp53
 70
     1
102
RTVSPost2010Prop54
  1
strokes_ogs.tif
102
RTVSPost2010PropOp54
 70
     1
102
RTVSPost2010Prop55
280
     0
102
RTVSPost2010PropOp55
 70
     1
102
RTVSPost2010Prop56
140
1.0
102
RTVSPost2010PropOp56
 70
     1
102
RTVSPost2010Prop57
140
1.0
102
RTVSPost2010PropOp57
 70
     1
  0
XRECORD
  5
149
102
{ACAD_REACTORS
330
148
102
}
330
148
100
AcDbXrecord
280
     1
102
RTVSPost2010Prop28
280
     0
102
RTVSPost2010PropOp28
 70
     1
102
RTVSPost2010Prop29
280
     1
102
RTVSPost2010PropOp29
 70
     1
102
RTVSPost2010Prop30
280
     1
102
RTVSPost2010PropOp30
 70
     1
102
RTVSPost2010Prop31
280
     0
102
RTVSPost2010PropOp31
 70
     1
102
RTVSPost2010Prop32
280
     0
102
RTVSPost2010PropOp32
 70
     1
102
RTVSPost2010Prop33
280
     0
102
RTVSPost2010PropOp33
 70
     1
102
RTVSPost2010Prop34
280
     0
102
RTVSPost2010PropOp34
 70
     1
102
RTVSPost2010Prop35
280
     0
102
RTVSPost2010PropOp35
 70
     1
102
RTVSPost2010Prop36
280
     0
102
RTVSPost2010PropOp36
 70
     1
102
RTVSPost2010Prop37
 90
       50
102
RTVSPost2010PropOp37
 70
     1
102
RTVSPost2010Prop38
140
0.0
102
RTVSPost2010PropOp38
 70
     1
102
RTVSPost2010Prop39
140
1.0
102
RTVSPost2010PropOp39
 70
     1
102
RTVSPost2010Prop40
 90
        0
102
RTVSPost2010PropOp40
 70
     1
102
RTVSPost2010Prop41ColorIndex
 90
       18
102
RTVSPost2010Prop41ColorRGB
 90
        0
102
RTVSPost2010PropOp41
 70
     1
102
RTVSPost2010Prop42
 90
       50
102
RTVSPost2010PropOp42
 70
     1
102
RTVSPost2010Prop43
 90
        3
102
RTVSPost2010PropOp43
 70
     1
102
RTVSPost2010Prop44ColorIndex
 90
        5
102
RTVSPost2010Prop44ColorRGB
 90
      255
102
RTVSPost2010PropOp44
 70
     1
102
RTVSPost2010Prop45
280
     0
102
RTVSPost2010PropOp45
 70
     1
102
RTVSPost2010Prop46
 90
       50
102
RTVSPost2010PropOp46
 70
     1
102
RTVSPost2010Prop47
 90
       50
102
RTVSPost2010PropOp47
 70
     1
102
RTVSPost2010Prop48
 90
       50
102
RTVSPost2010PropOp48
 70
     1
102
RTVSPost2010Prop49
280
     0
102
RTVSPost2010PropOp49
 70
     1
102
RTVSPost2010Prop50
 90
       50
102
RTVSPost2010PropOp50
 70
     1
102
RTVSPost2010Prop51ColorIndex
 90
      256
102
RTVSPost2010Prop51ColorRGB
 90
-16777216
102
RTVSPost2010PropOp51
 70
     0
102
RTVSPost2010Prop52
140
1.0
102
RTVSPost2010PropOp52
 70
     0
102
RTVSPost2010Prop53
 90
        2
102
RTVSPost2010PropOp53
 70
     1
102
RTVSPost2010Prop54
  1
strokes_ogs.tif
102
RTVSPost2010PropOp54
 70
     1
102
RTVSPost2010Prop55
280
     0
102
RTVSPost2010PropOp55
 70
     1
102
RTVSPost2010Prop56
140
1.0
102
RTVSPost2010PropOp56
 70
     1
102
RTVSPost2010Prop57
140
1.0
102
RTVSPost2010PropOp57
 70
     1
  0
XRECORD
  5
13B
102
{ACAD_REACTORS
330
13A
102
}
330
13A
100
AcDbXrecord
280
     1
102
RTVSPost2010Prop28
280
     0
102
RTVSPost2010PropOp28
 70
     1
102
RTVSPost2010Prop29
280
     1
102
RTVSPost2010PropOp29
 70
     1
102
RTVSPost2010Prop30
280
     1
102
RTVSPost2010PropOp30
 70
     1
102
RTVSPost2010Prop31
280
     0
102
RTVSPost2010PropOp31
 70
     1
102
RTVSPost2010Prop32
280
     0
102
RTVSPost2010PropOp32
 70
     1
102
RTVSPost2010Prop33
280
     0
102
RTVSPost2010PropOp33
 70
     1
102
RTVSPost2010Prop34
280
     0
102
RTVSPost2010PropOp34
 70
     1
102
RTVSPost2010Prop35
280
     0
102
RTVSPost2010PropOp35
 70
     1
102
RTVSPost2010Prop36
280
     0
102
RTVSPost2010PropOp36
 70
     1
102
RTVSPost2010Prop37
 90
       50
102
RTVSPost2010PropOp37
 70
     1
102
RTVSPost2010Prop38
140
0.0
102
RTVSPost2010PropOp38
 70
     1
102
RTVSPost2010Prop39
140
1.0
102
RTVSPost2010PropOp39
 70
     1
102
RTVSPost2010Prop40
 90
        0
102
RTVSPost2010PropOp40
 70
     1
102
RTVSPost2010Prop41ColorIndex
 90
       18
102
RTVSPost2010Prop41ColorRGB
 90
        0
102
RTVSPost2010PropOp41
 70
     1
102
RTVSPost2010Prop42
 90
       50
102
RTVSPost2010PropOp42
 70
     1
102
RTVSPost2010Prop43
 90
        3
102
RTVSPost2010PropOp43
 70
     1
102
RTVSPost2010Prop44ColorIndex
 90
        5
102
RTVSPost2010Prop44ColorRGB
 90
      255
102
RTVSPost2010PropOp44
 70
     1
102
RTVSPost2010Prop45
280
     0
102
RTVSPost2010PropOp45
 70
     1
102
RTVSPost2010Prop46
 90
       50
102
RTVSPost2010PropOp46
 70
     1
102
RTVSPost2010Prop47
 90
       50
102
RTVSPost2010PropOp47
 70
     1
102
RTVSPost2010Prop48
 90
       50
102
RTVSPost2010PropOp48
 70
     1
102
RTVSPost2010Prop49
280
     0
102
RTVSPost2010PropOp49
 70
     1
102
RTVSPost2010Prop50
 90
       50
102
RTVSPost2010PropOp50
 70
     1
102
RTVSPost2010Prop51ColorIndex
 90
      256
102
RTVSPost2010Prop51ColorRGB
 90
-16777216
102
RTVSPost2010PropOp51
 70
     0
102
RTVSPost2010Prop52
140
1.0
102
RTVSPost2010PropOp52
 70
     0
102
RTVSPost2010Prop53
 90
        2
102
RTVSPost2010PropOp53
 70
     1
102
RTVSPost2010Prop54
  1
strokes_ogs.tif
102
RTVSPost2010PropOp54
 70
     1
102
RTVSPost2010Prop55
280
     0
102
RTVSPost2010PropOp55
 70
     1
102
RTVSPost2010Prop56
140
1.0
102
RTVSPost2010PropOp56
 70
     1
102
RTVSPost2010Prop57
140
1.0
102
RTVSPost2010PropOp57
 70
     1
  0
XRECORD
  5
13F
102
{ACAD_REACTORS
330
13E
102
}
330
13E
100
AcDbXrecord
280
     1
102
RTVSPost2010Prop28
280
     0
102
RTVSPost2010PropOp28
 70
     1
102
RTVSPost2010Prop29
280
     1
102
RTVSPost2010PropOp29
 70
     1
102
RTVSPost2010Prop30
280
     1
102
RTVSPost2010PropOp30
 70
     1
102
RTVSPost2010Prop31
280
     0
102
RTVSPost2010PropOp31
 70
     1
102
RTVSPost2010Prop32
280
     0
102
RTVSPost2010PropOp32
 70
     1
102
RTVSPost2010Prop33
280
     0
102
RTVSPost2010PropOp33
 70
     1
102
RTVSPost2010Prop34
280
     0
102
RTVSPost2010PropOp34
 70
     1
102
RTVSPost2010Prop35
280
     0
102
RTVSPost2010PropOp35
 70
     1
102
RTVSPost2010Prop36
280
     0
102
RTVSPost2010PropOp36
 70
     1
102
RTVSPost2010Prop37
 90
       50
102
RTVSPost2010PropOp37
 70
     1
102
RTVSPost2010Prop38
140
0.0
102
RTVSPost2010PropOp38
 70
     1
102
RTVSPost2010Prop39
140
1.0
102
RTVSPost2010PropOp39
 70
     1
102
RTVSPost2010Prop40
 90
        0
102
RTVSPost2010PropOp40
 70
     1
102
RTVSPost2010Prop41ColorIndex
 90
       18
102
RTVSPost2010Prop41ColorRGB
 90
        0
102
RTVSPost2010PropOp41
 70
     1
102
RTVSPost2010Prop42
 90
       50
102
RTVSPost2010PropOp42
 70
     1
102
RTVSPost2010Prop43
 90
        3
102
RTVSPost2010PropOp43
 70
     1
102
RTVSPost2010Prop44ColorIndex
 90
        5
102
RTVSPost2010Prop44ColorRGB
 90
      255
102
RTVSPost2010PropOp44
 70
     1
102
RTVSPost2010Prop45
280
     0
102
RTVSPost2010PropOp45
 70
     1
102
RTVSPost2010Prop46
 90
       50
102
RTVSPost2010PropOp46
 70
     1
102
RTVSPost2010Prop47
 90
       50
102
RTVSPost2010PropOp47
 70
     1
102
RTVSPost2010Prop48
 90
       50
102
RTVSPost2010PropOp48
 70
     1
102
RTVSPost2010Prop49
280
     0
102
RTVSPost2010PropOp49
 70
     1
102
RTVSPost2010Prop50
 90
       50
102
RTVSPost2010PropOp50
 70
     1
102
RTVSPost2010Prop51ColorIndex
 90
      256
102
RTVSPost2010Prop51ColorRGB
 90
-16777216
102
RTVSPost2010PropOp51
 70
     0
102
RTVSPost2010Prop52
140
1.0
102
RTVSPost2010PropOp52
 70
     0
102
RTVSPost2010Prop53
 90
        2
102
RTVSPost2010PropOp53
 70
     1
102
RTVSPost2010Prop54
  1
strokes_ogs.tif
102
RTVSPost2010PropOp54
 70
     1
102
RTVSPost2010Prop55
280
     0
102
RTVSPost2010PropOp55
 70
     1
102
RTVSPost2010Prop56
140
1.0
102
RTVSPost2010PropOp56
 70
     1
102
RTVSPost2010Prop57
140
1.0
102
RTVSPost2010PropOp57
 70
     1
  0
XRECORD
  5
159
102
{ACAD_REACTORS
330
158
102
}
330
158
100
AcDbXrecord
280
     1
102
RTVSPost2010Prop28
280
     0
102
RTVSPost2010PropOp28
 70
     0
102
RTVSPost2010Prop29
280
     1
102
RTVSPost2010PropOp29
 70
     0
102
RTVSPost2010Prop30
280
     1
102
RTVSPost2010PropOp30
 70
     0
102
RTVSPost2010Prop31
280
     0
102
RTVSPost2010PropOp31
 70
     0
102
RTVSPost2010Prop32
280
     0
102
RTVSPost2010PropOp32
 70
     0
102
RTVSPost2010Prop33
280
     0
102
RTVSPost2010PropOp33
 70
     0
102
RTVSPost2010Prop34
280
     0
102
RTVSPost2010PropOp34
 70
     0
102
RTVSPost2010Prop35
280
     0
102
RTVSPost2010PropOp35
 70
     0
102
RTVSPost2010Prop36
280
     0
102
RTVSPost2010PropOp36
 70
     0
102
RTVSPost2010Prop37
 90
       50
102
RTVSPost2010PropOp37
 70
     0
102
RTVSPost2010Prop38
140
0.0
102
RTVSPost2010PropOp38
 70
     0
102
RTVSPost2010Prop39
140
1.0
102
RTVSPost2010PropOp39
 70
     0
102
RTVSPost2010Prop40
 90
        0
102
RTVSPost2010PropOp40
 70
     0
102
RTVSPost2010Prop41ColorIndex
 90
       18
102
RTVSPost2010Prop41ColorRGB
 90
        0
102
RTVSPost2010PropOp41
 70
     0
102
RTVSPost2010Prop42
 90
       50
102
RTVSPost2010PropOp42
 70
     0
102
RTVSPost2010Prop43
 90
        3
102
RTVSPost2010PropOp43
 70
     0
102
RTVSPost2010Prop44ColorIndex
 90
        5
102
RTVSPost2010Prop44ColorRGB
 90
      255
102
RTVSPost2010PropOp44
 70
     0
102
RTVSPost2010Prop45
280
     0
102
RTVSPost2010PropOp45
 70
     0
102
RTVSPost2010Prop46
 90
       50
102
RTVSPost2010PropOp46
 70
     0
102
RTVSPost2010Prop47
 90
       50
102
RTVSPost2010PropOp47
 70
     0
102
RTVSPost2010Prop48
 90
       50
102
RTVSPost2010PropOp48
 70
     0
102
RTVSPost2010Prop49
280
     0
102
RTVSPost2010PropOp49
 70
     0
102
RTVSPost2010Prop50
 90
       50
102
RTVSPost2010PropOp50
 70
     0
102
RTVSPost2010Prop51ColorIndex
 90
      256
102
RTVSPost2010Prop51ColorRGB
 90
-16777216
102
RTVSPost2010PropOp51
 70
     0
102
RTVSPost2010Prop52
140
1.0
102
RTVSPost2010PropOp52
 70
     0
102
RTVSPost2010Prop53
 90
        2
102
RTVSPost2010PropOp53
 70
     0
102
RTVSPost2010Prop54
  1
strokes_ogs.tif
102
RTVSPost2010PropOp54
 70
     0
102
RTVSPost2010Prop55
280
     0
102
RTVSPost2010PropOp55
 70
     0
102
RTVSPost2010Prop56
140
1.0
102
RTVSPost2010PropOp56
 70
     0
102
RTVSPost2010Prop57
140
1.0
102
RTVSPost2010PropOp57
 70
     0
  0
XRECORD
  5
147
102
{ACAD_REACTORS
330
146
102
}
330
146
100
AcDbXrecord
280
     1
102
RTVSPost2010Prop28
280
     0
102
RTVSPost2010PropOp28
 70
     1
102
RTVSPost2010Prop29
280
     1
102
RTVSPost2010PropOp29
 70
     1
102
RTVSPost2010Prop30
280
     1
102
RTVSPost2010PropOp30
 70
     1
102
RTVSPost2010Prop31
280
     0
102
RTVSPost2010PropOp31
 70
     1
102
RTVSPost2010Prop32
280
     0
102
RTVSPost2010PropOp32
 70
     1
102
RTVSPost2010Prop33
280
     0
102
RTVSPost2010PropOp33
 70
     1
102
RTVSPost2010Prop34
280
     0
102
RTVSPost2010PropOp34
 70
     1
102
RTVSPost2010Prop35
280
     0
102
RTVSPost2010PropOp35
 70
     1
102
RTVSPost2010Prop36
280
     0
102
RTVSPost2010PropOp36
 70
     1
102
RTVSPost2010Prop37
 90
       50
102
RTVSPost2010PropOp37
 70
     1
102
RTVSPost2010Prop38
140
0.0
102
RTVSPost2010PropOp38
 70
     1
102
RTVSPost2010Prop39
140
1.0
102
RTVSPost2010PropOp39
 70
     1
102
RTVSPost2010Prop40
 90
        0
102
RTVSPost2010PropOp40
 70
     1
102
RTVSPost2010Prop41ColorIndex
 90
       18
102
RTVSPost2010Prop41ColorRGB
 90
        0
102
RTVSPost2010PropOp41
 70
     1
102
RTVSPost2010Prop42
 90
       50
102
RTVSPost2010PropOp42
 70
     1
102
RTVSPost2010Prop43
 90
        3
102
RTVSPost2010PropOp43
 70
     1
102
RTVSPost2010Prop44ColorIndex
 90
        5
102
RTVSPost2010Prop44ColorRGB
 90
      255
102
RTVSPost2010PropOp44
 70
     1
102
RTVSPost2010Prop45
280
     0
102
RTVSPost2010PropOp45
 70
     1
102
RTVSPost2010Prop46
 90
       50
102
RTVSPost2010PropOp46
 70
     1
102
RTVSPost2010Prop47
 90
       50
102
RTVSPost2010PropOp47
 70
     1
102
RTVSPost2010Prop48
 90
       50
102
RTVSPost2010PropOp48
 70
     1
102
RTVSPost2010Prop49
280
     0
102
RTVSPost2010PropOp49
 70
     1
102
RTVSPost2010Prop50
 90
       50
102
RTVSPost2010PropOp50
 70
     1
102
RTVSPost2010Prop51ColorIndex
 90
      256
102
RTVSPost2010Prop51ColorRGB
 90
-16777216
102
RTVSPost2010PropOp51
 70
     0
102
RTVSPost2010Prop52
140
1.0
102
RTVSPost2010PropOp52
 70
     0
102
RTVSPost2010Prop53
 90
        2
102
RTVSPost2010PropOp53
 70
     1
102
RTVSPost2010Prop54
  1
strokes_ogs.tif
102
RTVSPost2010PropOp54
 70
     1
102
RTVSPost2010Prop55
280
     0
102
RTVSPost2010PropOp55
 70
     1
102
RTVSPost2010Prop56
140
1.0
102
RTVSPost2010PropOp56
 70
     1
102
RTVSPost2010Prop57
140
1.0
102
RTVSPost2010PropOp57
 70
     1
  0
XRECORD
  5
12B
102
{ACAD_REACTORS
330
12A
102
}
330
12A
100
AcDbXrecord
280
     1
102
RTVSPost2010Prop28
280
     0
102
RTVSPost2010PropOp28
 70
     1
102
RTVSPost2010Prop29
280
     1
102
RTVSPost2010PropOp29
 70
     1
102
RTVSPost2010Prop30
280
     1
102
RTVSPost2010PropOp30
 70
     1
102
RTVSPost2010Prop31
280
     0
102
RTVSPost2010PropOp31
 70
     1
102
RTVSPost2010Prop32
280
     0
102
RTVSPost2010PropOp32
 70
     1
102
RTVSPost2010Prop33
280
     0
102
RTVSPost2010PropOp33
 70
     1
102
RTVSPost2010Prop34
280
     0
102
RTVSPost2010PropOp34
 70
     1
102
RTVSPost2010Prop35
280
     0
102
RTVSPost2010PropOp35
 70
     1
102
RTVSPost2010Prop36
280
     0
102
RTVSPost2010PropOp36
 70
     1
102
RTVSPost2010Prop37
 90
       50
102
RTVSPost2010PropOp37
 70
     1
102
RTVSPost2010Prop38
140
0.0
102
RTVSPost2010PropOp38
 70
     1
102
RTVSPost2010Prop39
140
1.0
102
RTVSPost2010PropOp39
 70
     1
102
RTVSPost2010Prop40
 90
        0
102
RTVSPost2010PropOp40
 70
     1
102
RTVSPost2010Prop41ColorIndex
 90
       18
102
RTVSPost2010Prop41ColorRGB
 90
        0
102
RTVSPost2010PropOp41
 70
     1
102
RTVSPost2010Prop42
 90
       50
102
RTVSPost2010PropOp42
 70
     1
102
RTVSPost2010Prop43
 90
        3
102
RTVSPost2010PropOp43
 70
     1
102
RTVSPost2010Prop44ColorIndex
 90
        5
102
RTVSPost2010Prop44ColorRGB
 90
      255
102
RTVSPost2010PropOp44
 70
     1
102
RTVSPost2010Prop45
280
     0
102
RTVSPost2010PropOp45
 70
     1
102
RTVSPost2010Prop46
 90
       50
102
RTVSPost2010PropOp46
 70
     1
102
RTVSPost2010Prop47
 90
       50
102
RTVSPost2010PropOp47
 70
     1
102
RTVSPost2010Prop48
 90
       50
102
RTVSPost2010PropOp48
 70
     1
102
RTVSPost2010Prop49
280
     0
102
RTVSPost2010PropOp49
 70
     1
102
RTVSPost2010Prop50
 90
       50
102
RTVSPost2010PropOp50
 70
     1
102
RTVSPost2010Prop51ColorIndex
 90
      256
102
RTVSPost2010Prop51ColorRGB
 90
-16777216
102
RTVSPost2010PropOp51
 70
     0
102
RTVSPost2010Prop52
140
1.0
102
RTVSPost2010PropOp52
 70
     0
102
RTVSPost2010Prop53
 90
        2
102
RTVSPost2010PropOp53
 70
     1
102
RTVSPost2010Prop54
  1
strokes_ogs.tif
102
RTVSPost2010PropOp54
 70
     1
102
RTVSPost2010Prop55
280
     0
102
RTVSPost2010PropOp55
 70
     1
102
RTVSPost2010Prop56
140
1.0
102
RTVSPost2010PropOp56
 70
     1
102
RTVSPost2010Prop57
140
1.0
102
RTVSPost2010PropOp57
 70
     1
  0
XRECORD
  5
12D
102
{ACAD_REACTORS
330
12C
102
}
330
12C
100
AcDbXrecord
280
     1
102
RTVSPost2010Prop28
280
     0
102
RTVSPost2010PropOp28
 70
     1
102
RTVSPost2010Prop29
280
     1
102
RTVSPost2010PropOp29
 70
     1
102
RTVSPost2010Prop30
280
     1
102
RTVSPost2010PropOp30
 70
     1
102
RTVSPost2010Prop31
280
     0
102
RTVSPost2010PropOp31
 70
     1
102
RTVSPost2010Prop32
280
     0
102
RTVSPost2010PropOp32
 70
     1
102
RTVSPost2010Prop33
280
     0
102
RTVSPost2010PropOp33
 70
     1
102
RTVSPost2010Prop34
280
     0
102
RTVSPost2010PropOp34
 70
     1
102
RTVSPost2010Prop35
280
     0
102
RTVSPost2010PropOp35
 70
     1
102
RTVSPost2010Prop36
280
     0
102
RTVSPost2010PropOp36
 70
     1
102
RTVSPost2010Prop37
 90
       50
102
RTVSPost2010PropOp37
 70
     1
102
RTVSPost2010Prop38
140
0.0
102
RTVSPost2010PropOp38
 70
     1
102
RTVSPost2010Prop39
140
1.0
102
RTVSPost2010PropOp39
 70
     1
102
RTVSPost2010Prop40
 90
        0
102
RTVSPost2010PropOp40
 70
     1
102
RTVSPost2010Prop41ColorIndex
 90
       18
102
RTVSPost2010Prop41ColorRGB
 90
        0
102
RTVSPost2010PropOp41
 70
     1
102
RTVSPost2010Prop42
 90
       50
102
RTVSPost2010PropOp42
 70
     1
102
RTVSPost2010Prop43
 90
        3
102
RTVSPost2010PropOp43
 70
     1
102
RTVSPost2010Prop44ColorIndex
 90
        5
102
RTVSPost2010Prop44ColorRGB
 90
      255
102
RTVSPost2010PropOp44
 70
     1
102
RTVSPost2010Prop45
280
     0
102
RTVSPost2010PropOp45
 70
     1
102
RTVSPost2010Prop46
 90
       50
102
RTVSPost2010PropOp46
 70
     1
102
RTVSPost2010Prop47
 90
       50
102
RTVSPost2010PropOp47
 70
     1
102
RTVSPost2010Prop48
 90
       50
102
RTVSPost2010PropOp48
 70
     1
102
RTVSPost2010Prop49
280
     0
102
RTVSPost2010PropOp49
 70
     1
102
RTVSPost2010Prop50
 90
       50
102
RTVSPost2010PropOp50
 70
     1
102
RTVSPost2010Prop51ColorIndex
 90
      256
102
RTVSPost2010Prop51ColorRGB
 90
-16777216
102
RTVSPost2010PropOp51
 70
     0
102
RTVSPost2010Prop52
140
1.0
102
RTVSPost2010PropOp52
 70
     0
102
RTVSPost2010Prop53
 90
        2
102
RTVSPost2010PropOp53
 70
     1
102
RTVSPost2010Prop54
  1
strokes_ogs.tif
102
RTVSPost2010PropOp54
 70
     1
102
RTVSPost2010Prop55
280
     0
102
RTVSPost2010PropOp55
 70
     1
102
RTVSPost2010Prop56
140
1.0
102
RTVSPost2010PropOp56
 70
     1
102
RTVSPost2010Prop57
140
1.0
102
RTVSPost2010PropOp57
 70
     1
  0
XRECORD
  5
12F
102
{ACAD_REACTORS
330
12E
102
}
330
12E
100
AcDbXrecord
280
     1
102
RTVSPost2010Prop28
280
     0
102
RTVSPost2010PropOp28
 70
     1
102
RTVSPost2010Prop29
280
     1
102
RTVSPost2010PropOp29
 70
     1
102
RTVSPost2010Prop30
280
     1
102
RTVSPost2010PropOp30
 70
     1
102
RTVSPost2010Prop31
280
     0
102
RTVSPost2010PropOp31
 70
     1
102
RTVSPost2010Prop32
280
     0
102
RTVSPost2010PropOp32
 70
     1
102
RTVSPost2010Prop33
280
     0
102
RTVSPost2010PropOp33
 70
     1
102
RTVSPost2010Prop34
280
     0
102
RTVSPost2010PropOp34
 70
     1
102
RTVSPost2010Prop35
280
     0
102
RTVSPost2010PropOp35
 70
     1
102
RTVSPost2010Prop36
280
     0
102
RTVSPost2010PropOp36
 70
     1
102
RTVSPost2010Prop37
 90
       50
102
RTVSPost2010PropOp37
 70
     1
102
RTVSPost2010Prop38
140
0.0
102
RTVSPost2010PropOp38
 70
     1
102
RTVSPost2010Prop39
140
1.0
102
RTVSPost2010PropOp39
 70
     1
102
RTVSPost2010Prop40
 90
        0
102
RTVSPost2010PropOp40
 70
     1
102
RTVSPost2010Prop41ColorIndex
 90
       18
102
RTVSPost2010Prop41ColorRGB
 90
        0
102
RTVSPost2010PropOp41
 70
     1
102
RTVSPost2010Prop42
 90
       50
102
RTVSPost2010PropOp42
 70
     1
102
RTVSPost2010Prop43
 90
        3
102
RTVSPost2010PropOp43
 70
     1
102
RTVSPost2010Prop44ColorIndex
 90
        5
102
RTVSPost2010Prop44ColorRGB
 90
      255
102
RTVSPost2010PropOp44
 70
     1
102
RTVSPost2010Prop45
280
     0
102
RTVSPost2010PropOp45
 70
     1
102
RTVSPost2010Prop46
 90
       50
102
RTVSPost2010PropOp46
 70
     1
102
RTVSPost2010Prop47
 90
       50
102
RTVSPost2010PropOp47
 70
     1
102
RTVSPost2010Prop48
 90
       50
102
RTVSPost2010PropOp48
 70
     1
102
RTVSPost2010Prop49
280
     0
102
RTVSPost2010PropOp49
 70
     1
102
RTVSPost2010Prop50
 90
       50
102
RTVSPost2010PropOp50
 70
     1
102
RTVSPost2010Prop51ColorIndex
 90
      256
102
RTVSPost2010Prop51ColorRGB
 90
-16777216
102
RTVSPost2010PropOp51
 70
     0
102
RTVSPost2010Prop52
140
1.0
102
RTVSPost2010PropOp52
 70
     0
102
RTVSPost2010Prop53
 90
        2
102
RTVSPost2010PropOp53
 70
     1
102
RTVSPost2010Prop54
  1
strokes_ogs.tif
102
RTVSPost2010PropOp54
 70
     1
102
RTVSPost2010Prop55
280
     0
102
RTVSPost2010PropOp55
 70
     1
102
RTVSPost2010Prop56
140
1.0
102
RTVSPost2010PropOp56
 70
     1
102
RTVSPost2010Prop57
140
1.0
102
RTVSPost2010PropOp57
 70
     1
  0
XRECORD
  5
131
102
{ACAD_REACTORS
330
130
102
}
330
130
100
AcDbXrecord
280
     1
102
RTVSPost2010Prop28
280
     0
102
RTVSPost2010PropOp28
 70
     1
102
RTVSPost2010Prop29
280
     1
102
RTVSPost2010PropOp29
 70
     1
102
RTVSPost2010Prop30
280
     1
102
RTVSPost2010PropOp30
 70
     1
102
RTVSPost2010Prop31
280
     0
102
RTVSPost2010PropOp31
 70
     1
102
RTVSPost2010Prop32
280
     0
102
RTVSPost2010PropOp32
 70
     1
102
RTVSPost2010Prop33
280
     0
102
RTVSPost2010PropOp33
 70
     1
102
RTVSPost2010Prop34
280
     0
102
RTVSPost2010PropOp34
 70
     1
102
RTVSPost2010Prop35
280
     0
102
RTVSPost2010PropOp35
 70
     1
102
RTVSPost2010Prop36
280
     0
102
RTVSPost2010PropOp36
 70
     1
102
RTVSPost2010Prop37
 90
       50
102
RTVSPost2010PropOp37
 70
     1
102
RTVSPost2010Prop38
140
0.0
102
RTVSPost2010PropOp38
 70
     1
102
RTVSPost2010Prop39
140
1.0
102
RTVSPost2010PropOp39
 70
     1
102
RTVSPost2010Prop40
 90
        0
102
RTVSPost2010PropOp40
 70
     1
102
RTVSPost2010Prop41ColorIndex
 90
       18
102
RTVSPost2010Prop41ColorRGB
 90
        0
102
RTVSPost2010PropOp41
 70
     1
102
RTVSPost2010Prop42
 90
       50
102
RTVSPost2010PropOp42
 70
     1
102
RTVSPost2010Prop43
 90
        3
102
RTVSPost2010PropOp43
 70
     1
102
RTVSPost2010Prop44ColorIndex
 90
        5
102
RTVSPost2010Prop44ColorRGB
 90
      255
102
RTVSPost2010PropOp44
 70
     1
102
RTVSPost2010Prop45
280
     0
102
RTVSPost2010PropOp45
 70
     1
102
RTVSPost2010Prop46
 90
       50
102
RTVSPost2010PropOp46
 70
     1
102
RTVSPost2010Prop47
 90
       50
102
RTVSPost2010PropOp47
 70
     1
102
RTVSPost2010Prop48
 90
       50
102
RTVSPost2010PropOp48
 70
     1
102
RTVSPost2010Prop49
280
     0
102
RTVSPost2010PropOp49
 70
     1
102
RTVSPost2010Prop50
 90
       50
102
RTVSPost2010PropOp50
 70
     1
102
RTVSPost2010Prop51ColorIndex
 90
      256
102
RTVSPost2010Prop51ColorRGB
 90
-16777216
102
RTVSPost2010PropOp51
 70
     0
102
RTVSPost2010Prop52
140
1.0
102
RTVSPost2010PropOp52
 70
     0
102
RTVSPost2010Prop53
 90
        2
102
RTVSPost2010PropOp53
 70
     1
102
RTVSPost2010Prop54
  1
strokes_ogs.tif
102
RTVSPost2010PropOp54
 70
     1
102
RTVSPost2010Prop55
280
     0
102
RTVSPost2010PropOp55
 70
     1
102
RTVSPost2010Prop56
140
1.0
102
RTVSPost2010PropOp56
 70
     1
102
RTVSPost2010Prop57
140
1.0
102
RTVSPost2010PropOp57
 70
     1
  0
XRECORD
  5
139
102
{ACAD_REACTORS
330
138
102
}
330
138
100
AcDbXrecord
280
     1
102
RTVSPost2010Prop28
280
     0
102
RTVSPost2010PropOp28
 70
     1
102
RTVSPost2010Prop29
280
     1
102
RTVSPost2010PropOp29
 70
     1
102
RTVSPost2010Prop30
280
     1
102
RTVSPost2010PropOp30
 70
     1
102
RTVSPost2010Prop31
280
     0
102
RTVSPost2010PropOp31
 70
     1
102
RTVSPost2010Prop32
280
     0
102
RTVSPost2010PropOp32
 70
     1
102
RTVSPost2010Prop33
280
     0
102
RTVSPost2010PropOp33
 70
     1
102
RTVSPost2010Prop34
280
     0
102
RTVSPost2010PropOp34
 70
     1
102
RTVSPost2010Prop35
280
     0
102
RTVSPost2010PropOp35
 70
     1
102
RTVSPost2010Prop36
280
     0
102
RTVSPost2010PropOp36
 70
     1
102
RTVSPost2010Prop37
 90
       50
102
RTVSPost2010PropOp37
 70
     1
102
RTVSPost2010Prop38
140
0.0
102
RTVSPost2010PropOp38
 70
     1
102
RTVSPost2010Prop39
140
1.0
102
RTVSPost2010PropOp39
 70
     1
102
RTVSPost2010Prop40
 90
        0
102
RTVSPost2010PropOp40
 70
     1
102
RTVSPost2010Prop41ColorIndex
 90
       18
102
RTVSPost2010Prop41ColorRGB
 90
        0
102
RTVSPost2010PropOp41
 70
     1
102
RTVSPost2010Prop42
 90
       50
102
RTVSPost2010PropOp42
 70
     1
102
RTVSPost2010Prop43
 90
        3
102
RTVSPost2010PropOp43
 70
     1
102
RTVSPost2010Prop44ColorIndex
 90
        5
102
RTVSPost2010Prop44ColorRGB
 90
      255
102
RTVSPost2010PropOp44
 70
     1
102
RTVSPost2010Prop45
280
     0
102
RTVSPost2010PropOp45
 70
     1
102
RTVSPost2010Prop46
 90
       50
102
RTVSPost2010PropOp46
 70
     1
102
RTVSPost2010Prop47
 90
       50
102
RTVSPost2010PropOp47
 70
     1
102
RTVSPost2010Prop48
 90
       50
102
RTVSPost2010PropOp48
 70
     1
102
RTVSPost2010Prop49
280
     0
102
RTVSPost2010PropOp49
 70
     1
102
RTVSPost2010Prop50
 90
       50
102
RTVSPost2010PropOp50
 70
     1
102
RTVSPost2010Prop51ColorIndex
 90
      256
102
RTVSPost2010Prop51ColorRGB
 90
-16777216
102
RTVSPost2010PropOp51
 70
     0
102
RTVSPost2010Prop52
140
1.0
102
RTVSPost2010PropOp52
 70
     0
102
RTVSPost2010Prop53
 90
        2
102
RTVSPost2010PropOp53
 70
     1
102
RTVSPost2010Prop54
  1
strokes_ogs.tif
102
RTVSPost2010PropOp54
 70
     1
102
RTVSPost2010Prop55
280
     0
102
RTVSPost2010PropOp55
 70
     1
102
RTVSPost2010Prop56
140
1.0
102
RTVSPost2010PropOp56
 70
     1
102
RTVSPost2010Prop57
140
1.0
102
RTVSPost2010PropOp57
 70
     1
  0
XRECORD
  5
155
102
{ACAD_REACTORS
330
154
102
}
330
154
100
AcDbXrecord
280
     1
102
RTVSPost2010Prop28
280
     0
102
RTVSPost2010PropOp28
 70
     0
102
RTVSPost2010Prop29
280
     1
102
RTVSPost2010PropOp29
 70
     0
102
RTVSPost2010Prop30
280
     1
102
RTVSPost2010PropOp30
 70
     0
102
RTVSPost2010Prop31
280
     0
102
RTVSPost2010PropOp31
 70
     0
102
RTVSPost2010Prop32
280
     0
102
RTVSPost2010PropOp32
 70
     0
102
RTVSPost2010Prop33
280
     0
102
RTVSPost2010PropOp33
 70
     0
102
RTVSPost2010Prop34
280
     0
102
RTVSPost2010PropOp34
 70
     0
102
RTVSPost2010Prop35
280
     0
102
RTVSPost2010PropOp35
 70
     0
102
RTVSPost2010Prop36
280
     0
102
RTVSPost2010PropOp36
 70
     0
102
RTVSPost2010Prop37
 90
       50
102
RTVSPost2010PropOp37
 70
     0
102
RTVSPost2010Prop38
140
0.0
102
RTVSPost2010PropOp38
 70
     0
102
RTVSPost2010Prop39
140
1.0
102
RTVSPost2010PropOp39
 70
     0
102
RTVSPost2010Prop40
 90
        0
102
RTVSPost2010PropOp40
 70
     0
102
RTVSPost2010Prop41ColorIndex
 90
       18
102
RTVSPost2010Prop41ColorRGB
 90
        0
102
RTVSPost2010PropOp41
 70
     0
102
RTVSPost2010Prop42
 90
       50
102
RTVSPost2010PropOp42
 70
     0
102
RTVSPost2010Prop43
 90
        3
102
RTVSPost2010PropOp43
 70
     0
102
RTVSPost2010Prop44ColorIndex
 90
        5
102
RTVSPost2010Prop44ColorRGB
 90
      255
102
RTVSPost2010PropOp44
 70
     0
102
RTVSPost2010Prop45
280
     0
102
RTVSPost2010PropOp45
 70
     0
102
RTVSPost2010Prop46
 90
       50
102
RTVSPost2010PropOp46
 70
     0
102
RTVSPost2010Prop47
 90
       50
102
RTVSPost2010PropOp47
 70
     0
102
RTVSPost2010Prop48
 90
       50
102
RTVSPost2010PropOp48
 70
     0
102
RTVSPost2010Prop49
280
     0
102
RTVSPost2010PropOp49
 70
     0
102
RTVSPost2010Prop50
 90
       50
102
RTVSPost2010PropOp50
 70
     0
102
RTVSPost2010Prop51ColorIndex
 90
      256
102
RTVSPost2010Prop51ColorRGB
 90
-16777216
102
RTVSPost2010PropOp51
 70
     0
102
RTVSPost2010Prop52
140
1.0
102
RTVSPost2010PropOp52
 70
     0
102
RTVSPost2010Prop53
 90
        2
102
RTVSPost2010PropOp53
 70
     0
102
RTVSPost2010Prop54
  1
strokes_ogs.tif
102
RTVSPost2010PropOp54
 70
     0
102
RTVSPost2010Prop55
280
     0
102
RTVSPost2010PropOp55
 70
     0
102
RTVSPost2010Prop56
140
1.0
102
RTVSPost2010PropOp56
 70
     0
102
RTVSPost2010Prop57
140
1.0
102
RTVSPost2010PropOp57
 70
     0
  0
XRECORD
  5
145
102
{ACAD_REACTORS
330
144
102
}
330
144
100
AcDbXrecord
280
     1
102
RTVSPost2010Prop28
280
     0
102
RTVSPost2010PropOp28
 70
     1
102
RTVSPost2010Prop29
280
     1
102
RTVSPost2010PropOp29
 70
     1
102
RTVSPost2010Prop30
280
     1
102
RTVSPost2010PropOp30
 70
     1
102
RTVSPost2010Prop31
280
     0
102
RTVSPost2010PropOp31
 70
     1
102
RTVSPost2010Prop32
280
     0
102
RTVSPost2010PropOp32
 70
     1
102
RTVSPost2010Prop33
280
     0
102
RTVSPost2010PropOp33
 70
     1
102
RTVSPost2010Prop34
280
     0
102
RTVSPost2010PropOp34
 70
     1
102
RTVSPost2010Prop35
280
     0
102
RTVSPost2010PropOp35
 70
     1
102
RTVSPost2010Prop36
280
     0
102
RTVSPost2010PropOp36
 70
     1
102
RTVSPost2010Prop37
 90
       50
102
RTVSPost2010PropOp37
 70
     1
102
RTVSPost2010Prop38
140
0.0
102
RTVSPost2010PropOp38
 70
     1
102
RTVSPost2010Prop39
140
1.0
102
RTVSPost2010PropOp39
 70
     1
102
RTVSPost2010Prop40
 90
        0
102
RTVSPost2010PropOp40
 70
     1
102
RTVSPost2010Prop41ColorIndex
 90
       18
102
RTVSPost2010Prop41ColorRGB
 90
        0
102
RTVSPost2010PropOp41
 70
     1
102
RTVSPost2010Prop42
 90
       50
102
RTVSPost2010PropOp42
 70
     1
102
RTVSPost2010Prop43
 90
        3
102
RTVSPost2010PropOp43
 70
     1
102
RTVSPost2010Prop44ColorIndex
 90
        5
102
RTVSPost2010Prop44ColorRGB
 90
      255
102
RTVSPost2010PropOp44
 70
     1
102
RTVSPost2010Prop45
280
     0
102
RTVSPost2010PropOp45
 70
     1
102
RTVSPost2010Prop46
 90
       50
102
RTVSPost2010PropOp46
 70
     1
102
RTVSPost2010Prop47
 90
       50
102
RTVSPost2010PropOp47
 70
     1
102
RTVSPost2010Prop48
 90
       50
102
RTVSPost2010PropOp48
 70
     1
102
RTVSPost2010Prop49
280
     0
102
RTVSPost2010PropOp49
 70
     1
102
RTVSPost2010Prop50
 90
       50
102
RTVSPost2010PropOp50
 70
     1
102
RTVSPost2010Prop51ColorIndex
 90
      256
102
RTVSPost2010Prop51ColorRGB
 90
-16777216
102
RTVSPost2010PropOp51
 70
     0
102
RTVSPost2010Prop52
140
1.0
102
RTVSPost2010PropOp52
 70
     0
102
RTVSPost2010Prop53
 90
        2
102
RTVSPost2010PropOp53
 70
     1
102
RTVSPost2010Prop54
  1
strokes_ogs.tif
102
RTVSPost2010PropOp54
 70
     1
102
RTVSPost2010Prop55
280
     0
102
RTVSPost2010PropOp55
 70
     1
102
RTVSPost2010Prop56
140
1.0
102
RTVSPost2010PropOp56
 70
     1
102
RTVSPost2010Prop57
140
1.0
102
RTVSPost2010PropOp57
 70
     1
  0
XRECORD
  5
157
102
{ACAD_REACTORS
330
156
102
}
330
156
100
AcDbXrecord
280
     1
102
RTVSPost2010Prop28
280
     0
102
RTVSPost2010PropOp28
 70
     0
102
RTVSPost2010Prop29
280
     1
102
RTVSPost2010PropOp29
 70
     0
102
RTVSPost2010Prop30
280
     1
102
RTVSPost2010PropOp30
 70
     0
102
RTVSPost2010Prop31
280
     0
102
RTVSPost2010PropOp31
 70
     0
102
RTVSPost2010Prop32
280
     0
102
RTVSPost2010PropOp32
 70
     0
102
RTVSPost2010Prop33
280
     0
102
RTVSPost2010PropOp33
 70
     0
102
RTVSPost2010Prop34
280
     0
102
RTVSPost2010PropOp34
 70
     0
102
RTVSPost2010Prop35
280
     0
102
RTVSPost2010PropOp35
 70
     0
102
RTVSPost2010Prop36
280
     0
102
RTVSPost2010PropOp36
 70
     0
102
RTVSPost2010Prop37
 90
       50
102
RTVSPost2010PropOp37
 70
     0
102
RTVSPost2010Prop38
140
0.0
102
RTVSPost2010PropOp38
 70
     0
102
RTVSPost2010Prop39
140
1.0
102
RTVSPost2010PropOp39
 70
     0
102
RTVSPost2010Prop40
 90
        0
102
RTVSPost2010PropOp40
 70
     0
102
RTVSPost2010Prop41ColorIndex
 90
       18
102
RTVSPost2010Prop41ColorRGB
 90
        0
102
RTVSPost2010PropOp41
 70
     0
102
RTVSPost2010Prop42
 90
       50
102
RTVSPost2010PropOp42
 70
     0
102
RTVSPost2010Prop43
 90
        3
102
RTVSPost2010PropOp43
 70
     0
102
RTVSPost2010Prop44ColorIndex
 90
        5
102
RTVSPost2010Prop44ColorRGB
 90
      255
102
RTVSPost2010PropOp44
 70
     0
102
RTVSPost2010Prop45
280
     0
102
RTVSPost2010PropOp45
 70
     0
102
RTVSPost2010Prop46
 90
       50
102
RTVSPost2010PropOp46
 70
     0
102
RTVSPost2010Prop47
 90
       50
102
RTVSPost2010PropOp47
 70
     0
102
RTVSPost2010Prop48
 90
       50
102
RTVSPost2010PropOp48
 70
     0
102
RTVSPost2010Prop49
280
     0
102
RTVSPost2010PropOp49
 70
     0
102
RTVSPost2010Prop50
 90
       50
102
RTVSPost2010PropOp50
 70
     0
102
RTVSPost2010Prop51ColorIndex
 90
      256
102
RTVSPost2010Prop51ColorRGB
 90
-16777216
102
RTVSPost2010PropOp51
 70
     0
102
RTVSPost2010Prop52
140
1.0
102
RTVSPost2010PropOp52
 70
     0
102
RTVSPost2010Prop53
 90
        2
102
RTVSPost2010PropOp53
 70
     0
102
RTVSPost2010Prop54
  1
strokes_ogs.tif
102
RTVSPost2010PropOp54
 70
     0
102
RTVSPost2010Prop55
280
     0
102
RTVSPost2010PropOp55
 70
     0
102
RTVSPost2010Prop56
140
1.0
102
RTVSPost2010PropOp56
 70
     0
102
RTVSPost2010Prop57
140
1.0
102
RTVSPost2010PropOp57
 70
     0
  0
XRECORD
  5
13D
102
{ACAD_REACTORS
330
13C
102
}
330
13C
100
AcDbXrecord
280
     1
102
RTVSPost2010Prop28
280
     0
102
RTVSPost2010PropOp28
 70
     1
102
RTVSPost2010Prop29
280
     1
102
RTVSPost2010PropOp29
 70
     1
102
RTVSPost2010Prop30
280
     1
102
RTVSPost2010PropOp30
 70
     1
102
RTVSPost2010Prop31
280
     0
102
RTVSPost2010PropOp31
 70
     1
102
RTVSPost2010Prop32
280
     0
102
RTVSPost2010PropOp32
 70
     1
102
RTVSPost2010Prop33
280
     0
102
RTVSPost2010PropOp33
 70
     1
102
RTVSPost2010Prop34
280
     0
102
RTVSPost2010PropOp34
 70
     1
102
RTVSPost2010Prop35
280
     0
102
RTVSPost2010PropOp35
 70
     1
102
RTVSPost2010Prop36
280
     0
102
RTVSPost2010PropOp36
 70
     1
102
RTVSPost2010Prop37
 90
       50
102
RTVSPost2010PropOp37
 70
     1
102
RTVSPost2010Prop38
140
0.0
102
RTVSPost2010PropOp38
 70
     1
102
RTVSPost2010Prop39
140
1.0
102
RTVSPost2010PropOp39
 70
     1
102
RTVSPost2010Prop40
 90
        0
102
RTVSPost2010PropOp40
 70
     1
102
RTVSPost2010Prop41ColorIndex
 90
       18
102
RTVSPost2010Prop41ColorRGB
 90
        0
102
RTVSPost2010PropOp41
 70
     1
102
RTVSPost2010Prop42
 90
       50
102
RTVSPost2010PropOp42
 70
     1
102
RTVSPost2010Prop43
 90
        3
102
RTVSPost2010PropOp43
 70
     1
102
RTVSPost2010Prop44ColorIndex
 90
        5
102
RTVSPost2010Prop44ColorRGB
 90
      255
102
RTVSPost2010PropOp44
 70
     1
102
RTVSPost2010Prop45
280
     0
102
RTVSPost2010PropOp45
 70
     1
102
RTVSPost2010Prop46
 90
       50
102
RTVSPost2010PropOp46
 70
     1
102
RTVSPost2010Prop47
 90
       50
102
RTVSPost2010PropOp47
 70
     1
102
RTVSPost2010Prop48
 90
       50
102
RTVSPost2010PropOp48
 70
     1
102
RTVSPost2010Prop49
280
     0
102
RTVSPost2010PropOp49
 70
     1
102
RTVSPost2010Prop50
 90
       50
102
RTVSPost2010PropOp50
 70
     1
102
RTVSPost2010Prop51ColorIndex
 90
      256
102
RTVSPost2010Prop51ColorRGB
 90
-16777216
102
RTVSPost2010PropOp51
 70
     0
102
RTVSPost2010Prop52
140
1.0
102
RTVSPost2010PropOp52
 70
     0
102
RTVSPost2010Prop53
 90
        2
102
RTVSPost2010PropOp53
 70
     1
102
RTVSPost2010Prop54
  1
strokes_ogs.tif
102
RTVSPost2010PropOp54
 70
     1
102
RTVSPost2010Prop55
280
     0
102
RTVSPost2010PropOp55
 70
     1
102
RTVSPost2010Prop56
140
1.0
102
RTVSPost2010PropOp56
 70
     1
102
RTVSPost2010Prop57
140
1.0
102
RTVSPost2010PropOp57
 70
     1
  0
XRECORD
  5
153
102
{ACAD_REACTORS
330
152
102
}
330
152
100
AcDbXrecord
280
     1
102
RTVSPost2010Prop28
280
     0
102
RTVSPost2010PropOp28
 70
     1
102
RTVSPost2010Prop29
280
     1
102
RTVSPost2010PropOp29
 70
     1
102
RTVSPost2010Prop30
280
     1
102
RTVSPost2010PropOp30
 70
     1
102
RTVSPost2010Prop31
280
     0
102
RTVSPost2010PropOp31
 70
     1
102
RTVSPost2010Prop32
280
     0
102
RTVSPost2010PropOp32
 70
     1
102
RTVSPost2010Prop33
280
     0
102
RTVSPost2010PropOp33
 70
     1
102
RTVSPost2010Prop34
280
     0
102
RTVSPost2010PropOp34
 70
     1
102
RTVSPost2010Prop35
280
     0
102
RTVSPost2010PropOp35
 70
     1
102
RTVSPost2010Prop36
280
     0
102
RTVSPost2010PropOp36
 70
     1
102
RTVSPost2010Prop37
 90
       50
102
RTVSPost2010PropOp37
 70
     1
102
RTVSPost2010Prop38
140
0.0
102
RTVSPost2010PropOp38
 70
     1
102
RTVSPost2010Prop39
140
1.0
102
RTVSPost2010PropOp39
 70
     1
102
RTVSPost2010Prop40
 90
        0
102
RTVSPost2010PropOp40
 70
     1
102
RTVSPost2010Prop41ColorIndex
 90
       18
102
RTVSPost2010Prop41ColorRGB
 90
        0
102
RTVSPost2010PropOp41
 70
     1
102
RTVSPost2010Prop42
 90
       50
102
RTVSPost2010PropOp42
 70
     1
102
RTVSPost2010Prop43
 90
        3
102
RTVSPost2010PropOp43
 70
     1
102
RTVSPost2010Prop44ColorIndex
 90
        5
102
RTVSPost2010Prop44ColorRGB
 90
      255
102
RTVSPost2010PropOp44
 70
     1
102
RTVSPost2010Prop45
280
     0
102
RTVSPost2010PropOp45
 70
     1
102
RTVSPost2010Prop46
 90
       50
102
RTVSPost2010PropOp46
 70
     1
102
RTVSPost2010Prop47
 90
       50
102
RTVSPost2010PropOp47
 70
     1
102
RTVSPost2010Prop48
 90
       50
102
RTVSPost2010PropOp48
 70
     1
102
RTVSPost2010Prop49
280
     0
102
RTVSPost2010PropOp49
 70
     1
102
RTVSPost2010Prop50
 90
       50
102
RTVSPost2010PropOp50
 70
     1
102
RTVSPost2010Prop51ColorIndex
 90
      256
102
RTVSPost2010Prop51ColorRGB
 90
-16777216
102
RTVSPost2010PropOp51
 70
     0
102
RTVSPost2010Prop52
140
1.0
102
RTVSPost2010PropOp52
 70
     0
102
RTVSPost2010Prop53
 90
        2
102
RTVSPost2010PropOp53
 70
     1
102
RTVSPost2010Prop54
  1
strokes_ogs.tif
102
RTVSPost2010PropOp54
 70
     1
102
RTVSPost2010Prop55
280
     0
102
RTVSPost2010PropOp55
 70
     1
102
RTVSPost2010Prop56
140
1.0
102
RTVSPost2010PropOp56
 70
     1
102
RTVSPost2010Prop57
140
1.0
102
RTVSPost2010PropOp57
 70
     1
  0
XRECORD
  5
151
102
{ACAD_REACTORS
330
150
102
}
330
150
100
AcDbXrecord
280
     1
102
RTVSPost2010Prop28
280
     0
102
RTVSPost2010PropOp28
 70
     1
102
RTVSPost2010Prop29
280
     1
102
RTVSPost2010PropOp29
 70
     1
102
RTVSPost2010Prop30
280
     1
102
RTVSPost2010PropOp30
 70
     1
102
RTVSPost2010Prop31
280
     0
102
RTVSPost2010PropOp31
 70
     1
102
RTVSPost2010Prop32
280
     0
102
RTVSPost2010PropOp32
 70
     1
102
RTVSPost2010Prop33
280
     0
102
RTVSPost2010PropOp33
 70
     1
102
RTVSPost2010Prop34
280
     0
102
RTVSPost2010PropOp34
 70
     1
102
RTVSPost2010Prop35
280
     0
102
RTVSPost2010PropOp35
 70
     1
102
RTVSPost2010Prop36
280
     0
102
RTVSPost2010PropOp36
 70
     1
102
RTVSPost2010Prop37
 90
       50
102
RTVSPost2010PropOp37
 70
     1
102
RTVSPost2010Prop38
140
0.0
102
RTVSPost2010PropOp38
 70
     1
102
RTVSPost2010Prop39
140
1.0
102
RTVSPost2010PropOp39
 70
     1
102
RTVSPost2010Prop40
 90
        0
102
RTVSPost2010PropOp40
 70
     1
102
RTVSPost2010Prop41ColorIndex
 90
       18
102
RTVSPost2010Prop41ColorRGB
 90
        0
102
RTVSPost2010PropOp41
 70
     1
102
RTVSPost2010Prop42
 90
       50
102
RTVSPost2010PropOp42
 70
     1
102
RTVSPost2010Prop43
 90
        3
102
RTVSPost2010PropOp43
 70
     1
102
RTVSPost2010Prop44ColorIndex
 90
        5
102
RTVSPost2010Prop44ColorRGB
 90
      255
102
RTVSPost2010PropOp44
 70
     1
102
RTVSPost2010Prop45
280
     0
102
RTVSPost2010PropOp45
 70
     1
102
RTVSPost2010Prop46
 90
       50
102
RTVSPost2010PropOp46
 70
     1
102
RTVSPost2010Prop47
 90
       50
102
RTVSPost2010PropOp47
 70
     1
102
RTVSPost2010Prop48
 90
       50
102
RTVSPost2010PropOp48
 70
     1
102
RTVSPost2010Prop49
280
     0
102
RTVSPost2010PropOp49
 70
     1
102
RTVSPost2010Prop50
 90
       50
102
RTVSPost2010PropOp50
 70
     1
102
RTVSPost2010Prop51ColorIndex
 90
      256
102
RTVSPost2010Prop51ColorRGB
 90
-16777216
102
RTVSPost2010PropOp51
 70
     0
102
RTVSPost2010Prop52
140
1.0
102
RTVSPost2010PropOp52
 70
     0
102
RTVSPost2010Prop53
 90
        2
102
RTVSPost2010PropOp53
 70
     1
102
RTVSPost2010Prop54
  1
strokes_ogs.tif
102
RTVSPost2010PropOp54
 70
     1
102
RTVSPost2010Prop55
280
     0
102
RTVSPost2010PropOp55
 70
     1
102
RTVSPost2010Prop56
140
1.0
102
RTVSPost2010PropOp56
 70
     1
102
RTVSPost2010Prop57
140
1.0
102
RTVSPost2010PropOp57
 70
     1
  0
XRECORD
  5
14B
102
{ACAD_REACTORS
330
14A
102
}
330
14A
100
AcDbXrecord
280
     1
102
RTVSPost2010Prop28
280
     0
102
RTVSPost2010PropOp28
 70
     1
102
RTVSPost2010Prop29
280
     1
102
RTVSPost2010PropOp29
 70
     1
102
RTVSPost2010Prop30
280
     1
102
RTVSPost2010PropOp30
 70
     1
102
RTVSPost2010Prop31
280
     0
102
RTVSPost2010PropOp31
 70
     1
102
RTVSPost2010Prop32
280
     0
102
RTVSPost2010PropOp32
 70
     1
102
RTVSPost2010Prop33
280
     0
102
RTVSPost2010PropOp33
 70
     1
102
RTVSPost2010Prop34
280
     0
102
RTVSPost2010PropOp34
 70
     1
102
RTVSPost2010Prop35
280
     0
102
RTVSPost2010PropOp35
 70
     1
102
RTVSPost2010Prop36
280
     0
102
RTVSPost2010PropOp36
 70
     1
102
RTVSPost2010Prop37
 90
       50
102
RTVSPost2010PropOp37
 70
     1
102
RTVSPost2010Prop38
140
0.0
102
RTVSPost2010PropOp38
 70
     1
102
RTVSPost2010Prop39
140
1.0
102
RTVSPost2010PropOp39
 70
     1
102
RTVSPost2010Prop40
 90
        0
102
RTVSPost2010PropOp40
 70
     1
102
RTVSPost2010Prop41ColorIndex
 90
       18
102
RTVSPost2010Prop41ColorRGB
 90
        0
102
RTVSPost2010PropOp41
 70
     1
102
RTVSPost2010Prop42
 90
       50
102
RTVSPost2010PropOp42
 70
     1
102
RTVSPost2010Prop43
 90
        3
102
RTVSPost2010PropOp43
 70
     1
102
RTVSPost2010Prop44ColorIndex
 90
        5
102
RTVSPost2010Prop44ColorRGB
 90
      255
102
RTVSPost2010PropOp44
 70
     1
102
RTVSPost2010Prop45
280
     0
102
RTVSPost2010PropOp45
 70
     1
102
RTVSPost2010Prop46
 90
       50
102
RTVSPost2010PropOp46
 70
     1
102
RTVSPost2010Prop47
 90
       50
102
RTVSPost2010PropOp47
 70
     1
102
RTVSPost2010Prop48
 90
       50
102
RTVSPost2010PropOp48
 70
     1
102
RTVSPost2010Prop49
280
     0
102
RTVSPost2010PropOp49
 70
     1
102
RTVSPost2010Prop50
 90
       50
102
RTVSPost2010PropOp50
 70
     1
102
RTVSPost2010Prop51ColorIndex
 90
      256
102
RTVSPost2010Prop51ColorRGB
 90
-16777216
102
RTVSPost2010PropOp51
 70
     0
102
RTVSPost2010Prop52
140
1.0
102
RTVSPost2010PropOp52
 70
     0
102
RTVSPost2010Prop53
 90
        2
102
RTVSPost2010PropOp53
 70
     1
102
RTVSPost2010Prop54
  1
strokes_ogs.tif
102
RTVSPost2010PropOp54
 70
     1
102
RTVSPost2010Prop55
280
     0
102
RTVSPost2010PropOp55
 70
     1
102
RTVSPost2010Prop56
140
1.0
102
RTVSPost2010PropOp56
 70
     1
102
RTVSPost2010Prop57
140
1.0
102
RTVSPost2010PropOp57
 70
     1
  0
XRECORD
  5
14D
102
{ACAD_REACTORS
330
14C
102
}
330
14C
100
AcDbXrecord
280
     1
102
RTVSPost2010Prop28
280
     0
102
RTVSPost2010PropOp28
 70
     1
102
RTVSPost2010Prop29
280
     1
102
RTVSPost2010PropOp29
 70
     1
102
RTVSPost2010Prop30
280
     1
102
RTVSPost2010PropOp30
 70
     1
102
RTVSPost2010Prop31
280
     0
102
RTVSPost2010PropOp31
 70
     1
102
RTVSPost2010Prop32
280
     0
102
RTVSPost2010PropOp32
 70
     1
102
RTVSPost2010Prop33
280
     0
102
RTVSPost2010PropOp33
 70
     1
102
RTVSPost2010Prop34
280
     0
102
RTVSPost2010PropOp34
 70
     1
102
RTVSPost2010Prop35
280
     0
102
RTVSPost2010PropOp35
 70
     1
102
RTVSPost2010Prop36
280
     0
102
RTVSPost2010PropOp36
 70
     1
102
RTVSPost2010Prop37
 90
       50
102
RTVSPost2010PropOp37
 70
     1
102
RTVSPost2010Prop38
140
0.0
102
RTVSPost2010PropOp38
 70
     1
102
RTVSPost2010Prop39
140
1.0
102
RTVSPost2010PropOp39
 70
     1
102
RTVSPost2010Prop40
 90
        0
102
RTVSPost2010PropOp40
 70
     1
102
RTVSPost2010Prop41ColorIndex
 90
       18
102
RTVSPost2010Prop41ColorRGB
 90
        0
102
RTVSPost2010PropOp41
 70
     1
102
RTVSPost2010Prop42
 90
       50
102
RTVSPost2010PropOp42
 70
     1
102
RTVSPost2010Prop43
 90
        3
102
RTVSPost2010PropOp43
 70
     1
102
RTVSPost2010Prop44ColorIndex
 90
        5
102
RTVSPost2010Prop44ColorRGB
 90
      255
102
RTVSPost2010PropOp44
 70
     1
102
RTVSPost2010Prop45
280
     0
102
RTVSPost2010PropOp45
 70
     1
102
RTVSPost2010Prop46
 90
       50
102
RTVSPost2010PropOp46
 70
     1
102
RTVSPost2010Prop47
 90
       50
102
RTVSPost2010PropOp47
 70
     1
102
RTVSPost2010Prop48
 90
       50
102
RTVSPost2010PropOp48
 70
     1
102
RTVSPost2010Prop49
280
     0
102
RTVSPost2010PropOp49
 70
     1
102
RTVSPost2010Prop50
 90
       50
102
RTVSPost2010PropOp50
 70
     1
102
RTVSPost2010Prop51ColorIndex
 90
      256
102
RTVSPost2010Prop51ColorRGB
 90
-16777216
102
RTVSPost2010PropOp51
 70
     0
102
RTVSPost2010Prop52
140
1.0
102
RTVSPost2010PropOp52
 70
     0
102
RTVSPost2010Prop53
 90
        2
102
RTVSPost2010PropOp53
 70
     1
102
RTVSPost2010Prop54
  1
strokes_ogs.tif
102
RTVSPost2010PropOp54
 70
     1
102
RTVSPost2010Prop55
280
     0
102
RTVSPost2010PropOp55
 70
     1
102
RTVSPost2010Prop56
140
1.0
102
RTVSPost2010PropOp56
 70
     1
102
RTVSPost2010Prop57
140
1.0
102
RTVSPost2010PropOp57
 70
     1
  0
XRECORD
  5
143
102
{ACAD_REACTORS
330
142
102
}
330
142
100
AcDbXrecord
280
     1
102
RTVSPost2010Prop28
280
     0
102
RTVSPost2010PropOp28
 70
     1
102
RTVSPost2010Prop29
280
     1
102
RTVSPost2010PropOp29
 70
     1
102
RTVSPost2010Prop30
280
     1
102
RTVSPost2010PropOp30
 70
     1
102
RTVSPost2010Prop31
280
     0
102
RTVSPost2010PropOp31
 70
     1
102
RTVSPost2010Prop32
280
     0
102
RTVSPost2010PropOp32
 70
     1
102
RTVSPost2010Prop33
280
     0
102
RTVSPost2010PropOp33
 70
     1
102
RTVSPost2010Prop34
280
     0
102
RTVSPost2010PropOp34
 70
     1
102
RTVSPost2010Prop35
280
     0
102
RTVSPost2010PropOp35
 70
     1
102
RTVSPost2010Prop36
280
     0
102
RTVSPost2010PropOp36
 70
     1
102
RTVSPost2010Prop37
 90
       50
102
RTVSPost2010PropOp37
 70
     1
102
RTVSPost2010Prop38
140
0.0
102
RTVSPost2010PropOp38
 70
     1
102
RTVSPost2010Prop39
140
1.0
102
RTVSPost2010PropOp39
 70
     1
102
RTVSPost2010Prop40
 90
        0
102
RTVSPost2010PropOp40
 70
     1
102
RTVSPost2010Prop41ColorIndex
 90
       18
102
RTVSPost2010Prop41ColorRGB
 90
        0
102
RTVSPost2010PropOp41
 70
     1
102
RTVSPost2010Prop42
 90
       50
102
RTVSPost2010PropOp42
 70
     1
102
RTVSPost2010Prop43
 90
        3
102
RTVSPost2010PropOp43
 70
     1
102
RTVSPost2010Prop44ColorIndex
 90
        5
102
RTVSPost2010Prop44ColorRGB
 90
      255
102
RTVSPost2010PropOp44
 70
     1
102
RTVSPost2010Prop45
280
     0
102
RTVSPost2010PropOp45
 70
     1
102
RTVSPost2010Prop46
 90
       50
102
RTVSPost2010PropOp46
 70
     1
102
RTVSPost2010Prop47
 90
       50
102
RTVSPost2010PropOp47
 70
     1
102
RTVSPost2010Prop48
 90
       50
102
RTVSPost2010PropOp48
 70
     1
102
RTVSPost2010Prop49
280
     0
102
RTVSPost2010PropOp49
 70
     1
102
RTVSPost2010Prop50
 90
       50
102
RTVSPost2010PropOp50
 70
     1
102
RTVSPost2010Prop51ColorIndex
 90
      256
102
RTVSPost2010Prop51ColorRGB
 90
-16777216
102
RTVSPost2010PropOp51
 70
     0
102
RTVSPost2010Prop52
140
1.0
102
RTVSPost2010PropOp52
 70
     0
102
RTVSPost2010Prop53
 90
        2
102
RTVSPost2010PropOp53
 70
     1
102
RTVSPost2010Prop54
  1
strokes_ogs.tif
102
RTVSPost2010PropOp54
 70
     1
102
RTVSPost2010Prop55
280
     0
102
RTVSPost2010PropOp55
 70
     1
102
RTVSPost2010Prop56
140
1.0
102
RTVSPost2010PropOp56
 70
     1
102
RTVSPost2010Prop57
140
1.0
102
RTVSPost2010PropOp57
 70
     1
  0
XRECORD
  5
137
102
{ACAD_REACTORS
330
136
102
}
330
136
100
AcDbXrecord
280
     1
102
RTVSPost2010Prop28
280
     0
102
RTVSPost2010PropOp28
 70
     1
102
RTVSPost2010Prop29
280
     1
102
RTVSPost2010PropOp29
 70
     1
102
RTVSPost2010Prop30
280
     1
102
RTVSPost2010PropOp30
 70
     1
102
RTVSPost2010Prop31
280
     0
102
RTVSPost2010PropOp31
 70
     1
102
RTVSPost2010Prop32
280
     0
102
RTVSPost2010PropOp32
 70
     1
102
RTVSPost2010Prop33
280
     0
102
RTVSPost2010PropOp33
 70
     1
102
RTVSPost2010Prop34
280
     0
102
RTVSPost2010PropOp34
 70
     1
102
RTVSPost2010Prop35
280
     0
102
RTVSPost2010PropOp35
 70
     1
102
RTVSPost2010Prop36
280
     0
102
RTVSPost2010PropOp36
 70
     1
102
RTVSPost2010Prop37
 90
       50
102
RTVSPost2010PropOp37
 70
     1
102
RTVSPost2010Prop38
140
0.0
102
RTVSPost2010PropOp38
 70
     1
102
RTVSPost2010Prop39
140
1.0
102
RTVSPost2010PropOp39
 70
     1
102
RTVSPost2010Prop40
 90
        0
102
RTVSPost2010PropOp40
 70
     1
102
RTVSPost2010Prop41ColorIndex
 90
       18
102
RTVSPost2010Prop41ColorRGB
 90
        0
102
RTVSPost2010PropOp41
 70
     1
102
RTVSPost2010Prop42
 90
       50
102
RTVSPost2010PropOp42
 70
     1
102
RTVSPost2010Prop43
 90
        3
102
RTVSPost2010PropOp43
 70
     1
102
RTVSPost2010Prop44ColorIndex
 90
        5
102
RTVSPost2010Prop44ColorRGB
 90
      255
102
RTVSPost2010PropOp44
 70
     1
102
RTVSPost2010Prop45
280
     0
102
RTVSPost2010PropOp45
 70
     1
102
RTVSPost2010Prop46
 90
       50
102
RTVSPost2010PropOp46
 70
     1
102
RTVSPost2010Prop47
 90
       50
102
RTVSPost2010PropOp47
 70
     1
102
RTVSPost2010Prop48
 90
       50
102
RTVSPost2010PropOp48
 70
     1
102
RTVSPost2010Prop49
280
     0
102
RTVSPost2010PropOp49
 70
     1
102
RTVSPost2010Prop50
 90
       50
102
RTVSPost2010PropOp50
 70
     1
102
RTVSPost2010Prop51ColorIndex
 90
      256
102
RTVSPost2010Prop51ColorRGB
 90
-16777216
102
RTVSPost2010PropOp51
 70
     0
102
RTVSPost2010Prop52
140
1.0
102
RTVSPost2010PropOp52
 70
     0
102
RTVSPost2010Prop53
 90
        2
102
RTVSPost2010PropOp53
 70
     1
102
RTVSPost2010Prop54
  1
strokes_ogs.tif
102
RTVSPost2010PropOp54
 70
     1
102
RTVSPost2010Prop55
280
     0
102
RTVSPost2010PropOp55
 70
     1
102
RTVSPost2010Prop56
140
1.0
102
RTVSPost2010PropOp56
 70
     1
102
RTVSPost2010Prop57
140
1.0
102
RTVSPost2010PropOp57
 70
     1
  0
XRECORD
  5
14F
102
{ACAD_REACTORS
330
14E
102
}
330
14E
100
AcDbXrecord
280
     1
102
RTVSPost2010Prop28
280
     0
102
RTVSPost2010PropOp28
 70
     1
102
RTVSPost2010Prop29
280
     1
102
RTVSPost2010PropOp29
 70
     1
102
RTVSPost2010Prop30
280
     1
102
RTVSPost2010PropOp30
 70
     1
102
RTVSPost2010Prop31
280
     0
102
RTVSPost2010PropOp31
 70
     1
102
RTVSPost2010Prop32
280
     0
102
RTVSPost2010PropOp32
 70
     1
102
RTVSPost2010Prop33
280
     0
102
RTVSPost2010PropOp33
 70
     1
102
RTVSPost2010Prop34
280
     0
102
RTVSPost2010PropOp34
 70
     1
102
RTVSPost2010Prop35
280
     0
102
RTVSPost2010PropOp35
 70
     1
102
RTVSPost2010Prop36
280
     0
102
RTVSPost2010PropOp36
 70
     1
102
RTVSPost2010Prop37
 90
       50
102
RTVSPost2010PropOp37
 70
     1
102
RTVSPost2010Prop38
140
0.0
102
RTVSPost2010PropOp38
 70
     1
102
RTVSPost2010Prop39
140
1.0
102
RTVSPost2010PropOp39
 70
     1
102
RTVSPost2010Prop40
 90
        0
102
RTVSPost2010PropOp40
 70
     1
102
RTVSPost2010Prop41ColorIndex
 90
       18
102
RTVSPost2010Prop41ColorRGB
 90
        0
102
RTVSPost2010PropOp41
 70
     1
102
RTVSPost2010Prop42
 90
       50
102
RTVSPost2010PropOp42
 70
     1
102
RTVSPost2010Prop43
 90
        3
102
RTVSPost2010PropOp43
 70
     1
102
RTVSPost2010Prop44ColorIndex
 90
        5
102
RTVSPost2010Prop44ColorRGB
 90
      255
102
RTVSPost2010PropOp44
 70
     1
102
RTVSPost2010Prop45
280
     0
102
RTVSPost2010PropOp45
 70
     1
102
RTVSPost2010Prop46
 90
       50
102
RTVSPost2010PropOp46
 70
     1
102
RTVSPost2010Prop47
 90
       50
102
RTVSPost2010PropOp47
 70
     1
102
RTVSPost2010Prop48
 90
       50
102
RTVSPost2010PropOp48
 70
     1
102
RTVSPost2010Prop49
280
     0
102
RTVSPost2010PropOp49
 70
     1
102
RTVSPost2010Prop50
 90
       50
102
RTVSPost2010PropOp50
 70
     1
102
RTVSPost2010Prop51ColorIndex
 90
      256
102
RTVSPost2010Prop51ColorRGB
 90
-16777216
102
RTVSPost2010PropOp51
 70
     0
102
RTVSPost2010Prop52
140
1.0
102
RTVSPost2010PropOp52
 70
     0
102
RTVSPost2010Prop53
 90
        2
102
RTVSPost2010PropOp53
 70
     1
102
RTVSPost2010Prop54
  1
strokes_ogs.tif
102
RTVSPost2010PropOp54
 70
     1
102
RTVSPost2010Prop55
280
     0
102
RTVSPost2010PropOp55
 70
     1
102
RTVSPost2010Prop56
140
1.0
102
RTVSPost2010PropOp56
 70
     1
102
RTVSPost2010Prop57
140
1.0
102
RTVSPost2010PropOp57
 70
     1
  0
ENDSEC
  0
EOF
