  0
SECTION
  2
HEADER
  9
$ACADVER
  1
AC1024
  9
$ACADMAINTVER
 70
   226
  9
$DWGCODEPAGE
  3
ANSI_1252
  9
$INSBASE
 10
0.0
 20
0.0
 30
0.0
  9
$EXTMIN
 10
1.000000000000000E+20
 20
1.000000000000000E+20
 30
1.000000000000000E+20
  9
$EXTMAX
 10
-1.000000000000000E+20
 20
-1.000000000000000E+20
 30
-1.000000000000000E+20
  9
$LIMMIN
 10
0.0
 20
0.0
  9
$LIMMAX
 10
12.0
 20
9.0
  9
$ORTHOMODE
 70
     0
  9
$REGENMODE
 70
     1
  9
$FILLMODE
 70
     1
  9
$QTEXTMODE
 70
     0
  9
$MIRRTEXT
 70
     0
  9
$LTSCALE
 40
1.0
  9
$ATTMODE
 70
     1
  9
$TEXTSIZE
 40
0.2
  9
$TRACEWID
 40
0.05
  9
$TEXTSTYLE
  7
Standard
  9
$CLAYER
  8
0
  9
$CELTYPE
  6
ByLayer
  9
$CECOLOR
 62
   256
  9
$CELTSCALE
 40
1.0
  9
$DISPSILH
 70
     0
  9
$DIMSCALE
 40
1.0
  9
$DIMASZ
 40
0.18
  9
$DIMEXO
 40
0.0625
  9
$DIMDLI
 40
0.38
  9
$DIMRND
 40
0.0
  9
$DIMDLE
 40
0.0
  9
$DIMEXE
 40
0.18
  9
$DIMTP
 40
0.0
  9
$DIMTM
 40
0.0
  9
$DIMTXT
 40
0.18
  9
$DIMCEN
 40
0.09
  9
$DIMTSZ
 40
0.0
  9
$DIMTOL
 70
     0
  9
$DIMLIM
 70
     0
  9
$DIMTIH
 70
     1
  9
$DIMTOH
 70
     1
  9
$DIMSE1
 70
     0
  9
$DIMSE2
 70
     0
  9
$DIMTAD
 70
     0
  9
$DIMZIN
 70
     0
  9
$DIMBLK
  1

  9
$DIMASO
 70
     1
  9
$DIMSHO
 70
     1
  9
$DIMPOST
  1

  9
$DIMAPOST
  1

  9
$DIMALT
 70
     0
  9
$DIMALTD
 70
     2
  9
$DIMALTF
 40
25.4
  9
$DIMLFAC
 40
1.0
  9
$DIMTOFL
 70
     0
  9
$DIMTVP
 40
0.0
  9
$DIMTIX
 70
     0
  9
$DIMSOXD
 70
     0
  9
$DIMSAH
 70
     0
  9
$DIMBLK1
  1

  9
$DIMBLK2
  1

  9
$DIMSTYLE
  2
Standard
  9
$DIMCLRD
 70
     0
  9
$DIMCLRE
 70
     0
  9
$DIMCLRT
 70
     0
  9
$DIMTFAC
 40
1.0
  9
$DIMGAP
 40
0.09
  9
$DIMJUST
 70
     0
  9
$DIMSD1
 70
     0
  9
$DIMSD2
 70
     0
  9
$DIMTOLJ
 70
     1
  9
$DIMTZIN
 70
     0
  9
$DIMALTZ
 70
     0
  9
$DIMALTTZ
 70
     0
  9
$DIMUPT
 70
     0
  9
$DIMDEC
 70
     4
  9
$DIMTDEC
 70
     4
  9
$DIMALTU
 70
     2
  9
$DIMALTTD
 70
     2
  9
$DIMTXSTY
  7
Standard
  9
$DIMAUNIT
 70
     0
  9
$DIMADEC
 70
     0
  9
$DIMALTRND
 40
0.0
  9
$DIMAZIN
 70
     0
  9
$DIMDSEP
 70
    46
  9
$DIMATFIT
 70
     3
  9
$DIMFRAC
 70
     0
  9
$DIMLDRBLK
  1

  9
$DIMLUNIT
 70
     2
  9
$DIMLWD
 70
    -2
  9
$DIMLWE
 70
    -2
  9
$DIMTMOVE
 70
     0
  9
$DIMFXL
 40
1.0
  9
$DIMFXLON
 70
     0
  9
$DIMJOGANG
 40
0.7853981633974483
  9
$DIMTFILL
 70
     0
  9
$DIMTFILLCLR
 70
     0
  9
$DIMARCSYM
 70
     0
  9
$DIMLTYPE
  6

  9
$DIMLTEX1
  6

  9
$DIMLTEX2
  6

  9
$DIMTXTDIRECTION
 70
     0
  9
$LUNITS
 70
     2
  9
$LUPREC
 70
     4
  9
$SKETCHINC
 40
0.1
  9
$FILLETRAD
 40
0.0
  9
$AUNITS
 70
     0
  9
$AUPREC
 70
     0
  9
$MENU
  1
.
  9
$ELEVATION
 40
0.0
  9
$PELEVATION
 40
0.0
  9
$THICKNESS
 40
0.0
  9
$LIMCHECK
 70
     0
  9
$CHAMFERA
 40
0.0
  9
$CHAMFERB
 40
0.0
  9
$CHAMFERC
 40
0.0
  9
$CHAMFERD
 40
0.0
  9
$SKPOLY
 70
     0
  9
$TDCREATE
 40
2459942.652500000
  9
$TDUCREATE
 40
2459942.610833333
  9
$TDUPDATE
 40
2459942.652500000
  9
$TDUUPDATE
 40
2459942.610833333
  9
$TDINDWG
 40
0.0000000000
  9
$TDUSRTIMER
 40
0.0000000000
  9
$USRTIMER
 70
     1
  9
$ANGBASE
 50
0.0
  9
$ANGDIR
 70
     0
  9
$PDMODE
 70
     0
  9
$PDSIZE
 40
0.0
  9
$PLINEWID
 40
0.0
  9
$SPLFRAME
 70
     0
  9
$SPLINETYPE
 70
     6
  9
$SPLINESEGS
 70
     8
  9
$HANDSEED
  5
27A
  9
$SURFTAB1
 70
     6
  9
$SURFTAB2
 70
     6
  9
$SURFTYPE
 70
     6
  9
$SURFU
 70
     6
  9
$SURFV
 70
     6
  9
$UCSBASE
  2

  9
$UCSNAME
  2

  9
$UCSORG
 10
0.0
 20
0.0
 30
0.0
  9
$UCSXDIR
 10
1.0
 20
0.0
 30
0.0
  9
$UCSYDIR
 10
0.0
 20
1.0
 30
0.0
  9
$UCSORTHOREF
  2

  9
$UCSORTHOVIEW
 70
     0
  9
$UCSORGTOP
 10
0.0
 20
0.0
 30
0.0
  9
$UCSORGBOTTOM
 10
0.0
 20
0.0
 30
0.0
  9
$UCSORGLEFT
 10
0.0
 20
0.0
 30
0.0
  9
$UCSORGRIGHT
 10
0.0
 20
0.0
 30
0.0
  9
$UCSORGFRONT
 10
0.0
 20
0.0
 30
0.0
  9
$UCSORGBACK
 10
0.0
 20
0.0
 30
0.0
  9
$PUCSBASE
  2

  9
$PUCSNAME
  2

  9
$PUCSORG
 10
0.0
 20
0.0
 30
0.0
  9
$PUCSXDIR
 10
1.0
 20
0.0
 30
0.0
  9
$PUCSYDIR
 10
0.0
 20
1.0
 30
0.0
  9
$PUCSORTHOREF
  2

  9
$PUCSORTHOVIEW
 70
     0
  9
$PUCSORGTOP
 10
0.0
 20
0.0
 30
0.0
  9
$PUCSORGBOTTOM
 10
0.0
 20
0.0
 30
0.0
  9
$PUCSORGLEFT
 10
0.0
 20
0.0
 30
0.0
  9
$PUCSORGRIGHT
 10
0.0
 20
0.0
 30
0.0
  9
$PUCSORGFRONT
 10
0.0
 20
0.0
 30
0.0
  9
$PUCSORGBACK
 10
0.0
 20
0.0
 30
0.0
  9
$USERI1
 70
     0
  9
$USERI2
 70
     0
  9
$USERI3
 70
     0
  9
$USERI4
 70
     0
  9
$USERI5
 70
     0
  9
$USERR1
 40
0.0
  9
$USERR2
 40
0.0
  9
$USERR3
 40
0.0
  9
$USERR4
 40
0.0
  9
$USERR5
 40
0.0
  9
$WORLDVIEW
 70
     1
  9
$SHADEDGE
 70
     3
  9
$SHADEDIF
 70
    70
  9
$TILEMODE
 70
     1
  9
$MAXACTVP
 70
    64
  9
$PINSBASE
 10
0.0
 20
0.0
 30
0.0
  9
$PLIMCHECK
 70
     0
  9
$PEXTMIN
 10
1.000000000000000E+20
 20
1.000000000000000E+20
 30
1.000000000000000E+20
  9
$PEXTMAX
 10
-1.000000000000000E+20
 20
-1.000000000000000E+20
 30
-1.000000000000000E+20
  9
$PLIMMIN
 10
0.0
 20
0.0
  9
$PLIMMAX
 10
12.0
 20
9.0
  9
$UNITMODE
 70
     0
  9
$VISRETAIN
 70
     1
  9
$PLINEGEN
 70
     0
  9
$PSLTSCALE
 70
     1
  9
$TREEDEPTH
 70
  3020
  9
$CMLSTYLE
  2
Standard
  9
$CMLJUST
 70
     0
  9
$CMLSCALE
 40
1.0
  9
$PROXYGRAPHICS
 70
     1
  9
$MEASUREMENT
 70
     0
  9
$CELWEIGHT
370
    -1
  9
$ENDCAPS
280
     0
  9
$JOINSTYLE
280
     0
  9
$LWDISPLAY
290
     1
  9
$INSUNITS
 70
     4
  9
$HYPERLINKBASE
  1

  9
$STYLESHEET
  1

  9
$XEDIT
290
     1
  9
$CEPSNTYPE
380
     0
  9
$PSTYLEMODE
290
     1
  9
$FINGERPRINTGUID
  2
{EF7D74E2-B1A1-994E-B9FF-6C97F8B75151}
  9
$VERSIONGUID
  2
{C275DAF7-AC96-DF45-A083-75D5EDF8A1F7}
  9
$EXTNAMES
290
     1
  9
$PSVPSCALE
 40
0.0
  9
$OLESTARTUP
290
     0
  9
$SORTENTS
280
   127
  9
$INDEXCTL
280
     0
  9
$HIDETEXT
280
     1
  9
$XCLIPFRAME
280
     2
  9
$HALOGAP
280
     0
  9
$OBSCOLOR
 70
   257
  9
$OBSLTYPE
280
     0
  9
$INTERSECTIONDISPLAY
280
     0
  9
$INTERSECTIONCOLOR
 70
   257
  9
$DIMASSOC
280
     2
  9
$PROJECTNAME
  1

  9
$CAMERADISPLAY
290
     0
  9
$LENSLENGTH
 40
50.0
  9
$CAMERAHEIGHT
 40
0.0
  9
$STEPSPERSEC
 40
2.0
  9
$STEPSIZE
 40
6.0
  9
$3DDWFPREC
 40
2.0
  9
$PSOLWIDTH
 40
0.25
  9
$PSOLHEIGHT
 40
4.0
  9
$LOFTANG1
 40
1.570796326794896
  9
$LOFTANG2
 40
1.570796326794896
  9
$LOFTMAG1
 40
0.0
  9
$LOFTMAG2
 40
0.0
  9
$LOFTPARAM
 70
     7
  9
$LOFTNORMALS
280
     1
  9
$LATITUDE
 40
37.795
  9
$LONGITUDE
 40
-122.394
  9
$NORTHDIRECTION
 40
0.0
  9
$TIMEZONE
 70
 -8000
  9
$LIGHTGLYPHDISPLAY
280
     1
  9
$TILEMODELIGHTSYNCH
280
     1
  9
$CMATERIAL
347
11
  9
$SOLIDHIST
280
     0
  9
$SHOWHIST
280
     1
  9
$DWFFRAME
280
     2
  9
$DGNFRAME
280
     0
  9
$REALWORLDSCALE
290
     1
  9
$INTERFERECOLOR
 62
     1
  9
$INTERFEREOBJVS
345
33
  9
$INTERFEREVPVS
346
30
  9
$CSHADOW
280
     0
  9
$SHADOWPLANELOCATION
 40
0.0
  0
ENDSEC
  0
SECTION
  2
CLASSES
  0
CLASS
  1
ACDBDICTIONARYWDFLT
  2
AcDbDictionaryWithDefault
  3
ObjectDBX Classes
 90
        0
 91
        1
280
     0
281
     0
  0
CLASS
  1
MATERIAL
  2
AcDbMaterial
  3
ObjectDBX Classes
 90
     1153
 91
        3
280
     0
281
     0
  0
CLASS
  1
VISUALSTYLE
  2
AcDbVisualStyle
  3
ObjectDBX Classes
 90
     4095
 91
       24
280
     0
281
     0
  0
CLASS
  1
SCALE
  2
AcDbScale
  3
ObjectDBX Classes
 90
     1153
 91
       17
280
     0
281
     0
  0
CLASS
  1
TABLESTYLE
  2
AcDbTableStyle
  3
ObjectDBX Classes
 90
     4095
 91
        1
280
     0
281
     0
  0
CLASS
  1
MLEADERSTYLE
  2
AcDbMLeaderStyle
  3
ACDB_MLEADERSTYLE_CLASS
 90
     4095
 91
        1
280
     0
281
     0
  0
CLASS
  1
ACDBSECTIONVIEWSTYLE
  2
AcDbSectionViewStyle
  3
ObjectDBX Classes
 90
     1025
 91
        1
280
     0
281
     0
  0
CLASS
  1
ACDBDETAILVIEWSTYLE
  2
AcDbDetailViewStyle
  3
ObjectDBX Classes
 90
     1025
 91
        1
280
     0
281
     0
  0
CLASS
  1
DICTIONARYVAR
  2
AcDbDictionaryVar
  3
ObjectDBX Classes
 90
        0
 91
        5
280
     0
281
     0
  0
CLASS
  1
CELLSTYLEMAP
  2
AcDbCellStyleMap
  3
ObjectDBX Classes
 90
     1152
 91
        1
280
     0
281
     0
  0
ENDSEC
  0
SECTION
  2
TABLES
  0
TABLE
  2
VPORT
  5
8
330
0
100
AcDbSymbolTable
 70
     1
  0
VPORT
  5
57
330
8
100
AcDbSymbolTableRecord
100
AcDbViewportTableRecord
  2
*Active
 70
     0
 10
0.0
 20
0.0
 11
1.0
 21
1.0
 12
0.0
 22
0.0
 13
0.0
 23
0.0
 14
1.0
 24
1.0
 15
0.0
 25
0.0
 16
0.0
 26
0.0
 36
1.0
 17
107.9499999730125
 27
-139.699999965075
 37
0.0
 40
284.987999928753
 41
0.7727272727272729
 42
50.0
 43
0.0
 44
0.0
 50
0.0
 51
0.0
 71
     0
 72
   100
 73
     1
 74
     1
 75
     0
 76
     0
 77
     0
 78
     0
281
     0
 65
     1
110
0.0
120
0.0
130
0.0
111
1.0
121
0.0
131
0.0
112
0.0
122
1.0
132
0.0
 79
     0
146
0.0
 60
     3
 61
     5
292
     1
282
     1
141
0.0
142
0.0
 63
   250
421
  3355443
  0
ENDTAB
  0
TABLE
  2
LTYPE
  5
5
330
0
100
AcDbSymbolTable
 70
     1
  0
LTYPE
  5
5B
330
5
100
AcDbSymbolTableRecord
100
AcDbLinetypeTableRecord
  2
ByBlock
 70
     0
  3

 72
    65
 73
     0
 40
0.0
  0
LTYPE
  5
5C
330
5
100
AcDbSymbolTableRecord
100
AcDbLinetypeTableRecord
  2
ByLayer
 70
     0
  3

 72
    65
 73
     0
 40
0.0
  0
LTYPE
  5
5D
330
5
100
AcDbSymbolTableRecord
100
AcDbLinetypeTableRecord
  2
Continuous
 70
     0
  3
Solid line
 72
    65
 73
     0
 40
0.0
  0
ENDTAB
  0
TABLE
  2
LAYER
  5
2
330
0
100
AcDbSymbolTable
 70
     2
  0
LAYER
  5
54
330
2
100
AcDbSymbolTableRecord
100
AcDbLayerTableRecord
  2
0
 70
     0
 62
     7
  6
Continuous
370
    -3
390
F
347
21
  0
LAYER
  5
78
330
2
100
AcDbSymbolTableRecord
100
AcDbLayerTableRecord
  2
Capa 1
 70
     0
 62
     7
  6
Continuous
370
     0
390
F
347
21
  0
ENDTAB
  0
TABLE
  2
STYLE
  5
3
330
0
100
AcDbSymbolTable
 70
     2
  0
STYLE
  5
55
330
3
100
AcDbSymbolTableRecord
100
AcDbTextStyleTableRecord
  2
Standard
 70
     0
 40
0.0
 41
1.0
 50
0.0
 71
     0
 42
0.2
  3
txt
  4

  0
STYLE
  5
5A
330
3
100
AcDbSymbolTableRecord
100
AcDbTextStyleTableRecord
  2
Annotative
 70
     0
 40
0.0
 41
1.0
 50
0.0
 71
     0
 42
0.2
  3
txt
  4

1001
AcadAnnotative
1000
AnnotativeData
1002
{
1070
     1
1070
     1
1002
}
  0
ENDTAB
  0
TABLE
  2
VIEW
  5
6
330
0
100
AcDbSymbolTable
 70
     0
  0
ENDTAB
  0
TABLE
  2
UCS
  5
7
330
0
100
AcDbSymbolTable
 70
     0
  0
ENDTAB
  0
TABLE
  2
APPID
  5
9
330
0
100
AcDbSymbolTable
 70
     2
  0
APPID
  5
56
330
9
100
AcDbSymbolTableRecord
100
AcDbRegAppTableRecord
  2
ACAD
 70
     0
  0
APPID
  5
5E
330
9
100
AcDbSymbolTableRecord
100
AcDbRegAppTableRecord
  2
AcadAnnotative
 70
     0
  0
ENDTAB
  0
TABLE
  2
DIMSTYLE
  5
A
330
0
100
AcDbSymbolTable
 70
     2
100
AcDbDimStyleTable
 71
     0
  0
DIMSTYLE
105
58
330
A
100
AcDbSymbolTableRecord
100
AcDbDimStyleTableRecord
  2
Standard
 70
     0
340
55
  0
DIMSTYLE
105
59
330
A
100
AcDbSymbolTableRecord
100
AcDbDimStyleTableRecord
  2
Annotative
 70
     0
340
55
1001
AcadAnnotative
1000
AnnotativeData
1002
{
1070
     1
1070
     1
1002
}
  0
ENDTAB
  0
TABLE
  2
BLOCK_RECORD
  5
1
330
0
100
AcDbSymbolTable
 70
     5
  0
BLOCK_RECORD
  5
70
330
1
100
AcDbSymbolTableRecord
100
AcDbBlockTableRecord
  2
*Model_Space
340
73
 70
     0
280
     1
281
     0
  0
BLOCK_RECORD
  5
6C
330
1
100
AcDbSymbolTableRecord
100
AcDbBlockTableRecord
  2
*Paper_Space
340
6F
 70
     0
280
     1
281
     0
  0
BLOCK_RECORD
  5
74
330
1
100
AcDbSymbolTableRecord
100
AcDbBlockTableRecord
  2
*Paper_Space0
340
77
 70
     0
280
     1
281
     0
  0
BLOCK_RECORD
  5
79
330
1
100
AcDbSymbolTableRecord
100
AcDbBlockTableRecord
  2
Block_0
340
0
102
{BLKREFS
331
7A
102
}
 70
     0
280
     1
281
     0
  0
BLOCK_RECORD
  5
217
330
1
100
AcDbSymbolTableRecord
100
AcDbBlockTableRecord
  2
Block_1
340
0
102
{BLKREFS
331
218
102
}
 70
     0
280
     1
281
     0
  0
BLOCK_RECORD
  5
227
330
1
100
AcDbSymbolTableRecord
100
AcDbBlockTableRecord
  2
Block_2
340
0
102
{BLKREFS
331
228
102
}
 70
     0
280
     1
281
     0
  0
BLOCK_RECORD
  5
231
330
1
100
AcDbSymbolTableRecord
100
AcDbBlockTableRecord
  2
Block_3
340
0
102
{BLKREFS
331
232
102
}
 70
     0
280
     1
281
     0
  0
ENDTAB
  0
ENDSEC
  0
SECTION
  2
BLOCKS
  0
BLOCK
  5
71
330
70
100
AcDbEntity
  8
0
100
AcDbBlockBegin
  2
*Model_Space
 70
     0
 10
0.0
 20
0.0
 30
0.0
  3
*Model_Space
  1

  0
ENDBLK
  5
72
330
70
100
AcDbEntity
  8
0
100
AcDbBlockEnd
  0
BLOCK
  5
6D
330
6C
100
AcDbEntity
 67
     1
  8
0
100
AcDbBlockBegin
  2
*Paper_Space
 70
     0
 10
0.0
 20
0.0
 30
0.0
  3
*Paper_Space
  1

  0
ENDBLK
  5
6E
330
6C
100
AcDbEntity
 67
     1
  8
0
100
AcDbBlockEnd
  0
BLOCK
  5
75
330
74
100
AcDbEntity
 67
     1
  8
0
100
AcDbBlockBegin
  2
*Paper_Space0
 70
     0
 10
0.0
 20
0.0
 30
0.0
  3
*Paper_Space0
  1

  0
ENDBLK
  5
76
330
74
100
AcDbEntity
 67
     1
  8
0
100
AcDbBlockEnd
  0
BLOCK
  5
7B
330
79
100
AcDbEntity
  8
0
100
AcDbBlockBegin
  2
Block_0
 70
     0
 10
0.0
 20
0.0
 30
0.0
  3
Block_0
  1

  0
SPLINE
  5
7D
330
79
100
AcDbEntity
  8
Capa 1
 62
    18
420
        0
370
     9
100
AcDbSpline
210
0.0
220
0.0
230
1.0
 70
     8
 71
     3
 72
    11
 73
     7
 74
     0
 42
0.0000000001
 43
0.0000000001
 40
0.0
 40
0.0
 40
0.0
 40
0.0
 40
1.0
 40
1.0
 40
1.0
 40
2.0
 40
2.0
 40
2.0
 40
2.0
 10
130.1364224638604
 20
-136.305233956799
 30
0.0
 10
130.1364224638604
 20
-121.0974927995333
 30
0.0
 10
117.8078362088538
 20
-108.7689065445267
 30
0.0
 10
102.6000909272498
 20
-108.7689065445267
 30
0.0
 10
87.39126919346116
 20
-108.7689065445267
 30
0.0
 10
75.06268293845458
 20
-121.0974927995333
 30
0.0
 10
75.06268293845458
 20
-136.305233956799
 30
0.0
  0
SPLINE
  5
7E
330
79
100
AcDbEntity
  8
Capa 1
 62
    18
420
        0
370
     9
100
AcDbSpline
210
0.0
220
0.0
230
1.0
 70
    24
 71
     3
 72
     8
 73
     4
 74
     0
 42
0.0000000001
 43
0.0000000001
 40
0.0
 40
0.0
 40
0.0
 40
0.0
 40
1.0
 40
1.0
 40
1.0
 40
1.0
 10
129.2628299613752
 20
-159.2909174970162
 30
0.0
 10
129.2628299613752
 20
-159.2909174970162
 30
0.0
 10
129.2628299613752
 20
-136.305233956799
 30
0.0
 10
129.2628299613752
 20
-136.305233956799
 30
0.0
  0
SPLINE
  5
7F
330
79
100
AcDbEntity
  8
Capa 1
 62
    18
420
        0
370
     9
100
AcDbSpline
210
0.0
220
0.0
230
1.0
 70
     8
 71
     3
 72
    11
 73
     7
 74
     0
 42
0.0000000001
 43
0.0000000001
 40
0.0
 40
0.0
 40
0.0
 40
0.0
 40
1.0
 40
1.0
 40
1.0
 40
2.0
 40
2.0
 40
2.0
 40
2.0
 10
75.93626719226373
 20
-159.2909174970162
 30
0.0
 10
75.93626719226373
 20
-174.0164596295516
 30
0.0
 10
87.8734702803605
 20
-185.9536627176481
 30
0.0
 10
102.6000909272498
 20
-185.9536627176481
 30
0.0
 10
117.3256309976164
 20
-185.9536627176481
 30
0.0
 10
129.2628299613752
 20
-174.0164596295516
 30
0.0
 10
129.2628299613752
 20
-159.2909174970162
 30
0.0
  0
SPLINE
  5
80
330
79
100
AcDbEntity
  8
Capa 1
 62
    18
420
        0
370
     9
100
AcDbSpline
210
0.0
220
0.0
230
1.0
 70
    24
 71
     3
 72
     8
 73
     4
 74
     0
 42
0.0000000001
 43
0.0000000001
 40
0.0
 40
0.0
 40
0.0
 40
0.0
 40
1.0
 40
1.0
 40
1.0
 40
1.0
 10
75.93626719226373
 20
-136.305233956799
 30
0.0
 10
75.93626719226373
 20
-136.305233956799
 30
0.0
 10
75.93626719226373
 20
-159.2909174970162
 30
0.0
 10
75.93626719226373
 20
-159.2909174970162
 30
0.0
  0
SPLINE
  5
81
330
79
100
AcDbEntity
  8
Capa 1
 62
    18
420
        0
370
     9
100
AcDbSpline
210
0.0
220
0.0
230
1.0
 70
     8
 71
     3
 72
    11
 73
     7
 74
     0
 42
0.0000000001
 43
0.0000000001
 40
0.0
 40
0.0
 40
0.0
 40
0.0
 40
1.0
 40
1.0
 40
1.0
 40
2.0
 40
2.0
 40
2.0
 40
2.0
 10
129.2628299613752
 20
-136.305233956799
 30
0.0
 10
129.2628299613752
 20
-121.5796938864324
 30
0.0
 10
117.3256309976164
 20
-109.6424907983359
 30
0.0
 10
102.6000909272498
 20
-109.6424907983359
 30
0.0
 10
87.8734702803605
 20
-109.6424907983359
 30
0.0
 10
75.93626719226373
 20
-121.5796938864324
 30
0.0
 10
75.93626719226373
 20
-136.305233956799
 30
0.0
  0
SPLINE
  5
82
330
79
100
AcDbEntity
  8
Capa 1
 62
    18
420
        0
370
     9
100
AcDbSpline
210
0.0
220
0.0
230
1.0
 70
    24
 71
     3
 72
     8
 73
     4
 74
     0
 42
0.0000000001
 43
0.0000000001
 40
0.0
 40
0.0
 40
0.0
 40
0.0
 40
1.0
 40
1.0
 40
1.0
 40
1.0
 10
75.06268293845458
 20
-136.305233956799
 30
0.0
 10
75.06268293845458
 20
-136.305233956799
 30
0.0
 10
75.06268293845458
 20
-159.2909174970162
 30
0.0
 10
75.06268293845458
 20
-159.2909174970162
 30
0.0
  0
SPLINE
  5
83
330
79
100
AcDbEntity
  8
Capa 1
 62
    18
420
        0
370
     9
100
AcDbSpline
210
0.0
220
0.0
230
1.0
 70
     8
 71
     3
 72
    11
 73
     7
 74
     0
 42
0.0000000001
 43
0.0000000001
 40
0.0
 40
0.0
 40
0.0
 40
0.0
 40
1.0
 40
1.0
 40
1.0
 40
2.0
 40
2.0
 40
2.0
 40
2.0
 10
75.06268293845458
 20
-159.2909174970162
 30
0.0
 10
75.06268293845458
 20
-174.4986607164507
 30
0.0
 10
87.39126919346116
 20
-186.8272469714572
 30
0.0
 10
102.6000909272498
 20
-186.8272469714572
 30
0.0
 10
117.8078362088538
 20
-186.8272469714572
 30
0.0
 10
130.1364224638604
 20
-174.4986607164507
 30
0.0
 10
130.1364224638604
 20
-159.2909174970162
 30
0.0
  0
SPLINE
  5
84
330
79
100
AcDbEntity
  8
Capa 1
 62
    18
420
        0
370
     9
100
AcDbSpline
210
0.0
220
0.0
230
1.0
 70
    24
 71
     3
 72
     8
 73
     4
 74
     0
 42
0.0000000001
 43
0.0000000001
 40
0.0
 40
0.0
 40
0.0
 40
0.0
 40
1.0
 40
1.0
 40
1.0
 40
1.0
 10
130.1364224638604
 20
-159.2909174970162
 30
0.0
 10
130.1364224638604
 20
-159.2909174970162
 30
0.0
 10
130.1364224638604
 20
-136.305233956799
 30
0.0
 10
130.1364224638604
 20
-136.305233956799
 30
0.0
  0
SPLINE
  5
85
330
79
100
AcDbEntity
  8
Capa 1
 62
    18
420
        0
370
     9
100
AcDbSpline
210
0.0
220
0.0
230
1.0
 70
    24
 71
     3
 72
     8
 73
     4
 74
     0
 42
0.0000000001
 43
0.0000000001
 40
0.0
 40
0.0
 40
0.0
 40
0.0
 40
1.0
 40
1.0
 40
1.0
 40
1.0
 10
75.01727397845981
 20
-136.305233956799
 30
0.0
 10
75.01727397845981
 20
-136.305233956799
 30
0.0
 10
75.01727397845981
 20
-159.2909174970162
 30
0.0
 10
75.01727397845981
 20
-159.2909174970162
 30
0.0
  0
SPLINE
  5
86
330
79
100
AcDbEntity
  8
Capa 1
 62
    18
420
        0
370
     9
100
AcDbSpline
210
0.0
220
0.0
230
1.0
 70
     8
 71
     3
 72
     8
 73
     4
 74
     0
 42
0.0000000001
 43
0.0000000001
 40
0.0
 40
0.0
 40
0.0
 40
0.0
 40
1.0
 40
1.0
 40
1.0
 40
1.0
 10
75.01727397845981
 20
-159.2909174970162
 30
0.0
 10
75.01727397845981
 20
-174.5246069260176
 30
0.0
 10
87.36640356041757
 20
-186.873736507975
 30
0.0
 10
102.6000909272498
 20
-186.873736507975
 30
0.0
  0
SPLINE
  5
87
330
79
100
AcDbEntity
  8
Capa 1
 62
    18
420
        0
370
     9
100
AcDbSpline
210
0.0
220
0.0
230
1.0
 70
     8
 71
     3
 72
     8
 73
     4
 74
     0
 42
0.0000000001
 43
0.0000000001
 40
0.0
 40
0.0
 40
0.0
 40
0.0
 40
1.0
 40
1.0
 40
1.0
 40
1.0
 10
102.6000909272498
 20
-186.873736507975
 30
0.0
 10
117.8337824184201
 20
-186.873736507975
 30
0.0
 10
130.1829120003782
 20
-174.5235263494943
 30
0.0
 10
130.1829120003782
 20
-159.2909174970162
 30
0.0
  0
SPLINE
  5
88
330
79
100
AcDbEntity
  8
Capa 1
 62
    18
420
        0
370
     9
100
AcDbSpline
210
0.0
220
0.0
230
1.0
 70
    24
 71
     3
 72
     8
 73
     4
 74
     0
 42
0.0000000001
 43
0.0000000001
 40
0.0
 40
0.0
 40
0.0
 40
0.0
 40
1.0
 40
1.0
 40
1.0
 40
1.0
 10
130.1829120003782
 20
-159.2909174970162
 30
0.0
 10
130.1829120003782
 20
-159.2909174970162
 30
0.0
 10
130.1829120003782
 20
-136.305233956799
 30
0.0
 10
130.1829120003782
 20
-136.305233956799
 30
0.0
  0
SPLINE
  5
89
330
79
100
AcDbEntity
  8
Capa 1
 62
    18
420
        0
370
     9
100
AcDbSpline
210
0.0
220
0.0
230
1.0
 70
     8
 71
     3
 72
    11
 73
     7
 74
     0
 42
0.0000000001
 43
0.0000000001
 40
0.0
 40
0.0
 40
0.0
 40
0.0
 40
1.0
 40
1.0
 40
1.0
 40
2.0
 40
2.0
 40
2.0
 40
2.0
 10
130.1829120003782
 20
-136.305233956799
 30
0.0
 10
130.1829120003782
 20
-121.0715424656287
 30
0.0
 10
117.8327018418974
 20
-108.7224170080086
 30
0.0
 10
102.6000909272498
 20
-108.7224170080086
 30
0.0
 10
87.36640356041757
 20
-108.7224170080086
 30
0.0
 10
75.01727397845981
 20
-121.0715424656287
 30
0.0
 10
75.01727397845981
 20
-136.305233956799
 30
0.0
  0
SPLINE
  5
8A
330
79
100
AcDbEntity
  8
Capa 1
 62
    18
420
        0
370
     9
100
AcDbSpline
210
0.0
220
0.0
230
1.0
 70
    24
 71
     3
 72
     8
 73
     4
 74
     0
 42
0.0000000001
 43
0.0000000001
 40
0.0
 40
0.0
 40
0.0
 40
0.0
 40
1.0
 40
1.0
 40
1.0
 40
1.0
 10
147.5789402225968
 20
-128.2256478125736
 30
0.0
 10
147.5789402225968
 20
-128.2256478125736
 30
0.0
 10
147.6524606695426
 20
-128.2256478125736
 30
0.0
 10
147.6524606695426
 20
-128.2256478125736
 30
0.0
  0
SPLINE
  5
8B
330
79
100
AcDbEntity
  8
Capa 1
 62
    18
420
        0
370
     9
100
AcDbSpline
210
0.0
220
0.0
230
1.0
 70
    24
 71
     3
 72
     8
 73
     4
 74
     0
 42
0.0000000001
 43
0.0000000001
 40
0.0
 40
0.0
 40
0.0
 40
0.0
 40
1.0
 40
1.0
 40
1.0
 40
1.0
 10
147.5789402225968
 20
-129.1457257272389
 30
0.0
 10
147.5789402225968
 20
-129.1457257272389
 30
0.0
 10
147.6524606695426
 20
-129.1457257272389
 30
0.0
 10
147.6524606695426
 20
-129.1457257272389
 30
0.0
  0
SPLINE
  5
8C
330
79
100
AcDbEntity
  8
Capa 1
 62
    18
420
        0
370
     9
100
AcDbSpline
210
0.0
220
0.0
230
1.0
 70
    24
 71
     3
 72
     8
 73
     4
 74
     0
 42
0.0000000001
 43
0.0000000001
 40
0.0
 40
0.0
 40
0.0
 40
0.0
 40
1.0
 40
1.0
 40
1.0
 40
1.0
 10
147.5789402225968
 20
-123.4220067444706
 30
0.0
 10
147.5789402225968
 20
-123.4220067444706
 30
0.0
 10
147.6524606695426
 20
-123.4220067444706
 30
0.0
 10
147.6524606695426
 20
-123.4220067444706
 30
0.0
  0
SPLINE
  5
8D
330
79
100
AcDbEntity
  8
Capa 1
 62
    18
420
        0
370
     9
100
AcDbSpline
210
0.0
220
0.0
230
1.0
 70
    24
 71
     3
 72
     8
 73
     4
 74
     0
 42
0.0000000001
 43
0.0000000001
 40
0.0
 40
0.0
 40
0.0
 40
0.0
 40
1.0
 40
1.0
 40
1.0
 40
1.0
 10
147.5789402225968
 20
-122.5019329541437
 30
0.0
 10
147.5789402225968
 20
-122.5019329541437
 30
0.0
 10
147.6524606695426
 20
-122.5019329541437
 30
0.0
 10
147.6524606695426
 20
-122.5019329541437
 30
0.0
  0
SPLINE
  5
8E
330
79
100
AcDbEntity
  8
Capa 1
 62
    18
420
        0
370
     9
100
AcDbSpline
210
0.0
220
0.0
230
1.0
 70
    24
 71
     3
 72
     8
 73
     4
 74
     0
 42
0.0000000001
 43
0.0000000001
 40
0.0
 40
0.0
 40
0.0
 40
0.0
 40
1.0
 40
1.0
 40
1.0
 40
1.0
 10
147.5789402225968
 20
-172.0703536845715
 30
0.0
 10
147.5789402225968
 20
-172.0703536845715
 30
0.0
 10
147.6524606695426
 20
-172.0703536845715
 30
0.0
 10
147.6524606695426
 20
-172.0703536845715
 30
0.0
  0
SPLINE
  5
8F
330
79
100
AcDbEntity
  8
Capa 1
 62
    18
420
        0
370
     9
100
AcDbSpline
210
0.0
220
0.0
230
1.0
 70
    24
 71
     3
 72
     8
 73
     4
 74
     0
 42
0.0000000001
 43
0.0000000001
 40
0.0
 40
0.0
 40
0.0
 40
0.0
 40
1.0
 40
1.0
 40
1.0
 40
1.0
 10
147.6524606695426
 20
-171.0983792264353
 30
0.0
 10
147.6524606695426
 20
-171.0983792264353
 30
0.0
 10
147.5789402225968
 20
-171.0983792264353
 30
0.0
 10
147.5789402225968
 20
-171.0983792264353
 30
0.0
  0
SPLINE
  5
90
330
79
100
AcDbEntity
  8
Capa 1
 62
    18
420
        0
370
     9
100
AcDbSpline
210
0.0
220
0.0
230
1.0
 70
    24
 71
     3
 72
     8
 73
     4
 74
     0
 42
0.0000000001
 43
0.0000000001
 40
0.0
 40
0.0
 40
0.0
 40
0.0
 40
1.0
 40
1.0
 40
1.0
 40
1.0
 10
147.5789402225968
 20
-157.8118763189374
 30
0.0
 10
147.5789402225968
 20
-157.8118763189374
 30
0.0
 10
147.6524606695426
 20
-157.8118763189374
 30
0.0
 10
147.6524606695426
 20
-157.8118763189374
 30
0.0
  0
SPLINE
  5
91
330
79
100
AcDbEntity
  8
Capa 1
 62
    18
420
        0
370
     9
100
AcDbSpline
210
0.0
220
0.0
230
1.0
 70
    24
 71
     3
 72
     8
 73
     4
 74
     0
 42
0.0000000001
 43
0.0000000001
 40
0.0
 40
0.0
 40
0.0
 40
0.0
 40
1.0
 40
1.0
 40
1.0
 40
1.0
 10
147.5789402225968
 20
-173.0823259714114
 30
0.0
 10
147.5789402225968
 20
-173.0823259714114
 30
0.0
 10
147.6524606695426
 20
-173.0823259714114
 30
0.0
 10
147.6524606695426
 20
-173.0823259714114
 30
0.0
  0
SPLINE
  5
92
330
79
100
AcDbEntity
  8
Capa 1
 62
    18
420
        0
370
     9
100
AcDbSpline
210
0.0
220
0.0
230
1.0
 70
    24
 71
     3
 72
     8
 73
     4
 74
     0
 42
0.0000000001
 43
0.0000000001
 40
0.0
 40
0.0
 40
0.0
 40
0.0
 40
1.0
 40
1.0
 40
1.0
 40
1.0
 10
147.5789402225968
 20
-175.6101037841403
 30
0.0
 10
147.5789402225968
 20
-175.6101037841403
 30
0.0
 10
147.6524606695426
 20
-175.6101037841403
 30
0.0
 10
147.6524606695426
 20
-175.6101037841403
 30
0.0
  0
SPLINE
  5
93
330
79
100
AcDbEntity
  8
Capa 1
 62
    18
420
        0
370
     9
100
AcDbSpline
210
0.0
220
0.0
230
1.0
 70
    24
 71
     3
 72
     8
 73
     4
 74
     0
 42
0.0000000001
 43
0.0000000001
 40
0.0
 40
0.0
 40
0.0
 40
0.0
 40
1.0
 40
1.0
 40
1.0
 40
1.0
 10
147.5789402225968
 20
-174.6911105703367
 30
0.0
 10
147.5789402225968
 20
-174.6911105703367
 30
0.0
 10
147.6524606695426
 20
-174.6911105703367
 30
0.0
 10
147.6524606695426
 20
-174.6911105703367
 30
0.0
  0
SPLINE
  5
94
330
79
100
AcDbEntity
  8
Capa 1
 62
    18
420
        0
370
     9
100
AcDbSpline
210
0.0
220
0.0
230
1.0
 70
     8
 71
     3
 72
    11
 73
     7
 74
     0
 42
0.0000000001
 43
0.0000000001
 40
0.0
 40
0.0
 40
0.0
 40
0.0
 40
1.0
 40
1.0
 40
1.0
 40
2.0
 40
2.0
 40
2.0
 40
2.0
 10
146.8891529618134
 20
-119.2962624710597
 30
0.0
 10
146.7540066583515
 20
-119.0421867606579
 30
0.0
 10
146.4383050914338
 20
-118.9459618337149
 30
0.0
 10
146.1842293810317
 20
-119.0811081371765
 30
0.0
 10
146.0934114610415
 20
-119.1297629510783
 30
0.0
 10
146.018810437573
 20
-119.2043639745468
 30
0.0
 10
145.9701597480092
 20
-119.2962624710597
 30
0.0
  0
SPLINE
  5
95
330
79
100
AcDbEntity
  8
Capa 1
 62
    18
420
        0
370
     9
100
AcDbSpline
210
0.0
220
0.0
230
1.0
 70
    24
 71
     3
 72
     8
 73
     4
 74
     0
 42
0.0000000001
 43
0.0000000001
 40
0.0
 40
0.0
 40
0.0
 40
0.0
 40
1.0
 40
1.0
 40
1.0
 40
1.0
 10
146.8891529618134
 20
-119.2962624710597
 30
0.0
 10
146.8891529618134
 20
-119.2962624710597
 30
0.0
 10
146.8891529618134
 20
-120.6747564161038
 30
0.0
 10
146.8891529618134
 20
-120.6747564161038
 30
0.0
  0
SPLINE
  5
96
330
79
100
AcDbEntity
  8
Capa 1
 62
    18
420
        0
370
     9
100
AcDbSpline
210
0.0
220
0.0
230
1.0
 70
    24
 71
     3
 72
     8
 73
     4
 74
     0
 42
0.0000000001
 43
0.0000000001
 40
0.0
 40
0.0
 40
0.0
 40
0.0
 40
1.0
 40
1.0
 40
1.0
 40
1.0
 10
145.9701597480092
 20
-119.2962624710597
 30
0.0
 10
145.9701597480092
 20
-119.2962624710597
 30
0.0
 10
145.9701597480092
 20
-120.6747564161038
 30
0.0
 10
145.9701597480092
 20
-120.6747564161038
 30
0.0
  0
SPLINE
  5
97
330
79
100
AcDbEntity
  8
Capa 1
 62
    18
420
        0
370
     9
100
AcDbSpline
210
0.0
220
0.0
230
1.0
 70
    24
 71
     3
 72
     8
 73
     4
 74
     0
 42
0.0000000001
 43
0.0000000001
 40
0.0
 40
0.0
 40
0.0
 40
0.0
 40
1.0
 40
1.0
 40
1.0
 40
1.0
 10
146.8891529618134
 20
-120.6747564161038
 30
0.0
 10
146.8891529618134
 20
-120.6747564161038
 30
0.0
 10
146.8891529618134
 20
-174.9213970998802
 30
0.0
 10
146.8891529618134
 20
-174.9213970998802
 30
0.0
  0
SPLINE
  5
98
330
79
100
AcDbEntity
  8
Capa 1
 62
    18
420
        0
370
     9
100
AcDbSpline
210
0.0
220
0.0
230
1.0
 70
    24
 71
     3
 72
     8
 73
     4
 74
     0
 42
0.0000000001
 43
0.0000000001
 40
0.0
 40
0.0
 40
0.0
 40
0.0
 40
1.0
 40
1.0
 40
1.0
 40
1.0
 10
145.9701597480092
 20
-120.6747564161038
 30
0.0
 10
145.9701597480092
 20
-120.6747564161038
 30
0.0
 10
145.9701597480092
 20
-174.9213970998802
 30
0.0
 10
145.9701597480092
 20
-174.9213970998802
 30
0.0
  0
SPLINE
  5
99
330
79
100
AcDbEntity
  8
Capa 1
 62
    18
420
        0
370
     9
100
AcDbSpline
210
0.0
220
0.0
230
1.0
 70
    24
 71
     3
 72
     8
 73
     4
 74
     0
 42
0.0000000001
 43
0.0000000001
 40
0.0
 40
0.0
 40
0.0
 40
0.0
 40
1.0
 40
1.0
 40
1.0
 40
1.0
 10
146.8891529618134
 20
-174.9213970998802
 30
0.0
 10
146.8891529618134
 20
-174.9213970998802
 30
0.0
 10
146.8891529618134
 20
-176.2998910449243
 30
0.0
 10
146.8891529618134
 20
-176.2998910449243
 30
0.0
  0
SPLINE
  5
9A
330
79
100
AcDbEntity
  8
Capa 1
 62
    18
420
        0
370
     9
100
AcDbSpline
210
0.0
220
0.0
230
1.0
 70
     8
 71
     3
 72
    11
 73
     7
 74
     0
 42
0.0000000001
 43
0.0000000001
 40
0.0
 40
0.0
 40
0.0
 40
0.0
 40
1.0
 40
1.0
 40
1.0
 40
2.0
 40
2.0
 40
2.0
 40
2.0
 10
145.9701597480092
 20
-176.2998910449243
 30
0.0
 10
146.1053060514711
 20
-176.5539667553258
 30
0.0
 10
146.4210076183888
 20
-176.6501916822691
 30
0.0
 10
146.6750833287909
 20
-176.5150453788072
 30
0.0
 10
146.7659012487811
 20
-176.4663905649056
 30
0.0
 10
146.8405022722496
 20
-176.3917895414372
 30
0.0
 10
146.8891529618134
 20
-176.2998910449243
 30
0.0
  0
SPLINE
  5
9B
330
79
100
AcDbEntity
  8
Capa 1
 62
    18
420
        0
370
     9
100
AcDbSpline
210
0.0
220
0.0
230
1.0
 70
    24
 71
     3
 72
     8
 73
     4
 74
     0
 42
0.0000000001
 43
0.0000000001
 40
0.0
 40
0.0
 40
0.0
 40
0.0
 40
1.0
 40
1.0
 40
1.0
 40
1.0
 10
145.9701597480092
 20
-174.9213970998802
 30
0.0
 10
145.9701597480092
 20
-174.9213970998802
 30
0.0
 10
145.9701597480092
 20
-176.2998910449243
 30
0.0
 10
145.9701597480092
 20
-176.2998910449243
 30
0.0
  0
SPLINE
  5
9C
330
79
100
AcDbEntity
  8
Capa 1
 62
    18
420
        0
370
     9
100
AcDbSpline
210
0.0
220
0.0
230
1.0
 70
    24
 71
     3
 72
     8
 73
     4
 74
     0
 42
0.0000000001
 43
0.0000000001
 40
0.0
 40
0.0
 40
0.0
 40
0.0
 40
1.0
 40
1.0
 40
1.0
 40
1.0
 10
145.3063228211305
 20
-122.5138275445726
 30
0.0
 10
145.3063228211305
 20
-122.5138275445726
 30
0.0
 10
145.9701597480092
 20
-122.5138275445726
 30
0.0
 10
145.9701597480092
 20
-122.5138275445726
 30
0.0
  0
SPLINE
  5
9D
330
79
100
AcDbEntity
  8
Capa 1
 62
    18
420
        0
370
     9
100
AcDbSpline
210
0.0
220
0.0
230
1.0
 70
    24
 71
     3
 72
     8
 73
     4
 74
     0
 42
0.0000000001
 43
0.0000000001
 40
0.0
 40
0.0
 40
0.0
 40
0.0
 40
1.0
 40
1.0
 40
1.0
 40
1.0
 10
146.8891529618134
 20
-122.5138275445726
 30
0.0
 10
146.8891529618134
 20
-122.5138275445726
 30
0.0
 10
147.5789402225968
 20
-122.5138275445726
 30
0.0
 10
147.5789402225968
 20
-122.5138275445726
 30
0.0
  0
SPLINE
  5
9E
330
79
100
AcDbEntity
  8
Capa 1
 62
    18
420
        0
370
     9
100
AcDbSpline
210
0.0
220
0.0
230
1.0
 70
    24
 71
     3
 72
     8
 73
     4
 74
     0
 42
0.0000000001
 43
0.0000000001
 40
0.0
 40
0.0
 40
0.0
 40
0.0
 40
1.0
 40
1.0
 40
1.0
 40
1.0
 10
145.2965893837469
 20
-122.5138275445726
 30
0.0
 10
145.2965893837469
 20
-122.5138275445726
 30
0.0
 10
145.2868559463639
 20
-122.5138275445726
 30
0.0
 10
145.2868559463639
 20
-122.5138275445726
 30
0.0
  0
SPLINE
  5
9F
330
79
100
AcDbEntity
  8
Capa 1
 62
    18
420
        0
370
     9
100
AcDbSpline
210
0.0
220
0.0
230
1.0
 70
    24
 71
     3
 72
     8
 73
     4
 74
     0
 42
0.0000000001
 43
0.0000000001
 40
0.0
 40
0.0
 40
0.0
 40
0.0
 40
1.0
 40
1.0
 40
1.0
 40
1.0
 10
145.3063228211305
 20
-122.5138275445726
 30
0.0
 10
145.3063228211305
 20
-122.5138275445726
 30
0.0
 10
145.2976699602702
 20
-122.5138275445726
 30
0.0
 10
145.2976699602702
 20
-122.5138275445726
 30
0.0
  0
SPLINE
  5
A0
330
79
100
AcDbEntity
  8
Capa 1
 62
    18
420
        0
370
     9
100
AcDbSpline
210
0.0
220
0.0
230
1.0
 70
    24
 71
     3
 72
     8
 73
     4
 74
     0
 42
0.0000000001
 43
0.0000000001
 40
0.0
 40
0.0
 40
0.0
 40
0.0
 40
1.0
 40
1.0
 40
1.0
 40
1.0
 10
145.2803724872258
 20
-119.2984236241058
 30
0.0
 10
145.2803724872258
 20
-119.2984236241058
 30
0.0
 10
145.2803724872258
 20
-119.2962624710597
 30
0.0
 10
145.2803724872258
 20
-119.2962624710597
 30
0.0
  0
SPLINE
  5
A1
330
79
100
AcDbEntity
  8
Capa 1
 62
    18
420
        0
370
     9
100
AcDbSpline
210
0.0
220
0.0
230
1.0
 70
    24
 71
     3
 72
     8
 73
     4
 74
     0
 42
0.0000000001
 43
0.0000000001
 40
0.0
 40
0.0
 40
0.0
 40
0.0
 40
1.0
 40
1.0
 40
1.0
 40
1.0
 10
145.2803724872258
 20
-119.3027500545356
 30
0.0
 10
145.2803724872258
 20
-119.3027500545356
 30
0.0
 10
145.2803724872258
 20
-119.2984236241058
 30
0.0
 10
145.2803724872258
 20
-119.2984236241058
 30
0.0
  0
SPLINE
  5
A2
330
79
100
AcDbEntity
  8
Capa 1
 62
    18
420
        0
370
     9
100
AcDbSpline
210
0.0
220
0.0
230
1.0
 70
    24
 71
     3
 72
     8
 73
     4
 74
     0
 42
0.0000000001
 43
0.0000000001
 40
0.0
 40
0.0
 40
0.0
 40
0.0
 40
1.0
 40
1.0
 40
1.0
 40
1.0
 10
145.2803724872258
 20
-119.3113987910581
 30
0.0
 10
145.2803724872258
 20
-119.3113987910581
 30
0.0
 10
145.2803724872258
 20
-119.3049112075819
 30
0.0
 10
145.2803724872258
 20
-119.3049112075819
 30
0.0
  0
SPLINE
  5
A3
330
79
100
AcDbEntity
  8
Capa 1
 62
    18
420
        0
370
     9
100
AcDbSpline
210
0.0
220
0.0
230
1.0
 70
    24
 71
     3
 72
     8
 73
     4
 74
     0
 42
0.0000000001
 43
0.0000000001
 40
0.0
 40
0.0
 40
0.0
 40
0.0
 40
1.0
 40
1.0
 40
1.0
 40
1.0
 10
145.2803724872258
 20
-119.3222086806263
 30
0.0
 10
145.2803724872258
 20
-119.3222086806263
 30
0.0
 10
145.2803724872258
 20
-119.3135599441041
 30
0.0
 10
145.2803724872258
 20
-119.3135599441041
 30
0.0
  0
SPLINE
  5
A4
330
79
100
AcDbEntity
  8
Capa 1
 62
    18
420
        0
370
     9
100
AcDbSpline
210
0.0
220
0.0
230
1.0
 70
    24
 71
     3
 72
     8
 73
     4
 74
     0
 42
0.0000000001
 43
0.0000000001
 40
0.0
 40
0.0
 40
0.0
 40
0.0
 40
1.0
 40
1.0
 40
1.0
 40
1.0
 10
145.2803724872258
 20
-119.3373450006247
 30
0.0
 10
145.2803724872258
 20
-119.3373450006247
 30
0.0
 10
145.2803724872258
 20
-119.3254545345334
 30
0.0
 10
145.2803724872258
 20
-119.3254545345334
 30
0.0
  0
SPLINE
  5
A5
330
79
100
AcDbEntity
  8
Capa 1
 62
    18
420
        0
370
     9
100
AcDbSpline
210
0.0
220
0.0
230
1.0
 70
    24
 71
     3
 72
     8
 73
     4
 74
     0
 42
0.0000000001
 43
0.0000000001
 40
0.0
 40
0.0
 40
0.0
 40
0.0
 40
1.0
 40
1.0
 40
1.0
 40
1.0
 10
145.2803724872258
 20
-119.3557271745298
 30
0.0
 10
145.2803724872258
 20
-119.3557271745298
 30
0.0
 10
145.2803724872258
 20
-119.3405908545315
 30
0.0
 10
145.2803724872258
 20
-119.3405908545315
 30
0.0
  0
SPLINE
  5
A6
330
79
100
AcDbEntity
  8
Capa 1
 62
    18
420
        0
370
     9
100
AcDbSpline
210
0.0
220
0.0
230
1.0
 70
    24
 71
     3
 72
     8
 73
     4
 74
     0
 42
0.0000000001
 43
0.0000000001
 40
0.0
 40
0.0
 40
0.0
 40
0.0
 40
1.0
 40
1.0
 40
1.0
 40
1.0
 10
145.2803724872258
 20
-119.3773510780044
 30
0.0
 10
145.2803724872258
 20
-119.3773510780044
 30
0.0
 10
145.2803724872258
 20
-119.3600494806219
 30
0.0
 10
145.2803724872258
 20
-119.3600494806219
 30
0.0
  0
SPLINE
  5
A7
330
79
100
AcDbEntity
  8
Capa 1
 62
    18
420
        0
370
     9
100
AcDbSpline
210
0.0
220
0.0
230
1.0
 70
    24
 71
     3
 72
     8
 73
     4
 74
     0
 42
0.0000000001
 43
0.0000000001
 40
0.0
 40
0.0
 40
0.0
 40
0.0
 40
1.0
 40
1.0
 40
1.0
 40
1.0
 10
145.2803724872258
 20
-119.403297287571
 30
0.0
 10
145.2803724872258
 20
-119.403297287571
 30
0.0
 10
145.2803724872258
 20
-119.3827539606195
 30
0.0
 10
145.2803724872258
 20
-119.3827539606195
 30
0.0
  0
SPLINE
  5
A8
330
79
100
AcDbEntity
  8
Capa 1
 62
    18
420
        0
370
     9
100
AcDbSpline
210
0.0
220
0.0
230
1.0
 70
    24
 71
     3
 72
     8
 73
     4
 74
     0
 42
0.0000000001
 43
0.0000000001
 40
0.0
 40
0.0
 40
0.0
 40
0.0
 40
1.0
 40
1.0
 40
1.0
 40
1.0
 10
145.2803724872258
 20
-119.4324893510444
 30
0.0
 10
145.2803724872258
 20
-119.4324893510444
 30
0.0
 10
145.2803724872258
 20
-119.4087042945241
 30
0.0
 10
145.2803724872258
 20
-119.4087042945241
 30
0.0
  0
SPLINE
  5
A9
330
79
100
AcDbEntity
  8
Capa 1
 62
    18
420
        0
370
     9
100
AcDbSpline
210
0.0
220
0.0
230
1.0
 70
    24
 71
     3
 72
     8
 73
     4
 74
     0
 42
0.0000000001
 43
0.0000000001
 40
0.0
 40
0.0
 40
0.0
 40
0.0
 40
1.0
 40
1.0
 40
1.0
 40
1.0
 10
145.2803724872258
 20
-119.4660078449482
 30
0.0
 10
145.2803724872258
 20
-119.4660078449482
 30
0.0
 10
145.2803724872258
 20
-119.4389769345208
 30
0.0
 10
145.2803724872258
 20
-119.4389769345208
 30
0.0
  0
SPLINE
  5
AA
330
79
100
AcDbEntity
  8
Capa 1
 62
    18
420
        0
370
     9
100
AcDbSpline
210
0.0
220
0.0
230
1.0
 70
    24
 71
     3
 72
     8
 73
     4
 74
     0
 42
0.0000000001
 43
0.0000000001
 40
0.0
 40
0.0
 40
0.0
 40
0.0
 40
1.0
 40
1.0
 40
1.0
 40
1.0
 10
145.2803724872258
 20
-119.5049292214668
 30
0.0
 10
145.2803724872258
 20
-119.5049292214668
 30
0.0
 10
145.2803724872258
 20
-119.4735760049473
 30
0.0
 10
145.2803724872258
 20
-119.4735760049473
 30
0.0
  0
SPLINE
  5
AB
330
79
100
AcDbEntity
  8
Capa 1
 62
    18
420
        0
370
     9
100
AcDbSpline
210
0.0
220
0.0
230
1.0
 70
    24
 71
     3
 72
     8
 73
     4
 74
     0
 42
0.0000000001
 43
0.0000000001
 40
0.0
 40
0.0
 40
0.0
 40
0.0
 40
1.0
 40
1.0
 40
1.0
 40
1.0
 10
145.2803724872258
 20
-119.5481770284158
 30
0.0
 10
145.2803724872258
 20
-119.5481770284158
 30
0.0
 10
145.2803724872258
 20
-119.513577957989
 30
0.0
 10
145.2803724872258
 20
-119.513577957989
 30
0.0
  0
SPLINE
  5
AC
330
79
100
AcDbEntity
  8
Capa 1
 62
    18
420
        0
370
     9
100
AcDbSpline
210
0.0
220
0.0
230
1.0
 70
    24
 71
     3
 72
     8
 73
     4
 74
     0
 42
0.0000000001
 43
0.0000000001
 40
0.0
 40
0.0
 40
0.0
 40
0.0
 40
1.0
 40
1.0
 40
1.0
 40
1.0
 10
145.2803724872258
 20
-119.5979082945027
 30
0.0
 10
145.2803724872258
 20
-119.5979082945027
 30
0.0
 10
145.2803724872258
 20
-119.5579063414611
 30
0.0
 10
145.2803724872258
 20
-119.5579063414611
 30
0.0
  0
SPLINE
  5
AD
330
79
100
AcDbEntity
  8
Capa 1
 62
    18
420
        0
370
     9
100
AcDbSpline
210
0.0
220
0.0
230
1.0
 70
    24
 71
     3
 72
     8
 73
     4
 74
     0
 42
0.0000000001
 43
0.0000000001
 40
0.0
 40
0.0
 40
0.0
 40
0.0
 40
1.0
 40
1.0
 40
1.0
 40
1.0
 10
145.2803724872258
 20
-119.6541312684037
 30
0.0
 10
145.2803724872258
 20
-119.6541312684037
 30
0.0
 10
145.2803724872258
 20
-119.6087223084089
 30
0.0
 10
145.2803724872258
 20
-119.6087223084089
 30
0.0
  0
SPLINE
  5
AE
330
79
100
AcDbEntity
  8
Capa 1
 62
    18
420
        0
370
     9
100
AcDbSpline
210
0.0
220
0.0
230
1.0
 70
    24
 71
     3
 72
     8
 73
     4
 74
     0
 42
0.0000000001
 43
0.0000000001
 40
0.0
 40
0.0
 40
0.0
 40
0.0
 40
1.0
 40
1.0
 40
1.0
 40
1.0
 10
145.2803724872258
 20
-119.7179182779659
 30
0.0
 10
145.2803724872258
 20
-119.7179182779659
 30
0.0
 10
145.2803724872258
 20
-119.666021734495
 30
0.0
 10
145.2803724872258
 20
-119.666021734495
 30
0.0
  0
SPLINE
  5
AF
330
79
100
AcDbEntity
  8
Capa 1
 62
    18
420
        0
370
     9
100
AcDbSpline
210
0.0
220
0.0
230
1.0
 70
    24
 71
     3
 72
     8
 73
     4
 74
     0
 42
0.0000000001
 43
0.0000000001
 40
0.0
 40
0.0
 40
0.0
 40
0.0
 40
1.0
 40
1.0
 40
1.0
 40
1.0
 10
145.2803724872258
 20
-119.7914387249114
 30
0.0
 10
145.2803724872258
 20
-119.7914387249114
 30
0.0
 10
145.2803724872258
 20
-119.7319740214413
 30
0.0
 10
145.2803724872258
 20
-119.7319740214413
 30
0.0
  0
SPLINE
  5
B0
330
79
100
AcDbEntity
  8
Capa 1
 62
    18
420
        0
370
     9
100
AcDbSpline
210
0.0
220
0.0
230
1.0
 70
    24
 71
     3
 72
     8
 73
     4
 74
     0
 42
0.0000000001
 43
0.0000000001
 40
0.0
 40
0.0
 40
0.0
 40
0.0
 40
1.0
 40
1.0
 40
1.0
 40
1.0
 10
145.2803724872258
 20
-119.8757690614251
 30
0.0
 10
145.2803724872258
 20
-119.8757690614251
 30
0.0
 10
145.2803724872258
 20
-119.8076556214328
 30
0.0
 10
145.2803724872258
 20
-119.8076556214328
 30
0.0
  0
SPLINE
  5
B1
330
79
100
AcDbEntity
  8
Capa 1
 62
    18
420
        0
370
     9
100
AcDbSpline
210
0.0
220
0.0
230
1.0
 70
    24
 71
     3
 72
     8
 73
     4
 74
     0
 42
0.0000000001
 43
0.0000000001
 40
0.0
 40
0.0
 40
0.0
 40
0.0
 40
1.0
 40
1.0
 40
1.0
 40
1.0
 10
145.2803724872258
 20
-119.9774009953212
 30
0.0
 10
145.2803724872258
 20
-119.9774009953212
 30
0.0
 10
145.2803724872258
 20
-119.8963123883766
 30
0.0
 10
145.2803724872258
 20
-119.8963123883766
 30
0.0
  0
SPLINE
  5
B2
330
79
100
AcDbEntity
  8
Capa 1
 62
    18
420
        0
370
     9
100
AcDbSpline
210
0.0
220
0.0
230
1.0
 70
    24
 71
     3
 72
     8
 73
     4
 74
     0
 42
0.0000000001
 43
0.0000000001
 40
0.0
 40
0.0
 40
0.0
 40
0.0
 40
1.0
 40
1.0
 40
1.0
 40
1.0
 10
145.2803724872258
 20
-120.1038985622606
 30
0.0
 10
145.2803724872258
 20
-120.1038985622606
 30
0.0
 10
145.2803724872258
 20
-120.0011860518415
 30
0.0
 10
145.2803724872258
 20
-120.0011860518415
 30
0.0
  0
SPLINE
  5
B3
330
79
100
AcDbEntity
  8
Capa 1
 62
    18
420
        0
370
     9
100
AcDbSpline
210
0.0
220
0.0
230
1.0
 70
    24
 71
     3
 72
     8
 73
     4
 74
     0
 42
0.0000000001
 43
0.0000000001
 40
0.0
 40
0.0
 40
0.0
 40
0.0
 40
1.0
 40
1.0
 40
1.0
 40
1.0
 10
145.2803724872258
 20
-120.2790468187639
 30
0.0
 10
145.2803724872258
 20
-120.2790468187639
 30
0.0
 10
145.2803724872258
 20
-120.1352517787801
 30
0.0
 10
145.2803724872258
 20
-120.1352517787801
 30
0.0
  0
SPLINE
  5
B4
330
79
100
AcDbEntity
  8
Capa 1
 62
    18
420
        0
370
     9
100
AcDbSpline
210
0.0
220
0.0
230
1.0
 70
    24
 71
     3
 72
     8
 73
     4
 74
     0
 42
0.0000000001
 43
0.0000000001
 40
0.0
 40
0.0
 40
0.0
 40
0.0
 40
1.0
 40
1.0
 40
1.0
 40
1.0
 10
145.2868559463639
 20
-122.5138275445726
 30
0.0
 10
145.2868559463639
 20
-122.5138275445726
 30
0.0
 10
145.2803724872258
 20
-122.5138275445726
 30
0.0
 10
145.2803724872258
 20
-122.5138275445726
 30
0.0
  0
SPLINE
  5
B5
330
79
100
AcDbEntity
  8
Capa 1
 62
    18
420
        0
370
     9
100
AcDbSpline
210
0.0
220
0.0
230
1.0
 70
    24
 71
     3
 72
     8
 73
     4
 74
     0
 42
0.0000000001
 43
0.0000000001
 40
0.0
 40
0.0
 40
0.0
 40
0.0
 40
1.0
 40
1.0
 40
1.0
 40
1.0
 10
145.2803724872258
 20
-122.5138275445726
 30
0.0
 10
145.2803724872258
 20
-122.5138275445726
 30
0.0
 10
145.2803724872258
 20
-120.327697508328
 30
0.0
 10
145.2803724872258
 20
-120.327697508328
 30
0.0
  0
SPLINE
  5
B6
330
79
100
AcDbEntity
  8
Capa 1
 62
    18
420
        0
370
     9
100
AcDbSpline
210
0.0
220
0.0
230
1.0
 70
    24
 71
     3
 72
     8
 73
     4
 74
     0
 42
0.0000000001
 43
0.0000000001
 40
0.0
 40
0.0
 40
0.0
 40
0.0
 40
1.0
 40
1.0
 40
1.0
 40
1.0
 10
145.2846947933179
 20
-119.2962624710597
 30
0.0
 10
145.2846947933179
 20
-119.2962624710597
 30
0.0
 10
145.9701597480092
 20
-119.2962624710597
 30
0.0
 10
145.9701597480092
 20
-119.2962624710597
 30
0.0
  0
SPLINE
  5
B7
330
79
100
AcDbEntity
  8
Capa 1
 62
    18
420
        0
370
     9
100
AcDbSpline
210
0.0
220
0.0
230
1.0
 70
    24
 71
     3
 72
     8
 73
     4
 74
     0
 42
0.0000000001
 43
0.0000000001
 40
0.0
 40
0.0
 40
0.0
 40
0.0
 40
1.0
 40
1.0
 40
1.0
 40
1.0
 10
146.8891529618134
 20
-119.2962624710597
 30
0.0
 10
146.8891529618134
 20
-119.2962624710597
 30
0.0
 10
147.5789402225968
 20
-119.2962624710597
 30
0.0
 10
147.5789402225968
 20
-119.2962624710597
 30
0.0
  0
SPLINE
  5
B8
330
79
100
AcDbEntity
  8
Capa 1
 62
    18
420
        0
370
     9
100
AcDbSpline
210
0.0
220
0.0
230
1.0
 70
    24
 71
     3
 72
     8
 73
     4
 74
     0
 42
0.0000000001
 43
0.0000000001
 40
0.0
 40
0.0
 40
0.0
 40
0.0
 40
1.0
 40
1.0
 40
1.0
 40
1.0
 10
147.5789402225968
 20
-120.6747564161038
 30
0.0
 10
147.5789402225968
 20
-120.6747564161038
 30
0.0
 10
147.5789402225968
 20
-122.5138275445726
 30
0.0
 10
147.5789402225968
 20
-122.5138275445726
 30
0.0
  0
SPLINE
  5
B9
330
79
100
AcDbEntity
  8
Capa 1
 62
    18
420
        0
370
     9
100
AcDbSpline
210
0.0
220
0.0
230
1.0
 70
    24
 71
     3
 72
     8
 73
     4
 74
     0
 42
0.0000000001
 43
0.0000000001
 40
0.0
 40
0.0
 40
0.0
 40
0.0
 40
1.0
 40
1.0
 40
1.0
 40
1.0
 10
147.5789402225968
 20
-119.2962624710597
 30
0.0
 10
147.5789402225968
 20
-119.2962624710597
 30
0.0
 10
147.5789402225968
 20
-120.6747564161038
 30
0.0
 10
147.5789402225968
 20
-120.6747564161038
 30
0.0
  0
SPLINE
  5
BA
330
79
100
AcDbEntity
  8
Capa 1
 62
    18
420
        0
370
     9
100
AcDbSpline
210
0.0
220
0.0
230
1.0
 70
     8
 71
     3
 72
     8
 73
     4
 74
     0
 42
0.0000000001
 43
0.0000000001
 40
0.0
 40
0.0
 40
0.0
 40
0.0
 40
1.0
 40
1.0
 40
1.0
 40
1.0
 10
145.2976699602702
 20
-120.4920358752633
 30
0.0
 10
145.2965893837469
 20
-120.5525811552565
 30
0.0
 10
145.2998311133162
 20
-120.6142111361106
 30
0.0
 10
145.3063228211305
 20
-120.6747564161038
 30
0.0
  0
SPLINE
  5
BB
330
79
100
AcDbEntity
  8
Capa 1
 62
    18
420
        0
370
     9
100
AcDbSpline
210
0.0
220
0.0
230
1.0
 70
     8
 71
     3
 72
    17
 73
    13
 74
     0
 42
0.0000000001
 43
0.0000000001
 40
0.0
 40
0.0
 40
0.0
 40
0.0
 40
1.0
 40
1.0
 40
1.0
 40
2.0
 40
2.0
 40
2.0
 40
3.0
 40
3.0
 40
3.0
 40
4.0
 40
4.0
 40
4.0
 40
4.0
 10
145.2976699602702
 20
-120.4920358752633
 30
0.0
 10
145.2987505367929
 20
-120.4693313952658
 30
0.0
 10
145.2987505367929
 20
-120.4477074917913
 30
0.0
 10
145.2987505367929
 20
-120.4260835883171
 30
0.0
 10
145.2976699602702
 20
-120.4152736987488
 30
0.0
 10
145.2965893837469
 20
-120.4044638091806
 30
0.0
 10
145.2955088072242
 20
-120.3947303717973
 30
0.0
 10
145.2944282307008
 20
-120.3882427883212
 30
0.0
 10
145.2933476541781
 20
-120.382839905706
 30
0.0
 10
145.2922670776548
 20
-120.3785134752759
 30
0.0
 10
145.2911865011321
 20
-120.3731064683228
 30
0.0
 10
145.289025348086
 20
-120.3677035857077
 30
0.0
 10
145.2868559463639
 20
-120.3633771552779
 30
0.0
  0
SPLINE
  5
BC
330
79
100
AcDbEntity
  8
Capa 1
 62
    18
420
        0
370
     9
100
AcDbSpline
210
0.0
220
0.0
230
1.0
 70
     8
 71
     3
 72
     8
 73
     4
 74
     0
 42
0.0000000001
 43
0.0000000001
 40
0.0
 40
0.0
 40
0.0
 40
0.0
 40
1.0
 40
1.0
 40
1.0
 40
1.0
 10
145.2803724872258
 20
-120.327697508328
 30
0.0
 10
145.2792919107024
 20
-120.3406726752803
 30
0.0
 10
145.2814530637492
 20
-120.3514866891863
 30
0.0
 10
145.2857753698413
 20
-120.3633771552779
 30
0.0
  0
SPLINE
  5
BD
330
79
100
AcDbEntity
  8
Capa 1
 62
    18
420
        0
370
     9
100
AcDbSpline
210
0.0
220
0.0
230
1.0
 70
    24
 71
     3
 72
     8
 73
     4
 74
     0
 42
0.0000000001
 43
0.0000000001
 40
0.0
 40
0.0
 40
0.0
 40
0.0
 40
1.0
 40
1.0
 40
1.0
 40
1.0
 10
145.2803724872258
 20
-120.327697508328
 30
0.0
 10
145.2803724872258
 20
-120.327697508328
 30
0.0
 10
145.2803724872258
 20
-120.2790468187639
 30
0.0
 10
145.2803724872258
 20
-120.2790468187639
 30
0.0
  0
SPLINE
  5
BE
330
79
100
AcDbEntity
  8
Capa 1
 62
    18
420
        0
370
     9
100
AcDbSpline
210
0.0
220
0.0
230
1.0
 70
     8
 71
     3
 72
    14
 73
    10
 74
     0
 42
0.0000000001
 43
0.0000000001
 40
0.0
 40
0.0
 40
0.0
 40
0.0
 40
1.0
 40
1.0
 40
1.0
 40
2.0
 40
2.0
 40
2.0
 40
3.0
 40
3.0
 40
3.0
 40
3.0
 10
145.2803724872258
 20
-120.2790468187639
 30
0.0
 10
145.2803724872258
 20
-120.2747203883341
 30
0.0
 10
145.2803724872258
 20
-120.2693175057186
 30
0.0
 10
145.2814530637492
 20
-120.2649910752888
 30
0.0
 10
145.2814530637492
 20
-120.2617493457194
 30
0.0
 10
145.2825336402719
 20
-120.2606646448587
 30
0.0
 10
145.2825336402719
 20
-120.2574229152897
 30
0.0
 10
145.2836142167952
 20
-120.2552617622439
 30
0.0
 10
145.2846947933179
 20
-120.2530964848596
 30
0.0
 10
145.2857753698413
 20
-120.2509353318135
 30
0.0
  0
SPLINE
  5
BF
330
79
100
AcDbEntity
  8
Capa 1
 62
    18
420
        0
370
     9
100
AcDbSpline
210
0.0
220
0.0
230
1.0
 70
     8
 71
     3
 72
    23
 73
    19
 74
     0
 42
0.0000000001
 43
0.0000000001
 40
0.0
 40
0.0
 40
0.0
 40
0.0
 40
1.0
 40
1.0
 40
1.0
 40
2.0
 40
2.0
 40
2.0
 40
3.0
 40
3.0
 40
3.0
 40
4.0
 40
4.0
 40
4.0
 40
5.0
 40
5.0
 40
5.0
 40
6.0
 40
6.0
 40
6.0
 40
6.0
 10
145.2868559463639
 20
-120.2509353318135
 30
0.0
 10
145.2901059246087
 20
-120.2476936022444
 30
0.0
 10
145.2911865011321
 20
-120.2444477483373
 30
0.0
 10
145.2933476541781
 20
-120.2401254422452
 30
0.0
 10
145.2944282307008
 20
-120.2368795883382
 30
0.0
 10
145.2955088072242
 20
-120.231476705723
 30
0.0
 10
145.2965893837469
 20
-120.2282308518163
 30
0.0
 10
145.2976699602702
 20
-120.2195821152937
 30
0.0
 10
145.2987505367929
 20
-120.2120139552946
 30
0.0
 10
145.2987505367929
 20
-120.2033652187727
 30
0.0
 10
145.2987505367929
 20
-120.1947164822502
 30
0.0
 10
145.2976699602702
 20
-120.1860636213899
 30
0.0
 10
145.2965893837469
 20
-120.1784954613911
 30
0.0
 10
145.2965893837469
 20
-120.175253731822
 30
0.0
 10
145.2955088072242
 20
-120.1698467248689
 30
0.0
 10
145.2933476541781
 20
-120.1666049952998
 30
0.0
 10
145.2922670776548
 20
-120.1622785648697
 30
0.0
 10
145.2901059246087
 20
-120.1590368353003
 30
0.0
 10
145.2868559463639
 20
-120.1557909813939
 30
0.0
  0
SPLINE
  5
C0
330
79
100
AcDbEntity
  8
Capa 1
 62
    18
420
        0
370
     9
100
AcDbSpline
210
0.0
220
0.0
230
1.0
 70
     8
 71
     3
 72
    14
 73
    10
 74
     0
 42
0.0000000001
 43
0.0000000001
 40
0.0
 40
0.0
 40
0.0
 40
0.0
 40
1.0
 40
1.0
 40
1.0
 40
2.0
 40
2.0
 40
2.0
 40
3.0
 40
3.0
 40
3.0
 40
3.0
 10
145.2868559463639
 20
-120.1557909813939
 30
0.0
 10
145.2857753698413
 20
-120.1547104048705
 30
0.0
 10
145.2836142167952
 20
-120.1525492518245
 30
0.0
 10
145.2836142167952
 20
-120.1514686753014
 30
0.0
 10
145.2825336402719
 20
-120.1493075222554
 30
0.0
 10
145.2825336402719
 20
-120.1471422448713
 30
0.0
 10
145.2814530637492
 20
-120.1460616683486
 30
0.0
 10
145.2803724872258
 20
-120.1428199387792
 30
0.0
 10
145.2803724872258
 20
-120.1395740848721
 30
0.0
 10
145.2803724872258
 20
-120.1352517787801
 30
0.0
  0
SPLINE
  5
C1
330
79
100
AcDbEntity
  8
Capa 1
 62
    18
420
        0
370
     9
100
AcDbSpline
210
0.0
220
0.0
230
1.0
 70
    24
 71
     3
 72
     8
 73
     4
 74
     0
 42
0.0000000001
 43
0.0000000001
 40
0.0
 40
0.0
 40
0.0
 40
0.0
 40
1.0
 40
1.0
 40
1.0
 40
1.0
 10
145.2803724872258
 20
-120.1352517787801
 30
0.0
 10
145.2803724872258
 20
-120.1352517787801
 30
0.0
 10
145.2803724872258
 20
-120.1038985622606
 30
0.0
 10
145.2803724872258
 20
-120.1038985622606
 30
0.0
  0
SPLINE
  5
C2
330
79
100
AcDbEntity
  8
Capa 1
 62
    18
420
        0
370
     9
100
AcDbSpline
210
0.0
220
0.0
230
1.0
 70
     8
 71
     3
 72
    11
 73
     7
 74
     0
 42
0.0000000001
 43
0.0000000001
 40
0.0
 40
0.0
 40
0.0
 40
0.0
 40
1.0
 40
1.0
 40
1.0
 40
2.0
 40
2.0
 40
2.0
 40
2.0
 10
145.2803724872258
 20
-120.1038985622606
 30
0.0
 10
145.2803724872258
 20
-120.1006527083535
 30
0.0
 10
145.2814530637492
 20
-120.0974109787845
 30
0.0
 10
145.2814530637492
 20
-120.0941651248774
 30
0.0
 10
145.2825336402719
 20
-120.0909233953083
 30
0.0
 10
145.2836142167952
 20
-120.0876775414012
 30
0.0
 10
145.2857753698413
 20
-120.0855163883552
 30
0.0
  0
SPLINE
  5
C3
330
79
100
AcDbEntity
  8
Capa 1
 62
    18
420
        0
370
     9
100
AcDbSpline
210
0.0
220
0.0
230
1.0
 70
     8
 71
     3
 72
    23
 73
    19
 74
     0
 42
0.0000000001
 43
0.0000000001
 40
0.0
 40
0.0
 40
0.0
 40
0.0
 40
1.0
 40
1.0
 40
1.0
 40
2.0
 40
2.0
 40
2.0
 40
3.0
 40
3.0
 40
3.0
 40
4.0
 40
4.0
 40
4.0
 40
5.0
 40
5.0
 40
5.0
 40
6.0
 40
6.0
 40
6.0
 40
6.0
 10
145.2868559463639
 20
-120.0855163883552
 30
0.0
 10
145.289025348086
 20
-120.0833552353091
 30
0.0
 10
145.2911865011321
 20
-120.0811940822631
 30
0.0
 10
145.2922670776548
 20
-120.0779482283563
 30
0.0
 10
145.2944282307008
 20
-120.0747064987869
 30
0.0
 10
145.2955088072242
 20
-120.0725412214028
 30
0.0
 10
145.2965893837469
 20
-120.0692994918341
 30
0.0
 10
145.2976699602702
 20
-120.063892484881
 30
0.0
 10
145.2987505367929
 20
-120.0563243248818
 30
0.0
 10
145.2987505367929
 20
-120.050917317929
 30
0.0
 10
145.2987505367929
 20
-120.0444338587905
 30
0.0
 10
145.2976699602702
 20
-120.0390268518374
 30
0.0
 10
145.2965893837469
 20
-120.0325392683612
 30
0.0
 10
145.2955088072242
 20
-120.0292975387921
 30
0.0
 10
145.2944282307008
 20
-120.0271322614081
 30
0.0
 10
145.2933476541781
 20
-120.024971108362
 30
0.0
 10
145.2911865011321
 20
-120.021729378793
 30
0.0
 10
145.289025348086
 20
-120.0184835248859
 30
0.0
 10
145.2868559463639
 20
-120.0174029483628
 30
0.0
  0
SPLINE
  5
C4
330
79
100
AcDbEntity
  8
Capa 1
 62
    18
420
        0
370
     9
100
AcDbSpline
210
0.0
220
0.0
230
1.0
 70
    24
 71
     3
 72
     8
 73
     4
 74
     0
 42
0.0000000001
 43
0.0000000001
 40
0.0
 40
0.0
 40
0.0
 40
0.0
 40
1.0
 40
1.0
 40
1.0
 40
1.0
 10
145.2803724872258
 20
-120.0011860518415
 30
0.0
 10
145.2803724872258
 20
-120.0011860518415
 30
0.0
 10
145.2803724872258
 20
-119.9774009953212
 30
0.0
 10
145.2803724872258
 20
-119.9774009953212
 30
0.0
  0
SPLINE
  5
C5
330
79
100
AcDbEntity
  8
Capa 1
 62
    18
420
        0
370
     9
100
AcDbSpline
210
0.0
220
0.0
230
1.0
 70
     8
 71
     3
 72
    20
 73
    16
 74
     0
 42
0.0000000001
 43
0.0000000001
 40
0.0
 40
0.0
 40
0.0
 40
0.0
 40
1.0
 40
1.0
 40
1.0
 40
2.0
 40
2.0
 40
2.0
 40
3.0
 40
3.0
 40
3.0
 40
4.0
 40
4.0
 40
4.0
 40
5.0
 40
5.0
 40
5.0
 40
5.0
 10
145.2868559463639
 20
-119.9633452518459
 30
0.0
 10
145.289025348086
 20
-119.9611840987998
 30
0.0
 10
145.2911865011321
 20
-119.9600993979388
 30
0.0
 10
145.2922670776548
 20
-119.9568576683697
 30
0.0
 10
145.2944282307008
 20
-119.9546965153237
 30
0.0
 10
145.2955088072242
 20
-119.9525312379396
 30
0.0
 10
145.2965893837469
 20
-119.9503700848935
 30
0.0
 10
145.2976699602702
 20
-119.9449630779404
 30
0.0
 10
145.2987505367929
 20
-119.9406407718483
 30
0.0
 10
145.2987505367929
 20
-119.9352337648952
 30
0.0
 10
145.2987505367929
 20
-119.9309073344651
 30
0.0
 10
145.2976699602702
 20
-119.9255044518503
 30
0.0
 10
145.2965893837469
 20
-119.9211780214199
 30
0.0
 10
145.2944282307008
 20
-119.9157710144673
 30
0.0
 10
145.2922670776548
 20
-119.9114487083749
 30
0.0
 10
145.2868559463639
 20
-119.9082028544679
 30
0.0
  0
SPLINE
  5
C6
330
79
100
AcDbEntity
  8
Capa 1
 62
    18
420
        0
370
     9
100
AcDbSpline
210
0.0
220
0.0
230
1.0
 70
    24
 71
     3
 72
     8
 73
     4
 74
     0
 42
0.0000000001
 43
0.0000000001
 40
0.0
 40
0.0
 40
0.0
 40
0.0
 40
1.0
 40
1.0
 40
1.0
 40
1.0
 10
145.2803724872258
 20
-119.8952318118535
 30
0.0
 10
145.2803724872258
 20
-119.8952318118535
 30
0.0
 10
145.2803724872258
 20
-119.8757690614251
 30
0.0
 10
145.2803724872258
 20
-119.8757690614251
 30
0.0
  0
SPLINE
  5
C7
330
79
100
AcDbEntity
  8
Capa 1
 62
    18
420
        0
370
     9
100
AcDbSpline
210
0.0
220
0.0
230
1.0
 70
     8
 71
     3
 72
    17
 73
    13
 74
     0
 42
0.0000000001
 43
0.0000000001
 40
0.0
 40
0.0
 40
0.0
 40
0.0
 40
1.0
 40
1.0
 40
1.0
 40
2.0
 40
2.0
 40
2.0
 40
3.0
 40
3.0
 40
3.0
 40
4.0
 40
4.0
 40
4.0
 40
4.0
 10
145.2868559463639
 20
-119.8638785953338
 30
0.0
 10
145.2911865011321
 20
-119.8617133179497
 30
0.0
 10
145.2944282307008
 20
-119.8573910118577
 30
0.0
 10
145.2965893837469
 20
-119.8530645814279
 30
0.0
 10
145.2976699602702
 20
-119.8498228518585
 30
0.0
 10
145.2987505367929
 20
-119.8454964214287
 30
0.0
 10
145.2987505367929
 20
-119.8400894144755
 30
0.0
 10
145.2987505367929
 20
-119.8368476849065
 30
0.0
 10
145.2976699602702
 20
-119.8325212544764
 30
0.0
 10
145.2965893837469
 20
-119.8281989483843
 30
0.0
 10
145.2944282307008
 20
-119.8238725179542
 30
0.0
 10
145.2911865011321
 20
-119.8206307883854
 30
0.0
 10
145.2868559463639
 20
-119.818469635339
 30
0.0
  0
SPLINE
  5
C8
330
79
100
AcDbEntity
  8
Capa 1
 62
    18
420
        0
370
     9
100
AcDbSpline
210
0.0
220
0.0
230
1.0
 70
     8
 71
     3
 72
     8
 73
     4
 74
     0
 42
0.0000000001
 43
0.0000000001
 40
0.0
 40
0.0
 40
0.0
 40
0.0
 40
1.0
 40
1.0
 40
1.0
 40
1.0
 10
145.2803724872258
 20
-119.8076556214328
 30
0.0
 10
145.2803724872258
 20
-119.8119820518629
 30
0.0
 10
145.2825336402719
 20
-119.816304357955
 30
0.0
 10
145.2857753698413
 20
-119.818469635339
 30
0.0
  0
SPLINE
  5
C9
330
79
100
AcDbEntity
  8
Capa 1
 62
    18
420
        0
370
     9
100
AcDbSpline
210
0.0
220
0.0
230
1.0
 70
    24
 71
     3
 72
     8
 73
     4
 74
     0
 42
0.0000000001
 43
0.0000000001
 40
0.0
 40
0.0
 40
0.0
 40
0.0
 40
1.0
 40
1.0
 40
1.0
 40
1.0
 10
145.2803724872258
 20
-119.8076556214328
 30
0.0
 10
145.2803724872258
 20
-119.8076556214328
 30
0.0
 10
145.2803724872258
 20
-119.7903581483884
 30
0.0
 10
145.2803724872258
 20
-119.7903581483884
 30
0.0
  0
SPLINE
  5
CA
330
79
100
AcDbEntity
  8
Capa 1
 62
    18
420
        0
370
     9
100
AcDbSpline
210
0.0
220
0.0
230
1.0
 70
     8
 71
     3
 72
     8
 73
     4
 74
     0
 42
0.0000000001
 43
0.0000000001
 40
0.0
 40
0.0
 40
0.0
 40
0.0
 40
1.0
 40
1.0
 40
1.0
 40
1.0
 10
145.2868559463639
 20
-119.7806247110054
 30
0.0
 10
145.2825336402719
 20
-119.7827899883892
 30
0.0
 10
145.2803724872258
 20
-119.7860317179586
 30
0.0
 10
145.2803724872258
 20
-119.7914387249114
 30
0.0
  0
SPLINE
  5
CB
330
79
100
AcDbEntity
  8
Capa 1
 62
    18
420
        0
370
     9
100
AcDbSpline
210
0.0
220
0.0
230
1.0
 70
     8
 71
     3
 72
    17
 73
    13
 74
     0
 42
0.0000000001
 43
0.0000000001
 40
0.0
 40
0.0
 40
0.0
 40
0.0
 40
1.0
 40
1.0
 40
1.0
 40
2.0
 40
2.0
 40
2.0
 40
3.0
 40
3.0
 40
3.0
 40
4.0
 40
4.0
 40
4.0
 40
4.0
 10
145.2868559463639
 20
-119.7806247110054
 30
0.0
 10
145.2911865011321
 20
-119.7784635579594
 30
0.0
 10
145.2944282307008
 20
-119.77522182839
 30
0.0
 10
145.2955088072242
 20
-119.7719759744832
 30
0.0
 10
145.2976699602702
 20
-119.7687342449142
 30
0.0
 10
145.2987505367929
 20
-119.764407814484
 30
0.0
 10
145.2987505367929
 20
-119.761166084915
 30
0.0
 10
145.2987505367929
 20
-119.7568396544849
 30
0.0
 10
145.2976699602702
 20
-119.7535979249158
 30
0.0
 10
145.2965893837469
 20
-119.7503520710087
 30
0.0
 10
145.2944282307008
 20
-119.7460297649166
 30
0.0
 10
145.2911865011321
 20
-119.7427839110095
 30
0.0
 10
145.2868559463639
 20
-119.7417033344865
 30
0.0
  0
SPLINE
  5
CC
330
79
100
AcDbEntity
  8
Capa 1
 62
    18
420
        0
370
     9
100
AcDbSpline
210
0.0
220
0.0
230
1.0
 70
     8
 71
     3
 72
     8
 73
     4
 74
     0
 42
0.0000000001
 43
0.0000000001
 40
0.0
 40
0.0
 40
0.0
 40
0.0
 40
1.0
 40
1.0
 40
1.0
 40
1.0
 10
145.2803724872258
 20
-119.7319740214413
 30
0.0
 10
145.2803724872258
 20
-119.7363004518714
 30
0.0
 10
145.2825336402719
 20
-119.7395421814404
 30
0.0
 10
145.2857753698413
 20
-119.7417033344865
 30
0.0
  0
SPLINE
  5
CD
330
79
100
AcDbEntity
  8
Capa 1
 62
    18
420
        0
370
     9
100
AcDbSpline
210
0.0
220
0.0
230
1.0
 70
    24
 71
     3
 72
     8
 73
     4
 74
     0
 42
0.0000000001
 43
0.0000000001
 40
0.0
 40
0.0
 40
0.0
 40
0.0
 40
1.0
 40
1.0
 40
1.0
 40
1.0
 10
145.2803724872258
 20
-119.7319740214413
 30
0.0
 10
145.2803724872258
 20
-119.7319740214413
 30
0.0
 10
145.2803724872258
 20
-119.7179182779659
 30
0.0
 10
145.2803724872258
 20
-119.7179182779659
 30
0.0
  0
SPLINE
  5
CE
330
79
100
AcDbEntity
  8
Capa 1
 62
    18
420
        0
370
     9
100
AcDbSpline
210
0.0
220
0.0
230
1.0
 70
     8
 71
     3
 72
     8
 73
     4
 74
     0
 42
0.0000000001
 43
0.0000000001
 40
0.0
 40
0.0
 40
0.0
 40
0.0
 40
1.0
 40
1.0
 40
1.0
 40
1.0
 10
145.2868559463639
 20
-119.709269541444
 30
0.0
 10
145.2825336402719
 20
-119.7103501179671
 30
0.0
 10
145.2803724872258
 20
-119.7135959718738
 30
0.0
 10
145.2803724872258
 20
-119.7179182779659
 30
0.0
  0
SPLINE
  5
CF
330
79
100
AcDbEntity
  8
Capa 1
 62
    18
420
        0
370
     9
100
AcDbSpline
210
0.0
220
0.0
230
1.0
 70
     8
 71
     3
 72
    11
 73
     7
 74
     0
 42
0.0000000001
 43
0.0000000001
 40
0.0
 40
0.0
 40
0.0
 40
0.0
 40
1.0
 40
1.0
 40
1.0
 40
2.0
 40
2.0
 40
2.0
 40
2.0
 10
145.2868559463639
 20
-119.709269541444
 30
0.0
 10
145.2965893837469
 20
-119.7060278118746
 30
0.0
 10
145.3009116898396
 20
-119.6952137979687
 30
0.0
 10
145.2976699602702
 20
-119.6865650614465
 30
0.0
 10
145.2965893837469
 20
-119.6811580544934
 30
0.0
 10
145.2922670776548
 20
-119.6768357484013
 30
0.0
 10
145.2868559463639
 20
-119.6746704710172
 30
0.0
  0
SPLINE
  5
D0
330
79
100
AcDbEntity
  8
Capa 1
 62
    18
420
        0
370
     9
100
AcDbSpline
210
0.0
220
0.0
230
1.0
 70
     8
 71
     3
 72
     8
 73
     4
 74
     0
 42
0.0000000001
 43
0.0000000001
 40
0.0
 40
0.0
 40
0.0
 40
0.0
 40
1.0
 40
1.0
 40
1.0
 40
1.0
 10
145.2803724872258
 20
-119.666021734495
 30
0.0
 10
145.2803724872258
 20
-119.6703481649248
 30
0.0
 10
145.2825336402719
 20
-119.6735898944942
 30
0.0
 10
145.2857753698413
 20
-119.6746704710172
 30
0.0
  0
SPLINE
  5
D1
330
79
100
AcDbEntity
  8
Capa 1
 62
    18
420
        0
370
     9
100
AcDbSpline
210
0.0
220
0.0
230
1.0
 70
    24
 71
     3
 72
     8
 73
     4
 74
     0
 42
0.0000000001
 43
0.0000000001
 40
0.0
 40
0.0
 40
0.0
 40
0.0
 40
1.0
 40
1.0
 40
1.0
 40
1.0
 10
145.2803724872258
 20
-119.666021734495
 30
0.0
 10
145.2803724872258
 20
-119.666021734495
 30
0.0
 10
145.2803724872258
 20
-119.6541312684037
 30
0.0
 10
145.2803724872258
 20
-119.6541312684037
 30
0.0
  0
SPLINE
  5
D2
330
79
100
AcDbEntity
  8
Capa 1
 62
    18
420
        0
370
     9
100
AcDbSpline
210
0.0
220
0.0
230
1.0
 70
     8
 71
     3
 72
     8
 73
     4
 74
     0
 42
0.0000000001
 43
0.0000000001
 40
0.0
 40
0.0
 40
0.0
 40
0.0
 40
1.0
 40
1.0
 40
1.0
 40
1.0
 10
145.2868559463639
 20
-119.6465631084045
 30
0.0
 10
145.2836142167952
 20
-119.6465631084045
 30
0.0
 10
145.2803724872258
 20
-119.6498048379736
 30
0.0
 10
145.2803724872258
 20
-119.6541312684037
 30
0.0
  0
SPLINE
  5
D3
330
79
100
AcDbEntity
  8
Capa 1
 62
    18
420
        0
370
     9
100
AcDbSpline
210
0.0
220
0.0
230
1.0
 70
     8
 71
     3
 72
    17
 73
    13
 74
     0
 42
0.0000000001
 43
0.0000000001
 40
0.0
 40
0.0
 40
0.0
 40
0.0
 40
1.0
 40
1.0
 40
1.0
 40
2.0
 40
2.0
 40
2.0
 40
3.0
 40
3.0
 40
3.0
 40
4.0
 40
4.0
 40
4.0
 40
4.0
 10
145.2868559463639
 20
-119.6465631084045
 30
0.0
 10
145.2901059246087
 20
-119.6443978310208
 30
0.0
 10
145.2933476541781
 20
-119.6422366779748
 30
0.0
 10
145.2955088072242
 20
-119.6400755249284
 30
0.0
 10
145.2976699602702
 20
-119.6368296710216
 30
0.0
 10
145.2987505367929
 20
-119.6335879414522
 30
0.0
 10
145.2987505367929
 20
-119.6314267884062
 30
0.0
 10
145.2987505367929
 20
-119.6281809344994
 30
0.0
 10
145.2976699602702
 20
-119.6249392049304
 30
0.0
 10
145.2955088072242
 20
-119.6216933510233
 30
0.0
 10
145.2933476541781
 20
-119.6195321979772
 30
0.0
 10
145.2901059246087
 20
-119.6173710449312
 30
0.0
 10
145.2868559463639
 20
-119.6162904684078
 30
0.0
  0
SPLINE
  5
D4
330
79
100
AcDbEntity
  8
Capa 1
 62
    18
420
        0
370
     9
100
AcDbSpline
210
0.0
220
0.0
230
1.0
 70
     8
 71
     3
 72
     8
 73
     4
 74
     0
 42
0.0000000001
 43
0.0000000001
 40
0.0
 40
0.0
 40
0.0
 40
0.0
 40
1.0
 40
1.0
 40
1.0
 40
1.0
 10
145.2803724872258
 20
-119.6087223084089
 30
0.0
 10
145.2803724872258
 20
-119.611964037978
 30
0.0
 10
145.2825336402719
 20
-119.6152057675468
 30
0.0
 10
145.2857753698413
 20
-119.6162904684078
 30
0.0
  0
SPLINE
  5
D5
330
79
100
AcDbEntity
  8
Capa 1
 62
    18
420
        0
370
     9
100
AcDbSpline
210
0.0
220
0.0
230
1.0
 70
    24
 71
     3
 72
     8
 73
     4
 74
     0
 42
0.0000000001
 43
0.0000000001
 40
0.0
 40
0.0
 40
0.0
 40
0.0
 40
1.0
 40
1.0
 40
1.0
 40
1.0
 10
145.2803724872258
 20
-119.6087223084089
 30
0.0
 10
145.2803724872258
 20
-119.6087223084089
 30
0.0
 10
145.2803724872258
 20
-119.5979082945027
 30
0.0
 10
145.2803724872258
 20
-119.5979082945027
 30
0.0
  0
SPLINE
  5
D6
330
79
100
AcDbEntity
  8
Capa 1
 62
    18
420
        0
370
     9
100
AcDbSpline
210
0.0
220
0.0
230
1.0
 70
     8
 71
     3
 72
    17
 73
    13
 74
     0
 42
0.0000000001
 43
0.0000000001
 40
0.0
 40
0.0
 40
0.0
 40
0.0
 40
1.0
 40
1.0
 40
1.0
 40
2.0
 40
2.0
 40
2.0
 40
3.0
 40
3.0
 40
3.0
 40
4.0
 40
4.0
 40
4.0
 40
4.0
 10
145.2868559463639
 20
-119.5914207110265
 30
0.0
 10
145.2901059246087
 20
-119.5903401345035
 30
0.0
 10
145.2933476541781
 20
-119.5881789814571
 30
0.0
 10
145.2955088072242
 20
-119.5849331275507
 30
0.0
 10
145.2976699602702
 20
-119.5838525510273
 30
0.0
 10
145.2987505367929
 20
-119.5806108214583
 30
0.0
 10
145.2987505367929
 20
-119.5773649675515
 30
0.0
 10
145.2987505367929
 20
-119.5752038145055
 30
0.0
 10
145.2976699602702
 20
-119.5719620849361
 30
0.0
 10
145.2955088072242
 20
-119.570881508413
 30
0.0
 10
145.2933476541781
 20
-119.5676356545063
 30
0.0
 10
145.2901059246087
 20
-119.5654745014602
 30
0.0
 10
145.2868559463639
 20
-119.5643939249369
 30
0.0
  0
SPLINE
  5
D7
330
79
100
AcDbEntity
  8
Capa 1
 62
    18
420
        0
370
     9
100
AcDbSpline
210
0.0
220
0.0
230
1.0
 70
    24
 71
     3
 72
     8
 73
     4
 74
     0
 42
0.0000000001
 43
0.0000000001
 40
0.0
 40
0.0
 40
0.0
 40
0.0
 40
1.0
 40
1.0
 40
1.0
 40
1.0
 10
145.2803724872258
 20
-119.5579063414611
 30
0.0
 10
145.2803724872258
 20
-119.5579063414611
 30
0.0
 10
145.2803724872258
 20
-119.5481770284158
 30
0.0
 10
145.2803724872258
 20
-119.5481770284158
 30
0.0
  0
SPLINE
  5
D8
330
79
100
AcDbEntity
  8
Capa 1
 62
    18
420
        0
370
     9
100
AcDbSpline
210
0.0
220
0.0
230
1.0
 70
     8
 71
     3
 72
    17
 73
    13
 74
     0
 42
0.0000000001
 43
0.0000000001
 40
0.0
 40
0.0
 40
0.0
 40
0.0
 40
1.0
 40
1.0
 40
1.0
 40
2.0
 40
2.0
 40
2.0
 40
3.0
 40
3.0
 40
3.0
 40
4.0
 40
4.0
 40
4.0
 40
4.0
 10
145.2868559463639
 20
-119.5427700214627
 30
0.0
 10
145.2901059246087
 20
-119.5416894449397
 30
0.0
 10
145.2933476541781
 20
-119.5395241675556
 30
0.0
 10
145.2955088072242
 20
-119.5373630145096
 30
0.0
 10
145.2976699602702
 20
-119.5352018614638
 30
0.0
 10
145.2987505367929
 20
-119.5330407084175
 30
0.0
 10
145.2987505367929
 20
-119.5308754310334
 30
0.0
 10
145.2987505367929
 20
-119.5287142779873
 30
0.0
 10
145.2976699602702
 20
-119.5254684240803
 30
0.0
 10
145.2955088072242
 20
-119.5233072710342
 30
0.0
 10
145.2933476541781
 20
-119.5222266945112
 30
0.0
 10
145.2901059246087
 20
-119.5200655414651
 30
0.0
 10
145.2868559463639
 20
-119.5189849649421
 30
0.0
  0
SPLINE
  5
D9
330
79
100
AcDbEntity
  8
Capa 1
 62
    18
420
        0
370
     9
100
AcDbSpline
210
0.0
220
0.0
230
1.0
 70
    24
 71
     3
 72
     8
 73
     4
 74
     0
 42
0.0000000001
 43
0.0000000001
 40
0.0
 40
0.0
 40
0.0
 40
0.0
 40
1.0
 40
1.0
 40
1.0
 40
1.0
 10
145.2803724872258
 20
-119.513577957989
 30
0.0
 10
145.2803724872258
 20
-119.513577957989
 30
0.0
 10
145.2803724872258
 20
-119.5049292214668
 30
0.0
 10
145.2803724872258
 20
-119.5049292214668
 30
0.0
  0
SPLINE
  5
DA
330
79
100
AcDbEntity
  8
Capa 1
 62
    18
420
        0
370
     9
100
AcDbSpline
210
0.0
220
0.0
230
1.0
 70
     8
 71
     3
 72
    11
 73
     7
 74
     0
 42
0.0000000001
 43
0.0000000001
 40
0.0
 40
0.0
 40
0.0
 40
0.0
 40
1.0
 40
1.0
 40
1.0
 40
2.0
 40
2.0
 40
2.0
 40
2.0
 10
145.2868559463639
 20
-119.4995222145136
 30
0.0
 10
145.2944282307008
 20
-119.4973610614676
 30
0.0
 10
145.2987505367929
 20
-119.4930346310378
 30
0.0
 10
145.2987505367929
 20
-119.4897929014684
 30
0.0
 10
145.2987505367929
 20
-119.4843858945153
 30
0.0
 10
145.2944282307008
 20
-119.4811441649468
 30
0.0
 10
145.2868559463639
 20
-119.4789788875625
 30
0.0
  0
SPLINE
  5
DB
330
79
100
AcDbEntity
  8
Capa 1
 62
    18
420
        0
370
     9
100
AcDbSpline
210
0.0
220
0.0
230
1.0
 70
    24
 71
     3
 72
     8
 73
     4
 74
     0
 42
0.0000000001
 43
0.0000000001
 40
0.0
 40
0.0
 40
0.0
 40
0.0
 40
1.0
 40
1.0
 40
1.0
 40
1.0
 10
145.2803724872258
 20
-119.4735760049473
 30
0.0
 10
145.2803724872258
 20
-119.4735760049473
 30
0.0
 10
145.2803724872258
 20
-119.4660078449482
 30
0.0
 10
145.2803724872258
 20
-119.4660078449482
 30
0.0
  0
SPLINE
  5
DC
330
79
100
AcDbEntity
  8
Capa 1
 62
    18
420
        0
370
     9
100
AcDbSpline
210
0.0
220
0.0
230
1.0
 70
     8
 71
     3
 72
    11
 73
     7
 74
     0
 42
0.0000000001
 43
0.0000000001
 40
0.0
 40
0.0
 40
0.0
 40
0.0
 40
1.0
 40
1.0
 40
1.0
 40
2.0
 40
2.0
 40
2.0
 40
2.0
 10
145.2868559463639
 20
-119.4616814145181
 30
0.0
 10
145.2944282307008
 20
-119.460600837995
 30
0.0
 10
145.2987505367929
 20
-119.4562744075649
 30
0.0
 10
145.2987505367929
 20
-119.4530326779962
 30
0.0
 10
145.2987505367929
 20
-119.4487062475657
 30
0.0
 10
145.2944282307008
 20
-119.4454645179967
 30
0.0
 10
145.2868559463639
 20
-119.4433033649506
 30
0.0
  0
SPLINE
  5
DD
330
79
100
AcDbEntity
  8
Capa 1
 62
    18
420
        0
370
     9
100
AcDbSpline
210
0.0
220
0.0
230
1.0
 70
    24
 71
     3
 72
     8
 73
     4
 74
     0
 42
0.0000000001
 43
0.0000000001
 40
0.0
 40
0.0
 40
0.0
 40
0.0
 40
1.0
 40
1.0
 40
1.0
 40
1.0
 10
145.2803724872258
 20
-119.4389769345208
 30
0.0
 10
145.2803724872258
 20
-119.4389769345208
 30
0.0
 10
145.2803724872258
 20
-119.4324893510444
 30
0.0
 10
145.2803724872258
 20
-119.4324893510444
 30
0.0
  0
SPLINE
  5
DE
330
79
100
AcDbEntity
  8
Capa 1
 62
    18
420
        0
370
     9
100
AcDbSpline
210
0.0
220
0.0
230
1.0
 70
     8
 71
     3
 72
    11
 73
     7
 74
     0
 42
0.0000000001
 43
0.0000000001
 40
0.0
 40
0.0
 40
0.0
 40
0.0
 40
1.0
 40
1.0
 40
1.0
 40
2.0
 40
2.0
 40
2.0
 40
2.0
 10
145.2868559463639
 20
-119.4281670449522
 30
0.0
 10
145.2944282307008
 20
-119.4270823440912
 30
0.0
 10
145.2987505367929
 20
-119.4238406145225
 30
0.0
 10
145.2987505367929
 20
-119.4205988849531
 30
0.0
 10
145.2987505367929
 20
-119.417353031046
 30
0.0
 10
145.2944282307008
 20
-119.4141113014772
 30
0.0
 10
145.2868559463639
 20
-119.4130307249539
 30
0.0
  0
SPLINE
  5
DF
330
79
100
AcDbEntity
  8
Capa 1
 62
    18
420
        0
370
     9
100
AcDbSpline
210
0.0
220
0.0
230
1.0
 70
    24
 71
     3
 72
     8
 73
     4
 74
     0
 42
0.0000000001
 43
0.0000000001
 40
0.0
 40
0.0
 40
0.0
 40
0.0
 40
1.0
 40
1.0
 40
1.0
 40
1.0
 10
145.2803724872258
 20
-119.4087042945241
 30
0.0
 10
145.2803724872258
 20
-119.4087042945241
 30
0.0
 10
145.2803724872258
 20
-119.403297287571
 30
0.0
 10
145.2803724872258
 20
-119.403297287571
 30
0.0
  0
SPLINE
  5
E0
330
79
100
AcDbEntity
  8
Capa 1
 62
    18
420
        0
370
     9
100
AcDbSpline
210
0.0
220
0.0
230
1.0
 70
     8
 71
     3
 72
    11
 73
     7
 74
     0
 42
0.0000000001
 43
0.0000000001
 40
0.0
 40
0.0
 40
0.0
 40
0.0
 40
1.0
 40
1.0
 40
1.0
 40
2.0
 40
2.0
 40
2.0
 40
2.0
 10
145.2868559463639
 20
-119.4000555580022
 30
0.0
 10
145.2944282307008
 20
-119.3978944049555
 30
0.0
 10
145.2987505367929
 20
-119.3957291275718
 30
0.0
 10
145.2987505367929
 20
-119.3924873980027
 30
0.0
 10
145.2987505367929
 20
-119.3903221206187
 30
0.0
 10
145.2944282307008
 20
-119.3870803910496
 30
0.0
 10
145.2868559463639
 20
-119.3859998145265
 30
0.0
  0
SPLINE
  5
E1
330
79
100
AcDbEntity
  8
Capa 1
 62
    18
420
        0
370
     9
100
AcDbSpline
210
0.0
220
0.0
230
1.0
 70
    24
 71
     3
 72
     8
 73
     4
 74
     0
 42
0.0000000001
 43
0.0000000001
 40
0.0
 40
0.0
 40
0.0
 40
0.0
 40
1.0
 40
1.0
 40
1.0
 40
1.0
 10
145.2803724872258
 20
-119.3827539606195
 30
0.0
 10
145.2803724872258
 20
-119.3827539606195
 30
0.0
 10
145.2803724872258
 20
-119.3773510780044
 30
0.0
 10
145.2803724872258
 20
-119.3773510780044
 30
0.0
  0
SPLINE
  5
E2
330
79
100
AcDbEntity
  8
Capa 1
 62
    18
420
        0
370
     9
100
AcDbSpline
210
0.0
220
0.0
230
1.0
 70
     8
 71
     3
 72
    11
 73
     7
 74
     0
 42
0.0000000001
 43
0.0000000001
 40
0.0
 40
0.0
 40
0.0
 40
0.0
 40
1.0
 40
1.0
 40
1.0
 40
2.0
 40
2.0
 40
2.0
 40
2.0
 10
145.2868559463639
 20
-119.3741052240973
 30
0.0
 10
145.2933476541781
 20
-119.3741052240973
 30
0.0
 10
145.2987505367929
 20
-119.3708634945282
 30
0.0
 10
145.2987505367929
 20
-119.3687023414821
 30
0.0
 10
145.2987505367929
 20
-119.3665370640984
 30
0.0
 10
145.2933476541781
 20
-119.363295334529
 30
0.0
 10
145.2868559463639
 20
-119.363295334529
 30
0.0
  0
SPLINE
  5
E3
330
79
100
AcDbEntity
  8
Capa 1
 62
    18
420
        0
370
     9
100
AcDbSpline
210
0.0
220
0.0
230
1.0
 70
    24
 71
     3
 72
     8
 73
     4
 74
     0
 42
0.0000000001
 43
0.0000000001
 40
0.0
 40
0.0
 40
0.0
 40
0.0
 40
1.0
 40
1.0
 40
1.0
 40
1.0
 10
145.2803724872258
 20
-119.3600494806219
 30
0.0
 10
145.2803724872258
 20
-119.3600494806219
 30
0.0
 10
145.2803724872258
 20
-119.3557271745298
 30
0.0
 10
145.2803724872258
 20
-119.3557271745298
 30
0.0
  0
SPLINE
  5
E4
330
79
100
AcDbEntity
  8
Capa 1
 62
    18
420
        0
370
     9
100
AcDbSpline
210
0.0
220
0.0
230
1.0
 70
     8
 71
     3
 72
    11
 73
     7
 74
     0
 42
0.0000000001
 43
0.0000000001
 40
0.0
 40
0.0
 40
0.0
 40
0.0
 40
1.0
 40
1.0
 40
1.0
 40
2.0
 40
2.0
 40
2.0
 40
2.0
 10
145.2868559463639
 20
-119.3535660214838
 30
0.0
 10
145.2933476541781
 20
-119.3524813206231
 30
0.0
 10
145.2987505367929
 20
-119.3503201675767
 30
0.0
 10
145.2987505367929
 20
-119.3481590145306
 30
0.0
 10
145.2987505367929
 20
-119.3459978614846
 30
0.0
 10
145.2933476541781
 20
-119.3438325841009
 30
0.0
 10
145.2868559463639
 20
-119.3438325841009
 30
0.0
  0
SPLINE
  5
E5
330
79
100
AcDbEntity
  8
Capa 1
 62
    18
420
        0
370
     9
100
AcDbSpline
210
0.0
220
0.0
230
1.0
 70
    24
 71
     3
 72
     8
 73
     4
 74
     0
 42
0.0000000001
 43
0.0000000001
 40
0.0
 40
0.0
 40
0.0
 40
0.0
 40
1.0
 40
1.0
 40
1.0
 40
1.0
 10
145.2803724872258
 20
-119.3405908545315
 30
0.0
 10
145.2803724872258
 20
-119.3405908545315
 30
0.0
 10
145.2803724872258
 20
-119.3373450006247
 30
0.0
 10
145.2803724872258
 20
-119.3373450006247
 30
0.0
  0
SPLINE
  5
E6
330
79
100
AcDbEntity
  8
Capa 1
 62
    18
420
        0
370
     9
100
AcDbSpline
210
0.0
220
0.0
230
1.0
 70
     8
 71
     3
 72
    14
 73
    10
 74
     0
 42
0.0000000001
 43
0.0000000001
 40
0.0
 40
0.0
 40
0.0
 40
0.0
 40
1.0
 40
1.0
 40
1.0
 40
2.0
 40
2.0
 40
2.0
 40
3.0
 40
3.0
 40
3.0
 40
3.0
 10
145.2868559463639
 20
-119.3351838475787
 30
0.0
 10
145.2933476541781
 20
-119.3351838475787
 30
0.0
 10
145.2987505367929
 20
-119.3330226945326
 30
0.0
 10
145.2987505367929
 20
-119.3319421180096
 30
0.0
 10
145.2987505367929
 20
-119.3297768406252
 30
0.0
 10
145.2976699602702
 20
-119.3297768406252
 30
0.0
 10
145.2955088072242
 20
-119.3286962641025
 30
0.0
 10
145.2933476541781
 20
-119.3286962641025
 30
0.0
 10
145.2901059246087
 20
-119.3276156875795
 30
0.0
 10
145.2868559463639
 20
-119.3276156875795
 30
0.0
  0
SPLINE
  5
E7
330
79
100
AcDbEntity
  8
Capa 1
 62
    18
420
        0
370
     9
100
AcDbSpline
210
0.0
220
0.0
230
1.0
 70
    24
 71
     3
 72
     8
 73
     4
 74
     0
 42
0.0000000001
 43
0.0000000001
 40
0.0
 40
0.0
 40
0.0
 40
0.0
 40
1.0
 40
1.0
 40
1.0
 40
1.0
 10
145.2803724872258
 20
-119.3254545345334
 30
0.0
 10
145.2803724872258
 20
-119.3254545345334
 30
0.0
 10
145.2803724872258
 20
-119.3232933814874
 30
0.0
 10
145.2803724872258
 20
-119.3232933814874
 30
0.0
  0
SPLINE
  5
E8
330
79
100
AcDbEntity
  8
Capa 1
 62
    18
420
        0
370
     9
100
AcDbSpline
210
0.0
220
0.0
230
1.0
 70
     8
 71
     3
 72
    17
 73
    13
 74
     0
 42
0.0000000001
 43
0.0000000001
 40
0.0
 40
0.0
 40
0.0
 40
0.0
 40
1.0
 40
1.0
 40
1.0
 40
2.0
 40
2.0
 40
2.0
 40
3.0
 40
3.0
 40
3.0
 40
4.0
 40
4.0
 40
4.0
 40
4.0
 10
145.2868559463639
 20
-119.3211281041033
 30
0.0
 10
145.2901059246087
 20
-119.3211281041033
 30
0.0
 10
145.2933476541781
 20
-119.3200475275803
 30
0.0
 10
145.2955088072242
 20
-119.3200475275803
 30
0.0
 10
145.2976699602702
 20
-119.3189669510573
 30
0.0
 10
145.2987505367929
 20
-119.3178863745345
 30
0.0
 10
145.2987505367929
 20
-119.3178863745345
 30
0.0
 10
145.2987505367929
 20
-119.3178863745345
 30
0.0
 10
145.2976699602702
 20
-119.3168057980112
 30
0.0
 10
145.2955088072242
 20
-119.3157252214882
 30
0.0
 10
145.2933476541781
 20
-119.3146405206272
 30
0.0
 10
145.2901059246087
 20
-119.3146405206272
 30
0.0
 10
145.2868559463639
 20
-119.3146405206272
 30
0.0
  0
SPLINE
  5
E9
330
79
100
AcDbEntity
  8
Capa 1
 62
    18
420
        0
370
     9
100
AcDbSpline
210
0.0
220
0.0
230
1.0
 70
    24
 71
     3
 72
     8
 73
     4
 74
     0
 42
0.0000000001
 43
0.0000000001
 40
0.0
 40
0.0
 40
0.0
 40
0.0
 40
1.0
 40
1.0
 40
1.0
 40
1.0
 10
145.2803724872258
 20
-119.3135599441041
 30
0.0
 10
145.2803724872258
 20
-119.3135599441041
 30
0.0
 10
145.2803724872258
 20
-119.3113987910581
 30
0.0
 10
145.2803724872258
 20
-119.3113987910581
 30
0.0
  0
SPLINE
  5
EA
330
79
100
AcDbEntity
  8
Capa 1
 62
    18
420
        0
370
     9
100
AcDbSpline
210
0.0
220
0.0
230
1.0
 70
     8
 71
     3
 72
    17
 73
    13
 74
     0
 42
0.0000000001
 43
0.0000000001
 40
0.0
 40
0.0
 40
0.0
 40
0.0
 40
1.0
 40
1.0
 40
1.0
 40
2.0
 40
2.0
 40
2.0
 40
3.0
 40
3.0
 40
3.0
 40
4.0
 40
4.0
 40
4.0
 40
4.0
 10
145.2868559463639
 20
-119.3103182145351
 30
0.0
 10
145.2901059246087
 20
-119.3103182145351
 30
0.0
 10
145.2933476541781
 20
-119.309237638012
 30
0.0
 10
145.2955088072242
 20
-119.309237638012
 30
0.0
 10
145.2976699602702
 20
-119.308157061489
 30
0.0
 10
145.2987505367929
 20
-119.308157061489
 30
0.0
 10
145.2987505367929
 20
-119.308157061489
 30
0.0
 10
145.2987505367929
 20
-119.308157061489
 30
0.0
 10
145.2976699602702
 20
-119.307072360628
 30
0.0
 10
145.2955088072242
 20
-119.3059917841049
 30
0.0
 10
145.2933476541781
 20
-119.3059917841049
 30
0.0
 10
145.2901059246087
 20
-119.3049112075819
 30
0.0
 10
145.2868559463639
 20
-119.3049112075819
 30
0.0
  0
SPLINE
  5
EB
330
79
100
AcDbEntity
  8
Capa 1
 62
    18
420
        0
370
     9
100
AcDbSpline
210
0.0
220
0.0
230
1.0
 70
    24
 71
     3
 72
     8
 73
     4
 74
     0
 42
0.0000000001
 43
0.0000000001
 40
0.0
 40
0.0
 40
0.0
 40
0.0
 40
1.0
 40
1.0
 40
1.0
 40
1.0
 10
145.2803724872258
 20
-119.3049112075819
 30
0.0
 10
145.2803724872258
 20
-119.3049112075819
 30
0.0
 10
145.2803724872258
 20
-119.3027500545356
 30
0.0
 10
145.2803724872258
 20
-119.3027500545356
 30
0.0
  0
SPLINE
  5
EC
330
79
100
AcDbEntity
  8
Capa 1
 62
    18
420
        0
370
     9
100
AcDbSpline
210
0.0
220
0.0
230
1.0
 70
     8
 71
     3
 72
    17
 73
    13
 74
     0
 42
0.0000000001
 43
0.0000000001
 40
0.0
 40
0.0
 40
0.0
 40
0.0
 40
1.0
 40
1.0
 40
1.0
 40
2.0
 40
2.0
 40
2.0
 40
3.0
 40
3.0
 40
3.0
 40
4.0
 40
4.0
 40
4.0
 40
4.0
 10
145.2868559463639
 20
-119.3016694780129
 30
0.0
 10
145.2901059246087
 20
-119.3016694780129
 30
0.0
 10
145.2933476541781
 20
-119.3016694780129
 30
0.0
 10
145.2955088072242
 20
-119.3016694780129
 30
0.0
 10
145.2976699602702
 20
-119.3016694780129
 30
0.0
 10
145.2987505367929
 20
-119.3005889014898
 30
0.0
 10
145.2987505367929
 20
-119.3005889014898
 30
0.0
 10
145.2987505367929
 20
-119.3005889014898
 30
0.0
 10
145.2976699602702
 20
-119.3005889014898
 30
0.0
 10
145.2955088072242
 20
-119.2995042006288
 30
0.0
 10
145.2955088072242
 20
-119.2995042006288
 30
0.0
 10
145.2868559463639
 20
-119.2995042006288
 30
0.0
 10
145.2868559463639
 20
-119.2995042006288
 30
0.0
  0
SPLINE
  5
ED
330
79
100
AcDbEntity
  8
Capa 1
 62
    18
420
        0
370
     9
100
AcDbSpline
 70
     3
 71
     3
 72
     8
 73
     4
 74
     0
 42
0.0000000001
 43
0.0000000001
 40
0.0
 40
0.0
 40
0.0
 40
0.0
 40
1.0
 40
1.0
 40
1.0
 40
1.0
 10
145.2803724872258
 20
-119.2984236241058
 30
0.0
 10
145.2803724872258
 20
-119.2984236241058
 30
0.0
 10
145.2803724872258
 20
-119.2984236241058
 30
0.0
 10
145.2803724872258
 20
-119.2984236241058
 30
0.0
  0
SPLINE
  5
EE
330
79
100
AcDbEntity
  8
Capa 1
 62
    18
420
        0
370
     9
100
AcDbSpline
210
0.0
220
0.0
230
1.0
 70
     8
 71
     3
 72
    17
 73
    13
 74
     0
 42
0.0000000001
 43
0.0000000001
 40
0.0
 40
0.0
 40
0.0
 40
0.0
 40
1.0
 40
1.0
 40
1.0
 40
2.0
 40
2.0
 40
2.0
 40
3.0
 40
3.0
 40
3.0
 40
4.0
 40
4.0
 40
4.0
 40
4.0
 10
145.2868559463639
 20
-119.2973430475827
 30
0.0
 10
145.2868559463639
 20
-119.2973430475827
 30
0.0
 10
145.2955088072242
 20
-119.2973430475827
 30
0.0
 10
145.2955088072242
 20
-119.2973430475827
 30
0.0
 10
145.2976699602702
 20
-119.2962624710597
 30
0.0
 10
145.2987505367929
 20
-119.2962624710597
 30
0.0
 10
145.2987505367929
 20
-119.2962624710597
 30
0.0
 10
145.2987505367929
 20
-119.2962624710597
 30
0.0
 10
145.2976699602702
 20
-119.2962624710597
 30
0.0
 10
145.2955088072242
 20
-119.2962624710597
 30
0.0
 10
145.2955088072242
 20
-119.2962624710597
 30
0.0
 10
145.2868559463639
 20
-119.2962624710597
 30
0.0
 10
145.2868559463639
 20
-119.2962624710597
 30
0.0
  0
SPLINE
  5
EF
330
79
100
AcDbEntity
  8
Capa 1
 62
    18
420
        0
370
     9
100
AcDbSpline
210
0.0
220
0.0
230
1.0
 70
    24
 71
     3
 72
     8
 73
     4
 74
     0
 42
0.0000000001
 43
0.0000000001
 40
0.0
 40
0.0
 40
0.0
 40
0.0
 40
1.0
 40
1.0
 40
1.0
 40
1.0
 10
145.2803724872258
 20
-119.2962624710597
 30
0.0
 10
145.2803724872258
 20
-119.2962624710597
 30
0.0
 10
145.2857753698413
 20
-119.2962624710597
 30
0.0
 10
145.2857753698413
 20
-119.2962624710597
 30
0.0
  0
SPLINE
  5
F0
330
79
100
AcDbEntity
  8
Capa 1
 62
    18
420
        0
370
     9
100
AcDbSpline
210
0.0
220
0.0
230
1.0
 70
    24
 71
     3
 72
     8
 73
     4
 74
     0
 42
0.0000000001
 43
0.0000000001
 40
0.0
 40
0.0
 40
0.0
 40
0.0
 40
1.0
 40
1.0
 40
1.0
 40
1.0
 10
145.2846947933179
 20
-119.2962624710597
 30
0.0
 10
145.2846947933179
 20
-119.2962624710597
 30
0.0
 10
145.2803724872258
 20
-119.2962624710597
 30
0.0
 10
145.2803724872258
 20
-119.2962624710597
 30
0.0
  0
SPLINE
  5
F1
330
79
100
AcDbEntity
  8
Capa 1
 62
    18
420
        0
370
     9
100
AcDbSpline
210
0.0
220
0.0
230
1.0
 70
    24
 71
     3
 72
     8
 73
     4
 74
     0
 42
0.0000000001
 43
0.0000000001
 40
0.0
 40
0.0
 40
0.0
 40
0.0
 40
1.0
 40
1.0
 40
1.0
 40
1.0
 10
145.2965893837469
 20
-120.5169056326446
 30
0.0
 10
145.2965893837469
 20
-120.5169056326446
 30
0.0
 10
145.2965893837469
 20
-122.5138275445726
 30
0.0
 10
145.2965893837469
 20
-122.5138275445726
 30
0.0
  0
SPLINE
  5
F2
330
79
100
AcDbEntity
  8
Capa 1
 62
    18
420
        0
370
     9
100
AcDbSpline
210
0.0
220
0.0
230
1.0
 70
    24
 71
     3
 72
     8
 73
     4
 74
     0
 42
0.0000000001
 43
0.0000000001
 40
0.0
 40
0.0
 40
0.0
 40
0.0
 40
1.0
 40
1.0
 40
1.0
 40
1.0
 10
147.4870417260839
 20
-176.2998910449243
 30
0.0
 10
147.4870417260839
 20
-176.2998910449243
 30
0.0
 10
146.8891529618134
 20
-176.2998910449243
 30
0.0
 10
146.8891529618134
 20
-176.2998910449243
 30
0.0
  0
SPLINE
  5
F3
330
79
100
AcDbEntity
  8
Capa 1
 62
    18
420
        0
370
     9
100
AcDbSpline
210
0.0
220
0.0
230
1.0
 70
    24
 71
     3
 72
     8
 73
     4
 74
     0
 42
0.0000000001
 43
0.0000000001
 40
0.0
 40
0.0
 40
0.0
 40
0.0
 40
1.0
 40
1.0
 40
1.0
 40
1.0
 10
145.9701597480092
 20
-176.2998910449243
 30
0.0
 10
145.9701597480092
 20
-176.2998910449243
 30
0.0
 10
145.3722709837387
 20
-176.2998910449243
 30
0.0
 10
145.3722709837387
 20
-176.2998910449243
 30
0.0
  0
SPLINE
  5
F4
330
79
100
AcDbEntity
  8
Capa 1
 62
    18
420
        0
370
     9
100
AcDbSpline
210
0.0
220
0.0
230
1.0
 70
     8
 71
     3
 72
     8
 73
     4
 74
     0
 42
0.0000000001
 43
0.0000000001
 40
0.0
 40
0.0
 40
0.0
 40
0.0
 40
1.0
 40
1.0
 40
1.0
 40
1.0
 10
147.4870417260839
 20
-176.2998910449243
 30
0.0
 10
147.5010974695589
 20
-176.2998910449243
 30
0.0
 10
147.5151532130346
 20
-176.2966451910172
 30
0.0
 10
147.5270478034636
 20
-176.2912423084018
 30
0.0
  0
SPLINE
  5
F5
330
79
100
AcDbEntity
  8
Capa 1
 62
    18
420
        0
370
     9
100
AcDbSpline
210
0.0
220
0.0
230
1.0
 70
    24
 71
     3
 72
     8
 73
     4
 74
     0
 42
0.0000000001
 43
0.0000000001
 40
0.0
 40
0.0
 40
0.0
 40
0.0
 40
1.0
 40
1.0
 40
1.0
 40
1.0
 10
145.2803724872258
 20
-176.2079925484114
 30
0.0
 10
145.2803724872258
 20
-176.2079925484114
 30
0.0
 10
145.2803724872258
 20
-176.1809616379841
 30
0.0
 10
145.2803724872258
 20
-176.1809616379841
 30
0.0
  0
SPLINE
  5
F6
330
79
100
AcDbEntity
  8
Capa 1
 62
    18
420
        0
370
     9
100
AcDbSpline
210
0.0
220
0.0
230
1.0
 70
    24
 71
     3
 72
     8
 73
     4
 74
     0
 42
0.0000000001
 43
0.0000000001
 40
0.0
 40
0.0
 40
0.0
 40
0.0
 40
1.0
 40
1.0
 40
1.0
 40
1.0
 10
145.2803724872258
 20
-176.1669058945084
 30
0.0
 10
145.2803724872258
 20
-176.1669058945084
 30
0.0
 10
145.2803724872258
 20
-176.1150093510375
 30
0.0
 10
145.2803724872258
 20
-176.1150093510375
 30
0.0
  0
SPLINE
  5
F7
330
79
100
AcDbEntity
  8
Capa 1
 62
    18
420
        0
370
     9
100
AcDbSpline
210
0.0
220
0.0
230
1.0
 70
    24
 71
     3
 72
     8
 73
     4
 74
     0
 42
0.0000000001
 43
0.0000000001
 40
0.0
 40
0.0
 40
0.0
 40
0.0
 40
1.0
 40
1.0
 40
1.0
 40
1.0
 10
145.2803724872258
 20
-176.1009536075625
 30
0.0
 10
145.2803724872258
 20
-176.1009536075625
 30
0.0
 10
145.2803724872258
 20
-176.0490570640915
 30
0.0
 10
145.2803724872258
 20
-176.0490570640915
 30
0.0
  0
SPLINE
  5
F8
330
79
100
AcDbEntity
  8
Capa 1
 62
    18
420
        0
370
     9
100
AcDbSpline
210
0.0
220
0.0
230
1.0
 70
    24
 71
     3
 72
     8
 73
     4
 74
     0
 42
0.0000000001
 43
0.0000000001
 40
0.0
 40
0.0
 40
0.0
 40
0.0
 40
1.0
 40
1.0
 40
1.0
 40
1.0
 10
145.2803724872258
 20
-176.0360860214769
 30
0.0
 10
145.2803724872258
 20
-176.0360860214769
 30
0.0
 10
145.2803724872258
 20
-175.984189478006
 30
0.0
 10
145.2803724872258
 20
-175.984189478006
 30
0.0
  0
SPLINE
  5
F9
330
79
100
AcDbEntity
  8
Capa 1
 62
    18
420
        0
370
     9
100
AcDbSpline
210
0.0
220
0.0
230
1.0
 70
    24
 71
     3
 72
     8
 73
     4
 74
     0
 42
0.0000000001
 43
0.0000000001
 40
0.0
 40
0.0
 40
0.0
 40
0.0
 40
1.0
 40
1.0
 40
1.0
 40
1.0
 10
145.2803724872258
 20
-175.9701337345303
 30
0.0
 10
145.2803724872258
 20
-175.9701337345303
 30
0.0
 10
145.2803724872258
 20
-175.9182371910594
 30
0.0
 10
145.2803724872258
 20
-175.9182371910594
 30
0.0
  0
SPLINE
  5
FA
330
79
100
AcDbEntity
  8
Capa 1
 62
    18
420
        0
370
     9
100
AcDbSpline
210
0.0
220
0.0
230
1.0
 70
    24
 71
     3
 72
     8
 73
     4
 74
     0
 42
0.0000000001
 43
0.0000000001
 40
0.0
 40
0.0
 40
0.0
 40
0.0
 40
1.0
 40
1.0
 40
1.0
 40
1.0
 10
145.2803724872258
 20
-175.9041814475844
 30
0.0
 10
145.2803724872258
 20
-175.9041814475844
 30
0.0
 10
145.2803724872258
 20
-175.8522849041135
 30
0.0
 10
145.2803724872258
 20
-175.8522849041135
 30
0.0
  0
SPLINE
  5
FB
330
79
100
AcDbEntity
  8
Capa 1
 62
    18
420
        0
370
     9
100
AcDbSpline
210
0.0
220
0.0
230
1.0
 70
    24
 71
     3
 72
     8
 73
     4
 74
     0
 42
0.0000000001
 43
0.0000000001
 40
0.0
 40
0.0
 40
0.0
 40
0.0
 40
1.0
 40
1.0
 40
1.0
 40
1.0
 10
145.2803724872258
 20
-175.8382291606384
 30
0.0
 10
145.2803724872258
 20
-175.8382291606384
 30
0.0
 10
145.2803724872258
 20
-175.7863326171668
 30
0.0
 10
145.2803724872258
 20
-175.7863326171668
 30
0.0
  0
SPLINE
  5
FC
330
79
100
AcDbEntity
  8
Capa 1
 62
    18
420
        0
370
     9
100
AcDbSpline
210
0.0
220
0.0
230
1.0
 70
    24
 71
     3
 72
     8
 73
     4
 74
     0
 42
0.0000000001
 43
0.0000000001
 40
0.0
 40
0.0
 40
0.0
 40
0.0
 40
1.0
 40
1.0
 40
1.0
 40
1.0
 10
145.2803724872258
 20
-175.7733615745529
 30
0.0
 10
145.2803724872258
 20
-175.7733615745529
 30
0.0
 10
145.2803724872258
 20
-175.7214650310819
 30
0.0
 10
145.2803724872258
 20
-175.7214650310819
 30
0.0
  0
SPLINE
  5
FD
330
79
100
AcDbEntity
  8
Capa 1
 62
    18
420
        0
370
     9
100
AcDbSpline
210
0.0
220
0.0
230
1.0
 70
    24
 71
     3
 72
     8
 73
     4
 74
     0
 42
0.0000000001
 43
0.0000000001
 40
0.0
 40
0.0
 40
0.0
 40
0.0
 40
1.0
 40
1.0
 40
1.0
 40
1.0
 10
145.2803724872258
 20
-175.7074092876063
 30
0.0
 10
145.2803724872258
 20
-175.7074092876063
 30
0.0
 10
145.2803724872258
 20
-175.6555127441354
 30
0.0
 10
145.2803724872258
 20
-175.6555127441354
 30
0.0
  0
SPLINE
  5
FE
330
79
100
AcDbEntity
  8
Capa 1
 62
    18
420
        0
370
     9
100
AcDbSpline
210
0.0
220
0.0
230
1.0
 70
    24
 71
     3
 72
     8
 73
     4
 74
     0
 42
0.0000000001
 43
0.0000000001
 40
0.0
 40
0.0
 40
0.0
 40
0.0
 40
1.0
 40
1.0
 40
1.0
 40
1.0
 10
145.2803724872258
 20
-175.6414570006603
 30
0.0
 10
145.2803724872258
 20
-175.6414570006603
 30
0.0
 10
145.2803724872258
 20
-175.5895604571894
 30
0.0
 10
145.2803724872258
 20
-175.5895604571894
 30
0.0
  0
SPLINE
  5
FF
330
79
100
AcDbEntity
  8
Capa 1
 62
    18
420
        0
370
     9
100
AcDbSpline
210
0.0
220
0.0
230
1.0
 70
    24
 71
     3
 72
     8
 73
     4
 74
     0
 42
0.0000000001
 43
0.0000000001
 40
0.0
 40
0.0
 40
0.0
 40
0.0
 40
1.0
 40
1.0
 40
1.0
 40
1.0
 10
145.2803724872258
 20
-175.5765894145748
 30
0.0
 10
145.2803724872258
 20
-175.5765894145748
 30
0.0
 10
145.2803724872258
 20
-175.5246928711038
 30
0.0
 10
145.2803724872258
 20
-175.5246928711038
 30
0.0
  0
SPLINE
  5
100
330
79
100
AcDbEntity
  8
Capa 1
 62
    18
420
        0
370
     9
100
AcDbSpline
210
0.0
220
0.0
230
1.0
 70
    24
 71
     3
 72
     8
 73
     4
 74
     0
 42
0.0000000001
 43
0.0000000001
 40
0.0
 40
0.0
 40
0.0
 40
0.0
 40
1.0
 40
1.0
 40
1.0
 40
1.0
 10
145.2803724872258
 20
-175.5106371276288
 30
0.0
 10
145.2803724872258
 20
-175.5106371276288
 30
0.0
 10
145.2803724872258
 20
-175.4587405841579
 30
0.0
 10
145.2803724872258
 20
-175.4587405841579
 30
0.0
  0
SPLINE
  5
101
330
79
100
AcDbEntity
  8
Capa 1
 62
    18
420
        0
370
     9
100
AcDbSpline
210
0.0
220
0.0
230
1.0
 70
    24
 71
     3
 72
     8
 73
     4
 74
     0
 42
0.0000000001
 43
0.0000000001
 40
0.0
 40
0.0
 40
0.0
 40
0.0
 40
1.0
 40
1.0
 40
1.0
 40
1.0
 10
145.2803724872258
 20
-175.4446848406822
 30
0.0
 10
145.2803724872258
 20
-175.4446848406822
 30
0.0
 10
145.2803724872258
 20
-175.3927882972113
 30
0.0
 10
145.2803724872258
 20
-175.3927882972113
 30
0.0
  0
SPLINE
  5
102
330
79
100
AcDbEntity
  8
Capa 1
 62
    18
420
        0
370
     9
100
AcDbSpline
210
0.0
220
0.0
230
1.0
 70
    24
 71
     3
 72
     8
 73
     4
 74
     0
 42
0.0000000001
 43
0.0000000001
 40
0.0
 40
0.0
 40
0.0
 40
0.0
 40
1.0
 40
1.0
 40
1.0
 40
1.0
 10
145.2803724872258
 20
-175.3787325537363
 30
0.0
 10
145.2803724872258
 20
-175.3787325537363
 30
0.0
 10
145.2803724872258
 20
-175.3268360102654
 30
0.0
 10
145.2803724872258
 20
-175.3268360102654
 30
0.0
  0
SPLINE
  5
103
330
79
100
AcDbEntity
  8
Capa 1
 62
    18
420
        0
370
     9
100
AcDbSpline
210
0.0
220
0.0
230
1.0
 70
    24
 71
     3
 72
     8
 73
     4
 74
     0
 42
0.0000000001
 43
0.0000000001
 40
0.0
 40
0.0
 40
0.0
 40
0.0
 40
1.0
 40
1.0
 40
1.0
 40
1.0
 10
145.2803724872258
 20
-175.3138649676508
 30
0.0
 10
145.2803724872258
 20
-175.3138649676508
 30
0.0
 10
145.2803724872258
 20
-175.2608837233188
 30
0.0
 10
145.2803724872258
 20
-175.2608837233188
 30
0.0
  0
SPLINE
  5
104
330
79
100
AcDbEntity
  8
Capa 1
 62
    18
420
        0
370
     9
100
AcDbSpline
210
0.0
220
0.0
230
1.0
 70
    24
 71
     3
 72
     8
 73
     4
 74
     0
 42
0.0000000001
 43
0.0000000001
 40
0.0
 40
0.0
 40
0.0
 40
0.0
 40
1.0
 40
1.0
 40
1.0
 40
1.0
 10
145.2803724872258
 20
-175.2479126807048
 30
0.0
 10
145.2803724872258
 20
-175.2479126807048
 30
0.0
 10
145.2803724872258
 20
-175.1960161372332
 30
0.0
 10
145.2803724872258
 20
-175.1960161372332
 30
0.0
  0
SPLINE
  5
105
330
79
100
AcDbEntity
  8
Capa 1
 62
    18
420
        0
370
     9
100
AcDbSpline
210
0.0
220
0.0
230
1.0
 70
    24
 71
     3
 72
     8
 73
     4
 74
     0
 42
0.0000000001
 43
0.0000000001
 40
0.0
 40
0.0
 40
0.0
 40
0.0
 40
1.0
 40
1.0
 40
1.0
 40
1.0
 10
145.2803724872258
 20
-175.1819603937582
 30
0.0
 10
145.2803724872258
 20
-175.1819603937582
 30
0.0
 10
145.2803724872258
 20
-175.1300638502873
 30
0.0
 10
145.2803724872258
 20
-175.1300638502873
 30
0.0
  0
SPLINE
  5
106
330
79
100
AcDbEntity
  8
Capa 1
 62
    18
420
        0
370
     9
100
AcDbSpline
210
0.0
220
0.0
230
1.0
 70
    24
 71
     3
 72
     8
 73
     4
 74
     0
 42
0.0000000001
 43
0.0000000001
 40
0.0
 40
0.0
 40
0.0
 40
0.0
 40
1.0
 40
1.0
 40
1.0
 40
1.0
 10
145.2803724872258
 20
-175.1160081068116
 30
0.0
 10
145.2803724872258
 20
-175.1160081068116
 30
0.0
 10
145.2803724872258
 20
-175.0641115633407
 30
0.0
 10
145.2803724872258
 20
-175.0641115633407
 30
0.0
  0
SPLINE
  5
107
330
79
100
AcDbEntity
  8
Capa 1
 62
    18
420
        0
370
     9
100
AcDbSpline
210
0.0
220
0.0
230
1.0
 70
    24
 71
     3
 72
     8
 73
     4
 74
     0
 42
0.0000000001
 43
0.0000000001
 40
0.0
 40
0.0
 40
0.0
 40
0.0
 40
1.0
 40
1.0
 40
1.0
 40
1.0
 10
145.2803724872258
 20
-175.0511405207267
 30
0.0
 10
145.2803724872258
 20
-175.0511405207267
 30
0.0
 10
145.2803724872258
 20
-174.9992439772558
 30
0.0
 10
145.2803724872258
 20
-174.9992439772558
 30
0.0
  0
SPLINE
  5
108
330
79
100
AcDbEntity
  8
Capa 1
 62
    18
420
        0
370
     9
100
AcDbSpline
210
0.0
220
0.0
230
1.0
 70
    24
 71
     3
 72
     8
 73
     4
 74
     0
 42
0.0000000001
 43
0.0000000001
 40
0.0
 40
0.0
 40
0.0
 40
0.0
 40
1.0
 40
1.0
 40
1.0
 40
1.0
 10
145.2803724872258
 20
-174.9851882337801
 30
0.0
 10
145.2803724872258
 20
-174.9851882337801
 30
0.0
 10
145.2803724872258
 20
-174.9332916903092
 30
0.0
 10
145.2803724872258
 20
-174.9332916903092
 30
0.0
  0
SPLINE
  5
109
330
79
100
AcDbEntity
  8
Capa 1
 62
    18
420
        0
370
     9
100
AcDbSpline
210
0.0
220
0.0
230
1.0
 70
    24
 71
     3
 72
     8
 73
     4
 74
     0
 42
0.0000000001
 43
0.0000000001
 40
0.0
 40
0.0
 40
0.0
 40
0.0
 40
1.0
 40
1.0
 40
1.0
 40
1.0
 10
145.2803724872258
 20
-174.9192359468342
 30
0.0
 10
145.2803724872258
 20
-174.9192359468342
 30
0.0
 10
145.2803724872258
 20
-174.8673394033632
 30
0.0
 10
145.2803724872258
 20
-174.8673394033632
 30
0.0
  0
SPLINE
  5
10A
330
79
100
AcDbEntity
  8
Capa 1
 62
    18
420
        0
370
     9
100
AcDbSpline
210
0.0
220
0.0
230
1.0
 70
    24
 71
     3
 72
     8
 73
     4
 74
     0
 42
0.0000000001
 43
0.0000000001
 40
0.0
 40
0.0
 40
0.0
 40
0.0
 40
1.0
 40
1.0
 40
1.0
 40
1.0
 10
145.2803724872258
 20
-174.8532836598876
 30
0.0
 10
145.2803724872258
 20
-174.8532836598876
 30
0.0
 10
145.2803724872258
 20
-174.8013871164167
 30
0.0
 10
145.2803724872258
 20
-174.8013871164167
 30
0.0
  0
SPLINE
  5
10B
330
79
100
AcDbEntity
  8
Capa 1
 62
    18
420
        0
370
     9
100
AcDbSpline
210
0.0
220
0.0
230
1.0
 70
    24
 71
     3
 72
     8
 73
     4
 74
     0
 42
0.0000000001
 43
0.0000000001
 40
0.0
 40
0.0
 40
0.0
 40
0.0
 40
1.0
 40
1.0
 40
1.0
 40
1.0
 10
145.2803724872258
 20
-174.7884160738027
 30
0.0
 10
145.2803724872258
 20
-174.7884160738027
 30
0.0
 10
145.2803724872258
 20
-174.7365195303311
 30
0.0
 10
145.2803724872258
 20
-174.7365195303311
 30
0.0
  0
SPLINE
  5
10C
330
79
100
AcDbEntity
  8
Capa 1
 62
    18
420
        0
370
     9
100
AcDbSpline
210
0.0
220
0.0
230
1.0
 70
    24
 71
     3
 72
     8
 73
     4
 74
     0
 42
0.0000000001
 43
0.0000000001
 40
0.0
 40
0.0
 40
0.0
 40
0.0
 40
1.0
 40
1.0
 40
1.0
 40
1.0
 10
145.2803724872258
 20
-174.7224637868561
 30
0.0
 10
145.2803724872258
 20
-174.7224637868561
 30
0.0
 10
145.2803724872258
 20
-174.6705672433852
 30
0.0
 10
145.2803724872258
 20
-174.6705672433852
 30
0.0
  0
SPLINE
  5
10D
330
79
100
AcDbEntity
  8
Capa 1
 62
    18
420
        0
370
     9
100
AcDbSpline
210
0.0
220
0.0
230
1.0
 70
    24
 71
     3
 72
     8
 73
     4
 74
     0
 42
0.0000000001
 43
0.0000000001
 40
0.0
 40
0.0
 40
0.0
 40
0.0
 40
1.0
 40
1.0
 40
1.0
 40
1.0
 10
145.2803724872258
 20
-174.6565114999102
 30
0.0
 10
145.2803724872258
 20
-174.6565114999102
 30
0.0
 10
145.2803724872258
 20
-174.6046149564392
 30
0.0
 10
145.2803724872258
 20
-174.6046149564392
 30
0.0
  0
SPLINE
  5
10E
330
79
100
AcDbEntity
  8
Capa 1
 62
    18
420
        0
370
     9
100
AcDbSpline
210
0.0
220
0.0
230
1.0
 70
    24
 71
     3
 72
     8
 73
     4
 74
     0
 42
0.0000000001
 43
0.0000000001
 40
0.0
 40
0.0
 40
0.0
 40
0.0
 40
1.0
 40
1.0
 40
1.0
 40
1.0
 10
145.2803724872258
 20
-174.5905592129636
 30
0.0
 10
145.2803724872258
 20
-174.5905592129636
 30
0.0
 10
145.2803724872258
 20
-174.5386626694926
 30
0.0
 10
145.2803724872258
 20
-174.5386626694926
 30
0.0
  0
SPLINE
  5
10F
330
79
100
AcDbEntity
  8
Capa 1
 62
    18
420
        0
370
     9
100
AcDbSpline
210
0.0
220
0.0
230
1.0
 70
    24
 71
     3
 72
     8
 73
     4
 74
     0
 42
0.0000000001
 43
0.0000000001
 40
0.0
 40
0.0
 40
0.0
 40
0.0
 40
1.0
 40
1.0
 40
1.0
 40
1.0
 10
145.2803724872258
 20
-174.525691626878
 30
0.0
 10
145.2803724872258
 20
-174.525691626878
 30
0.0
 10
145.2803724872258
 20
-174.4737950834071
 30
0.0
 10
145.2803724872258
 20
-174.4737950834071
 30
0.0
  0
SPLINE
  5
110
330
79
100
AcDbEntity
  8
Capa 1
 62
    18
420
        0
370
     9
100
AcDbSpline
210
0.0
220
0.0
230
1.0
 70
    24
 71
     3
 72
     8
 73
     4
 74
     0
 42
0.0000000001
 43
0.0000000001
 40
0.0
 40
0.0
 40
0.0
 40
0.0
 40
1.0
 40
1.0
 40
1.0
 40
1.0
 10
145.2803724872258
 20
-174.4521711799329
 30
0.0
 10
145.2803724872258
 20
-174.4521711799329
 30
0.0
 10
145.2803724872258
 20
-174.4078427964611
 30
0.0
 10
145.2803724872258
 20
-174.4078427964611
 30
0.0
  0
SPLINE
  5
111
330
79
100
AcDbEntity
  8
Capa 1
 62
    18
420
        0
370
     9
100
AcDbSpline
210
0.0
220
0.0
230
1.0
 70
    24
 71
     3
 72
     8
 73
     4
 74
     0
 42
0.0000000001
 43
0.0000000001
 40
0.0
 40
0.0
 40
0.0
 40
0.0
 40
1.0
 40
1.0
 40
1.0
 40
1.0
 10
145.2803724872258
 20
-174.3937870529861
 30
0.0
 10
145.2803724872258
 20
-174.3937870529861
 30
0.0
 10
145.2803724872258
 20
-174.3418905095145
 30
0.0
 10
145.2803724872258
 20
-174.3418905095145
 30
0.0
  0
SPLINE
  5
112
330
79
100
AcDbEntity
  8
Capa 1
 62
    18
420
        0
370
     9
100
AcDbSpline
210
0.0
220
0.0
230
1.0
 70
    24
 71
     3
 72
     8
 73
     4
 74
     0
 42
0.0000000001
 43
0.0000000001
 40
0.0
 40
0.0
 40
0.0
 40
0.0
 40
1.0
 40
1.0
 40
1.0
 40
1.0
 10
145.2803724872258
 20
-174.3278347660395
 30
0.0
 10
145.2803724872258
 20
-174.3278347660395
 30
0.0
 10
145.2803724872258
 20
-174.2759382225686
 30
0.0
 10
145.2803724872258
 20
-174.2759382225686
 30
0.0
  0
SPLINE
  5
113
330
79
100
AcDbEntity
  8
Capa 1
 62
    18
420
        0
370
     9
100
AcDbSpline
210
0.0
220
0.0
230
1.0
 70
    24
 71
     3
 72
     8
 73
     4
 74
     0
 42
0.0000000001
 43
0.0000000001
 40
0.0
 40
0.0
 40
0.0
 40
0.0
 40
1.0
 40
1.0
 40
1.0
 40
1.0
 10
145.2803724872258
 20
-174.262967179954
 30
0.0
 10
145.2803724872258
 20
-174.262967179954
 30
0.0
 10
145.2803724872258
 20
-174.211070636483
 30
0.0
 10
145.2803724872258
 20
-174.211070636483
 30
0.0
  0
SPLINE
  5
114
330
79
100
AcDbEntity
  8
Capa 1
 62
    18
420
        0
370
     9
100
AcDbSpline
210
0.0
220
0.0
230
1.0
 70
    24
 71
     3
 72
     8
 73
     4
 74
     0
 42
0.0000000001
 43
0.0000000001
 40
0.0
 40
0.0
 40
0.0
 40
0.0
 40
1.0
 40
1.0
 40
1.0
 40
1.0
 10
145.2803724872258
 20
-174.197014893008
 30
0.0
 10
145.2803724872258
 20
-174.197014893008
 30
0.0
 10
145.2803724872258
 20
-174.1451183495371
 30
0.0
 10
145.2803724872258
 20
-174.1451183495371
 30
0.0
  0
SPLINE
  5
115
330
79
100
AcDbEntity
  8
Capa 1
 62
    18
420
        0
370
     9
100
AcDbSpline
210
0.0
220
0.0
230
1.0
 70
    24
 71
     3
 72
     8
 73
     4
 74
     0
 42
0.0000000001
 43
0.0000000001
 40
0.0
 40
0.0
 40
0.0
 40
0.0
 40
1.0
 40
1.0
 40
1.0
 40
1.0
 10
145.2803724872258
 20
-174.1310626060614
 30
0.0
 10
145.2803724872258
 20
-174.1310626060614
 30
0.0
 10
145.2803724872258
 20
-174.0932218060662
 30
0.0
 10
145.2803724872258
 20
-174.0932218060662
 30
0.0
  0
SPLINE
  5
116
330
79
100
AcDbEntity
  8
Capa 1
 62
    18
420
        0
370
     9
100
AcDbSpline
210
0.0
220
0.0
230
1.0
 70
     8
 71
     3
 72
     8
 73
     4
 74
     0
 42
0.0000000001
 43
0.0000000001
 40
0.0
 40
0.0
 40
0.0
 40
0.0
 40
1.0
 40
1.0
 40
1.0
 40
1.0
 10
145.2803724872258
 20
-176.2079925484114
 30
0.0
 10
145.2803724872258
 20
-176.2133954310262
 30
0.0
 10
145.2814530637492
 20
-176.2198830145027
 30
0.0
 10
145.2825336402719
 20
-176.2263705979785
 30
0.0
  0
SPLINE
  5
117
330
79
100
AcDbEntity
  8
Capa 1
 62
    18
420
        0
370
     9
100
AcDbSpline
210
0.0
220
0.0
230
1.0
 70
     8
 71
     3
 72
     8
 73
     4
 74
     0
 42
0.0000000001
 43
0.0000000001
 40
0.0
 40
0.0
 40
0.0
 40
0.0
 40
1.0
 40
1.0
 40
1.0
 40
1.0
 10
145.3322731550344
 20
-176.2912423084018
 30
0.0
 10
145.344159496788
 20
-176.2966451910172
 30
0.0
 10
145.3582152402637
 20
-176.2998910449243
 30
0.0
 10
145.3722709837387
 20
-176.2998910449243
 30
0.0
  0
SPLINE
  5
118
330
79
100
AcDbEntity
  8
Capa 1
 62
    18
420
        0
370
     9
100
AcDbSpline
210
0.0
220
0.0
230
1.0
 70
     8
 71
     3
 72
     8
 73
     4
 74
     0
 42
0.0000000001
 43
0.0000000001
 40
0.0
 40
0.0
 40
0.0
 40
0.0
 40
1.0
 40
1.0
 40
1.0
 40
1.0
 10
145.2987505367929
 20
-174.0380835330259
 30
0.0
 10
145.2944282307008
 20
-174.044566992164
 30
0.0
 10
145.2911865011321
 20
-174.0499739991171
 30
0.0
 10
145.2879447715627
 20
-174.0564615825929
 30
0.0
  0
SPLINE
  5
119
330
79
100
AcDbEntity
  8
Capa 1
 62
    18
420
        0
370
     9
100
AcDbSpline
210
0.0
220
0.0
230
1.0
 70
     8
 71
     3
 72
     8
 73
     4
 74
     0
 42
0.0000000001
 43
0.0000000001
 40
0.0
 40
0.0
 40
0.0
 40
0.0
 40
1.0
 40
1.0
 40
1.0
 40
1.0
 10
145.2814530637492
 20
-174.0824119164976
 30
0.0
 10
145.2803724872258
 20
-174.0867342225897
 30
0.0
 10
145.2803724872258
 20
-174.0899800764968
 30
0.0
 10
145.2803724872258
 20
-174.0932218060662
 30
0.0
  0
SPLINE
  5
11A
330
79
100
AcDbEntity
  8
Capa 1
 62
    18
420
        0
370
     9
100
AcDbSpline
210
0.0
220
0.0
230
1.0
 70
    24
 71
     3
 72
     8
 73
     4
 74
     0
 42
0.0000000001
 43
0.0000000001
 40
0.0
 40
0.0
 40
0.0
 40
0.0
 40
1.0
 40
1.0
 40
1.0
 40
1.0
 10
147.5789402225968
 20
-173.0725966583661
 30
0.0
 10
147.5789402225968
 20
-173.0725966583661
 30
0.0
 10
147.5789402225968
 20
-174.911667786835
 30
0.0
 10
147.5789402225968
 20
-174.911667786835
 30
0.0
  0
SPLINE
  5
11B
330
79
100
AcDbEntity
  8
Capa 1
 62
    18
420
        0
370
     9
100
AcDbSpline
210
0.0
220
0.0
230
1.0
 70
    24
 71
     3
 72
     8
 73
     4
 74
     0
 42
0.0000000001
 43
0.0000000001
 40
0.0
 40
0.0
 40
0.0
 40
0.0
 40
1.0
 40
1.0
 40
1.0
 40
1.0
 10
145.2803724872258
 20
-174.4521711799329
 30
0.0
 10
145.2803724872258
 20
-174.4521711799329
 30
0.0
 10
145.2803724872258
 20
-174.4737950834071
 30
0.0
 10
145.2803724872258
 20
-174.4737950834071
 30
0.0
  0
SPLINE
  5
11C
330
79
100
AcDbEntity
  8
Capa 1
 62
    18
420
        0
370
     9
100
AcDbSpline
210
0.0
220
0.0
230
1.0
 70
     8
 71
     3
 72
     8
 73
     4
 74
     0
 42
0.0000000001
 43
0.0000000001
 40
0.0
 40
0.0
 40
0.0
 40
0.0
 40
1.0
 40
1.0
 40
1.0
 40
1.0
 10
145.2803724872258
 20
-173.9926745730308
 30
0.0
 10
145.2825336402719
 20
-173.9926745730308
 30
0.0
 10
145.2846947933179
 20
-173.9915898721697
 30
0.0
 10
145.2857753698413
 20
-173.990509295647
 30
0.0
  0
SPLINE
  5
11D
330
79
100
AcDbEntity
  8
Capa 1
 62
    18
420
        0
370
     9
100
AcDbSpline
210
0.0
220
0.0
230
1.0
 70
    24
 71
     3
 72
     8
 73
     4
 74
     0
 42
0.0000000001
 43
0.0000000001
 40
0.0
 40
0.0
 40
0.0
 40
0.0
 40
1.0
 40
1.0
 40
1.0
 40
1.0
 10
145.2803724872258
 20
-174.0002427330299
 30
0.0
 10
145.2803724872258
 20
-174.0002427330299
 30
0.0
 10
145.2803724872258
 20
-173.9915898721697
 30
0.0
 10
145.2803724872258
 20
-173.9915898721697
 30
0.0
  0
SPLINE
  5
11E
330
79
100
AcDbEntity
  8
Capa 1
 62
    18
420
        0
370
     9
100
AcDbSpline
210
0.0
220
0.0
230
1.0
 70
    24
 71
     3
 72
     8
 73
     4
 74
     0
 42
0.0000000001
 43
0.0000000001
 40
0.0
 40
0.0
 40
0.0
 40
0.0
 40
1.0
 40
1.0
 40
1.0
 40
1.0
 10
145.2901059246087
 20
-173.0725966583661
 30
0.0
 10
145.2901059246087
 20
-173.0725966583661
 30
0.0
 10
145.9701597480092
 20
-173.0725966583661
 30
0.0
 10
145.9701597480092
 20
-173.0725966583661
 30
0.0
  0
SPLINE
  5
11F
330
79
100
AcDbEntity
  8
Capa 1
 62
    18
420
        0
370
     9
100
AcDbSpline
210
0.0
220
0.0
230
1.0
 70
    24
 71
     3
 72
     8
 73
     4
 74
     0
 42
0.0000000001
 43
0.0000000001
 40
0.0
 40
0.0
 40
0.0
 40
0.0
 40
1.0
 40
1.0
 40
1.0
 40
1.0
 10
146.8891529618134
 20
-173.0725966583661
 30
0.0
 10
146.8891529618134
 20
-173.0725966583661
 30
0.0
 10
147.5789402225968
 20
-173.0725966583661
 30
0.0
 10
147.5789402225968
 20
-173.0725966583661
 30
0.0
  0
SPLINE
  5
120
330
79
100
AcDbEntity
  8
Capa 1
 62
    18
420
        0
370
     9
100
AcDbSpline
210
0.0
220
0.0
230
1.0
 70
    24
 71
     3
 72
     8
 73
     4
 74
     0
 42
0.0000000001
 43
0.0000000001
 40
0.0
 40
0.0
 40
0.0
 40
0.0
 40
1.0
 40
1.0
 40
1.0
 40
1.0
 10
145.2803724872258
 20
-173.0823259714114
 30
0.0
 10
145.2803724872258
 20
-173.0823259714114
 30
0.0
 10
145.2803724872258
 20
-173.0942205618403
 30
0.0
 10
145.2803724872258
 20
-173.0942205618403
 30
0.0
  0
SPLINE
  5
121
330
79
100
AcDbEntity
  8
Capa 1
 62
    18
420
        0
370
     9
100
AcDbSpline
210
0.0
220
0.0
230
1.0
 70
     8
 71
     3
 72
     8
 73
     4
 74
     0
 42
0.0000000001
 43
0.0000000001
 40
0.0
 40
0.0
 40
0.0
 40
0.0
 40
1.0
 40
1.0
 40
1.0
 40
1.0
 10
145.2901059246087
 20
-173.0725966583661
 30
0.0
 10
145.2846947933179
 20
-173.0725966583661
 30
0.0
 10
145.2803724872258
 20
-173.0769230887959
 30
0.0
 10
145.2803724872258
 20
-173.0823259714114
 30
0.0
  0
SPLINE
  5
122
330
79
100
AcDbEntity
  8
Capa 1
 62
    18
420
        0
370
     9
100
AcDbSpline
210
0.0
220
0.0
230
1.0
 70
     8
 71
     3
 72
    11
 73
     7
 74
     0
 42
0.0000000001
 43
0.0000000001
 40
0.0
 40
0.0
 40
0.0
 40
0.0
 40
1.0
 40
1.0
 40
1.0
 40
2.0
 40
2.0
 40
2.0
 40
2.0
 10
145.2868559463639
 20
-173.1374683687894
 30
0.0
 10
145.2965893837469
 20
-173.1342225148823
 30
0.0
 10
145.3009116898396
 20
-173.1234126253137
 30
0.0
 10
145.2976699602702
 20
-173.1136791879308
 30
0.0
 10
145.2955088072242
 20
-173.1093568818387
 30
0.0
 10
145.2922670776548
 20
-173.1039498748855
 30
0.0
 10
145.2868559463639
 20
-173.1028692983628
 30
0.0
  0
SPLINE
  5
123
330
79
100
AcDbEntity
  8
Capa 1
 62
    18
420
        0
370
     9
100
AcDbSpline
210
0.0
220
0.0
230
1.0
 70
     8
 71
     3
 72
     8
 73
     4
 74
     0
 42
0.0000000001
 43
0.0000000001
 40
0.0
 40
0.0
 40
0.0
 40
0.0
 40
1.0
 40
1.0
 40
1.0
 40
1.0
 10
145.2803724872258
 20
-173.0942205618403
 30
0.0
 10
145.2803724872258
 20
-173.0985428679324
 30
0.0
 10
145.2825336402719
 20
-173.1017887218395
 30
0.0
 10
145.2857753698413
 20
-173.1028692983628
 30
0.0
  0
SPLINE
  5
124
330
79
100
AcDbEntity
  8
Capa 1
 62
    18
420
        0
370
     9
100
AcDbSpline
210
0.0
220
0.0
230
1.0
 70
    24
 71
     3
 72
     8
 73
     4
 74
     0
 42
0.0000000001
 43
0.0000000001
 40
0.0
 40
0.0
 40
0.0
 40
0.0
 40
1.0
 40
1.0
 40
1.0
 40
1.0
 10
145.2803724872258
 20
-173.1461171053112
 30
0.0
 10
145.2803724872258
 20
-173.1461171053112
 30
0.0
 10
145.2803724872258
 20
-173.1601728487869
 30
0.0
 10
145.2803724872258
 20
-173.1601728487869
 30
0.0
  0
SPLINE
  5
125
330
79
100
AcDbEntity
  8
Capa 1
 62
    18
420
        0
370
     9
100
AcDbSpline
210
0.0
220
0.0
230
1.0
 70
     8
 71
     3
 72
     8
 73
     4
 74
     0
 42
0.0000000001
 43
0.0000000001
 40
0.0
 40
0.0
 40
0.0
 40
0.0
 40
1.0
 40
1.0
 40
1.0
 40
1.0
 10
145.2868559463639
 20
-173.1374683687894
 30
0.0
 10
145.2825336402719
 20
-173.1385489453121
 30
0.0
 10
145.2803724872258
 20
-173.1417906748815
 30
0.0
 10
145.2803724872258
 20
-173.1461171053112
 30
0.0
  0
SPLINE
  5
126
330
79
100
AcDbEntity
  8
Capa 1
 62
    18
420
        0
370
     9
100
AcDbSpline
210
0.0
220
0.0
230
1.0
 70
     8
 71
     3
 72
    11
 73
     7
 74
     0
 42
0.0000000001
 43
0.0000000001
 40
0.0
 40
0.0
 40
0.0
 40
0.0
 40
1.0
 40
1.0
 40
1.0
 40
2.0
 40
2.0
 40
2.0
 40
2.0
 10
145.2868559463639
 20
-173.2034165313976
 30
0.0
 10
145.2965893837469
 20
-173.2001748018282
 30
0.0
 10
145.3009116898396
 20
-173.1893649122603
 30
0.0
 10
145.2976699602702
 20
-173.1796314748774
 30
0.0
 10
145.2955088072242
 20
-173.1742285922619
 30
0.0
 10
145.2922670776548
 20
-173.1699021618321
 30
0.0
 10
145.2868559463639
 20
-173.1688215853088
 30
0.0
  0
SPLINE
  5
127
330
79
100
AcDbEntity
  8
Capa 1
 62
    18
420
        0
370
     9
100
AcDbSpline
210
0.0
220
0.0
230
1.0
 70
     8
 71
     3
 72
     8
 73
     4
 74
     0
 42
0.0000000001
 43
0.0000000001
 40
0.0
 40
0.0
 40
0.0
 40
0.0
 40
1.0
 40
1.0
 40
1.0
 40
1.0
 10
145.2803724872258
 20
-173.1601728487869
 30
0.0
 10
145.2803724872258
 20
-173.1634145783557
 30
0.0
 10
145.2825336402719
 20
-173.1666604322628
 30
0.0
 10
145.2857753698413
 20
-173.1677410087854
 30
0.0
  0
SPLINE
  5
128
330
79
100
AcDbEntity
  8
Capa 1
 62
    18
420
        0
370
     9
100
AcDbSpline
210
0.0
220
0.0
230
1.0
 70
    24
 71
     3
 72
     8
 73
     4
 74
     0
 42
0.0000000001
 43
0.0000000001
 40
0.0
 40
0.0
 40
0.0
 40
0.0
 40
1.0
 40
1.0
 40
1.0
 40
1.0
 10
145.2803724872258
 20
-173.2120693922578
 30
0.0
 10
145.2803724872258
 20
-173.2120693922578
 30
0.0
 10
145.2803724872258
 20
-173.2250404348718
 30
0.0
 10
145.2803724872258
 20
-173.2250404348718
 30
0.0
  0
SPLINE
  5
129
330
79
100
AcDbEntity
  8
Capa 1
 62
    18
420
        0
370
     9
100
AcDbSpline
210
0.0
220
0.0
230
1.0
 70
     8
 71
     3
 72
     8
 73
     4
 74
     0
 42
0.0000000001
 43
0.0000000001
 40
0.0
 40
0.0
 40
0.0
 40
0.0
 40
1.0
 40
1.0
 40
1.0
 40
1.0
 10
145.2868559463639
 20
-173.2034165313976
 30
0.0
 10
145.2825336402719
 20
-173.2045012322586
 30
0.0
 10
145.2803724872258
 20
-173.2077429618274
 30
0.0
 10
145.2803724872258
 20
-173.2109846913968
 30
0.0
  0
SPLINE
  5
12A
330
79
100
AcDbEntity
  8
Capa 1
 62
    18
420
        0
370
     9
100
AcDbSpline
210
0.0
220
0.0
230
1.0
 70
     8
 71
     3
 72
    11
 73
     7
 74
     0
 42
0.0000000001
 43
0.0000000001
 40
0.0
 40
0.0
 40
0.0
 40
0.0
 40
1.0
 40
1.0
 40
1.0
 40
2.0
 40
2.0
 40
2.0
 40
2.0
 10
145.2868559463639
 20
-173.2682882418209
 30
0.0
 10
145.2965893837469
 20
-173.2650465122515
 30
0.0
 10
145.3009116898396
 20
-173.2553130748685
 30
0.0
 10
145.2976699602702
 20
-173.2455837618233
 30
0.0
 10
145.2955088072242
 20
-173.2401767548702
 30
0.0
 10
145.2922670776548
 20
-173.2358544487781
 30
0.0
 10
145.2868559463639
 20
-173.2347738722547
 30
0.0
  0
SPLINE
  5
12B
330
79
100
AcDbEntity
  8
Capa 1
 62
    18
420
        0
370
     9
100
AcDbSpline
210
0.0
220
0.0
230
1.0
 70
     8
 71
     3
 72
     8
 73
     4
 74
     0
 42
0.0000000001
 43
0.0000000001
 40
0.0
 40
0.0
 40
0.0
 40
0.0
 40
1.0
 40
1.0
 40
1.0
 40
1.0
 10
145.2803724872258
 20
-173.2250404348718
 30
0.0
 10
145.2803724872258
 20
-173.2293668653023
 30
0.0
 10
145.2825336402719
 20
-173.232608594871
 30
0.0
 10
145.2857753698413
 20
-173.2336891713943
 30
0.0
  0
SPLINE
  5
12C
330
79
100
AcDbEntity
  8
Capa 1
 62
    18
420
        0
370
     9
100
AcDbSpline
210
0.0
220
0.0
230
1.0
 70
    24
 71
     3
 72
     8
 73
     4
 74
     0
 42
0.0000000001
 43
0.0000000001
 40
0.0
 40
0.0
 40
0.0
 40
0.0
 40
1.0
 40
1.0
 40
1.0
 40
1.0
 10
145.2803724872258
 20
-173.2780175548661
 30
0.0
 10
145.2803724872258
 20
-173.2780175548661
 30
0.0
 10
145.2803724872258
 20
-173.2909927218184
 30
0.0
 10
145.2803724872258
 20
-173.2909927218184
 30
0.0
  0
SPLINE
  5
12D
330
79
100
AcDbEntity
  8
Capa 1
 62
    18
420
        0
370
     9
100
AcDbSpline
210
0.0
220
0.0
230
1.0
 70
     8
 71
     3
 72
     8
 73
     4
 74
     0
 42
0.0000000001
 43
0.0000000001
 40
0.0
 40
0.0
 40
0.0
 40
0.0
 40
1.0
 40
1.0
 40
1.0
 40
1.0
 10
145.2868559463639
 20
-173.2682882418209
 30
0.0
 10
145.2825336402719
 20
-173.2704493948669
 30
0.0
 10
145.2803724872258
 20
-173.273695248774
 30
0.0
 10
145.2803724872258
 20
-173.2769369783428
 30
0.0
  0
SPLINE
  5
12E
330
79
100
AcDbEntity
  8
Capa 1
 62
    18
420
        0
370
     9
100
AcDbSpline
210
0.0
220
0.0
230
1.0
 70
     8
 71
     3
 72
    11
 73
     7
 74
     0
 42
0.0000000001
 43
0.0000000001
 40
0.0
 40
0.0
 40
0.0
 40
0.0
 40
1.0
 40
1.0
 40
1.0
 40
2.0
 40
2.0
 40
2.0
 40
2.0
 10
145.2868559463639
 20
-173.3342405287668
 30
0.0
 10
145.2965893837469
 20
-173.3309946748597
 30
0.0
 10
145.3009116898396
 20
-173.3212653618145
 30
0.0
 10
145.2976699602702
 20
-173.3115360487692
 30
0.0
 10
145.2955088072242
 20
-173.3061290418168
 30
0.0
 10
145.2922670776548
 20
-173.301806735724
 30
0.0
 10
145.2868559463639
 20
-173.2996414583403
 30
0.0
  0
SPLINE
  5
12F
330
79
100
AcDbEntity
  8
Capa 1
 62
    18
420
        0
370
     9
100
AcDbSpline
210
0.0
220
0.0
230
1.0
 70
     8
 71
     3
 72
     8
 73
     4
 74
     0
 42
0.0000000001
 43
0.0000000001
 40
0.0
 40
0.0
 40
0.0
 40
0.0
 40
1.0
 40
1.0
 40
1.0
 40
1.0
 10
145.2803724872258
 20
-173.2909927218184
 30
0.0
 10
145.2803724872258
 20
-173.2953191522482
 30
0.0
 10
145.2825336402719
 20
-173.2985608818176
 30
0.0
 10
145.2857753698413
 20
-173.2996414583403
 30
0.0
  0
SPLINE
  5
130
330
79
100
AcDbEntity
  8
Capa 1
 62
    18
420
        0
370
     9
100
AcDbSpline
210
0.0
220
0.0
230
1.0
 70
    24
 71
     3
 72
     8
 73
     4
 74
     0
 42
0.0000000001
 43
0.0000000001
 40
0.0
 40
0.0
 40
0.0
 40
0.0
 40
1.0
 40
1.0
 40
1.0
 40
1.0
 10
145.2803724872258
 20
-173.3428892652893
 30
0.0
 10
145.2803724872258
 20
-173.3428892652893
 30
0.0
 10
145.2803724872258
 20
-173.3569450087643
 30
0.0
 10
145.2803724872258
 20
-173.3569450087643
 30
0.0
  0
SPLINE
  5
131
330
79
100
AcDbEntity
  8
Capa 1
 62
    18
420
        0
370
     9
100
AcDbSpline
210
0.0
220
0.0
230
1.0
 70
     8
 71
     3
 72
     8
 73
     4
 74
     0
 42
0.0000000001
 43
0.0000000001
 40
0.0
 40
0.0
 40
0.0
 40
0.0
 40
1.0
 40
1.0
 40
1.0
 40
1.0
 10
145.2868559463639
 20
-173.3342405287668
 30
0.0
 10
145.2825336402719
 20
-173.3353211052901
 30
0.0
 10
145.2803724872258
 20
-173.3385628348589
 30
0.0
 10
145.2803724872258
 20
-173.3428892652893
 30
0.0
  0
SPLINE
  5
132
330
79
100
AcDbEntity
  8
Capa 1
 62
    18
420
        0
370
     9
100
AcDbSpline
210
0.0
220
0.0
230
1.0
 70
     8
 71
     3
 72
    11
 73
     7
 74
     0
 42
0.0000000001
 43
0.0000000001
 40
0.0
 40
0.0
 40
0.0
 40
0.0
 40
1.0
 40
1.0
 40
1.0
 40
2.0
 40
2.0
 40
2.0
 40
2.0
 10
145.2868559463639
 20
-173.4001928157134
 30
0.0
 10
145.2965893837469
 20
-173.3969469618063
 30
0.0
 10
145.3009116898396
 20
-173.3861370722384
 30
0.0
 10
145.2976699602702
 20
-173.3764036348548
 30
0.0
 10
145.2955088072242
 20
-173.3720813287627
 30
0.0
 10
145.2922670776548
 20
-173.3666743218096
 30
0.0
 10
145.2868559463639
 20
-173.3655937452869
 30
0.0
  0
SPLINE
  5
133
330
79
100
AcDbEntity
  8
Capa 1
 62
    18
420
        0
370
     9
100
AcDbSpline
210
0.0
220
0.0
230
1.0
 70
     8
 71
     3
 72
     8
 73
     4
 74
     0
 42
0.0000000001
 43
0.0000000001
 40
0.0
 40
0.0
 40
0.0
 40
0.0
 40
1.0
 40
1.0
 40
1.0
 40
1.0
 10
145.2803724872258
 20
-173.3569450087643
 30
0.0
 10
145.2803724872258
 20
-173.3601867383337
 30
0.0
 10
145.2825336402719
 20
-173.3645131687635
 30
0.0
 10
145.2857753698413
 20
-173.3655937452869
 30
0.0
  0
SPLINE
  5
134
330
79
100
AcDbEntity
  8
Capa 1
 62
    18
420
        0
370
     9
100
AcDbSpline
210
0.0
220
0.0
230
1.0
 70
    24
 71
     3
 72
     8
 73
     4
 74
     0
 42
0.0000000001
 43
0.0000000001
 40
0.0
 40
0.0
 40
0.0
 40
0.0
 40
1.0
 40
1.0
 40
1.0
 40
1.0
 10
145.2803724872258
 20
-173.4088415522353
 30
0.0
 10
145.2803724872258
 20
-173.4088415522353
 30
0.0
 10
145.2803724872258
 20
-173.4228972957109
 30
0.0
 10
145.2803724872258
 20
-173.4228972957109
 30
0.0
  0
SPLINE
  5
135
330
79
100
AcDbEntity
  8
Capa 1
 62
    18
420
        0
370
     9
100
AcDbSpline
210
0.0
220
0.0
230
1.0
 70
     8
 71
     3
 72
     8
 73
     4
 74
     0
 42
0.0000000001
 43
0.0000000001
 40
0.0
 40
0.0
 40
0.0
 40
0.0
 40
1.0
 40
1.0
 40
1.0
 40
1.0
 10
145.2868559463639
 20
-173.4001928157134
 30
0.0
 10
145.2825336402719
 20
-173.4012733922361
 30
0.0
 10
145.2803724872258
 20
-173.4045151218055
 30
0.0
 10
145.2803724872258
 20
-173.4088415522353
 30
0.0
  0
SPLINE
  5
136
330
79
100
AcDbEntity
  8
Capa 1
 62
    18
420
        0
370
     9
100
AcDbSpline
210
0.0
220
0.0
230
1.0
 70
     8
 71
     3
 72
    11
 73
     7
 74
     0
 42
0.0000000001
 43
0.0000000001
 40
0.0
 40
0.0
 40
0.0
 40
0.0
 40
1.0
 40
1.0
 40
1.0
 40
2.0
 40
2.0
 40
2.0
 40
2.0
 10
145.2868559463639
 20
-173.4661409783216
 30
0.0
 10
145.2965893837469
 20
-173.4628992487529
 30
0.0
 10
145.3009116898396
 20
-173.4520893591843
 30
0.0
 10
145.2976699602702
 20
-173.4423559218014
 30
0.0
 10
145.2955088072242
 20
-173.436953039186
 30
0.0
 10
145.2922670776548
 20
-173.4326266087562
 30
0.0
 10
145.2868559463639
 20
-173.4315460322328
 30
0.0
  0
SPLINE
  5
137
330
79
100
AcDbEntity
  8
Capa 1
 62
    18
420
        0
370
     9
100
AcDbSpline
210
0.0
220
0.0
230
1.0
 70
     8
 71
     3
 72
     8
 73
     4
 74
     0
 42
0.0000000001
 43
0.0000000001
 40
0.0
 40
0.0
 40
0.0
 40
0.0
 40
1.0
 40
1.0
 40
1.0
 40
1.0
 10
145.2803724872258
 20
-173.4228972957109
 30
0.0
 10
145.2803724872258
 20
-173.4261390252797
 30
0.0
 10
145.2825336402719
 20
-173.4293848791868
 30
0.0
 10
145.2857753698413
 20
-173.4304654557101
 30
0.0
  0
SPLINE
  5
138
330
79
100
AcDbEntity
  8
Capa 1
 62
    18
420
        0
370
     9
100
AcDbSpline
210
0.0
220
0.0
230
1.0
 70
    24
 71
     3
 72
     8
 73
     4
 74
     0
 42
0.0000000001
 43
0.0000000001
 40
0.0
 40
0.0
 40
0.0
 40
0.0
 40
1.0
 40
1.0
 40
1.0
 40
1.0
 10
145.2803724872258
 20
-173.4747938391819
 30
0.0
 10
145.2803724872258
 20
-173.4747938391819
 30
0.0
 10
145.2803724872258
 20
-173.4877648817958
 30
0.0
 10
145.2803724872258
 20
-173.4877648817958
 30
0.0
  0
SPLINE
  5
139
330
79
100
AcDbEntity
  8
Capa 1
 62
    18
420
        0
370
     9
100
AcDbSpline
210
0.0
220
0.0
230
1.0
 70
     8
 71
     3
 72
     8
 73
     4
 74
     0
 42
0.0000000001
 43
0.0000000001
 40
0.0
 40
0.0
 40
0.0
 40
0.0
 40
1.0
 40
1.0
 40
1.0
 40
1.0
 10
145.2868559463639
 20
-173.4661409783216
 30
0.0
 10
145.2825336402719
 20
-173.4672256791827
 30
0.0
 10
145.2803724872258
 20
-173.4704674087514
 30
0.0
 10
145.2803724872258
 20
-173.4747938391819
 30
0.0
  0
SPLINE
  5
13A
330
79
100
AcDbEntity
  8
Capa 1
 62
    18
420
        0
370
     9
100
AcDbSpline
210
0.0
220
0.0
230
1.0
 70
     8
 71
     3
 72
    11
 73
     7
 74
     0
 42
0.0000000001
 43
0.0000000001
 40
0.0
 40
0.0
 40
0.0
 40
0.0
 40
1.0
 40
1.0
 40
1.0
 40
2.0
 40
2.0
 40
2.0
 40
2.0
 10
145.2868559463639
 20
-173.5310126887449
 30
0.0
 10
145.2965893837469
 20
-173.5277709591755
 30
0.0
 10
145.3009116898396
 20
-173.5180375217926
 30
0.0
 10
145.2976699602702
 20
-173.5083082087473
 30
0.0
 10
145.2955088072242
 20
-173.5029012017942
 30
0.0
 10
145.2922670776548
 20
-173.4985788957021
 30
0.0
 10
145.2868559463639
 20
-173.4974983191794
 30
0.0
  0
SPLINE
  5
13B
330
79
100
AcDbEntity
  8
Capa 1
 62
    18
420
        0
370
     9
100
AcDbSpline
210
0.0
220
0.0
230
1.0
 70
     8
 71
     3
 72
     8
 73
     4
 74
     0
 42
0.0000000001
 43
0.0000000001
 40
0.0
 40
0.0
 40
0.0
 40
0.0
 40
1.0
 40
1.0
 40
1.0
 40
1.0
 10
145.2803724872258
 20
-173.4877648817958
 30
0.0
 10
145.2803724872258
 20
-173.4920913122263
 30
0.0
 10
145.2825336402719
 20
-173.495333041795
 30
0.0
 10
145.2857753698413
 20
-173.4964136183184
 30
0.0
  0
SPLINE
  5
13C
330
79
100
AcDbEntity
  8
Capa 1
 62
    18
420
        0
370
     9
100
AcDbSpline
210
0.0
220
0.0
230
1.0
 70
    24
 71
     3
 72
     8
 73
     4
 74
     0
 42
0.0000000001
 43
0.0000000001
 40
0.0
 40
0.0
 40
0.0
 40
0.0
 40
1.0
 40
1.0
 40
1.0
 40
1.0
 10
145.2803724872258
 20
-173.5396614252674
 30
0.0
 10
145.2803724872258
 20
-173.5396614252674
 30
0.0
 10
145.2803724872258
 20
-173.5537171687424
 30
0.0
 10
145.2803724872258
 20
-173.5537171687424
 30
0.0
  0
SPLINE
  5
13D
330
79
100
AcDbEntity
  8
Capa 1
 62
    18
420
        0
370
     9
100
AcDbSpline
210
0.0
220
0.0
230
1.0
 70
     8
 71
     3
 72
     8
 73
     4
 74
     0
 42
0.0000000001
 43
0.0000000001
 40
0.0
 40
0.0
 40
0.0
 40
0.0
 40
1.0
 40
1.0
 40
1.0
 40
1.0
 10
145.2868559463639
 20
-173.5310126887449
 30
0.0
 10
145.2825336402719
 20
-173.5331738417909
 30
0.0
 10
145.2803724872258
 20
-173.536419695698
 30
0.0
 10
145.2803724872258
 20
-173.5396614252674
 30
0.0
  0
SPLINE
  5
13E
330
79
100
AcDbEntity
  8
Capa 1
 62
    18
420
        0
370
     9
100
AcDbSpline
210
0.0
220
0.0
230
1.0
 70
     8
 71
     3
 72
    11
 73
     7
 74
     0
 42
0.0000000001
 43
0.0000000001
 40
0.0
 40
0.0
 40
0.0
 40
0.0
 40
1.0
 40
1.0
 40
1.0
 40
2.0
 40
2.0
 40
2.0
 40
2.0
 10
145.2868559463639
 20
-173.5969649756915
 30
0.0
 10
145.2965893837469
 20
-173.5937191217844
 30
0.0
 10
145.3009116898396
 20
-173.5839898087391
 30
0.0
 10
145.2976699602702
 20
-173.5742604956939
 30
0.0
 10
145.2955088072242
 20
-173.5688534887408
 30
0.0
 10
145.2922670776548
 20
-173.5645311826487
 30
0.0
 10
145.2868559463639
 20
-173.5623659052643
 30
0.0
  0
SPLINE
  5
13F
330
79
100
AcDbEntity
  8
Capa 1
 62
    18
420
        0
370
     9
100
AcDbSpline
210
0.0
220
0.0
230
1.0
 70
     8
 71
     3
 72
     8
 73
     4
 74
     0
 42
0.0000000001
 43
0.0000000001
 40
0.0
 40
0.0
 40
0.0
 40
0.0
 40
1.0
 40
1.0
 40
1.0
 40
1.0
 10
145.2803724872258
 20
-173.5537171687424
 30
0.0
 10
145.2803724872258
 20
-173.5580435991722
 30
0.0
 10
145.2825336402719
 20
-173.5612853287416
 30
0.0
 10
145.2857753698413
 20
-173.5623659052643
 30
0.0
  0
SPLINE
  5
140
330
79
100
AcDbEntity
  8
Capa 1
 62
    18
420
        0
370
     9
100
AcDbSpline
210
0.0
220
0.0
230
1.0
 70
    24
 71
     3
 72
     8
 73
     4
 74
     0
 42
0.0000000001
 43
0.0000000001
 40
0.0
 40
0.0
 40
0.0
 40
0.0
 40
1.0
 40
1.0
 40
1.0
 40
1.0
 10
145.2803724872258
 20
-173.6056137122134
 30
0.0
 10
145.2803724872258
 20
-173.6056137122134
 30
0.0
 10
145.2803724872258
 20
-173.6196694556884
 30
0.0
 10
145.2803724872258
 20
-173.6196694556884
 30
0.0
  0
SPLINE
  5
141
330
79
100
AcDbEntity
  8
Capa 1
 62
    18
420
        0
370
     9
100
AcDbSpline
210
0.0
220
0.0
230
1.0
 70
     8
 71
     3
 72
     8
 73
     4
 74
     0
 42
0.0000000001
 43
0.0000000001
 40
0.0
 40
0.0
 40
0.0
 40
0.0
 40
1.0
 40
1.0
 40
1.0
 40
1.0
 10
145.2868559463639
 20
-173.5969649756915
 30
0.0
 10
145.2825336402719
 20
-173.5980455522142
 30
0.0
 10
145.2803724872258
 20
-173.6012872817836
 30
0.0
 10
145.2803724872258
 20
-173.6056137122134
 30
0.0
  0
SPLINE
  5
142
330
79
100
AcDbEntity
  8
Capa 1
 62
    18
420
        0
370
     9
100
AcDbSpline
210
0.0
220
0.0
230
1.0
 70
     8
 71
     3
 72
    11
 73
     7
 74
     0
 42
0.0000000001
 43
0.0000000001
 40
0.0
 40
0.0
 40
0.0
 40
0.0
 40
1.0
 40
1.0
 40
1.0
 40
2.0
 40
2.0
 40
2.0
 40
2.0
 10
145.2868559463639
 20
-173.6629172626374
 30
0.0
 10
145.2965893837469
 20
-173.6596714087303
 30
0.0
 10
145.3009116898396
 20
-173.6488615191624
 30
0.0
 10
145.2976699602702
 20
-173.6391280817788
 30
0.0
 10
145.2955088072242
 20
-173.6348057756868
 30
0.0
 10
145.2922670776548
 20
-173.6293987687336
 30
0.0
 10
145.2868559463639
 20
-173.6283181922109
 30
0.0
  0
SPLINE
  5
143
330
79
100
AcDbEntity
  8
Capa 1
 62
    18
420
        0
370
     9
100
AcDbSpline
210
0.0
220
0.0
230
1.0
 70
     8
 71
     3
 72
     8
 73
     4
 74
     0
 42
0.0000000001
 43
0.0000000001
 40
0.0
 40
0.0
 40
0.0
 40
0.0
 40
1.0
 40
1.0
 40
1.0
 40
1.0
 10
145.2803724872258
 20
-173.6196694556884
 30
0.0
 10
145.2803724872258
 20
-173.6229111852578
 30
0.0
 10
145.2825336402719
 20
-173.6261570391649
 30
0.0
 10
145.2857753698413
 20
-173.6283181922109
 30
0.0
  0
SPLINE
  5
144
330
79
100
AcDbEntity
  8
Capa 1
 62
    18
420
        0
370
     9
100
AcDbSpline
210
0.0
220
0.0
230
1.0
 70
    24
 71
     3
 72
     8
 73
     4
 74
     0
 42
0.0000000001
 43
0.0000000001
 40
0.0
 40
0.0
 40
0.0
 40
0.0
 40
1.0
 40
1.0
 40
1.0
 40
1.0
 10
145.2803807359019
 20
-173.6714556731217
 30
0.0
 10
145.2803807359019
 20
-173.6714556731217
 30
0.0
 10
145.2803807359019
 20
-173.6855114165967
 30
0.0
 10
145.2803807359019
 20
-173.6855114165967
 30
0.0
  0
SPLINE
  5
145
330
79
100
AcDbEntity
  8
Capa 1
 62
    18
420
        0
370
     9
100
AcDbSpline
210
0.0
220
0.0
230
1.0
 70
     8
 71
     3
 72
     8
 73
     4
 74
     0
 42
0.0000000001
 43
0.0000000001
 40
0.0
 40
0.0
 40
0.0
 40
0.0
 40
1.0
 40
1.0
 40
1.0
 40
1.0
 10
145.28686419504
 20
-173.6628069365992
 30
0.0
 10
145.2825418889479
 20
-173.6638875131226
 30
0.0
 10
145.2803807359019
 20
-173.6671313048605
 30
0.0
 10
145.2803807359019
 20
-173.6714556731217
 30
0.0
  0
SPLINE
  5
146
330
79
100
AcDbEntity
  8
Capa 1
 62
    18
420
        0
370
     9
100
AcDbSpline
210
0.0
220
0.0
230
1.0
 70
     8
 71
     3
 72
    11
 73
     7
 74
     0
 42
0.0000000001
 43
0.0000000001
 40
0.0
 40
0.0
 40
0.0
 40
0.0
 40
1.0
 40
1.0
 40
1.0
 40
2.0
 40
2.0
 40
2.0
 40
2.0
 10
145.28686419504
 20
-173.7287581924612
 30
0.0
 10
145.2965976324229
 20
-173.7255144007233
 30
0.0
 10
145.300919938515
 20
-173.7147034800701
 30
0.0
 10
145.2976782089456
 20
-173.7049721048564
 30
0.0
 10
145.2955170559002
 20
-173.6995661289872
 30
0.0
 10
145.2911865011321
 20
-173.6952417607266
 30
0.0
 10
145.28686419504
 20
-173.6941611842032
 30
0.0
  0
SPLINE
  5
147
330
79
100
AcDbEntity
  8
Capa 1
 62
    18
420
        0
370
     9
100
AcDbSpline
210
0.0
220
0.0
230
1.0
 70
     8
 71
     3
 72
     8
 73
     4
 74
     0
 42
0.0000000001
 43
0.0000000001
 40
0.0
 40
0.0
 40
0.0
 40
0.0
 40
1.0
 40
1.0
 40
1.0
 40
1.0
 10
145.2803807359019
 20
-173.6855114165967
 30
0.0
 10
145.2803807359019
 20
-173.6887552083347
 30
0.0
 10
145.2825418889479
 20
-173.6919979689886
 30
0.0
 10
145.2857836185166
 20
-173.6941611842032
 30
0.0
  0
SPLINE
  5
148
330
79
100
AcDbEntity
  8
Capa 1
 62
    18
420
        0
370
     9
100
AcDbSpline
210
0.0
220
0.0
230
1.0
 70
    24
 71
     3
 72
     8
 73
     4
 74
     0
 42
0.0000000001
 43
0.0000000001
 40
0.0
 40
0.0
 40
0.0
 40
0.0
 40
1.0
 40
1.0
 40
1.0
 40
1.0
 10
145.2803807359019
 20
-173.7374079600677
 30
0.0
 10
145.2803807359019
 20
-173.7374079600677
 30
0.0
 10
145.2803807359019
 20
-173.7503820959354
 30
0.0
 10
145.2803807359019
 20
-173.7503820959354
 30
0.0
  0
SPLINE
  5
149
330
79
100
AcDbEntity
  8
Capa 1
 62
    18
420
        0
370
     9
100
AcDbSpline
210
0.0
220
0.0
230
1.0
 70
     8
 71
     3
 72
     8
 73
     4
 74
     0
 42
0.0000000001
 43
0.0000000001
 40
0.0
 40
0.0
 40
0.0
 40
0.0
 40
1.0
 40
1.0
 40
1.0
 40
1.0
 10
145.28686419504
 20
-173.7287581924612
 30
0.0
 10
145.2825418889479
 20
-173.7298398000685
 30
0.0
 10
145.2803807359019
 20
-173.7330825607225
 30
0.0
 10
145.2803807359019
 20
-173.7374079600677
 30
0.0
  0
SPLINE
  5
14A
330
79
100
AcDbEntity
  8
Capa 1
 62
    18
420
        0
370
     9
100
AcDbSpline
210
0.0
220
0.0
230
1.0
 70
     8
 71
     3
 72
    11
 73
     7
 74
     0
 42
0.0000000001
 43
0.0000000001
 40
0.0
 40
0.0
 40
0.0
 40
0.0
 40
1.0
 40
1.0
 40
1.0
 40
2.0
 40
2.0
 40
2.0
 40
2.0
 10
145.28686419504
 20
-173.7936288717999
 30
0.0
 10
145.2965976324229
 20
-173.7914656565846
 30
0.0
 10
145.300919938515
 20
-173.7806547359321
 30
0.0
 10
145.2976782089456
 20
-173.7709233607177
 30
0.0
 10
145.2955170559002
 20
-173.7655184159338
 30
0.0
 10
145.2911865011321
 20
-173.7611930165879
 30
0.0
 10
145.28686419504
 20
-173.7601124400652
 30
0.0
  0
SPLINE
  5
14B
330
79
100
AcDbEntity
  8
Capa 1
 62
    18
420
        0
370
     9
100
AcDbSpline
210
0.0
220
0.0
230
1.0
 70
     8
 71
     3
 72
     8
 73
     4
 74
     0
 42
0.0000000001
 43
0.0000000001
 40
0.0
 40
0.0
 40
0.0
 40
0.0
 40
1.0
 40
1.0
 40
1.0
 40
1.0
 10
145.2803807359019
 20
-173.7503820959354
 30
0.0
 10
145.2803807359019
 20
-173.7547064641967
 30
0.0
 10
145.2825418889479
 20
-173.7579502559346
 30
0.0
 10
145.2857836185166
 20
-173.7590308324579
 30
0.0
  0
SPLINE
  5
14C
330
79
100
AcDbEntity
  8
Capa 1
 62
    18
420
        0
370
     9
100
AcDbSpline
210
0.0
220
0.0
230
1.0
 70
    24
 71
     3
 72
     8
 73
     4
 74
     0
 42
0.0000000001
 43
0.0000000001
 40
0.0
 40
0.0
 40
0.0
 40
0.0
 40
1.0
 40
1.0
 40
1.0
 40
1.0
 10
145.2803807359019
 20
-173.8022776083218
 30
0.0
 10
145.2803807359019
 20
-173.8022776083218
 30
0.0
 10
145.2803807359019
 20
-173.8163333517974
 30
0.0
 10
145.2803807359019
 20
-173.8163333517974
 30
0.0
  0
SPLINE
  5
14D
330
79
100
AcDbEntity
  8
Capa 1
 62
    18
420
        0
370
     9
100
AcDbSpline
210
0.0
220
0.0
230
1.0
 70
     8
 71
     3
 72
     8
 73
     4
 74
     0
 42
0.0000000001
 43
0.0000000001
 40
0.0
 40
0.0
 40
0.0
 40
0.0
 40
1.0
 40
1.0
 40
1.0
 40
1.0
 10
145.28686419504
 20
-173.7936288717999
 30
0.0
 10
145.2825418889479
 20
-173.7957910559305
 30
0.0
 10
145.2803807359019
 20
-173.7990338165838
 30
0.0
 10
145.2803807359019
 20
-173.8022776083218
 30
0.0
  0
SPLINE
  5
14E
330
79
100
AcDbEntity
  8
Capa 1
 62
    18
420
        0
370
     9
100
AcDbSpline
210
0.0
220
0.0
230
1.0
 70
     8
 71
     3
 72
    11
 73
     7
 74
     0
 42
0.0000000001
 43
0.0000000001
 40
0.0
 40
0.0
 40
0.0
 40
0.0
 40
1.0
 40
1.0
 40
1.0
 40
2.0
 40
2.0
 40
2.0
 40
2.0
 10
145.28686419504
 20
-173.8595801276619
 30
0.0
 10
145.2965976324229
 20
-173.8563363359233
 30
0.0
 10
145.300919938515
 20
-173.8466059917942
 30
0.0
 10
145.2976782089456
 20
-173.8368756476643
 30
0.0
 10
145.2955170559002
 20
-173.8314696717958
 30
0.0
 10
145.2911865011321
 20
-173.8271442724499
 30
0.0
 10
145.28686419504
 20
-173.8260636959272
 30
0.0
  0
SPLINE
  5
14F
330
79
100
AcDbEntity
  8
Capa 1
 62
    18
420
        0
370
     9
100
AcDbSpline
210
0.0
220
0.0
230
1.0
 70
     8
 71
     3
 72
     8
 73
     4
 74
     0
 42
0.0000000001
 43
0.0000000001
 40
0.0
 40
0.0
 40
0.0
 40
0.0
 40
1.0
 40
1.0
 40
1.0
 40
1.0
 10
145.2803807359019
 20
-173.8163333517974
 30
0.0
 10
145.2803807359019
 20
-173.8206577200587
 30
0.0
 10
145.2825418889479
 20
-173.8239015117966
 30
0.0
 10
145.2857836185166
 20
-173.8249820883193
 30
0.0
  0
SPLINE
  5
150
330
79
100
AcDbEntity
  8
Capa 1
 62
    18
420
        0
370
     9
100
AcDbSpline
210
0.0
220
0.0
230
1.0
 70
    24
 71
     3
 72
     8
 73
     4
 74
     0
 42
0.0000000001
 43
0.0000000001
 40
0.0
 40
0.0
 40
0.0
 40
0.0
 40
1.0
 40
1.0
 40
1.0
 40
1.0
 10
145.2803807359019
 20
-173.8682288641838
 30
0.0
 10
145.2803807359019
 20
-173.8682288641838
 30
0.0
 10
145.2803807359019
 20
-173.8822846076594
 30
0.0
 10
145.2803807359019
 20
-173.8822846076594
 30
0.0
  0
SPLINE
  5
151
330
79
100
AcDbEntity
  8
Capa 1
 62
    18
420
        0
370
     9
100
AcDbSpline
210
0.0
220
0.0
230
1.0
 70
     8
 71
     3
 72
     8
 73
     4
 74
     0
 42
0.0000000001
 43
0.0000000001
 40
0.0
 40
0.0
 40
0.0
 40
0.0
 40
1.0
 40
1.0
 40
1.0
 40
1.0
 10
145.28686419504
 20
-173.8595801276619
 30
0.0
 10
145.2825418889479
 20
-173.8617423117925
 30
0.0
 10
145.2803807359019
 20
-173.8639044959225
 30
0.0
 10
145.2803807359019
 20
-173.8682288641838
 30
0.0
  0
SPLINE
  5
152
330
79
100
AcDbEntity
  8
Capa 1
 62
    18
420
        0
370
     9
100
AcDbSpline
210
0.0
220
0.0
230
1.0
 70
     8
 71
     3
 72
    11
 73
     7
 74
     0
 42
0.0000000001
 43
0.0000000001
 40
0.0
 40
0.0
 40
0.0
 40
0.0
 40
1.0
 40
1.0
 40
1.0
 40
2.0
 40
2.0
 40
2.0
 40
2.0
 10
145.28686419504
 20
-173.9255313835232
 30
0.0
 10
145.2965976324229
 20
-173.9222875917853
 30
0.0
 10
145.300919938515
 20
-173.9114756400482
 30
0.0
 10
145.2976782089456
 20
-173.9017452959184
 30
0.0
 10
145.2955170559002
 20
-173.8974209276571
 30
0.0
 10
145.2911865011321
 20
-173.8920149517886
 30
0.0
 10
145.28686419504
 20
-173.8909333441813
 30
0.0
  0
SPLINE
  5
153
330
79
100
AcDbEntity
  8
Capa 1
 62
    18
420
        0
370
     9
100
AcDbSpline
210
0.0
220
0.0
230
1.0
 70
     8
 71
     3
 72
     8
 73
     4
 74
     0
 42
0.0000000001
 43
0.0000000001
 40
0.0
 40
0.0
 40
0.0
 40
0.0
 40
1.0
 40
1.0
 40
1.0
 40
1.0
 10
145.2803807359019
 20
-173.8822846076594
 30
0.0
 10
145.2803807359019
 20
-173.8855283993973
 30
0.0
 10
145.2825418889479
 20
-173.889852767658
 30
0.0
 10
145.2857836185166
 20
-173.8909333441813
 30
0.0
  0
SPLINE
  5
154
330
79
100
AcDbEntity
  8
Capa 1
 62
    18
420
        0
370
     9
100
AcDbSpline
210
0.0
220
0.0
230
1.0
 70
    24
 71
     3
 72
     8
 73
     4
 74
     0
 42
0.0000000001
 43
0.0000000001
 40
0.0
 40
0.0
 40
0.0
 40
0.0
 40
1.0
 40
1.0
 40
1.0
 40
1.0
 10
145.2803807359019
 20
-173.9341801200458
 30
0.0
 10
145.2803807359019
 20
-173.9341801200458
 30
0.0
 10
145.2803807359019
 20
-173.9482358635208
 30
0.0
 10
145.2803807359019
 20
-173.9482358635208
 30
0.0
  0
SPLINE
  5
155
330
79
100
AcDbEntity
  8
Capa 1
 62
    18
420
        0
370
     9
100
AcDbSpline
210
0.0
220
0.0
230
1.0
 70
     8
 71
     3
 72
     8
 73
     4
 74
     0
 42
0.0000000001
 43
0.0000000001
 40
0.0
 40
0.0
 40
0.0
 40
0.0
 40
1.0
 40
1.0
 40
1.0
 40
1.0
 10
145.28686419504
 20
-173.9255313835232
 30
0.0
 10
145.2825418889479
 20
-173.9266119600466
 30
0.0
 10
145.2803807359019
 20
-173.9298557517845
 30
0.0
 10
145.2803807359019
 20
-173.9341801200458
 30
0.0
  0
SPLINE
  5
156
330
79
100
AcDbEntity
  8
Capa 1
 62
    18
420
        0
370
     9
100
AcDbSpline
210
0.0
220
0.0
230
1.0
 70
     8
 71
     3
 72
    11
 73
     7
 74
     0
 42
0.0000000001
 43
0.0000000001
 40
0.0
 40
0.0
 40
0.0
 40
0.0
 40
1.0
 40
1.0
 40
1.0
 40
2.0
 40
2.0
 40
2.0
 40
2.0
 10
145.28686419504
 20
-173.9914826393852
 30
0.0
 10
145.2965976324229
 20
-173.9882388476473
 30
0.0
 10
145.300919938515
 20
-173.9774268959102
 30
0.0
 10
145.2976782089456
 20
-173.9676965517804
 30
0.0
 10
145.2955170559002
 20
-173.9622905759119
 30
0.0
 10
145.2911865011321
 20
-173.9579662076506
 30
0.0
 10
145.28686419504
 20
-173.9568856311272
 30
0.0
  0
SPLINE
  5
157
330
79
100
AcDbEntity
  8
Capa 1
 62
    18
420
        0
370
     9
100
AcDbSpline
210
0.0
220
0.0
230
1.0
 70
     8
 71
     3
 72
     8
 73
     4
 74
     0
 42
0.0000000001
 43
0.0000000001
 40
0.0
 40
0.0
 40
0.0
 40
0.0
 40
1.0
 40
1.0
 40
1.0
 40
1.0
 10
145.2803807359019
 20
-173.9482358635208
 30
0.0
 10
145.2803807359019
 20
-173.9514796552587
 30
0.0
 10
145.2825418889479
 20
-173.9547224159127
 30
0.0
 10
145.2857836185166
 20
-173.95580402352
 30
0.0
  0
SPLINE
  5
158
330
79
100
AcDbEntity
  8
Capa 1
 62
    18
420
        0
370
     9
100
AcDbSpline
210
0.0
220
0.0
230
1.0
 70
    24
 71
     3
 72
     8
 73
     4
 74
     0
 42
0.0000000001
 43
0.0000000001
 40
0.0
 40
0.0
 40
0.0
 40
0.0
 40
1.0
 40
1.0
 40
1.0
 40
1.0
 10
145.2803807359019
 20
-174.0001324069917
 30
0.0
 10
145.2803807359019
 20
-174.0001324069917
 30
0.0
 10
145.2803807359019
 20
-174.0131065428595
 30
0.0
 10
145.2803807359019
 20
-174.0131065428595
 30
0.0
  0
SPLINE
  5
159
330
79
100
AcDbEntity
  8
Capa 1
 62
    18
420
        0
370
     9
100
AcDbSpline
210
0.0
220
0.0
230
1.0
 70
     8
 71
     3
 72
     8
 73
     4
 74
     0
 42
0.0000000001
 43
0.0000000001
 40
0.0
 40
0.0
 40
0.0
 40
0.0
 40
1.0
 40
1.0
 40
1.0
 40
1.0
 10
145.28686419504
 20
-173.9914826393852
 30
0.0
 10
145.2825418889479
 20
-173.9925642469925
 30
0.0
 10
145.2803807359019
 20
-173.9958070076465
 30
0.0
 10
145.2803807359019
 20
-173.9990507993844
 30
0.0
  0
SPLINE
  5
15A
330
79
100
AcDbEntity
  8
Capa 1
 62
    18
420
        0
370
     9
100
AcDbSpline
210
0.0
220
0.0
230
1.0
 70
     8
 71
     3
 72
    11
 73
     7
 74
     0
 42
0.0000000001
 43
0.0000000001
 40
0.0
 40
0.0
 40
0.0
 40
0.0
 40
1.0
 40
1.0
 40
1.0
 40
2.0
 40
2.0
 40
2.0
 40
2.0
 10
145.28686419504
 20
-174.0574338952472
 30
0.0
 10
145.2965976324229
 20
-174.0541901035087
 30
0.0
 10
145.300919938515
 20
-174.0433791828562
 30
0.0
 10
145.2976782089456
 20
-174.0336478076418
 30
0.0
 10
145.2955170559002
 20
-174.0282428628578
 30
0.0
 10
145.2911865011321
 20
-174.0239174635126
 30
0.0
 10
145.28686419504
 20
-174.0228368869892
 30
0.0
  0
SPLINE
  5
15B
330
79
100
AcDbEntity
  8
Capa 1
 62
    18
420
        0
370
     9
100
AcDbSpline
210
0.0
220
0.0
230
1.0
 70
     8
 71
     3
 72
     8
 73
     4
 74
     0
 42
0.0000000001
 43
0.0000000001
 40
0.0
 40
0.0
 40
0.0
 40
0.0
 40
1.0
 40
1.0
 40
1.0
 40
1.0
 10
145.2803807359019
 20
-174.0131065428595
 30
0.0
 10
145.2803807359019
 20
-174.0174309111207
 30
0.0
 10
145.2825418889479
 20
-174.0206747028586
 30
0.0
 10
145.2857836185166
 20
-174.021755279382
 30
0.0
  0
SPLINE
  5
15C
330
79
100
AcDbEntity
  8
Capa 1
 62
    18
420
        0
370
     9
100
AcDbSpline
210
0.0
220
0.0
230
1.0
 70
    24
 71
     3
 72
     8
 73
     4
 74
     0
 42
0.0000000001
 43
0.0000000001
 40
0.0
 40
0.0
 40
0.0
 40
0.0
 40
1.0
 40
1.0
 40
1.0
 40
1.0
 10
145.2803807359019
 20
-174.0660836628537
 30
0.0
 10
145.2803807359019
 20
-174.0660836628537
 30
0.0
 10
145.2803807359019
 20
-174.0790577987214
 30
0.0
 10
145.2803807359019
 20
-174.0790577987214
 30
0.0
  0
SPLINE
  5
15D
330
79
100
AcDbEntity
  8
Capa 1
 62
    18
420
        0
370
     9
100
AcDbSpline
210
0.0
220
0.0
230
1.0
 70
     8
 71
     3
 72
     8
 73
     4
 74
     0
 42
0.0000000001
 43
0.0000000001
 40
0.0
 40
0.0
 40
0.0
 40
0.0
 40
1.0
 40
1.0
 40
1.0
 40
1.0
 10
145.28686419504
 20
-174.0574338952472
 30
0.0
 10
145.2825418889479
 20
-174.0585155028545
 30
0.0
 10
145.2803807359019
 20
-174.0617582635079
 30
0.0
 10
145.2803807359019
 20
-174.0650020552464
 30
0.0
  0
SPLINE
  5
15E
330
79
100
AcDbEntity
  8
Capa 1
 62
    18
420
        0
370
     9
100
AcDbSpline
210
0.0
220
0.0
230
1.0
 70
     8
 71
     3
 72
    11
 73
     7
 74
     0
 42
0.0000000001
 43
0.0000000001
 40
0.0
 40
0.0
 40
0.0
 40
0.0
 40
1.0
 40
1.0
 40
1.0
 40
2.0
 40
2.0
 40
2.0
 40
2.0
 10
145.28686419504
 20
-174.1223045745859
 30
0.0
 10
145.2965976324229
 20
-174.119060782848
 30
0.0
 10
145.300919938515
 20
-174.1093304387182
 30
0.0
 10
145.2976782089456
 20
-174.0996000945884
 30
0.0
 10
145.2955170559002
 20
-174.0941941187198
 30
0.0
 10
145.2911865011321
 20
-174.0898687193739
 30
0.0
 10
145.28686419504
 20
-174.087706535244
 30
0.0
  0
SPLINE
  5
15F
330
79
100
AcDbEntity
  8
Capa 1
 62
    18
420
        0
370
     9
100
AcDbSpline
210
0.0
220
0.0
230
1.0
 70
     8
 71
     3
 72
     8
 73
     4
 74
     0
 42
0.0000000001
 43
0.0000000001
 40
0.0
 40
0.0
 40
0.0
 40
0.0
 40
1.0
 40
1.0
 40
1.0
 40
1.0
 10
145.2803807359019
 20
-174.0790577987214
 30
0.0
 10
145.2803807359019
 20
-174.0833821669827
 30
0.0
 10
145.2825418889479
 20
-174.0866259587206
 30
0.0
 10
145.2857836185166
 20
-174.087706535244
 30
0.0
  0
SPLINE
  5
160
330
79
100
AcDbEntity
  8
Capa 1
 62
    18
420
        0
370
     9
100
AcDbSpline
210
0.0
220
0.0
230
1.0
 70
    24
 71
     3
 72
     8
 73
     4
 74
     0
 42
0.0000000001
 43
0.0000000001
 40
0.0
 40
0.0
 40
0.0
 40
0.0
 40
1.0
 40
1.0
 40
1.0
 40
1.0
 10
145.2803807359019
 20
-174.1309533111078
 30
0.0
 10
145.2803807359019
 20
-174.1309533111078
 30
0.0
 10
145.2803807359019
 20
-174.1450090545835
 30
0.0
 10
145.2803807359019
 20
-174.1450090545835
 30
0.0
  0
SPLINE
  5
161
330
79
100
AcDbEntity
  8
Capa 1
 62
    18
420
        0
370
     9
100
AcDbSpline
210
0.0
220
0.0
230
1.0
 70
     8
 71
     3
 72
     8
 73
     4
 74
     0
 42
0.0000000001
 43
0.0000000001
 40
0.0
 40
0.0
 40
0.0
 40
0.0
 40
1.0
 40
1.0
 40
1.0
 40
1.0
 10
145.28686419504
 20
-174.1223045745859
 30
0.0
 10
145.2825418889479
 20
-174.1233851511086
 30
0.0
 10
145.2803807359019
 20
-174.1266289428465
 30
0.0
 10
145.2803807359019
 20
-174.1309533111078
 30
0.0
  0
SPLINE
  5
162
330
79
100
AcDbEntity
  8
Capa 1
 62
    18
420
        0
370
     9
100
AcDbSpline
210
0.0
220
0.0
230
1.0
 70
     8
 71
     3
 72
    11
 73
     7
 74
     0
 42
0.0000000001
 43
0.0000000001
 40
0.0
 40
0.0
 40
0.0
 40
0.0
 40
1.0
 40
1.0
 40
1.0
 40
2.0
 40
2.0
 40
2.0
 40
2.0
 10
145.28686419504
 20
-174.1882558304473
 30
0.0
 10
145.2965976324229
 20
-174.1850120387093
 30
0.0
 10
145.300919938515
 20
-174.1742000869722
 30
0.0
 10
145.2976782089456
 20
-174.1644697428425
 30
0.0
 10
145.2955170559002
 20
-174.1601453745818
 30
0.0
 10
145.2911865011321
 20
-174.1547393987133
 30
0.0
 10
145.28686419504
 20
-174.1536577911053
 30
0.0
  0
SPLINE
  5
163
330
79
100
AcDbEntity
  8
Capa 1
 62
    18
420
        0
370
     9
100
AcDbSpline
210
0.0
220
0.0
230
1.0
 70
     8
 71
     3
 72
     8
 73
     4
 74
     0
 42
0.0000000001
 43
0.0000000001
 40
0.0
 40
0.0
 40
0.0
 40
0.0
 40
1.0
 40
1.0
 40
1.0
 40
1.0
 10
145.2803807359019
 20
-174.1450090545835
 30
0.0
 10
145.2803807359019
 20
-174.1482528463214
 30
0.0
 10
145.2825418889479
 20
-174.1514956069747
 30
0.0
 10
145.2857836185166
 20
-174.1536577911053
 30
0.0
  0
SPLINE
  5
164
330
79
100
AcDbEntity
  8
Capa 1
 62
    18
420
        0
370
     9
100
AcDbSpline
210
0.0
220
0.0
230
1.0
 70
    24
 71
     3
 72
     8
 73
     4
 74
     0
 42
0.0000000001
 43
0.0000000001
 40
0.0
 40
0.0
 40
0.0
 40
0.0
 40
1.0
 40
1.0
 40
1.0
 40
1.0
 10
145.2803807359019
 20
-174.1969045669698
 30
0.0
 10
145.2803807359019
 20
-174.1969045669698
 30
0.0
 10
145.2803807359019
 20
-174.2109603104448
 30
0.0
 10
145.2803807359019
 20
-174.2109603104448
 30
0.0
  0
SPLINE
  5
165
330
79
100
AcDbEntity
  8
Capa 1
 62
    18
420
        0
370
     9
100
AcDbSpline
210
0.0
220
0.0
230
1.0
 70
     8
 71
     3
 72
     8
 73
     4
 74
     0
 42
0.0000000001
 43
0.0000000001
 40
0.0
 40
0.0
 40
0.0
 40
0.0
 40
1.0
 40
1.0
 40
1.0
 40
1.0
 10
145.28686419504
 20
-174.1882558304473
 30
0.0
 10
145.2825418889479
 20
-174.1893364069706
 30
0.0
 10
145.2803807359019
 20
-174.1925801987085
 30
0.0
 10
145.2803807359019
 20
-174.1969045669698
 30
0.0
  0
SPLINE
  5
166
330
79
100
AcDbEntity
  8
Capa 1
 62
    18
420
        0
370
     9
100
AcDbSpline
210
0.0
220
0.0
230
1.0
 70
     8
 71
     3
 72
    11
 73
     7
 74
     0
 42
0.0000000001
 43
0.0000000001
 40
0.0
 40
0.0
 40
0.0
 40
0.0
 40
1.0
 40
1.0
 40
1.0
 40
2.0
 40
2.0
 40
2.0
 40
2.0
 10
145.28686419504
 20
-174.2542070863093
 30
0.0
 10
145.2965976324229
 20
-174.2509632945714
 30
0.0
 10
145.300919938515
 20
-174.2401513428343
 30
0.0
 10
145.2976782089456
 20
-174.2304209987044
 30
0.0
 10
145.2955170559002
 20
-174.2250150228359
 30
0.0
 10
145.2911865011321
 20
-174.2206906545746
 30
0.0
 10
145.28686419504
 20
-174.2196100780519
 30
0.0
  0
SPLINE
  5
167
330
79
100
AcDbEntity
  8
Capa 1
 62
    18
420
        0
370
     9
100
AcDbSpline
210
0.0
220
0.0
230
1.0
 70
     8
 71
     3
 72
     8
 73
     4
 74
     0
 42
0.0000000001
 43
0.0000000001
 40
0.0
 40
0.0
 40
0.0
 40
0.0
 40
1.0
 40
1.0
 40
1.0
 40
1.0
 10
145.2803807359019
 20
-174.2109603104448
 30
0.0
 10
145.2803807359019
 20
-174.2142041021827
 30
0.0
 10
145.2825418889479
 20
-174.2174468628367
 30
0.0
 10
145.2857836185166
 20
-174.218528470444
 30
0.0
  0
SPLINE
  5
168
330
79
100
AcDbEntity
  8
Capa 1
 62
    18
420
        0
370
     9
100
AcDbSpline
210
0.0
220
0.0
230
1.0
 70
    24
 71
     3
 72
     8
 73
     4
 74
     0
 42
0.0000000001
 43
0.0000000001
 40
0.0
 40
0.0
 40
0.0
 40
0.0
 40
1.0
 40
1.0
 40
1.0
 40
1.0
 10
145.2803807359019
 20
-174.2628568539164
 30
0.0
 10
145.2803807359019
 20
-174.2628568539164
 30
0.0
 10
145.2803807359019
 20
-174.2758299586995
 30
0.0
 10
145.2803807359019
 20
-174.2758299586995
 30
0.0
  0
SPLINE
  5
169
330
79
100
AcDbEntity
  8
Capa 1
 62
    18
420
        0
370
     9
100
AcDbSpline
210
0.0
220
0.0
230
1.0
 70
     8
 71
     3
 72
     8
 73
     4
 74
     0
 42
0.0000000001
 43
0.0000000001
 40
0.0
 40
0.0
 40
0.0
 40
0.0
 40
1.0
 40
1.0
 40
1.0
 40
1.0
 10
145.28686419504
 20
-174.2542070863093
 30
0.0
 10
145.2825418889479
 20
-174.2552886939165
 30
0.0
 10
145.2803807359019
 20
-174.2585314545705
 30
0.0
 10
145.2803807359019
 20
-174.2628568539164
 30
0.0
  0
SPLINE
  5
16A
330
79
100
AcDbEntity
  8
Capa 1
 62
    18
420
        0
370
     9
100
AcDbSpline
210
0.0
220
0.0
230
1.0
 70
     8
 71
     3
 72
    11
 73
     7
 74
     0
 42
0.0000000001
 43
0.0000000001
 40
0.0
 40
0.0
 40
0.0
 40
0.0
 40
1.0
 40
1.0
 40
1.0
 40
2.0
 40
2.0
 40
2.0
 40
2.0
 10
145.28686419504
 20
-174.319076734564
 30
0.0
 10
145.2965976324229
 20
-174.31583397391
 30
0.0
 10
145.300919938515
 20
-174.3061036297802
 30
0.0
 10
145.2976782089456
 20
-174.2963722545665
 30
0.0
 10
145.2955170559002
 20
-174.2909673097819
 30
0.0
 10
145.2911865011321
 20
-174.2866419104366
 30
0.0
 10
145.28686419504
 20
-174.2855613339133
 30
0.0
  0
SPLINE
  5
16B
330
79
100
AcDbEntity
  8
Capa 1
 62
    18
420
        0
370
     9
100
AcDbSpline
210
0.0
220
0.0
230
1.0
 70
     8
 71
     3
 72
     8
 73
     4
 74
     0
 42
0.0000000001
 43
0.0000000001
 40
0.0
 40
0.0
 40
0.0
 40
0.0
 40
1.0
 40
1.0
 40
1.0
 40
1.0
 10
145.2803807359019
 20
-174.2758299586995
 30
0.0
 10
145.2803807359019
 20
-174.2801553580448
 30
0.0
 10
145.2825418889479
 20
-174.2833981186987
 30
0.0
 10
145.2857836185166
 20
-174.284479726306
 30
0.0
  0
SPLINE
  5
16C
330
79
100
AcDbEntity
  8
Capa 1
 62
    18
420
        0
370
     9
100
AcDbSpline
210
0.0
220
0.0
230
1.0
 70
    24
 71
     3
 72
     8
 73
     4
 74
     0
 42
0.0000000001
 43
0.0000000001
 40
0.0
 40
0.0
 40
0.0
 40
0.0
 40
1.0
 40
1.0
 40
1.0
 40
1.0
 10
145.2803807359019
 20
-174.3277265021705
 30
0.0
 10
145.2803807359019
 20
-174.3277265021705
 30
0.0
 10
145.2803807359019
 20
-174.3417822456455
 30
0.0
 10
145.2803807359019
 20
-174.3417822456455
 30
0.0
  0
SPLINE
  5
16D
330
79
100
AcDbEntity
  8
Capa 1
 62
    18
420
        0
370
     9
100
AcDbSpline
210
0.0
220
0.0
230
1.0
 70
     8
 71
     3
 72
     8
 73
     4
 74
     0
 42
0.0000000001
 43
0.0000000001
 40
0.0
 40
0.0
 40
0.0
 40
0.0
 40
1.0
 40
1.0
 40
1.0
 40
1.0
 10
145.28686419504
 20
-174.319076734564
 30
0.0
 10
145.2825418889479
 20
-174.3212399497786
 30
0.0
 10
145.2803807359019
 20
-174.3244827104325
 30
0.0
 10
145.2803807359019
 20
-174.3277265021705
 30
0.0
  0
SPLINE
  5
16E
330
79
100
AcDbEntity
  8
Capa 1
 62
    18
420
        0
370
     9
100
AcDbSpline
210
0.0
220
0.0
230
1.0
 70
    24
 71
     3
 72
     8
 73
     4
 74
     0
 42
0.0000000001
 43
0.0000000001
 40
0.0
 40
0.0
 40
0.0
 40
0.0
 40
1.0
 40
1.0
 40
1.0
 40
1.0
 10
145.2803807359019
 20
-174.3936777580318
 30
0.0
 10
145.2803807359019
 20
-174.3936777580318
 30
0.0
 10
145.2803807359019
 20
-174.4077335015075
 30
0.0
 10
145.2803807359019
 20
-174.4077335015075
 30
0.0
  0
SPLINE
  5
16F
330
79
100
AcDbEntity
  8
Capa 1
 62
    18
420
        0
370
     9
100
AcDbSpline
210
0.0
220
0.0
230
1.0
 70
     8
 71
     3
 72
     8
 73
     4
 74
     0
 42
0.0000000001
 43
0.0000000001
 40
0.0
 40
0.0
 40
0.0
 40
0.0
 40
1.0
 40
1.0
 40
1.0
 40
1.0
 10
145.28686419504
 20
-174.38502902151
 30
0.0
 10
145.2825418889479
 20
-174.3861095980333
 30
0.0
 10
145.2803807359019
 20
-174.3893533897712
 30
0.0
 10
145.2803807359019
 20
-174.3936777580318
 30
0.0
  0
SPLINE
  5
170
330
79
100
AcDbEntity
  8
Capa 1
 62
    18
420
        0
370
     9
100
AcDbSpline
210
0.0
220
0.0
230
1.0
 70
     8
 71
     3
 72
    11
 73
     7
 74
     0
 42
0.0000000001
 43
0.0000000001
 40
0.0
 40
0.0
 40
0.0
 40
0.0
 40
1.0
 40
1.0
 40
1.0
 40
2.0
 40
2.0
 40
2.0
 40
2.0
 10
145.28686419504
 20
-174.38502902151
 30
0.0
 10
145.2965976324229
 20
-174.381785229772
 30
0.0
 10
145.300919938515
 20
-174.3720548856422
 30
0.0
 10
145.2976782089456
 20
-174.3623245415124
 30
0.0
 10
145.2955170559002
 20
-174.3569185656438
 30
0.0
 10
145.2911865011321
 20
-174.352593166298
 30
0.0
 10
145.28686419504
 20
-174.350430982168
 30
0.0
  0
SPLINE
  5
171
330
79
100
AcDbEntity
  8
Capa 1
 62
    18
420
        0
370
     9
100
AcDbSpline
210
0.0
220
0.0
230
1.0
 70
     8
 71
     3
 72
     8
 73
     4
 74
     0
 42
0.0000000001
 43
0.0000000001
 40
0.0
 40
0.0
 40
0.0
 40
0.0
 40
1.0
 40
1.0
 40
1.0
 40
1.0
 10
145.2803807359019
 20
-174.3417822456455
 30
0.0
 10
145.2803807359019
 20
-174.3461066139067
 30
0.0
 10
145.2825418889479
 20
-174.3493504056447
 30
0.0
 10
145.2857836185166
 20
-174.350430982168
 30
0.0
  0
SPLINE
  5
172
330
79
100
AcDbEntity
  8
Capa 1
 62
    18
420
        0
370
     9
100
AcDbSpline
210
0.0
220
0.0
230
1.0
 70
     8
 71
     3
 72
    11
 73
     7
 74
     0
 42
0.0000000001
 43
0.0000000001
 40
0.0
 40
0.0
 40
0.0
 40
0.0
 40
1.0
 40
1.0
 40
1.0
 40
2.0
 40
2.0
 40
2.0
 40
2.0
 10
145.2803807359019
 20
-174.4520608538946
 30
0.0
 10
145.2911865011321
 20
-174.4520608538946
 30
0.0
 10
145.298758785469
 20
-174.4434121173728
 30
0.0
 10
145.298758785469
 20
-174.4336817732429
 30
0.0
 10
145.298758785469
 20
-174.4261136132438
 30
0.0
 10
145.2944282307008
 20
-174.41854442216
 30
0.0
 10
145.2857836185166
 20
-174.4163822380294
 30
0.0
  0
SPLINE
  5
173
330
79
100
AcDbEntity
  8
Capa 1
 62
    18
420
        0
370
     9
100
AcDbSpline
210
0.0
220
0.0
230
1.0
 70
     8
 71
     3
 72
     8
 73
     4
 74
     0
 42
0.0000000001
 43
0.0000000001
 40
0.0
 40
0.0
 40
0.0
 40
0.0
 40
1.0
 40
1.0
 40
1.0
 40
1.0
 10
145.2803807359019
 20
-174.4077335015075
 30
0.0
 10
145.2803807359019
 20
-174.4109762621608
 30
0.0
 10
145.2825418889479
 20
-174.4142200538987
 30
0.0
 10
145.2857836185166
 20
-174.4163822380294
 30
0.0
  0
SPLINE
  5
174
330
79
100
AcDbEntity
  8
Capa 1
 62
    18
420
        0
370
     9
100
AcDbSpline
210
0.0
220
0.0
230
1.0
 70
     8
 71
     3
 72
    11
 73
     7
 74
     0
 42
0.0000000001
 43
0.0000000001
 40
0.0
 40
0.0
 40
0.0
 40
0.0
 40
1.0
 40
1.0
 40
1.0
 40
2.0
 40
2.0
 40
2.0
 40
2.0
 10
145.28686419504
 20
-174.5169315332333
 30
0.0
 10
145.2965976324229
 20
-174.5136877414954
 30
0.0
 10
145.300919938515
 20
-174.5028757897583
 30
0.0
 10
145.2976782089456
 20
-174.4931454456285
 30
0.0
 10
145.2955170559002
 20
-174.4877394697599
 30
0.0
 10
145.2911865011321
 20
-174.4834151014987
 30
0.0
 10
145.28686419504
 20
-174.4823334938914
 30
0.0
  0
SPLINE
  5
175
330
79
100
AcDbEntity
  8
Capa 1
 62
    18
420
        0
370
     9
100
AcDbSpline
210
0.0
220
0.0
230
1.0
 70
     8
 71
     3
 72
     8
 73
     4
 74
     0
 42
0.0000000001
 43
0.0000000001
 40
0.0
 40
0.0
 40
0.0
 40
0.0
 40
1.0
 40
1.0
 40
1.0
 40
1.0
 10
145.2803807359019
 20
-174.4736847573695
 30
0.0
 10
145.2803807359019
 20
-174.4769285491074
 30
0.0
 10
145.2825418889479
 20
-174.4801713097608
 30
0.0
 10
145.2857836185166
 20
-174.481252917368
 30
0.0
  0
SPLINE
  5
176
330
79
100
AcDbEntity
  8
Capa 1
 62
    18
420
        0
370
     9
100
AcDbSpline
210
0.0
220
0.0
230
1.0
 70
    24
 71
     3
 72
     8
 73
     4
 74
     0
 42
0.0000000001
 43
0.0000000001
 40
0.0
 40
0.0
 40
0.0
 40
0.0
 40
1.0
 40
1.0
 40
1.0
 40
1.0
 10
145.2803807359019
 20
-174.5255813008404
 30
0.0
 10
145.2803807359019
 20
-174.5255813008404
 30
0.0
 10
145.2803807359019
 20
-174.5385544056236
 30
0.0
 10
145.2803807359019
 20
-174.5385544056236
 30
0.0
  0
SPLINE
  5
177
330
79
100
AcDbEntity
  8
Capa 1
 62
    18
420
        0
370
     9
100
AcDbSpline
210
0.0
220
0.0
230
1.0
 70
     8
 71
     3
 72
     8
 73
     4
 74
     0
 42
0.0000000001
 43
0.0000000001
 40
0.0
 40
0.0
 40
0.0
 40
0.0
 40
1.0
 40
1.0
 40
1.0
 40
1.0
 10
145.28686419504
 20
-174.5169315332333
 30
0.0
 10
145.2825418889479
 20
-174.5180121097567
 30
0.0
 10
145.2803807359019
 20
-174.5212559014946
 30
0.0
 10
145.2803807359019
 20
-174.5244996932325
 30
0.0
  0
SPLINE
  5
178
330
79
100
AcDbEntity
  8
Capa 1
 62
    18
420
        0
370
     9
100
AcDbSpline
210
0.0
220
0.0
230
1.0
 70
     8
 71
     3
 72
    11
 73
     7
 74
     0
 42
0.0000000001
 43
0.0000000001
 40
0.0
 40
0.0
 40
0.0
 40
0.0
 40
1.0
 40
1.0
 40
1.0
 40
2.0
 40
2.0
 40
2.0
 40
2.0
 10
145.28686419504
 20
-174.581801181488
 30
0.0
 10
145.2965976324229
 20
-174.578558420834
 30
0.0
 10
145.300919938515
 20
-174.5688280767042
 30
0.0
 10
145.2976782089456
 20
-174.5590967014905
 30
0.0
 10
145.2955170559002
 20
-174.5536907256219
 30
0.0
 10
145.2911865011321
 20
-174.5493663573607
 30
0.0
 10
145.28686419504
 20
-174.5482857808373
 30
0.0
  0
SPLINE
  5
179
330
79
100
AcDbEntity
  8
Capa 1
 62
    18
420
        0
370
     9
100
AcDbSpline
210
0.0
220
0.0
230
1.0
 70
     8
 71
     3
 72
     8
 73
     4
 74
     0
 42
0.0000000001
 43
0.0000000001
 40
0.0
 40
0.0
 40
0.0
 40
0.0
 40
1.0
 40
1.0
 40
1.0
 40
1.0
 10
145.2803807359019
 20
-174.5385544056236
 30
0.0
 10
145.2803807359019
 20
-174.5428798049688
 30
0.0
 10
145.2825418889479
 20
-174.5461225656227
 30
0.0
 10
145.2857836185166
 20
-174.54720417323
 30
0.0
  0
SPLINE
  5
17A
330
79
100
AcDbEntity
  8
Capa 1
 62
    18
420
        0
370
     9
100
AcDbSpline
210
0.0
220
0.0
230
1.0
 70
    24
 71
     3
 72
     8
 73
     4
 74
     0
 42
0.0000000001
 43
0.0000000001
 40
0.0
 40
0.0
 40
0.0
 40
0.0
 40
1.0
 40
1.0
 40
1.0
 40
1.0
 10
145.2803807359019
 20
-174.5904509490945
 30
0.0
 10
145.2803807359019
 20
-174.5904509490945
 30
0.0
 10
145.2803807359019
 20
-174.6045066925695
 30
0.0
 10
145.2803807359019
 20
-174.6045066925695
 30
0.0
  0
SPLINE
  5
17B
330
79
100
AcDbEntity
  8
Capa 1
 62
    18
420
        0
370
     9
100
AcDbSpline
210
0.0
220
0.0
230
1.0
 70
     8
 71
     3
 72
     8
 73
     4
 74
     0
 42
0.0000000001
 43
0.0000000001
 40
0.0
 40
0.0
 40
0.0
 40
0.0
 40
1.0
 40
1.0
 40
1.0
 40
1.0
 10
145.28686419504
 20
-174.581801181488
 30
0.0
 10
145.2825418889479
 20
-174.5839643967026
 30
0.0
 10
145.2803807359019
 20
-174.5872071573566
 30
0.0
 10
145.2803807359019
 20
-174.5904509490945
 30
0.0
  0
SPLINE
  5
17C
330
79
100
AcDbEntity
  8
Capa 1
 62
    18
420
        0
370
     9
100
AcDbSpline
210
0.0
220
0.0
230
1.0
 70
     8
 71
     3
 72
    11
 73
     7
 74
     0
 42
0.0000000001
 43
0.0000000001
 40
0.0
 40
0.0
 40
0.0
 40
0.0
 40
1.0
 40
1.0
 40
1.0
 40
2.0
 40
2.0
 40
2.0
 40
2.0
 10
145.28686419504
 20
-174.647753468434
 30
0.0
 10
145.2965976324229
 20
-174.6445096766961
 30
0.0
 10
145.300919938515
 20
-174.6347793325663
 30
0.0
 10
145.2976782089456
 20
-174.6250489884364
 30
0.0
 10
145.2955170559002
 20
-174.6196430125679
 30
0.0
 10
145.2911865011321
 20
-174.6142370366993
 30
0.0
 10
145.28686419504
 20
-174.613155429092
 30
0.0
  0
SPLINE
  5
17D
330
79
100
AcDbEntity
  8
Capa 1
 62
    18
420
        0
370
     9
100
AcDbSpline
210
0.0
220
0.0
230
1.0
 70
     8
 71
     3
 72
     8
 73
     4
 74
     0
 42
0.0000000001
 43
0.0000000001
 40
0.0
 40
0.0
 40
0.0
 40
0.0
 40
1.0
 40
1.0
 40
1.0
 40
1.0
 10
145.2803807359019
 20
-174.6045066925695
 30
0.0
 10
145.2803807359019
 20
-174.6088310608308
 30
0.0
 10
145.2825418889479
 20
-174.6120748525687
 30
0.0
 10
145.2857836185166
 20
-174.613155429092
 30
0.0
  0
SPLINE
  5
17E
330
79
100
AcDbEntity
  8
Capa 1
 62
    18
420
        0
370
     9
100
AcDbSpline
210
0.0
220
0.0
230
1.0
 70
    24
 71
     3
 72
     8
 73
     4
 74
     0
 42
0.0000000001
 43
0.0000000001
 40
0.0
 40
0.0
 40
0.0
 40
0.0
 40
1.0
 40
1.0
 40
1.0
 40
1.0
 10
145.2803807359019
 20
-174.6564022049565
 30
0.0
 10
145.2803807359019
 20
-174.6564022049565
 30
0.0
 10
145.2803807359019
 20
-174.6704579484315
 30
0.0
 10
145.2803807359019
 20
-174.6704579484315
 30
0.0
  0
SPLINE
  5
17F
330
79
100
AcDbEntity
  8
Capa 1
 62
    18
420
        0
370
     9
100
AcDbSpline
210
0.0
220
0.0
230
1.0
 70
     8
 71
     3
 72
     8
 73
     4
 74
     0
 42
0.0000000001
 43
0.0000000001
 40
0.0
 40
0.0
 40
0.0
 40
0.0
 40
1.0
 40
1.0
 40
1.0
 40
1.0
 10
145.28686419504
 20
-174.647753468434
 30
0.0
 10
145.2825418889479
 20
-174.6488340449573
 30
0.0
 10
145.2803807359019
 20
-174.6520778366952
 30
0.0
 10
145.2803807359019
 20
-174.6564022049565
 30
0.0
  0
SPLINE
  5
180
330
79
100
AcDbEntity
  8
Capa 1
 62
    18
420
        0
370
     9
100
AcDbSpline
210
0.0
220
0.0
230
1.0
 70
     8
 71
     3
 72
    11
 73
     7
 74
     0
 42
0.0000000001
 43
0.0000000001
 40
0.0
 40
0.0
 40
0.0
 40
0.0
 40
1.0
 40
1.0
 40
1.0
 40
2.0
 40
2.0
 40
2.0
 40
2.0
 10
145.28686419504
 20
-174.713704724296
 30
0.0
 10
145.2965976324229
 20
-174.7104609325581
 30
0.0
 10
145.300919938515
 20
-174.699648980821
 30
0.0
 10
145.2976782089456
 20
-174.6899186366912
 30
0.0
 10
145.2955170559002
 20
-174.6845126608226
 30
0.0
 10
145.2911865011321
 20
-174.6801882925613
 30
0.0
 10
145.28686419504
 20
-174.679106684954
 30
0.0
  0
SPLINE
  5
181
330
79
100
AcDbEntity
  8
Capa 1
 62
    18
420
        0
370
     9
100
AcDbSpline
210
0.0
220
0.0
230
1.0
 70
     8
 71
     3
 72
     8
 73
     4
 74
     0
 42
0.0000000001
 43
0.0000000001
 40
0.0
 40
0.0
 40
0.0
 40
0.0
 40
1.0
 40
1.0
 40
1.0
 40
1.0
 10
145.2803807359019
 20
-174.6704579484315
 30
0.0
 10
145.2803807359019
 20
-174.6737007090849
 30
0.0
 10
145.2825418889479
 20
-174.6769445008234
 30
0.0
 10
145.2857836185166
 20
-174.679106684954
 30
0.0
  0
SPLINE
  5
182
330
79
100
AcDbEntity
  8
Capa 1
 62
    18
420
        0
370
     9
100
AcDbSpline
210
0.0
220
0.0
230
1.0
 70
    24
 71
     3
 72
     8
 73
     4
 74
     0
 42
0.0000000001
 43
0.0000000001
 40
0.0
 40
0.0
 40
0.0
 40
0.0
 40
1.0
 40
1.0
 40
1.0
 40
1.0
 10
145.2803807359019
 20
-174.7223534608179
 30
0.0
 10
145.2803807359019
 20
-174.7223534608179
 30
0.0
 10
145.2803807359019
 20
-174.7353275966856
 30
0.0
 10
145.2803807359019
 20
-174.7353275966856
 30
0.0
  0
SPLINE
  5
183
330
79
100
AcDbEntity
  8
Capa 1
 62
    18
420
        0
370
     9
100
AcDbSpline
210
0.0
220
0.0
230
1.0
 70
     8
 71
     3
 72
     8
 73
     4
 74
     0
 42
0.0000000001
 43
0.0000000001
 40
0.0
 40
0.0
 40
0.0
 40
0.0
 40
1.0
 40
1.0
 40
1.0
 40
1.0
 10
145.28686419504
 20
-174.713704724296
 30
0.0
 10
145.2825418889479
 20
-174.7147853008187
 30
0.0
 10
145.2803807359019
 20
-174.7180290925572
 30
0.0
 10
145.2803807359019
 20
-174.7223534608179
 30
0.0
  0
SPLINE
  5
184
330
79
100
AcDbEntity
  8
Capa 1
 62
    18
420
        0
370
     9
100
AcDbSpline
210
0.0
220
0.0
230
1.0
 70
     8
 71
     3
 72
    11
 73
     7
 74
     0
 42
0.0000000001
 43
0.0000000001
 40
0.0
 40
0.0
 40
0.0
 40
0.0
 40
1.0
 40
1.0
 40
1.0
 40
2.0
 40
2.0
 40
2.0
 40
2.0
 10
145.28686419504
 20
-174.7796559801573
 30
0.0
 10
145.2965976324229
 20
-174.7764121884194
 30
0.0
 10
145.300919938515
 20
-174.7656002366823
 30
0.0
 10
145.2976782089456
 20
-174.7558698925525
 30
0.0
 10
145.2955170559002
 20
-174.750463916684
 30
0.0
 10
145.2911865011321
 20
-174.7461395484234
 30
0.0
 10
145.28686419504
 20
-174.7450579408154
 30
0.0
  0
SPLINE
  5
185
330
79
100
AcDbEntity
  8
Capa 1
 62
    18
420
        0
370
     9
100
AcDbSpline
210
0.0
220
0.0
230
1.0
 70
     8
 71
     3
 72
     8
 73
     4
 74
     0
 42
0.0000000001
 43
0.0000000001
 40
0.0
 40
0.0
 40
0.0
 40
0.0
 40
1.0
 40
1.0
 40
1.0
 40
1.0
 10
145.2803807359019
 20
-174.7364092042935
 30
0.0
 10
145.2803807359019
 20
-174.7396529960315
 30
0.0
 10
145.2825418889479
 20
-174.7428957566848
 30
0.0
 10
145.2857836185166
 20
-174.7439773642927
 30
0.0
  0
SPLINE
  5
186
330
79
100
AcDbEntity
  8
Capa 1
 62
    18
420
        0
370
     9
100
AcDbSpline
210
0.0
220
0.0
230
1.0
 70
    24
 71
     3
 72
     8
 73
     4
 74
     0
 42
0.0000000001
 43
0.0000000001
 40
0.0
 40
0.0
 40
0.0
 40
0.0
 40
1.0
 40
1.0
 40
1.0
 40
1.0
 10
145.2803807359019
 20
-174.7883047166799
 30
0.0
 10
145.2803807359019
 20
-174.7883047166799
 30
0.0
 10
145.2803807359019
 20
-174.8012788525476
 30
0.0
 10
145.2803807359019
 20
-174.8012788525476
 30
0.0
  0
SPLINE
  5
187
330
79
100
AcDbEntity
  8
Capa 1
 62
    18
420
        0
370
     9
100
AcDbSpline
210
0.0
220
0.0
230
1.0
 70
     8
 71
     3
 72
     8
 73
     4
 74
     0
 42
0.0000000001
 43
0.0000000001
 40
0.0
 40
0.0
 40
0.0
 40
0.0
 40
1.0
 40
1.0
 40
1.0
 40
1.0
 10
145.28686419504
 20
-174.7796559801573
 30
0.0
 10
145.2825418889479
 20
-174.7807365566807
 30
0.0
 10
145.2803807359019
 20
-174.7839803484186
 30
0.0
 10
145.2803807359019
 20
-174.7872241401571
 30
0.0
  0
SPLINE
  5
188
330
79
100
AcDbEntity
  8
Capa 1
 62
    18
420
        0
370
     9
100
AcDbSpline
210
0.0
220
0.0
230
1.0
 70
     8
 71
     3
 72
    11
 73
     7
 74
     0
 42
0.0000000001
 43
0.0000000001
 40
0.0
 40
0.0
 40
0.0
 40
0.0
 40
1.0
 40
1.0
 40
1.0
 40
2.0
 40
2.0
 40
2.0
 40
2.0
 10
145.28686419504
 20
-174.8445256284121
 30
0.0
 10
145.2965976324229
 20
-174.8412828677581
 30
0.0
 10
145.300919938515
 20
-174.8315514925443
 30
0.0
 10
145.2976782089456
 20
-174.8218211484145
 30
0.0
 10
145.2955170559002
 20
-174.8164151725459
 30
0.0
 10
145.2911865011321
 20
-174.8120908042847
 30
0.0
 10
145.28686419504
 20
-174.811010227762
 30
0.0
  0
SPLINE
  5
189
330
79
100
AcDbEntity
  8
Capa 1
 62
    18
420
        0
370
     9
100
AcDbSpline
210
0.0
220
0.0
230
1.0
 70
     8
 71
     3
 72
     8
 73
     4
 74
     0
 42
0.0000000001
 43
0.0000000001
 40
0.0
 40
0.0
 40
0.0
 40
0.0
 40
1.0
 40
1.0
 40
1.0
 40
1.0
 10
145.2803807359019
 20
-174.8012788525476
 30
0.0
 10
145.2803807359019
 20
-174.8056042518934
 30
0.0
 10
145.2825418889479
 20
-174.8088470125468
 30
0.0
 10
145.2857836185166
 20
-174.8099286201541
 30
0.0
  0
SPLINE
  5
18A
330
79
100
AcDbEntity
  8
Capa 1
 62
    18
420
        0
370
     9
100
AcDbSpline
210
0.0
220
0.0
230
1.0
 70
    24
 71
     3
 72
     8
 73
     4
 74
     0
 42
0.0000000001
 43
0.0000000001
 40
0.0
 40
0.0
 40
0.0
 40
0.0
 40
1.0
 40
1.0
 40
1.0
 40
1.0
 10
145.2803807359019
 20
-174.8531753960185
 30
0.0
 10
145.2803807359019
 20
-174.8531753960185
 30
0.0
 10
145.2803807359019
 20
-174.8672301084096
 30
0.0
 10
145.2803807359019
 20
-174.8672301084096
 30
0.0
  0
SPLINE
  5
18B
330
79
100
AcDbEntity
  8
Capa 1
 62
    18
420
        0
370
     9
100
AcDbSpline
210
0.0
220
0.0
230
1.0
 70
     8
 71
     3
 72
     8
 73
     4
 74
     0
 42
0.0000000001
 43
0.0000000001
 40
0.0
 40
0.0
 40
0.0
 40
0.0
 40
1.0
 40
1.0
 40
1.0
 40
1.0
 10
145.28686419504
 20
-174.8445256284121
 30
0.0
 10
145.2825418889479
 20
-174.8466888436266
 30
0.0
 10
145.2803807359019
 20
-174.8499316042806
 30
0.0
 10
145.2803807359019
 20
-174.8531753960185
 30
0.0
  0
SPLINE
  5
18C
330
79
100
AcDbEntity
  8
Capa 1
 62
    18
420
        0
370
     9
100
AcDbSpline
210
0.0
220
0.0
230
1.0
 70
     8
 71
     3
 72
    11
 73
     7
 74
     0
 42
0.0000000001
 43
0.0000000001
 40
0.0
 40
0.0
 40
0.0
 40
0.0
 40
1.0
 40
1.0
 40
1.0
 40
2.0
 40
2.0
 40
2.0
 40
2.0
 10
145.28686419504
 20
-174.910477915358
 30
0.0
 10
145.2965976324229
 20
-174.9072341236201
 30
0.0
 10
145.300919938515
 20
-174.896422171883
 30
0.0
 10
145.2976782089456
 20
-174.8877724042765
 30
0.0
 10
145.2955170559002
 20
-174.8823674594919
 30
0.0
 10
145.2911865011321
 20
-174.8780420601467
 30
0.0
 10
145.28686419504
 20
-174.8758798760161
 30
0.0
  0
SPLINE
  5
18D
330
79
100
AcDbEntity
  8
Capa 1
 62
    18
420
        0
370
     9
100
AcDbSpline
210
0.0
220
0.0
230
1.0
 70
     8
 71
     3
 72
     8
 73
     4
 74
     0
 42
0.0000000001
 43
0.0000000001
 40
0.0
 40
0.0
 40
0.0
 40
0.0
 40
1.0
 40
1.0
 40
1.0
 40
1.0
 10
145.2803807359019
 20
-174.8672301084096
 30
0.0
 10
145.2803807359019
 20
-174.8715555077548
 30
0.0
 10
145.2825418889479
 20
-174.8747992994934
 30
0.0
 10
145.2857836185166
 20
-174.8758798760161
 30
0.0
  0
SPLINE
  5
18E
330
79
100
AcDbEntity
  8
Capa 1
 62
    18
420
        0
370
     9
100
AcDbSpline
210
0.0
220
0.0
230
1.0
 70
    24
 71
     3
 72
     8
 73
     4
 74
     0
 42
0.0000000001
 43
0.0000000001
 40
0.0
 40
0.0
 40
0.0
 40
0.0
 40
1.0
 40
1.0
 40
1.0
 40
1.0
 10
145.28686419504
 20
-174.910477915358
 30
0.0
 10
145.28686419504
 20
-174.910477915358
 30
0.0
 10
145.2847030419939
 20
-174.9115584918814
 30
0.0
 10
145.2847030419939
 20
-174.9115584918814
 30
0.0
  0
SPLINE
  5
18F
330
79
100
AcDbEntity
  8
Capa 1
 62
    18
420
        0
370
     9
100
AcDbSpline
210
0.0
220
0.0
230
1.0
 70
    24
 71
     3
 72
     8
 73
     4
 74
     0
 42
0.0000000001
 43
0.0000000001
 40
0.0
 40
0.0
 40
0.0
 40
0.0
 40
1.0
 40
1.0
 40
1.0
 40
1.0
 10
147.5789484712728
 20
-174.9115584918814
 30
0.0
 10
147.5789484712728
 20
-174.9115584918814
 30
0.0
 10
147.5789484712728
 20
-176.2911319823635
 30
0.0
 10
147.5789484712728
 20
-176.2911319823635
 30
0.0
  0
SPLINE
  5
190
330
79
100
AcDbEntity
  8
Capa 1
 62
    18
420
        0
370
     9
100
AcDbSpline
210
0.0
220
0.0
230
1.0
 70
    24
 71
     3
 72
     8
 73
     4
 74
     0
 42
0.0000000001
 43
0.0000000001
 40
0.0
 40
0.0
 40
0.0
 40
0.0
 40
1.0
 40
1.0
 40
1.0
 40
1.0
 10
147.5789484712728
 20
-176.2911319823635
 30
0.0
 10
147.5789484712728
 20
-176.2911319823635
 30
0.0
 10
146.8891612104894
 20
-176.2911319823635
 30
0.0
 10
146.8891612104894
 20
-176.2911319823635
 30
0.0
  0
SPLINE
  5
191
330
79
100
AcDbEntity
  8
Capa 1
 62
    18
420
        0
370
     9
100
AcDbSpline
210
0.0
220
0.0
230
1.0
 70
    24
 71
     3
 72
     8
 73
     4
 74
     0
 42
0.0000000001
 43
0.0000000001
 40
0.0
 40
0.0
 40
0.0
 40
0.0
 40
1.0
 40
1.0
 40
1.0
 40
1.0
 10
145.9701597480092
 20
-176.2911319823635
 30
0.0
 10
145.9701597480092
 20
-176.2911319823635
 30
0.0
 10
145.3063228211305
 20
-176.2911319823635
 30
0.0
 10
145.3063228211305
 20
-176.2911319823635
 30
0.0
  0
SPLINE
  5
192
330
79
100
AcDbEntity
  8
Capa 1
 62
    18
420
        0
370
     9
100
AcDbSpline
210
0.0
220
0.0
230
1.0
 70
     8
 71
     3
 72
    11
 73
     7
 74
     0
 42
0.0000000001
 43
0.0000000001
 40
0.0
 40
0.0
 40
0.0
 40
0.0
 40
1.0
 40
1.0
 40
1.0
 40
2.0
 40
2.0
 40
2.0
 40
2.0
 10
145.2976782089456
 20
-176.2781578464958
 30
0.0
 10
145.2955170559002
 20
-176.2835638223644
 30
0.0
 10
145.298758785469
 20
-176.2878881906256
 30
0.0
 10
145.303081091561
 20
-176.2900503747563
 30
0.0
 10
145.3041616680844
 20
-176.2911319823635
 30
0.0
 10
145.3052422446071
 20
-176.2911319823635
 30
0.0
 10
145.3063228211305
 20
-176.2911319823635
 30
0.0
  0
SPLINE
  5
193
330
79
100
AcDbEntity
  8
Capa 1
 62
    18
420
        0
370
     9
100
AcDbSpline
210
0.0
220
0.0
230
1.0
 70
     8
 71
     3
 72
     8
 73
     4
 74
     0
 42
0.0000000001
 43
0.0000000001
 40
0.0
 40
0.0
 40
0.0
 40
0.0
 40
1.0
 40
1.0
 40
1.0
 40
1.0
 10
145.2976782089456
 20
-176.2781578464958
 30
0.0
 10
145.300919938515
 20
-176.2684275023666
 30
0.0
 10
145.2955170559002
 20
-176.2586971582368
 30
0.0
 10
145.28686419504
 20
-176.2554533664983
 30
0.0
  0
SPLINE
  5
194
330
79
100
AcDbEntity
  8
Capa 1
 62
    18
420
        0
370
     9
100
AcDbSpline
210
0.0
220
0.0
230
1.0
 70
     8
 71
     3
 72
     8
 73
     4
 74
     0
 42
0.0000000001
 43
0.0000000001
 40
0.0
 40
0.0
 40
0.0
 40
0.0
 40
1.0
 40
1.0
 40
1.0
 40
1.0
 10
145.2803807359019
 20
-176.2468035988918
 30
0.0
 10
145.2803807359019
 20
-176.2500473906297
 30
0.0
 10
145.2825418889479
 20
-176.2532911823683
 30
0.0
 10
145.2857836185166
 20
-176.254371758891
 30
0.0
  0
SPLINE
  5
195
330
79
100
AcDbEntity
  8
Capa 1
 62
    18
420
        0
370
     9
100
AcDbSpline
210
0.0
220
0.0
230
1.0
 70
    24
 71
     3
 72
     8
 73
     4
 74
     0
 42
0.0000000001
 43
0.0000000001
 40
0.0
 40
0.0
 40
0.0
 40
0.0
 40
1.0
 40
1.0
 40
1.0
 40
1.0
 10
145.2803807359019
 20
-176.2468035988918
 30
0.0
 10
145.2803807359019
 20
-176.2468035988918
 30
0.0
 10
145.2803807359019
 20
-176.2327488865014
 30
0.0
 10
145.2803807359019
 20
-176.2327488865014
 30
0.0
  0
SPLINE
  5
196
330
79
100
AcDbEntity
  8
Capa 1
 62
    18
420
        0
370
     9
100
AcDbSpline
210
0.0
220
0.0
230
1.0
 70
     8
 71
     3
 72
     8
 73
     4
 74
     0
 42
0.0000000001
 43
0.0000000001
 40
0.0
 40
0.0
 40
0.0
 40
0.0
 40
1.0
 40
1.0
 40
1.0
 40
1.0
 10
145.28686419504
 20
-176.2240991188942
 30
0.0
 10
145.2825418889479
 20
-176.2251807265022
 30
0.0
 10
145.2803807359019
 20
-176.2284245182401
 30
0.0
 10
145.2803807359019
 20
-176.2327488865014
 30
0.0
  0
SPLINE
  5
197
330
79
100
AcDbEntity
  8
Capa 1
 62
    18
420
        0
370
     9
100
AcDbSpline
210
0.0
220
0.0
230
1.0
 70
     8
 71
     3
 72
    11
 73
     7
 74
     0
 42
0.0000000001
 43
0.0000000001
 40
0.0
 40
0.0
 40
0.0
 40
0.0
 40
1.0
 40
1.0
 40
1.0
 40
2.0
 40
2.0
 40
2.0
 40
2.0
 10
145.28686419504
 20
-176.2240991188942
 30
0.0
 10
145.2965976324229
 20
-176.2208563582409
 30
0.0
 10
145.300919938515
 20
-176.2100444065038
 30
0.0
 10
145.2976782089456
 20
-176.200314062374
 30
0.0
 10
145.2955170559002
 20
-176.1959886630281
 30
0.0
 10
145.2911865011321
 20
-176.1905826871596
 30
0.0
 10
145.28686419504
 20
-176.1895021106369
 30
0.0
  0
SPLINE
  5
198
330
79
100
AcDbEntity
  8
Capa 1
 62
    18
420
        0
370
     9
100
AcDbSpline
210
0.0
220
0.0
230
1.0
 70
     8
 71
     3
 72
     8
 73
     4
 74
     0
 42
0.0000000001
 43
0.0000000001
 40
0.0
 40
0.0
 40
0.0
 40
0.0
 40
1.0
 40
1.0
 40
1.0
 40
1.0
 10
145.2803807359019
 20
-176.1808523430304
 30
0.0
 10
145.2803807359019
 20
-176.1840961347683
 30
0.0
 10
145.2825418889479
 20
-176.188420503029
 30
0.0
 10
145.2857836185166
 20
-176.1895021106369
 30
0.0
  0
SPLINE
  5
199
330
79
100
AcDbEntity
  8
Capa 1
 62
    18
420
        0
370
     9
100
AcDbSpline
210
0.0
220
0.0
230
1.0
 70
    24
 71
     3
 72
     8
 73
     4
 74
     0
 42
0.0000000001
 43
0.0000000001
 40
0.0
 40
0.0
 40
0.0
 40
0.0
 40
1.0
 40
1.0
 40
1.0
 40
1.0
 10
145.2803807359019
 20
-176.1808523430304
 30
0.0
 10
145.2803807359019
 20
-176.1808523430304
 30
0.0
 10
145.2803807359019
 20
-176.1667976306393
 30
0.0
 10
145.2803807359019
 20
-176.1667976306393
 30
0.0
  0
SPLINE
  5
19A
330
79
100
AcDbEntity
  8
Capa 1
 62
    18
420
        0
370
     9
100
AcDbSpline
210
0.0
220
0.0
230
1.0
 70
     8
 71
     3
 72
     8
 73
     4
 74
     0
 42
0.0000000001
 43
0.0000000001
 40
0.0
 40
0.0
 40
0.0
 40
0.0
 40
1.0
 40
1.0
 40
1.0
 40
1.0
 10
145.28686419504
 20
-176.1581478630329
 30
0.0
 10
145.2825418889479
 20
-176.1592294706401
 30
0.0
 10
145.2803807359019
 20
-176.1624722312935
 30
0.0
 10
145.2803807359019
 20
-176.1667976306393
 30
0.0
  0
SPLINE
  5
19B
330
79
100
AcDbEntity
  8
Capa 1
 62
    18
420
        0
370
     9
100
AcDbSpline
210
0.0
220
0.0
230
1.0
 70
     8
 71
     3
 72
    11
 73
     7
 74
     0
 42
0.0000000001
 43
0.0000000001
 40
0.0
 40
0.0
 40
0.0
 40
0.0
 40
1.0
 40
1.0
 40
1.0
 40
2.0
 40
2.0
 40
2.0
 40
2.0
 10
145.28686419504
 20
-176.1581478630329
 30
0.0
 10
145.2965976324229
 20
-176.154904071295
 30
0.0
 10
145.300919938515
 20
-176.1451737271652
 30
0.0
 10
145.2976782089456
 20
-176.1354433830353
 30
0.0
 10
145.2955170559002
 20
-176.1300374071668
 30
0.0
 10
145.2911865011321
 20
-176.1257130389055
 30
0.0
 10
145.28686419504
 20
-176.1235508547749
 30
0.0
  0
SPLINE
  5
19C
330
79
100
AcDbEntity
  8
Capa 1
 62
    18
420
        0
370
     9
100
AcDbSpline
210
0.0
220
0.0
230
1.0
 70
     8
 71
     3
 72
     8
 73
     4
 74
     0
 42
0.0000000001
 43
0.0000000001
 40
0.0
 40
0.0
 40
0.0
 40
0.0
 40
1.0
 40
1.0
 40
1.0
 40
1.0
 10
145.2803807359019
 20
-176.1149010871684
 30
0.0
 10
145.2803807359019
 20
-176.1192254554297
 30
0.0
 10
145.2825418889479
 20
-176.1224692471676
 30
0.0
 10
145.2857836185166
 20
-176.1235508547749
 30
0.0
  0
SPLINE
  5
19D
330
79
100
AcDbEntity
  8
Capa 1
 62
    18
420
        0
370
     9
100
AcDbSpline
210
0.0
220
0.0
230
1.0
 70
    24
 71
     3
 72
     8
 73
     4
 74
     0
 42
0.0000000001
 43
0.0000000001
 40
0.0
 40
0.0
 40
0.0
 40
0.0
 40
1.0
 40
1.0
 40
1.0
 40
1.0
 10
145.2803807359019
 20
-176.1149010871684
 30
0.0
 10
145.2803807359019
 20
-176.1149010871684
 30
0.0
 10
145.2803807359019
 20
-176.1019269513007
 30
0.0
 10
145.2803807359019
 20
-176.1019269513007
 30
0.0
  0
SPLINE
  5
19E
330
79
100
AcDbEntity
  8
Capa 1
 62
    18
420
        0
370
     9
100
AcDbSpline
210
0.0
220
0.0
230
1.0
 70
     8
 71
     3
 72
     8
 73
     4
 74
     0
 42
0.0000000001
 43
0.0000000001
 40
0.0
 40
0.0
 40
0.0
 40
0.0
 40
1.0
 40
1.0
 40
1.0
 40
1.0
 10
145.28686419504
 20
-176.0932782147781
 30
0.0
 10
145.2825418889479
 20
-176.0943587913015
 30
0.0
 10
145.2803807359019
 20
-176.0976025830394
 30
0.0
 10
145.2803807359019
 20
-176.1008463747774
 30
0.0
  0
SPLINE
  5
19F
330
79
100
AcDbEntity
  8
Capa 1
 62
    18
420
        0
370
     9
100
AcDbSpline
210
0.0
220
0.0
230
1.0
 70
     8
 71
     3
 72
    11
 73
     7
 74
     0
 42
0.0000000001
 43
0.0000000001
 40
0.0
 40
0.0
 40
0.0
 40
0.0
 40
1.0
 40
1.0
 40
1.0
 40
2.0
 40
2.0
 40
2.0
 40
2.0
 10
145.28686419504
 20
-176.0932782147781
 30
0.0
 10
145.2965976324229
 20
-176.0900344230402
 30
0.0
 10
145.300919938515
 20
-176.0792224713031
 30
0.0
 10
145.2976782089456
 20
-176.0694921271733
 30
0.0
 10
145.2955170559002
 20
-176.0640861513048
 30
0.0
 10
145.2911865011321
 20
-176.0597617830435
 30
0.0
 10
145.28686419504
 20
-176.0586801754362
 30
0.0
  0
SPLINE
  5
1A0
330
79
100
AcDbEntity
  8
Capa 1
 62
    18
420
        0
370
     9
100
AcDbSpline
210
0.0
220
0.0
230
1.0
 70
     8
 71
     3
 72
     8
 73
     4
 74
     0
 42
0.0000000001
 43
0.0000000001
 40
0.0
 40
0.0
 40
0.0
 40
0.0
 40
1.0
 40
1.0
 40
1.0
 40
1.0
 10
145.2803807359019
 20
-176.0489498313064
 30
0.0
 10
145.2803807359019
 20
-176.0532741995677
 30
0.0
 10
145.2825418889479
 20
-176.0565179913056
 30
0.0
 10
145.2857836185166
 20
-176.0575995989135
 30
0.0
  0
SPLINE
  5
1A1
330
79
100
AcDbEntity
  8
Capa 1
 62
    18
420
        0
370
     9
100
AcDbSpline
210
0.0
220
0.0
230
1.0
 70
    24
 71
     3
 72
     8
 73
     4
 74
     0
 42
0.0000000001
 43
0.0000000001
 40
0.0
 40
0.0
 40
0.0
 40
0.0
 40
1.0
 40
1.0
 40
1.0
 40
1.0
 10
145.2803807359019
 20
-176.0489498313064
 30
0.0
 10
145.2803807359019
 20
-176.0489498313064
 30
0.0
 10
145.2803807359019
 20
-176.0359756954387
 30
0.0
 10
145.2803807359019
 20
-176.0359756954387
 30
0.0
  0
SPLINE
  5
1A2
330
79
100
AcDbEntity
  8
Capa 1
 62
    18
420
        0
370
     9
100
AcDbSpline
210
0.0
220
0.0
230
1.0
 70
     8
 71
     3
 72
     8
 73
     4
 74
     0
 42
0.0000000001
 43
0.0000000001
 40
0.0
 40
0.0
 40
0.0
 40
0.0
 40
1.0
 40
1.0
 40
1.0
 40
1.0
 10
145.28686419504
 20
-176.0273259278322
 30
0.0
 10
145.2825418889479
 20
-176.0284075354395
 30
0.0
 10
145.2803807359019
 20
-176.0316513271774
 30
0.0
 10
145.2803807359019
 20
-176.034895118916
 30
0.0
  0
SPLINE
  5
1A3
330
79
100
AcDbEntity
  8
Capa 1
 62
    18
420
        0
370
     9
100
AcDbSpline
210
0.0
220
0.0
230
1.0
 70
     8
 71
     3
 72
    11
 73
     7
 74
     0
 42
0.0000000001
 43
0.0000000001
 40
0.0
 40
0.0
 40
0.0
 40
0.0
 40
1.0
 40
1.0
 40
1.0
 40
2.0
 40
2.0
 40
2.0
 40
2.0
 10
145.28686419504
 20
-176.0273259278322
 30
0.0
 10
145.2965976324229
 20
-176.0240831671782
 30
0.0
 10
145.300919938515
 20
-176.0132712154411
 30
0.0
 10
145.2976782089456
 20
-176.0035408713113
 30
0.0
 10
145.2955170559002
 20
-175.9981348954428
 30
0.0
 10
145.2911865011321
 20
-175.9938105271821
 30
0.0
 10
145.28686419504
 20
-175.9927289195742
 30
0.0
  0
SPLINE
  5
1A4
330
79
100
AcDbEntity
  8
Capa 1
 62
    18
420
        0
370
     9
100
AcDbSpline
210
0.0
220
0.0
230
1.0
 70
     8
 71
     3
 72
     8
 73
     4
 74
     0
 42
0.0000000001
 43
0.0000000001
 40
0.0
 40
0.0
 40
0.0
 40
0.0
 40
1.0
 40
1.0
 40
1.0
 40
1.0
 10
145.2803807359019
 20
-175.9840791519677
 30
0.0
 10
145.2803807359019
 20
-175.9873229437057
 30
0.0
 10
145.2825418889479
 20
-175.9905667354442
 30
0.0
 10
145.2857836185166
 20
-175.9916473119669
 30
0.0
  0
SPLINE
  5
1A5
330
79
100
AcDbEntity
  8
Capa 1
 62
    18
420
        0
370
     9
100
AcDbSpline
210
0.0
220
0.0
230
1.0
 70
    24
 71
     3
 72
     8
 73
     4
 74
     0
 42
0.0000000001
 43
0.0000000001
 40
0.0
 40
0.0
 40
0.0
 40
0.0
 40
1.0
 40
1.0
 40
1.0
 40
1.0
 10
145.2803807359019
 20
-175.9840791519677
 30
0.0
 10
145.2803807359019
 20
-175.9840791519677
 30
0.0
 10
145.2803807359019
 20
-175.9700244395773
 30
0.0
 10
145.2803807359019
 20
-175.9700244395773
 30
0.0
  0
SPLINE
  5
1A6
330
79
100
AcDbEntity
  8
Capa 1
 62
    18
420
        0
370
     9
100
AcDbSpline
210
0.0
220
0.0
230
1.0
 70
     8
 71
     3
 72
     8
 73
     4
 74
     0
 42
0.0000000001
 43
0.0000000001
 40
0.0
 40
0.0
 40
0.0
 40
0.0
 40
1.0
 40
1.0
 40
1.0
 40
1.0
 10
145.28686419504
 20
-175.9613746719702
 30
0.0
 10
145.2825418889479
 20
-175.9624562795775
 30
0.0
 10
145.2803807359019
 20
-175.965700071316
 30
0.0
 10
145.2803807359019
 20
-175.9700244395773
 30
0.0
  0
SPLINE
  5
1A7
330
79
100
AcDbEntity
  8
Capa 1
 62
    18
420
        0
370
     9
100
AcDbSpline
210
0.0
220
0.0
230
1.0
 70
     8
 71
     3
 72
    11
 73
     7
 74
     0
 42
0.0000000001
 43
0.0000000001
 40
0.0
 40
0.0
 40
0.0
 40
0.0
 40
1.0
 40
1.0
 40
1.0
 40
2.0
 40
2.0
 40
2.0
 40
2.0
 10
145.28686419504
 20
-175.9613746719702
 30
0.0
 10
145.2965976324229
 20
-175.9581319113169
 30
0.0
 10
145.300919938515
 20
-175.9473199595798
 30
0.0
 10
145.2976782089456
 20
-175.93758961545
 30
0.0
 10
145.2955170559002
 20
-175.9332642161041
 30
0.0
 10
145.2911865011321
 20
-175.9278582402356
 30
0.0
 10
145.28686419504
 20
-175.9267776637129
 30
0.0
  0
SPLINE
  5
1A8
330
79
100
AcDbEntity
  8
Capa 1
 62
    18
420
        0
370
     9
100
AcDbSpline
210
0.0
220
0.0
230
1.0
 70
     8
 71
     3
 72
     8
 73
     4
 74
     0
 42
0.0000000001
 43
0.0000000001
 40
0.0
 40
0.0
 40
0.0
 40
0.0
 40
1.0
 40
1.0
 40
1.0
 40
1.0
 10
145.2803807359019
 20
-175.9181278961057
 30
0.0
 10
145.2803807359019
 20
-175.9213716878443
 30
0.0
 10
145.2825418889479
 20
-175.9256960561049
 30
0.0
 10
145.2857836185166
 20
-175.9267776637129
 30
0.0
  0
SPLINE
  5
1A9
330
79
100
AcDbEntity
  8
Capa 1
 62
    18
420
        0
370
     9
100
AcDbSpline
210
0.0
220
0.0
230
1.0
 70
    24
 71
     3
 72
     8
 73
     4
 74
     0
 42
0.0000000001
 43
0.0000000001
 40
0.0
 40
0.0
 40
0.0
 40
0.0
 40
1.0
 40
1.0
 40
1.0
 40
1.0
 10
145.2803807359019
 20
-175.9181278961057
 30
0.0
 10
145.2803807359019
 20
-175.9181278961057
 30
0.0
 10
145.2803807359019
 20
-175.9040731837153
 30
0.0
 10
145.2803807359019
 20
-175.9040731837153
 30
0.0
  0
SPLINE
  5
1AA
330
79
100
AcDbEntity
  8
Capa 1
 62
    18
420
        0
370
     9
100
AcDbSpline
210
0.0
220
0.0
230
1.0
 70
     8
 71
     3
 72
     8
 73
     4
 74
     0
 42
0.0000000001
 43
0.0000000001
 40
0.0
 40
0.0
 40
0.0
 40
0.0
 40
1.0
 40
1.0
 40
1.0
 40
1.0
 10
145.28686419504
 20
-175.8954234161082
 30
0.0
 10
145.2825418889479
 20
-175.8965050237161
 30
0.0
 10
145.2803807359019
 20
-175.899748815454
 30
0.0
 10
145.2803807359019
 20
-175.9040731837153
 30
0.0
  0
SPLINE
  5
1AB
330
79
100
AcDbEntity
  8
Capa 1
 62
    18
420
        0
370
     9
100
AcDbSpline
210
0.0
220
0.0
230
1.0
 70
     8
 71
     3
 72
    11
 73
     7
 74
     0
 42
0.0000000001
 43
0.0000000001
 40
0.0
 40
0.0
 40
0.0
 40
0.0
 40
1.0
 40
1.0
 40
1.0
 40
2.0
 40
2.0
 40
2.0
 40
2.0
 10
145.28686419504
 20
-175.8954234161082
 30
0.0
 10
145.2965976324229
 20
-175.8921796243703
 30
0.0
 10
145.300919938515
 20
-175.8824492802411
 30
0.0
 10
145.2976782089456
 20
-175.8727189361113
 30
0.0
 10
145.2955170559002
 20
-175.8673129602428
 30
0.0
 10
145.2911865011321
 20
-175.8629885919815
 30
0.0
 10
145.28686419504
 20
-175.8608264078509
 30
0.0
  0
SPLINE
  5
1AC
330
79
100
AcDbEntity
  8
Capa 1
 62
    18
420
        0
370
     9
100
AcDbSpline
210
0.0
220
0.0
230
1.0
 70
     8
 71
     3
 72
     8
 73
     4
 74
     0
 42
0.0000000001
 43
0.0000000001
 40
0.0
 40
0.0
 40
0.0
 40
0.0
 40
1.0
 40
1.0
 40
1.0
 40
1.0
 10
145.2803807359019
 20
-175.8521766402444
 30
0.0
 10
145.2803807359019
 20
-175.856501008505
 30
0.0
 10
145.2825418889479
 20
-175.8597448002436
 30
0.0
 10
145.2857836185166
 20
-175.8608264078509
 30
0.0
  0
SPLINE
  5
1AD
330
79
100
AcDbEntity
  8
Capa 1
 62
    18
420
        0
370
     9
100
AcDbSpline
210
0.0
220
0.0
230
1.0
 70
    24
 71
     3
 72
     8
 73
     4
 74
     0
 42
0.0000000001
 43
0.0000000001
 40
0.0
 40
0.0
 40
0.0
 40
0.0
 40
1.0
 40
1.0
 40
1.0
 40
1.0
 10
145.2803807359019
 20
-175.8521766402444
 30
0.0
 10
145.2803807359019
 20
-175.8521766402444
 30
0.0
 10
145.2803807359019
 20
-175.8392025043766
 30
0.0
 10
145.2803807359019
 20
-175.8392025043766
 30
0.0
  0
SPLINE
  5
1AE
330
79
100
AcDbEntity
  8
Capa 1
 62
    18
420
        0
370
     9
100
AcDbSpline
210
0.0
220
0.0
230
1.0
 70
     8
 71
     3
 72
     8
 73
     4
 74
     0
 42
0.0000000001
 43
0.0000000001
 40
0.0
 40
0.0
 40
0.0
 40
0.0
 40
1.0
 40
1.0
 40
1.0
 40
1.0
 10
145.28686419504
 20
-175.8294721602468
 30
0.0
 10
145.2825418889479
 20
-175.8316343443774
 30
0.0
 10
145.2803807359019
 20
-175.8348781361154
 30
0.0
 10
145.2803807359019
 20
-175.8381219278533
 30
0.0
  0
SPLINE
  5
1AF
330
79
100
AcDbEntity
  8
Capa 1
 62
    18
420
        0
370
     9
100
AcDbSpline
210
0.0
220
0.0
230
1.0
 70
     8
 71
     3
 72
    11
 73
     7
 74
     0
 42
0.0000000001
 43
0.0000000001
 40
0.0
 40
0.0
 40
0.0
 40
0.0
 40
1.0
 40
1.0
 40
1.0
 40
2.0
 40
2.0
 40
2.0
 40
2.0
 10
145.28686419504
 20
-175.8294721602468
 30
0.0
 10
145.2965976324229
 20
-175.8262283685089
 30
0.0
 10
145.300919938515
 20
-175.8164980243791
 30
0.0
 10
145.2976782089456
 20
-175.8067676802493
 30
0.0
 10
145.2955170559002
 20
-175.8013617043807
 30
0.0
 10
145.2911865011321
 20
-175.7970373361195
 30
0.0
 10
145.28686419504
 20
-175.7959557285122
 30
0.0
  0
SPLINE
  5
1B0
330
79
100
AcDbEntity
  8
Capa 1
 62
    18
420
        0
370
     9
100
AcDbSpline
210
0.0
220
0.0
230
1.0
 70
     8
 71
     3
 72
     8
 73
     4
 74
     0
 42
0.0000000001
 43
0.0000000001
 40
0.0
 40
0.0
 40
0.0
 40
0.0
 40
1.0
 40
1.0
 40
1.0
 40
1.0
 10
145.2803807359019
 20
-175.7862253843824
 30
0.0
 10
145.2803807359019
 20
-175.7905497526436
 30
0.0
 10
145.2825418889479
 20
-175.7937935443816
 30
0.0
 10
145.2857836185166
 20
-175.7948751519888
 30
0.0
  0
SPLINE
  5
1B1
330
79
100
AcDbEntity
  8
Capa 1
 62
    18
420
        0
370
     9
100
AcDbSpline
210
0.0
220
0.0
230
1.0
 70
    24
 71
     3
 72
     8
 73
     4
 74
     0
 42
0.0000000001
 43
0.0000000001
 40
0.0
 40
0.0
 40
0.0
 40
0.0
 40
1.0
 40
1.0
 40
1.0
 40
1.0
 10
145.2803807359019
 20
-175.7862253843824
 30
0.0
 10
145.2803807359019
 20
-175.7862253843824
 30
0.0
 10
145.2803807359019
 20
-175.7732512485146
 30
0.0
 10
145.2803807359019
 20
-175.7732512485146
 30
0.0
  0
SPLINE
  5
1B2
330
79
100
AcDbEntity
  8
Capa 1
 62
    18
420
        0
370
     9
100
AcDbSpline
210
0.0
220
0.0
230
1.0
 70
     8
 71
     3
 72
     8
 73
     4
 74
     0
 42
0.0000000001
 43
0.0000000001
 40
0.0
 40
0.0
 40
0.0
 40
0.0
 40
1.0
 40
1.0
 40
1.0
 40
1.0
 10
145.28686419504
 20
-175.7646025119928
 30
0.0
 10
145.2825418889479
 20
-175.7656830885155
 30
0.0
 10
145.2803807359019
 20
-175.7689268802534
 30
0.0
 10
145.2803807359019
 20
-175.7721706719913
 30
0.0
  0
SPLINE
  5
1B3
330
79
100
AcDbEntity
  8
Capa 1
 62
    18
420
        0
370
     9
100
AcDbSpline
210
0.0
220
0.0
230
1.0
 70
     8
 71
     3
 72
    11
 73
     7
 74
     0
 42
0.0000000001
 43
0.0000000001
 40
0.0
 40
0.0
 40
0.0
 40
0.0
 40
1.0
 40
1.0
 40
1.0
 40
2.0
 40
2.0
 40
2.0
 40
2.0
 10
145.28686419504
 20
-175.7646025119928
 30
0.0
 10
145.2965976324229
 20
-175.7613587202542
 30
0.0
 10
145.300919938515
 20
-175.7505467685171
 30
0.0
 10
145.2976782089456
 20
-175.7408164243873
 30
0.0
 10
145.2955170559002
 20
-175.7354104485187
 30
0.0
 10
145.2911865011321
 20
-175.7310860802575
 30
0.0
 10
145.28686419504
 20
-175.7300044726502
 30
0.0
  0
SPLINE
  5
1B4
330
79
100
AcDbEntity
  8
Capa 1
 62
    18
420
        0
370
     9
100
AcDbSpline
210
0.0
220
0.0
230
1.0
 70
     8
 71
     3
 72
     8
 73
     4
 74
     0
 42
0.0000000001
 43
0.0000000001
 40
0.0
 40
0.0
 40
0.0
 40
0.0
 40
1.0
 40
1.0
 40
1.0
 40
1.0
 10
145.2803807359019
 20
-175.7213557361283
 30
0.0
 10
145.2803807359019
 20
-175.7245984967816
 30
0.0
 10
145.2825418889479
 20
-175.7278422885196
 30
0.0
 10
145.2857836185166
 20
-175.7300044726502
 30
0.0
  0
SPLINE
  5
1B5
330
79
100
AcDbEntity
  8
Capa 1
 62
    18
420
        0
370
     9
100
AcDbSpline
210
0.0
220
0.0
230
1.0
 70
    24
 71
     3
 72
     8
 73
     4
 74
     0
 42
0.0000000001
 43
0.0000000001
 40
0.0
 40
0.0
 40
0.0
 40
0.0
 40
1.0
 40
1.0
 40
1.0
 40
1.0
 10
145.2803807359019
 20
-175.7213557361283
 30
0.0
 10
145.2803807359019
 20
-175.7213557361283
 30
0.0
 10
145.2803807359019
 20
-175.7072999926526
 30
0.0
 10
145.2803807359019
 20
-175.7072999926526
 30
0.0
  0
SPLINE
  5
1B6
330
79
100
AcDbEntity
  8
Capa 1
 62
    18
420
        0
370
     9
100
AcDbSpline
210
0.0
220
0.0
230
1.0
 70
     8
 71
     3
 72
     8
 73
     4
 74
     0
 42
0.0000000001
 43
0.0000000001
 40
0.0
 40
0.0
 40
0.0
 40
0.0
 40
1.0
 40
1.0
 40
1.0
 40
1.0
 10
145.28686419504
 20
-175.6986502250462
 30
0.0
 10
145.2825418889479
 20
-175.6997318326535
 30
0.0
 10
145.2803807359019
 20
-175.702975624392
 30
0.0
 10
145.2803807359019
 20
-175.7072999926526
 30
0.0
  0
SPLINE
  5
1B7
330
79
100
AcDbEntity
  8
Capa 1
 62
    18
420
        0
370
     9
100
AcDbSpline
210
0.0
220
0.0
230
1.0
 70
     8
 71
     3
 72
    11
 73
     7
 74
     0
 42
0.0000000001
 43
0.0000000001
 40
0.0
 40
0.0
 40
0.0
 40
0.0
 40
1.0
 40
1.0
 40
1.0
 40
2.0
 40
2.0
 40
2.0
 40
2.0
 10
145.28686419504
 20
-175.6986502250462
 30
0.0
 10
145.2965976324229
 20
-175.6954074643928
 30
0.0
 10
145.300919938515
 20
-175.6845955126551
 30
0.0
 10
145.2976782089456
 20
-175.6748651685259
 30
0.0
 10
145.2955170559002
 20
-175.6705397691801
 30
0.0
 10
145.2911865011321
 20
-175.6651348243961
 30
0.0
 10
145.28686419504
 20
-175.6640532167882
 30
0.0
  0
SPLINE
  5
1B8
330
79
100
AcDbEntity
  8
Capa 1
 62
    18
420
        0
370
     9
100
AcDbSpline
210
0.0
220
0.0
230
1.0
 70
     8
 71
     3
 72
     8
 73
     4
 74
     0
 42
0.0000000001
 43
0.0000000001
 40
0.0
 40
0.0
 40
0.0
 40
0.0
 40
1.0
 40
1.0
 40
1.0
 40
1.0
 10
145.2803807359019
 20
-175.6554034491817
 30
0.0
 10
145.2803807359019
 20
-175.6597288485276
 30
0.0
 10
145.2825418889479
 20
-175.6618910326582
 30
0.0
 10
145.2857836185166
 20
-175.6640532167882
 30
0.0
  0
SPLINE
  5
1B9
330
79
100
AcDbEntity
  8
Capa 1
 62
    18
420
        0
370
     9
100
AcDbSpline
210
0.0
220
0.0
230
1.0
 70
    24
 71
     3
 72
     8
 73
     4
 74
     0
 42
0.0000000001
 43
0.0000000001
 40
0.0
 40
0.0
 40
0.0
 40
0.0
 40
1.0
 40
1.0
 40
1.0
 40
1.0
 10
145.2803807359019
 20
-175.6554034491817
 30
0.0
 10
145.2803807359019
 20
-175.6554034491817
 30
0.0
 10
145.2803807359019
 20
-175.6413487367913
 30
0.0
 10
145.2803807359019
 20
-175.6413487367913
 30
0.0
  0
SPLINE
  5
1BA
330
79
100
AcDbEntity
  8
Capa 1
 62
    18
420
        0
370
     9
100
AcDbSpline
210
0.0
220
0.0
230
1.0
 70
     8
 71
     3
 72
     8
 73
     4
 74
     0
 42
0.0000000001
 43
0.0000000001
 40
0.0
 40
0.0
 40
0.0
 40
0.0
 40
1.0
 40
1.0
 40
1.0
 40
1.0
 10
145.28686419504
 20
-175.6326989691842
 30
0.0
 10
145.2825418889479
 20
-175.6337805767921
 30
0.0
 10
145.2803807359019
 20
-175.63702436853
 30
0.0
 10
145.2803807359019
 20
-175.6413487367913
 30
0.0
  0
SPLINE
  5
1BB
330
79
100
AcDbEntity
  8
Capa 1
 62
    18
420
        0
370
     9
100
AcDbSpline
210
0.0
220
0.0
230
1.0
 70
     8
 71
     3
 72
    11
 73
     7
 74
     0
 42
0.0000000001
 43
0.0000000001
 40
0.0
 40
0.0
 40
0.0
 40
0.0
 40
1.0
 40
1.0
 40
1.0
 40
2.0
 40
2.0
 40
2.0
 40
2.0
 10
145.28686419504
 20
-175.6326989691842
 30
0.0
 10
145.2965976324229
 20
-175.6294562085308
 30
0.0
 10
145.300919938515
 20
-175.6197248333164
 30
0.0
 10
145.2976782089456
 20
-175.6099944891873
 30
0.0
 10
145.2955170559002
 20
-175.6045885133181
 30
0.0
 10
145.2911865011321
 20
-175.6002641450575
 30
0.0
 10
145.28686419504
 20
-175.5991825374495
 30
0.0
  0
SPLINE
  5
1BC
330
79
100
AcDbEntity
  8
Capa 1
 62
    18
420
        0
370
     9
100
AcDbSpline
210
0.0
220
0.0
230
1.0
 70
     8
 71
     3
 72
     8
 73
     4
 74
     0
 42
0.0000000001
 43
0.0000000001
 40
0.0
 40
0.0
 40
0.0
 40
0.0
 40
1.0
 40
1.0
 40
1.0
 40
1.0
 10
145.2803807359019
 20
-175.5894521933204
 30
0.0
 10
145.2803807359019
 20
-175.5937775926656
 30
0.0
 10
145.2825418889479
 20
-175.5970203533189
 30
0.0
 10
145.2857836185166
 20
-175.5981019609268
 30
0.0
  0
SPLINE
  5
1BD
330
79
100
AcDbEntity
  8
Capa 1
 62
    18
420
        0
370
     9
100
AcDbSpline
210
0.0
220
0.0
230
1.0
 70
    24
 71
     3
 72
     8
 73
     4
 74
     0
 42
0.0000000001
 43
0.0000000001
 40
0.0
 40
0.0
 40
0.0
 40
0.0
 40
1.0
 40
1.0
 40
1.0
 40
1.0
 10
145.2803807359019
 20
-175.5894521933204
 30
0.0
 10
145.2803807359019
 20
-175.5894521933204
 30
0.0
 10
145.2803807359019
 20
-175.576478057452
 30
0.0
 10
145.2803807359019
 20
-175.576478057452
 30
0.0
  0
SPLINE
  5
1BE
330
79
100
AcDbEntity
  8
Capa 1
 62
    18
420
        0
370
     9
100
AcDbSpline
210
0.0
220
0.0
230
1.0
 70
     8
 71
     3
 72
     8
 73
     4
 74
     0
 42
0.0000000001
 43
0.0000000001
 40
0.0
 40
0.0
 40
0.0
 40
0.0
 40
1.0
 40
1.0
 40
1.0
 40
1.0
 10
145.28686419504
 20
-175.5678293209301
 30
0.0
 10
145.2825418889479
 20
-175.5689098974534
 30
0.0
 10
145.2803807359019
 20
-175.5721536891913
 30
0.0
 10
145.2803807359019
 20
-175.5753974809293
 30
0.0
  0
SPLINE
  5
1BF
330
79
100
AcDbEntity
  8
Capa 1
 62
    18
420
        0
370
     9
100
AcDbSpline
210
0.0
220
0.0
230
1.0
 70
     8
 71
     3
 72
    11
 73
     7
 74
     0
 42
0.0000000001
 43
0.0000000001
 40
0.0
 40
0.0
 40
0.0
 40
0.0
 40
1.0
 40
1.0
 40
1.0
 40
2.0
 40
2.0
 40
2.0
 40
2.0
 10
145.28686419504
 20
-175.5678293209301
 30
0.0
 10
145.2965976324229
 20
-175.5635039215849
 30
0.0
 10
145.300919938515
 20
-175.5537735774551
 30
0.0
 10
145.2976782089456
 20
-175.5440432333253
 30
0.0
 10
145.2955170559002
 20
-175.5386372574567
 30
0.0
 10
145.2911865011321
 20
-175.5343128891954
 30
0.0
 10
145.28686419504
 20
-175.5332312815881
 30
0.0
  0
SPLINE
  5
1C0
330
79
100
AcDbEntity
  8
Capa 1
 62
    18
420
        0
370
     9
100
AcDbSpline
210
0.0
220
0.0
230
1.0
 70
     8
 71
     3
 72
     8
 73
     4
 74
     0
 42
0.0000000001
 43
0.0000000001
 40
0.0
 40
0.0
 40
0.0
 40
0.0
 40
1.0
 40
1.0
 40
1.0
 40
1.0
 10
145.2803807359019
 20
-175.5235009374584
 30
0.0
 10
145.2803807359019
 20
-175.5278253057196
 30
0.0
 10
145.2825418889479
 20
-175.5310690974575
 30
0.0
 10
145.2857836185166
 20
-175.5321507050648
 30
0.0
  0
SPLINE
  5
1C1
330
79
100
AcDbEntity
  8
Capa 1
 62
    18
420
        0
370
     9
100
AcDbSpline
210
0.0
220
0.0
230
1.0
 70
    24
 71
     3
 72
     8
 73
     4
 74
     0
 42
0.0000000001
 43
0.0000000001
 40
0.0
 40
0.0
 40
0.0
 40
0.0
 40
1.0
 40
1.0
 40
1.0
 40
1.0
 10
145.2803807359019
 20
-175.5235009374584
 30
0.0
 10
145.2803807359019
 20
-175.5235009374584
 30
0.0
 10
145.2803807359019
 20
-175.5105268015906
 30
0.0
 10
145.2803807359019
 20
-175.5105268015906
 30
0.0
  0
SPLINE
  5
1C2
330
79
100
AcDbEntity
  8
Capa 1
 62
    18
420
        0
370
     9
100
AcDbSpline
210
0.0
220
0.0
230
1.0
 70
     8
 71
     3
 72
     8
 73
     4
 74
     0
 42
0.0000000001
 43
0.0000000001
 40
0.0
 40
0.0
 40
0.0
 40
0.0
 40
1.0
 40
1.0
 40
1.0
 40
1.0
 10
145.28686419504
 20
-175.5018780650681
 30
0.0
 10
145.2825418889479
 20
-175.5029586415914
 30
0.0
 10
145.2803807359019
 20
-175.5062024333293
 30
0.0
 10
145.2803807359019
 20
-175.5105268015906
 30
0.0
  0
SPLINE
  5
1C3
330
79
100
AcDbEntity
  8
Capa 1
 62
    18
420
        0
370
     9
100
AcDbSpline
210
0.0
220
0.0
230
1.0
 70
     8
 71
     3
 72
    11
 73
     7
 74
     0
 42
0.0000000001
 43
0.0000000001
 40
0.0
 40
0.0
 40
0.0
 40
0.0
 40
1.0
 40
1.0
 40
1.0
 40
2.0
 40
2.0
 40
2.0
 40
2.0
 10
145.28686419504
 20
-175.5018780650681
 30
0.0
 10
145.2965976324229
 20
-175.4986342733302
 30
0.0
 10
145.300919938515
 20
-175.487822321593
 30
0.0
 10
145.2976782089456
 20
-175.4780919774632
 30
0.0
 10
145.2955170559002
 20
-175.4726860015947
 30
0.0
 10
145.2911865011321
 20
-175.4683616333335
 30
0.0
 10
145.28686419504
 20
-175.4672800257262
 30
0.0
  0
SPLINE
  5
1C4
330
79
100
AcDbEntity
  8
Capa 1
 62
    18
420
        0
370
     9
100
AcDbSpline
210
0.0
220
0.0
230
1.0
 70
     8
 71
     3
 72
     8
 73
     4
 74
     0
 42
0.0000000001
 43
0.0000000001
 40
0.0
 40
0.0
 40
0.0
 40
0.0
 40
1.0
 40
1.0
 40
1.0
 40
1.0
 10
145.2803807359019
 20
-175.4586312892036
 30
0.0
 10
145.2803807359019
 20
-175.4618740498576
 30
0.0
 10
145.2825418889479
 20
-175.4651178415955
 30
0.0
 10
145.2857836185166
 20
-175.4661994492034
 30
0.0
  0
SPLINE
  5
1C5
330
79
100
AcDbEntity
  8
Capa 1
 62
    18
420
        0
370
     9
100
AcDbSpline
210
0.0
220
0.0
230
1.0
 70
    24
 71
     3
 72
     8
 73
     4
 74
     0
 42
0.0000000001
 43
0.0000000001
 40
0.0
 40
0.0
 40
0.0
 40
0.0
 40
1.0
 40
1.0
 40
1.0
 40
1.0
 10
145.2803807359019
 20
-175.4586312892036
 30
0.0
 10
145.2803807359019
 20
-175.4586312892036
 30
0.0
 10
145.2803807359019
 20
-175.4445755457286
 30
0.0
 10
145.2803807359019
 20
-175.4445755457286
 30
0.0
  0
SPLINE
  5
1C6
330
79
100
AcDbEntity
  8
Capa 1
 62
    18
420
        0
370
     9
100
AcDbSpline
210
0.0
220
0.0
230
1.0
 70
     8
 71
     3
 72
     8
 73
     4
 74
     0
 42
0.0000000001
 43
0.0000000001
 40
0.0
 40
0.0
 40
0.0
 40
0.0
 40
1.0
 40
1.0
 40
1.0
 40
1.0
 10
145.28686419504
 20
-175.4359257781221
 30
0.0
 10
145.2825418889479
 20
-175.4370073857294
 30
0.0
 10
145.2803807359019
 20
-175.4402511774673
 30
0.0
 10
145.2803807359019
 20
-175.4445755457286
 30
0.0
  0
SPLINE
  5
1C7
330
79
100
AcDbEntity
  8
Capa 1
 62
    18
420
        0
370
     9
100
AcDbSpline
210
0.0
220
0.0
230
1.0
 70
     8
 71
     3
 72
    11
 73
     7
 74
     0
 42
0.0000000001
 43
0.0000000001
 40
0.0
 40
0.0
 40
0.0
 40
0.0
 40
1.0
 40
1.0
 40
1.0
 40
2.0
 40
2.0
 40
2.0
 40
2.0
 10
145.28686419504
 20
-175.4359257781221
 30
0.0
 10
145.2965976324229
 20
-175.4326830174681
 30
0.0
 10
145.300919938515
 20
-175.422952673339
 30
0.0
 10
145.2976782089456
 20
-175.4132212981246
 30
0.0
 10
145.2955170559002
 20
-175.407815322256
 30
0.0
 10
145.2911865011321
 20
-175.4034909539948
 30
0.0
 10
145.28686419504
 20
-175.4013287698641
 30
0.0
  0
SPLINE
  5
1C8
330
79
100
AcDbEntity
  8
Capa 1
 62
    18
420
        0
370
     9
100
AcDbSpline
210
0.0
220
0.0
230
1.0
 70
     8
 71
     3
 72
     8
 73
     4
 74
     0
 42
0.0000000001
 43
0.0000000001
 40
0.0
 40
0.0
 40
0.0
 40
0.0
 40
1.0
 40
1.0
 40
1.0
 40
1.0
 10
145.2803807359019
 20
-175.3926790022577
 30
0.0
 10
145.2803807359019
 20
-175.3959227939956
 30
0.0
 10
145.2825418889479
 20
-175.4002471622569
 30
0.0
 10
145.2857836185166
 20
-175.4013287698641
 30
0.0
  0
SPLINE
  5
1C9
330
79
100
AcDbEntity
  8
Capa 1
 62
    18
420
        0
370
     9
100
AcDbSpline
210
0.0
220
0.0
230
1.0
 70
    24
 71
     3
 72
     8
 73
     4
 74
     0
 42
0.0000000001
 43
0.0000000001
 40
0.0
 40
0.0
 40
0.0
 40
0.0
 40
1.0
 40
1.0
 40
1.0
 40
1.0
 10
145.2803807359019
 20
-175.3926790022577
 30
0.0
 10
145.2803807359019
 20
-175.3926790022577
 30
0.0
 10
145.2803807359019
 20
-175.3786242898673
 30
0.0
 10
145.2803807359019
 20
-175.3786242898673
 30
0.0
  0
SPLINE
  5
1CA
330
79
100
AcDbEntity
  8
Capa 1
 62
    18
420
        0
370
     9
100
AcDbSpline
210
0.0
220
0.0
230
1.0
 70
     8
 71
     3
 72
     8
 73
     4
 74
     0
 42
0.0000000001
 43
0.0000000001
 40
0.0
 40
0.0
 40
0.0
 40
0.0
 40
1.0
 40
1.0
 40
1.0
 40
1.0
 10
145.28686419504
 20
-175.3699745222601
 30
0.0
 10
145.2825418889479
 20
-175.3721367063908
 30
0.0
 10
145.2803807359019
 20
-175.3753804981287
 30
0.0
 10
145.2803807359019
 20
-175.3786242898673
 30
0.0
  0
SPLINE
  5
1CB
330
79
100
AcDbEntity
  8
Capa 1
 62
    18
420
        0
370
     9
100
AcDbSpline
210
0.0
220
0.0
230
1.0
 70
     8
 71
     3
 72
    11
 73
     7
 74
     0
 42
0.0000000001
 43
0.0000000001
 40
0.0
 40
0.0
 40
0.0
 40
0.0
 40
1.0
 40
1.0
 40
1.0
 40
2.0
 40
2.0
 40
2.0
 40
2.0
 10
145.28686419504
 20
-175.3699745222601
 30
0.0
 10
145.2965976324229
 20
-175.3667317616068
 30
0.0
 10
145.300919938515
 20
-175.3570003863924
 30
0.0
 10
145.2976782089456
 20
-175.3472700422626
 30
0.0
 10
145.2955170559002
 20
-175.341864066394
 30
0.0
 10
145.2911865011321
 20
-175.3375396981334
 30
0.0
 10
145.28686419504
 20
-175.3353775140028
 30
0.0
  0
SPLINE
  5
1CC
330
79
100
AcDbEntity
  8
Capa 1
 62
    18
420
        0
370
     9
100
AcDbSpline
210
0.0
220
0.0
230
1.0
 70
     8
 71
     3
 72
     8
 73
     4
 74
     0
 42
0.0000000001
 43
0.0000000001
 40
0.0
 40
0.0
 40
0.0
 40
0.0
 40
1.0
 40
1.0
 40
1.0
 40
1.0
 10
145.2803807359019
 20
-175.3267277463957
 30
0.0
 10
145.2803807359019
 20
-175.3310531457415
 30
0.0
 10
145.2825418889479
 20
-175.3342959063949
 30
0.0
 10
145.2857836185166
 20
-175.3353775140028
 30
0.0
  0
SPLINE
  5
1CD
330
79
100
AcDbEntity
  8
Capa 1
 62
    18
420
        0
370
     9
100
AcDbSpline
210
0.0
220
0.0
230
1.0
 70
    24
 71
     3
 72
     8
 73
     4
 74
     0
 42
0.0000000001
 43
0.0000000001
 40
0.0
 40
0.0
 40
0.0
 40
0.0
 40
1.0
 40
1.0
 40
1.0
 40
1.0
 10
145.2803807359019
 20
-175.3267277463957
 30
0.0
 10
145.2803807359019
 20
-175.3267277463957
 30
0.0
 10
145.2803807359019
 20
-175.3137536105279
 30
0.0
 10
145.2803807359019
 20
-175.3137536105279
 30
0.0
  0
SPLINE
  5
1CE
330
79
100
AcDbEntity
  8
Capa 1
 62
    18
420
        0
370
     9
100
AcDbSpline
210
0.0
220
0.0
230
1.0
 70
     8
 71
     3
 72
     8
 73
     4
 74
     0
 42
0.0000000001
 43
0.0000000001
 40
0.0
 40
0.0
 40
0.0
 40
0.0
 40
1.0
 40
1.0
 40
1.0
 40
1.0
 10
145.28686419504
 20
-175.3051048740061
 30
0.0
 10
145.2825418889479
 20
-175.3061854505288
 30
0.0
 10
145.2803807359019
 20
-175.3094292422673
 30
0.0
 10
145.2803807359019
 20
-175.3126730340052
 30
0.0
  0
SPLINE
  5
1CF
330
79
100
AcDbEntity
  8
Capa 1
 62
    18
420
        0
370
     9
100
AcDbSpline
210
0.0
220
0.0
230
1.0
 70
     8
 71
     3
 72
    11
 73
     7
 74
     0
 42
0.0000000001
 43
0.0000000001
 40
0.0
 40
0.0
 40
0.0
 40
0.0
 40
1.0
 40
1.0
 40
1.0
 40
2.0
 40
2.0
 40
2.0
 40
2.0
 10
145.28686419504
 20
-175.3051048740061
 30
0.0
 10
145.2965976324229
 20
-175.3018610822681
 30
0.0
 10
145.300919938515
 20
-175.291049130531
 30
0.0
 10
145.2976782089456
 20
-175.2813187864012
 30
0.0
 10
145.2955170559002
 20
-175.2759128105327
 30
0.0
 10
145.2911865011321
 20
-175.2715884422714
 30
0.0
 10
145.28686419504
 20
-175.2705068346641
 30
0.0
  0
SPLINE
  5
1D0
330
79
100
AcDbEntity
  8
Capa 1
 62
    18
420
        0
370
     9
100
AcDbSpline
210
0.0
220
0.0
230
1.0
 70
     8
 71
     3
 72
     8
 73
     4
 74
     0
 42
0.0000000001
 43
0.0000000001
 40
0.0
 40
0.0
 40
0.0
 40
0.0
 40
1.0
 40
1.0
 40
1.0
 40
1.0
 10
145.2803807359019
 20
-175.2607764905343
 30
0.0
 10
145.2803807359019
 20
-175.2651008587949
 30
0.0
 10
145.2825418889479
 20
-175.2683446505335
 30
0.0
 10
145.2857836185166
 20
-175.2694262581408
 30
0.0
  0
SPLINE
  5
1D1
330
79
100
AcDbEntity
  8
Capa 1
 62
    18
420
        0
370
     9
100
AcDbSpline
210
0.0
220
0.0
230
1.0
 70
    24
 71
     3
 72
     8
 73
     4
 74
     0
 42
0.0000000001
 43
0.0000000001
 40
0.0
 40
0.0
 40
0.0
 40
0.0
 40
1.0
 40
1.0
 40
1.0
 40
1.0
 10
145.2803807359019
 20
-175.2607764905343
 30
0.0
 10
145.2803807359019
 20
-175.2607764905343
 30
0.0
 10
145.2803807359019
 20
-175.2478023546666
 30
0.0
 10
145.2803807359019
 20
-175.2478023546666
 30
0.0
  0
SPLINE
  5
1D2
330
79
100
AcDbEntity
  8
Capa 1
 62
    18
420
        0
370
     9
100
AcDbSpline
210
0.0
220
0.0
230
1.0
 70
     8
 71
     3
 72
     8
 73
     4
 74
     0
 42
0.0000000001
 43
0.0000000001
 40
0.0
 40
0.0
 40
0.0
 40
0.0
 40
1.0
 40
1.0
 40
1.0
 40
1.0
 10
145.28686419504
 20
-175.239153618144
 30
0.0
 10
145.2825418889479
 20
-175.2402341946674
 30
0.0
 10
145.2803807359019
 20
-175.2434779864053
 30
0.0
 10
145.2803807359019
 20
-175.2478023546666
 30
0.0
  0
SPLINE
  5
1D3
330
79
100
AcDbEntity
  8
Capa 1
 62
    18
420
        0
370
     9
100
AcDbSpline
210
0.0
220
0.0
230
1.0
 70
     8
 71
     3
 72
    11
 73
     7
 74
     0
 42
0.0000000001
 43
0.0000000001
 40
0.0
 40
0.0
 40
0.0
 40
0.0
 40
1.0
 40
1.0
 40
1.0
 40
2.0
 40
2.0
 40
2.0
 40
2.0
 10
145.28686419504
 20
-175.239153618144
 30
0.0
 10
145.2965976324229
 20
-175.2359098264061
 30
0.0
 10
145.300919938515
 20
-175.225097874669
 30
0.0
 10
145.2976782089456
 20
-175.2153675305392
 30
0.0
 10
145.2955170559002
 20
-175.2099615546707
 30
0.0
 10
145.2911865011321
 20
-175.2056371864094
 30
0.0
 10
145.28686419504
 20
-175.2045555788021
 30
0.0
  0
SPLINE
  5
1D4
330
79
100
AcDbEntity
  8
Capa 1
 62
    18
420
        0
370
     9
100
AcDbSpline
210
0.0
220
0.0
230
1.0
 70
     8
 71
     3
 72
     8
 73
     4
 74
     0
 42
0.0000000001
 43
0.0000000001
 40
0.0
 40
0.0
 40
0.0
 40
0.0
 40
1.0
 40
1.0
 40
1.0
 40
1.0
 10
145.2803807359019
 20
-175.1959068422796
 30
0.0
 10
145.2803807359019
 20
-175.1991496029336
 30
0.0
 10
145.2825418889479
 20
-175.2023933946715
 30
0.0
 10
145.2857836185166
 20
-175.2034750022788
 30
0.0
  0
SPLINE
  5
1D5
330
79
100
AcDbEntity
  8
Capa 1
 62
    18
420
        0
370
     9
100
AcDbSpline
210
0.0
220
0.0
230
1.0
 70
    24
 71
     3
 72
     8
 73
     4
 74
     0
 42
0.0000000001
 43
0.0000000001
 40
0.0
 40
0.0
 40
0.0
 40
0.0
 40
1.0
 40
1.0
 40
1.0
 40
1.0
 10
145.2803807359019
 20
-175.1959068422796
 30
0.0
 10
145.2803807359019
 20
-175.1959068422796
 30
0.0
 10
145.2803807359019
 20
-175.1818510988046
 30
0.0
 10
145.2803807359019
 20
-175.1818510988046
 30
0.0
  0
SPLINE
  5
1D6
330
79
100
AcDbEntity
  8
Capa 1
 62
    18
420
        0
370
     9
100
AcDbSpline
210
0.0
220
0.0
230
1.0
 70
     8
 71
     3
 72
     8
 73
     4
 74
     0
 42
0.0000000001
 43
0.0000000001
 40
0.0
 40
0.0
 40
0.0
 40
0.0
 40
1.0
 40
1.0
 40
1.0
 40
1.0
 10
145.28686419504
 20
-175.1732023622827
 30
0.0
 10
145.2825418889479
 20
-175.1742829388054
 30
0.0
 10
145.2803807359019
 20
-175.1775267305433
 30
0.0
 10
145.2803807359019
 20
-175.1818510988046
 30
0.0
  0
SPLINE
  5
1D7
330
79
100
AcDbEntity
  8
Capa 1
 62
    18
420
        0
370
     9
100
AcDbSpline
210
0.0
220
0.0
230
1.0
 70
     8
 71
     3
 72
    11
 73
     7
 74
     0
 42
0.0000000001
 43
0.0000000001
 40
0.0
 40
0.0
 40
0.0
 40
0.0
 40
1.0
 40
1.0
 40
1.0
 40
2.0
 40
2.0
 40
2.0
 40
2.0
 10
145.28686419504
 20
-175.1732023622827
 30
0.0
 10
145.2965976324229
 20
-175.1699585705441
 30
0.0
 10
145.300919938515
 20
-175.159146618807
 30
0.0
 10
145.2976782089456
 20
-175.1494162746772
 30
0.0
 10
145.2955170559002
 20
-175.1450919064166
 30
0.0
 10
145.2911865011321
 20
-175.1396859305474
 30
0.0
 10
145.28686419504
 20
-175.1386043229401
 30
0.0
  0
SPLINE
  5
1D8
330
79
100
AcDbEntity
  8
Capa 1
 62
    18
420
        0
370
     9
100
AcDbSpline
210
0.0
220
0.0
230
1.0
 70
     8
 71
     3
 72
     8
 73
     4
 74
     0
 42
0.0000000001
 43
0.0000000001
 40
0.0
 40
0.0
 40
0.0
 40
0.0
 40
1.0
 40
1.0
 40
1.0
 40
1.0
 10
145.2803807359019
 20
-175.1299545553336
 30
0.0
 10
145.2803807359019
 20
-175.1342799546788
 30
0.0
 10
145.2825418889479
 20
-175.1375227153328
 30
0.0
 10
145.2857836185166
 20
-175.1386043229401
 30
0.0
  0
SPLINE
  5
1D9
330
79
100
AcDbEntity
  8
Capa 1
 62
    18
420
        0
370
     9
100
AcDbSpline
210
0.0
220
0.0
230
1.0
 70
    24
 71
     3
 72
     8
 73
     4
 74
     0
 42
0.0000000001
 43
0.0000000001
 40
0.0
 40
0.0
 40
0.0
 40
0.0
 40
1.0
 40
1.0
 40
1.0
 40
1.0
 10
145.2803807359019
 20
-175.1299545553336
 30
0.0
 10
145.2803807359019
 20
-175.1299545553336
 30
0.0
 10
145.2803807359019
 20
-175.1158998429426
 30
0.0
 10
145.2803807359019
 20
-175.1158998429426
 30
0.0
  0
SPLINE
  5
1DA
330
79
100
AcDbEntity
  8
Capa 1
 62
    18
420
        0
370
     9
100
AcDbSpline
210
0.0
220
0.0
230
1.0
 70
     8
 71
     3
 72
     8
 73
     4
 74
     0
 42
0.0000000001
 43
0.0000000001
 40
0.0
 40
0.0
 40
0.0
 40
0.0
 40
1.0
 40
1.0
 40
1.0
 40
1.0
 10
145.28686419504
 20
-175.1072500753361
 30
0.0
 10
145.2825418889479
 20
-175.1094132905513
 30
0.0
 10
145.2803807359019
 20
-175.1126560512046
 30
0.0
 10
145.2803807359019
 20
-175.1158998429426
 30
0.0
  0
SPLINE
  5
1DB
330
79
100
AcDbEntity
  8
Capa 1
 62
    18
420
        0
370
     9
100
AcDbSpline
210
0.0
220
0.0
230
1.0
 70
     8
 71
     3
 72
    11
 73
     7
 74
     0
 42
0.0000000001
 43
0.0000000001
 40
0.0
 40
0.0
 40
0.0
 40
0.0
 40
1.0
 40
1.0
 40
1.0
 40
2.0
 40
2.0
 40
2.0
 40
2.0
 10
145.28686419504
 20
-175.1072500753361
 30
0.0
 10
145.2965976324229
 20
-175.1040073146828
 30
0.0
 10
145.300919938515
 20
-175.0942759394684
 30
0.0
 10
145.2976782089456
 20
-175.0845455953385
 30
0.0
 10
145.2955170559002
 20
-175.07913961947
 30
0.0
 10
145.2911865011321
 20
-175.0748152512087
 30
0.0
 10
145.28686419504
 20
-175.073734674686
 30
0.0
  0
SPLINE
  5
1DC
330
79
100
AcDbEntity
  8
Capa 1
 62
    18
420
        0
370
     9
100
AcDbSpline
210
0.0
220
0.0
230
1.0
 70
     8
 71
     3
 72
     8
 73
     4
 74
     0
 42
0.0000000001
 43
0.0000000001
 40
0.0
 40
0.0
 40
0.0
 40
0.0
 40
1.0
 40
1.0
 40
1.0
 40
1.0
 10
145.2803807359019
 20
-175.0640032994716
 30
0.0
 10
145.2803807359019
 20
-175.0683286988175
 30
0.0
 10
145.2825418889479
 20
-175.0715714594708
 30
0.0
 10
145.2857836185166
 20
-175.0726530670781
 30
0.0
  0
SPLINE
  5
1DD
330
79
100
AcDbEntity
  8
Capa 1
 62
    18
420
        0
370
     9
100
AcDbSpline
210
0.0
220
0.0
230
1.0
 70
    24
 71
     3
 72
     8
 73
     4
 74
     0
 42
0.0000000001
 43
0.0000000001
 40
0.0
 40
0.0
 40
0.0
 40
0.0
 40
1.0
 40
1.0
 40
1.0
 40
1.0
 10
145.2803807359019
 20
-175.0640032994716
 30
0.0
 10
145.2803807359019
 20
-175.0640032994716
 30
0.0
 10
145.2803807359019
 20
-175.0510291636039
 30
0.0
 10
145.2803807359019
 20
-175.0510291636039
 30
0.0
  0
SPLINE
  5
1DE
330
79
100
AcDbEntity
  8
Capa 1
 62
    18
420
        0
370
     9
100
AcDbSpline
210
0.0
220
0.0
230
1.0
 70
     8
 71
     3
 72
     8
 73
     4
 74
     0
 42
0.0000000001
 43
0.0000000001
 40
0.0
 40
0.0
 40
0.0
 40
0.0
 40
1.0
 40
1.0
 40
1.0
 40
1.0
 10
145.28686419504
 20
-175.042380427082
 30
0.0
 10
145.2825418889479
 20
-175.0434610036047
 30
0.0
 10
145.2803807359019
 20
-175.0467047953426
 30
0.0
 10
145.2803807359019
 20
-175.0499485870812
 30
0.0
  0
SPLINE
  5
1DF
330
79
100
AcDbEntity
  8
Capa 1
 62
    18
420
        0
370
     9
100
AcDbSpline
210
0.0
220
0.0
230
1.0
 70
     8
 71
     3
 72
    11
 73
     7
 74
     0
 42
0.0000000001
 43
0.0000000001
 40
0.0
 40
0.0
 40
0.0
 40
0.0
 40
1.0
 40
1.0
 40
1.0
 40
2.0
 40
2.0
 40
2.0
 40
2.0
 10
145.28686419504
 20
-175.042380427082
 30
0.0
 10
145.2965976324229
 20
-175.0391366353441
 30
0.0
 10
145.300919938515
 20
-175.0283246836064
 30
0.0
 10
145.2976782089456
 20
-175.0185943394772
 30
0.0
 10
145.2955170559002
 20
-175.013188363608
 30
0.0
 10
145.2911865011321
 20
-175.0088639953474
 30
0.0
 10
145.28686419504
 20
-175.0077823877394
 30
0.0
  0
SPLINE
  5
1E0
330
79
100
AcDbEntity
  8
Capa 1
 62
    18
420
        0
370
     9
100
AcDbSpline
210
0.0
220
0.0
230
1.0
 70
     8
 71
     3
 72
     8
 73
     4
 74
     0
 42
0.0000000001
 43
0.0000000001
 40
0.0
 40
0.0
 40
0.0
 40
0.0
 40
1.0
 40
1.0
 40
1.0
 40
1.0
 10
145.2803807359019
 20
-174.9991336512176
 30
0.0
 10
145.2803807359019
 20
-175.0023764118709
 30
0.0
 10
145.2825418889479
 20
-175.0056202036088
 30
0.0
 10
145.2857836185166
 20
-175.0067018112168
 30
0.0
  0
SPLINE
  5
1E1
330
79
100
AcDbEntity
  8
Capa 1
 62
    18
420
        0
370
     9
100
AcDbSpline
210
0.0
220
0.0
230
1.0
 70
    24
 71
     3
 72
     8
 73
     4
 74
     0
 42
0.0000000001
 43
0.0000000001
 40
0.0
 40
0.0
 40
0.0
 40
0.0
 40
1.0
 40
1.0
 40
1.0
 40
1.0
 10
145.2803807359019
 20
-174.9991336512176
 30
0.0
 10
145.2803807359019
 20
-174.9991336512176
 30
0.0
 10
145.2803807359019
 20
-174.9850779077419
 30
0.0
 10
145.2803807359019
 20
-174.9850779077419
 30
0.0
  0
SPLINE
  5
1E2
330
79
100
AcDbEntity
  8
Capa 1
 62
    18
420
        0
370
     9
100
AcDbSpline
210
0.0
220
0.0
230
1.0
 70
     8
 71
     3
 72
     8
 73
     4
 74
     0
 42
0.0000000001
 43
0.0000000001
 40
0.0
 40
0.0
 40
0.0
 40
0.0
 40
1.0
 40
1.0
 40
1.0
 40
1.0
 10
145.28686419504
 20
-174.97642917122
 30
0.0
 10
145.2825418889479
 20
-174.9775097477434
 30
0.0
 10
145.2803807359019
 20
-174.9807535394813
 30
0.0
 10
145.2803807359019
 20
-174.9850779077419
 30
0.0
  0
SPLINE
  5
1E3
330
79
100
AcDbEntity
  8
Capa 1
 62
    18
420
        0
370
     9
100
AcDbSpline
210
0.0
220
0.0
230
1.0
 70
     8
 71
     3
 72
    11
 73
     7
 74
     0
 42
0.0000000001
 43
0.0000000001
 40
0.0
 40
0.0
 40
0.0
 40
0.0
 40
1.0
 40
1.0
 40
1.0
 40
2.0
 40
2.0
 40
2.0
 40
2.0
 10
145.28686419504
 20
-174.97642917122
 30
0.0
 10
145.2965976324229
 20
-174.9731853794821
 30
0.0
 10
145.300919938515
 20
-174.962373427745
 30
0.0
 10
145.2976782089456
 20
-174.9526430836152
 30
0.0
 10
145.2955170559002
 20
-174.9472371077466
 30
0.0
 10
145.2911865011321
 20
-174.9429127394854
 30
0.0
 10
145.28686419504
 20
-174.9418311318781
 30
0.0
  0
SPLINE
  5
1E4
330
79
100
AcDbEntity
  8
Capa 1
 62
    18
420
        0
370
     9
100
AcDbSpline
210
0.0
220
0.0
230
1.0
 70
     8
 71
     3
 72
     8
 73
     4
 74
     0
 42
0.0000000001
 43
0.0000000001
 40
0.0
 40
0.0
 40
0.0
 40
0.0
 40
1.0
 40
1.0
 40
1.0
 40
1.0
 10
145.2803807359019
 20
-174.9331823953555
 30
0.0
 10
145.2803807359019
 20
-174.9364251560095
 30
0.0
 10
145.2825418889479
 20
-174.9396689477474
 30
0.0
 10
145.2857836185166
 20
-174.9418311318781
 30
0.0
  0
SPLINE
  5
1E5
330
79
100
AcDbEntity
  8
Capa 1
 62
    18
420
        0
370
     9
100
AcDbSpline
210
0.0
220
0.0
230
1.0
 70
    24
 71
     3
 72
     8
 73
     4
 74
     0
 42
0.0000000001
 43
0.0000000001
 40
0.0
 40
0.0
 40
0.0
 40
0.0
 40
1.0
 40
1.0
 40
1.0
 40
1.0
 10
145.2803807359019
 20
-174.9331823953555
 30
0.0
 10
145.2803807359019
 20
-174.9331823953555
 30
0.0
 10
145.2803807359019
 20
-174.9191266518805
 30
0.0
 10
145.2803807359019
 20
-174.9191266518805
 30
0.0
  0
SPLINE
  5
1E6
330
79
100
AcDbEntity
  8
Capa 1
 62
    18
420
        0
370
     9
100
AcDbSpline
210
0.0
220
0.0
230
1.0
 70
     8
 71
     3
 72
     8
 73
     4
 74
     0
 42
0.0000000001
 43
0.0000000001
 40
0.0
 40
0.0
 40
0.0
 40
0.0
 40
1.0
 40
1.0
 40
1.0
 40
1.0
 10
145.2847030419939
 20
-174.9115584918814
 30
0.0
 10
145.2814613124245
 20
-174.913720676012
 30
0.0
 10
145.2803807359019
 20
-174.9158828601426
 30
0.0
 10
145.2803807359019
 20
-174.9191266518805
 30
0.0
  0
SPLINE
  5
1E7
330
79
100
AcDbEntity
  8
Capa 1
 62
    18
420
        0
370
     9
100
AcDbSpline
210
0.0
220
0.0
230
1.0
 70
    24
 71
     3
 72
     8
 73
     4
 74
     0
 42
0.0000000001
 43
0.0000000001
 40
0.0
 40
0.0
 40
0.0
 40
0.0
 40
1.0
 40
1.0
 40
1.0
 40
1.0
 10
145.2803807359019
 20
-173.0941112668867
 30
0.0
 10
145.2803807359019
 20
-173.0941112668867
 30
0.0
 10
145.2803807359019
 20
-173.1460078103576
 30
0.0
 10
145.2803807359019
 20
-173.1460078103576
 30
0.0
  0
SPLINE
  5
1E8
330
79
100
AcDbEntity
  8
Capa 1
 62
    18
420
        0
370
     9
100
AcDbSpline
210
0.0
220
0.0
230
1.0
 70
    24
 71
     3
 72
     8
 73
     4
 74
     0
 42
0.0000000001
 43
0.0000000001
 40
0.0
 40
0.0
 40
0.0
 40
0.0
 40
1.0
 40
1.0
 40
1.0
 40
1.0
 10
145.2803807359019
 20
-173.1600625227487
 30
0.0
 10
145.2803807359019
 20
-173.1600625227487
 30
0.0
 10
145.2803807359019
 20
-173.2119590662196
 30
0.0
 10
145.2803807359019
 20
-173.2119590662196
 30
0.0
  0
SPLINE
  5
1E9
330
79
100
AcDbEntity
  8
Capa 1
 62
    18
420
        0
370
     9
100
AcDbSpline
210
0.0
220
0.0
230
1.0
 70
    24
 71
     3
 72
     8
 73
     4
 74
     0
 42
0.0000000001
 43
0.0000000001
 40
0.0
 40
0.0
 40
0.0
 40
0.0
 40
1.0
 40
1.0
 40
1.0
 40
1.0
 10
145.2803807359019
 20
-173.2249332020873
 30
0.0
 10
145.2803807359019
 20
-173.2249332020873
 30
0.0
 10
145.2803807359019
 20
-173.2768287144737
 30
0.0
 10
145.2803807359019
 20
-173.2768287144737
 30
0.0
  0
SPLINE
  5
1EA
330
79
100
AcDbEntity
  8
Capa 1
 62
    18
420
        0
370
     9
100
AcDbSpline
210
0.0
220
0.0
230
1.0
 70
    24
 71
     3
 72
     8
 73
     4
 74
     0
 42
0.0000000001
 43
0.0000000001
 40
0.0
 40
0.0
 40
0.0
 40
0.0
 40
1.0
 40
1.0
 40
1.0
 40
1.0
 10
145.2803807359019
 20
-173.2908844579494
 30
0.0
 10
145.2803807359019
 20
-173.2908844579494
 30
0.0
 10
145.2803807359019
 20
-173.3427799703357
 30
0.0
 10
145.2803807359019
 20
-173.3427799703357
 30
0.0
  0
SPLINE
  5
1EB
330
79
100
AcDbEntity
  8
Capa 1
 62
    18
420
        0
370
     9
100
AcDbSpline
210
0.0
220
0.0
230
1.0
 70
    24
 71
     3
 72
     8
 73
     4
 74
     0
 42
0.0000000001
 43
0.0000000001
 40
0.0
 40
0.0
 40
0.0
 40
0.0
 40
1.0
 40
1.0
 40
1.0
 40
1.0
 10
145.2803807359019
 20
-173.3568357138107
 30
0.0
 10
145.2803807359019
 20
-173.3568357138107
 30
0.0
 10
145.2803807359019
 20
-173.4087322572816
 30
0.0
 10
145.2803807359019
 20
-173.4087322572816
 30
0.0
  0
SPLINE
  5
1EC
330
79
100
AcDbEntity
  8
Capa 1
 62
    18
420
        0
370
     9
100
AcDbSpline
210
0.0
220
0.0
230
1.0
 70
    24
 71
     3
 72
     8
 73
     4
 74
     0
 42
0.0000000001
 43
0.0000000001
 40
0.0
 40
0.0
 40
0.0
 40
0.0
 40
1.0
 40
1.0
 40
1.0
 40
1.0
 10
145.2803807359019
 20
-173.4227869696727
 30
0.0
 10
145.2803807359019
 20
-173.4227869696727
 30
0.0
 10
145.2803807359019
 20
-173.4746835131437
 30
0.0
 10
145.2803807359019
 20
-173.4746835131437
 30
0.0
  0
SPLINE
  5
1ED
330
79
100
AcDbEntity
  8
Capa 1
 62
    18
420
        0
370
     9
100
AcDbSpline
210
0.0
220
0.0
230
1.0
 70
    24
 71
     3
 72
     8
 73
     4
 74
     0
 42
0.0000000001
 43
0.0000000001
 40
0.0
 40
0.0
 40
0.0
 40
0.0
 40
1.0
 40
1.0
 40
1.0
 40
1.0
 10
145.2803807359019
 20
-173.4887382255341
 30
0.0
 10
145.2803807359019
 20
-173.4887382255341
 30
0.0
 10
145.2803807359019
 20
-173.5406347690056
 30
0.0
 10
145.2803807359019
 20
-173.5406347690056
 30
0.0
  0
SPLINE
  5
1EE
330
79
100
AcDbEntity
  8
Capa 1
 62
    18
420
        0
370
     9
100
AcDbSpline
210
0.0
220
0.0
230
1.0
 70
    24
 71
     3
 72
     8
 73
     4
 74
     0
 42
0.0000000001
 43
0.0000000001
 40
0.0
 40
0.0
 40
0.0
 40
0.0
 40
1.0
 40
1.0
 40
1.0
 40
1.0
 10
145.2803807359019
 20
-173.5536089048734
 30
0.0
 10
145.2803807359019
 20
-173.5536089048734
 30
0.0
 10
145.2803807359019
 20
-173.6055044172597
 30
0.0
 10
145.2803807359019
 20
-173.6055044172597
 30
0.0
  0
SPLINE
  5
1EF
330
79
100
AcDbEntity
  8
Capa 1
 62
    18
420
        0
370
     9
100
AcDbSpline
210
0.0
220
0.0
230
1.0
 70
    24
 71
     3
 72
     8
 73
     4
 74
     0
 42
0.0000000001
 43
0.0000000001
 40
0.0
 40
0.0
 40
0.0
 40
0.0
 40
1.0
 40
1.0
 40
1.0
 40
1.0
 10
145.2803807359019
 20
-173.6195601607348
 30
0.0
 10
145.2803807359019
 20
-173.6195601607348
 30
0.0
 10
145.2803807359019
 20
-173.6714556731217
 30
0.0
 10
145.2803807359019
 20
-173.6714556731217
 30
0.0
  0
SPLINE
  5
1F0
330
79
100
AcDbEntity
  8
Capa 1
 62
    18
420
        0
370
     9
100
AcDbSpline
210
0.0
220
0.0
230
1.0
 70
    24
 71
     3
 72
     8
 73
     4
 74
     0
 42
0.0000000001
 43
0.0000000001
 40
0.0
 40
0.0
 40
0.0
 40
0.0
 40
1.0
 40
1.0
 40
1.0
 40
1.0
 10
145.2803807359019
 20
-173.6855114165967
 30
0.0
 10
145.2803807359019
 20
-173.6855114165967
 30
0.0
 10
145.2803807359019
 20
-173.7374079600677
 30
0.0
 10
145.2803807359019
 20
-173.7374079600677
 30
0.0
  0
SPLINE
  5
1F1
330
79
100
AcDbEntity
  8
Capa 1
 62
    18
420
        0
370
     9
100
AcDbSpline
210
0.0
220
0.0
230
1.0
 70
    24
 71
     3
 72
     8
 73
     4
 74
     0
 42
0.0000000001
 43
0.0000000001
 40
0.0
 40
0.0
 40
0.0
 40
0.0
 40
1.0
 40
1.0
 40
1.0
 40
1.0
 10
145.2803807359019
 20
-173.7503820959354
 30
0.0
 10
145.2803807359019
 20
-173.7503820959354
 30
0.0
 10
145.2803807359019
 20
-173.8022776083218
 30
0.0
 10
145.2803807359019
 20
-173.8022776083218
 30
0.0
  0
SPLINE
  5
1F2
330
79
100
AcDbEntity
  8
Capa 1
 62
    18
420
        0
370
     9
100
AcDbSpline
210
0.0
220
0.0
230
1.0
 70
    24
 71
     3
 72
     8
 73
     4
 74
     0
 42
0.0000000001
 43
0.0000000001
 40
0.0
 40
0.0
 40
0.0
 40
0.0
 40
1.0
 40
1.0
 40
1.0
 40
1.0
 10
145.2803807359019
 20
-173.8163333517974
 30
0.0
 10
145.2803807359019
 20
-173.8163333517974
 30
0.0
 10
145.2803807359019
 20
-173.8682288641838
 30
0.0
 10
145.2803807359019
 20
-173.8682288641838
 30
0.0
  0
SPLINE
  5
1F3
330
79
100
AcDbEntity
  8
Capa 1
 62
    18
420
        0
370
     9
100
AcDbSpline
210
0.0
220
0.0
230
1.0
 70
    24
 71
     3
 72
     8
 73
     4
 74
     0
 42
0.0000000001
 43
0.0000000001
 40
0.0
 40
0.0
 40
0.0
 40
0.0
 40
1.0
 40
1.0
 40
1.0
 40
1.0
 10
145.2803807359019
 20
-173.8822846076594
 30
0.0
 10
145.2803807359019
 20
-173.8822846076594
 30
0.0
 10
145.2803807359019
 20
-173.9341801200458
 30
0.0
 10
145.2803807359019
 20
-173.9341801200458
 30
0.0
  0
SPLINE
  5
1F4
330
79
100
AcDbEntity
  8
Capa 1
 62
    18
420
        0
370
     9
100
AcDbSpline
210
0.0
220
0.0
230
1.0
 70
    24
 71
     3
 72
     8
 73
     4
 74
     0
 42
0.0000000001
 43
0.0000000001
 40
0.0
 40
0.0
 40
0.0
 40
0.0
 40
1.0
 40
1.0
 40
1.0
 40
1.0
 10
145.2803807359019
 20
-173.9482358635208
 30
0.0
 10
145.2803807359019
 20
-173.9482358635208
 30
0.0
 10
145.2803807359019
 20
-173.9914826393852
 30
0.0
 10
145.2803807359019
 20
-173.9914826393852
 30
0.0
  0
SPLINE
  5
1F5
330
79
100
AcDbEntity
  8
Capa 1
 62
    18
420
        0
370
     9
100
AcDbSpline
210
0.0
220
0.0
230
1.0
 70
    24
 71
     3
 72
     8
 73
     4
 74
     0
 42
0.0000000001
 43
0.0000000001
 40
0.0
 40
0.0
 40
0.0
 40
0.0
 40
1.0
 40
1.0
 40
1.0
 40
1.0
 10
147.5789484712728
 20
-176.2911319823635
 30
0.0
 10
147.5789484712728
 20
-176.2911319823635
 30
0.0
 10
147.5789484712728
 20
-176.2997817499706
 30
0.0
 10
147.5789484712728
 20
-176.2997817499706
 30
0.0
  0
SPLINE
  5
1F6
330
79
100
AcDbEntity
  8
Capa 1
 62
    18
420
        0
370
     9
100
AcDbSpline
210
0.0
220
0.0
230
1.0
 70
    24
 71
     3
 72
     8
 73
     4
 74
     0
 42
0.0000000001
 43
0.0000000001
 40
0.0
 40
0.0
 40
0.0
 40
0.0
 40
1.0
 40
1.0
 40
1.0
 40
1.0
 10
145.289025348086
 20
-176.2997817499706
 30
0.0
 10
145.289025348086
 20
-176.2997817499706
 30
0.0
 10
145.3722792324147
 20
-176.2997817499706
 30
0.0
 10
145.3722792324147
 20
-176.2997817499706
 30
0.0
  0
SPLINE
  5
1F7
330
79
100
AcDbEntity
  8
Capa 1
 62
    18
420
        0
370
     9
100
AcDbSpline
210
0.0
220
0.0
230
1.0
 70
    24
 71
     3
 72
     8
 73
     4
 74
     0
 42
0.0000000001
 43
0.0000000001
 40
0.0
 40
0.0
 40
0.0
 40
0.0
 40
1.0
 40
1.0
 40
1.0
 40
1.0
 10
147.4870417260839
 20
-176.2997817499706
 30
0.0
 10
147.4870417260839
 20
-176.2997817499706
 30
0.0
 10
147.5789484712728
 20
-176.2997817499706
 30
0.0
 10
147.5789484712728
 20
-176.2997817499706
 30
0.0
  0
SPLINE
  5
1F8
330
79
100
AcDbEntity
  8
Capa 1
 62
    18
420
        0
370
     9
100
AcDbSpline
210
0.0
220
0.0
230
1.0
 70
    24
 71
     3
 72
     8
 73
     4
 74
     0
 42
0.0000000001
 43
0.0000000001
 40
0.0
 40
0.0
 40
0.0
 40
0.0
 40
1.0
 40
1.0
 40
1.0
 40
1.0
 10
145.289025348086
 20
-176.2997817499706
 30
0.0
 10
145.289025348086
 20
-176.2997817499706
 30
0.0
 10
145.2803807359019
 20
-176.2997817499706
 30
0.0
 10
145.2803807359019
 20
-176.2997817499706
 30
0.0
  0
SPLINE
  5
1F9
330
79
100
AcDbEntity
  8
Capa 1
 62
    18
420
        0
370
     9
100
AcDbSpline
210
0.0
220
0.0
230
1.0
 70
    24
 71
     3
 72
     8
 73
     4
 74
     0
 42
0.0000000001
 43
0.0000000001
 40
0.0
 40
0.0
 40
0.0
 40
0.0
 40
1.0
 40
1.0
 40
1.0
 40
1.0
 10
145.2803807359019
 20
-176.2997817499706
 30
0.0
 10
145.2803807359019
 20
-176.2997817499706
 30
0.0
 10
145.2803807359019
 20
-176.2457230223691
 30
0.0
 10
145.2803807359019
 20
-176.2457230223691
 30
0.0
  0
SPLINE
  5
1FA
330
79
100
AcDbEntity
  8
Capa 1
 62
    18
420
        0
370
     9
100
AcDbSpline
210
0.0
220
0.0
230
1.0
 70
    24
 71
     3
 72
     8
 73
     4
 74
     0
 42
0.0000000001
 43
0.0000000001
 40
0.0
 40
0.0
 40
0.0
 40
0.0
 40
1.0
 40
1.0
 40
1.0
 40
1.0
 10
145.2803807359019
 20
-174.0660836628537
 30
0.0
 10
145.2803807359019
 20
-174.0660836628537
 30
0.0
 10
145.2803807359019
 20
-174.0131065428595
 30
0.0
 10
145.2803807359019
 20
-174.0131065428595
 30
0.0
  0
SPLINE
  5
1FB
330
79
100
AcDbEntity
  8
Capa 1
 62
    18
420
        0
370
     9
100
AcDbSpline
210
0.0
220
0.0
230
1.0
 70
    24
 71
     3
 72
     8
 73
     4
 74
     0
 42
0.0000000001
 43
0.0000000001
 40
0.0
 40
0.0
 40
0.0
 40
0.0
 40
1.0
 40
1.0
 40
1.0
 40
1.0
 10
147.5789484712728
 20
-122.5137161874502
 30
0.0
 10
147.5789484712728
 20
-122.5137161874502
 30
0.0
 10
147.5789484712728
 20
-173.0735689710198
 30
0.0
 10
147.5789484712728
 20
-173.0735689710198
 30
0.0
  0
SPLINE
  5
1FC
330
79
100
AcDbEntity
  8
Capa 1
 62
    18
420
        0
370
     9
100
AcDbSpline
210
0.0
220
0.0
230
1.0
 70
    24
 71
     3
 72
     8
 73
     4
 74
     0
 42
0.0000000001
 43
0.0000000001
 40
0.0
 40
0.0
 40
0.0
 40
0.0
 40
1.0
 40
1.0
 40
1.0
 40
1.0
 10
147.4870417260839
 20
-173.0822187386262
 30
0.0
 10
147.4870417260839
 20
-173.0822187386262
 30
0.0
 10
146.8891612104894
 20
-173.0822187386262
 30
0.0
 10
146.8891612104894
 20
-173.0822187386262
 30
0.0
  0
SPLINE
  5
1FD
330
79
100
AcDbEntity
  8
Capa 1
 62
    18
420
        0
370
     9
100
AcDbSpline
210
0.0
220
0.0
230
1.0
 70
    24
 71
     3
 72
     8
 73
     4
 74
     0
 42
0.0000000001
 43
0.0000000001
 40
0.0
 40
0.0
 40
0.0
 40
0.0
 40
1.0
 40
1.0
 40
1.0
 40
1.0
 10
145.9701597480092
 20
-173.0822187386262
 30
0.0
 10
145.9701597480092
 20
-173.0822187386262
 30
0.0
 10
145.3722792324147
 20
-173.0822187386262
 30
0.0
 10
145.3722792324147
 20
-173.0822187386262
 30
0.0
  0
SPLINE
  5
1FE
330
79
100
AcDbEntity
  8
Capa 1
 62
    18
420
        0
370
     9
100
AcDbSpline
210
0.0
220
0.0
230
1.0
 70
    24
 71
     3
 72
     8
 73
     4
 74
     0
 42
0.0000000001
 43
0.0000000001
 40
0.0
 40
0.0
 40
0.0
 40
0.0
 40
1.0
 40
1.0
 40
1.0
 40
1.0
 10
147.4870417260839
 20
-122.5137161874502
 30
0.0
 10
147.4870417260839
 20
-122.5137161874502
 30
0.0
 10
146.8891612104894
 20
-122.5137161874502
 30
0.0
 10
146.8891612104894
 20
-122.5137161874502
 30
0.0
  0
SPLINE
  5
1FF
330
79
100
AcDbEntity
  8
Capa 1
 62
    18
420
        0
370
     9
100
AcDbSpline
210
0.0
220
0.0
230
1.0
 70
    24
 71
     3
 72
     8
 73
     4
 74
     0
 42
0.0000000001
 43
0.0000000001
 40
0.0
 40
0.0
 40
0.0
 40
0.0
 40
1.0
 40
1.0
 40
1.0
 40
1.0
 10
145.9701597480092
 20
-122.5137161874502
 30
0.0
 10
145.9701597480092
 20
-122.5137161874502
 30
0.0
 10
145.3722792324147
 20
-122.5137161874502
 30
0.0
 10
145.3722792324147
 20
-122.5137161874502
 30
0.0
  0
SPLINE
  5
200
330
79
100
AcDbEntity
  8
Capa 1
 62
    18
420
        0
370
     9
100
AcDbSpline
210
0.0
220
0.0
230
1.0
 70
    24
 71
     3
 72
     8
 73
     4
 74
     0
 42
0.0000000001
 43
0.0000000001
 40
0.0
 40
0.0
 40
0.0
 40
0.0
 40
1.0
 40
1.0
 40
1.0
 40
1.0
 10
145.2803807359019
 20
-173.0822187386262
 30
0.0
 10
145.2803807359019
 20
-173.0822187386262
 30
0.0
 10
145.2803807359019
 20
-122.5137161874502
 30
0.0
 10
145.2803807359019
 20
-122.5137161874502
 30
0.0
  0
SPLINE
  5
201
330
79
100
AcDbEntity
  8
Capa 1
 62
    18
420
        0
370
     9
100
AcDbSpline
210
0.0
220
0.0
230
1.0
 70
    24
 71
     3
 72
     8
 73
     4
 74
     0
 42
0.0000000001
 43
0.0000000001
 40
0.0
 40
0.0
 40
0.0
 40
0.0
 40
1.0
 40
1.0
 40
1.0
 40
1.0
 10
147.5789484712728
 20
-120.9049357128625
 30
0.0
 10
147.5789484712728
 20
-120.9049357128625
 30
0.0
 10
147.6524606695426
 20
-120.9049357128625
 30
0.0
 10
147.6524606695426
 20
-120.9049357128625
 30
0.0
  0
SPLINE
  5
202
330
79
100
AcDbEntity
  8
Capa 1
 62
    18
420
        0
370
     9
100
AcDbSpline
210
0.0
220
0.0
230
1.0
 70
    24
 71
     3
 72
     8
 73
     4
 74
     0
 42
0.0000000001
 43
0.0000000001
 40
0.0
 40
0.0
 40
0.0
 40
0.0
 40
1.0
 40
1.0
 40
1.0
 40
1.0
 10
147.5789484712728
 20
-119.9859424990586
 30
0.0
 10
147.5789484712728
 20
-119.9859424990586
 30
0.0
 10
147.6524606695426
 20
-119.9859424990586
 30
0.0
 10
147.6524606695426
 20
-119.9859424990586
 30
0.0
  0
SPLINE
  5
203
330
79
100
AcDbEntity
  8
Capa 1
 62
    18
420
        0
370
     9
100
AcDbSpline
210
0.0
220
0.0
230
1.0
 70
    24
 71
     3
 72
     8
 73
     4
 74
     0
 42
0.0000000001
 43
0.0000000001
 40
0.0
 40
0.0
 40
0.0
 40
0.0
 40
1.0
 40
1.0
 40
1.0
 40
1.0
 10
147.5789484712728
 20
-128.121747492847
 30
0.0
 10
147.5789484712728
 20
-128.121747492847
 30
0.0
 10
147.6524606695426
 20
-128.121747492847
 30
0.0
 10
147.6524606695426
 20
-128.121747492847
 30
0.0
  0
SPLINE
  5
204
330
79
100
AcDbEntity
  8
Capa 1
 62
    18
420
        0
370
     9
100
AcDbSpline
210
0.0
220
0.0
230
1.0
 70
    24
 71
     3
 72
     8
 73
     4
 74
     0
 42
0.0000000001
 43
0.0000000001
 40
0.0
 40
0.0
 40
0.0
 40
0.0
 40
1.0
 40
1.0
 40
1.0
 40
1.0
 10
147.5789484712728
 20
-123.525692598628
 30
0.0
 10
147.5789484712728
 20
-123.525692598628
 30
0.0
 10
147.6524606695426
 20
-123.525692598628
 30
0.0
 10
147.6524606695426
 20
-123.525692598628
 30
0.0
  0
SPLINE
  5
205
330
79
100
AcDbEntity
  8
Capa 1
 62
    18
420
        0
370
     9
100
AcDbSpline
210
0.0
220
0.0
230
1.0
 70
    24
 71
     3
 72
     8
 73
     4
 74
     0
 42
0.0000000001
 43
0.0000000001
 40
0.0
 40
0.0
 40
0.0
 40
0.0
 40
1.0
 40
1.0
 40
1.0
 40
1.0
 10
147.6524606695426
 20
-159.2908082020625
 30
0.0
 10
147.6524606695426
 20
-159.2908082020625
 30
0.0
 10
147.6524606695426
 20
-136.3051267240142
 30
0.0
 10
147.6524606695426
 20
-136.3051267240142
 30
0.0
  0
SPLINE
  5
206
330
79
100
AcDbEntity
  8
Capa 1
 62
    18
420
        0
370
     9
100
AcDbSpline
210
0.0
220
0.0
230
1.0
 70
    24
 71
     3
 72
     8
 73
     4
 74
     0
 42
0.0000000001
 43
0.0000000001
 40
0.0
 40
0.0
 40
0.0
 40
0.0
 40
1.0
 40
1.0
 40
1.0
 40
1.0
 10
147.6524606695426
 20
-186.7817287165085
 30
0.0
 10
147.6524606695426
 20
-186.7817287165085
 30
0.0
 10
147.6524606695426
 20
-159.2908082020625
 30
0.0
 10
147.6524606695426
 20
-159.2908082020625
 30
0.0
  0
SPLINE
  5
207
330
79
100
AcDbEntity
  8
Capa 1
 62
    18
420
        0
370
     9
100
AcDbSpline
210
0.0
220
0.0
230
1.0
 70
    24
 71
     3
 72
     8
 73
     4
 74
     0
 42
0.0000000001
 43
0.0000000001
 40
0.0
 40
0.0
 40
0.0
 40
0.0
 40
1.0
 40
1.0
 40
1.0
 40
1.0
 10
147.6524606695426
 20
-108.8142082717367
 30
0.0
 10
147.6524606695426
 20
-108.8142082717367
 30
0.0
 10
147.6524606695426
 20
-136.3051267240142
 30
0.0
 10
147.6524606695426
 20
-136.3051267240142
 30
0.0
  0
SPLINE
  5
208
330
79
100
AcDbEntity
  8
Capa 1
 62
    18
420
        0
370
     9
100
AcDbSpline
210
0.0
220
0.0
230
1.0
 70
    24
 71
     3
 72
     8
 73
     4
 74
     0
 42
0.0000000001
 43
0.0000000001
 40
0.0
 40
0.0
 40
0.0
 40
0.0
 40
1.0
 40
1.0
 40
1.0
 40
1.0
 10
147.9746539442744
 20
-136.3051267240142
 30
0.0
 10
147.9746539442744
 20
-136.3051267240142
 30
0.0
 10
147.9746539442744
 20
-108.7687993117419
 30
0.0
 10
147.9746539442744
 20
-108.7687993117419
 30
0.0
  0
SPLINE
  5
209
330
79
100
AcDbEntity
  8
Capa 1
 62
    18
420
        0
370
     9
100
AcDbSpline
210
0.0
220
0.0
230
1.0
 70
    24
 71
     3
 72
     8
 73
     4
 74
     0
 42
0.0000000001
 43
0.0000000001
 40
0.0
 40
0.0
 40
0.0
 40
0.0
 40
1.0
 40
1.0
 40
1.0
 40
1.0
 10
148.0200629042695
 20
-159.2908082020625
 30
0.0
 10
148.0200629042695
 20
-159.2908082020625
 30
0.0
 10
148.0200629042695
 20
-185.9535513605253
 30
0.0
 10
148.0200629042695
 20
-185.9535513605253
 30
0.0
  0
SPLINE
  5
20A
330
79
100
AcDbEntity
  8
Capa 1
 62
    18
420
        0
370
     9
100
AcDbSpline
210
0.0
220
0.0
230
1.0
 70
    24
 71
     3
 72
     8
 73
     4
 74
     0
 42
0.0000000001
 43
0.0000000001
 40
0.0
 40
0.0
 40
0.0
 40
0.0
 40
1.0
 40
1.0
 40
1.0
 40
1.0
 10
148.0200629042695
 20
-136.3051267240142
 30
0.0
 10
148.0200629042695
 20
-136.3051267240142
 30
0.0
 10
148.0200629042695
 20
-159.2908082020625
 30
0.0
 10
148.0200629042695
 20
-159.2908082020625
 30
0.0
  0
SPLINE
  5
20B
330
79
100
AcDbEntity
  8
Capa 1
 62
    18
420
        0
370
     9
100
AcDbSpline
210
0.0
220
0.0
230
1.0
 70
    24
 71
     3
 72
     8
 73
     4
 74
     0
 42
0.0000000001
 43
0.0000000001
 40
0.0
 40
0.0
 40
0.0
 40
0.0
 40
1.0
 40
1.0
 40
1.0
 40
1.0
 10
148.0200629042695
 20
-136.3051267240142
 30
0.0
 10
148.0200629042695
 20
-136.3051267240142
 30
0.0
 10
148.0200629042695
 20
-109.6423835655511
 30
0.0
 10
148.0200629042695
 20
-109.6423835655511
 30
0.0
  0
SPLINE
  5
20C
330
79
100
AcDbEntity
  8
Capa 1
 62
    18
420
        0
370
     9
100
AcDbSpline
210
0.0
220
0.0
230
1.0
 70
    24
 71
     3
 72
     8
 73
     4
 74
     0
 42
0.0000000001
 43
0.0000000001
 40
0.0
 40
0.0
 40
0.0
 40
0.0
 40
1.0
 40
1.0
 40
1.0
 40
1.0
 10
147.9743322459204
 20
-136.305233956799
 30
0.0
 10
147.9743322459204
 20
-136.305233956799
 30
0.0
 10
147.9743322459204
 20
-159.2909174970162
 30
0.0
 10
147.9743322459204
 20
-159.2909174970162
 30
0.0
  0
SPLINE
  5
20D
330
79
100
AcDbEntity
  8
Capa 1
 62
    18
420
        0
370
     9
100
AcDbSpline
210
0.0
220
0.0
230
1.0
 70
    24
 71
     3
 72
     8
 73
     4
 74
     0
 42
0.0000000001
 43
0.0000000001
 40
0.0
 40
0.0
 40
0.0
 40
0.0
 40
1.0
 40
1.0
 40
1.0
 40
1.0
 10
147.9743322459204
 20
-159.2909174970162
 30
0.0
 10
147.9743322459204
 20
-159.2909174970162
 30
0.0
 10
147.9743322459204
 20
-186.8272469714572
 30
0.0
 10
147.9743322459204
 20
-186.8272469714572
 30
0.0
  0
SPLINE
  5
20E
330
79
100
AcDbEntity
  8
Capa 1
 62
    18
420
        0
370
     9
100
AcDbSpline
210
0.0
220
0.0
230
1.0
 70
     8
 71
     3
 72
     8
 73
     4
 74
     0
 42
0.0000000001
 43
0.0000000001
 40
0.0
 40
0.0
 40
0.0
 40
0.0
 40
1.0
 40
1.0
 40
1.0
 40
1.0
 10
147.6521389711879
 20
-186.7818380114622
 30
0.0
 10
147.7278205711797
 20
-186.8834658210203
 30
0.0
 10
147.8727003120245
 20
-186.9029285714484
 30
0.0
 10
147.9743322459204
 20
-186.8272469714572
 30
0.0
  0
SPLINE
  5
20F
330
79
100
AcDbEntity
  8
Capa 1
 62
    18
420
        0
370
     9
100
AcDbSpline
210
0.0
220
0.0
230
1.0
 70
     8
 71
     3
 72
     8
 73
     4
 74
     0
 42
0.0000000001
 43
0.0000000001
 40
0.0
 40
0.0
 40
0.0
 40
0.0
 40
1.0
 40
1.0
 40
1.0
 40
1.0
 10
147.9743322459204
 20
-108.7689065445267
 30
0.0
 10
147.8727003120245
 20
-108.6932249445349
 30
0.0
 10
147.7278205711797
 20
-108.7126835706254
 30
0.0
 10
147.6521389711879
 20
-108.8143155045215
 30
0.0
  0
SPLINE
  5
210
330
79
100
AcDbEntity
  8
Capa 1
 62
    18
420
        0
370
     9
100
AcDbSpline
210
0.0
220
0.0
230
1.0
 70
    24
 71
     3
 72
     8
 73
     4
 74
     0
 42
0.0000000001
 43
0.0000000001
 40
0.0
 40
0.0
 40
0.0
 40
0.0
 40
1.0
 40
1.0
 40
1.0
 40
1.0
 10
147.9743322459204
 20
-185.9536627176481
 30
0.0
 10
147.9743322459204
 20
-185.9536627176481
 30
0.0
 10
148.0197412059155
 20
-185.9536627176481
 30
0.0
 10
148.0197412059155
 20
-185.9536627176481
 30
0.0
  0
SPLINE
  5
211
330
79
100
AcDbEntity
  8
Capa 1
 62
    18
420
        0
370
     9
100
AcDbSpline
210
0.0
220
0.0
230
1.0
 70
    24
 71
     3
 72
     8
 73
     4
 74
     0
 42
0.0000000001
 43
0.0000000001
 40
0.0
 40
0.0
 40
0.0
 40
0.0
 40
1.0
 40
1.0
 40
1.0
 40
1.0
 10
148.0197412059155
 20
-109.6424907983359
 30
0.0
 10
148.0197412059155
 20
-109.6424907983359
 30
0.0
 10
147.9743322459204
 20
-109.6424907983359
 30
0.0
 10
147.9743322459204
 20
-109.6424907983359
 30
0.0
  0
LWPOLYLINE
  5
212
330
79
100
AcDbEntity
  8
Capa 1
100
AcDbPolyline
 90
        4
 70
     1
 43
0.0
 10
59.20861679292354
 20
-186.9978543319611
 10
157.3388888495541
 20
-186.9978543319611
 10
157.3388888495541
 20
-93.04955364698047
 10
59.20861679292354
 20
-93.04955364698047
  0
ENDBLK
  5
7C
330
79
100
AcDbEntity
  8
0
100
AcDbBlockEnd
  0
BLOCK
  5
219
330
217
100
AcDbEntity
  8
0
100
AcDbBlockBegin
  2
Block_1
 70
     0
 10
0.0
 20
0.0
 30
0.0
  3
Block_1
  1

  0
SPLINE
  5
21B
330
217
100
AcDbEntity
  8
Capa 1
 62
    18
420
        0
370
     9
100
AcDbSpline
210
0.0
220
0.0
230
1.0
 70
    24
 71
     3
 72
     8
 73
     4
 74
     0
 42
0.0000000001
 43
0.0000000001
 40
0.0
 40
0.0
 40
0.0
 40
0.0
 40
1.0
 40
1.0
 40
1.0
 40
1.0
 10
100.7608053332117
 20
-108.7225242407934
 30
0.0
 10
100.7608053332117
 20
-108.7225242407934
 30
0.0
 10
62.7273905100652
 20
-108.7225242407934
 30
0.0
 10
62.7273905100652
 20
-108.7225242407934
 30
0.0
  0
SPLINE
  5
21C
330
217
100
AcDbEntity
  8
Capa 1
 62
    18
420
        0
370
     9
100
AcDbSpline
210
0.0
220
0.0
230
1.0
 70
    24
 71
     3
 72
     8
 73
     4
 74
     0
 42
0.0000000001
 43
0.0000000001
 40
0.0
 40
0.0
 40
0.0
 40
0.0
 40
1.0
 40
1.0
 40
1.0
 40
1.0
 10
100.7608053332117
 20
-186.8738437407602
 30
0.0
 10
100.7608053332117
 20
-186.8738437407602
 30
0.0
 10
62.7273905100652
 20
-186.8738437407602
 30
0.0
 10
62.7273905100652
 20
-186.8738437407602
 30
0.0
  0
SPLINE
  5
21D
330
217
100
AcDbEntity
  8
Capa 1
 62
    18
420
        0
370
     9
100
AcDbSpline
210
0.0
220
0.0
230
1.0
 70
    24
 71
     3
 72
     8
 73
     4
 74
     0
 42
0.0000000001
 43
0.0000000001
 40
0.0
 40
0.0
 40
0.0
 40
0.0
 40
1.0
 40
1.0
 40
1.0
 40
1.0
 10
65.02596236977357
 20
-108.7225242407934
 30
0.0
 10
65.02596236977357
 20
-108.7225242407934
 30
0.0
 10
65.02596236977357
 20
-186.8727631642368
 30
0.0
 10
65.02596236977357
 20
-186.8727631642368
 30
0.0
  0
MTEXT
  5
21E
330
217
100
AcDbEntity
  8
Capa 1
100
AcDbMText
 10
63.87689343021133
 20
-151.9238877658385
 30
0.0
 40
0.2
 41
0.0
 46
0.0
 71
     7
 72
     1
  1
\C18;\c0;\FArial Bold|b1|i0|c1;\H2.497667;\W1.000000;850
 11
0.0000000000000001
 21
1.0
 31
0.0
 73
     1
 44
1.0
  0
LWPOLYLINE
  5
21F
330
217
100
AcDbEntity
  8
Capa 1
100
AcDbPolyline
 90
        4
 70
     1
 43
0.0
 10
59.20861679292354
 20
-186.9978543319611
 10
157.3388888495541
 20
-186.9978543319611
 10
157.3388888495541
 20
-93.04955364698047
 10
59.20861679292354
 20
-93.04955364698047
  0
ENDBLK
  5
21A
330
217
100
AcDbEntity
  8
0
100
AcDbBlockEnd
  0
BLOCK
  5
229
330
227
100
AcDbEntity
  8
0
100
AcDbBlockBegin
  2
Block_2
 70
     0
 10
0.0
 20
0.0
 30
0.0
  3
Block_2
  1

  0
MTEXT
  5
22B
330
227
100
AcDbEntity
  8
Capa 1
100
AcDbMText
 10
98.51216089117059
 20
-99.12711043528767
 30
0.0
 40
0.2
 41
0.0
 46
0.0
 71
     7
 72
     1
  1
\C18;\c0;\FArial Bold|b1|i0|c1;\H2.497667;\W1.000000;600
 73
     1
 44
1.0
  0
LWPOLYLINE
  5
22C
330
227
100
AcDbEntity
  8
Capa 1
100
AcDbPolyline
 90
        4
 70
     1
 43
0.0
 10
59.20861679292354
 20
-186.9978543319611
 10
157.3388888495541
 20
-186.9978543319611
 10
157.3388888495541
 20
-93.04955364698047
 10
59.20861679292354
 20
-93.04955364698047
  0
ENDBLK
  5
22A
330
227
100
AcDbEntity
  8
0
100
AcDbBlockEnd
  0
BLOCK
  5
233
330
231
100
AcDbEntity
  8
0
100
AcDbBlockBegin
  2
Block_3
 70
     0
 10
0.0
 20
0.0
 30
0.0
  3
Block_3
  1

  0
SPLINE
  5
235
330
231
100
AcDbEntity
  8
Capa 1
 62
    18
420
        0
370
     9
100
AcDbSpline
210
0.0
220
0.0
230
1.0
 70
    24
 71
     3
 72
     8
 73
     4
 74
     0
 42
0.0000000001
 43
0.0000000001
 40
0.0
 40
0.0
 40
0.0
 40
0.0
 40
1.0
 40
1.0
 40
1.0
 40
1.0
 10
145.2803807359019
 20
-119.2978833358444
 30
0.0
 10
145.2803807359019
 20
-119.2978833358444
 30
0.0
 10
145.2803807359019
 20
-99.16432997396585
 30
0.0
 10
145.2803807359019
 20
-99.16432997396585
 30
0.0
  0
SPLINE
  5
236
330
231
100
AcDbEntity
  8
Capa 1
 62
    18
420
        0
370
     9
100
AcDbSpline
210
0.0
220
0.0
230
1.0
 70
    24
 71
     3
 72
     8
 73
     4
 74
     0
 42
0.0000000001
 43
0.0000000001
 40
0.0
 40
0.0
 40
0.0
 40
0.0
 40
1.0
 40
1.0
 40
1.0
 40
1.0
 10
148.0200629042695
 20
-109.231112841412
 30
0.0
 10
148.0200629042695
 20
-109.231112841412
 30
0.0
 10
148.0200629042695
 20
-99.16324939744313
 30
0.0
 10
148.0200629042695
 20
-99.16324939744313
 30
0.0
  0
SPLINE
  5
237
330
231
100
AcDbEntity
  8
Capa 1
 62
    18
420
        0
370
     9
100
AcDbSpline
210
0.0
220
0.0
230
1.0
 70
    24
 71
     3
 72
     8
 73
     4
 74
     0
 42
0.0000000001
 43
0.0000000001
 40
0.0
 40
0.0
 40
0.0
 40
0.0
 40
1.0
 40
1.0
 40
1.0
 40
1.0
 10
136.0861015457418
 20
-101.4628977093374
 30
0.0
 10
136.0861015457418
 20
-101.4628977093374
 30
0.0
 10
157.2143338457535
 20
-101.4628977093374
 30
0.0
 10
157.2143338457535
 20
-101.4628977093374
 30
0.0
  0
MTEXT
  5
238
330
231
100
AcDbEntity
  8
Capa 1
100
AcDbMText
 10
141.9493028073946
 20
-97.71806638182049
 30
0.0
 40
0.2
 41
0.0
 46
0.0
 71
     7
 72
     1
  1
\C18;\c0;\FArial Bold|b1|i0|c1;\H2.497667;\W1.000000;30
 73
     1
 44
1.0
  0
LWPOLYLINE
  5
239
330
231
100
AcDbEntity
  8
Capa 1
100
AcDbPolyline
 90
        4
 70
     1
 43
0.0
 10
59.20861679292354
 20
-186.9978543319611
 10
157.3388888495541
 20
-186.9978543319611
 10
157.3388888495541
 20
-93.04955364698047
 10
59.20861679292354
 20
-93.04955364698047
  0
ENDBLK
  5
234
330
231
100
AcDbEntity
  8
0
100
AcDbBlockEnd
  0
ENDSEC
  0
SECTION
  2
ENTITIES
  0
INSERT
  5
7A
330
70
100
AcDbEntity
  8
Capa 1
100
AcDbBlockReference
  2
Block_0
 10
0.0
 20
0.0
 30
0.0
  0
LWPOLYLINE
  5
213
330
70
100
AcDbEntity
  8
Capa 1
100
AcDbPolyline
 90
        3
 70
     1
 43
0.0
 10
64.26016923293317
 20
-113.3196597115354
 10
65.79218753100626
 20
-113.3196597115354
 10
65.02671867023171
 20
-108.7225242407934
  0
HATCH
  5
214
330
70
100
AcDbEntity
  8
Capa 1
 62
    18
420
        0
440
 33554687
100
AcDbHatch
 10
0.0
 20
0.0
 30
0.0
210
0.0
220
0.0
230
1.0
  2
SOLID
 70
     1
 71
     1
 91
        1
 92
        1
 93
        3
 72
     1
 10
64.26016923293317
 20
-113.3196597115354
 11
65.79218753100626
 21
-113.3196597115354
 72
     1
 10
65.79218753100626
 20
-113.3196597115354
 11
65.02671867023171
 21
-108.7225242407934
 72
     1
 10
65.02671867023171
 20
-108.7225242407934
 11
64.26016923293317
 21
-113.3196597115354
 97
        1
330
213
 75
     2
 76
     1
 98
        1
 10
0.0
 20
0.0
450
        0
451
        0
460
0.0
461
0.0
452
        0
462
0.0
453
        0
470

  0
LWPOLYLINE
  5
215
330
70
100
AcDbEntity
  8
Capa 1
100
AcDbPolyline
 90
        3
 70
     1
 43
0.0
 10
64.25973669299859
 20
-182.2765994906062
 10
65.02628613029681
 20
-186.8737359924328
 10
65.79175499107169
 20
-182.2765994906062
  0
HATCH
  5
216
330
70
100
AcDbEntity
  8
Capa 1
 62
    18
420
        0
440
 33554687
100
AcDbHatch
 10
0.0
 20
0.0
 30
0.0
210
0.0
220
0.0
230
1.0
  2
SOLID
 70
     1
 71
     1
 91
        1
 92
        1
 93
        3
 72
     1
 10
64.25973669299859
 20
-182.2765994906062
 11
65.02628613029681
 21
-186.8737359924328
 72
     1
 10
65.02628613029681
 20
-186.8737359924328
 11
65.79175499107169
 21
-182.2765994906062
 72
     1
 10
65.79175499107169
 20
-182.2765994906062
 11
64.25973669299859
 21
-182.2765994906062
 97
        1
330
215
 75
     2
 76
     1
 98
        1
 10
0.0
 20
0.0
450
        0
451
        0
460
0.0
461
0.0
452
        0
462
0.0
453
        0
470

  0
INSERT
  5
218
330
70
100
AcDbEntity
  8
Capa 1
100
AcDbBlockReference
  2
Block_1
 10
0.0
 20
0.0
 30
0.0
  0
LWPOLYLINE
  5
220
330
70
100
AcDbEntity
  8
Capa 1
100
AcDbPolyline
 90
        3
 70
     1
 43
0.0
 10
125.5853434741593
 20
-100.6601283368277
 10
125.5853434741593
 20
-102.1921548835768
 10
130.1824748205636
 20
-101.4266860228016
  0
HATCH
  5
221
330
70
100
AcDbEntity
  8
Capa 1
 62
    18
420
        0
440
 33554687
100
AcDbHatch
 10
0.0
 20
0.0
 30
0.0
210
0.0
220
0.0
230
1.0
  2
SOLID
 70
     1
 71
     1
 91
        1
 92
        1
 93
        3
 72
     1
 10
125.5853434741593
 20
-100.6601283368277
 11
125.5853434741593
 21
-102.1921548835768
 72
     1
 10
125.5853434741593
 20
-102.1921548835768
 11
130.1824748205636
 21
-101.4266860228016
 72
     1
 10
130.1824748205636
 20
-101.4266860228016
 11
125.5853434741593
 21
-100.6601283368277
 97
        1
330
220
 75
     2
 76
     1
 98
        1
 10
0.0
 20
0.0
450
        0
451
        0
460
0.0
461
0.0
452
        0
462
0.0
453
        0
470

  0
LWPOLYLINE
  5
222
330
70
100
AcDbEntity
  8
Capa 1
100
AcDbPolyline
 90
        3
 70
     1
 43
0.0
 10
79.61430221641702
 20
-100.6601283368277
 10
75.01716571459043
 20
-101.4266860228016
 10
79.61430221641702
 20
-102.1921548835768
  0
HATCH
  5
223
330
70
100
AcDbEntity
  8
Capa 1
 62
    18
420
        0
440
 33554687
100
AcDbHatch
 10
0.0
 20
0.0
 30
0.0
210
0.0
220
0.0
230
1.0
  2
SOLID
 70
     1
 71
     1
 91
        1
 92
        1
 93
        3
 72
     1
 10
79.61430221641702
 20
-100.6601283368277
 11
75.01716571459043
 21
-101.4266860228016
 72
     1
 10
75.01716571459043
 20
-101.4266860228016
 11
79.61430221641702
 21
-102.1921548835768
 72
     1
 10
79.61430221641702
 20
-102.1921548835768
 11
79.61430221641702
 21
-100.6601283368277
 97
        1
330
222
 75
     2
 76
     1
 98
        1
 10
0.0
 20
0.0
450
        0
451
        0
460
0.0
461
0.0
452
        0
462
0.0
453
        0
470

  0
SPLINE
  5
224
330
70
100
AcDbEntity
  8
Capa 1
 62
    18
420
        0
370
     9
100
AcDbSpline
210
0.0
220
0.0
230
1.0
 70
    24
 71
     3
 72
     8
 73
     4
 74
     0
 42
0.0000000001
 43
0.0000000001
 40
0.0
 40
0.0
 40
0.0
 40
0.0
 40
1.0
 40
1.0
 40
1.0
 40
1.0
 10
130.1823758364545
 20
-151.0142313079521
 30
0.0
 10
130.1823758364545
 20
-151.0142313079521
 30
0.0
 10
130.1823758364545
 20
-99.12778009172486
 30
0.0
 10
130.1823758364545
 20
-99.12778009172486
 30
0.0
  0
SPLINE
  5
225
330
70
100
AcDbEntity
  8
Capa 1
 62
    18
420
        0
370
     9
100
AcDbSpline
210
0.0
220
0.0
230
1.0
 70
    24
 71
     3
 72
     8
 73
     4
 74
     0
 42
0.0000000001
 43
0.0000000001
 40
0.0
 40
0.0
 40
0.0
 40
0.0
 40
1.0
 40
1.0
 40
1.0
 40
1.0
 10
75.01673781453614
 20
-151.0142313079521
 30
0.0
 10
75.01673781453614
 20
-151.0142313079521
 30
0.0
 10
75.01673781453614
 20
-99.12778009172486
 30
0.0
 10
75.01673781453614
 20
-99.12778009172486
 30
0.0
  0
SPLINE
  5
226
330
70
100
AcDbEntity
  8
Capa 1
 62
    18
420
        0
370
     9
100
AcDbSpline
210
0.0
220
0.0
230
1.0
 70
    24
 71
     3
 72
     8
 73
     4
 74
     0
 42
0.0000000001
 43
0.0000000001
 40
0.0
 40
0.0
 40
0.0
 40
0.0
 40
1.0
 40
1.0
 40
1.0
 40
1.0
 10
130.1823758364545
 20
-101.4263478270958
 30
0.0
 10
130.1823758364545
 20
-101.4263478270958
 30
0.0
 10
75.01781839105918
 20
-101.4263478270958
 30
0.0
 10
75.01781839105918
 20
-101.4263478270958
 30
0.0
  0
INSERT
  5
228
330
70
100
AcDbEntity
  8
Capa 1
100
AcDbBlockReference
  2
Block_2
 10
0.0
 20
0.0
 30
0.0
  0
LWPOLYLINE
  5
22D
330
70
100
AcDbEntity
  8
Capa 1
100
AcDbPolyline
 90
        3
 70
     1
 43
0.0
 10
140.6832452651598
 20
-100.6961255577939
 10
140.6832452651598
 20
-102.2281521045424
 10
145.2803807359019
 20
-101.4626832437675
  0
HATCH
  5
22E
330
70
100
AcDbEntity
  8
Capa 1
 62
    18
420
        0
440
 33554687
100
AcDbHatch
 10
0.0
 20
0.0
 30
0.0
210
0.0
220
0.0
230
1.0
  2
SOLID
 70
     1
 71
     1
 91
        1
 92
        1
 93
        3
 72
     1
 10
140.6832452651598
 20
-100.6961255577939
 11
140.6832452651598
 21
-102.2281521045424
 72
     1
 10
140.6832452651598
 20
-102.2281521045424
 11
145.2803807359019
 21
-101.4626832437675
 72
     1
 10
145.2803807359019
 20
-101.4626832437675
 11
140.6832452651598
 21
-100.6961255577939
 97
        1
330
22D
 75
     2
 76
     1
 98
        1
 10
0.0
 20
0.0
450
        0
451
        0
460
0.0
461
0.0
452
        0
462
0.0
453
        0
470

  0
LWPOLYLINE
  5
22F
330
70
100
AcDbEntity
  8
Capa 1
100
AcDbPolyline
 90
        3
 70
     1
 43
0.0
 10
152.6171983750115
 20
-100.6961255577939
 10
148.0200546555935
 20
-101.4626832437675
 10
152.6171983750115
 20
-102.2281521045424
  0
HATCH
  5
230
330
70
100
AcDbEntity
  8
Capa 1
 62
    18
420
        0
440
 33554687
100
AcDbHatch
 10
0.0
 20
0.0
 30
0.0
210
0.0
220
0.0
230
1.0
  2
SOLID
 70
     1
 71
     1
 91
        1
 92
        1
 93
        3
 72
     1
 10
152.6171983750115
 20
-100.6961255577939
 11
148.0200546555935
 21
-101.4626832437675
 72
     1
 10
148.0200546555935
 20
-101.4626832437675
 11
152.6171983750115
 21
-102.2281521045424
 72
     1
 10
152.6171983750115
 20
-102.2281521045424
 11
152.6171983750115
 21
-100.6961255577939
 97
        1
330
22F
 75
     2
 76
     1
 98
        1
 10
0.0
 20
0.0
450
        0
451
        0
460
0.0
461
0.0
452
        0
462
0.0
453
        0
470

  0
INSERT
  5
232
330
70
100
AcDbEntity
  8
Capa 1
100
AcDbBlockReference
  2
Block_3
 10
0.0
 20
0.0
 30
0.0
  0
ENDSEC
  0
SECTION
  2
OBJECTS
  0
DICTIONARY
  5
C
330
0
100
AcDbDictionary
281
     1
  3
ACAD_COLOR
350
63
  3
ACAD_DETAILVIEWSTYLE
350
6A
  3
ACAD_GROUP
350
D
  3
ACAD_LAYOUT
350
62
  3
ACAD_MATERIAL
350
10
  3
ACAD_MLEADERSTYLE
350
66
  3
ACAD_MLINESTYLE
350
5F
  3
ACAD_PLOTSETTINGS
350
61
  3
ACAD_PLOTSTYLENAME
350
E
  3
ACAD_SCALELIST
350
42
  3
ACAD_SECTIONVIEWSTYLE
350
68
  3
ACAD_TABLESTYLE
350
64
  3
ACAD_VISUALSTYLE
350
29
  3
ACDB_RECOMPOSE_DATA
350
243
  3
AcDbVariableDictionary
350
23A
  0
DICTIONARY
  5
63
102
{ACAD_REACTORS
330
C
102
}
330
C
100
AcDbDictionary
281
     1
  0
DICTIONARY
  5
6A
102
{ACAD_REACTORS
330
C
102
}
330
C
100
AcDbDictionary
281
     1
  3
Imperial24
350
6B
  0
DICTIONARY
  5
D
102
{ACAD_REACTORS
330
C
102
}
330
C
100
AcDbDictionary
281
     1
  0
DICTIONARY
  5
62
102
{ACAD_REACTORS
330
C
102
}
330
C
100
AcDbDictionary
281
     1
  3
Layout1
350
6F
  3
Layout2
350
77
  3
Model
350
73
  0
DICTIONARY
  5
10
102
{ACAD_REACTORS
330
C
102
}
330
C
100
AcDbDictionary
281
     1
  3
ByBlock
350
19
  3
ByLayer
350
11
  3
Global
350
21
  0
DICTIONARY
  5
66
102
{ACAD_REACTORS
330
C
102
}
330
C
100
AcDbDictionary
281
     1
  3
Standard
350
67
  0
DICTIONARY
  5
5F
102
{ACAD_REACTORS
330
C
102
}
330
C
100
AcDbDictionary
281
     1
  3
Standard
350
60
  0
DICTIONARY
  5
61
102
{ACAD_REACTORS
330
C
102
}
330
C
100
AcDbDictionary
281
     1
  0
ACDBDICTIONARYWDFLT
  5
E
102
{ACAD_REACTORS
330
C
102
}
330
C
100
AcDbDictionary
281
     1
  3
Normal
350
F
100
AcDbDictionaryWithDefault
340
F
  0
DICTIONARY
  5
42
102
{ACAD_REACTORS
330
C
102
}
330
C
100
AcDbDictionary
281
     1
  3
A0
350
43
  3
A1
350
44
  3
A2
350
45
  3
A3
350
46
  3
A4
350
47
  3
A5
350
48
  3
A6
350
49
  3
A7
350
4A
  3
A8
350
4B
  3
A9
350
4C
  3
B0
350
4D
  3
B1
350
4E
  3
B2
350
4F
  3
B3
350
50
  3
B4
350
51
  3
B5
350
52
  3
B6
350
53
  0
DICTIONARY
  5
68
102
{ACAD_REACTORS
330
C
102
}
330
C
100
AcDbDictionary
281
     1
  3
Imperial24
350
69
  0
DICTIONARY
  5
64
102
{ACAD_REACTORS
330
C
102
}
330
C
100
AcDbDictionary
281
     1
  3
Standard
350
65
  0
DICTIONARY
  5
29
102
{ACAD_REACTORS
330
C
102
}
330
C
100
AcDbDictionary
281
     1
  3
2dWireframe
350
2F
  3
Basic
350
2E
  3
Brighten
350
35
  3
ColorChange
350
39
  3
Conceptual
350
32
  3
Dim
350
34
  3
EdgeColorOff
350
41
  3
Facepattern
350
38
  3
Flat
350
2A
  3
FlatWithEdges
350
2B
  3
Gouraud
350
2C
  3
GouraudWithEdges
350
2D
  3
Hidden
350
31
  3
JitterOff
350
3F
  3
Linepattern
350
37
  3
OverhangOff
350
40
  3
Realistic
350
33
  3
Shaded
350
3E
  3
Shaded with edges
350
3D
  3
Shades of Gray
350
3A
  3
Sketchy
350
3B
  3
Thicken
350
36
  3
Wireframe
350
30
  3
X-Ray
350
3C
  0
XRECORD
  5
243
102
{ACAD_REACTORS
330
C
102
}
330
C
100
AcDbXrecord
280
     1
 90
        1
330
65
  0
DICTIONARY
  5
23A
102
{ACAD_REACTORS
330
C
102
}
330
C
100
AcDbDictionary
281
     1
  3
CANNOSCALE
350
23F
  3
CMLEADERSTYLE
350
23C
  3
CTABLESTYLE
350
23B
  3
CVIEWDETAILSTYLE
350
23D
  3
CVIEWSECTIONSTYLE
350
23E
  0
ACDBDETAILVIEWSTYLE
  5
6B
102
{ACAD_XDICTIONARY
360
278
102
}
102
{ACAD_REACTORS
330
6A
102
}
330
6A
100
AcDbModelDocViewStyle
 70
     0
  3
Imperial24
290
     0
100
AcDbDetailViewStyle
 70
     0
 71
     0
 90
        3
 71
     1
340
55
 62
   256
 40
0.24
340
0
 62
   256
 40
0.24
300

 40
0.36
280
     3
 71
     2
340
5D
 90
       25
 62
   256
 71
     3
340
55
 62
   256
 40
0.24
 90
        1
 40
0.75
 90
        1
300
%<\AcVar ViewType \f "%tc1">% %<\AcVar ViewDetailId>%\PSCALE %<\AcVar ViewScale \f "%sn">%
 71
     4
340
5D
 90
       25
 62
   256
340
5D
 90
       25
 62
   256
280
     0
  0
LAYOUT
  5
6F
102
{ACAD_REACTORS
330
62
102
}
330
62
100
AcDbPlotSettings
  1

  2

  4

  6

 40
0.0
 41
0.0
 42
0.0
 43
0.0
 44
0.0
 45
0.0
 46
0.0
 47
0.0
 48
0.0
 49
0.0
140
0.0
141
0.0
142
1.0
143
1.0
 70
   688
 72
     0
 73
     0
 74
     5
  7

 75
    16
147
1.0
 76
     0
 77
     2
 78
   300
148
0.0
149
0.0
100
AcDbLayout
  1
Layout1
 70
     1
 71
     1
 10
0.0
 20
0.0
 11
12.0
 21
9.0
 12
0.0
 22
0.0
 32
0.0
 14
0.0
 24
0.0
 34
0.0
 15
0.0
 25
0.0
 35
0.0
146
0.0
 13
0.0
 23
0.0
 33
0.0
 16
1.0
 26
0.0
 36
0.0
 17
0.0
 27
1.0
 37
0.0
 76
     0
330
6C
  0
LAYOUT
  5
77
102
{ACAD_REACTORS
330
62
102
}
330
62
100
AcDbPlotSettings
  1

  2

  4

  6

 40
0.0
 41
0.0
 42
0.0
 43
0.0
 44
0.0
 45
0.0
 46
0.0
 47
0.0
 48
0.0
 49
0.0
140
0.0
141
0.0
142
1.0
143
1.0
 70
   688
 72
     0
 73
     0
 74
     5
  7

 75
    16
147
1.0
 76
     0
 77
     2
 78
   300
148
0.0
149
0.0
100
AcDbLayout
  1
Layout2
 70
     1
 71
     2
 10
0.0
 20
0.0
 11
12.0
 21
9.0
 12
0.0
 22
0.0
 32
0.0
 14
0.0
 24
0.0
 34
0.0
 15
0.0
 25
0.0
 35
0.0
146
0.0
 13
0.0
 23
0.0
 33
0.0
 16
1.0
 26
0.0
 36
0.0
 17
0.0
 27
1.0
 37
0.0
 76
     0
330
74
  0
LAYOUT
  5
73
102
{ACAD_REACTORS
330
62
102
}
330
62
100
AcDbPlotSettings
  1

  2

  4

  6

 40
0.0
 41
0.0
 42
0.0
 43
0.0
 44
0.0
 45
0.0
 46
0.0
 47
0.0
 48
0.0
 49
0.0
140
0.0
141
0.0
142
1.0
143
1.0
 70
  1712
 72
     0
 73
     0
 74
     0
  7

 75
     0
147
1.0
 76
     0
 77
     2
 78
   300
148
0.0
149
0.0
100
AcDbLayout
  1
Model
 70
     1
 71
     0
 10
0.0
 20
0.0
 11
12.0
 21
9.0
 12
0.0
 22
0.0
 32
0.0
 14
0.0
 24
0.0
 34
0.0
 15
0.0
 25
0.0
 35
0.0
146
0.0
 13
0.0
 23
0.0
 33
0.0
 16
1.0
 26
0.0
 36
0.0
 17
0.0
 27
1.0
 37
0.0
 76
     0
330
70
  0
MATERIAL
  5
19
102
{ACAD_XDICTIONARY
360
1A
102
}
102
{ACAD_REACTORS
330
10
102
}
330
10
100
AcDbMaterial
  1
ByBlock
 72
     0
 43
0.0208333333333333
 43
0.0
 43
0.0
 43
0.0
 43
0.0
 43
0.0208333333333333
 43
0.0
 43
0.0
 43
0.0
 43
0.0
 43
1.0
 43
0.0
 43
0.0
 43
0.0
 43
0.0
 43
1.0
 77
     0
 47
0.0208333333333333
 47
0.0
 47
0.0
 47
0.0
 47
0.0
 47
0.0208333333333333
 47
0.0
 47
0.0
 47
0.0
 47
0.0
 47
1.0
 47
0.0
 47
0.0
 47
0.0
 47
0.0
 47
1.0
171
     0
 49
0.0208333333333333
 49
0.0
 49
0.0
 49
0.0
 49
0.0
 49
0.0208333333333333
 49
0.0
 49
0.0
 49
0.0
 49
0.0
 49
1.0
 49
0.0
 49
0.0
 49
0.0
 49
0.0
 49
1.0
175
     0
142
0.0208333333333333
142
0.0
142
0.0
142
0.0
142
0.0
142
0.0208333333333333
142
0.0
142
0.0
142
0.0
142
0.0
142
1.0
142
0.0
142
0.0
142
0.0
142
0.0
142
1.0
179
     0
144
0.0208333333333333
144
0.0
144
0.0
144
0.0
144
0.0
144
0.0208333333333333
144
0.0
144
0.0
144
0.0
144
0.0
144
1.0
144
0.0
144
0.0
144
0.0
144
0.0
144
1.0
147
0.0208333333333333
147
0.0
147
0.0
147
0.0
147
0.0
147
0.0208333333333333
147
0.0
147
0.0
147
0.0
147
0.0
147
1.0
147
0.0
147
0.0
147
0.0
147
0.0
147
1.0
  0
MATERIAL
  5
11
102
{ACAD_XDICTIONARY
360
12
102
}
102
{ACAD_REACTORS
330
10
102
}
330
10
100
AcDbMaterial
  1
ByLayer
 72
     0
 43
0.0208333333333333
 43
0.0
 43
0.0
 43
0.0
 43
0.0
 43
0.0208333333333333
 43
0.0
 43
0.0
 43
0.0
 43
0.0
 43
1.0
 43
0.0
 43
0.0
 43
0.0
 43
0.0
 43
1.0
 77
     0
 47
0.0208333333333333
 47
0.0
 47
0.0
 47
0.0
 47
0.0
 47
0.0208333333333333
 47
0.0
 47
0.0
 47
0.0
 47
0.0
 47
1.0
 47
0.0
 47
0.0
 47
0.0
 47
0.0
 47
1.0
171
     0
 49
0.0208333333333333
 49
0.0
 49
0.0
 49
0.0
 49
0.0
 49
0.0208333333333333
 49
0.0
 49
0.0
 49
0.0
 49
0.0
 49
1.0
 49
0.0
 49
0.0
 49
0.0
 49
0.0
 49
1.0
175
     0
142
0.0208333333333333
142
0.0
142
0.0
142
0.0
142
0.0
142
0.0208333333333333
142
0.0
142
0.0
142
0.0
142
0.0
142
1.0
142
0.0
142
0.0
142
0.0
142
0.0
142
1.0
179
     0
144
0.0208333333333333
144
0.0
144
0.0
144
0.0
144
0.0
144
0.0208333333333333
144
0.0
144
0.0
144
0.0
144
0.0
144
1.0
144
0.0
144
0.0
144
0.0
144
0.0
144
1.0
147
0.0208333333333333
147
0.0
147
0.0
147
0.0
147
0.0
147
0.0208333333333333
147
0.0
147
0.0
147
0.0
147
0.0
147
1.0
147
0.0
147
0.0
147
0.0
147
0.0
147
1.0
  0
MATERIAL
  5
21
102
{ACAD_XDICTIONARY
360
22
102
}
102
{ACAD_REACTORS
330
10
102
}
330
10
100
AcDbMaterial
  1
Global
 72
     0
 43
0.0208333333333333
 43
0.0
 43
0.0
 43
0.0
 43
0.0
 43
0.0208333333333333
 43
0.0
 43
0.0
 43
0.0
 43
0.0
 43
1.0
 43
0.0
 43
0.0
 43
0.0
 43
0.0
 43
1.0
 77
     0
 47
0.0208333333333333
 47
0.0
 47
0.0
 47
0.0
 47
0.0
 47
0.0208333333333333
 47
0.0
 47
0.0
 47
0.0
 47
0.0
 47
1.0
 47
0.0
 47
0.0
 47
0.0
 47
0.0
 47
1.0
171
     0
 49
0.0208333333333333
 49
0.0
 49
0.0
 49
0.0
 49
0.0
 49
0.0208333333333333
 49
0.0
 49
0.0
 49
0.0
 49
0.0
 49
1.0
 49
0.0
 49
0.0
 49
0.0
 49
0.0
 49
1.0
175
     0
142
0.0208333333333333
142
0.0
142
0.0
142
0.0
142
0.0
142
0.0208333333333333
142
0.0
142
0.0
142
0.0
142
0.0
142
1.0
142
0.0
142
0.0
142
0.0
142
0.0
142
1.0
179
     0
144
0.0208333333333333
144
0.0
144
0.0
144
0.0
144
0.0
144
0.0208333333333333
144
0.0
144
0.0
144
0.0
144
0.0
144
1.0
144
0.0
144
0.0
144
0.0
144
0.0
144
1.0
147
0.0208333333333333
147
0.0
147
0.0
147
0.0
147
0.0
147
0.0208333333333333
147
0.0
147
0.0
147
0.0
147
0.0
147
1.0
147
0.0
147
0.0
147
0.0
147
0.0
147
1.0
  0
MLEADERSTYLE
  5
67
102
{ACAD_XDICTIONARY
360
274
102
}
102
{ACAD_REACTORS
330
66
102
}
330
66
100
AcDbMLeaderStyle
179
     2
170
     2
171
     1
172
     0
 90
        2
 40
0.0
 41
0.0
173
     1
 91
-1056964608
340
5B
 92
       -2
290
     1
 42
0.09
291
     1
 43
0.36
  3
Standard
 44
0.18
300

342
55
174
     1
178
     6
175
     1
176
     0
 93
-1056964608
 45
0.18
292
     0
297
     0
 46
0.18
 94
-1056964608
 47
1.0
 49
1.0
140
1.0
293
     1
141
0.0
294
     1
177
     0
142
1.0
295
     0
296
     0
143
0.125
271
     0
272
     9
273
     9
  0
MLINESTYLE
  5
60
102
{ACAD_REACTORS
330
5F
102
}
330
5F
100
AcDbMlineStyle
  2
STANDARD
 70
     0
  3

 62
   256
 51
90.0
 52
90.0
 71
     2
 49
0.5
 62
   256
  6
BYLAYER
 49
-0.5
 62
   256
  6
BYLAYER
  0
ACDBPLACEHOLDER
  5
F
102
{ACAD_REACTORS
330
E
102
}
330
E
  0
SCALE
  5
43
102
{ACAD_REACTORS
330
42
102
}
330
42
100
AcDbScale
 70
     0
300
1:1
140
1.0
141
1.0
290
     1
  0
SCALE
  5
44
102
{ACAD_REACTORS
330
42
102
}
330
42
100
AcDbScale
 70
     0
300
1/128" = 1'-0"
140
0.0078125
141
12.0
290
     0
  0
SCALE
  5
45
102
{ACAD_REACTORS
330
42
102
}
330
42
100
AcDbScale
 70
     0
300
1/64" = 1'-0"
140
0.015625
141
12.0
290
     0
  0
SCALE
  5
46
102
{ACAD_REACTORS
330
42
102
}
330
42
100
AcDbScale
 70
     0
300
1/32" = 1'-0"
140
0.03125
141
12.0
290
     0
  0
SCALE
  5
47
102
{ACAD_REACTORS
330
42
102
}
330
42
100
AcDbScale
 70
     0
300
1/16" = 1'-0"
140
0.0625
141
12.0
290
     0
  0
SCALE
  5
48
102
{ACAD_REACTORS
330
42
102
}
330
42
100
AcDbScale
 70
     0
300
3/32" = 1'-0"
140
0.09375
141
12.0
290
     0
  0
SCALE
  5
49
102
{ACAD_REACTORS
330
42
102
}
330
42
100
AcDbScale
 70
     0
300
1/8" = 1'-0"
140
0.125
141
12.0
290
     0
  0
SCALE
  5
4A
102
{ACAD_REACTORS
330
42
102
}
330
42
100
AcDbScale
 70
     0
300
3/16" = 1'-0"
140
0.1875
141
12.0
290
     0
  0
SCALE
  5
4B
102
{ACAD_REACTORS
330
42
102
}
330
42
100
AcDbScale
 70
     0
300
1/4" = 1'-0"
140
0.25
141
12.0
290
     0
  0
SCALE
  5
4C
102
{ACAD_REACTORS
330
42
102
}
330
42
100
AcDbScale
 70
     0
300
3/8" = 1'-0"
140
0.375
141
12.0
290
     0
  0
SCALE
  5
4D
102
{ACAD_REACTORS
330
42
102
}
330
42
100
AcDbScale
 70
     0
300
1/2" = 1'-0"
140
0.5
141
12.0
290
     0
  0
SCALE
  5
4E
102
{ACAD_REACTORS
330
42
102
}
330
42
100
AcDbScale
 70
     0
300
3/4" = 1'-0"
140
0.75
141
12.0
290
     0
  0
SCALE
  5
4F
102
{ACAD_REACTORS
330
42
102
}
330
42
100
AcDbScale
 70
     0
300
1" = 1'-0"
140
1.0
141
12.0
290
     0
  0
SCALE
  5
50
102
{ACAD_REACTORS
330
42
102
}
330
42
100
AcDbScale
 70
     0
300
1-1/2" = 1'-0"
140
1.5
141
12.0
290
     0
  0
SCALE
  5
51
102
{ACAD_REACTORS
330
42
102
}
330
42
100
AcDbScale
 70
     0
300
3" = 1'-0"
140
3.0
141
12.0
290
     0
  0
SCALE
  5
52
102
{ACAD_REACTORS
330
42
102
}
330
42
100
AcDbScale
 70
     0
300
6" = 1'-0"
140
6.0
141
12.0
290
     0
  0
SCALE
  5
53
102
{ACAD_REACTORS
330
42
102
}
330
42
100
AcDbScale
 70
     0
300
1'-0" = 1'-0"
140
12.0
141
12.0
290
     0
  0
ACDBSECTIONVIEWSTYLE
  5
69
102
{ACAD_XDICTIONARY
360
276
102
}
102
{ACAD_REACTORS
330
68
102
}
330
68
100
AcDbModelDocViewStyle
 70
     0
  3
Imperial24
290
     0
100
AcDbSectionViewStyle
 70
     0
 71
     0
 90
       78
 71
     1
340
55
 62
   256
 40
0.24
340
0
340
0
 62
   256
 40
0.24
300
I, O, Q, S, X, Z
 40
0.48
 90
        3
 40
0.18
 90
        1
 71
     2
340
5D
 90
       25
 62
   256
340
5D
 90
       50
 62
   256
 40
0.24
 40
0.0
 40
0.24
 71
     3
340
55
 62
   256
 40
0.24
 90
        1
 40
0.75
 90
        1
300
%<\AcVar ViewType \f "%tc1">% %<\AcVar ViewSectionStartId>%-%<\AcVar ViewSectionEndId>%\PSCALE %<\AcVar ViewScale \f "%sn">%
 71
     4
 62
   256
 62
   257
300
ANSI31
 40
1.0
 90
        0
290
     0
290
     0
 90
        6
 40
0.0
 40
1.570796326794896
 40
0.2617993877991494
 40
1.308996938995747
 40
-0.2617993877991494
 40
1.832595714594046
  0
TABLESTYLE
  5
65
102
{ACAD_XDICTIONARY
360
240
102
}
102
{ACAD_REACTORS
330
64
102
}
330
64
100
AcDbTableStyle
280
     0
  3
Standard
 70
     0
 71
     0
 40
0.06
 41
0.06
280
     0
281
     0
  7
Standard
140
0.18
170
     2
 62
     0
 63
     7
283
     0
 90
      512
 91
        0
  1

274
    -2
284
     1
 64
     0
275
    -2
285
     1
 65
     0
276
    -2
286
     1
 66
     0
277
    -2
287
     1
 67
     0
278
    -2
288
     1
 68
     0
279
    -2
289
     1
 69
     0
  7
Standard
140
0.25
170
     5
 62
     0
 63
     7
283
     0
 90
      512
 91
        0
  1

274
    -2
284
     1
 64
     0
275
    -2
285
     1
 65
     0
276
    -2
286
     1
 66
     0
277
    -2
287
     1
 67
     0
278
    -2
288
     1
 68
     0
279
    -2
289
     1
 69
     0
  7
Standard
140
0.18
170
     5
 62
     0
 63
     7
283
     0
 90
      512
 91
        0
  1

274
    -2
284
     1
 64
     0
275
    -2
285
     1
 65
     0
276
    -2
286
     1
 66
     0
277
    -2
287
     1
 67
     0
278
    -2
288
     1
 68
     0
279
    -2
289
     1
 69
     0
  0
VISUALSTYLE
  5
2F
102
{ACAD_XDICTIONARY
360
24E
102
}
102
{ACAD_REACTORS
330
29
102
}
330
29
100
AcDbVisualStyle
  2
2dWireframe
 70
     4
177
     2
291
     0
 71
     0
176
     1
 72
     2
176
     1
 73
     0
176
     1
 90
        0
176
     1
 40
0.6
176
     1
 41
30.0
176
     1
 63
     7
421
 16777215
176
     1
 74
     1
176
     1
 91
        4
176
     1
 64
     7
176
     1
 65
   257
176
     1
 75
     1
176
     1
175
     1
176
     1
 42
1.0
176
     1
 92
        0
176
     1
 66
   257
176
     1
 43
1.0
176
     1
 76
     1
176
     1
 77
     6
176
     1
 78
     2
176
     1
 67
     7
176
     1
 79
     5
176
     1
170
     0
176
     1
171
     0
176
     1
290
     0
176
     1
 93
        1
176
     1
 44
0.0
176
     1
173
     0
176
     1
1001
ACAD
1000
AcDbSavedByObjectVersion
1070
     0
  0
VISUALSTYLE
  5
2E
102
{ACAD_XDICTIONARY
360
24C
102
}
102
{ACAD_REACTORS
330
29
102
}
330
29
100
AcDbVisualStyle
  2
Basic
 70
     7
177
     2
291
     1
 71
     1
176
     1
 72
     0
176
     1
 73
     1
176
     1
 90
        0
176
     1
 40
0.6
176
     1
 41
30.0
176
     1
 63
     7
421
 16777215
176
     1
 74
     0
176
     1
 91
        4
176
     1
 64
     7
176
     1
 65
   257
176
     1
 75
     1
176
     1
175
     1
176
     1
 42
1.0
176
     1
 92
        8
176
     1
 66
     7
176
     1
 43
1.0
176
     1
 76
     1
176
     1
 77
     6
176
     1
 78
     2
176
     1
 67
     7
176
     1
 79
     5
176
     1
170
     0
176
     1
171
     0
176
     1
290
     0
176
     1
 93
        1
176
     1
 44
0.0
176
     1
173
     0
176
     1
1001
ACAD
1000
AcDbSavedByObjectVersion
1070
     0
  0
VISUALSTYLE
  5
35
102
{ACAD_XDICTIONARY
360
25A
102
}
102
{ACAD_REACTORS
330
29
102
}
330
29
100
AcDbVisualStyle
  2
Brighten
 70
    12
177
     2
291
     1
 71
     2
176
     1
 72
     2
176
     1
 73
     0
176
     1
 90
        0
176
     1
 40
0.6
176
     1
 41
30.0
176
     1
 63
     7
421
 16777215
176
     1
 74
     1
176
     1
 91
        4
176
     1
 64
     7
176
     1
 65
   257
176
     1
 75
     1
176
     1
175
     1
176
     1
 42
1.0
176
     1
 92
        8
176
     1
 66
     7
176
     1
 43
1.0
176
     1
 76
     1
176
     1
 77
     6
176
     1
 78
     2
176
     1
 67
     7
176
     1
 79
     5
176
     1
170
     0
176
     1
171
     0
176
     1
290
     0
176
     1
 93
        1
176
     1
 44
50.0
176
     1
173
     0
176
     1
1001
ACAD
1000
AcDbSavedByObjectVersion
1070
     0
  0
VISUALSTYLE
  5
39
102
{ACAD_XDICTIONARY
360
262
102
}
102
{ACAD_REACTORS
330
29
102
}
330
29
100
AcDbVisualStyle
  2
ColorChange
 70
    16
177
     2
291
     1
 71
     2
176
     1
 72
     2
176
     1
 73
     3
176
     1
 90
        0
176
     1
 40
0.6
176
     1
 41
30.0
176
     1
 63
     8
421
  8421504
176
     1
 74
     1
176
     1
 91
        4
176
     1
 64
     7
176
     1
 65
   257
176
     1
 75
     1
176
     1
175
     1
176
     1
 42
1.0
176
     1
 92
        8
176
     1
 66
     8
424
  8421504
176
     1
 43
1.0
176
     1
 76
     1
176
     1
 77
     6
176
     1
 78
     2
176
     1
 67
     7
176
     1
 79
     5
176
     1
170
     0
176
     1
171
     0
176
     1
290
     0
176
     1
 93
        1
176
     1
 44
0.0
176
     1
173
     0
176
     1
1001
ACAD
1000
AcDbSavedByObjectVersion
1070
     0
  0
VISUALSTYLE
  5
32
102
{ACAD_XDICTIONARY
360
254
102
}
102
{ACAD_REACTORS
330
29
102
}
330
29
100
AcDbVisualStyle
  2
Conceptual
 70
     9
177
     2
291
     0
 71
     3
176
     1
 72
     2
176
     1
 73
     0
176
     1
 90
        0
176
     1
 40
0.6
176
     1
 41
30.0
176
     1
 63
     7
421
 16777215
176
     1
 74
     2
176
     1
 91
        2
176
     1
 64
     7
176
     1
 65
   257
176
     1
 75
     1
176
     1
175
     1
176
     1
 42
179.0
176
     1
 92
        8
176
     1
 66
     7
176
     1
 43
1.0
176
     1
 76
     1
176
     1
 77
     6
176
     1
 78
     2
176
     1
 67
     7
176
     1
 79
     3
176
     1
170
     0
176
     1
171
     0
176
     1
290
     0
176
     1
 93
        1
176
     1
 44
0.0
176
     1
173
     0
176
     1
1001
ACAD
1000
AcDbSavedByObjectVersion
1070
     0
  0
VISUALSTYLE
  5
34
102
{ACAD_XDICTIONARY
360
258
102
}
102
{ACAD_REACTORS
330
29
102
}
330
29
100
AcDbVisualStyle
  2
Dim
 70
    11
177
     2
291
     1
 71
     2
176
     1
 72
     2
176
     1
 73
     0
176
     1
 90
        0
176
     1
 40
0.6
176
     1
 41
30.0
176
     1
 63
     7
421
 16777215
176
     1
 74
     1
176
     1
 91
        4
176
     1
 64
     7
176
     1
 65
   257
176
     1
 75
     1
176
     1
175
     1
176
     1
 42
1.0
176
     1
 92
        8
176
     1
 66
     7
176
     1
 43
1.0
176
     1
 76
     1
176
     1
 77
     6
176
     1
 78
     2
176
     1
 67
     7
176
     1
 79
     5
176
     1
170
     0
176
     1
171
     0
176
     1
290
     0
176
     1
 93
        1
176
     1
 44
-50.0
176
     1
173
     0
176
     1
1001
ACAD
1000
AcDbSavedByObjectVersion
1070
     0
  0
VISUALSTYLE
  5
41
102
{ACAD_XDICTIONARY
360
272
102
}
102
{ACAD_REACTORS
330
29
102
}
330
29
100
AcDbVisualStyle
  2
EdgeColorOff
 70
    22
177
     2
291
     1
 71
     2
176
     0
 72
     2
176
     0
 73
     0
176
     0
 90
        0
176
     0
 40
0.6
176
     0
 41
30.0
176
     0
 63
     7
421
 16777215
176
     0
 74
     1
176
     0
 91
        4
176
     0
 64
     7
176
     0
 65
   257
176
     0
 75
     1
176
     0
175
     1
176
     0
 42
1.0
176
     0
 92
        8
176
     2
 66
     7
176
     0
 43
1.0
176
     0
 76
     1
176
     0
 77
     6
176
     0
 78
     2
176
     0
 67
     7
176
     0
 79
     5
176
     0
170
     0
176
     0
171
     0
176
     0
290
     0
176
     0
 93
        1
176
     0
 44
0.0
176
     0
173
     0
176
     0
1001
ACAD
1000
AcDbSavedByObjectVersion
1070
     0
  0
VISUALSTYLE
  5
38
102
{ACAD_XDICTIONARY
360
260
102
}
102
{ACAD_REACTORS
330
29
102
}
330
29
100
AcDbVisualStyle
  2
Facepattern
 70
    15
177
     2
291
     1
 71
     2
176
     1
 72
     2
176
     1
 73
     0
176
     1
 90
        0
176
     1
 40
0.6
176
     1
 41
30.0
176
     1
 63
     7
421
 16777215
176
     1
 74
     1
176
     1
 91
        4
176
     1
 64
     7
176
     1
 65
   257
176
     1
 75
     1
176
     1
175
     1
176
     1
 42
1.0
176
     1
 92
        8
176
     1
 66
     7
176
     1
 43
1.0
176
     1
 76
     1
176
     1
 77
     6
176
     1
 78
     2
176
     1
 67
     7
176
     1
 79
     5
176
     1
170
     0
176
     1
171
     0
176
     1
290
     0
176
     1
 93
        1
176
     1
 44
0.0
176
     1
173
     0
176
     1
1001
ACAD
1000
AcDbSavedByObjectVersion
1070
     0
  0
VISUALSTYLE
  5
2A
102
{ACAD_XDICTIONARY
360
244
102
}
102
{ACAD_REACTORS
330
29
102
}
330
29
100
AcDbVisualStyle
  2
Flat
 70
     0
177
     2
291
     1
 71
     2
176
     1
 72
     1
176
     1
 73
     1
176
     1
 90
        2
176
     1
 40
0.6
176
     1
 41
30.0
176
     1
 63
     7
421
 16777215
176
     1
 74
     0
176
     1
 91
        0
176
     1
 64
     7
176
     1
 65
   257
176
     1
 75
     1
176
     1
175
     1
176
     1
 42
1.0
176
     1
 92
        8
176
     1
 66
     7
176
     1
 43
1.0
176
     1
 76
     1
176
     1
 77
     6
176
     1
 78
     2
176
     1
 67
     7
176
     1
 79
     5
176
     1
170
     0
176
     1
171
     0
176
     1
290
     0
176
     1
 93
       13
176
     1
 44
0.0
176
     1
173
     0
176
     1
1001
ACAD
1000
AcDbSavedByObjectVersion
1070
     0
  0
VISUALSTYLE
  5
2B
102
{ACAD_XDICTIONARY
360
246
102
}
102
{ACAD_REACTORS
330
29
102
}
330
29
100
AcDbVisualStyle
  2
FlatWithEdges
 70
     1
177
     2
291
     1
 71
     2
176
     1
 72
     1
176
     1
 73
     1
176
     1
 90
        2
176
     1
 40
0.6
176
     1
 41
30.0
176
     1
 63
     7
421
 16777215
176
     1
 74
     1
176
     1
 91
        0
176
     1
 64
     7
176
     1
 65
   257
176
     1
 75
     1
176
     1
175
     1
176
     1
 42
1.0
176
     1
 92
        0
176
     1
 66
   257
176
     1
 43
1.0
176
     1
 76
     1
176
     1
 77
     6
176
     1
 78
     2
176
     1
 67
     7
176
     1
 79
     5
176
     1
170
     0
176
     1
171
     0
176
     1
290
     0
176
     1
 93
       13
176
     1
 44
0.0
176
     1
173
     0
176
     1
1001
ACAD
1000
AcDbSavedByObjectVersion
1070
     0
  0
VISUALSTYLE
  5
2C
102
{ACAD_XDICTIONARY
360
248
102
}
102
{ACAD_REACTORS
330
29
102
}
330
29
100
AcDbVisualStyle
  2
Gouraud
 70
     2
177
     2
291
     1
 71
     2
176
     1
 72
     2
176
     1
 73
     1
176
     1
 90
        2
176
     1
 40
0.6
176
     1
 41
30.0
176
     1
 63
     7
421
 16777215
176
     1
 74
     0
176
     1
 91
        0
176
     1
 64
     7
176
     1
 65
   257
176
     1
 75
     1
176
     1
175
     1
176
     1
 42
1.0
176
     1
 92
        0
176
     1
 66
     7
176
     1
 43
1.0
176
     1
 76
     1
176
     1
 77
     6
176
     1
 78
     2
176
     1
 67
     7
176
     1
 79
     5
176
     1
170
     0
176
     1
171
     0
176
     1
290
     0
176
     1
 93
       13
176
     1
 44
0.0
176
     1
173
     0
176
     1
1001
ACAD
1000
AcDbSavedByObjectVersion
1070
     0
  0
VISUALSTYLE
  5
2D
102
{ACAD_XDICTIONARY
360
24A
102
}
102
{ACAD_REACTORS
330
29
102
}
330
29
100
AcDbVisualStyle
  2
GouraudWithEdges
 70
     3
177
     2
291
     1
 71
     2
176
     1
 72
     2
176
     1
 73
     1
176
     1
 90
        2
176
     1
 40
0.6
176
     1
 41
30.0
176
     1
 63
     7
421
 16777215
176
     1
 74
     1
176
     1
 91
        0
176
     1
 64
     7
176
     1
 65
   257
176
     1
 75
     1
176
     1
175
     1
176
     1
 42
1.0
176
     1
 92
        0
176
     1
 66
   257
176
     1
 43
1.0
176
     1
 76
     1
176
     1
 77
     6
176
     1
 78
     2
176
     1
 67
     7
176
     1
 79
     5
176
     1
170
     0
176
     1
171
     0
176
     1
290
     0
176
     1
 93
       13
176
     1
 44
0.0
176
     1
173
     0
176
     1
1001
ACAD
1000
AcDbSavedByObjectVersion
1070
     0
  0
VISUALSTYLE
  5
31
102
{ACAD_XDICTIONARY
360
252
102
}
102
{ACAD_REACTORS
330
29
102
}
330
29
100
AcDbVisualStyle
  2
Hidden
 70
     6
177
     2
291
     0
 71
     1
176
     1
 72
     2
176
     1
 73
     2
176
     1
 90
        0
176
     1
 40
0.6
176
     1
 41
30.0
176
     1
 63
     7
421
 16777215
176
     1
 74
     2
176
     1
 91
        2
176
     1
 64
     7
176
     1
 65
   257
176
     1
 75
     2
176
     1
175
     1
176
     1
 42
40.0
176
     1
 92
        0
176
     1
 66
   257
176
     1
 43
1.0
176
     1
 76
     1
176
     1
 77
     6
176
     1
 78
     2
176
     1
 67
     7
176
     1
 79
     3
176
     1
170
     0
176
     1
171
     0
176
     1
290
     0
176
     1
 93
        1
176
     1
 44
0.0
176
     1
173
     0
176
     1
1001
ACAD
1000
AcDbSavedByObjectVersion
1070
     0
  0
VISUALSTYLE
  5
3F
102
{ACAD_XDICTIONARY
360
26E
102
}
102
{ACAD_REACTORS
330
29
102
}
330
29
100
AcDbVisualStyle
  2
JitterOff
 70
    20
177
     2
291
     1
 71
     2
176
     0
 72
     2
176
     0
 73
     0
176
     0
 90
        0
176
     0
 40
0.6
176
     0
 41
30.0
176
     0
 63
     7
421
 16777215
176
     0
 74
     1
176
     0
 91
        4
176
     0
 64
     7
176
     0
 65
   257
176
     0
 75
     1
176
     0
175
     1
176
     0
 42
1.0
176
     0
 92
       10
176
     2
 66
     7
176
     0
 43
1.0
176
     0
 76
     1
176
     0
 77
     6
176
     0
 78
     2
176
     0
 67
     7
176
     0
 79
     5
176
     0
170
     0
176
     0
171
     0
176
     0
290
     0
176
     0
 93
        1
176
     0
 44
0.0
176
     0
173
     0
176
     0
1001
ACAD
1000
AcDbSavedByObjectVersion
1070
     0
  0
VISUALSTYLE
  5
37
102
{ACAD_XDICTIONARY
360
25E
102
}
102
{ACAD_REACTORS
330
29
102
}
330
29
100
AcDbVisualStyle
  2
Linepattern
 70
    14
177
     2
291
     1
 71
     2
176
     1
 72
     2
176
     1
 73
     0
176
     1
 90
        0
176
     1
 40
0.6
176
     1
 41
30.0
176
     1
 63
     7
421
 16777215
176
     1
 74
     1
176
     1
 91
        4
176
     1
 64
     7
176
     1
 65
   257
176
     1
 75
     7
176
     1
175
     7
176
     1
 42
1.0
176
     1
 92
        8
176
     1
 66
     7
176
     1
 43
1.0
176
     1
 76
     1
176
     1
 77
     6
176
     1
 78
     2
176
     1
 67
     7
176
     1
 79
     5
176
     1
170
     0
176
     1
171
     0
176
     1
290
     0
176
     1
 93
        1
176
     1
 44
0.0
176
     1
173
     0
176
     1
1001
ACAD
1000
AcDbSavedByObjectVersion
1070
     0
  0
VISUALSTYLE
  5
40
102
{ACAD_XDICTIONARY
360
270
102
}
102
{ACAD_REACTORS
330
29
102
}
330
29
100
AcDbVisualStyle
  2
OverhangOff
 70
    21
177
     2
291
     1
 71
     2
176
     0
 72
     2
176
     0
 73
     0
176
     0
 90
        0
176
     0
 40
0.6
176
     0
 41
30.0
176
     0
 63
     7
421
 16777215
176
     0
 74
     1
176
     0
 91
        4
176
     0
 64
     7
176
     0
 65
   257
176
     0
 75
     1
176
     0
175
     1
176
     0
 42
1.0
176
     0
 92
        9
176
     2
 66
     7
176
     0
 43
1.0
176
     0
 76
     1
176
     0
 77
     6
176
     0
 78
     2
176
     0
 67
     7
176
     0
 79
     5
176
     0
170
     0
176
     0
171
     0
176
     0
290
     0
176
     0
 93
        1
176
     0
 44
0.0
176
     0
173
     0
176
     0
1001
ACAD
1000
AcDbSavedByObjectVersion
1070
     0
  0
VISUALSTYLE
  5
33
102
{ACAD_XDICTIONARY
360
256
102
}
102
{ACAD_REACTORS
330
29
102
}
330
29
100
AcDbVisualStyle
  2
Realistic
 70
     8
177
     2
291
     0
 71
     2
176
     1
 72
     3
176
     1
 73
     0
176
     1
 90
        2
176
     1
 40
0.6
176
     1
 41
30.0
176
     1
 63
     7
421
 16777215
176
     1
 74
     0
176
     1
 91
        0
176
     1
 64
     7
176
     1
 65
   257
176
     1
 75
     1
176
     1
175
     1
176
     1
 42
1.0
176
     1
 92
        8
176
     1
 66
   257
176
     1
 43
1.0
176
     1
 76
     1
176
     1
 77
     6
176
     1
 78
     2
176
     1
 67
     7
176
     1
 79
     3
176
     1
170
     0
176
     1
171
     0
176
     1
290
     0
176
     1
 93
       13
176
     1
 44
0.0
176
     1
173
     0
176
     1
1001
ACAD
1000
AcDbSavedByObjectVersion
1070
     0
  0
VISUALSTYLE
  5
3E
102
{ACAD_XDICTIONARY
360
26C
102
}
102
{ACAD_REACTORS
330
29
102
}
330
29
100
AcDbVisualStyle
  2
Shaded
 70
    27
177
     2
291
     0
 71
     2
176
     1
 72
     2
176
     1
 73
     1
176
     1
 90
        2
176
     1
 40
0.6
176
     1
 41
30.0
176
     1
 63
     7
421
 16777215
176
     1
 74
     0
176
     1
 91
        4
176
     1
 64
     7
176
     1
 65
   257
176
     1
 75
     1
176
     1
175
     1
176
     1
 42
1.0
176
     1
 92
        8
176
     1
 66
   257
176
     1
 43
1.0
176
     1
 76
     1
176
     1
 77
     6
176
     1
 78
     2
176
     1
 67
     8
425
  7895160
176
     1
 79
     3
176
     1
170
     0
176
     1
171
     0
176
     1
290
     0
176
     1
 93
        5
176
     1
 44
0.0
176
     1
173
     0
176
     1
1001
ACAD
1000
AcDbSavedByObjectVersion
1070
     0
  0
VISUALSTYLE
  5
3D
102
{ACAD_XDICTIONARY
360
26A
102
}
102
{ACAD_REACTORS
330
29
102
}
330
29
100
AcDbVisualStyle
  2
Shaded with edges
 70
    26
177
     2
291
     0
 71
     2
176
     1
 72
     2
176
     1
 73
     1
176
     1
 90
        2
176
     1
 40
0.6
176
     1
 41
30.0
176
     1
 63
     7
421
 16777215
176
     1
 74
     1
176
     1
 91
        2
176
     1
 64
     7
176
     1
 65
   257
176
     1
 75
     2
176
     1
175
     1
176
     1
 42
1.0
176
     1
 92
        8
176
     1
 66
   257
176
     1
 43
1.0
176
     1
 76
     1
176
     1
 77
     6
176
     1
 78
     2
176
     1
 67
     7
176
     1
 79
     3
176
     1
170
     0
176
     1
171
     0
176
     1
290
     0
176
     1
 93
        5
176
     1
 44
0.0
176
     1
173
     0
176
     1
1001
ACAD
1000
AcDbSavedByObjectVersion
1070
     0
  0
VISUALSTYLE
  5
3A
102
{ACAD_XDICTIONARY
360
264
102
}
102
{ACAD_REACTORS
330
29
102
}
330
29
100
AcDbVisualStyle
  2
Shades of Gray
 70
    23
177
     2
291
     0
 71
     2
176
     1
 72
     2
176
     1
 73
     3
176
     1
 90
        0
176
     1
 40
0.6
176
     1
 41
30.0
176
     1
 63
     7
421
 16777215
176
     1
 74
     2
176
     1
 91
        2
176
     1
 64
     7
176
     1
 65
     7
176
     1
 75
     1
176
     1
175
     1
176
     1
 42
40.0
176
     1
 92
        8
176
     1
 66
     7
176
     1
 43
1.0
176
     1
 76
     1
176
     1
 77
     6
176
     1
 78
     2
176
     1
 67
     7
176
     1
 79
     3
176
     1
170
     0
176
     1
171
     0
176
     1
290
     0
176
     1
 93
        1
176
     1
 44
0.0
176
     1
173
     0
176
     1
1001
ACAD
1000
AcDbSavedByObjectVersion
1070
     0
  0
VISUALSTYLE
  5
3B
102
{ACAD_XDICTIONARY
360
266
102
}
102
{ACAD_REACTORS
330
29
102
}
330
29
100
AcDbVisualStyle
  2
Sketchy
 70
    24
177
     2
291
     0
 71
     1
176
     1
 72
     2
176
     1
 73
     2
176
     1
 90
        0
176
     1
 40
0.6
176
     1
 41
30.0
176
     1
 63
     7
421
 16777215
176
     1
 74
     2
176
     1
 91
        2
176
     1
 64
     7
176
     1
 65
     7
176
     1
 75
     1
176
     1
175
     1
176
     1
 42
40.0
176
     1
 92
       11
176
     1
 66
     7
176
     1
 43
1.0
176
     1
 76
     1
176
     1
 77
     6
176
     1
 78
     2
176
     1
 67
     7
176
     1
 79
     6
176
     1
170
     0
176
     1
171
     0
176
     1
290
     0
176
     1
 93
        1
176
     1
 44
0.0
176
     1
173
     0
176
     1
1001
ACAD
1000
AcDbSavedByObjectVersion
1070
     0
  0
VISUALSTYLE
  5
36
102
{ACAD_XDICTIONARY
360
25C
102
}
102
{ACAD_REACTORS
330
29
102
}
330
29
100
AcDbVisualStyle
  2
Thicken
 70
    13
177
     2
291
     1
 71
     2
176
     1
 72
     2
176
     1
 73
     0
176
     1
 90
        0
176
     1
 40
0.6
176
     1
 41
30.0
176
     1
 63
     7
421
 16777215
176
     1
 74
     1
176
     1
 91
        4
176
     1
 64
     7
176
     1
 65
   257
176
     1
 75
     1
176
     1
175
     1
176
     1
 42
1.0
176
     1
 92
       12
176
     1
 66
     7
176
     1
 43
1.0
176
     1
 76
     1
176
     1
 77
     6
176
     1
 78
     2
176
     1
 67
     7
176
     1
 79
     5
176
     1
170
     0
176
     1
171
     0
176
     1
290
     0
176
     1
 93
        1
176
     1
 44
0.0
176
     1
173
     0
176
     1
1001
ACAD
1000
AcDbSavedByObjectVersion
1070
     0
  0
VISUALSTYLE
  5
30
102
{ACAD_XDICTIONARY
360
250
102
}
102
{ACAD_REACTORS
330
29
102
}
330
29
100
AcDbVisualStyle
  2
Wireframe
 70
     5
177
     2
291
     0
 71
     0
176
     1
 72
     2
176
     1
 73
     0
176
     1
 90
        0
176
     1
 40
0.6
176
     1
 41
30.0
176
     1
 63
     7
421
 16777215
176
     1
 74
     1
176
     1
 91
        4
176
     1
 64
     7
176
     1
 65
   257
176
     1
 75
     1
176
     1
175
     1
176
     1
 42
1.0
176
     1
 92
        0
176
     1
 66
   257
176
     1
 43
1.0
176
     1
 76
     1
176
     1
 77
     6
176
     1
 78
     2
176
     1
 67
     7
176
     1
 79
     3
176
     1
170
     0
176
     1
171
     0
176
     1
290
     0
176
     1
 93
        1
176
     1
 44
0.0
176
     1
173
     0
176
     1
1001
ACAD
1000
AcDbSavedByObjectVersion
1070
     0
  0
VISUALSTYLE
  5
3C
102
{ACAD_XDICTIONARY
360
268
102
}
102
{ACAD_REACTORS
330
29
102
}
330
29
100
AcDbVisualStyle
  2
X-Ray
 70
    25
177
     2
291
     0
 71
     2
176
     1
 72
     2
176
     1
 73
     1
176
     1
 90
        1
176
     1
 40
0.5
176
     1
 41
30.0
176
     1
 63
     7
421
 16777215
176
     1
 74
     1
176
     1
 91
        0
176
     1
 64
     7
176
     1
 65
   257
176
     1
 75
     1
176
     1
175
     1
176
     1
 42
1.0
176
     1
 92
        8
176
     1
 66
     7
176
     1
 43
1.0
176
     1
 76
     1
176
     1
 77
     6
176
     1
 78
     2
176
     1
 67
     7
176
     1
 79
     3
176
     1
170
     0
176
     1
171
     0
176
     1
290
     0
176
     1
 93
       13
176
     1
 44
0.0
176
     1
173
     0
176
     1
1001
ACAD
1000
AcDbSavedByObjectVersion
1070
     0
  0
DICTIONARYVAR
  5
23F
102
{ACAD_REACTORS
330
23A
102
}
330
23A
100
DictionaryVariables
280
     0
  1
1:1
  0
DICTIONARYVAR
  5
23C
102
{ACAD_REACTORS
330
23A
102
}
330
23A
100
DictionaryVariables
280
     0
  1
STANDARD
  0
DICTIONARYVAR
  5
23B
102
{ACAD_REACTORS
330
23A
102
}
330
23A
100
DictionaryVariables
280
     0
  1
STANDARD
  0
DICTIONARYVAR
  5
23D
102
{ACAD_REACTORS
330
23A
102
}
330
23A
100
DictionaryVariables
280
     0
  1
Imperial24
  0
DICTIONARYVAR
  5
23E
102
{ACAD_REACTORS
330
23A
102
}
330
23A
100
DictionaryVariables
280
     0
  1
Imperial24
  0
DICTIONARY
  5
278
330
6B
100
AcDbDictionary
280
     1
281
     1
  3
ACAD_XREC_ROUNDTRIP
360
279
  0
DICTIONARY
  5
1A
330
19
100
AcDbDictionary
280
     1
281
     1
  3
BUMPTILE
360
1C
  3
DIFFUSETILE
360
1B
  3
OPACITYTILE
360
1F
  3
REFLECTIONTILE
360
1E
  3
REFRACTIONTILE
360
20
  3
SPECULARTILE
360
1D
  0
DICTIONARY
  5
12
330
11
100
AcDbDictionary
280
     1
281
     1
  3
BUMPTILE
360
14
  3
DIFFUSETILE
360
13
  3
OPACITYTILE
360
17
  3
REFLECTIONTILE
360
16
  3
REFRACTIONTILE
360
18
  3
SPECULARTILE
360
15
  0
DICTIONARY
  5
22
330
21
100
AcDbDictionary
280
     1
281
     1
  3
BUMPTILE
360
24
  3
DIFFUSETILE
360
23
  3
OPACITYTILE
360
27
  3
REFLECTIONTILE
360
26
  3
REFRACTIONTILE
360
28
  3
SPECULARTILE
360
25
  0
DICTIONARY
  5
274
330
67
100
AcDbDictionary
280
     1
281
     1
  3
ACAD_XREC_ROUNDTRIP
360
275
  0
DICTIONARY
  5
276
330
69
100
AcDbDictionary
280
     1
281
     1
  3
ACAD_XREC_ROUNDTRIP
360
277
  0
DICTIONARY
  5
240
330
65
100
AcDbDictionary
280
     1
281
     1
  3
ACAD_ROUNDTRIP_2008_TABLESTYLE_CELLSTYLEMAP
360
241
  0
DICTIONARY
  5
24E
330
2F
100
AcDbDictionary
280
     1
281
     1
  3
ACAD_XREC_ROUNDTRIP
360
24F
  0
DICTIONARY
  5
24C
330
2E
100
AcDbDictionary
280
     1
281
     1
  3
ACAD_XREC_ROUNDTRIP
360
24D
  0
DICTIONARY
  5
25A
330
35
100
AcDbDictionary
280
     1
281
     1
  3
ACAD_XREC_ROUNDTRIP
360
25B
  0
DICTIONARY
  5
262
330
39
100
AcDbDictionary
280
     1
281
     1
  3
ACAD_XREC_ROUNDTRIP
360
263
  0
DICTIONARY
  5
254
330
32
100
AcDbDictionary
280
     1
281
     1
  3
ACAD_XREC_ROUNDTRIP
360
255
  0
DICTIONARY
  5
258
330
34
100
AcDbDictionary
280
     1
281
     1
  3
ACAD_XREC_ROUNDTRIP
360
259
  0
DICTIONARY
  5
272
330
41
100
AcDbDictionary
280
     1
281
     1
  3
ACAD_XREC_ROUNDTRIP
360
273
  0
DICTIONARY
  5
260
330
38
100
AcDbDictionary
280
     1
281
     1
  3
ACAD_XREC_ROUNDTRIP
360
261
  0
DICTIONARY
  5
244
330
2A
100
AcDbDictionary
280
     1
281
     1
  3
ACAD_XREC_ROUNDTRIP
360
245
  0
DICTIONARY
  5
246
330
2B
100
AcDbDictionary
280
     1
281
     1
  3
ACAD_XREC_ROUNDTRIP
360
247
  0
DICTIONARY
  5
248
330
2C
100
AcDbDictionary
280
     1
281
     1
  3
ACAD_XREC_ROUNDTRIP
360
249
  0
DICTIONARY
  5
24A
330
2D
100
AcDbDictionary
280
     1
281
     1
  3
ACAD_XREC_ROUNDTRIP
360
24B
  0
DICTIONARY
  5
252
330
31
100
AcDbDictionary
280
     1
281
     1
  3
ACAD_XREC_ROUNDTRIP
360
253
  0
DICTIONARY
  5
26E
330
3F
100
AcDbDictionary
280
     1
281
     1
  3
ACAD_XREC_ROUNDTRIP
360
26F
  0
DICTIONARY
  5
25E
330
37
100
AcDbDictionary
280
     1
281
     1
  3
ACAD_XREC_ROUNDTRIP
360
25F
  0
DICTIONARY
  5
270
330
40
100
AcDbDictionary
280
     1
281
     1
  3
ACAD_XREC_ROUNDTRIP
360
271
  0
DICTIONARY
  5
256
330
33
100
AcDbDictionary
280
     1
281
     1
  3
ACAD_XREC_ROUNDTRIP
360
257
  0
DICTIONARY
  5
26C
330
3E
100
AcDbDictionary
280
     1
281
     1
  3
ACAD_XREC_ROUNDTRIP
360
26D
  0
DICTIONARY
  5
26A
330
3D
100
AcDbDictionary
280
     1
281
     1
  3
ACAD_XREC_ROUNDTRIP
360
26B
  0
DICTIONARY
  5
264
330
3A
100
AcDbDictionary
280
     1
281
     1
  3
ACAD_XREC_ROUNDTRIP
360
265
  0
DICTIONARY
  5
266
330
3B
100
AcDbDictionary
280
     1
281
     1
  3
ACAD_XREC_ROUNDTRIP
360
267
  0
DICTIONARY
  5
25C
330
36
100
AcDbDictionary
280
     1
281
     1
  3
ACAD_XREC_ROUNDTRIP
360
25D
  0
DICTIONARY
  5
250
330
30
100
AcDbDictionary
280
     1
281
     1
  3
ACAD_XREC_ROUNDTRIP
360
251
  0
DICTIONARY
  5
268
330
3C
100
AcDbDictionary
280
     1
281
     1
  3
ACAD_XREC_ROUNDTRIP
360
269
  0
XRECORD
  5
279
102
{ACAD_REACTORS
330
278
102
}
330
278
100
AcDbXrecord
280
     1
102
DISPLAYNAME
  1
Imperial24
102
FLAGS
 90
        0
  0
XRECORD
  5
1C
102
{ACAD_REACTORS
330
1A
102
}
330
1A
100
AcDbXrecord
280
     1
270
     1
271
     1
  0
XRECORD
  5
1B
102
{ACAD_REACTORS
330
1A
102
}
330
1A
100
AcDbXrecord
280
     1
270
     1
271
     1
  0
XRECORD
  5
1F
102
{ACAD_REACTORS
330
1A
102
}
330
1A
100
AcDbXrecord
280
     1
270
     1
271
     1
  0
XRECORD
  5
1E
102
{ACAD_REACTORS
330
1A
102
}
330
1A
100
AcDbXrecord
280
     1
270
     1
271
     1
  0
XRECORD
  5
20
102
{ACAD_REACTORS
330
1A
102
}
330
1A
100
AcDbXrecord
280
     1
270
     1
271
     1
  0
XRECORD
  5
1D
102
{ACAD_REACTORS
330
1A
102
}
330
1A
100
AcDbXrecord
280
     1
270
     1
271
     1
  0
XRECORD
  5
14
102
{ACAD_REACTORS
330
12
102
}
330
12
100
AcDbXrecord
280
     1
270
     1
271
     1
  0
XRECORD
  5
13
102
{ACAD_REACTORS
330
12
102
}
330
12
100
AcDbXrecord
280
     1
270
     1
271
     1
  0
XRECORD
  5
17
102
{ACAD_REACTORS
330
12
102
}
330
12
100
AcDbXrecord
280
     1
270
     1
271
     1
  0
XRECORD
  5
16
102
{ACAD_REACTORS
330
12
102
}
330
12
100
AcDbXrecord
280
     1
270
     1
271
     1
  0
XRECORD
  5
18
102
{ACAD_REACTORS
330
12
102
}
330
12
100
AcDbXrecord
280
     1
270
     1
271
     1
  0
XRECORD
  5
15
102
{ACAD_REACTORS
330
12
102
}
330
12
100
AcDbXrecord
280
     1
270
     1
271
     1
  0
XRECORD
  5
24
102
{ACAD_REACTORS
330
22
102
}
330
22
100
AcDbXrecord
280
     1
270
     1
271
     1
  0
XRECORD
  5
23
102
{ACAD_REACTORS
330
22
102
}
330
22
100
AcDbXrecord
280
     1
270
     1
271
     1
  0
XRECORD
  5
27
102
{ACAD_REACTORS
330
22
102
}
330
22
100
AcDbXrecord
280
     1
270
     1
271
     1
  0
XRECORD
  5
26
102
{ACAD_REACTORS
330
22
102
}
330
22
100
AcDbXrecord
280
     1
270
     1
271
     1
  0
XRECORD
  5
28
102
{ACAD_REACTORS
330
22
102
}
330
22
100
AcDbXrecord
280
     1
270
     1
271
     1
  0
XRECORD
  5
25
102
{ACAD_REACTORS
330
22
102
}
330
22
100
AcDbXrecord
280
     1
270
     1
271
     1
  0
XRECORD
  5
275
102
{ACAD_REACTORS
330
274
102
}
330
274
100
AcDbXrecord
280
     1
102
ACAD_ROUNDTRIP_2012_MLEADER_STYLE
298
     1
  0
XRECORD
  5
277
102
{ACAD_REACTORS
330
276
102
}
330
276
100
AcDbXrecord
280
     1
102
DISPLAYNAME
  1
Imperial24
102
FLAGS
 90
        0
  0
CELLSTYLEMAP
  5
241
102
{ACAD_REACTORS
330
240
102
}
330
240
100
AcDbCellStyleMap
 90
        3
300
CELLSTYLE
  1
TABLEFORMAT_BEGIN
 90
        5
170
     1
 91
        0
 92
    32768
 62
   257
 93
        1
300
CONTENTFORMAT
  1
CONTENTFORMAT_BEGIN
 90
        0
 91
        0
 92
      512
 93
        0
300

 40
0.0
140
1.0
 94
        5
 62
     0
340
55
144
0.25
309
CONTENTFORMAT_END
171
     0
 94
        0
309
TABLEFORMAT_END
  1
CELLSTYLE_BEGIN
 90
        1
 91
        1
300
_TITLE
309
CELLSTYLE_END
300
CELLSTYLE
  1
TABLEFORMAT_BEGIN
 90
        5
170
     1
 91
        0
 92
        0
 62
   257
 93
        1
300
CONTENTFORMAT
  1
CONTENTFORMAT_BEGIN
 90
        0
 91
        0
 92
      512
 93
        0
300

 40
0.0
140
1.0
 94
        5
 62
     0
340
55
144
0.18
309
CONTENTFORMAT_END
171
     0
 94
        0
309
TABLEFORMAT_END
  1
CELLSTYLE_BEGIN
 90
        2
 91
        1
300
_HEADER
309
CELLSTYLE_END
300
CELLSTYLE
  1
TABLEFORMAT_BEGIN
 90
        5
170
     1
 91
        0
 92
        0
 62
   257
 93
        1
300
CONTENTFORMAT
  1
CONTENTFORMAT_BEGIN
 90
        0
 91
        0
 92
      512
 93
        0
300

 40
0.0
140
1.0
 94
        2
 62
     0
340
55
144
0.18
309
CONTENTFORMAT_END
171
     0
 94
        0
309
TABLEFORMAT_END
  1
CELLSTYLE_BEGIN
 90
        3
 91
        2
300
_DATA
309
CELLSTYLE_END
  0
XRECORD
  5
24F
102
{ACAD_REACTORS
330
24E
102
}
330
24E
100
AcDbXrecord
280
     1
102
RTVSPost2010Prop28
280
     1
102
RTVSPost2010PropOp28
 70
     1
102
RTVSPost2010Prop29
280
     1
102
RTVSPost2010PropOp29
 70
     1
102
RTVSPost2010Prop30
280
     0
102
RTVSPost2010PropOp30
 70
     1
102
RTVSPost2010Prop31
280
     0
102
RTVSPost2010PropOp31
 70
     1
102
RTVSPost2010Prop32
280
     0
102
RTVSPost2010PropOp32
 70
     1
102
RTVSPost2010Prop33
280
     0
102
RTVSPost2010PropOp33
 70
     1
102
RTVSPost2010Prop34
280
     0
102
RTVSPost2010PropOp34
 70
     1
102
RTVSPost2010Prop35
280
     0
102
RTVSPost2010PropOp35
 70
     1
102
RTVSPost2010Prop36
280
     0
102
RTVSPost2010PropOp36
 70
     1
102
RTVSPost2010Prop37
 90
       50
102
RTVSPost2010PropOp37
 70
     1
102
RTVSPost2010Prop38
140
0.0
102
RTVSPost2010PropOp38
 70
     1
102
RTVSPost2010Prop39
140
1.0
102
RTVSPost2010PropOp39
 70
     1
102
RTVSPost2010Prop40
 90
        0
102
RTVSPost2010PropOp40
 70
     1
102
RTVSPost2010Prop41ColorIndex
 90
       18
102
RTVSPost2010Prop41ColorRGB
 90
        0
102
RTVSPost2010PropOp41
 70
     1
102
RTVSPost2010Prop42
 90
       50
102
RTVSPost2010PropOp42
 70
     1
102
RTVSPost2010Prop43
 90
        3
102
RTVSPost2010PropOp43
 70
     1
102
RTVSPost2010Prop44ColorIndex
 90
        5
102
RTVSPost2010Prop44ColorRGB
 90
      255
102
RTVSPost2010PropOp44
 70
     1
102
RTVSPost2010Prop45
280
     0
102
RTVSPost2010PropOp45
 70
     1
102
RTVSPost2010Prop46
 90
       50
102
RTVSPost2010PropOp46
 70
     1
102
RTVSPost2010Prop47
 90
       50
102
RTVSPost2010PropOp47
 70
     1
102
RTVSPost2010Prop48
 90
       50
102
RTVSPost2010PropOp48
 70
     1
102
RTVSPost2010Prop49
280
     0
102
RTVSPost2010PropOp49
 70
     1
102
RTVSPost2010Prop50
 90
       50
102
RTVSPost2010PropOp50
 70
     1
102
RTVSPost2010Prop51ColorIndex
 90
      256
102
RTVSPost2010Prop51ColorRGB
 90
-16777216
102
RTVSPost2010PropOp51
 70
     0
102
RTVSPost2010Prop52
140
1.0
102
RTVSPost2010PropOp52
 70
     0
102
RTVSPost2010Prop53
 90
        2
102
RTVSPost2010PropOp53
 70
     1
102
RTVSPost2010Prop54
  1
strokes_ogs.tif
102
RTVSPost2010PropOp54
 70
     1
102
RTVSPost2010Prop55
280
     0
102
RTVSPost2010PropOp55
 70
     1
102
RTVSPost2010Prop56
140
1.0
102
RTVSPost2010PropOp56
 70
     1
102
RTVSPost2010Prop57
140
1.0
102
RTVSPost2010PropOp57
 70
     1
  0
XRECORD
  5
24D
102
{ACAD_REACTORS
330
24C
102
}
330
24C
100
AcDbXrecord
280
     1
102
RTVSPost2010Prop28
280
     0
102
RTVSPost2010PropOp28
 70
     1
102
RTVSPost2010Prop29
280
     1
102
RTVSPost2010PropOp29
 70
     1
102
RTVSPost2010Prop30
280
     1
102
RTVSPost2010PropOp30
 70
     1
102
RTVSPost2010Prop31
280
     0
102
RTVSPost2010PropOp31
 70
     1
102
RTVSPost2010Prop32
280
     0
102
RTVSPost2010PropOp32
 70
     1
102
RTVSPost2010Prop33
280
     0
102
RTVSPost2010PropOp33
 70
     1
102
RTVSPost2010Prop34
280
     0
102
RTVSPost2010PropOp34
 70
     1
102
RTVSPost2010Prop35
280
     0
102
RTVSPost2010PropOp35
 70
     1
102
RTVSPost2010Prop36
280
     0
102
RTVSPost2010PropOp36
 70
     1
102
RTVSPost2010Prop37
 90
       50
102
RTVSPost2010PropOp37
 70
     1
102
RTVSPost2010Prop38
140
0.0
102
RTVSPost2010PropOp38
 70
     1
102
RTVSPost2010Prop39
140
1.0
102
RTVSPost2010PropOp39
 70
     1
102
RTVSPost2010Prop40
 90
        0
102
RTVSPost2010PropOp40
 70
     1
102
RTVSPost2010Prop41ColorIndex
 90
       18
102
RTVSPost2010Prop41ColorRGB
 90
        0
102
RTVSPost2010PropOp41
 70
     1
102
RTVSPost2010Prop42
 90
       50
102
RTVSPost2010PropOp42
 70
     1
102
RTVSPost2010Prop43
 90
        3
102
RTVSPost2010PropOp43
 70
     1
102
RTVSPost2010Prop44ColorIndex
 90
        5
102
RTVSPost2010Prop44ColorRGB
 90
      255
102
RTVSPost2010PropOp44
 70
     1
102
RTVSPost2010Prop45
280
     0
102
RTVSPost2010PropOp45
 70
     1
102
RTVSPost2010Prop46
 90
       50
102
RTVSPost2010PropOp46
 70
     1
102
RTVSPost2010Prop47
 90
       50
102
RTVSPost2010PropOp47
 70
     1
102
RTVSPost2010Prop48
 90
       50
102
RTVSPost2010PropOp48
 70
     1
102
RTVSPost2010Prop49
280
     0
102
RTVSPost2010PropOp49
 70
     1
102
RTVSPost2010Prop50
 90
       50
102
RTVSPost2010PropOp50
 70
     1
102
RTVSPost2010Prop51ColorIndex
 90
      256
102
RTVSPost2010Prop51ColorRGB
 90
-16777216
102
RTVSPost2010PropOp51
 70
     0
102
RTVSPost2010Prop52
140
1.0
102
RTVSPost2010PropOp52
 70
     0
102
RTVSPost2010Prop53
 90
        2
102
RTVSPost2010PropOp53
 70
     1
102
RTVSPost2010Prop54
  1
strokes_ogs.tif
102
RTVSPost2010PropOp54
 70
     1
102
RTVSPost2010Prop55
280
     0
102
RTVSPost2010PropOp55
 70
     1
102
RTVSPost2010Prop56
140
1.0
102
RTVSPost2010PropOp56
 70
     1
102
RTVSPost2010Prop57
140
1.0
102
RTVSPost2010PropOp57
 70
     1
  0
XRECORD
  5
25B
102
{ACAD_REACTORS
330
25A
102
}
330
25A
100
AcDbXrecord
280
     1
102
RTVSPost2010Prop28
280
     0
102
RTVSPost2010PropOp28
 70
     1
102
RTVSPost2010Prop29
280
     1
102
RTVSPost2010PropOp29
 70
     1
102
RTVSPost2010Prop30
280
     1
102
RTVSPost2010PropOp30
 70
     1
102
RTVSPost2010Prop31
280
     0
102
RTVSPost2010PropOp31
 70
     1
102
RTVSPost2010Prop32
280
     0
102
RTVSPost2010PropOp32
 70
     1
102
RTVSPost2010Prop33
280
     0
102
RTVSPost2010PropOp33
 70
     1
102
RTVSPost2010Prop34
280
     0
102
RTVSPost2010PropOp34
 70
     1
102
RTVSPost2010Prop35
280
     0
102
RTVSPost2010PropOp35
 70
     1
102
RTVSPost2010Prop36
280
     0
102
RTVSPost2010PropOp36
 70
     1
102
RTVSPost2010Prop37
 90
       50
102
RTVSPost2010PropOp37
 70
     1
102
RTVSPost2010Prop38
140
0.0
102
RTVSPost2010PropOp38
 70
     1
102
RTVSPost2010Prop39
140
1.0
102
RTVSPost2010PropOp39
 70
     1
102
RTVSPost2010Prop40
 90
        0
102
RTVSPost2010PropOp40
 70
     1
102
RTVSPost2010Prop41ColorIndex
 90
       18
102
RTVSPost2010Prop41ColorRGB
 90
        0
102
RTVSPost2010PropOp41
 70
     1
102
RTVSPost2010Prop42
 90
       50
102
RTVSPost2010PropOp42
 70
     1
102
RTVSPost2010Prop43
 90
        3
102
RTVSPost2010PropOp43
 70
     1
102
RTVSPost2010Prop44ColorIndex
 90
        5
102
RTVSPost2010Prop44ColorRGB
 90
      255
102
RTVSPost2010PropOp44
 70
     1
102
RTVSPost2010Prop45
280
     0
102
RTVSPost2010PropOp45
 70
     1
102
RTVSPost2010Prop46
 90
       50
102
RTVSPost2010PropOp46
 70
     1
102
RTVSPost2010Prop47
 90
       50
102
RTVSPost2010PropOp47
 70
     1
102
RTVSPost2010Prop48
 90
       50
102
RTVSPost2010PropOp48
 70
     1
102
RTVSPost2010Prop49
280
     0
102
RTVSPost2010PropOp49
 70
     1
102
RTVSPost2010Prop50
 90
       50
102
RTVSPost2010PropOp50
 70
     1
102
RTVSPost2010Prop51ColorIndex
 90
      256
102
RTVSPost2010Prop51ColorRGB
 90
-16777216
102
RTVSPost2010PropOp51
 70
     0
102
RTVSPost2010Prop52
140
1.0
102
RTVSPost2010PropOp52
 70
     0
102
RTVSPost2010Prop53
 90
        2
102
RTVSPost2010PropOp53
 70
     1
102
RTVSPost2010Prop54
  1
strokes_ogs.tif
102
RTVSPost2010PropOp54
 70
     1
102
RTVSPost2010Prop55
280
     0
102
RTVSPost2010PropOp55
 70
     1
102
RTVSPost2010Prop56
140
1.0
102
RTVSPost2010PropOp56
 70
     1
102
RTVSPost2010Prop57
140
1.0
102
RTVSPost2010PropOp57
 70
     1
  0
XRECORD
  5
263
102
{ACAD_REACTORS
330
262
102
}
330
262
100
AcDbXrecord
280
     1
102
RTVSPost2010Prop28
280
     0
102
RTVSPost2010PropOp28
 70
     1
102
RTVSPost2010Prop29
280
     1
102
RTVSPost2010PropOp29
 70
     1
102
RTVSPost2010Prop30
280
     1
102
RTVSPost2010PropOp30
 70
     1
102
RTVSPost2010Prop31
280
     0
102
RTVSPost2010PropOp31
 70
     1
102
RTVSPost2010Prop32
280
     0
102
RTVSPost2010PropOp32
 70
     1
102
RTVSPost2010Prop33
280
     0
102
RTVSPost2010PropOp33
 70
     1
102
RTVSPost2010Prop34
280
     0
102
RTVSPost2010PropOp34
 70
     1
102
RTVSPost2010Prop35
280
     0
102
RTVSPost2010PropOp35
 70
     1
102
RTVSPost2010Prop36
280
     0
102
RTVSPost2010PropOp36
 70
     1
102
RTVSPost2010Prop37
 90
       50
102
RTVSPost2010PropOp37
 70
     1
102
RTVSPost2010Prop38
140
0.0
102
RTVSPost2010PropOp38
 70
     1
102
RTVSPost2010Prop39
140
1.0
102
RTVSPost2010PropOp39
 70
     1
102
RTVSPost2010Prop40
 90
        0
102
RTVSPost2010PropOp40
 70
     1
102
RTVSPost2010Prop41ColorIndex
 90
       18
102
RTVSPost2010Prop41ColorRGB
 90
        0
102
RTVSPost2010PropOp41
 70
     1
102
RTVSPost2010Prop42
 90
       50
102
RTVSPost2010PropOp42
 70
     1
102
RTVSPost2010Prop43
 90
        3
102
RTVSPost2010PropOp43
 70
     1
102
RTVSPost2010Prop44ColorIndex
 90
        5
102
RTVSPost2010Prop44ColorRGB
 90
      255
102
RTVSPost2010PropOp44
 70
     1
102
RTVSPost2010Prop45
280
     0
102
RTVSPost2010PropOp45
 70
     1
102
RTVSPost2010Prop46
 90
       50
102
RTVSPost2010PropOp46
 70
     1
102
RTVSPost2010Prop47
 90
       50
102
RTVSPost2010PropOp47
 70
     1
102
RTVSPost2010Prop48
 90
       50
102
RTVSPost2010PropOp48
 70
     1
102
RTVSPost2010Prop49
280
     0
102
RTVSPost2010PropOp49
 70
     1
102
RTVSPost2010Prop50
 90
       50
102
RTVSPost2010PropOp50
 70
     1
102
RTVSPost2010Prop51ColorIndex
 90
      256
102
RTVSPost2010Prop51ColorRGB
 90
-16777216
102
RTVSPost2010PropOp51
 70
     0
102
RTVSPost2010Prop52
140
1.0
102
RTVSPost2010PropOp52
 70
     0
102
RTVSPost2010Prop53
 90
        2
102
RTVSPost2010PropOp53
 70
     1
102
RTVSPost2010Prop54
  1
strokes_ogs.tif
102
RTVSPost2010PropOp54
 70
     1
102
RTVSPost2010Prop55
280
     0
102
RTVSPost2010PropOp55
 70
     1
102
RTVSPost2010Prop56
140
1.0
102
RTVSPost2010PropOp56
 70
     1
102
RTVSPost2010Prop57
140
1.0
102
RTVSPost2010PropOp57
 70
     1
  0
XRECORD
  5
255
102
{ACAD_REACTORS
330
254
102
}
330
254
100
AcDbXrecord
280
     1
102
RTVSPost2010Prop28
280
     0
102
RTVSPost2010PropOp28
 70
     1
102
RTVSPost2010Prop29
280
     1
102
RTVSPost2010PropOp29
 70
     1
102
RTVSPost2010Prop30
280
     1
102
RTVSPost2010PropOp30
 70
     1
102
RTVSPost2010Prop31
280
     0
102
RTVSPost2010PropOp31
 70
     1
102
RTVSPost2010Prop32
280
     0
102
RTVSPost2010PropOp32
 70
     1
102
RTVSPost2010Prop33
280
     0
102
RTVSPost2010PropOp33
 70
     1
102
RTVSPost2010Prop34
280
     0
102
RTVSPost2010PropOp34
 70
     1
102
RTVSPost2010Prop35
280
     0
102
RTVSPost2010PropOp35
 70
     1
102
RTVSPost2010Prop36
280
     0
102
RTVSPost2010PropOp36
 70
     1
102
RTVSPost2010Prop37
 90
       50
102
RTVSPost2010PropOp37
 70
     1
102
RTVSPost2010Prop38
140
0.0
102
RTVSPost2010PropOp38
 70
     1
102
RTVSPost2010Prop39
140
1.0
102
RTVSPost2010PropOp39
 70
     1
102
RTVSPost2010Prop40
 90
        0
102
RTVSPost2010PropOp40
 70
     1
102
RTVSPost2010Prop41ColorIndex
 90
       18
102
RTVSPost2010Prop41ColorRGB
 90
        0
102
RTVSPost2010PropOp41
 70
     1
102
RTVSPost2010Prop42
 90
       50
102
RTVSPost2010PropOp42
 70
     1
102
RTVSPost2010Prop43
 90
        3
102
RTVSPost2010PropOp43
 70
     1
102
RTVSPost2010Prop44ColorIndex
 90
        5
102
RTVSPost2010Prop44ColorRGB
 90
      255
102
RTVSPost2010PropOp44
 70
     1
102
RTVSPost2010Prop45
280
     0
102
RTVSPost2010PropOp45
 70
     1
102
RTVSPost2010Prop46
 90
       50
102
RTVSPost2010PropOp46
 70
     1
102
RTVSPost2010Prop47
 90
       50
102
RTVSPost2010PropOp47
 70
     1
102
RTVSPost2010Prop48
 90
       50
102
RTVSPost2010PropOp48
 70
     1
102
RTVSPost2010Prop49
280
     0
102
RTVSPost2010PropOp49
 70
     1
102
RTVSPost2010Prop50
 90
       50
102
RTVSPost2010PropOp50
 70
     1
102
RTVSPost2010Prop51ColorIndex
 90
      256
102
RTVSPost2010Prop51ColorRGB
 90
-16777216
102
RTVSPost2010PropOp51
 70
     0
102
RTVSPost2010Prop52
140
1.0
102
RTVSPost2010PropOp52
 70
     0
102
RTVSPost2010Prop53
 90
        2
102
RTVSPost2010PropOp53
 70
     1
102
RTVSPost2010Prop54
  1
strokes_ogs.tif
102
RTVSPost2010PropOp54
 70
     1
102
RTVSPost2010Prop55
280
     0
102
RTVSPost2010PropOp55
 70
     1
102
RTVSPost2010Prop56
140
1.0
102
RTVSPost2010PropOp56
 70
     1
102
RTVSPost2010Prop57
140
1.0
102
RTVSPost2010PropOp57
 70
     1
  0
XRECORD
  5
259
102
{ACAD_REACTORS
330
258
102
}
330
258
100
AcDbXrecord
280
     1
102
RTVSPost2010Prop28
280
     0
102
RTVSPost2010PropOp28
 70
     1
102
RTVSPost2010Prop29
280
     1
102
RTVSPost2010PropOp29
 70
     1
102
RTVSPost2010Prop30
280
     1
102
RTVSPost2010PropOp30
 70
     1
102
RTVSPost2010Prop31
280
     0
102
RTVSPost2010PropOp31
 70
     1
102
RTVSPost2010Prop32
280
     0
102
RTVSPost2010PropOp32
 70
     1
102
RTVSPost2010Prop33
280
     0
102
RTVSPost2010PropOp33
 70
     1
102
RTVSPost2010Prop34
280
     0
102
RTVSPost2010PropOp34
 70
     1
102
RTVSPost2010Prop35
280
     0
102
RTVSPost2010PropOp35
 70
     1
102
RTVSPost2010Prop36
280
     0
102
RTVSPost2010PropOp36
 70
     1
102
RTVSPost2010Prop37
 90
       50
102
RTVSPost2010PropOp37
 70
     1
102
RTVSPost2010Prop38
140
0.0
102
RTVSPost2010PropOp38
 70
     1
102
RTVSPost2010Prop39
140
1.0
102
RTVSPost2010PropOp39
 70
     1
102
RTVSPost2010Prop40
 90
        0
102
RTVSPost2010PropOp40
 70
     1
102
RTVSPost2010Prop41ColorIndex
 90
       18
102
RTVSPost2010Prop41ColorRGB
 90
        0
102
RTVSPost2010PropOp41
 70
     1
102
RTVSPost2010Prop42
 90
       50
102
RTVSPost2010PropOp42
 70
     1
102
RTVSPost2010Prop43
 90
        3
102
RTVSPost2010PropOp43
 70
     1
102
RTVSPost2010Prop44ColorIndex
 90
        5
102
RTVSPost2010Prop44ColorRGB
 90
      255
102
RTVSPost2010PropOp44
 70
     1
102
RTVSPost2010Prop45
280
     0
102
RTVSPost2010PropOp45
 70
     1
102
RTVSPost2010Prop46
 90
       50
102
RTVSPost2010PropOp46
 70
     1
102
RTVSPost2010Prop47
 90
       50
102
RTVSPost2010PropOp47
 70
     1
102
RTVSPost2010Prop48
 90
       50
102
RTVSPost2010PropOp48
 70
     1
102
RTVSPost2010Prop49
280
     0
102
RTVSPost2010PropOp49
 70
     1
102
RTVSPost2010Prop50
 90
       50
102
RTVSPost2010PropOp50
 70
     1
102
RTVSPost2010Prop51ColorIndex
 90
      256
102
RTVSPost2010Prop51ColorRGB
 90
-16777216
102
RTVSPost2010PropOp51
 70
     0
102
RTVSPost2010Prop52
140
1.0
102
RTVSPost2010PropOp52
 70
     0
102
RTVSPost2010Prop53
 90
        2
102
RTVSPost2010PropOp53
 70
     1
102
RTVSPost2010Prop54
  1
strokes_ogs.tif
102
RTVSPost2010PropOp54
 70
     1
102
RTVSPost2010Prop55
280
     0
102
RTVSPost2010PropOp55
 70
     1
102
RTVSPost2010Prop56
140
1.0
102
RTVSPost2010PropOp56
 70
     1
102
RTVSPost2010Prop57
140
1.0
102
RTVSPost2010PropOp57
 70
     1
  0
XRECORD
  5
273
102
{ACAD_REACTORS
330
272
102
}
330
272
100
AcDbXrecord
280
     1
102
RTVSPost2010Prop28
280
     0
102
RTVSPost2010PropOp28
 70
     0
102
RTVSPost2010Prop29
280
     1
102
RTVSPost2010PropOp29
 70
     0
102
RTVSPost2010Prop30
280
     1
102
RTVSPost2010PropOp30
 70
     0
102
RTVSPost2010Prop31
280
     0
102
RTVSPost2010PropOp31
 70
     0
102
RTVSPost2010Prop32
280
     0
102
RTVSPost2010PropOp32
 70
     0
102
RTVSPost2010Prop33
280
     0
102
RTVSPost2010PropOp33
 70
     0
102
RTVSPost2010Prop34
280
     0
102
RTVSPost2010PropOp34
 70
     0
102
RTVSPost2010Prop35
280
     0
102
RTVSPost2010PropOp35
 70
     0
102
RTVSPost2010Prop36
280
     0
102
RTVSPost2010PropOp36
 70
     0
102
RTVSPost2010Prop37
 90
       50
102
RTVSPost2010PropOp37
 70
     0
102
RTVSPost2010Prop38
140
0.0
102
RTVSPost2010PropOp38
 70
     0
102
RTVSPost2010Prop39
140
1.0
102
RTVSPost2010PropOp39
 70
     0
102
RTVSPost2010Prop40
 90
        0
102
RTVSPost2010PropOp40
 70
     0
102
RTVSPost2010Prop41ColorIndex
 90
       18
102
RTVSPost2010Prop41ColorRGB
 90
        0
102
RTVSPost2010PropOp41
 70
     0
102
RTVSPost2010Prop42
 90
       50
102
RTVSPost2010PropOp42
 70
     0
102
RTVSPost2010Prop43
 90
        3
102
RTVSPost2010PropOp43
 70
     0
102
RTVSPost2010Prop44ColorIndex
 90
        5
102
RTVSPost2010Prop44ColorRGB
 90
      255
102
RTVSPost2010PropOp44
 70
     0
102
RTVSPost2010Prop45
280
     0
102
RTVSPost2010PropOp45
 70
     0
102
RTVSPost2010Prop46
 90
       50
102
RTVSPost2010PropOp46
 70
     0
102
RTVSPost2010Prop47
 90
       50
102
RTVSPost2010PropOp47
 70
     0
102
RTVSPost2010Prop48
 90
       50
102
RTVSPost2010PropOp48
 70
     0
102
RTVSPost2010Prop49
280
     0
102
RTVSPost2010PropOp49
 70
     0
102
RTVSPost2010Prop50
 90
       50
102
RTVSPost2010PropOp50
 70
     0
102
RTVSPost2010Prop51ColorIndex
 90
      256
102
RTVSPost2010Prop51ColorRGB
 90
-16777216
102
RTVSPost2010PropOp51
 70
     0
102
RTVSPost2010Prop52
140
1.0
102
RTVSPost2010PropOp52
 70
     0
102
RTVSPost2010Prop53
 90
        2
102
RTVSPost2010PropOp53
 70
     0
102
RTVSPost2010Prop54
  1
strokes_ogs.tif
102
RTVSPost2010PropOp54
 70
     0
102
RTVSPost2010Prop55
280
     0
102
RTVSPost2010PropOp55
 70
     0
102
RTVSPost2010Prop56
140
1.0
102
RTVSPost2010PropOp56
 70
     0
102
RTVSPost2010Prop57
140
1.0
102
RTVSPost2010PropOp57
 70
     0
  0
XRECORD
  5
261
102
{ACAD_REACTORS
330
260
102
}
330
260
100
AcDbXrecord
280
     1
102
RTVSPost2010Prop28
280
     0
102
RTVSPost2010PropOp28
 70
     1
102
RTVSPost2010Prop29
280
     1
102
RTVSPost2010PropOp29
 70
     1
102
RTVSPost2010Prop30
280
     1
102
RTVSPost2010PropOp30
 70
     1
102
RTVSPost2010Prop31
280
     0
102
RTVSPost2010PropOp31
 70
     1
102
RTVSPost2010Prop32
280
     0
102
RTVSPost2010PropOp32
 70
     1
102
RTVSPost2010Prop33
280
     0
102
RTVSPost2010PropOp33
 70
     1
102
RTVSPost2010Prop34
280
     0
102
RTVSPost2010PropOp34
 70
     1
102
RTVSPost2010Prop35
280
     0
102
RTVSPost2010PropOp35
 70
     1
102
RTVSPost2010Prop36
280
     0
102
RTVSPost2010PropOp36
 70
     1
102
RTVSPost2010Prop37
 90
       50
102
RTVSPost2010PropOp37
 70
     1
102
RTVSPost2010Prop38
140
0.0
102
RTVSPost2010PropOp38
 70
     1
102
RTVSPost2010Prop39
140
1.0
102
RTVSPost2010PropOp39
 70
     1
102
RTVSPost2010Prop40
 90
        0
102
RTVSPost2010PropOp40
 70
     1
102
RTVSPost2010Prop41ColorIndex
 90
       18
102
RTVSPost2010Prop41ColorRGB
 90
        0
102
RTVSPost2010PropOp41
 70
     1
102
RTVSPost2010Prop42
 90
       50
102
RTVSPost2010PropOp42
 70
     1
102
RTVSPost2010Prop43
 90
        3
102
RTVSPost2010PropOp43
 70
     1
102
RTVSPost2010Prop44ColorIndex
 90
        5
102
RTVSPost2010Prop44ColorRGB
 90
      255
102
RTVSPost2010PropOp44
 70
     1
102
RTVSPost2010Prop45
280
     0
102
RTVSPost2010PropOp45
 70
     1
102
RTVSPost2010Prop46
 90
       50
102
RTVSPost2010PropOp46
 70
     1
102
RTVSPost2010Prop47
 90
       50
102
RTVSPost2010PropOp47
 70
     1
102
RTVSPost2010Prop48
 90
       50
102
RTVSPost2010PropOp48
 70
     1
102
RTVSPost2010Prop49
280
     0
102
RTVSPost2010PropOp49
 70
     1
102
RTVSPost2010Prop50
 90
       50
102
RTVSPost2010PropOp50
 70
     1
102
RTVSPost2010Prop51ColorIndex
 90
      256
102
RTVSPost2010Prop51ColorRGB
 90
-16777216
102
RTVSPost2010PropOp51
 70
     0
102
RTVSPost2010Prop52
140
1.0
102
RTVSPost2010PropOp52
 70
     0
102
RTVSPost2010Prop53
 90
        2
102
RTVSPost2010PropOp53
 70
     1
102
RTVSPost2010Prop54
  1
strokes_ogs.tif
102
RTVSPost2010PropOp54
 70
     1
102
RTVSPost2010Prop55
280
     0
102
RTVSPost2010PropOp55
 70
     1
102
RTVSPost2010Prop56
140
1.0
102
RTVSPost2010PropOp56
 70
     1
102
RTVSPost2010Prop57
140
1.0
102
RTVSPost2010PropOp57
 70
     1
  0
XRECORD
  5
245
102
{ACAD_REACTORS
330
244
102
}
330
244
100
AcDbXrecord
280
     1
102
RTVSPost2010Prop28
280
     0
102
RTVSPost2010PropOp28
 70
     1
102
RTVSPost2010Prop29
280
     1
102
RTVSPost2010PropOp29
 70
     1
102
RTVSPost2010Prop30
280
     1
102
RTVSPost2010PropOp30
 70
     1
102
RTVSPost2010Prop31
280
     0
102
RTVSPost2010PropOp31
 70
     1
102
RTVSPost2010Prop32
280
     0
102
RTVSPost2010PropOp32
 70
     1
102
RTVSPost2010Prop33
280
     0
102
RTVSPost2010PropOp33
 70
     1
102
RTVSPost2010Prop34
280
     0
102
RTVSPost2010PropOp34
 70
     1
102
RTVSPost2010Prop35
280
     0
102
RTVSPost2010PropOp35
 70
     1
102
RTVSPost2010Prop36
280
     0
102
RTVSPost2010PropOp36
 70
     1
102
RTVSPost2010Prop37
 90
       50
102
RTVSPost2010PropOp37
 70
     1
102
RTVSPost2010Prop38
140
0.0
102
RTVSPost2010PropOp38
 70
     1
102
RTVSPost2010Prop39
140
1.0
102
RTVSPost2010PropOp39
 70
     1
102
RTVSPost2010Prop40
 90
        0
102
RTVSPost2010PropOp40
 70
     1
102
RTVSPost2010Prop41ColorIndex
 90
       18
102
RTVSPost2010Prop41ColorRGB
 90
        0
102
RTVSPost2010PropOp41
 70
     1
102
RTVSPost2010Prop42
 90
       50
102
RTVSPost2010PropOp42
 70
     1
102
RTVSPost2010Prop43
 90
        3
102
RTVSPost2010PropOp43
 70
     1
102
RTVSPost2010Prop44ColorIndex
 90
        5
102
RTVSPost2010Prop44ColorRGB
 90
      255
102
RTVSPost2010PropOp44
 70
     1
102
RTVSPost2010Prop45
280
     0
102
RTVSPost2010PropOp45
 70
     1
102
RTVSPost2010Prop46
 90
       50
102
RTVSPost2010PropOp46
 70
     1
102
RTVSPost2010Prop47
 90
       50
102
RTVSPost2010PropOp47
 70
     1
102
RTVSPost2010Prop48
 90
       50
102
RTVSPost2010PropOp48
 70
     1
102
RTVSPost2010Prop49
280
     0
102
RTVSPost2010PropOp49
 70
     1
102
RTVSPost2010Prop50
 90
       50
102
RTVSPost2010PropOp50
 70
     1
102
RTVSPost2010Prop51ColorIndex
 90
      256
102
RTVSPost2010Prop51ColorRGB
 90
-16777216
102
RTVSPost2010PropOp51
 70
     0
102
RTVSPost2010Prop52
140
1.0
102
RTVSPost2010PropOp52
 70
     0
102
RTVSPost2010Prop53
 90
        2
102
RTVSPost2010PropOp53
 70
     1
102
RTVSPost2010Prop54
  1
strokes_ogs.tif
102
RTVSPost2010PropOp54
 70
     1
102
RTVSPost2010Prop55
280
     0
102
RTVSPost2010PropOp55
 70
     1
102
RTVSPost2010Prop56
140
1.0
102
RTVSPost2010PropOp56
 70
     1
102
RTVSPost2010Prop57
140
1.0
102
RTVSPost2010PropOp57
 70
     1
  0
XRECORD
  5
247
102
{ACAD_REACTORS
330
246
102
}
330
246
100
AcDbXrecord
280
     1
102
RTVSPost2010Prop28
280
     0
102
RTVSPost2010PropOp28
 70
     1
102
RTVSPost2010Prop29
280
     1
102
RTVSPost2010PropOp29
 70
     1
102
RTVSPost2010Prop30
280
     1
102
RTVSPost2010PropOp30
 70
     1
102
RTVSPost2010Prop31
280
     0
102
RTVSPost2010PropOp31
 70
     1
102
RTVSPost2010Prop32
280
     0
102
RTVSPost2010PropOp32
 70
     1
102
RTVSPost2010Prop33
280
     0
102
RTVSPost2010PropOp33
 70
     1
102
RTVSPost2010Prop34
280
     0
102
RTVSPost2010PropOp34
 70
     1
102
RTVSPost2010Prop35
280
     0
102
RTVSPost2010PropOp35
 70
     1
102
RTVSPost2010Prop36
280
     0
102
RTVSPost2010PropOp36
 70
     1
102
RTVSPost2010Prop37
 90
       50
102
RTVSPost2010PropOp37
 70
     1
102
RTVSPost2010Prop38
140
0.0
102
RTVSPost2010PropOp38
 70
     1
102
RTVSPost2010Prop39
140
1.0
102
RTVSPost2010PropOp39
 70
     1
102
RTVSPost2010Prop40
 90
        0
102
RTVSPost2010PropOp40
 70
     1
102
RTVSPost2010Prop41ColorIndex
 90
       18
102
RTVSPost2010Prop41ColorRGB
 90
        0
102
RTVSPost2010PropOp41
 70
     1
102
RTVSPost2010Prop42
 90
       50
102
RTVSPost2010PropOp42
 70
     1
102
RTVSPost2010Prop43
 90
        3
102
RTVSPost2010PropOp43
 70
     1
102
RTVSPost2010Prop44ColorIndex
 90
        5
102
RTVSPost2010Prop44ColorRGB
 90
      255
102
RTVSPost2010PropOp44
 70
     1
102
RTVSPost2010Prop45
280
     0
102
RTVSPost2010PropOp45
 70
     1
102
RTVSPost2010Prop46
 90
       50
102
RTVSPost2010PropOp46
 70
     1
102
RTVSPost2010Prop47
 90
       50
102
RTVSPost2010PropOp47
 70
     1
102
RTVSPost2010Prop48
 90
       50
102
RTVSPost2010PropOp48
 70
     1
102
RTVSPost2010Prop49
280
     0
102
RTVSPost2010PropOp49
 70
     1
102
RTVSPost2010Prop50
 90
       50
102
RTVSPost2010PropOp50
 70
     1
102
RTVSPost2010Prop51ColorIndex
 90
      256
102
RTVSPost2010Prop51ColorRGB
 90
-16777216
102
RTVSPost2010PropOp51
 70
     0
102
RTVSPost2010Prop52
140
1.0
102
RTVSPost2010PropOp52
 70
     0
102
RTVSPost2010Prop53
 90
        2
102
RTVSPost2010PropOp53
 70
     1
102
RTVSPost2010Prop54
  1
strokes_ogs.tif
102
RTVSPost2010PropOp54
 70
     1
102
RTVSPost2010Prop55
280
     0
102
RTVSPost2010PropOp55
 70
     1
102
RTVSPost2010Prop56
140
1.0
102
RTVSPost2010PropOp56
 70
     1
102
RTVSPost2010Prop57
140
1.0
102
RTVSPost2010PropOp57
 70
     1
  0
XRECORD
  5
249
102
{ACAD_REACTORS
330
248
102
}
330
248
100
AcDbXrecord
280
     1
102
RTVSPost2010Prop28
280
     0
102
RTVSPost2010PropOp28
 70
     1
102
RTVSPost2010Prop29
280
     1
102
RTVSPost2010PropOp29
 70
     1
102
RTVSPost2010Prop30
280
     1
102
RTVSPost2010PropOp30
 70
     1
102
RTVSPost2010Prop31
280
     0
102
RTVSPost2010PropOp31
 70
     1
102
RTVSPost2010Prop32
280
     0
102
RTVSPost2010PropOp32
 70
     1
102
RTVSPost2010Prop33
280
     0
102
RTVSPost2010PropOp33
 70
     1
102
RTVSPost2010Prop34
280
     0
102
RTVSPost2010PropOp34
 70
     1
102
RTVSPost2010Prop35
280
     0
102
RTVSPost2010PropOp35
 70
     1
102
RTVSPost2010Prop36
280
     0
102
RTVSPost2010PropOp36
 70
     1
102
RTVSPost2010Prop37
 90
       50
102
RTVSPost2010PropOp37
 70
     1
102
RTVSPost2010Prop38
140
0.0
102
RTVSPost2010PropOp38
 70
     1
102
RTVSPost2010Prop39
140
1.0
102
RTVSPost2010PropOp39
 70
     1
102
RTVSPost2010Prop40
 90
        0
102
RTVSPost2010PropOp40
 70
     1
102
RTVSPost2010Prop41ColorIndex
 90
       18
102
RTVSPost2010Prop41ColorRGB
 90
        0
102
RTVSPost2010PropOp41
 70
     1
102
RTVSPost2010Prop42
 90
       50
102
RTVSPost2010PropOp42
 70
     1
102
RTVSPost2010Prop43
 90
        3
102
RTVSPost2010PropOp43
 70
     1
102
RTVSPost2010Prop44ColorIndex
 90
        5
102
RTVSPost2010Prop44ColorRGB
 90
      255
102
RTVSPost2010PropOp44
 70
     1
102
RTVSPost2010Prop45
280
     0
102
RTVSPost2010PropOp45
 70
     1
102
RTVSPost2010Prop46
 90
       50
102
RTVSPost2010PropOp46
 70
     1
102
RTVSPost2010Prop47
 90
       50
102
RTVSPost2010PropOp47
 70
     1
102
RTVSPost2010Prop48
 90
       50
102
RTVSPost2010PropOp48
 70
     1
102
RTVSPost2010Prop49
280
     0
102
RTVSPost2010PropOp49
 70
     1
102
RTVSPost2010Prop50
 90
       50
102
RTVSPost2010PropOp50
 70
     1
102
RTVSPost2010Prop51ColorIndex
 90
      256
102
RTVSPost2010Prop51ColorRGB
 90
-16777216
102
RTVSPost2010PropOp51
 70
     0
102
RTVSPost2010Prop52
140
1.0
102
RTVSPost2010PropOp52
 70
     0
102
RTVSPost2010Prop53
 90
        2
102
RTVSPost2010PropOp53
 70
     1
102
RTVSPost2010Prop54
  1
strokes_ogs.tif
102
RTVSPost2010PropOp54
 70
     1
102
RTVSPost2010Prop55
280
     0
102
RTVSPost2010PropOp55
 70
     1
102
RTVSPost2010Prop56
140
1.0
102
RTVSPost2010PropOp56
 70
     1
102
RTVSPost2010Prop57
140
1.0
102
RTVSPost2010PropOp57
 70
     1
  0
XRECORD
  5
24B
102
{ACAD_REACTORS
330
24A
102
}
330
24A
100
AcDbXrecord
280
     1
102
RTVSPost2010Prop28
280
     0
102
RTVSPost2010PropOp28
 70
     1
102
RTVSPost2010Prop29
280
     1
102
RTVSPost2010PropOp29
 70
     1
102
RTVSPost2010Prop30
280
     1
102
RTVSPost2010PropOp30
 70
     1
102
RTVSPost2010Prop31
280
     0
102
RTVSPost2010PropOp31
 70
     1
102
RTVSPost2010Prop32
280
     0
102
RTVSPost2010PropOp32
 70
     1
102
RTVSPost2010Prop33
280
     0
102
RTVSPost2010PropOp33
 70
     1
102
RTVSPost2010Prop34
280
     0
102
RTVSPost2010PropOp34
 70
     1
102
RTVSPost2010Prop35
280
     0
102
RTVSPost2010PropOp35
 70
     1
102
RTVSPost2010Prop36
280
     0
102
RTVSPost2010PropOp36
 70
     1
102
RTVSPost2010Prop37
 90
       50
102
RTVSPost2010PropOp37
 70
     1
102
RTVSPost2010Prop38
140
0.0
102
RTVSPost2010PropOp38
 70
     1
102
RTVSPost2010Prop39
140
1.0
102
RTVSPost2010PropOp39
 70
     1
102
RTVSPost2010Prop40
 90
        0
102
RTVSPost2010PropOp40
 70
     1
102
RTVSPost2010Prop41ColorIndex
 90
       18
102
RTVSPost2010Prop41ColorRGB
 90
        0
102
RTVSPost2010PropOp41
 70
     1
102
RTVSPost2010Prop42
 90
       50
102
RTVSPost2010PropOp42
 70
     1
102
RTVSPost2010Prop43
 90
        3
102
RTVSPost2010PropOp43
 70
     1
102
RTVSPost2010Prop44ColorIndex
 90
        5
102
RTVSPost2010Prop44ColorRGB
 90
      255
102
RTVSPost2010PropOp44
 70
     1
102
RTVSPost2010Prop45
280
     0
102
RTVSPost2010PropOp45
 70
     1
102
RTVSPost2010Prop46
 90
       50
102
RTVSPost2010PropOp46
 70
     1
102
RTVSPost2010Prop47
 90
       50
102
RTVSPost2010PropOp47
 70
     1
102
RTVSPost2010Prop48
 90
       50
102
RTVSPost2010PropOp48
 70
     1
102
RTVSPost2010Prop49
280
     0
102
RTVSPost2010PropOp49
 70
     1
102
RTVSPost2010Prop50
 90
       50
102
RTVSPost2010PropOp50
 70
     1
102
RTVSPost2010Prop51ColorIndex
 90
      256
102
RTVSPost2010Prop51ColorRGB
 90
-16777216
102
RTVSPost2010PropOp51
 70
     0
102
RTVSPost2010Prop52
140
1.0
102
RTVSPost2010PropOp52
 70
     0
102
RTVSPost2010Prop53
 90
        2
102
RTVSPost2010PropOp53
 70
     1
102
RTVSPost2010Prop54
  1
strokes_ogs.tif
102
RTVSPost2010PropOp54
 70
     1
102
RTVSPost2010Prop55
280
     0
102
RTVSPost2010PropOp55
 70
     1
102
RTVSPost2010Prop56
140
1.0
102
RTVSPost2010PropOp56
 70
     1
102
RTVSPost2010Prop57
140
1.0
102
RTVSPost2010PropOp57
 70
     1
  0
XRECORD
  5
253
102
{ACAD_REACTORS
330
252
102
}
330
252
100
AcDbXrecord
280
     1
102
RTVSPost2010Prop28
280
     0
102
RTVSPost2010PropOp28
 70
     1
102
RTVSPost2010Prop29
280
     1
102
RTVSPost2010PropOp29
 70
     1
102
RTVSPost2010Prop30
280
     1
102
RTVSPost2010PropOp30
 70
     1
102
RTVSPost2010Prop31
280
     0
102
RTVSPost2010PropOp31
 70
     1
102
RTVSPost2010Prop32
280
     0
102
RTVSPost2010PropOp32
 70
     1
102
RTVSPost2010Prop33
280
     0
102
RTVSPost2010PropOp33
 70
     1
102
RTVSPost2010Prop34
280
     0
102
RTVSPost2010PropOp34
 70
     1
102
RTVSPost2010Prop35
280
     0
102
RTVSPost2010PropOp35
 70
     1
102
RTVSPost2010Prop36
280
     0
102
RTVSPost2010PropOp36
 70
     1
102
RTVSPost2010Prop37
 90
       50
102
RTVSPost2010PropOp37
 70
     1
102
RTVSPost2010Prop38
140
0.0
102
RTVSPost2010PropOp38
 70
     1
102
RTVSPost2010Prop39
140
1.0
102
RTVSPost2010PropOp39
 70
     1
102
RTVSPost2010Prop40
 90
        0
102
RTVSPost2010PropOp40
 70
     1
102
RTVSPost2010Prop41ColorIndex
 90
       18
102
RTVSPost2010Prop41ColorRGB
 90
        0
102
RTVSPost2010PropOp41
 70
     1
102
RTVSPost2010Prop42
 90
       50
102
RTVSPost2010PropOp42
 70
     1
102
RTVSPost2010Prop43
 90
        3
102
RTVSPost2010PropOp43
 70
     1
102
RTVSPost2010Prop44ColorIndex
 90
        5
102
RTVSPost2010Prop44ColorRGB
 90
      255
102
RTVSPost2010PropOp44
 70
     1
102
RTVSPost2010Prop45
280
     0
102
RTVSPost2010PropOp45
 70
     1
102
RTVSPost2010Prop46
 90
       50
102
RTVSPost2010PropOp46
 70
     1
102
RTVSPost2010Prop47
 90
       50
102
RTVSPost2010PropOp47
 70
     1
102
RTVSPost2010Prop48
 90
       50
102
RTVSPost2010PropOp48
 70
     1
102
RTVSPost2010Prop49
280
     0
102
RTVSPost2010PropOp49
 70
     1
102
RTVSPost2010Prop50
 90
       50
102
RTVSPost2010PropOp50
 70
     1
102
RTVSPost2010Prop51ColorIndex
 90
      256
102
RTVSPost2010Prop51ColorRGB
 90
-16777216
102
RTVSPost2010PropOp51
 70
     0
102
RTVSPost2010Prop52
140
1.0
102
RTVSPost2010PropOp52
 70
     0
102
RTVSPost2010Prop53
 90
        2
102
RTVSPost2010PropOp53
 70
     1
102
RTVSPost2010Prop54
  1
strokes_ogs.tif
102
RTVSPost2010PropOp54
 70
     1
102
RTVSPost2010Prop55
280
     0
102
RTVSPost2010PropOp55
 70
     1
102
RTVSPost2010Prop56
140
1.0
102
RTVSPost2010PropOp56
 70
     1
102
RTVSPost2010Prop57
140
1.0
102
RTVSPost2010PropOp57
 70
     1
  0
XRECORD
  5
26F
102
{ACAD_REACTORS
330
26E
102
}
330
26E
100
AcDbXrecord
280
     1
102
RTVSPost2010Prop28
280
     0
102
RTVSPost2010PropOp28
 70
     0
102
RTVSPost2010Prop29
280
     1
102
RTVSPost2010PropOp29
 70
     0
102
RTVSPost2010Prop30
280
     1
102
RTVSPost2010PropOp30
 70
     0
102
RTVSPost2010Prop31
280
     0
102
RTVSPost2010PropOp31
 70
     0
102
RTVSPost2010Prop32
280
     0
102
RTVSPost2010PropOp32
 70
     0
102
RTVSPost2010Prop33
280
     0
102
RTVSPost2010PropOp33
 70
     0
102
RTVSPost2010Prop34
280
     0
102
RTVSPost2010PropOp34
 70
     0
102
RTVSPost2010Prop35
280
     0
102
RTVSPost2010PropOp35
 70
     0
102
RTVSPost2010Prop36
280
     0
102
RTVSPost2010PropOp36
 70
     0
102
RTVSPost2010Prop37
 90
       50
102
RTVSPost2010PropOp37
 70
     0
102
RTVSPost2010Prop38
140
0.0
102
RTVSPost2010PropOp38
 70
     0
102
RTVSPost2010Prop39
140
1.0
102
RTVSPost2010PropOp39
 70
     0
102
RTVSPost2010Prop40
 90
        0
102
RTVSPost2010PropOp40
 70
     0
102
RTVSPost2010Prop41ColorIndex
 90
       18
102
RTVSPost2010Prop41ColorRGB
 90
        0
102
RTVSPost2010PropOp41
 70
     0
102
RTVSPost2010Prop42
 90
       50
102
RTVSPost2010PropOp42
 70
     0
102
RTVSPost2010Prop43
 90
        3
102
RTVSPost2010PropOp43
 70
     0
102
RTVSPost2010Prop44ColorIndex
 90
        5
102
RTVSPost2010Prop44ColorRGB
 90
      255
102
RTVSPost2010PropOp44
 70
     0
102
RTVSPost2010Prop45
280
     0
102
RTVSPost2010PropOp45
 70
     0
102
RTVSPost2010Prop46
 90
       50
102
RTVSPost2010PropOp46
 70
     0
102
RTVSPost2010Prop47
 90
       50
102
RTVSPost2010PropOp47
 70
     0
102
RTVSPost2010Prop48
 90
       50
102
RTVSPost2010PropOp48
 70
     0
102
RTVSPost2010Prop49
280
     0
102
RTVSPost2010PropOp49
 70
     0
102
RTVSPost2010Prop50
 90
       50
102
RTVSPost2010PropOp50
 70
     0
102
RTVSPost2010Prop51ColorIndex
 90
      256
102
RTVSPost2010Prop51ColorRGB
 90
-16777216
102
RTVSPost2010PropOp51
 70
     0
102
RTVSPost2010Prop52
140
1.0
102
RTVSPost2010PropOp52
 70
     0
102
RTVSPost2010Prop53
 90
        2
102
RTVSPost2010PropOp53
 70
     0
102
RTVSPost2010Prop54
  1
strokes_ogs.tif
102
RTVSPost2010PropOp54
 70
     0
102
RTVSPost2010Prop55
280
     0
102
RTVSPost2010PropOp55
 70
     0
102
RTVSPost2010Prop56
140
1.0
102
RTVSPost2010PropOp56
 70
     0
102
RTVSPost2010Prop57
140
1.0
102
RTVSPost2010PropOp57
 70
     0
  0
XRECORD
  5
25F
102
{ACAD_REACTORS
330
25E
102
}
330
25E
100
AcDbXrecord
280
     1
102
RTVSPost2010Prop28
280
     0
102
RTVSPost2010PropOp28
 70
     1
102
RTVSPost2010Prop29
280
     1
102
RTVSPost2010PropOp29
 70
     1
102
RTVSPost2010Prop30
280
     1
102
RTVSPost2010PropOp30
 70
     1
102
RTVSPost2010Prop31
280
     0
102
RTVSPost2010PropOp31
 70
     1
102
RTVSPost2010Prop32
280
     0
102
RTVSPost2010PropOp32
 70
     1
102
RTVSPost2010Prop33
280
     0
102
RTVSPost2010PropOp33
 70
     1
102
RTVSPost2010Prop34
280
     0
102
RTVSPost2010PropOp34
 70
     1
102
RTVSPost2010Prop35
280
     0
102
RTVSPost2010PropOp35
 70
     1
102
RTVSPost2010Prop36
280
     0
102
RTVSPost2010PropOp36
 70
     1
102
RTVSPost2010Prop37
 90
       50
102
RTVSPost2010PropOp37
 70
     1
102
RTVSPost2010Prop38
140
0.0
102
RTVSPost2010PropOp38
 70
     1
102
RTVSPost2010Prop39
140
1.0
102
RTVSPost2010PropOp39
 70
     1
102
RTVSPost2010Prop40
 90
        0
102
RTVSPost2010PropOp40
 70
     1
102
RTVSPost2010Prop41ColorIndex
 90
       18
102
RTVSPost2010Prop41ColorRGB
 90
        0
102
RTVSPost2010PropOp41
 70
     1
102
RTVSPost2010Prop42
 90
       50
102
RTVSPost2010PropOp42
 70
     1
102
RTVSPost2010Prop43
 90
        3
102
RTVSPost2010PropOp43
 70
     1
102
RTVSPost2010Prop44ColorIndex
 90
        5
102
RTVSPost2010Prop44ColorRGB
 90
      255
102
RTVSPost2010PropOp44
 70
     1
102
RTVSPost2010Prop45
280
     0
102
RTVSPost2010PropOp45
 70
     1
102
RTVSPost2010Prop46
 90
       50
102
RTVSPost2010PropOp46
 70
     1
102
RTVSPost2010Prop47
 90
       50
102
RTVSPost2010PropOp47
 70
     1
102
RTVSPost2010Prop48
 90
       50
102
RTVSPost2010PropOp48
 70
     1
102
RTVSPost2010Prop49
280
     0
102
RTVSPost2010PropOp49
 70
     1
102
RTVSPost2010Prop50
 90
       50
102
RTVSPost2010PropOp50
 70
     1
102
RTVSPost2010Prop51ColorIndex
 90
      256
102
RTVSPost2010Prop51ColorRGB
 90
-16777216
102
RTVSPost2010PropOp51
 70
     0
102
RTVSPost2010Prop52
140
1.0
102
RTVSPost2010PropOp52
 70
     0
102
RTVSPost2010Prop53
 90
        2
102
RTVSPost2010PropOp53
 70
     1
102
RTVSPost2010Prop54
  1
strokes_ogs.tif
102
RTVSPost2010PropOp54
 70
     1
102
RTVSPost2010Prop55
280
     0
102
RTVSPost2010PropOp55
 70
     1
102
RTVSPost2010Prop56
140
1.0
102
RTVSPost2010PropOp56
 70
     1
102
RTVSPost2010Prop57
140
1.0
102
RTVSPost2010PropOp57
 70
     1
  0
XRECORD
  5
271
102
{ACAD_REACTORS
330
270
102
}
330
270
100
AcDbXrecord
280
     1
102
RTVSPost2010Prop28
280
     0
102
RTVSPost2010PropOp28
 70
     0
102
RTVSPost2010Prop29
280
     1
102
RTVSPost2010PropOp29
 70
     0
102
RTVSPost2010Prop30
280
     1
102
RTVSPost2010PropOp30
 70
     0
102
RTVSPost2010Prop31
280
     0
102
RTVSPost2010PropOp31
 70
     0
102
RTVSPost2010Prop32
280
     0
102
RTVSPost2010PropOp32
 70
     0
102
RTVSPost2010Prop33
280
     0
102
RTVSPost2010PropOp33
 70
     0
102
RTVSPost2010Prop34
280
     0
102
RTVSPost2010PropOp34
 70
     0
102
RTVSPost2010Prop35
280
     0
102
RTVSPost2010PropOp35
 70
     0
102
RTVSPost2010Prop36
280
     0
102
RTVSPost2010PropOp36
 70
     0
102
RTVSPost2010Prop37
 90
       50
102
RTVSPost2010PropOp37
 70
     0
102
RTVSPost2010Prop38
140
0.0
102
RTVSPost2010PropOp38
 70
     0
102
RTVSPost2010Prop39
140
1.0
102
RTVSPost2010PropOp39
 70
     0
102
RTVSPost2010Prop40
 90
        0
102
RTVSPost2010PropOp40
 70
     0
102
RTVSPost2010Prop41ColorIndex
 90
       18
102
RTVSPost2010Prop41ColorRGB
 90
        0
102
RTVSPost2010PropOp41
 70
     0
102
RTVSPost2010Prop42
 90
       50
102
RTVSPost2010PropOp42
 70
     0
102
RTVSPost2010Prop43
 90
        3
102
RTVSPost2010PropOp43
 70
     0
102
RTVSPost2010Prop44ColorIndex
 90
        5
102
RTVSPost2010Prop44ColorRGB
 90
      255
102
RTVSPost2010PropOp44
 70
     0
102
RTVSPost2010Prop45
280
     0
102
RTVSPost2010PropOp45
 70
     0
102
RTVSPost2010Prop46
 90
       50
102
RTVSPost2010PropOp46
 70
     0
102
RTVSPost2010Prop47
 90
       50
102
RTVSPost2010PropOp47
 70
     0
102
RTVSPost2010Prop48
 90
       50
102
RTVSPost2010PropOp48
 70
     0
102
RTVSPost2010Prop49
280
     0
102
RTVSPost2010PropOp49
 70
     0
102
RTVSPost2010Prop50
 90
       50
102
RTVSPost2010PropOp50
 70
     0
102
RTVSPost2010Prop51ColorIndex
 90
      256
102
RTVSPost2010Prop51ColorRGB
 90
-16777216
102
RTVSPost2010PropOp51
 70
     0
102
RTVSPost2010Prop52
140
1.0
102
RTVSPost2010PropOp52
 70
     0
102
RTVSPost2010Prop53
 90
        2
102
RTVSPost2010PropOp53
 70
     0
102
RTVSPost2010Prop54
  1
strokes_ogs.tif
102
RTVSPost2010PropOp54
 70
     0
102
RTVSPost2010Prop55
280
     0
102
RTVSPost2010PropOp55
 70
     0
102
RTVSPost2010Prop56
140
1.0
102
RTVSPost2010PropOp56
 70
     0
102
RTVSPost2010Prop57
140
1.0
102
RTVSPost2010PropOp57
 70
     0
  0
XRECORD
  5
257
102
{ACAD_REACTORS
330
256
102
}
330
256
100
AcDbXrecord
280
     1
102
RTVSPost2010Prop28
280
     0
102
RTVSPost2010PropOp28
 70
     1
102
RTVSPost2010Prop29
280
     1
102
RTVSPost2010PropOp29
 70
     1
102
RTVSPost2010Prop30
280
     1
102
RTVSPost2010PropOp30
 70
     1
102
RTVSPost2010Prop31
280
     0
102
RTVSPost2010PropOp31
 70
     1
102
RTVSPost2010Prop32
280
     0
102
RTVSPost2010PropOp32
 70
     1
102
RTVSPost2010Prop33
280
     0
102
RTVSPost2010PropOp33
 70
     1
102
RTVSPost2010Prop34
280
     0
102
RTVSPost2010PropOp34
 70
     1
102
RTVSPost2010Prop35
280
     0
102
RTVSPost2010PropOp35
 70
     1
102
RTVSPost2010Prop36
280
     0
102
RTVSPost2010PropOp36
 70
     1
102
RTVSPost2010Prop37
 90
       50
102
RTVSPost2010PropOp37
 70
     1
102
RTVSPost2010Prop38
140
0.0
102
RTVSPost2010PropOp38
 70
     1
102
RTVSPost2010Prop39
140
1.0
102
RTVSPost2010PropOp39
 70
     1
102
RTVSPost2010Prop40
 90
        0
102
RTVSPost2010PropOp40
 70
     1
102
RTVSPost2010Prop41ColorIndex
 90
       18
102
RTVSPost2010Prop41ColorRGB
 90
        0
102
RTVSPost2010PropOp41
 70
     1
102
RTVSPost2010Prop42
 90
       50
102
RTVSPost2010PropOp42
 70
     1
102
RTVSPost2010Prop43
 90
        3
102
RTVSPost2010PropOp43
 70
     1
102
RTVSPost2010Prop44ColorIndex
 90
        5
102
RTVSPost2010Prop44ColorRGB
 90
      255
102
RTVSPost2010PropOp44
 70
     1
102
RTVSPost2010Prop45
280
     0
102
RTVSPost2010PropOp45
 70
     1
102
RTVSPost2010Prop46
 90
       50
102
RTVSPost2010PropOp46
 70
     1
102
RTVSPost2010Prop47
 90
       50
102
RTVSPost2010PropOp47
 70
     1
102
RTVSPost2010Prop48
 90
       50
102
RTVSPost2010PropOp48
 70
     1
102
RTVSPost2010Prop49
280
     0
102
RTVSPost2010PropOp49
 70
     1
102
RTVSPost2010Prop50
 90
       50
102
RTVSPost2010PropOp50
 70
     1
102
RTVSPost2010Prop51ColorIndex
 90
      256
102
RTVSPost2010Prop51ColorRGB
 90
-16777216
102
RTVSPost2010PropOp51
 70
     0
102
RTVSPost2010Prop52
140
1.0
102
RTVSPost2010PropOp52
 70
     0
102
RTVSPost2010Prop53
 90
        2
102
RTVSPost2010PropOp53
 70
     1
102
RTVSPost2010Prop54
  1
strokes_ogs.tif
102
RTVSPost2010PropOp54
 70
     1
102
RTVSPost2010Prop55
280
     0
102
RTVSPost2010PropOp55
 70
     1
102
RTVSPost2010Prop56
140
1.0
102
RTVSPost2010PropOp56
 70
     1
102
RTVSPost2010Prop57
140
1.0
102
RTVSPost2010PropOp57
 70
     1
  0
XRECORD
  5
26D
102
{ACAD_REACTORS
330
26C
102
}
330
26C
100
AcDbXrecord
280
     1
102
RTVSPost2010Prop28
280
     0
102
RTVSPost2010PropOp28
 70
     1
102
RTVSPost2010Prop29
280
     1
102
RTVSPost2010PropOp29
 70
     1
102
RTVSPost2010Prop30
280
     1
102
RTVSPost2010PropOp30
 70
     1
102
RTVSPost2010Prop31
280
     0
102
RTVSPost2010PropOp31
 70
     1
102
RTVSPost2010Prop32
280
     0
102
RTVSPost2010PropOp32
 70
     1
102
RTVSPost2010Prop33
280
     0
102
RTVSPost2010PropOp33
 70
     1
102
RTVSPost2010Prop34
280
     0
102
RTVSPost2010PropOp34
 70
     1
102
RTVSPost2010Prop35
280
     0
102
RTVSPost2010PropOp35
 70
     1
102
RTVSPost2010Prop36
280
     0
102
RTVSPost2010PropOp36
 70
     1
102
RTVSPost2010Prop37
 90
       50
102
RTVSPost2010PropOp37
 70
     1
102
RTVSPost2010Prop38
140
0.0
102
RTVSPost2010PropOp38
 70
     1
102
RTVSPost2010Prop39
140
1.0
102
RTVSPost2010PropOp39
 70
     1
102
RTVSPost2010Prop40
 90
        0
102
RTVSPost2010PropOp40
 70
     1
102
RTVSPost2010Prop41ColorIndex
 90
       18
102
RTVSPost2010Prop41ColorRGB
 90
        0
102
RTVSPost2010PropOp41
 70
     1
102
RTVSPost2010Prop42
 90
       50
102
RTVSPost2010PropOp42
 70
     1
102
RTVSPost2010Prop43
 90
        3
102
RTVSPost2010PropOp43
 70
     1
102
RTVSPost2010Prop44ColorIndex
 90
        5
102
RTVSPost2010Prop44ColorRGB
 90
      255
102
RTVSPost2010PropOp44
 70
     1
102
RTVSPost2010Prop45
280
     0
102
RTVSPost2010PropOp45
 70
     1
102
RTVSPost2010Prop46
 90
       50
102
RTVSPost2010PropOp46
 70
     1
102
RTVSPost2010Prop47
 90
       50
102
RTVSPost2010PropOp47
 70
     1
102
RTVSPost2010Prop48
 90
       50
102
RTVSPost2010PropOp48
 70
     1
102
RTVSPost2010Prop49
280
     0
102
RTVSPost2010PropOp49
 70
     1
102
RTVSPost2010Prop50
 90
       50
102
RTVSPost2010PropOp50
 70
     1
102
RTVSPost2010Prop51ColorIndex
 90
      256
102
RTVSPost2010Prop51ColorRGB
 90
-16777216
102
RTVSPost2010PropOp51
 70
     0
102
RTVSPost2010Prop52
140
1.0
102
RTVSPost2010PropOp52
 70
     0
102
RTVSPost2010Prop53
 90
        2
102
RTVSPost2010PropOp53
 70
     1
102
RTVSPost2010Prop54
  1
strokes_ogs.tif
102
RTVSPost2010PropOp54
 70
     1
102
RTVSPost2010Prop55
280
     0
102
RTVSPost2010PropOp55
 70
     1
102
RTVSPost2010Prop56
140
1.0
102
RTVSPost2010PropOp56
 70
     1
102
RTVSPost2010Prop57
140
1.0
102
RTVSPost2010PropOp57
 70
     1
  0
XRECORD
  5
26B
102
{ACAD_REACTORS
330
26A
102
}
330
26A
100
AcDbXrecord
280
     1
102
RTVSPost2010Prop28
280
     0
102
RTVSPost2010PropOp28
 70
     1
102
RTVSPost2010Prop29
280
     1
102
RTVSPost2010PropOp29
 70
     1
102
RTVSPost2010Prop30
280
     1
102
RTVSPost2010PropOp30
 70
     1
102
RTVSPost2010Prop31
280
     0
102
RTVSPost2010PropOp31
 70
     1
102
RTVSPost2010Prop32
280
     0
102
RTVSPost2010PropOp32
 70
     1
102
RTVSPost2010Prop33
280
     0
102
RTVSPost2010PropOp33
 70
     1
102
RTVSPost2010Prop34
280
     0
102
RTVSPost2010PropOp34
 70
     1
102
RTVSPost2010Prop35
280
     0
102
RTVSPost2010PropOp35
 70
     1
102
RTVSPost2010Prop36
280
     0
102
RTVSPost2010PropOp36
 70
     1
102
RTVSPost2010Prop37
 90
       50
102
RTVSPost2010PropOp37
 70
     1
102
RTVSPost2010Prop38
140
0.0
102
RTVSPost2010PropOp38
 70
     1
102
RTVSPost2010Prop39
140
1.0
102
RTVSPost2010PropOp39
 70
     1
102
RTVSPost2010Prop40
 90
        0
102
RTVSPost2010PropOp40
 70
     1
102
RTVSPost2010Prop41ColorIndex
 90
       18
102
RTVSPost2010Prop41ColorRGB
 90
        0
102
RTVSPost2010PropOp41
 70
     1
102
RTVSPost2010Prop42
 90
       50
102
RTVSPost2010PropOp42
 70
     1
102
RTVSPost2010Prop43
 90
        3
102
RTVSPost2010PropOp43
 70
     1
102
RTVSPost2010Prop44ColorIndex
 90
        5
102
RTVSPost2010Prop44ColorRGB
 90
      255
102
RTVSPost2010PropOp44
 70
     1
102
RTVSPost2010Prop45
280
     0
102
RTVSPost2010PropOp45
 70
     1
102
RTVSPost2010Prop46
 90
       50
102
RTVSPost2010PropOp46
 70
     1
102
RTVSPost2010Prop47
 90
       50
102
RTVSPost2010PropOp47
 70
     1
102
RTVSPost2010Prop48
 90
       50
102
RTVSPost2010PropOp48
 70
     1
102
RTVSPost2010Prop49
280
     0
102
RTVSPost2010PropOp49
 70
     1
102
RTVSPost2010Prop50
 90
       50
102
RTVSPost2010PropOp50
 70
     1
102
RTVSPost2010Prop51ColorIndex
 90
      256
102
RTVSPost2010Prop51ColorRGB
 90
-16777216
102
RTVSPost2010PropOp51
 70
     0
102
RTVSPost2010Prop52
140
1.0
102
RTVSPost2010PropOp52
 70
     0
102
RTVSPost2010Prop53
 90
        2
102
RTVSPost2010PropOp53
 70
     1
102
RTVSPost2010Prop54
  1
strokes_ogs.tif
102
RTVSPost2010PropOp54
 70
     1
102
RTVSPost2010Prop55
280
     0
102
RTVSPost2010PropOp55
 70
     1
102
RTVSPost2010Prop56
140
1.0
102
RTVSPost2010PropOp56
 70
     1
102
RTVSPost2010Prop57
140
1.0
102
RTVSPost2010PropOp57
 70
     1
  0
XRECORD
  5
265
102
{ACAD_REACTORS
330
264
102
}
330
264
100
AcDbXrecord
280
     1
102
RTVSPost2010Prop28
280
     0
102
RTVSPost2010PropOp28
 70
     1
102
RTVSPost2010Prop29
280
     1
102
RTVSPost2010PropOp29
 70
     1
102
RTVSPost2010Prop30
280
     1
102
RTVSPost2010PropOp30
 70
     1
102
RTVSPost2010Prop31
280
     0
102
RTVSPost2010PropOp31
 70
     1
102
RTVSPost2010Prop32
280
     0
102
RTVSPost2010PropOp32
 70
     1
102
RTVSPost2010Prop33
280
     0
102
RTVSPost2010PropOp33
 70
     1
102
RTVSPost2010Prop34
280
     0
102
RTVSPost2010PropOp34
 70
     1
102
RTVSPost2010Prop35
280
     0
102
RTVSPost2010PropOp35
 70
     1
102
RTVSPost2010Prop36
280
     0
102
RTVSPost2010PropOp36
 70
     1
102
RTVSPost2010Prop37
 90
       50
102
RTVSPost2010PropOp37
 70
     1
102
RTVSPost2010Prop38
140
0.0
102
RTVSPost2010PropOp38
 70
     1
102
RTVSPost2010Prop39
140
1.0
102
RTVSPost2010PropOp39
 70
     1
102
RTVSPost2010Prop40
 90
        0
102
RTVSPost2010PropOp40
 70
     1
102
RTVSPost2010Prop41ColorIndex
 90
       18
102
RTVSPost2010Prop41ColorRGB
 90
        0
102
RTVSPost2010PropOp41
 70
     1
102
RTVSPost2010Prop42
 90
       50
102
RTVSPost2010PropOp42
 70
     1
102
RTVSPost2010Prop43
 90
        3
102
RTVSPost2010PropOp43
 70
     1
102
RTVSPost2010Prop44ColorIndex
 90
        5
102
RTVSPost2010Prop44ColorRGB
 90
      255
102
RTVSPost2010PropOp44
 70
     1
102
RTVSPost2010Prop45
280
     0
102
RTVSPost2010PropOp45
 70
     1
102
RTVSPost2010Prop46
 90
       50
102
RTVSPost2010PropOp46
 70
     1
102
RTVSPost2010Prop47
 90
       50
102
RTVSPost2010PropOp47
 70
     1
102
RTVSPost2010Prop48
 90
       50
102
RTVSPost2010PropOp48
 70
     1
102
RTVSPost2010Prop49
280
     0
102
RTVSPost2010PropOp49
 70
     1
102
RTVSPost2010Prop50
 90
       50
102
RTVSPost2010PropOp50
 70
     1
102
RTVSPost2010Prop51ColorIndex
 90
      256
102
RTVSPost2010Prop51ColorRGB
 90
-16777216
102
RTVSPost2010PropOp51
 70
     0
102
RTVSPost2010Prop52
140
1.0
102
RTVSPost2010PropOp52
 70
     0
102
RTVSPost2010Prop53
 90
        2
102
RTVSPost2010PropOp53
 70
     1
102
RTVSPost2010Prop54
  1
strokes_ogs.tif
102
RTVSPost2010PropOp54
 70
     1
102
RTVSPost2010Prop55
280
     0
102
RTVSPost2010PropOp55
 70
     1
102
RTVSPost2010Prop56
140
1.0
102
RTVSPost2010PropOp56
 70
     1
102
RTVSPost2010Prop57
140
1.0
102
RTVSPost2010PropOp57
 70
     1
  0
XRECORD
  5
267
102
{ACAD_REACTORS
330
266
102
}
330
266
100
AcDbXrecord
280
     1
102
RTVSPost2010Prop28
280
     0
102
RTVSPost2010PropOp28
 70
     1
102
RTVSPost2010Prop29
280
     1
102
RTVSPost2010PropOp29
 70
     1
102
RTVSPost2010Prop30
280
     1
102
RTVSPost2010PropOp30
 70
     1
102
RTVSPost2010Prop31
280
     0
102
RTVSPost2010PropOp31
 70
     1
102
RTVSPost2010Prop32
280
     0
102
RTVSPost2010PropOp32
 70
     1
102
RTVSPost2010Prop33
280
     0
102
RTVSPost2010PropOp33
 70
     1
102
RTVSPost2010Prop34
280
     0
102
RTVSPost2010PropOp34
 70
     1
102
RTVSPost2010Prop35
280
     0
102
RTVSPost2010PropOp35
 70
     1
102
RTVSPost2010Prop36
280
     0
102
RTVSPost2010PropOp36
 70
     1
102
RTVSPost2010Prop37
 90
       50
102
RTVSPost2010PropOp37
 70
     1
102
RTVSPost2010Prop38
140
0.0
102
RTVSPost2010PropOp38
 70
     1
102
RTVSPost2010Prop39
140
1.0
102
RTVSPost2010PropOp39
 70
     1
102
RTVSPost2010Prop40
 90
        0
102
RTVSPost2010PropOp40
 70
     1
102
RTVSPost2010Prop41ColorIndex
 90
       18
102
RTVSPost2010Prop41ColorRGB
 90
        0
102
RTVSPost2010PropOp41
 70
     1
102
RTVSPost2010Prop42
 90
       50
102
RTVSPost2010PropOp42
 70
     1
102
RTVSPost2010Prop43
 90
        3
102
RTVSPost2010PropOp43
 70
     1
102
RTVSPost2010Prop44ColorIndex
 90
        5
102
RTVSPost2010Prop44ColorRGB
 90
      255
102
RTVSPost2010PropOp44
 70
     1
102
RTVSPost2010Prop45
280
     0
102
RTVSPost2010PropOp45
 70
     1
102
RTVSPost2010Prop46
 90
       50
102
RTVSPost2010PropOp46
 70
     1
102
RTVSPost2010Prop47
 90
       50
102
RTVSPost2010PropOp47
 70
     1
102
RTVSPost2010Prop48
 90
       50
102
RTVSPost2010PropOp48
 70
     1
102
RTVSPost2010Prop49
280
     0
102
RTVSPost2010PropOp49
 70
     1
102
RTVSPost2010Prop50
 90
       50
102
RTVSPost2010PropOp50
 70
     1
102
RTVSPost2010Prop51ColorIndex
 90
      256
102
RTVSPost2010Prop51ColorRGB
 90
-16777216
102
RTVSPost2010PropOp51
 70
     0
102
RTVSPost2010Prop52
140
1.0
102
RTVSPost2010PropOp52
 70
     0
102
RTVSPost2010Prop53
 90
        2
102
RTVSPost2010PropOp53
 70
     1
102
RTVSPost2010Prop54
  1
strokes_ogs.tif
102
RTVSPost2010PropOp54
 70
     1
102
RTVSPost2010Prop55
280
     0
102
RTVSPost2010PropOp55
 70
     1
102
RTVSPost2010Prop56
140
1.0
102
RTVSPost2010PropOp56
 70
     1
102
RTVSPost2010Prop57
140
1.0
102
RTVSPost2010PropOp57
 70
     1
  0
XRECORD
  5
25D
102
{ACAD_REACTORS
330
25C
102
}
330
25C
100
AcDbXrecord
280
     1
102
RTVSPost2010Prop28
280
     0
102
RTVSPost2010PropOp28
 70
     1
102
RTVSPost2010Prop29
280
     1
102
RTVSPost2010PropOp29
 70
     1
102
RTVSPost2010Prop30
280
     1
102
RTVSPost2010PropOp30
 70
     1
102
RTVSPost2010Prop31
280
     0
102
RTVSPost2010PropOp31
 70
     1
102
RTVSPost2010Prop32
280
     0
102
RTVSPost2010PropOp32
 70
     1
102
RTVSPost2010Prop33
280
     0
102
RTVSPost2010PropOp33
 70
     1
102
RTVSPost2010Prop34
280
     0
102
RTVSPost2010PropOp34
 70
     1
102
RTVSPost2010Prop35
280
     0
102
RTVSPost2010PropOp35
 70
     1
102
RTVSPost2010Prop36
280
     0
102
RTVSPost2010PropOp36
 70
     1
102
RTVSPost2010Prop37
 90
       50
102
RTVSPost2010PropOp37
 70
     1
102
RTVSPost2010Prop38
140
0.0
102
RTVSPost2010PropOp38
 70
     1
102
RTVSPost2010Prop39
140
1.0
102
RTVSPost2010PropOp39
 70
     1
102
RTVSPost2010Prop40
 90
        0
102
RTVSPost2010PropOp40
 70
     1
102
RTVSPost2010Prop41ColorIndex
 90
       18
102
RTVSPost2010Prop41ColorRGB
 90
        0
102
RTVSPost2010PropOp41
 70
     1
102
RTVSPost2010Prop42
 90
       50
102
RTVSPost2010PropOp42
 70
     1
102
RTVSPost2010Prop43
 90
        3
102
RTVSPost2010PropOp43
 70
     1
102
RTVSPost2010Prop44ColorIndex
 90
        5
102
RTVSPost2010Prop44ColorRGB
 90
      255
102
RTVSPost2010PropOp44
 70
     1
102
RTVSPost2010Prop45
280
     0
102
RTVSPost2010PropOp45
 70
     1
102
RTVSPost2010Prop46
 90
       50
102
RTVSPost2010PropOp46
 70
     1
102
RTVSPost2010Prop47
 90
       50
102
RTVSPost2010PropOp47
 70
     1
102
RTVSPost2010Prop48
 90
       50
102
RTVSPost2010PropOp48
 70
     1
102
RTVSPost2010Prop49
280
     0
102
RTVSPost2010PropOp49
 70
     1
102
RTVSPost2010Prop50
 90
       50
102
RTVSPost2010PropOp50
 70
     1
102
RTVSPost2010Prop51ColorIndex
 90
      256
102
RTVSPost2010Prop51ColorRGB
 90
-16777216
102
RTVSPost2010PropOp51
 70
     0
102
RTVSPost2010Prop52
140
1.0
102
RTVSPost2010PropOp52
 70
     0
102
RTVSPost2010Prop53
 90
        2
102
RTVSPost2010PropOp53
 70
     1
102
RTVSPost2010Prop54
  1
strokes_ogs.tif
102
RTVSPost2010PropOp54
 70
     1
102
RTVSPost2010Prop55
280
     0
102
RTVSPost2010PropOp55
 70
     1
102
RTVSPost2010Prop56
140
1.0
102
RTVSPost2010PropOp56
 70
     1
102
RTVSPost2010Prop57
140
1.0
102
RTVSPost2010PropOp57
 70
     1
  0
XRECORD
  5
251
102
{ACAD_REACTORS
330
250
102
}
330
250
100
AcDbXrecord
280
     1
102
RTVSPost2010Prop28
280
     0
102
RTVSPost2010PropOp28
 70
     1
102
RTVSPost2010Prop29
280
     1
102
RTVSPost2010PropOp29
 70
     1
102
RTVSPost2010Prop30
280
     1
102
RTVSPost2010PropOp30
 70
     1
102
RTVSPost2010Prop31
280
     0
102
RTVSPost2010PropOp31
 70
     1
102
RTVSPost2010Prop32
280
     0
102
RTVSPost2010PropOp32
 70
     1
102
RTVSPost2010Prop33
280
     0
102
RTVSPost2010PropOp33
 70
     1
102
RTVSPost2010Prop34
280
     0
102
RTVSPost2010PropOp34
 70
     1
102
RTVSPost2010Prop35
280
     0
102
RTVSPost2010PropOp35
 70
     1
102
RTVSPost2010Prop36
280
     0
102
RTVSPost2010PropOp36
 70
     1
102
RTVSPost2010Prop37
 90
       50
102
RTVSPost2010PropOp37
 70
     1
102
RTVSPost2010Prop38
140
0.0
102
RTVSPost2010PropOp38
 70
     1
102
RTVSPost2010Prop39
140
1.0
102
RTVSPost2010PropOp39
 70
     1
102
RTVSPost2010Prop40
 90
        0
102
RTVSPost2010PropOp40
 70
     1
102
RTVSPost2010Prop41ColorIndex
 90
       18
102
RTVSPost2010Prop41ColorRGB
 90
        0
102
RTVSPost2010PropOp41
 70
     1
102
RTVSPost2010Prop42
 90
       50
102
RTVSPost2010PropOp42
 70
     1
102
RTVSPost2010Prop43
 90
        3
102
RTVSPost2010PropOp43
 70
     1
102
RTVSPost2010Prop44ColorIndex
 90
        5
102
RTVSPost2010Prop44ColorRGB
 90
      255
102
RTVSPost2010PropOp44
 70
     1
102
RTVSPost2010Prop45
280
     0
102
RTVSPost2010PropOp45
 70
     1
102
RTVSPost2010Prop46
 90
       50
102
RTVSPost2010PropOp46
 70
     1
102
RTVSPost2010Prop47
 90
       50
102
RTVSPost2010PropOp47
 70
     1
102
RTVSPost2010Prop48
 90
       50
102
RTVSPost2010PropOp48
 70
     1
102
RTVSPost2010Prop49
280
     0
102
RTVSPost2010PropOp49
 70
     1
102
RTVSPost2010Prop50
 90
       50
102
RTVSPost2010PropOp50
 70
     1
102
RTVSPost2010Prop51ColorIndex
 90
      256
102
RTVSPost2010Prop51ColorRGB
 90
-16777216
102
RTVSPost2010PropOp51
 70
     0
102
RTVSPost2010Prop52
140
1.0
102
RTVSPost2010PropOp52
 70
     0
102
RTVSPost2010Prop53
 90
        2
102
RTVSPost2010PropOp53
 70
     1
102
RTVSPost2010Prop54
  1
strokes_ogs.tif
102
RTVSPost2010PropOp54
 70
     1
102
RTVSPost2010Prop55
280
     0
102
RTVSPost2010PropOp55
 70
     1
102
RTVSPost2010Prop56
140
1.0
102
RTVSPost2010PropOp56
 70
     1
102
RTVSPost2010Prop57
140
1.0
102
RTVSPost2010PropOp57
 70
     1
  0
XRECORD
  5
269
102
{ACAD_REACTORS
330
268
102
}
330
268
100
AcDbXrecord
280
     1
102
RTVSPost2010Prop28
280
     0
102
RTVSPost2010PropOp28
 70
     1
102
RTVSPost2010Prop29
280
     1
102
RTVSPost2010PropOp29
 70
     1
102
RTVSPost2010Prop30
280
     1
102
RTVSPost2010PropOp30
 70
     1
102
RTVSPost2010Prop31
280
     0
102
RTVSPost2010PropOp31
 70
     1
102
RTVSPost2010Prop32
280
     0
102
RTVSPost2010PropOp32
 70
     1
102
RTVSPost2010Prop33
280
     0
102
RTVSPost2010PropOp33
 70
     1
102
RTVSPost2010Prop34
280
     0
102
RTVSPost2010PropOp34
 70
     1
102
RTVSPost2010Prop35
280
     0
102
RTVSPost2010PropOp35
 70
     1
102
RTVSPost2010Prop36
280
     0
102
RTVSPost2010PropOp36
 70
     1
102
RTVSPost2010Prop37
 90
       50
102
RTVSPost2010PropOp37
 70
     1
102
RTVSPost2010Prop38
140
0.0
102
RTVSPost2010PropOp38
 70
     1
102
RTVSPost2010Prop39
140
1.0
102
RTVSPost2010PropOp39
 70
     1
102
RTVSPost2010Prop40
 90
        0
102
RTVSPost2010PropOp40
 70
     1
102
RTVSPost2010Prop41ColorIndex
 90
       18
102
RTVSPost2010Prop41ColorRGB
 90
        0
102
RTVSPost2010PropOp41
 70
     1
102
RTVSPost2010Prop42
 90
       50
102
RTVSPost2010PropOp42
 70
     1
102
RTVSPost2010Prop43
 90
        3
102
RTVSPost2010PropOp43
 70
     1
102
RTVSPost2010Prop44ColorIndex
 90
        5
102
RTVSPost2010Prop44ColorRGB
 90
      255
102
RTVSPost2010PropOp44
 70
     1
102
RTVSPost2010Prop45
280
     0
102
RTVSPost2010PropOp45
 70
     1
102
RTVSPost2010Prop46
 90
       50
102
RTVSPost2010PropOp46
 70
     1
102
RTVSPost2010Prop47
 90
       50
102
RTVSPost2010PropOp47
 70
     1
102
RTVSPost2010Prop48
 90
       50
102
RTVSPost2010PropOp48
 70
     1
102
RTVSPost2010Prop49
280
     0
102
RTVSPost2010PropOp49
 70
     1
102
RTVSPost2010Prop50
 90
       50
102
RTVSPost2010PropOp50
 70
     1
102
RTVSPost2010Prop51ColorIndex
 90
      256
102
RTVSPost2010Prop51ColorRGB
 90
-16777216
102
RTVSPost2010PropOp51
 70
     0
102
RTVSPost2010Prop52
140
1.0
102
RTVSPost2010PropOp52
 70
     0
102
RTVSPost2010Prop53
 90
        2
102
RTVSPost2010PropOp53
 70
     1
102
RTVSPost2010Prop54
  1
strokes_ogs.tif
102
RTVSPost2010PropOp54
 70
     1
102
RTVSPost2010Prop55
280
     0
102
RTVSPost2010PropOp55
 70
     1
102
RTVSPost2010Prop56
140
1.0
102
RTVSPost2010PropOp56
 70
     1
102
RTVSPost2010Prop57
140
1.0
102
RTVSPost2010PropOp57
 70
     1
  0
ENDSEC
  0
EOF
