  0
SECTION
  2
HEADER
  9
$ACADVER
  1
AC1024
  9
$ACADMAINTVER
 70
   226
  9
$DWGCODEPAGE
  3
ANSI_1252
  9
$INSBASE
 10
0.0
 20
0.0
 30
0.0
  9
$EXTMIN
 10
1.000000000000000E+20
 20
1.000000000000000E+20
 30
1.000000000000000E+20
  9
$EXTMAX
 10
-1.000000000000000E+20
 20
-1.000000000000000E+20
 30
-1.000000000000000E+20
  9
$LIMMIN
 10
0.0
 20
0.0
  9
$LIMMAX
 10
12.0
 20
9.0
  9
$ORTHOMODE
 70
     0
  9
$REGENMODE
 70
     1
  9
$FILLMODE
 70
     1
  9
$QTEXTMODE
 70
     0
  9
$MIRRTEXT
 70
     0
  9
$LTSCALE
 40
1.0
  9
$ATTMODE
 70
     1
  9
$TEXTSIZE
 40
0.2
  9
$TRACEWID
 40
0.05
  9
$TEXTSTYLE
  7
Standard
  9
$CLAYER
  8
0
  9
$CELTYPE
  6
ByLayer
  9
$CECOLOR
 62
   256
  9
$CELTSCALE
 40
1.0
  9
$DISPSILH
 70
     0
  9
$DIMSCALE
 40
1.0
  9
$DIMASZ
 40
0.18
  9
$DIMEXO
 40
0.0625
  9
$DIMDLI
 40
0.38
  9
$DIMRND
 40
0.0
  9
$DIMDLE
 40
0.0
  9
$DIMEXE
 40
0.18
  9
$DIMTP
 40
0.0
  9
$DIMTM
 40
0.0
  9
$DIMTXT
 40
0.18
  9
$DIMCEN
 40
0.09
  9
$DIMTSZ
 40
0.0
  9
$DIMTOL
 70
     0
  9
$DIMLIM
 70
     0
  9
$DIMTIH
 70
     1
  9
$DIMTOH
 70
     1
  9
$DIMSE1
 70
     0
  9
$DIMSE2
 70
     0
  9
$DIMTAD
 70
     0
  9
$DIMZIN
 70
     0
  9
$DIMBLK
  1

  9
$DIMASO
 70
     1
  9
$DIMSHO
 70
     1
  9
$DIMPOST
  1

  9
$DIMAPOST
  1

  9
$DIMALT
 70
     0
  9
$DIMALTD
 70
     2
  9
$DIMALTF
 40
25.4
  9
$DIMLFAC
 40
1.0
  9
$DIMTOFL
 70
     0
  9
$DIMTVP
 40
0.0
  9
$DIMTIX
 70
     0
  9
$DIMSOXD
 70
     0
  9
$DIMSAH
 70
     0
  9
$DIMBLK1
  1

  9
$DIMBLK2
  1

  9
$DIMSTYLE
  2
Standard
  9
$DIMCLRD
 70
     0
  9
$DIMCLRE
 70
     0
  9
$DIMCLRT
 70
     0
  9
$DIMTFAC
 40
1.0
  9
$DIMGAP
 40
0.09
  9
$DIMJUST
 70
     0
  9
$DIMSD1
 70
     0
  9
$DIMSD2
 70
     0
  9
$DIMTOLJ
 70
     1
  9
$DIMTZIN
 70
     0
  9
$DIMALTZ
 70
     0
  9
$DIMALTTZ
 70
     0
  9
$DIMUPT
 70
     0
  9
$DIMDEC
 70
     4
  9
$DIMTDEC
 70
     4
  9
$DIMALTU
 70
     2
  9
$DIMALTTD
 70
     2
  9
$DIMTXSTY
  7
Standard
  9
$DIMAUNIT
 70
     0
  9
$DIMADEC
 70
     0
  9
$DIMALTRND
 40
0.0
  9
$DIMAZIN
 70
     0
  9
$DIMDSEP
 70
    46
  9
$DIMATFIT
 70
     3
  9
$DIMFRAC
 70
     0
  9
$DIMLDRBLK
  1

  9
$DIMLUNIT
 70
     2
  9
$DIMLWD
 70
    -2
  9
$DIMLWE
 70
    -2
  9
$DIMTMOVE
 70
     0
  9
$DIMFXL
 40
1.0
  9
$DIMFXLON
 70
     0
  9
$DIMJOGANG
 40
0.7853981633974483
  9
$DIMTFILL
 70
     0
  9
$DIMTFILLCLR
 70
     0
  9
$DIMARCSYM
 70
     0
  9
$DIMLTYPE
  6

  9
$DIMLTEX1
  6

  9
$DIMLTEX2
  6

  9
$DIMTXTDIRECTION
 70
     0
  9
$LUNITS
 70
     2
  9
$LUPREC
 70
     4
  9
$SKETCHINC
 40
0.1
  9
$FILLETRAD
 40
0.0
  9
$AUNITS
 70
     0
  9
$AUPREC
 70
     0
  9
$MENU
  1
.
  9
$ELEVATION
 40
0.0
  9
$PELEVATION
 40
0.0
  9
$THICKNESS
 40
0.0
  9
$LIMCHECK
 70
     0
  9
$CHAMFERA
 40
0.0
  9
$CHAMFERB
 40
0.0
  9
$CHAMFERC
 40
0.0
  9
$CHAMFERD
 40
0.0
  9
$SKPOLY
 70
     0
  9
$TDCREATE
 40
2459626.517893518
  9
$TDUCREATE
 40
2459626.476226852
  9
$TDUPDATE
 40
2459626.517893518
  9
$TDUUPDATE
 40
2459626.476226852
  9
$TDINDWG
 40
0.0000000000
  9
$TDUSRTIMER
 40
0.0000000000
  9
$USRTIMER
 70
     1
  9
$ANGBASE
 50
0.0
  9
$ANGDIR
 70
     0
  9
$PDMODE
 70
     0
  9
$PDSIZE
 40
0.0
  9
$PLINEWID
 40
0.0
  9
$SPLFRAME
 70
     0
  9
$SPLINETYPE
 70
     6
  9
$SPLINESEGS
 70
     8
  9
$HANDSEED
  5
26B
  9
$SURFTAB1
 70
     6
  9
$SURFTAB2
 70
     6
  9
$SURFTYPE
 70
     6
  9
$SURFU
 70
     6
  9
$SURFV
 70
     6
  9
$UCSBASE
  2

  9
$UCSNAME
  2

  9
$UCSORG
 10
0.0
 20
0.0
 30
0.0
  9
$UCSXDIR
 10
1.0
 20
0.0
 30
0.0
  9
$UCSYDIR
 10
0.0
 20
1.0
 30
0.0
  9
$UCSORTHOREF
  2

  9
$UCSORTHOVIEW
 70
     0
  9
$UCSORGTOP
 10
0.0
 20
0.0
 30
0.0
  9
$UCSORGBOTTOM
 10
0.0
 20
0.0
 30
0.0
  9
$UCSORGLEFT
 10
0.0
 20
0.0
 30
0.0
  9
$UCSORGRIGHT
 10
0.0
 20
0.0
 30
0.0
  9
$UCSORGFRONT
 10
0.0
 20
0.0
 30
0.0
  9
$UCSORGBACK
 10
0.0
 20
0.0
 30
0.0
  9
$PUCSBASE
  2

  9
$PUCSNAME
  2

  9
$PUCSORG
 10
0.0
 20
0.0
 30
0.0
  9
$PUCSXDIR
 10
1.0
 20
0.0
 30
0.0
  9
$PUCSYDIR
 10
0.0
 20
1.0
 30
0.0
  9
$PUCSORTHOREF
  2

  9
$PUCSORTHOVIEW
 70
     0
  9
$PUCSORGTOP
 10
0.0
 20
0.0
 30
0.0
  9
$PUCSORGBOTTOM
 10
0.0
 20
0.0
 30
0.0
  9
$PUCSORGLEFT
 10
0.0
 20
0.0
 30
0.0
  9
$PUCSORGRIGHT
 10
0.0
 20
0.0
 30
0.0
  9
$PUCSORGFRONT
 10
0.0
 20
0.0
 30
0.0
  9
$PUCSORGBACK
 10
0.0
 20
0.0
 30
0.0
  9
$USERI1
 70
     0
  9
$USERI2
 70
     0
  9
$USERI3
 70
     0
  9
$USERI4
 70
     0
  9
$USERI5
 70
     0
  9
$USERR1
 40
0.0
  9
$USERR2
 40
0.0
  9
$USERR3
 40
0.0
  9
$USERR4
 40
0.0
  9
$USERR5
 40
0.0
  9
$WORLDVIEW
 70
     1
  9
$SHADEDGE
 70
     3
  9
$SHADEDIF
 70
    70
  9
$TILEMODE
 70
     1
  9
$MAXACTVP
 70
    64
  9
$PINSBASE
 10
0.0
 20
0.0
 30
0.0
  9
$PLIMCHECK
 70
     0
  9
$PEXTMIN
 10
1.000000000000000E+20
 20
1.000000000000000E+20
 30
1.000000000000000E+20
  9
$PEXTMAX
 10
-1.000000000000000E+20
 20
-1.000000000000000E+20
 30
-1.000000000000000E+20
  9
$PLIMMIN
 10
0.0
 20
0.0
  9
$PLIMMAX
 10
12.0
 20
9.0
  9
$UNITMODE
 70
     0
  9
$VISRETAIN
 70
     1
  9
$PLINEGEN
 70
     0
  9
$PSLTSCALE
 70
     1
  9
$TREEDEPTH
 70
  3020
  9
$CMLSTYLE
  2
Standard
  9
$CMLJUST
 70
     0
  9
$CMLSCALE
 40
1.0
  9
$PROXYGRAPHICS
 70
     1
  9
$MEASUREMENT
 70
     0
  9
$CELWEIGHT
370
    -1
  9
$ENDCAPS
280
     0
  9
$JOINSTYLE
280
     0
  9
$LWDISPLAY
290
     1
  9
$INSUNITS
 70
     4
  9
$HYPERLINKBASE
  1

  9
$STYLESHEET
  1

  9
$XEDIT
290
     1
  9
$CEPSNTYPE
380
     0
  9
$PSTYLEMODE
290
     1
  9
$FINGERPRINTGUID
  2
{4ECC2FE9-A48A-3244-A06C-F5BFF991099C}
  9
$VERSIONGUID
  2
{CA5EEB4E-436F-6643-81A1-84964C0418BD}
  9
$EXTNAMES
290
     1
  9
$PSVPSCALE
 40
0.0
  9
$OLESTARTUP
290
     0
  9
$SORTENTS
280
   127
  9
$INDEXCTL
280
     0
  9
$HIDETEXT
280
     1
  9
$XCLIPFRAME
280
     2
  9
$HALOGAP
280
     0
  9
$OBSCOLOR
 70
   257
  9
$OBSLTYPE
280
     0
  9
$INTERSECTIONDISPLAY
280
     0
  9
$INTERSECTIONCOLOR
 70
   257
  9
$DIMASSOC
280
     2
  9
$PROJECTNAME
  1

  9
$CAMERADISPLAY
290
     0
  9
$LENSLENGTH
 40
50.0
  9
$CAMERAHEIGHT
 40
0.0
  9
$STEPSPERSEC
 40
2.0
  9
$STEPSIZE
 40
6.0
  9
$3DDWFPREC
 40
2.0
  9
$PSOLWIDTH
 40
0.25
  9
$PSOLHEIGHT
 40
4.0
  9
$LOFTANG1
 40
1.570796326794896
  9
$LOFTANG2
 40
1.570796326794896
  9
$LOFTMAG1
 40
0.0
  9
$LOFTMAG2
 40
0.0
  9
$LOFTPARAM
 70
     7
  9
$LOFTNORMALS
280
     1
  9
$LATITUDE
 40
37.795
  9
$LONGITUDE
 40
-122.394
  9
$NORTHDIRECTION
 40
0.0
  9
$TIMEZONE
 70
 -8000
  9
$LIGHTGLYPHDISPLAY
280
     1
  9
$TILEMODELIGHTSYNCH
280
     1
  9
$CMATERIAL
347
11
  9
$SOLIDHIST
280
     0
  9
$SHOWHIST
280
     1
  9
$DWFFRAME
280
     2
  9
$DGNFRAME
280
     0
  9
$REALWORLDSCALE
290
     1
  9
$INTERFERECOLOR
 62
     1
  9
$INTERFEREOBJVS
345
33
  9
$INTERFEREVPVS
346
30
  9
$CSHADOW
280
     0
  9
$SHADOWPLANELOCATION
 40
0.0
  0
ENDSEC
  0
SECTION
  2
CLASSES
  0
CLASS
  1
ACDBDICTIONARYWDFLT
  2
AcDbDictionaryWithDefault
  3
ObjectDBX Classes
 90
        0
 91
        1
280
     0
281
     0
  0
CLASS
  1
MATERIAL
  2
AcDbMaterial
  3
ObjectDBX Classes
 90
     1153
 91
        3
280
     0
281
     0
  0
CLASS
  1
VISUALSTYLE
  2
AcDbVisualStyle
  3
ObjectDBX Classes
 90
     4095
 91
       24
280
     0
281
     0
  0
CLASS
  1
SCALE
  2
AcDbScale
  3
ObjectDBX Classes
 90
     1153
 91
       17
280
     0
281
     0
  0
CLASS
  1
TABLESTYLE
  2
AcDbTableStyle
  3
ObjectDBX Classes
 90
     4095
 91
        1
280
     0
281
     0
  0
CLASS
  1
MLEADERSTYLE
  2
AcDbMLeaderStyle
  3
ACDB_MLEADERSTYLE_CLASS
 90
     4095
 91
        1
280
     0
281
     0
  0
CLASS
  1
ACDBSECTIONVIEWSTYLE
  2
AcDbSectionViewStyle
  3
ObjectDBX Classes
 90
     1025
 91
        1
280
     0
281
     0
  0
CLASS
  1
ACDBDETAILVIEWSTYLE
  2
AcDbDetailViewStyle
  3
ObjectDBX Classes
 90
     1025
 91
        1
280
     0
281
     0
  0
CLASS
  1
DICTIONARYVAR
  2
AcDbDictionaryVar
  3
ObjectDBX Classes
 90
        0
 91
        5
280
     0
281
     0
  0
CLASS
  1
CELLSTYLEMAP
  2
AcDbCellStyleMap
  3
ObjectDBX Classes
 90
     1152
 91
        1
280
     0
281
     0
  0
ENDSEC
  0
SECTION
  2
TABLES
  0
TABLE
  2
VPORT
  5
8
330
0
100
AcDbSymbolTable
 70
     1
  0
VPORT
  5
57
330
8
100
AcDbSymbolTableRecord
100
AcDbViewportTableRecord
  2
*Active
 70
     0
 10
0.0
 20
0.0
 11
1.0
 21
1.0
 12
0.0
 22
0.0
 13
0.0
 23
0.0
 14
1.0
 24
1.0
 15
0.0
 25
0.0
 16
0.0
 26
0.0
 36
1.0
 17
104.9999999737534
 27
148.4999999628701
 37
0.0
 40
302.939999924255
 41
0.7070707070707534
 42
50.0
 43
0.0
 44
0.0
 50
0.0
 51
0.0
 71
     0
 72
   100
 73
     1
 74
     1
 75
     0
 76
     0
 77
     0
 78
     0
281
     0
 65
     1
110
0.0
120
0.0
130
0.0
111
1.0
121
0.0
131
0.0
112
0.0
122
1.0
132
0.0
 79
     0
146
0.0
 60
     3
 61
     5
292
     1
282
     1
141
0.0
142
0.0
 63
   250
421
  3355443
  0
ENDTAB
  0
TABLE
  2
LTYPE
  5
5
330
0
100
AcDbSymbolTable
 70
     1
  0
LTYPE
  5
5B
330
5
100
AcDbSymbolTableRecord
100
AcDbLinetypeTableRecord
  2
ByBlock
 70
     0
  3

 72
    65
 73
     0
 40
0.0
  0
LTYPE
  5
5C
330
5
100
AcDbSymbolTableRecord
100
AcDbLinetypeTableRecord
  2
ByLayer
 70
     0
  3

 72
    65
 73
     0
 40
0.0
  0
LTYPE
  5
5D
330
5
100
AcDbSymbolTableRecord
100
AcDbLinetypeTableRecord
  2
Continuous
 70
     0
  3
Solid line
 72
    65
 73
     0
 40
0.0
  0
ENDTAB
  0
TABLE
  2
LAYER
  5
2
330
0
100
AcDbSymbolTable
 70
     2
  0
LAYER
  5
54
330
2
100
AcDbSymbolTableRecord
100
AcDbLayerTableRecord
  2
0
 70
     0
 62
     7
  6
Continuous
370
    -3
390
F
347
21
  0
LAYER
  5
78
330
2
100
AcDbSymbolTableRecord
100
AcDbLayerTableRecord
  2
Predeterminado
 70
     0
 62
     7
  6
Continuous
370
     0
390
F
347
21
  0
ENDTAB
  0
TABLE
  2
STYLE
  5
3
330
0
100
AcDbSymbolTable
 70
     2
  0
STYLE
  5
55
330
3
100
AcDbSymbolTableRecord
100
AcDbTextStyleTableRecord
  2
Standard
 70
     0
 40
0.0
 41
1.0
 50
0.0
 71
     0
 42
0.2
  3
txt
  4

  0
STYLE
  5
5A
330
3
100
AcDbSymbolTableRecord
100
AcDbTextStyleTableRecord
  2
Annotative
 70
     0
 40
0.0
 41
1.0
 50
0.0
 71
     0
 42
0.2
  3
txt
  4

1001
AcadAnnotative
1000
AnnotativeData
1002
{
1070
     1
1070
     1
1002
}
  0
ENDTAB
  0
TABLE
  2
VIEW
  5
6
330
0
100
AcDbSymbolTable
 70
     0
  0
ENDTAB
  0
TABLE
  2
UCS
  5
7
330
0
100
AcDbSymbolTable
 70
     0
  0
ENDTAB
  0
TABLE
  2
APPID
  5
9
330
0
100
AcDbSymbolTable
 70
     2
  0
APPID
  5
56
330
9
100
AcDbSymbolTableRecord
100
AcDbRegAppTableRecord
  2
ACAD
 70
     0
  0
APPID
  5
5E
330
9
100
AcDbSymbolTableRecord
100
AcDbRegAppTableRecord
  2
AcadAnnotative
 70
     0
  0
ENDTAB
  0
TABLE
  2
DIMSTYLE
  5
A
330
0
100
AcDbSymbolTable
 70
     2
100
AcDbDimStyleTable
 71
     0
  0
DIMSTYLE
105
58
330
A
100
AcDbSymbolTableRecord
100
AcDbDimStyleTableRecord
  2
Standard
 70
     0
340
55
  0
DIMSTYLE
105
59
330
A
100
AcDbSymbolTableRecord
100
AcDbDimStyleTableRecord
  2
Annotative
 70
     0
340
55
1001
AcadAnnotative
1000
AnnotativeData
1002
{
1070
     1
1070
     1
1002
}
  0
ENDTAB
  0
TABLE
  2
BLOCK_RECORD
  5
1
330
0
100
AcDbSymbolTable
 70
     4
  0
BLOCK_RECORD
  5
70
330
1
100
AcDbSymbolTableRecord
100
AcDbBlockTableRecord
  2
*Model_Space
340
73
 70
     0
280
     1
281
     0
  0
BLOCK_RECORD
  5
6C
330
1
100
AcDbSymbolTableRecord
100
AcDbBlockTableRecord
  2
*Paper_Space
340
6F
 70
     0
280
     1
281
     0
  0
BLOCK_RECORD
  5
74
330
1
100
AcDbSymbolTableRecord
100
AcDbBlockTableRecord
  2
*Paper_Space0
340
77
 70
     0
280
     1
281
     0
  0
BLOCK_RECORD
  5
207
330
1
100
AcDbSymbolTableRecord
100
AcDbBlockTableRecord
  2
Block_0
340
0
102
{BLKREFS
331
208
102
}
 70
     0
280
     1
281
     0
  0
BLOCK_RECORD
  5
213
330
1
100
AcDbSymbolTableRecord
100
AcDbBlockTableRecord
  2
Block_1
340
0
102
{BLKREFS
331
214
102
}
 70
     0
280
     1
281
     0
  0
BLOCK_RECORD
  5
21F
330
1
100
AcDbSymbolTableRecord
100
AcDbBlockTableRecord
  2
Block_2
340
0
102
{BLKREFS
331
220
102
}
 70
     0
280
     1
281
     0
  0
ENDTAB
  0
ENDSEC
  0
SECTION
  2
BLOCKS
  0
BLOCK
  5
71
330
70
100
AcDbEntity
  8
0
100
AcDbBlockBegin
  2
*Model_Space
 70
     0
 10
0.0
 20
0.0
 30
0.0
  3
*Model_Space
  1

  0
ENDBLK
  5
72
330
70
100
AcDbEntity
  8
0
100
AcDbBlockEnd
  0
BLOCK
  5
6D
330
6C
100
AcDbEntity
 67
     1
  8
0
100
AcDbBlockBegin
  2
*Paper_Space
 70
     0
 10
0.0
 20
0.0
 30
0.0
  3
*Paper_Space
  1

  0
ENDBLK
  5
6E
330
6C
100
AcDbEntity
 67
     1
  8
0
100
AcDbBlockEnd
  0
BLOCK
  5
75
330
74
100
AcDbEntity
 67
     1
  8
0
100
AcDbBlockBegin
  2
*Paper_Space0
 70
     0
 10
0.0
 20
0.0
 30
0.0
  3
*Paper_Space0
  1

  0
ENDBLK
  5
76
330
74
100
AcDbEntity
 67
     1
  8
0
100
AcDbBlockEnd
  0
BLOCK
  5
209
330
207
100
AcDbEntity
  8
0
100
AcDbBlockBegin
  2
Block_0
 70
     0
 10
0.0
 20
0.0
 30
0.0
  3
Block_0
  1

  0
LINE
  5
20B
330
207
100
AcDbEntity
  8
Predeterminado
 62
    18
420
        0
370
     9
100
AcDbLine
 10
175.3586815100974
 20
116.058346372249
 30
0.0
 11
55.61725768084071
 21
178.7002156595464
 31
0.0
  0
LINE
  5
20C
330
207
100
AcDbEntity
  8
Predeterminado
 62
    18
420
        0
370
     9
100
AcDbLine
 10
55.61725462424755
 20
178.7002172585815
 30
0.0
 11
31.48541665879531
 21
191.3246156593355
 31
0.0
  0
LWPOLYLINE
  5
20D
330
207
100
AcDbEntity
  8
Predeterminado
100
AcDbPolyline
 90
        3
 70
     1
 43
0.0
 10
172.9892064846186
 20
116.8352676430102
 10
173.3692606819182
 20
117.5617502852864
 10
170.9997856564395
 20
118.3386715560476
  0
HATCH
  5
20E
330
207
100
AcDbEntity
  8
Predeterminado
 62
    18
420
        0
440
 33554687
100
AcDbHatch
 10
0.0
 20
0.0
 30
0.0
210
0.0
220
0.0
230
1.0
  2
SOLID
 70
     1
 71
     1
 91
        1
 92
        1
 93
        3
 72
     1
 10
172.9892064846186
 20
116.8352676430102
 11
173.3692606819182
 21
117.5617502852864
 72
     1
 10
173.3692606819182
 20
117.5617502852864
 11
170.9997856564395
 21
118.3386715560476
 72
     1
 10
170.9997856564395
 20
118.3386715560476
 11
172.9892064846186
 21
116.8352676430102
 97
        1
330
20D
 75
     0
 76
     1
 98
        1
 10
0.0
 20
0.0
450
        0
451
        0
460
0.0
461
0.0
452
        0
462
0.0
453
        0
470

  0
LWPOLYLINE
  5
20F
330
207
100
AcDbEntity
  8
Predeterminado
100
AcDbPolyline
 90
        3
 70
     1
 43
0.0
 10
53.24777959876882
 20
179.4771385293427
 10
55.61725462424755
 20
178.7002172585812
 10
53.62783379606868
 20
180.2036211716186
  0
HATCH
  5
210
330
207
100
AcDbEntity
  8
Predeterminado
 62
    18
420
        0
440
 33554687
100
AcDbHatch
 10
0.0
 20
0.0
 30
0.0
210
0.0
220
0.0
230
1.0
  2
SOLID
 70
     1
 71
     1
 91
        1
 92
        1
 93
        3
 72
     1
 10
53.24777959876882
 20
179.4771385293427
 11
55.61725462424755
 21
178.7002172585812
 72
     1
 10
55.61725462424755
 20
178.7002172585812
 11
53.62783379606868
 21
180.2036211716186
 72
     1
 10
53.62783379606868
 20
180.2036211716186
 11
53.24777959876882
 21
179.4771385293427
 97
        1
330
20F
 75
     0
 76
     1
 98
        1
 10
0.0
 20
0.0
450
        0
451
        0
460
0.0
461
0.0
452
        0
462
0.0
453
        0
470

  0
MTEXT
  5
211
330
207
100
AcDbEntity
  8
Predeterminado
100
AcDbMText
 10
32.53308585126292
 20
191.4706628062546
 30
0.0
 40
0.2
 41
0.0
 46
0.0
 71
     7
 72
     1
  1
\C18;\c0;\FArial Bold|b1|i0|c1;\H2.497667;\W1.000000;O
 11
0.8860742405432105
 21
-0.4635433531459304
 31
0.0
 73
     1
 44
1.0
  0
MTEXT
  5
212
330
207
100
AcDbEntity
  8
Predeterminado
100
AcDbMText
 10
36.2679546523713
 20
189.5167931095523
 30
0.0
 40
0.2
 41
0.0
 46
0.0
 71
     7
 72
     1
  1
\C18;\c0;\FArial Bold|b1|i0|c1;\H2.497667;\W1.000000;900
 11
0.8860742405432105
 21
-0.4635433531459304
 31
0.0
 73
     1
 44
1.0
  0
ENDBLK
  5
20A
330
207
100
AcDbEntity
  8
0
100
AcDbBlockEnd
  0
BLOCK
  5
215
330
213
100
AcDbEntity
  8
0
100
AcDbBlockBegin
  2
Block_1
 70
     0
 10
0.0
 20
0.0
 30
0.0
  3
Block_1
  1

  0
LWPOLYLINE
  5
217
330
213
100
AcDbEntity
  8
Predeterminado
100
AcDbPolyline
 90
        3
 70
     1
 43
0.0
 10
79.5966093055797
 20
188.5334654630631
 10
77.13694184803059
 20
188.1235208868048
 10
79.5966093055797
 20
187.7135763105465
  0
HATCH
  5
218
330
213
100
AcDbEntity
  8
Predeterminado
 62
    18
420
        0
440
 33554687
100
AcDbHatch
 10
0.0
 20
0.0
 30
0.0
210
0.0
220
0.0
230
1.0
  2
SOLID
 70
     1
 71
     1
 91
        1
 92
        1
 93
        3
 72
     1
 10
79.5966093055797
 20
188.5334654630631
 11
77.13694184803059
 21
188.1235208868048
 72
     1
 10
77.13694184803059
 20
188.1235208868048
 11
79.5966093055797
 21
187.7135763105465
 72
     1
 10
79.5966093055797
 20
187.7135763105465
 11
79.5966093055797
 21
188.5334654630631
 97
        1
330
217
 75
     0
 76
     1
 98
        1
 10
0.0
 20
0.0
450
        0
451
        0
460
0.0
461
0.0
452
        0
462
0.0
453
        0
470

  0
LWPOLYLINE
  5
219
330
213
100
AcDbEntity
  8
Predeterminado
100
AcDbPolyline
 90
        3
 70
     1
 43
0.0
 10
147.0204309751079
 20
188.5334654630631
 10
147.0204309751079
 20
187.7135763105465
 10
149.4800984326564
 20
188.1235208868048
  0
HATCH
  5
21A
330
213
100
AcDbEntity
  8
Predeterminado
 62
    18
420
        0
440
 33554687
100
AcDbHatch
 10
0.0
 20
0.0
 30
0.0
210
0.0
220
0.0
230
1.0
  2
SOLID
 70
     1
 71
     1
 91
        1
 92
        1
 93
        3
 72
     1
 10
147.0204309751079
 20
188.5334654630631
 11
147.0204309751079
 21
187.7135763105465
 72
     1
 10
147.0204309751079
 20
187.7135763105465
 11
149.4800984326564
 21
188.1235208868048
 72
     1
 10
149.4800984326564
 20
188.1235208868048
 11
147.0204309751079
 21
188.5334654630631
 97
        1
330
219
 75
     0
 76
     1
 98
        1
 10
0.0
 20
0.0
450
        0
451
        0
460
0.0
461
0.0
452
        0
462
0.0
453
        0
470

  0
LINE
  5
21B
330
213
100
AcDbEntity
  8
Predeterminado
 62
    18
420
        0
370
     9
100
AcDbLine
 10
77.13694184803059
 20
175.9085635032978
 30
0.0
 11
77.13694184803059
 21
189.3533546155794
 31
0.0
  0
LINE
  5
21C
330
213
100
AcDbEntity
  8
Predeterminado
 62
    18
420
        0
370
     9
100
AcDbLine
 10
149.4800984326564
 20
175.9085635032978
 30
0.0
 11
149.4800984326564
 21
189.3533546155794
 31
0.0
  0
LINE
  5
21D
330
213
100
AcDbEntity
  8
Predeterminado
 62
    18
420
        0
370
     9
100
AcDbLine
 10
77.13694184803059
 20
188.1235208868048
 30
0.0
 11
149.4800984326564
 21
188.1235208868048
 31
0.0
  0
MTEXT
  5
21E
330
213
100
AcDbEntity
  8
Predeterminado
100
AcDbMText
 10
111.1563503411345
 20
188.7385226307667
 30
0.0
 40
0.2
 41
0.0
 46
0.0
 71
     7
 72
     1
  1
\C18;\c0;\FArial Bold|b1|i0|c1;\H2.497667;\W1.000000;500
 73
     1
 44
1.0
  0
ENDBLK
  5
216
330
213
100
AcDbEntity
  8
0
100
AcDbBlockEnd
  0
BLOCK
  5
221
330
21F
100
AcDbEntity
  8
0
100
AcDbBlockBegin
  2
Block_2
 70
     0
 10
0.0
 20
0.0
 30
0.0
  3
Block_2
  1

  0
LWPOLYLINE
  5
223
330
21F
100
AcDbEntity
  8
Predeterminado
100
AcDbPolyline
 90
        3
 70
     1
 43
0.0
 10
177.0737175130286
 20
211.1686178759291
 10
176.6637729367703
 20
213.6282853334782
 10
176.253828360512
 20
211.1686178759291
  0
HATCH
  5
224
330
21F
100
AcDbEntity
  8
Predeterminado
 62
    18
420
        0
440
 33554687
100
AcDbHatch
 10
0.0
 20
0.0
 30
0.0
210
0.0
220
0.0
230
1.0
  2
SOLID
 70
     1
 71
     1
 91
        1
 92
        1
 93
        3
 72
     1
 10
177.0737175130286
 20
211.1686178759291
 11
176.6637729367703
 21
213.6282853334782
 72
     1
 10
176.6637729367703
 20
213.6282853334782
 11
176.253828360512
 21
211.1686178759291
 72
     1
 10
176.253828360512
 20
211.1686178759291
 11
177.0737175130286
 21
211.1686178759291
 97
        1
330
223
 75
     0
 76
     1
 98
        1
 10
0.0
 20
0.0
450
        0
451
        0
460
0.0
461
0.0
452
        0
462
0.0
453
        0
470

  0
LWPOLYLINE
  5
225
330
21F
100
AcDbEntity
  8
Predeterminado
100
AcDbPolyline
 90
        3
 70
     1
 43
0.0
 10
177.0737175130286
 20
184.256964066271
 10
176.253828360512
 20
184.256964066271
 10
176.6637729367703
 20
181.7972966087222
  0
HATCH
  5
226
330
21F
100
AcDbEntity
  8
Predeterminado
 62
    18
420
        0
440
 33554687
100
AcDbHatch
 10
0.0
 20
0.0
 30
0.0
210
0.0
220
0.0
230
1.0
  2
SOLID
 70
     1
 71
     1
 91
        1
 92
        1
 93
        3
 72
     1
 10
177.0737175130286
 20
184.256964066271
 11
176.253828360512
 21
184.256964066271
 72
     1
 10
176.253828360512
 20
184.256964066271
 11
176.6637729367703
 21
181.7972966087222
 72
     1
 10
176.6637729367703
 20
181.7972966087222
 11
177.0737175130286
 21
184.256964066271
 97
        1
330
225
 75
     0
 76
     1
 98
        1
 10
0.0
 20
0.0
450
        0
451
        0
460
0.0
461
0.0
452
        0
462
0.0
453
        0
470

  0
LINE
  5
227
330
21F
100
AcDbEntity
  8
Predeterminado
 62
    18
420
        0
370
     9
100
AcDbLine
 10
114.2923870829384
 20
213.6282853334779
 30
0.0
 11
177.8936066655446
 21
213.6282853334779
 31
0.0
  0
LINE
  5
228
330
21F
100
AcDbEntity
  8
Predeterminado
 62
    18
420
        0
370
     9
100
AcDbLine
 10
154.6598684571589
 20
181.7972964362425
 30
0.0
 11
177.8936066655446
 21
181.7972964362425
 31
0.0
  0
LINE
  5
229
330
21F
100
AcDbEntity
  8
Predeterminado
 62
    18
420
        0
370
     9
100
AcDbLine
 10
176.6637729367703
 20
213.6282853334779
 30
0.0
 11
176.6637729367703
 21
181.7972966087222
 31
0.0
  0
MTEXT
  5
22A
330
21F
100
AcDbEntity
  8
Predeterminado
100
AcDbMText
 10
176.0488579203981
 20
195.4767848903675
 30
0.0
 40
0.2
 41
0.0
 46
0.0
 71
     7
 72
     1
  1
\C18;\c0;\FArial Bold|b1|i0|c1;\H2.497667;\W1.000000;220
 11
-0.0000000000000002
 21
1.0
 31
0.0
 73
     1
 44
1.0
  0
ENDBLK
  5
222
330
21F
100
AcDbEntity
  8
0
100
AcDbBlockEnd
  0
ENDSEC
  0
SECTION
  2
ENTITIES
  0
CIRCLE
  5
79
330
70
100
AcDbEntity
  8
Predeterminado
 62
    18
420
        0
370
     9
100
AcDbCircle
 10
113.3085201403436
 20
148.5194444073146
 30
0.0
 40
64.96415461299408
  0
CIRCLE
  5
7A
330
70
100
AcDbEntity
  8
Predeterminado
 62
    18
420
        0
370
     9
100
AcDbCircle
 10
113.3085201403435
 20
148.5194444073146
 30
0.0
 40
65.10884092616326
  0
CIRCLE
  5
7B
330
70
100
AcDbEntity
  8
Predeterminado
 62
    18
420
        0
370
     9
100
AcDbCircle
 10
113.3085201403436
 20
148.5194444073145
 30
0.0
 40
56.42766213600843
  0
SPLINE
  5
7C
330
70
100
AcDbEntity
  8
Predeterminado
 62
    18
420
        0
370
     9
100
AcDbSpline
210
0.0
220
0.0
230
1.0
 70
     8
 71
     3
 72
     8
 73
     4
 74
     0
 42
0.0000000001
 43
0.0000000001
 40
0.0
 40
0.0
 40
0.0
 40
0.0
 40
1.0
 40
1.0
 40
1.0
 40
1.0
 10
158.9774393894127
 20
117.9051001586622
 30
0.0
 10
165.0480549189858
 20
126.960935167261
 30
0.0
 10
168.2893191446589
 20
137.6171271944071
 30
0.0
 10
168.2893191446589
 20
148.5194444073146
 30
0.0
  0
SPLINE
  5
7D
330
70
100
AcDbEntity
  8
Predeterminado
 62
    18
420
        0
370
     9
100
AcDbSpline
210
0.0
220
0.0
230
1.0
 70
     8
 71
     3
 72
     8
 73
     4
 74
     0
 42
0.0000000001
 43
0.0000000001
 40
0.0
 40
0.0
 40
0.0
 40
0.0
 40
1.0
 40
1.0
 40
1.0
 40
1.0
 10
117.9363923185332
 20
93.73376143945042
 30
0.0
 10
134.3251485360447
 20
95.11815723093237
 30
0.0
 10
149.2334399332413
 20
103.7668324266568
 30
0.0
 10
158.5705309102326
 20
117.30664830989
 30
0.0
  0
SPLINE
  5
7E
330
70
100
AcDbEntity
  8
Predeterminado
 62
    18
420
        0
370
     9
100
AcDbSpline
210
0.0
220
0.0
230
1.0
 70
     8
 71
     3
 72
     8
 73
     4
 74
     0
 42
0.0000000001
 43
0.0000000001
 40
0.0
 40
0.0
 40
0.0
 40
0.0
 40
1.0
 40
1.0
 40
1.0
 40
1.0
 10
109.630178701229
 20
93.66182813199484
 30
0.0
 10
112.1558257688302
 20
93.49247713025377
 30
0.0
 10
114.6901532459346
 20
93.49774939537947
 30
0.0
 10
117.2150738399635
 20
93.67760729963798
 30
0.0
  0
SPLINE
  5
7F
330
70
100
AcDbEntity
  8
Predeterminado
 62
    18
420
        0
370
     9
100
AcDbSpline
210
0.0
220
0.0
230
1.0
 70
     8
 71
     3
 72
     8
 73
     4
 74
     0
 42
0.0000000001
 43
0.0000000001
 40
0.0
 40
0.0
 40
0.0
 40
0.0
 40
1.0
 40
1.0
 40
1.0
 40
1.0
 10
63.96126040543713
 20
124.2761728498569
 30
0.0
 10
72.50864208755406
 20
106.8779490614073
 30
0.0
 10
89.58620032258947
 20
95.26631561444537
 30
0.0
 10
108.9084499305742
 20
93.71499530596814
 30
0.0
  0
SPLINE
  5
80
330
70
100
AcDbEntity
  8
Predeterminado
 62
    18
420
        0
370
     9
100
AcDbSpline
210
0.0
220
0.0
230
1.0
 70
     8
 71
     3
 72
     8
 73
     4
 74
     0
 42
0.0000000001
 43
0.0000000001
 40
0.0
 40
0.0
 40
0.0
 40
0.0
 40
1.0
 40
1.0
 40
1.0
 40
1.0
 10
67.63960093353438
 20
179.1337887190078
 30
0.0
 10
56.84598813332434
 20
163.0324270205934
 30
0.0
 10
55.32879792167706
 20
142.4370109778985
 30
0.0
 10
63.64644014186385
 20
124.927791871353
 30
0.0
  0
SPLINE
  5
81
330
70
100
AcDbEntity
  8
Predeterminado
 62
    18
420
        0
370
     9
100
AcDbSpline
210
0.0
220
0.0
230
1.0
 70
     8
 71
     3
 72
     8
 73
     4
 74
     0
 42
0.0000000001
 43
0.0000000001
 40
0.0
 40
0.0
 40
0.0
 40
0.0
 40
1.0
 40
1.0
 40
1.0
 40
1.0
 10
116.9868616551829
 20
203.3770606775572
 30
0.0
 10
97.64586638417803
 20
204.673923186004
 30
0.0
 10
79.05111704996366
 20
195.6901402162067
 30
0.0
 10
68.04650941353969
 20
179.7322405672175
 30
0.0
  0
SPLINE
  5
82
330
70
100
AcDbEntity
  8
Predeterminado
 62
    18
420
        0
370
     9
100
AcDbSpline
210
0.0
220
0.0
230
1.0
 70
     8
 71
     3
 72
     8
 73
     4
 74
     0
 42
0.0000000001
 43
0.0000000001
 40
0.0
 40
0.0
 40
0.0
 40
0.0
 40
1.0
 40
1.0
 40
1.0
 40
1.0
 10
162.6557798417853
 20
172.7627160328902
 30
0.0
 10
154.1083981595217
 20
190.160939760954
 30
0.0
 10
137.0308399776472
 20
201.77257317177
 30
0.0
 10
117.7085904257639
 20
203.323893502587
 30
0.0
  0
SPLINE
  5
83
330
70
100
AcDbEntity
  8
Predeterminado
 62
    18
420
        0
370
     9
100
AcDbSpline
210
0.0
220
0.0
230
1.0
 70
     8
 71
     3
 72
     8
 73
     4
 74
     0
 42
0.0000000001
 43
0.0000000001
 40
0.0
 40
0.0
 40
0.0
 40
0.0
 40
1.0
 40
1.0
 40
1.0
 40
1.0
 10
168.2893191446589
 20
148.5194444073146
 30
0.0
 10
168.2893191446589
 20
156.6806115825994
 30
0.0
 10
166.4724666548242
 20
164.739422823493
 30
0.0
 10
162.9706001062585
 20
172.1110970118289
 30
0.0
  0
CIRCLE
  5
84
330
70
100
AcDbEntity
  8
Predeterminado
 62
    18
420
        0
370
     9
100
AcDbCircle
 10
113.3085201403435
 20
148.5194444073146
 30
0.0
 40
55.2701716306543
  0
CIRCLE
  5
85
330
70
100
AcDbEntity
  8
Predeterminado
 62
    18
420
        0
370
     9
100
AcDbCircle
 10
113.3085201403436
 20
148.5194444073146
 30
0.0
 40
56.13828950966977
  0
SPLINE
  5
86
330
70
100
AcDbEntity
  8
Predeterminado
 62
    18
420
        0
370
     9
100
AcDbSpline
210
0.0
220
0.0
230
1.0
 70
    24
 71
     3
 72
     8
 73
     4
 74
     0
 42
0.0000000001
 43
0.0000000001
 40
0.0
 40
0.0
 40
0.0
 40
0.0
 40
1.0
 40
1.0
 40
1.0
 40
1.0
 10
114.3004009282798
 20
93.57017590002008
 30
0.0
 10
114.2727938200166
 20
93.59097934826378
 30
0.0
 10
114.2451867117521
 20
93.61178279650813
 30
0.0
 10
114.2175796034876
 20
93.63258624475248
 30
0.0
  0
LINE
  5
87
330
70
100
AcDbEntity
  8
Predeterminado
 62
    18
420
        0
370
     9
100
AcDbLine
 10
114.0299817032933
 20
93.54337913918028
 30
0.0
 11
114.0923397037245
 21
93.62613100073929
 31
0.0
  0
SPLINE
  5
88
330
70
100
AcDbEntity
  8
Predeterminado
 62
    18
420
        0
370
     9
100
AcDbSpline
210
0.0
220
0.0
230
1.0
 70
     8
 71
     3
 72
    11
 73
     7
 74
     0
 42
0.0000000001
 43
0.0000000001
 40
0.0
 40
0.0
 40
0.0
 40
0.0
 40
1.0
 40
1.0
 40
1.0
 40
2.0
 40
2.0
 40
2.0
 40
2.0
 10
169.6952517091541
 20
146.3709795987887
 30
0.0
 10
169.7222414401171
 20
147.0793555567689
 30
0.0
 10
169.7358858654886
 20
147.7882399730004
 30
0.0
 10
169.7361655544606
 20
148.497129659081
 30
0.0
 10
169.736262505363
 20
148.742857956253
 30
0.0
 10
169.7347535750268
 20
148.9885868866401
 30
0.0
 10
169.7316395634699
 20
149.234295491771
 30
0.0
  0
SPLINE
  5
89
330
70
100
AcDbEntity
  8
Predeterminado
 62
    18
420
        0
370
     9
100
AcDbSpline
210
0.0
220
0.0
230
1.0
 70
     8
 71
     3
 72
     8
 73
     4
 74
     0
 42
0.0000000001
 43
0.0000000001
 40
0.0
 40
0.0
 40
0.0
 40
0.0
 40
1.0
 40
1.0
 40
1.0
 40
1.0
 10
114.0551396714041
 20
204.9421527262013
 30
0.0
 10
113.300453163435
 20
204.9521372109042
 30
0.0
 10
112.5455661677474
 20
204.9469802690015
 30
0.0
 10
111.7910864116686
 20
204.9266876189402
 30
0.0
  0
SPLINE
  5
8A
330
70
100
AcDbEntity
  8
Predeterminado
 62
    18
420
        0
370
     9
100
AcDbSpline
210
0.0
220
0.0
230
1.0
 70
     8
 71
     3
 72
     8
 73
     4
 74
     0
 42
0.0000000001
 43
0.0000000001
 40
0.0
 40
0.0
 40
0.0
 40
0.0
 40
1.0
 40
1.0
 40
1.0
 40
1.0
 10
111.6135386892988
 20
92.12173657956739
 30
0.0
 10
112.1502750302568
 20
92.10762665019705
 30
0.0
 10
112.7018157788739
 20
92.09954676973028
 30
0.0
 10
113.3085201403435
 20
92.09178227130591
 30
0.0
  0
LINE
  5
8B
330
70
100
AcDbEntity
  8
Predeterminado
 62
    18
420
        0
370
     9
100
AcDbLine
 10
109.6913623111122
 20
204.8611444564599
 30
0.0
 11
109.6913623111122
 21
204.8310526544065
 31
0.0
  0
LINE
  5
8C
330
70
100
AcDbEntity
  8
Predeterminado
 62
    18
420
        0
370
     9
100
AcDbLine
 10
116.9256779695748
 20
204.8611444564599
 30
0.0
 11
116.4220213379739
 21
204.8611444564599
 31
0.0
  0
LINE
  5
8D
330
70
100
AcDbEntity
  8
Predeterminado
 62
    18
420
        0
370
     9
100
AcDbLine
 10
110.1950189427131
 20
204.8611444564599
 30
0.0
 11
109.6913623111122
 21
204.8611444564599
 31
0.0
  0
LINE
  5
8E
330
70
100
AcDbEntity
  8
Predeterminado
 62
    18
420
        0
370
     9
100
AcDbLine
 10
116.9256779695748
 20
204.8310526544065
 30
0.0
 11
116.9256779695748
 21
204.8611444564599
 31
0.0
  0
LINE
  5
8F
330
70
100
AcDbEntity
  8
Predeterminado
 62
    18
420
        0
370
     9
100
AcDbLine
 10
70.70691597226248
 20
111.2082399387601
 30
0.0
 11
75.82234963160565
 21
106.0928062794175
 31
0.0
  0
LINE
  5
90
330
70
100
AcDbEntity
  8
Predeterminado
 62
    18
420
        0
370
     9
100
AcDbLine
 10
70.85071619561358
 20
111.3520401621115
 30
0.0
 11
70.70691597226248
 21
111.2082399387601
 31
0.0
  0
LINE
  5
91
330
70
100
AcDbEntity
  8
Predeterminado
 62
    18
420
        0
370
     9
100
AcDbLine
 10
75.82234963160565
 20
106.0928062794175
 30
0.0
 11
75.95491094107014
 21
106.225367588882
 31
0.0
  0
LINE
  5
92
330
70
100
AcDbEntity
  8
Predeterminado
 62
    18
420
        0
370
     9
100
AcDbLine
 10
109.6913623111122
 20
92.17895584019808
 30
0.0
 11
110.1731729260715
 21
92.17895584019808
 31
0.0
  0
LINE
  5
93
330
70
100
AcDbEntity
  8
Predeterminado
 62
    18
420
        0
370
     9
100
AcDbLine
 10
116.4438673546162
 20
92.17895584019808
 30
0.0
 11
116.9256779695748
 21
92.17895584019808
 31
0.0
  0
LINE
  5
94
330
70
100
AcDbEntity
  8
Predeterminado
 62
    18
420
        0
370
     9
100
AcDbLine
 10
109.6913623111122
 20
92.20783616022304
 30
0.0
 11
109.6913623111122
 21
92.17895584019808
 31
0.0
  0
LINE
  5
95
330
70
100
AcDbEntity
  8
Predeterminado
 62
    18
420
        0
370
     9
100
AcDbLine
 10
116.9256779695748
 20
92.17895584019808
 30
0.0
 11
116.9256779695748
 21
92.20783616022304
 31
0.0
  0
LINE
  5
96
330
70
100
AcDbEntity
  8
Predeterminado
 62
    18
420
        0
370
     9
100
AcDbLine
 10
70.80064326584478
 20
185.7132535074972
 30
0.0
 11
70.83967019324891
 21
185.6742265800934
 31
0.0
  0
LINE
  5
97
330
70
100
AcDbEntity
  8
Predeterminado
 62
    18
420
        0
370
     9
100
AcDbLine
 10
75.91607692518795
 20
190.8286871668401
 30
0.0
 11
75.44534922506902
 21
190.3579594667212
 31
0.0
  0
LINE
  5
98
330
70
100
AcDbEntity
  8
Predeterminado
 62
    18
420
        0
370
     9
100
AcDbLine
 10
71.47000508093691
 20
186.3826153225894
 30
0.0
 11
70.80064326584478
 21
185.7132535074972
 31
0.0
  0
LINE
  5
99
330
70
100
AcDbEntity
  8
Predeterminado
 62
    18
420
        0
370
     9
100
AcDbLine
 10
75.94234461500829
 20
190.8024194770201
 30
0.0
 11
75.91607692518795
 21
190.8286871668401
 31
0.0
  0
LINE
  5
9A
330
70
100
AcDbEntity
  8
Predeterminado
 62
    18
420
        0
370
     9
100
AcDbLine
 10
149.8785140265192
 20
105.1848110500011
 30
0.0
 11
154.9939476858624
 21
110.3002447093436
 31
0.0
  0
LINE
  5
9B
330
70
100
AcDbEntity
  8
Predeterminado
 62
    18
420
        0
370
     9
100
AcDbLine
 10
149.6829663732752
 20
105.3803587032451
 30
0.0
 11
149.8785140265192
 21
105.1848110500011
 31
0.0
  0
LINE
  5
9C
330
70
100
AcDbEntity
  8
Predeterminado
 62
    18
420
        0
370
     9
100
AcDbLine
 10
154.9939476858624
 20
110.3002447093436
 30
0.0
 11
154.9043590486811
 21
110.3898333465249
 31
0.0
  0
LINE
  5
9D
330
70
100
AcDbEntity
  8
Predeterminado
 62
    18
420
        0
370
     9
100
AcDbLine
 10
112.1510296349896
 20
93.62613100073929
 30
0.0
 11
114.4660106456973
 21
93.62613100073929
 31
0.0
  0
LINE
  5
9E
330
70
100
AcDbEntity
  8
Predeterminado
 62
    18
420
        0
370
     9
100
AcDbLine
 10
112.2957159481593
 20
93.879332048785
 30
0.0
 11
114.3213243325283
 21
93.879332048785
 31
0.0
  0
LINE
  5
9F
330
70
100
AcDbEntity
  8
Predeterminado
 62
    18
420
        0
370
     9
100
AcDbLine
 10
112.1510296349896
 20
93.73464573561593
 30
0.0
 11
114.4660106456973
 21
93.73464573561593
 31
0.0
  0
LINE
  5
A0
330
70
100
AcDbEntity
  8
Predeterminado
 62
    18
420
        0
370
     9
100
AcDbLine
 10
112.1510296349896
 20
93.73464573561593
 30
0.0
 11
112.1510296349896
 21
93.62613100073929
 31
0.0
  0
LINE
  5
A1
330
70
100
AcDbEntity
  8
Predeterminado
 62
    18
420
        0
370
     9
100
AcDbLine
 10
114.4660106456973
 20
93.62613100073929
 30
0.0
 11
114.4660106456973
 21
93.73464573561593
 31
0.0
  0
LINE
  5
A2
330
70
100
AcDbEntity
  8
Predeterminado
 62
    18
420
        0
370
     9
100
AcDbLine
 10
112.4404022613278
 20
93.62613100073929
 30
0.0
 11
112.4404022613278
 21
93.54549939241572
 31
0.0
  0
SPLINE
  5
A3
330
70
100
AcDbEntity
  8
Predeterminado
 62
    18
420
        0
370
     9
100
AcDbSpline
210
0.0
220
0.0
230
1.0
 70
     8
 71
     3
 72
     8
 73
     4
 74
     0
 42
0.0000000001
 43
0.0000000001
 40
0.0
 40
0.0
 40
0.0
 40
0.0
 40
1.0
 40
1.0
 40
1.0
 40
1.0
 10
114.4660106456973
 20
93.73464573561593
 30
0.0
 10
114.4660106456973
 20
93.81455377988844
 30
0.0
 10
114.4012323768008
 20
93.879332048785
 30
0.0
 10
114.3213243325283
 20
93.879332048785
 30
0.0
  0
SPLINE
  5
A4
330
70
100
AcDbEntity
  8
Predeterminado
 62
    18
420
        0
370
     9
100
AcDbSpline
210
0.0
220
0.0
230
1.0
 70
     8
 71
     3
 72
     8
 73
     4
 74
     0
 42
0.0000000001
 43
0.0000000001
 40
0.0
 40
0.0
 40
0.0
 40
0.0
 40
1.0
 40
1.0
 40
1.0
 40
1.0
 10
112.2957159481593
 20
93.879332048785
 30
0.0
 10
112.2158079038855
 20
93.879332048785
 30
0.0
 10
112.1510296349896
 20
93.81455377988844
 30
0.0
 10
112.1510296349896
 20
93.73464573561593
 30
0.0
  0
LINE
  5
A5
330
70
100
AcDbEntity
  8
Predeterminado
 62
    18
420
        0
370
     9
100
AcDbLine
 10
112.1510296349896
 20
92.09049118743083
 30
0.0
 11
114.4660106456973
 21
92.09049118743083
 31
0.0
  0
LINE
  5
A6
330
70
100
AcDbEntity
  8
Predeterminado
 62
    18
420
        0
370
     9
100
AcDbLine
 10
112.1510296349896
 20
91.98197645255353
 30
0.0
 11
114.4660106456973
 21
91.98197645255353
 31
0.0
  0
LINE
  5
A7
330
70
100
AcDbEntity
  8
Predeterminado
 62
    18
420
        0
370
     9
100
AcDbLine
 10
112.2957159481593
 20
91.83729013938446
 30
0.0
 11
114.3213243325283
 21
91.83729013938446
 31
0.0
  0
LINE
  5
A8
330
70
100
AcDbEntity
  8
Predeterminado
 62
    18
420
        0
370
     9
100
AcDbLine
 10
112.4404022613278
 20
92.09846049632927
 30
0.0
 11
112.4404022613278
 21
92.09049118743083
 31
0.0
  0
LINE
  5
A9
330
70
100
AcDbEntity
  8
Predeterminado
 62
    18
420
        0
370
     9
100
AcDbLine
 10
114.1766380193592
 20
92.09049118743083
 30
0.0
 11
114.1766380193592
 21
92.09846049632927
 31
0.0
  0
LINE
  5
AA
330
70
100
AcDbEntity
  8
Predeterminado
 62
    18
420
        0
370
     9
100
AcDbLine
 10
112.1510296349896
 20
92.09049118743083
 30
0.0
 11
112.1510296349896
 21
91.98197645255353
 31
0.0
  0
LINE
  5
AB
330
70
100
AcDbEntity
  8
Predeterminado
 62
    18
420
        0
370
     9
100
AcDbLine
 10
114.4660106456973
 20
91.98197645255353
 30
0.0
 11
114.4660106456973
 21
92.09049118743083
 31
0.0
  0
SPLINE
  5
AC
330
70
100
AcDbEntity
  8
Predeterminado
 62
    18
420
        0
370
     9
100
AcDbSpline
210
0.0
220
0.0
230
1.0
 70
     8
 71
     3
 72
     8
 73
     4
 74
     0
 42
0.0000000001
 43
0.0000000001
 40
0.0
 40
0.0
 40
0.0
 40
0.0
 40
1.0
 40
1.0
 40
1.0
 40
1.0
 10
112.1510296349896
 20
91.98197645255353
 30
0.0
 10
112.1510296349896
 20
91.90206840828102
 30
0.0
 10
112.2158079038855
 20
91.83729013938446
 30
0.0
 10
112.2957159481593
 20
91.83729013938446
 30
0.0
  0
SPLINE
  5
AD
330
70
100
AcDbEntity
  8
Predeterminado
 62
    18
420
        0
370
     9
100
AcDbSpline
210
0.0
220
0.0
230
1.0
 70
     8
 71
     3
 72
     8
 73
     4
 74
     0
 42
0.0000000001
 43
0.0000000001
 40
0.0
 40
0.0
 40
0.0
 40
0.0
 40
1.0
 40
1.0
 40
1.0
 40
1.0
 10
114.3213243325283
 20
91.83729013938446
 30
0.0
 10
114.4012323768008
 20
91.83729013938446
 30
0.0
 10
114.4660106456973
 20
91.90206840828102
 30
0.0
 10
114.4660106456973
 20
91.98197645255353
 30
0.0
  0
LINE
  5
AE
330
70
100
AcDbEntity
  8
Predeterminado
 62
    18
420
        0
370
     9
100
AcDbLine
 10
109.631366166839
 20
93.68702263136201
 30
0.0
 11
109.6170614187883
 21
93.38351829195785
 31
0.0
  0
LINE
  5
AF
330
70
100
AcDbEntity
  8
Predeterminado
 62
    18
420
        0
370
     9
100
AcDbLine
 10
109.6170614187883
 20
93.38351829195785
 30
0.0
 11
109.5761907100717
 21
92.5163630365191
 31
0.0
  0
LINE
  5
B0
330
70
100
AcDbEntity
  8
Predeterminado
 62
    18
420
        0
370
     9
100
AcDbLine
 10
109.5761907100717
 20
92.5163630365191
 30
0.0
 11
109.5630212594851
 21
92.23694634310048
 31
0.0
  0
LINE
  5
B1
330
70
100
AcDbEntity
  8
Predeterminado
 62
    18
420
        0
370
     9
100
AcDbLine
 10
109.5620477685648
 20
92.21629175221885
 30
0.0
 11
109.5380397202705
 21
91.70691215238187
 31
0.0
  0
LINE
  5
B2
330
70
100
AcDbEntity
  8
Predeterminado
 62
    18
420
        0
370
     9
100
AcDbLine
 10
108.8403918799527
 20
92.27100526703045
 30
0.0
 11
108.8154103407381
 21
91.74097107631247
 31
0.0
  0
LINE
  5
B3
330
70
100
AcDbEntity
  8
Predeterminado
 62
    18
420
        0
370
     9
100
AcDbLine
 10
108.8535613305393
 20
92.55042196044968
 30
0.0
 11
108.8403918799527
 21
92.27100526703045
 31
0.0
  0
LINE
  5
B4
330
70
100
AcDbEntity
  8
Predeterminado
 62
    18
420
        0
370
     9
100
AcDbLine
 10
108.8944320392565
 20
93.41757721588908
 30
0.0
 11
108.8535613305393
 21
92.55042196044968
 31
0.0
  0
LINE
  5
B5
330
70
100
AcDbEntity
  8
Predeterminado
 62
    18
420
        0
370
     9
100
AcDbLine
 10
108.9087367873066
 20
93.72108155529261
 30
0.0
 11
108.8944320392565
 21
93.41757721588908
 31
0.0
  0
LINE
  5
B6
330
70
100
AcDbEntity
  8
Predeterminado
 62
    18
420
        0
370
     9
100
AcDbLine
 10
109.5630212594851
 20
92.23694634310048
 30
0.0
 11
108.8403918799527
 21
92.27100526703045
 31
0.0
  0
LINE
  5
B7
330
70
100
AcDbEntity
  8
Predeterminado
 62
    18
420
        0
370
     9
100
AcDbLine
 10
109.5761907100717
 20
92.5163630365191
 30
0.0
 11
108.8535613305393
 21
92.55042196044968
 31
0.0
  0
LINE
  5
B8
330
70
100
AcDbEntity
  8
Predeterminado
 62
    18
420
        0
370
     9
100
AcDbLine
 10
109.6170614187883
 20
93.38351829195785
 30
0.0
 11
108.8944320392565
 21
93.41757721588908
 31
0.0
  0
LINE
  5
B9
330
70
100
AcDbEntity
  8
Predeterminado
 62
    18
420
        0
370
     9
100
AcDbLine
 10
109.631366166839
 20
93.68702263136201
 30
0.0
 11
108.9087367873066
 21
93.72108155529261
 31
0.0
  0
LINE
  5
BA
330
70
100
AcDbEntity
  8
Predeterminado
 62
    18
420
        0
370
     9
100
AcDbLine
 10
108.8154103407381
 20
91.74097107631247
 30
0.0
 11
109.5380397202705
 21
91.70691215238187
 31
0.0
  0
LINE
  5
BB
330
70
100
AcDbEntity
  8
Predeterminado
 62
    18
420
        0
370
     9
100
AcDbLine
 10
169.6987264028048
 20
144.9022865780833
 30
0.0
 11
169.6987264028048
 21
146.4637956502008
 31
0.0
  0
LINE
  5
BC
330
70
100
AcDbEntity
  8
Predeterminado
 62
    18
420
        0
370
     9
100
AcDbLine
 10
169.6987264028048
 20
150.5750931644283
 30
0.0
 11
169.6987264028048
 21
152.1366022365459
 31
0.0
  0
LINE
  5
BD
330
70
100
AcDbEntity
  8
Predeterminado
 62
    18
420
        0
370
     9
100
AcDbLine
 10
169.620128387435
 20
144.9022865780833
 30
0.0
 11
169.6987264028048
 21
144.9022865780833
 31
0.0
  0
LINE
  5
BE
330
70
100
AcDbEntity
  8
Predeterminado
 62
    18
420
        0
370
     9
100
AcDbLine
 10
169.6987264028048
 20
152.1366022365459
 30
0.0
 11
169.620128387435
 21
152.1366022365459
 31
0.0
  0
LINE
  5
BF
330
70
100
AcDbEntity
  8
Predeterminado
 62
    18
420
        0
370
     9
100
AcDbLine
 10
56.81131721202097
 20
144.9022865780833
 30
0.0
 11
56.99691189325196
 21
144.9022865780833
 31
0.0
  0
LINE
  5
C0
330
70
100
AcDbEntity
  8
Predeterminado
 62
    18
420
        0
370
     9
100
AcDbLine
 10
56.81131721202097
 20
152.1366022365459
 30
0.0
 11
56.81131721202097
 21
144.9022865780833
 31
0.0
  0
LINE
  5
C1
330
70
100
AcDbEntity
  8
Predeterminado
 62
    18
420
        0
370
     9
100
AcDbLine
 10
56.99691189325196
 20
152.1366022365459
 30
0.0
 11
56.81131721202097
 21
152.1366022365459
 31
0.0
  0
LINE
  5
C2
330
70
100
AcDbEntity
  8
Predeterminado
 62
    18
420
        0
370
     9
100
AcDbLine
 10
158.9562049557965
 20
117.9187316627889
 30
0.0
 11
159.2118948102588
 21
117.7545908446515
 31
0.0
  0
LINE
  5
C3
330
70
100
AcDbEntity
  8
Predeterminado
 62
    18
420
        0
370
     9
100
AcDbLine
 10
159.2118948102588
 20
117.7545908446515
 30
0.0
 11
159.9424372515781
 21
117.2856170785443
 31
0.0
  0
LINE
  5
C4
330
70
100
AcDbEntity
  8
Predeterminado
 62
    18
420
        0
370
     9
100
AcDbLine
 10
159.9424372515781
 20
117.2856170785443
 30
0.0
 11
160.1778342604477
 21
117.1345033094651
 31
0.0
  0
LINE
  5
C5
330
70
100
AcDbEntity
  8
Predeterminado
 62
    18
420
        0
370
     9
100
AcDbLine
 10
160.1952439739945
 20
117.1233270950981
 30
0.0
 11
160.6243661464532
 21
116.8478509147208
 31
0.0
  0
LINE
  5
C6
330
70
100
AcDbEntity
  8
Predeterminado
 62
    18
420
        0
370
     9
100
AcDbLine
 10
159.7870227886919
 20
116.5257179416984
 30
0.0
 11
160.2335546746968
 21
116.2390655469541
 31
0.0
  0
LINE
  5
C7
330
70
100
AcDbEntity
  8
Predeterminado
 62
    18
420
        0
370
     9
100
AcDbLine
 10
159.5516257798217
 20
116.6768317107776
 30
0.0
 11
159.7870227886919
 21
116.5257179416984
 31
0.0
  0
LINE
  5
C8
330
70
100
AcDbEntity
  8
Predeterminado
 62
    18
420
        0
370
     9
100
AcDbLine
 10
158.8210833385024
 20
117.1458054768854
 30
0.0
 11
159.5516257798217
 21
116.6768317107776
 31
0.0
  0
LINE
  5
C9
330
70
100
AcDbEntity
  8
Predeterminado
 62
    18
420
        0
370
     9
100
AcDbLine
 10
158.5653934840401
 20
117.3099462950228
 30
0.0
 11
158.8210833385024
 21
117.1458054768854
 31
0.0
  0
LINE
  5
CA
330
70
100
AcDbEntity
  8
Predeterminado
 62
    18
420
        0
370
     9
100
AcDbLine
 10
160.1778342604477
 20
117.1345033094651
 30
0.0
 11
159.7870227886919
 21
116.5257179416984
 31
0.0
  0
LINE
  5
CB
330
70
100
AcDbEntity
  8
Predeterminado
 62
    18
420
        0
370
     9
100
AcDbLine
 10
159.9424372515781
 20
117.2856170785443
 30
0.0
 11
159.5516257798217
 21
116.6768317107776
 31
0.0
  0
LINE
  5
CC
330
70
100
AcDbEntity
  8
Predeterminado
 62
    18
420
        0
370
     9
100
AcDbLine
 10
159.2118948102588
 20
117.7545908446515
 30
0.0
 11
158.8210833385024
 21
117.1458054768854
 31
0.0
  0
LINE
  5
CD
330
70
100
AcDbEntity
  8
Predeterminado
 62
    18
420
        0
370
     9
100
AcDbLine
 10
158.9562049557965
 20
117.9187316627889
 30
0.0
 11
158.5653934840401
 21
117.3099462950228
 31
0.0
  0
LINE
  5
CE
330
70
100
AcDbEntity
  8
Predeterminado
 62
    18
420
        0
370
     9
100
AcDbLine
 10
160.2335546746968
 20
116.2390655469541
 30
0.0
 11
160.6243661464532
 21
116.8478509147208
 31
0.0
  0
LINE
  5
CF
330
70
100
AcDbEntity
  8
Predeterminado
 62
    18
420
        0
370
     9
100
AcDbLine
 10
162.6333631147997
 20
172.751145155756
 30
0.0
 11
162.9033580519928
 21
172.8905088660388
 31
0.0
  0
LINE
  5
D0
330
70
100
AcDbEntity
  8
Predeterminado
 62
    18
420
        0
370
     9
100
AcDbLine
 10
162.9033580519928
 20
172.8905088660388
 30
0.0
 11
163.6747721582584
 21
173.2886908954172
 31
0.0
  0
LINE
  5
D1
330
70
100
AcDbEntity
  8
Predeterminado
 62
    18
420
        0
370
     9
100
AcDbLine
 10
163.6747721582584
 20
173.2886908954172
 30
0.0
 11
163.9233389258328
 21
173.4169939937726
 31
0.0
  0
LINE
  5
D2
330
70
100
AcDbEntity
  8
Predeterminado
 62
    18
420
        0
370
     9
100
AcDbLine
 10
163.9417169706841
 20
173.4264802180139
 30
0.0
 11
164.3948529355322
 21
173.6603761198414
 31
0.0
  0
LINE
  5
D3
330
70
100
AcDbEntity
  8
Predeterminado
 62
    18
420
        0
370
     9
100
AcDbLine
 10
164.255157283649
 20
172.7741489052176
 30
0.0
 11
164.7266712933477
 21
173.017531031286
 31
0.0
  0
LINE
  5
D4
330
70
100
AcDbEntity
  8
Predeterminado
 62
    18
420
        0
370
     9
100
AcDbLine
 10
164.0065905160746
 20
172.6458458068622
 30
0.0
 11
164.255157283649
 21
172.7741489052176
 31
0.0
  0
LINE
  5
D5
330
70
100
AcDbEntity
  8
Predeterminado
 62
    18
420
        0
370
     9
100
AcDbLine
 10
163.2351764098083
 20
172.2476637774834
 30
0.0
 11
164.0065905160746
 21
172.6458458068622
 31
0.0
  0
LINE
  5
D6
330
70
100
AcDbEntity
  8
Predeterminado
 62
    18
420
        0
370
     9
100
AcDbLine
 10
162.9651814726146
 20
172.108300067201
 30
0.0
 11
163.2351764098083
 21
172.2476637774834
 31
0.0
  0
LINE
  5
D7
330
70
100
AcDbEntity
  8
Predeterminado
 62
    18
420
        0
370
     9
100
AcDbLine
 10
163.9233389258335
 20
173.4169939937726
 30
0.0
 11
164.255157283649
 21
172.7741489052176
 31
0.0
  0
LINE
  5
D8
330
70
100
AcDbEntity
  8
Predeterminado
 62
    18
420
        0
370
     9
100
AcDbLine
 10
163.6747721582584
 20
173.2886908954172
 30
0.0
 11
164.0065905160746
 21
172.6458458068622
 31
0.0
  0
LINE
  5
D9
330
70
100
AcDbEntity
  8
Predeterminado
 62
    18
420
        0
370
     9
100
AcDbLine
 10
162.9033580519928
 20
172.8905088660388
 30
0.0
 11
163.2351764098083
 21
172.2476637774834
 31
0.0
  0
LINE
  5
DA
330
70
100
AcDbEntity
  8
Predeterminado
 62
    18
420
        0
370
     9
100
AcDbLine
 10
162.6333631147997
 20
172.751145155756
 30
0.0
 11
162.9651814726146
 21
172.108300067201
 31
0.0
  0
LINE
  5
DB
330
70
100
AcDbEntity
  8
Predeterminado
 62
    18
420
        0
370
     9
100
AcDbLine
 10
164.7266712933477
 20
173.017531031286
 30
0.0
 11
164.3948529355322
 21
173.6603761198414
 31
0.0
  0
LINE
  5
DC
330
70
100
AcDbEntity
  8
Predeterminado
 62
    18
420
        0
370
     9
100
AcDbLine
 10
116.9856741895377
 20
203.3518661781913
 30
0.0
 11
116.9999789380074
 21
203.6553705175753
 31
0.0
  0
LINE
  5
DD
330
70
100
AcDbEntity
  8
Predeterminado
 62
    18
420
        0
370
     9
100
AcDbLine
 10
116.9999789380074
 20
203.6553705175753
 30
0.0
 11
117.0408496479214
 21
204.5225257729579
 31
0.0
  0
LINE
  5
DE
330
70
100
AcDbEntity
  8
Predeterminado
 62
    18
420
        0
370
     9
100
AcDbLine
 10
117.0408496479214
 20
204.5225257729579
 30
0.0
 11
117.0540190988937
 21
204.8019424663588
 31
0.0
  0
LINE
  5
DF
330
70
100
AcDbEntity
  8
Predeterminado
 62
    18
420
        0
370
     9
100
AcDbLine
 10
117.0549925898422
 20
204.8225970572385
 30
0.0
 11
117.0790006388404
 21
205.3319766570428
 31
0.0
  0
LINE
  5
E0
330
70
100
AcDbEntity
  8
Predeterminado
 62
    18
420
        0
370
     9
100
AcDbLine
 10
117.7766484783792
 20
204.7678835414307
 30
0.0
 11
117.8016300183253
 21
205.2979177321147
 31
0.0
  0
LINE
  5
E1
330
70
100
AcDbEntity
  8
Predeterminado
 62
    18
420
        0
370
     9
100
AcDbLine
 10
117.763479027407
 20
204.4884668480294
 30
0.0
 11
117.7766484783792
 21
204.7678835414307
 31
0.0
  0
LINE
  5
E2
330
70
100
AcDbEntity
  8
Predeterminado
 62
    18
420
        0
370
     9
100
AcDbLine
 10
117.722608317493
 20
203.6213115926468
 30
0.0
 11
117.763479027407
 21
204.4884668480294
 31
0.0
  0
LINE
  5
E3
330
70
100
AcDbEntity
  8
Predeterminado
 62
    18
420
        0
370
     9
100
AcDbLine
 10
117.7083035690226
 20
203.3178072532632
 30
0.0
 11
117.722608317493
 21
203.6213115926468
 31
0.0
  0
LINE
  5
E4
330
70
100
AcDbEntity
  8
Predeterminado
 62
    18
420
        0
370
     9
100
AcDbLine
 10
117.0540190988937
 20
204.8019424663592
 30
0.0
 11
117.7766484783792
 21
204.7678835414307
 31
0.0
  0
LINE
  5
E5
330
70
100
AcDbEntity
  8
Predeterminado
 62
    18
420
        0
370
     9
100
AcDbLine
 10
117.0408496479214
 20
204.5225257729579
 30
0.0
 11
117.763479027407
 21
204.4884668480294
 31
0.0
  0
LINE
  5
E6
330
70
100
AcDbEntity
  8
Predeterminado
 62
    18
420
        0
370
     9
100
AcDbLine
 10
116.9999789380074
 20
203.6553705175753
 30
0.0
 11
117.722608317493
 21
203.6213115926468
 31
0.0
  0
LINE
  5
E7
330
70
100
AcDbEntity
  8
Predeterminado
 62
    18
420
        0
370
     9
100
AcDbLine
 10
116.9856741895377
 20
203.3518661781916
 30
0.0
 11
117.7083035690226
 21
203.3178072532632
 31
0.0
  0
LINE
  5
E8
330
70
100
AcDbEntity
  8
Predeterminado
 62
    18
420
        0
370
     9
100
AcDbLine
 10
117.8016300183253
 20
205.2979177321147
 30
0.0
 11
117.0790006388404
 21
205.3319766570428
 31
0.0
  0
LINE
  5
E9
330
70
100
AcDbEntity
  8
Predeterminado
 62
    18
420
        0
370
     9
100
AcDbLine
 10
67.66083536713129
 20
179.1201572148516
 30
0.0
 11
67.40514551289613
 21
179.2842980333422
 31
0.0
  0
LINE
  5
EA
330
70
100
AcDbEntity
  8
Predeterminado
 62
    18
420
        0
370
     9
100
AcDbLine
 10
67.4051455128958
 20
179.2842980333422
 30
0.0
 11
66.67460307222334
 21
179.7532718004579
 31
0.0
  0
LINE
  5
EB
330
70
100
AcDbEntity
  8
Predeterminado
 62
    18
420
        0
370
     9
100
AcDbLine
 10
66.67460307222334
 20
179.7532718004579
 30
0.0
 11
66.43920606356231
 21
179.904385569862
 31
0.0
  0
LINE
  5
EC
330
70
100
AcDbEntity
  8
Predeterminado
 62
    18
420
        0
370
     9
100
AcDbLine
 10
66.42179635003154
 20
179.9155617842532
 30
0.0
 11
65.99267417795276
 21
180.1910379652227
 31
0.0
  0
LINE
  5
ED
330
70
100
AcDbEntity
  8
Predeterminado
 62
    18
420
        0
370
     9
100
AcDbLine
 10
66.83001753615873
 20
180.5131709370888
 30
0.0
 11
66.3834856505495
 21
180.7998233324497
 31
0.0
  0
LINE
  5
EE
330
70
100
AcDbEntity
  8
Predeterminado
 62
    18
420
        0
370
     9
100
AcDbLine
 10
67.06541454481977
 20
180.3620571676849
 30
0.0
 11
66.83001753615873
 21
180.5131709370888
 31
0.0
  0
LINE
  5
EF
330
70
100
AcDbEntity
  8
Predeterminado
 62
    18
420
        0
370
     9
100
AcDbLine
 10
67.79595698549254
 20
179.8930834005693
 30
0.0
 11
67.06541454481977
 21
180.3620571676849
 31
0.0
  0
LINE
  5
F0
330
70
100
AcDbEntity
  8
Predeterminado
 62
    18
420
        0
370
     9
100
AcDbLine
 10
68.05164683972771
 20
179.7289425820786
 30
0.0
 11
67.79595698549254
 21
179.8930834005693
 31
0.0
  0
LINE
  5
F1
330
70
100
AcDbEntity
  8
Predeterminado
 62
    18
420
        0
370
     9
100
AcDbLine
 10
66.43920606356231
 20
179.904385569862
 30
0.0
 11
66.83001753615873
 21
180.5131709370888
 31
0.0
  0
LINE
  5
F2
330
70
100
AcDbEntity
  8
Predeterminado
 62
    18
420
        0
370
     9
100
AcDbLine
 10
66.67460307222334
 20
179.7532718004579
 30
0.0
 11
67.06541454481977
 21
180.3620571676849
 31
0.0
  0
LINE
  5
F3
330
70
100
AcDbEntity
  8
Predeterminado
 62
    18
420
        0
370
     9
100
AcDbLine
 10
67.4051455128958
 20
179.2842980333422
 30
0.0
 11
67.79595698549254
 21
179.8930834005693
 31
0.0
  0
LINE
  5
F4
330
70
100
AcDbEntity
  8
Predeterminado
 62
    18
420
        0
370
     9
100
AcDbLine
 10
67.66083536713097
 20
179.1201572148516
 30
0.0
 11
68.05164683972771
 21
179.7289425820786
 31
0.0
  0
LINE
  5
F5
330
70
100
AcDbEntity
  8
Predeterminado
 62
    18
420
        0
370
     9
100
AcDbLine
 10
66.3834856505495
 20
180.7998233324497
 30
0.0
 11
65.99267417795276
 21
180.1910379652227
 31
0.0
  0
LINE
  5
F6
330
70
100
AcDbEntity
  8
Predeterminado
 62
    18
420
        0
370
     9
100
AcDbLine
 10
63.98367713243874
 20
124.2877437269603
 30
0.0
 11
63.71368219505345
 21
124.14838001705
 31
0.0
  0
LINE
  5
F7
330
70
100
AcDbEntity
  8
Predeterminado
 62
    18
420
        0
370
     9
100
AcDbLine
 10
63.71368219505345
 20
124.14838001705
 30
0.0
 11
62.94226808823756
 21
123.7501979887368
 31
0.0
  0
LINE
  5
F8
330
70
100
AcDbEntity
  8
Predeterminado
 62
    18
420
        0
370
     9
100
AcDbLine
 10
62.94226808823756
 20
123.7501979887368
 30
0.0
 11
62.69370132048575
 21
123.6218948907241
 31
0.0
  0
LINE
  5
F9
330
70
100
AcDbEntity
  8
Predeterminado
 62
    18
420
        0
370
     9
100
AcDbLine
 10
62.67532327562164
 20
123.6124086665081
 30
0.0
 11
62.22218731045106
 21
123.378512765306
 31
0.0
  0
LINE
  5
FA
330
70
100
AcDbEntity
  8
Predeterminado
 62
    18
420
        0
370
     9
100
AcDbLine
 10
62.36188296355766
 20
124.264739979737
 30
0.0
 11
61.89036895352267
 21
124.0213578543201
 31
0.0
  0
LINE
  5
FB
330
70
100
AcDbEntity
  8
Predeterminado
 62
    18
420
        0
370
     9
100
AcDbLine
 10
62.61044973130949
 20
124.3930430777497
 30
0.0
 11
62.36188296355766
 21
124.264739979737
 31
0.0
  0
LINE
  5
FC
330
70
100
AcDbEntity
  8
Predeterminado
 62
    18
420
        0
370
     9
100
AcDbLine
 10
63.38186383812505
 20
124.7912251060629
 30
0.0
 11
62.61044973130949
 21
124.3930430777497
 31
0.0
  0
LINE
  5
FD
330
70
100
AcDbEntity
  8
Predeterminado
 62
    18
420
        0
370
     9
100
AcDbLine
 10
63.65185877551066
 20
124.9305888159731
 30
0.0
 11
63.38186383812505
 21
124.7912251060629
 31
0.0
  0
LINE
  5
FE
330
70
100
AcDbEntity
  8
Predeterminado
 62
    18
420
        0
370
     9
100
AcDbLine
 10
62.69370132048575
 20
123.6218948907241
 30
0.0
 11
62.36188296355766
 21
124.264739979737
 31
0.0
  0
LINE
  5
FF
330
70
100
AcDbEntity
  8
Predeterminado
 62
    18
420
        0
370
     9
100
AcDbLine
 10
62.94226808823756
 20
123.7501979887368
 30
0.0
 11
62.61044973130949
 21
124.3930430777497
 31
0.0
  0
LINE
  5
100
330
70
100
AcDbEntity
  8
Predeterminado
 62
    18
420
        0
370
     9
100
AcDbLine
 10
63.71368219505345
 20
124.14838001705
 30
0.0
 11
63.38186383812505
 21
124.7912251060629
 31
0.0
  0
LINE
  5
101
330
70
100
AcDbEntity
  8
Predeterminado
 62
    18
420
        0
370
     9
100
AcDbLine
 10
63.98367713243874
 20
124.2877437269603
 30
0.0
 11
63.65185877551066
 21
124.9305888159731
 31
0.0
  0
LINE
  5
102
330
70
100
AcDbEntity
  8
Predeterminado
 62
    18
420
        0
370
     9
100
AcDbLine
 10
61.89036895352267
 20
124.0213578543201
 30
0.0
 11
62.22218731045106
 21
123.378512765306
 31
0.0
  0
LINE
  5
103
330
70
100
AcDbEntity
  8
Predeterminado
 62
    18
420
        0
370
     9
100
AcDbLine
 10
117.9325781110418
 20
93.7753108925831
 30
0.0
 11
117.9603537139193
 21
93.47274184965515
 31
0.0
  0
LINE
  5
104
330
70
100
AcDbEntity
  8
Predeterminado
 62
    18
420
        0
370
     9
100
AcDbLine
 10
117.9603537139193
 20
93.47274184965515
 30
0.0
 11
118.039712579282
 21
92.60825886986031
 31
0.0
  0
LINE
  5
105
330
70
100
AcDbEntity
  8
Predeterminado
 62
    18
420
        0
370
     9
100
AcDbLine
 10
118.039712579282
 20
92.60825886986031
 30
0.0
 11
118.0652837692319
 21
92.32970324303783
 31
0.0
  0
LINE
  5
106
330
70
100
AcDbEntity
  8
Predeterminado
 62
    18
420
        0
370
     9
100
AcDbLine
 10
118.0686605002717
 20
92.29291936895531
 30
0.0
 11
118.113790552435
 21
91.80130243624855
 31
0.0
  0
LINE
  5
107
330
70
100
AcDbEntity
  8
Predeterminado
 62
    18
420
        0
370
     9
100
AcDbLine
 10
117.3473655140761
 20
92.23650931875933
 30
0.0
 11
117.3933880692723
 21
91.7351700484466
 31
0.0
  0
LINE
  5
108
330
70
100
AcDbEntity
  8
Predeterminado
 62
    18
420
        0
370
     9
100
AcDbLine
 10
117.3193100961194
 20
92.54212648205772
 30
0.0
 11
117.3448812860699
 21
92.26357085523586
 31
0.0
  0
LINE
  5
109
330
70
100
AcDbEntity
  8
Predeterminado
 62
    18
420
        0
370
     9
100
AcDbLine
 10
117.2399512307566
 20
93.4066094618532
 30
0.0
 11
117.3193100961194
 21
92.54212648205772
 31
0.0
  0
LINE
  5
10A
330
70
100
AcDbEntity
  8
Predeterminado
 62
    18
420
        0
370
     9
100
AcDbLine
 10
117.2121756278798
 20
93.70917850478114
 30
0.0
 11
117.2399512307566
 21
93.4066094618532
 31
0.0
  0
LINE
  5
10B
330
70
100
AcDbEntity
  8
Predeterminado
 62
    18
420
        0
370
     9
100
AcDbLine
 10
118.039712579282
 20
92.60825886986031
 30
0.0
 11
117.3193100961194
 21
92.54212648205772
 31
0.0
  0
LINE
  5
10C
330
70
100
AcDbEntity
  8
Predeterminado
 62
    18
420
        0
370
     9
100
AcDbLine
 10
117.9603537139193
 20
93.47274184965515
 30
0.0
 11
117.2399512307566
 21
93.4066094618532
 31
0.0
  0
LINE
  5
10D
330
70
100
AcDbEntity
  8
Predeterminado
 62
    18
420
        0
370
     9
100
AcDbLine
 10
117.9325781110418
 20
93.7753108925831
 30
0.0
 11
117.2121756278798
 21
93.70917850478114
 31
0.0
  0
LINE
  5
10E
330
70
100
AcDbEntity
  8
Predeterminado
 62
    18
420
        0
370
     9
100
AcDbLine
 10
117.3933880692723
 20
91.7351700484466
 30
0.0
 11
118.113790552435
 21
91.80130243624855
 31
0.0
  0
LINE
  5
10F
330
70
100
AcDbEntity
  8
Predeterminado
 62
    18
420
        0
370
     9
100
AcDbLine
 10
150.7453541031372
 20
190.7798297783521
 30
0.0
 11
150.7241704768382
 21
190.7586461520528
 31
0.0
  0
LINE
  5
110
330
70
100
AcDbEntity
  8
Predeterminado
 62
    18
420
        0
370
     9
100
AcDbLine
 10
155.8607877624797
 20
185.6643961190093
 30
0.0
 11
155.1890832224617
 21
186.3361006590273
 31
0.0
  0
LINE
  5
111
330
70
100
AcDbEntity
  8
Predeterminado
 62
    18
420
        0
370
     9
100
AcDbLine
 10
151.1251763920562
 20
190.4000074894328
 30
0.0
 11
150.7453541031372
 21
190.7798297783521
 31
0.0
  0
LINE
  5
112
330
70
100
AcDbEntity
  8
Predeterminado
 62
    18
420
        0
370
     9
100
AcDbLine
 10
155.8208550483207
 20
185.62446340485
 30
0.0
 11
155.8607877624797
 21
185.6643961190093
 31
0.0
  0
LINE
  5
113
330
70
100
AcDbEntity
  8
Predeterminado
 62
    18
420
        0
370
     9
100
AcDbLine
 10
108.700261065903
 20
97.64773669700574
 30
0.0
 11
108.5338718057583
 21
97.64773669700574
 31
0.0
  0
LINE
  5
114
330
70
100
AcDbEntity
  8
Predeterminado
 62
    18
420
        0
370
     9
100
AcDbLine
 10
108.700261065903
 20
97.2648336634637
 30
0.0
 11
108.700261065903
 21
97.64773669700574
 31
0.0
  0
LINE
  5
115
330
70
100
AcDbEntity
  8
Predeterminado
 62
    18
420
        0
370
     9
100
AcDbLine
 10
108.3168423360038
 20
100.0205922329808
 30
0.0
 11
109.619019154528
 21
100.0205922329808
 31
0.0
  0
LINE
  5
116
330
70
100
AcDbEntity
  8
Predeterminado
 62
    18
420
        0
370
     9
100
AcDbLine
 10
109.619019154528
 20
99.73121960664267
 30
0.0
 11
109.5466759979425
 21
99.73121960664267
 31
0.0
  0
LINE
  5
117
330
70
100
AcDbEntity
  8
Predeterminado
 62
    18
420
        0
370
     9
100
AcDbLine
 10
109.4019896847741
 20
99.73121960664267
 30
0.0
 11
108.5338718057583
 21
99.73121960664267
 31
0.0
  0
LINE
  5
118
330
70
100
AcDbEntity
  8
Predeterminado
 62
    18
420
        0
370
     9
100
AcDbLine
 10
108.3891854925886
 20
99.73121960664267
 30
0.0
 11
108.3168423360038
 21
99.73121960664267
 31
0.0
  0
SPLINE
  5
119
330
70
100
AcDbEntity
  8
Predeterminado
 62
    18
420
        0
370
     9
100
AcDbSpline
210
0.0
220
0.0
230
1.0
 70
     8
 71
     3
 72
    11
 73
     7
 74
     0
 42
0.0000000001
 43
0.0000000001
 40
0.0
 40
0.0
 40
0.0
 40
0.0
 40
1.0
 40
1.0
 40
1.0
 40
2.0
 40
2.0
 40
2.0
 40
2.0
 10
109.3657903762174
 20
98.66523836453168
 30
0.0
 10
109.3631960322235
 20
98.8849701712791
 30
0.0
 10
109.1829650766731
 20
99.06099486413502
 30
0.0
 10
108.9632332699257
 20
99.05840052014108
 30
0.0
 10
108.747161342657
 20
99.05584938785501
 30
0.0
 10
108.5726222466017
 20
98.88131029179971
 30
0.0
 10
108.570071114315
 20
98.66523836453168
 30
0.0
  0
SPLINE
  5
11A
330
70
100
AcDbEntity
  8
Predeterminado
 62
    18
420
        0
370
     9
100
AcDbSpline
210
0.0
220
0.0
230
1.0
 70
     8
 71
     3
 72
    11
 73
     7
 74
     0
 42
0.0000000001
 43
0.0000000001
 40
0.0
 40
0.0
 40
0.0
 40
0.0
 40
1.0
 40
1.0
 40
1.0
 40
2.0
 40
2.0
 40
2.0
 40
2.0
 10
108.5758358409075
 20
98.59289520794682
 30
0.0
 10
108.6131955190505
 20
98.37634717178259
 30
0.0
 10
108.8190283903463
 20
98.23108630668885
 30
0.0
 10
109.0355764265099
 20
98.26844598483182
 30
0.0
 10
109.2014738224157
 20
98.29706722483741
 30
0.0
 10
109.3314044096187
 20
98.42699781204098
 30
0.0
 10
109.3600256496249
 20
98.59289520794682
 30
0.0
  0
LINE
  5
11B
330
70
100
AcDbEntity
  8
Predeterminado
 62
    18
420
        0
370
     9
100
AcDbLine
 10
109.2356004246294
 20
97.64773669700574
 30
0.0
 11
109.423692631749
 21
97.64773669700574
 31
0.0
  0
LINE
  5
11C
330
70
100
AcDbEntity
  8
Predeterminado
 62
    18
420
        0
370
     9
100
AcDbLine
 10
109.2356004246294
 20
97.2648336634637
 30
0.0
 11
109.2356004246294
 21
97.64773669700574
 31
0.0
  0
LINE
  5
11D
330
70
100
AcDbEntity
  8
Predeterminado
 62
    18
420
        0
370
     9
100
AcDbLine
 10
110.2484046168142
 20
100.3823080159051
 30
0.0
 11
110.2484046168142
 21
96.82302471194118
 31
0.0
  0
LINE
  5
11E
330
70
100
AcDbEntity
  8
Predeterminado
 62
    18
420
        0
370
     9
100
AcDbLine
 10
107.6874568737176
 20
100.3823080159051
 30
0.0
 11
110.2484046168142
 21
100.3823080159051
 31
0.0
  0
LINE
  5
11F
330
70
100
AcDbEntity
  8
Predeterminado
 62
    18
420
        0
370
     9
100
AcDbLine
 10
107.6874568737176
 20
96.82302471194118
 30
0.0
 11
107.6874568737176
 21
100.3823080159051
 31
0.0
  0
LINE
  5
120
330
70
100
AcDbEntity
  8
Predeterminado
 62
    18
420
        0
370
     9
100
AcDbLine
 10
110.2484046168142
 20
96.82302471194118
 30
0.0
 11
109.5466759979425
 21
96.82302471194118
 31
0.0
  0
LINE
  5
121
330
70
100
AcDbEntity
  8
Predeterminado
 62
    18
420
        0
370
     9
100
AcDbLine
 10
109.4019896847741
 20
96.82302471194118
 30
0.0
 11
109.3296465281892
 21
96.82302471194118
 31
0.0
  0
LINE
  5
122
330
70
100
AcDbEntity
  8
Predeterminado
 62
    18
420
        0
370
     9
100
AcDbLine
 10
108.1215158132261
 20
97.25708365144903
 30
0.0
 11
108.1215158132261
 21
97.64773669700574
 31
0.0
  0
LINE
  5
123
330
70
100
AcDbEntity
  8
Predeterminado
 62
    18
420
        0
370
     9
100
AcDbLine
 10
108.1215158132261
 20
97.64773669700574
 30
0.0
 11
108.5121688587827
 21
97.64773669700574
 31
0.0
  0
LINE
  5
124
330
70
100
AcDbEntity
  8
Predeterminado
 62
    18
420
        0
370
     9
100
AcDbLine
 10
108.1215158132261
 20
97.25708365144903
 30
0.0
 11
108.5121688587827
 21
97.25708365144903
 31
0.0
  0
LINE
  5
125
330
70
100
AcDbEntity
  8
Predeterminado
 62
    18
420
        0
370
     9
100
AcDbLine
 10
108.5121688587827
 20
97.25708365144903
 30
0.0
 11
108.5121688587827
 21
97.64773669700574
 31
0.0
  0
LINE
  5
126
330
70
100
AcDbEntity
  8
Predeterminado
 62
    18
420
        0
370
     9
100
AcDbLine
 10
109.423692631749
 20
97.64773669700574
 30
0.0
 11
109.8143456773057
 21
97.64773669700574
 31
0.0
  0
LINE
  5
127
330
70
100
AcDbEntity
  8
Predeterminado
 62
    18
420
        0
370
     9
100
AcDbLine
 10
109.423692631749
 20
97.25708365144903
 30
0.0
 11
109.423692631749
 21
97.64773669700574
 31
0.0
  0
LINE
  5
128
330
70
100
AcDbEntity
  8
Predeterminado
 62
    18
420
        0
370
     9
100
AcDbLine
 10
109.423692631749
 20
97.25708365144903
 30
0.0
 11
109.8143456773057
 21
97.25708365144903
 31
0.0
  0
LINE
  5
129
330
70
100
AcDbEntity
  8
Predeterminado
 62
    18
420
        0
370
     9
100
AcDbLine
 10
109.8143456773057
 20
97.25708365144903
 30
0.0
 11
109.8143456773057
 21
97.64773669700574
 31
0.0
  0
LINE
  5
12A
330
70
100
AcDbEntity
  8
Predeterminado
 62
    18
420
        0
370
     9
100
AcDbLine
 10
108.6062149623432
 20
96.82302471194118
 30
0.0
 11
108.5338718057583
 21
96.82302471194118
 31
0.0
  0
LINE
  5
12B
330
70
100
AcDbEntity
  8
Predeterminado
 62
    18
420
        0
370
     9
100
AcDbLine
 10
108.3891854925886
 20
96.82302471194118
 30
0.0
 11
107.6874568737176
 21
96.82302471194118
 31
0.0
  0
LINE
  5
12C
330
70
100
AcDbEntity
  8
Predeterminado
 62
    18
420
        0
370
     9
100
AcDbLine
 10
109.3296465281892
 20
96.90690912408623
 30
0.0
 11
108.6062149623432
 21
96.90690912408623
 31
0.0
  0
LINE
  5
12D
330
70
100
AcDbEntity
  8
Predeterminado
 62
    18
420
        0
370
     9
100
AcDbLine
 10
109.3296465281892
 20
96.87075850567239
 30
0.0
 11
109.3296465281892
 21
96.90690912408623
 31
0.0
  0
LINE
  5
12E
330
70
100
AcDbEntity
  8
Predeterminado
 62
    18
420
        0
370
     9
100
AcDbLine
 10
108.6062149623432
 20
96.87075850567239
 30
0.0
 11
109.3296465281892
 21
96.87075850567239
 31
0.0
  0
LINE
  5
12F
330
70
100
AcDbEntity
  8
Predeterminado
 62
    18
420
        0
370
     9
100
AcDbLine
 10
108.6062149623432
 20
96.66324253215947
 30
0.0
 11
108.6062149623432
 21
96.87075850567239
 31
0.0
  0
LINE
  5
130
330
70
100
AcDbEntity
  8
Predeterminado
 62
    18
420
        0
370
     9
100
AcDbLine
 10
108.6062149623432
 20
96.87075850567239
 30
0.0
 11
108.6062149623432
 21
96.90690912408623
 31
0.0
  0
LINE
  5
131
330
70
100
AcDbEntity
  8
Predeterminado
 62
    18
420
        0
370
     9
100
AcDbLine
 10
109.3296465281892
 20
96.66324253215947
 30
0.0
 11
109.3296465281892
 21
96.87075850567239
 31
0.0
  0
LINE
  5
132
330
70
100
AcDbEntity
  8
Predeterminado
 62
    18
420
        0
370
     9
100
AcDbLine
 10
108.6062149623432
 20
96.66324253215947
 30
0.0
 11
109.3296465281892
 21
96.66324253215947
 31
0.0
  0
LINE
  5
133
330
70
100
AcDbEntity
  8
Predeterminado
 62
    18
420
        0
370
     9
100
AcDbLine
 10
110.2556389324723
 20
96.81579039628244
 30
0.0
 11
110.2556389324723
 21
100.3895423315625
 31
0.0
  0
LINE
  5
134
330
70
100
AcDbEntity
  8
Predeterminado
 62
    18
420
        0
370
     9
100
AcDbLine
 10
107.6802225580601
 20
96.81579039628244
 30
0.0
 11
108.3891854925886
 21
96.81579039628244
 31
0.0
  0
LINE
  5
135
330
70
100
AcDbEntity
  8
Predeterminado
 62
    18
420
        0
370
     9
100
AcDbLine
 10
108.5338718057583
 20
96.81579039628244
 30
0.0
 11
108.6062149623432
 21
96.81579039628244
 31
0.0
  0
LINE
  5
136
330
70
100
AcDbEntity
  8
Predeterminado
 62
    18
420
        0
370
     9
100
AcDbLine
 10
109.3296465281892
 20
96.81579039628244
 30
0.0
 11
109.4019896847741
 21
96.81579039628244
 31
0.0
  0
LINE
  5
137
330
70
100
AcDbEntity
  8
Predeterminado
 62
    18
420
        0
370
     9
100
AcDbLine
 10
109.5466759979425
 20
96.81579039628244
 30
0.0
 11
110.2556389324723
 21
96.81579039628244
 31
0.0
  0
LINE
  5
138
330
70
100
AcDbEntity
  8
Predeterminado
 62
    18
420
        0
370
     9
100
AcDbLine
 10
107.6802225580601
 20
100.3895423315625
 30
0.0
 11
110.2556389324723
 21
100.3895423315625
 31
0.0
  0
LINE
  5
139
330
70
100
AcDbEntity
  8
Predeterminado
 62
    18
420
        0
370
     9
100
AcDbLine
 10
107.6802225580601
 20
96.81579039628244
 30
0.0
 11
107.6802225580601
 21
100.3895423315625
 31
0.0
  0
LINE
  5
13A
330
70
100
AcDbEntity
  8
Predeterminado
 62
    18
420
        0
370
     9
100
AcDbLine
 10
107.8104402399123
 20
100.0205922329808
 30
0.0
 11
108.3168423360038
 21
100.0205922329808
 31
0.0
  0
LINE
  5
13B
330
70
100
AcDbEntity
  8
Predeterminado
 62
    18
420
        0
370
     9
100
AcDbLine
 10
108.3168423360038
 20
99.73121960664267
 30
0.0
 11
108.3168423360038
 21
100.0205922329808
 31
0.0
  0
LINE
  5
13C
330
70
100
AcDbEntity
  8
Predeterminado
 62
    18
420
        0
370
     9
100
AcDbLine
 10
107.8104402399123
 20
99.73121960664267
 30
0.0
 11
108.3168423360038
 21
99.73121960664267
 31
0.0
  0
LINE
  5
13D
330
70
100
AcDbEntity
  8
Predeterminado
 62
    18
420
        0
370
     9
100
AcDbLine
 10
107.8104402399123
 20
99.73121960664267
 30
0.0
 11
107.8104402399123
 21
100.0205922329808
 31
0.0
  0
LINE
  5
13E
330
70
100
AcDbEntity
  8
Predeterminado
 62
    18
420
        0
370
     9
100
AcDbLine
 10
109.619019154528
 20
100.0205922329808
 30
0.0
 11
109.619019154528
 21
99.73121960664267
 31
0.0
  0
LINE
  5
13F
330
70
100
AcDbEntity
  8
Predeterminado
 62
    18
420
        0
370
     9
100
AcDbLine
 10
110.1254212506201
 20
100.0205922329808
 30
0.0
 11
109.6190191545273
 21
100.0205922329808
 31
0.0
  0
LINE
  5
140
330
70
100
AcDbEntity
  8
Predeterminado
 62
    18
420
        0
370
     9
100
AcDbLine
 10
110.1254212506201
 20
99.73121960664267
 30
0.0
 11
109.6190191545273
 21
99.73121960664267
 31
0.0
  0
LINE
  5
141
330
70
100
AcDbEntity
  8
Predeterminado
 62
    18
420
        0
370
     9
100
AcDbLine
 10
110.1254212506201
 20
100.0205922329808
 30
0.0
 11
110.1254212506201
 21
99.73121960664267
 31
0.0
  0
SPLINE
  5
142
330
70
100
AcDbEntity
  8
Predeterminado
 62
    18
420
        0
370
     9
100
AcDbSpline
210
0.0
220
0.0
230
1.0
 70
     8
 71
     3
 72
     8
 73
     4
 74
     0
 42
0.0000000001
 43
0.0000000001
 40
0.0
 40
0.0
 40
0.0
 40
0.0
 40
1.0
 40
1.0
 40
1.0
 40
1.0
 10
108.5092631901267
 20
99.82154650568155
 30
0.0
 10
108.5218137916789
 20
99.83256754432529
 30
0.0
 10
108.5301641456643
 20
99.84759193354628
 30
0.0
 10
108.5328969424088
 20
99.86406957640202
 30
0.0
  0
SPLINE
  5
143
330
70
100
AcDbEntity
  8
Predeterminado
 62
    18
420
        0
370
     9
100
AcDbSpline
210
0.0
220
0.0
230
1.0
 70
     8
 71
     3
 72
    11
 73
     7
 74
     0
 42
0.0000000001
 43
0.0000000001
 40
0.0
 40
0.0
 40
0.0
 40
0.0
 40
1.0
 40
1.0
 40
1.0
 40
2.0
 40
2.0
 40
2.0
 40
2.0
 10
108.3891855081216
 20
97.96416586318848
 30
0.0
 10
108.3892116895412
 20
97.93058541150791
 30
0.0
 10
108.4216220412712
 20
97.90338091527361
 30
0.0
 10
108.4615760548286
 20
97.90340292017067
 30
0.0
 10
108.5015250429437
 20
97.90342492229942
 30
0.0
 10
108.533890869354
 20
97.93065850283166
 30
0.0
 10
108.5338717975138
 20
97.96423473412183
 30
0.0
  0
SPLINE
  5
144
330
70
100
AcDbEntity
  8
Predeterminado
 62
    18
420
        0
370
     9
100
AcDbSpline
210
0.0
220
0.0
230
1.0
 70
     8
 71
     3
 72
    14
 73
    10
 74
     0
 42
0.0000000001
 43
0.0000000001
 40
0.0
 40
0.0
 40
0.0
 40
0.0
 40
1.0
 40
1.0
 40
1.0
 40
2.0
 40
2.0
 40
2.0
 40
3.0
 40
3.0
 40
3.0
 40
3.0
 10
108.3891854925886
 20
96.03541285342139
 30
0.0
 10
108.3891854925886
 20
96.02982557759553
 30
0.0
 10
108.4215746270372
 20
96.02529619561551
 30
0.0
 10
108.4615286491735
 20
96.02529619561551
 30
0.0
 10
108.5014826713097
 20
96.02529619561551
 30
0.0
 10
108.5338718057583
 20
96.02982557759553
 30
0.0
 10
108.5338718057583
 20
96.03541285342139
 30
0.0
 10
108.5338718057583
 20
96.03541402321434
 30
0.0
 10
108.5338718043075
 20
96.03541519300668
 30
0.0
 10
108.5338718014057
 20
96.03541636279963
 30
0.0
  0
LINE
  5
145
330
70
100
AcDbEntity
  8
Predeterminado
 62
    18
420
        0
370
     9
100
AcDbLine
 10
108.3892086694912
 20
96.03566891607048
 30
0.0
 11
108.3891854925886
 21
96.0354982178938
 31
0.0
  0
SPLINE
  5
146
330
70
100
AcDbEntity
  8
Predeterminado
 62
    18
420
        0
370
     9
100
AcDbSpline
210
0.0
220
0.0
230
1.0
 70
     8
 71
     3
 72
    14
 73
    10
 74
     0
 42
0.0000000001
 43
0.0000000001
 40
0.0
 40
0.0
 40
0.0
 40
0.0
 40
1.0
 40
1.0
 40
1.0
 40
2.0
 40
2.0
 40
2.0
 40
3.0
 40
3.0
 40
3.0
 40
3.0
 10
109.4019896847741
 20
96.03541285342139
 30
0.0
 10
109.4019896847741
 20
96.02982557759553
 30
0.0
 10
109.434378819222
 20
96.02529619561551
 30
0.0
 10
109.4743328413583
 20
96.02529619561551
 30
0.0
 10
109.5142868634945
 20
96.02529619561551
 30
0.0
 10
109.5466759979425
 20
96.02982557759553
 30
0.0
 10
109.5466759979425
 20
96.03541285342139
 30
0.0
 10
109.5466759979425
 20
96.03541402321434
 30
0.0
 10
109.5466759964923
 20
96.03541519300668
 30
0.0
 10
109.5466759935905
 20
96.03541636279963
 30
0.0
  0
LINE
  5
147
330
70
100
AcDbEntity
  8
Predeterminado
 62
    18
420
        0
370
     9
100
AcDbLine
 10
109.4020128616754
 20
96.03566891607048
 30
0.0
 11
109.4019896847741
 21
96.0354982178938
 31
0.0
  0
SPLINE
  5
148
330
70
100
AcDbEntity
  8
Predeterminado
 62
    18
420
        0
370
     9
100
AcDbSpline
210
0.0
220
0.0
230
1.0
 70
     8
 71
     3
 72
    11
 73
     7
 74
     0
 42
0.0000000001
 43
0.0000000001
 40
0.0
 40
0.0
 40
0.0
 40
0.0
 40
1.0
 40
1.0
 40
1.0
 40
2.0
 40
2.0
 40
2.0
 40
2.0
 10
109.4019897003057
 20
97.96416586318784
 30
0.0
 10
109.4020158817266
 20
97.93058541150791
 30
0.0
 10
109.434426233456
 20
97.90338091527361
 30
0.0
 10
109.4743802470141
 20
97.90340292017067
 30
0.0
 10
109.5143292351285
 20
97.90342492229942
 30
0.0
 10
109.5466950615388
 20
97.93065850283166
 30
0.0
 10
109.5466759896992
 20
97.96423473412183
 30
0.0
  0
SPLINE
  5
149
330
70
100
AcDbEntity
  8
Predeterminado
 62
    18
420
        0
370
     9
100
AcDbSpline
210
0.0
220
0.0
230
1.0
 70
     8
 71
     3
 72
     8
 73
     4
 74
     0
 42
0.0000000001
 43
0.0000000001
 40
0.0
 40
0.0
 40
0.0
 40
0.0
 40
1.0
 40
1.0
 40
1.0
 40
1.0
 10
109.405415676927
 20
99.92272342718713
 30
0.0
 10
109.402876401839
 20
99.91496154489016
 30
0.0
 10
109.4017326877329
 20
99.90681109278288
 30
0.0
 10
109.402037581886
 20
99.89865010176927
 30
0.0
  0
SPLINE
  5
14A
330
70
100
AcDbEntity
  8
Predeterminado
 62
    18
420
        0
370
     9
100
AcDbSpline
210
0.0
220
0.0
230
1.0
 70
     8
 71
     3
 72
     8
 73
     4
 74
     0
 42
0.0000000001
 43
0.0000000001
 40
0.0
 40
0.0
 40
0.0
 40
0.0
 40
1.0
 40
1.0
 40
1.0
 40
1.0
 10
109.405415676927
 20
99.84943930001845
 30
0.0
 10
109.4007839604207
 20
99.83634823978629
 30
0.0
 10
109.4007839604207
 20
99.82206435619097
 30
0.0
 10
109.405415676927
 20
99.80897329595881
 30
0.0
  0
LINE
  5
14B
330
70
100
AcDbEntity
  8
Predeterminado
 62
    18
420
        0
370
     9
100
AcDbLine
 10
109.405415676927
 20
99.84943930001845
 30
0.0
 11
109.405415676927
 21
99.87523276199347
 31
0.0
  0
SPLINE
  5
14C
330
70
100
AcDbEntity
  8
Predeterminado
 62
    18
420
        0
370
     9
100
AcDbSpline
210
0.0
220
0.0
230
1.0
 70
     8
 71
     3
 72
    11
 73
     7
 74
     0
 42
0.0000000001
 43
0.0000000001
 40
0.0
 40
0.0
 40
0.0
 40
0.0
 40
1.0
 40
1.0
 40
1.0
 40
2.0
 40
2.0
 40
2.0
 40
2.0
 10
109.405415676927
 20
99.57098970480387
 30
0.0
 10
109.4034013633858
 20
99.57237877735435
 30
0.0
 10
109.4019766501115
 20
99.57613846553892
 30
0.0
 10
109.4019897813266
 20
99.58188616321452
 30
0.0
 10
109.4020029125412
 20
99.58763386089074
 30
0.0
 10
109.403440896661
 20
99.59490682158689
 30
0.0
 10
109.405415676927
 20
99.6024581901517
 30
0.0
  0
LINE
  5
14D
330
70
100
AcDbEntity
  8
Predeterminado
 62
    18
420
        0
370
     9
100
AcDbLine
 10
109.405415676927
 20
99.6024581901517
 30
0.0
 11
109.405415676927
 21
99.64272188788241
 31
0.0
  0
SPLINE
  5
14E
330
70
100
AcDbEntity
  8
Predeterminado
 62
    18
420
        0
370
     9
100
AcDbSpline
210
0.0
220
0.0
230
1.0
 70
     8
 71
     3
 72
    38
 73
    34
 74
     0
 42
0.0000000001
 43
0.0000000001
 40
0.0
 40
0.0
 40
0.0
 40
0.0
 40
1.0
 40
1.0
 40
1.0
 40
2.0
 40
2.0
 40
2.0
 40
3.0
 40
3.0
 40
3.0
 40
4.0
 40
4.0
 40
4.0
 40
5.0
 40
5.0
 40
5.0
 40
6.0
 40
6.0
 40
6.0
 40
7.0
 40
7.0
 40
7.0
 40
8.0
 40
8.0
 40
8.0
 40
9.0
 40
9.0
 40
9.0
 40
10.0
 40
10.0
 40
10.0
 40
11.0
 40
11.0
 40
11.0
 40
11.0
 10
108.5285966404418
 20
99.57037882578516
 30
0.0
 10
108.5286671460386
 20
99.57037887895122
 30
0.0
 10
108.5287375896409
 20
99.57038148580608
 30
0.0
 10
108.5288079044009
 20
99.57038664873174
 30
0.0
 10
108.5299824808863
 20
99.57047289308649
 30
0.0
 10
108.5311494435767
 20
99.57128058049022
 30
0.0
 10
108.5320410447542
 20
99.57278383781931
 30
0.0
 10
108.5329227423974
 20
99.5742703975933
 30
0.0
 10
108.5335542741403
 20
99.57649849854568
 30
0.0
 10
108.5337762747325
 20
99.57927927342362
 30
0.0
 10
108.533973695396
 20
99.58175216062821
 30
0.0
 10
108.5338540196654
 20
99.58473158432639
 30
0.0
 10
108.5334482852952
 20
99.58794533872648
 30
0.0
 10
108.5330598032013
 20
99.59102244072109
 30
0.0
 10
108.5324047812295
 20
99.59438941249262
 30
0.0
 10
108.5316046121257
 20
99.59780426587645
 30
0.0
 10
108.5307476011946
 20
99.60146170111329
 30
0.0
 10
108.5297063275875
 20
99.60526374324148
 30
0.0
 10
108.5286718841101
 20
99.6089798259755
 30
0.0
 10
108.5275319909611
 20
99.61307472080832
 30
0.0
 10
108.5263715432165
 20
99.61718272093293
 30
0.0
 10
108.5254752396298
 20
99.6210001702942
 30
0.0
 10
108.5245797140526
 20
99.62481430603588
 30
0.0
 10
108.5239361823272
 20
99.62846117636345
 30
0.0
 10
108.5237598790089
 20
99.63153588629337
 30
0.0
 10
108.5236059129203
 20
99.63422103745397
 30
0.0
 10
108.5238044655018
 20
99.63654530356881
 30
0.0
 10
108.5242983901476
 20
99.63830859121642
 30
0.0
 10
108.524767559061
 20
99.63998350206892
 30
0.0
 10
108.5255039301261
 20
99.64120291397575
 30
0.0
 10
108.5263524031629
 20
99.64192033590178
 30
0.0
 10
108.5269844755418
 20
99.64245478138685
 30
0.0
 10
108.5276866536332
 20
99.6427215785931
 30
0.0
 10
108.5283934889156
 20
99.64272058790026
 30
0.0
  0
SPLINE
  5
14F
330
70
100
AcDbEntity
  8
Predeterminado
 62
    18
420
        0
370
     9
100
AcDbSpline
210
0.0
220
0.0
230
1.0
 70
     8
 71
     3
 72
    11
 73
     7
 74
     0
 42
0.0000000001
 43
0.0000000001
 40
0.0
 40
0.0
 40
0.0
 40
0.0
 40
1.0
 40
1.0
 40
1.0
 40
2.0
 40
2.0
 40
2.0
 40
2.0
 10
109.4030393098105
 20
99.12008537475056
 30
0.0
 10
109.4023738801958
 20
99.12008641030778
 30
0.0
 10
109.4019828734609
 20
99.12075512121331
 30
0.0
 10
109.4019897813266
 20
99.12212456801276
 30
0.0
 10
109.4020029125412
 20
99.12472775992309
 30
0.0
 10
109.403440896661
 20
99.12965445834986
 30
0.0
 10
109.405415676927
 20
99.1359434651979
 30
0.0
  0
LINE
  5
150
330
70
100
AcDbEntity
  8
Predeterminado
 62
    18
420
        0
370
     9
100
AcDbLine
 10
109.405415676927
 20
99.1359434651979
 30
0.0
 11
109.405415676927
 21
99.19107790886904
 31
0.0
  0
LINE
  5
151
330
70
100
AcDbEntity
  8
Predeterminado
 62
    18
420
        0
370
     9
100
AcDbLine
 10
109.405415676927
 20
99.19107790886904
 30
0.0
 11
109.4038017106046
 21
99.19242344561641
 31
0.0
  0
SPLINE
  5
152
330
70
100
AcDbEntity
  8
Predeterminado
 62
    18
420
        0
370
     9
100
AcDbSpline
210
0.0
220
0.0
230
1.0
 70
     8
 71
     3
 72
    35
 73
    31
 74
     0
 42
0.0000000001
 43
0.0000000001
 40
0.0
 40
0.0
 40
0.0
 40
0.0
 40
1.0
 40
1.0
 40
1.0
 40
2.0
 40
2.0
 40
2.0
 40
3.0
 40
3.0
 40
3.0
 40
4.0
 40
4.0
 40
4.0
 40
5.0
 40
5.0
 40
5.0
 40
6.0
 40
6.0
 40
6.0
 40
7.0
 40
7.0
 40
7.0
 40
8.0
 40
8.0
 40
8.0
 40
9.0
 40
9.0
 40
9.0
 40
10.0
 40
10.0
 40
10.0
 40
10.0
 10
108.5328316100664
 20
99.12008262371106
 30
0.0
 10
108.5334416688307
 20
99.12008224307635
 30
0.0
 10
108.5338129979038
 20
99.12065466547527
 30
0.0
 10
108.5338650394866
 20
99.12178122093541
 30
0.0
 10
108.533916695907
 20
99.12289943868699
 30
0.0
 10
108.5336585185067
 20
99.12459095459624
 30
0.0
 10
108.5331487905294
 20
99.12669919858368
 30
0.0
 10
108.5326466500592
 20
99.12877606050546
 30
0.0
 10
108.5318931202301
 20
99.1313038567649
 30
0.0
 10
108.5310241834956
 20
99.13409532215888
 30
0.0
 10
108.5300789029864
 20
99.13713204246995
 30
0.0
 10
108.5289762231614
 20
99.14055464138899
 30
0.0
 10
108.5279267488389
 20
99.14414955524158
 30
0.0
 10
108.52678192845
 20
99.14807107155166
 30
0.0
 10
108.5256717652964
 20
99.15231854041861
 30
0.0
 10
108.5248942332364
 20
99.15656378594855
 30
0.0
 10
108.524145391036
 20
99.16065238778264
 30
0.0
 10
108.5236993759555
 20
99.16487479737483
 30
0.0
 10
108.5237068534665
 20
99.16877456390366
 30
0.0
 10
108.5237133604436
 20
99.17216816571432
 30
0.0
 10
108.5240581272339
 20
99.17541041696512
 30
0.0
 10
108.5246493890176
 20
99.17824380140276
 30
0.0
 10
108.5252344446334
 20
99.18104744527489
 30
0.0
 10
108.5260651763025
 20
99.18352607414197
 30
0.0
 10
108.5269736142055
 20
99.18555587910338
 30
0.0
 10
108.5279948000383
 20
99.18783760695937
 30
0.0
 10
108.5291352345175
 20
99.18961303591281
 30
0.0
 10
108.5301658857538
 20
99.19077448448975
 30
0.0
 10
108.5311223405656
 20
99.19185232056163
 30
0.0
 10
108.5320049087819
 20
99.1924227337309
 30
0.0
 10
108.5326571736604
 20
99.19242409753515
 30
0.0
  0
SPLINE
  5
153
330
70
100
AcDbEntity
  8
Predeterminado
 62
    18
420
        0
370
     9
100
AcDbSpline
210
0.0
220
0.0
230
1.0
 70
     8
 71
     3
 72
     8
 73
     4
 74
     0
 42
0.0000000001
 43
0.0000000001
 40
0.0
 40
0.0
 40
0.0
 40
0.0
 40
1.0
 40
1.0
 40
1.0
 40
1.0
 10
109.4021746911401
 20
98.59289648529239
 30
0.0
 10
109.4026239244484
 20
98.59290014723137
 30
0.0
 10
109.4038513875202
 20
98.59446851349918
 30
0.0
 10
109.405415676927
 20
98.59736859376004
 30
0.0
  0
LINE
  5
154
330
70
100
AcDbEntity
  8
Predeterminado
 62
    18
420
        0
370
     9
100
AcDbLine
 10
109.405415676927
 20
98.59736859376004
 30
0.0
 11
109.405415676927
 21
98.65563705353926
 31
0.0
  0
SPLINE
  5
155
330
70
100
AcDbEntity
  8
Predeterminado
 62
    18
420
        0
370
     9
100
AcDbSpline
210
0.0
220
0.0
230
1.0
 70
     8
 71
     3
 72
    11
 73
     7
 74
     0
 42
0.0000000001
 43
0.0000000001
 40
0.0
 40
0.0
 40
0.0
 40
0.0
 40
1.0
 40
1.0
 40
1.0
 40
2.0
 40
2.0
 40
2.0
 40
2.0
 10
109.405415676927
 20
98.65563705353926
 30
0.0
 10
109.4034409445684
 20
98.66079395341934
 30
0.0
 10
109.402004741848
 20
98.66416617362679
 30
0.0
 10
109.4019898097873
 20
98.66502259832348
 30
0.0
 10
109.4019872951613
 20
98.66516682410209
 30
0.0
 10
109.4020256575726
 20
98.66523747203226
 30
0.0
 10
109.4021008211562
 20
98.66523698383598
 30
0.0
  0
LINE
  5
156
330
70
100
AcDbEntity
  8
Predeterminado
 62
    18
420
        0
370
     9
100
AcDbLine
 10
109.405415676927
 20
98.07604058790984
 30
0.0
 11
109.405415676927
 21
98.12399509959048
 31
0.0
  0
SPLINE
  5
157
330
70
100
AcDbEntity
  8
Predeterminado
 62
    18
420
        0
370
     9
100
AcDbSpline
210
0.0
220
0.0
230
1.0
 70
     8
 71
     3
 72
    11
 73
     7
 74
     0
 42
0.0000000001
 43
0.0000000001
 40
0.0
 40
0.0
 40
0.0
 40
0.0
 40
1.0
 40
1.0
 40
1.0
 40
2.0
 40
2.0
 40
2.0
 40
2.0
 10
109.405415676927
 20
98.12399509959048
 30
0.0
 10
109.4034409445684
 20
98.13118042272497
 30
0.0
 10
109.402004741848
 20
98.13756439929697
 30
0.0
 10
109.4019898097873
 20
98.14201417240539
 30
0.0
 10
109.4019748777266
 20
98.14646394551383
 30
0.0
 10
109.4034013041255
 20
98.14862190929192
 30
0.0
 10
109.405415676927
 20
98.14836070591866
 30
0.0
  0
SPLINE
  5
158
330
70
100
AcDbEntity
  8
Predeterminado
 62
    18
420
        0
370
     9
100
AcDbSpline
210
0.0
220
0.0
230
1.0
 70
     8
 71
     3
 72
    38
 73
    34
 74
     0
 42
0.0000000001
 43
0.0000000001
 40
0.0
 40
0.0
 40
0.0
 40
0.0
 40
1.0
 40
1.0
 40
1.0
 40
2.0
 40
2.0
 40
2.0
 40
3.0
 40
3.0
 40
3.0
 40
4.0
 40
4.0
 40
4.0
 40
5.0
 40
5.0
 40
5.0
 40
6.0
 40
6.0
 40
6.0
 40
7.0
 40
7.0
 40
7.0
 40
8.0
 40
8.0
 40
8.0
 40
9.0
 40
9.0
 40
9.0
 40
10.0
 40
10.0
 40
10.0
 40
11.0
 40
11.0
 40
11.0
 40
11.0
 10
108.5305244835134
 20
98.07603963520685
 30
0.0
 10
108.530365242515
 20
98.07603992033556
 30
0.0
 10
108.5302032618121
 20
98.07605605701809
 30
0.0
 10
108.5300393343644
 20
98.07608801116485
 30
0.0
 10
108.5289814027456
 20
98.07629423229043
 30
0.0
 10
108.5278171446408
 20
98.07716222385295
 30
0.0
 10
108.5267904182014
 20
98.07864063736799
 30
0.0
 10
108.5257026210039
 20
98.08020698845824
 30
0.0
 10
108.5247452804087
 20
98.08252084561466
 30
0.0
 10
108.5242095372247
 20
98.08541725653263
 30
0.0
 10
108.5237209227834
 20
98.08805887334871
 30
0.0
 10
108.523581401269
 20
98.09127399778844
 30
0.0
 10
108.5238362827857
 20
98.09473612001463
 30
0.0
 10
108.5240631609663
 20
98.09781786560209
 30
0.0
 10
108.5245980584038
 20
98.10117094842935
 30
0.0
 10
108.5253143754653
 20
98.10454604579454
 30
0.0
 10
108.5260663375801
 20
98.10808909326794
 30
0.0
 10
108.5270283871977
 20
98.11174257793791
 30
0.0
 10
108.528012522678
 20
98.1152988897174
 30
0.0
 10
108.5291246323326
 20
98.11931765414687
 30
0.0
 10
108.5302907674648
 20
98.12332206325226
 30
0.0
 10
108.5312633035337
 20
98.12703405155305
 30
0.0
 10
108.5322658916969
 20
98.13086074308229
 30
0.0
 10
108.5330865445341
 20
98.13449369965239
 30
0.0
 10
108.5335146567216
 20
98.1375558596053
 30
0.0
 10
108.5339022214304
 20
98.14032799542765
 30
0.0
 10
108.5339758926588
 20
98.14271177083252
 30
0.0
 10
108.5337131673827
 20
98.14447334376403
 30
0.0
 10
108.533470374439
 20
98.14610127041264
 30
0.0
 10
108.5329387321058
 20
98.14724640063694
 30
0.0
 10
108.5322176364463
 20
98.14785041741146
 30
0.0
 10
108.5317923200723
 20
98.14820667836048
 30
0.0
 10
108.5312965484241
 20
98.14838183727081
 30
0.0
 10
108.5307621441104
 20
98.14838034184511
 30
0.0
  0
SPLINE
  5
159
330
70
100
AcDbEntity
  8
Predeterminado
 62
    18
420
        0
370
     9
100
AcDbSpline
210
0.0
220
0.0
230
1.0
 70
     8
 71
     3
 72
    11
 73
     7
 74
     0
 42
0.0000000001
 43
0.0000000001
 40
0.0
 40
0.0
 40
0.0
 40
0.0
 40
1.0
 40
1.0
 40
1.0
 40
2.0
 40
2.0
 40
2.0
 40
2.0
 10
109.405415676927
 20
97.71362112173905
 30
0.0
 10
109.4034123404346
 20
97.72091188342066
 30
0.0
 10
109.4019841791111
 20
97.72752519451316
 30
0.0
 10
109.4019897018567
 20
97.73229034669547
 30
0.0
 10
109.4019952246016
 20
97.73705549887719
 30
0.0
 10
109.4034304379113
 20
97.73958787714178
 30
0.0
 10
109.405415676927
 20
97.7397009954647
 30
0.0
  0
LINE
  5
15A
330
70
100
AcDbEntity
  8
Predeterminado
 62
    18
420
        0
370
     9
100
AcDbLine
 10
109.405415676927
 20
97.66736206246463
 30
0.0
 11
109.405415676927
 21
97.71362112173905
 31
0.0
  0
SPLINE
  5
15B
330
70
100
AcDbEntity
  8
Predeterminado
 62
    18
420
        0
370
     9
100
AcDbSpline
210
0.0
220
0.0
230
1.0
 70
     8
 71
     3
 72
    35
 73
    31
 74
     0
 42
0.0000000001
 43
0.0000000001
 40
0.0
 40
0.0
 40
0.0
 40
0.0
 40
1.0
 40
1.0
 40
1.0
 40
2.0
 40
2.0
 40
2.0
 40
3.0
 40
3.0
 40
3.0
 40
4.0
 40
4.0
 40
4.0
 40
5.0
 40
5.0
 40
5.0
 40
6.0
 40
6.0
 40
6.0
 40
7.0
 40
7.0
 40
7.0
 40
8.0
 40
8.0
 40
8.0
 40
9.0
 40
9.0
 40
9.0
 40
10.0
 40
10.0
 40
10.0
 40
10.0
 10
108.5297567148548
 20
97.66744328279269
 30
0.0
 10
108.5287207728819
 20
97.66769605485723
 30
0.0
 10
108.5276012806813
 20
97.66854095668236
 30
0.0
 10
108.5266185976643
 20
97.66993714144252
 30
0.0
 10
108.5255196813311
 20
97.67149846916638
 30
0.0
 10
108.5245692606309
 20
97.67381457002286
 30
0.0
 10
108.5240780103345
 20
97.67671819581851
 30
0.0
 10
108.5236366344467
 20
97.67932702969119
 30
0.0
 10
108.5235661736025
 20
97.6824967440924
 30
0.0
 10
108.5238904735598
 20
97.68590085751984
 30
0.0
 10
108.5241785332982
 20
97.68892456442722
 30
0.0
 10
108.5247727456018
 20
97.69220584430966
 30
0.0
 10
108.5255322593291
 20
97.69551239197923
 30
0.0
 10
108.5263454022893
 20
97.69905241483952
 30
0.0
 10
108.5273593565031
 20
97.70270716646786
 30
0.0
 10
108.5283724007678
 20
97.70627663309692
 30
0.0
 10
108.5295256510286
 20
97.71034011626831
 30
0.0
 10
108.5307049200422
 20
97.71440682000651
 30
0.0
 10
108.531648531317
 20
97.71818190283276
 30
0.0
 10
108.5326034916162
 20
97.72200238943002
 30
0.0
 10
108.5333386697108
 20
97.72564164757195
 30
0.0
 10
108.5336659654349
 20
97.72871017640516
 30
0.0
 10
108.5339585674752
 20
97.73145343802504
 30
0.0
 10
108.5339327197166
 20
97.73381897973649
 30
0.0
 10
108.5335965585963
 20
97.73558765153616
 30
0.0
 10
108.5332805120629
 20
97.73725049283315
 30
0.0
 10
108.5326875435247
 20
97.73843504812171
 30
0.0
 10
108.5319292399777
 20
97.73908455763693
 30
0.0
 10
108.531444466281
 20
97.73949978071012
 30
0.0
 10
108.5308863154067
 20
97.73970472915848
 30
0.0
 10
108.5302949197774
 20
97.73970331258219
 30
0.0
  0
LINE
  5
15C
330
70
100
AcDbEntity
  8
Predeterminado
 62
    18
420
        0
370
     9
100
AcDbLine
 10
109.4035658347684
 20
97.1924947935375
 30
0.0
 11
109.4047171355752
 21
97.19278456196768
 31
0.0
  0
LINE
  5
15D
330
70
100
AcDbEntity
  8
Predeterminado
 62
    18
420
        0
370
     9
100
AcDbLine
 10
109.405415676927
 20
97.19336223550726
 30
0.0
 11
109.405415676927
 21
97.24619556891266
 31
0.0
  0
SPLINE
  5
15E
330
70
100
AcDbEntity
  8
Predeterminado
 62
    18
420
        0
370
     9
100
AcDbSpline
210
0.0
220
0.0
230
1.0
 70
     8
 71
     3
 72
    11
 73
     7
 74
     0
 42
0.0000000001
 43
0.0000000001
 40
0.0
 40
0.0
 40
0.0
 40
0.0
 40
1.0
 40
1.0
 40
1.0
 40
2.0
 40
2.0
 40
2.0
 40
2.0
 10
109.405415676927
 20
97.24619556891266
 30
0.0
 10
109.4034123404346
 20
97.25283599183127
 30
0.0
 10
109.4019841791111
 20
97.25830282471889
 30
0.0
 10
109.4019897018567
 20
97.26156576459381
 30
0.0
 10
109.4019934007993
 20
97.26375116831221
 30
0.0
 10
109.4026384381714
 20
97.26482907364713
 30
0.0
 10
109.4036605213369
 20
97.26483014245786
 30
0.0
  0
SPLINE
  5
15F
330
70
100
AcDbEntity
  8
Predeterminado
 62
    18
420
        0
370
     9
100
AcDbSpline
210
0.0
220
0.0
230
1.0
 70
     8
 71
     3
 72
    38
 73
    34
 74
     0
 42
0.0000000001
 43
0.0000000001
 40
0.0
 40
0.0
 40
0.0
 40
0.0
 40
1.0
 40
1.0
 40
1.0
 40
2.0
 40
2.0
 40
2.0
 40
3.0
 40
3.0
 40
3.0
 40
4.0
 40
4.0
 40
4.0
 40
5.0
 40
5.0
 40
5.0
 40
6.0
 40
6.0
 40
6.0
 40
7.0
 40
7.0
 40
7.0
 40
8.0
 40
8.0
 40
8.0
 40
9.0
 40
9.0
 40
9.0
 40
10.0
 40
10.0
 40
10.0
 40
11.0
 40
11.0
 40
11.0
 40
11.0
 10
108.5323011825003
 20
97.19249215955995
 30
0.0
 10
108.532105194317
 20
97.19249272399842
 30
0.0
 10
108.5318946682841
 20
97.19253359565513
 30
0.0
 10
108.5316721471142
 20
97.19261445692497
 30
0.0
 10
108.5308197810356
 20
97.19292419556186
 30
0.0
 10
108.5297740663025
 20
97.19382234085806
 30
0.0
 10
108.5287280452616
 20
97.19523401027871
 30
0.0
 10
108.5275696338917
 20
97.19679735732743
 30
0.0
 10
108.5263815671561
 20
97.19903686957664
 30
0.0
 10
108.5254643744221
 20
97.20182079854907
 30
0.0
 10
108.5245437400888
 20
97.20461517371132
 30
0.0
 10
108.5238859475442
 20
97.20806898981592
 30
0.0
 10
108.5237250661545
 20
97.21184596591998
 30
0.0
 10
108.523586284967
 20
97.21510410056831
 30
0.0
 10
108.5238132638341
 20
97.21869214825659
 30
0.0
 10
108.52433799803
 20
97.22227999782347
 30
0.0
 10
108.5248358361917
 20
97.22568394680205
 30
0.0
 10
108.5256016550202
 20
97.22917145094413
 30
0.0
 10
108.5264715711325
 20
97.23253581326318
 30
0.0
 10
108.5274474437116
 20
97.23630995755902
 30
0.0
 10
108.5285722976323
 20
97.24002480143914
 30
0.0
 10
108.5296193763871
 20
97.24347072427466
 30
0.0
 10
108.5307789121439
 20
97.24728674167042
 30
0.0
 10
108.5318718943281
 20
97.25088473534793
 30
0.0
 10
108.5326373322966
 20
97.25394059518501
 30
0.0
 10
108.5333667546145
 20
97.25685266965696
 30
0.0
 10
108.5338136637223
 20
97.25935621683994
 30
0.0
 10
108.5338662233264
 20
97.26116992445849
 30
0.0
 10
108.5339131533959
 20
97.26278937014372
 30
0.0
 10
108.5336499774835
 20
97.26390667621037
 30
0.0
 10
108.5331340039508
 20
97.26444281112025
 30
0.0
 10
108.5328820741965
 20
97.26470458488952
 30
0.0
 10
108.5325680457835
 20
97.26483282370937
 30
0.0
 10
108.5322086005923
 20
97.26483143102738
 30
0.0
  0
SPLINE
  5
160
330
70
100
AcDbEntity
  8
Predeterminado
 62
    18
420
        0
370
     9
100
AcDbSpline
210
0.0
220
0.0
230
1.0
 70
     8
 71
     3
 72
     8
 73
     4
 74
     0
 42
0.0000000001
 43
0.0000000001
 40
0.0
 40
0.0
 40
0.0
 40
0.0
 40
1.0
 40
1.0
 40
1.0
 40
1.0
 10
109.4023205582475
 20
96.64694013260968
 30
0.0
 10
109.402853833194
 20
96.64694789443505
 30
0.0
 10
109.4039894293016
 20
96.64820631690965
 30
0.0
 10
109.405415676927
 20
96.65056584473578
 30
0.0
  0
LINE
  5
161
330
70
100
AcDbEntity
  8
Predeterminado
 62
    18
420
        0
370
     9
100
AcDbLine
 10
109.405415676927
 20
96.65056584473578
 30
0.0
 11
109.405415676927
 21
96.70744062659062
 31
0.0
  0
SPLINE
  5
162
330
70
100
AcDbEntity
  8
Predeterminado
 62
    18
420
        0
370
     9
100
AcDbSpline
210
0.0
220
0.0
230
1.0
 70
     8
 71
     3
 72
    11
 73
     7
 74
     0
 42
0.0000000001
 43
0.0000000001
 40
0.0
 40
0.0
 40
0.0
 40
0.0
 40
1.0
 40
1.0
 40
1.0
 40
2.0
 40
2.0
 40
2.0
 40
2.0
 10
109.405415676927
 20
96.70744062659062
 30
0.0
 10
109.4034123404346
 20
96.71305819274799
 30
0.0
 10
109.4019841791111
 20
96.71704944615228
 30
0.0
 10
109.4019897018567
 20
96.71858373691897
 30
0.0
 10
109.4019913930385
 20
96.71905356941977
 30
0.0
 10
109.4021271484206
 20
96.71928109682141
 30
0.0
 10
109.402371708581
 20
96.71927768508858
 30
0.0
  0
SPLINE
  5
163
330
70
100
AcDbEntity
  8
Predeterminado
 62
    18
420
        0
370
     9
100
AcDbSpline
210
0.0
220
0.0
230
1.0
 70
     8
 71
     3
 72
    38
 73
    34
 74
     0
 42
0.0000000001
 43
0.0000000001
 40
0.0
 40
0.0
 40
0.0
 40
0.0
 40
1.0
 40
1.0
 40
1.0
 40
2.0
 40
2.0
 40
2.0
 40
3.0
 40
3.0
 40
3.0
 40
4.0
 40
4.0
 40
4.0
 40
5.0
 40
5.0
 40
5.0
 40
6.0
 40
6.0
 40
6.0
 40
7.0
 40
7.0
 40
7.0
 40
8.0
 40
8.0
 40
8.0
 40
9.0
 40
9.0
 40
9.0
 40
10.0
 40
10.0
 40
10.0
 40
11.0
 40
11.0
 40
11.0
 40
11.0
 10
108.5335506625163
 20
96.64693958480597
 30
0.0
 10
108.5334560288283
 20
96.64693969470079
 30
0.0
 10
108.5333411437841
 20
96.64698139494687
 30
0.0
 10
108.5332069505477
 20
96.64706484652473
 30
0.0
 10
108.53272214701
 20
96.64736633429676
 30
0.0
 10
108.5319784160574
 20
96.64821306463174
 30
0.0
 10
108.5311092517507
 20
96.64951840023114
 30
0.0
 10
108.530166893623
 20
96.65093366038787
 30
0.0
 10
108.5290566900321
 20
96.65291862146965
 30
0.0
 10
108.5279924075333
 20
96.65534300509962
 30
0.0
 10
108.5268233650476
 20
96.65800602686843
 30
0.0
 10
108.5256804297498
 20
96.66128442834502
 30
0.0
 10
108.5248818389978
 20
96.66495324096358
 30
0.0
 10
108.5241110033592
 20
96.66849454357324
 30
0.0
 10
108.5236575549673
 20
96.67252887403384
 30
0.0
 10
108.5236845200266
 20
96.6766277141947
 30
0.0
 10
108.523707677265
 20
96.68014774426623
 30
0.0
 10
108.5240789755679
 20
96.68380798536613
 30
0.0
 10
108.5246961811045
 20
96.68730851960761
 30
0.0
 10
108.5253085179197
 20
96.69078144047677
 30
0.0
 10
108.5261667639803
 20
96.69418450249123
 30
0.0
 10
108.5270944033031
 20
96.69733480890778
 30
0.0
 10
108.5281500593108
 20
96.70091986596089
 30
0.0
 10
108.5293172529583
 20
96.70427143920399
 30
0.0
 10
108.5303547536349
 20
96.70718509648564
 30
0.0
 10
108.5314733766977
 20
96.71032657321326
 30
0.0
 10
108.5324688148796
 20
96.71304944153627
 30
0.0
 10
108.5330946738124
 20
96.71506813312827
 30
0.0
 10
108.5336735700056
 20
96.7169353476315
 30
0.0
 10
108.5339480260387
 20
96.71824996941044
 30
0.0
 10
108.53385218926
 20
96.71886127503903
 30
0.0
 10
108.5338084213197
 20
96.71914045375379
 30
0.0
 10
108.5336879636243
 20
96.71927811259491
 30
0.0
 10
108.5335010491341
 20
96.7192771033191
 30
0.0
  0
LINE
  5
164
330
70
100
AcDbEntity
  8
Predeterminado
 62
    18
420
        0
370
     9
100
AcDbLine
 10
108.5338718057583
 20
99.86406957640202
 30
0.0
 11
108.5338718057583
 21
99.90009092756096
 31
0.0
  0
LINE
  5
165
330
70
100
AcDbEntity
  8
Predeterminado
 62
    18
420
        0
370
     9
100
AcDbLine
 10
108.5338718057583
 20
99.58313056697148
 30
0.0
 11
108.5338718057583
 21
99.79398274683354
 31
0.0
  0
LINE
  5
166
330
70
100
AcDbEntity
  8
Predeterminado
 62
    18
420
        0
370
     9
100
AcDbLine
 10
108.5338718057583
 20
99.12192832021281
 30
0.0
 11
108.5338718057583
 21
99.58313056697148
 31
0.0
  0
LINE
  5
167
330
70
100
AcDbEntity
  8
Predeterminado
 62
    18
420
        0
370
     9
100
AcDbLine
 10
108.5338718057583
 20
98.73562393153274
 30
0.0
 11
108.5338718057583
 21
99.12192832021281
 31
0.0
  0
LINE
  5
168
330
70
100
AcDbEntity
  8
Predeterminado
 62
    18
420
        0
370
     9
100
AcDbLine
 10
108.5338718057583
 20
98.11024543474871
 30
0.0
 11
108.5338718057583
 21
98.52889037689974
 31
0.0
  0
LINE
  5
169
330
70
100
AcDbEntity
  8
Predeterminado
 62
    18
420
        0
370
     9
100
AcDbLine
 10
108.5338718057583
 20
97.96420570657765
 30
0.0
 11
108.5338718057583
 21
98.11024543474871
 31
0.0
  0
SPLINE
  5
16A
330
70
100
AcDbEntity
  8
Predeterminado
 62
    18
420
        0
370
     9
100
AcDbSpline
210
0.0
220
0.0
230
1.0
 70
     8
 71
     3
 72
    11
 73
     7
 74
     0
 42
0.0000000001
 43
0.0000000001
 40
0.0
 40
0.0
 40
0.0
 40
0.0
 40
1.0
 40
1.0
 40
1.0
 40
2.0
 40
2.0
 40
2.0
 40
2.0
 10
108.5338718057583
 20
99.90009092756096
 30
0.0
 10
108.5331573664751
 20
99.94004494969722
 30
0.0
 10
108.5001890645544
 20
99.97185491667313
 30
0.0
 10
108.4602350424175
 20
99.97114047738989
 30
0.0
 10
108.4212875818629
 20
99.97044403697287
 30
0.0
 10
108.3898819330056
 20
99.93903838811561
 30
0.0
 10
108.3891854925886
 20
99.90009092756096
 30
0.0
  0
LINE
  5
16B
330
70
100
AcDbEntity
  8
Predeterminado
 62
    18
420
        0
370
     9
100
AcDbLine
 10
108.3891854925886
 20
99.90009092756096
 30
0.0
 11
108.3891854925886
 21
97.96420570657765
 31
0.0
  0
LINE
  5
16C
330
70
100
AcDbEntity
  8
Predeterminado
 62
    18
420
        0
370
     9
100
AcDbLine
 10
108.3891854925886
 20
97.96420570657765
 30
0.0
 11
108.3891854925886
 21
97.64830554837708
 31
0.0
  0
LINE
  5
16D
330
70
100
AcDbEntity
  8
Predeterminado
 62
    18
420
        0
370
     9
100
AcDbLine
 10
108.3891854925886
 20
97.2580176151048
 30
0.0
 11
108.3891854925886
 21
96.03541285342139
 31
0.0
  0
LINE
  5
16E
330
70
100
AcDbEntity
  8
Predeterminado
 62
    18
420
        0
370
     9
100
AcDbLine
 10
108.5338718057583
 20
97.66648886017051
 30
0.0
 11
108.5338718057583
 21
97.96420570657765
 31
0.0
  0
LINE
  5
16F
330
70
100
AcDbEntity
  8
Predeterminado
 62
    18
420
        0
370
     9
100
AcDbLine
 10
108.5338718057583
 20
96.68566832296299
 30
0.0
 11
108.5338718057583
 21
97.19302941566949
 31
0.0
  0
LINE
  5
170
330
70
100
AcDbEntity
  8
Predeterminado
 62
    18
420
        0
370
     9
100
AcDbLine
 10
108.5338718057583
 20
96.03541285342139
 30
0.0
 11
108.5338718057583
 21
96.68566832296299
 31
0.0
  0
LINE
  5
171
330
70
100
AcDbEntity
  8
Predeterminado
 62
    18
420
        0
370
     9
100
AcDbLine
 10
109.5466759979425
 20
96.03541285342139
 30
0.0
 11
109.5466759979425
 21
97.26133616548731
 31
0.0
  0
LINE
  5
172
330
70
100
AcDbEntity
  8
Predeterminado
 62
    18
420
        0
370
     9
100
AcDbLine
 10
109.5466759979425
 20
97.65893025457529
 30
0.0
 11
109.5466759979425
 21
97.96420570657765
 31
0.0
  0
LINE
  5
173
330
70
100
AcDbEntity
  8
Predeterminado
 62
    18
420
        0
370
     9
100
AcDbLine
 10
109.4019896847741
 20
96.5498442215455
 30
0.0
 11
109.4019896847741
 21
96.03541285342139
 31
0.0
  0
LINE
  5
174
330
70
100
AcDbEntity
  8
Predeterminado
 62
    18
420
        0
370
     9
100
AcDbLine
 10
109.4019896847741
 20
97.10527591557882
 30
0.0
 11
109.4019896847741
 21
96.81019967649891
 31
0.0
  0
LINE
  5
175
330
70
100
AcDbEntity
  8
Predeterminado
 62
    18
420
        0
370
     9
100
AcDbLine
 10
109.4019896847741
 20
97.96420570657765
 30
0.0
 11
109.4019896847741
 21
97.80068596972935
 31
0.0
  0
LINE
  5
176
330
70
100
AcDbEntity
  8
Predeterminado
 62
    18
420
        0
370
     9
100
AcDbLine
 10
109.5466759979425
 20
97.96420570657765
 30
0.0
 11
109.5466759979425
 21
99.90009092756096
 31
0.0
  0
LINE
  5
177
330
70
100
AcDbEntity
  8
Predeterminado
 62
    18
420
        0
370
     9
100
AcDbLine
 10
109.4019896847741
 20
98.0356562042423
 30
0.0
 11
109.4019896847741
 21
97.96420570657765
 31
0.0
  0
LINE
  5
178
330
70
100
AcDbEntity
  8
Predeterminado
 62
    18
420
        0
370
     9
100
AcDbLine
 10
109.4019896847741
 20
98.52681610940246
 30
0.0
 11
109.4019896847741
 21
98.20494952578524
 31
0.0
  0
LINE
  5
179
330
70
100
AcDbEntity
  8
Predeterminado
 62
    18
420
        0
370
     9
100
AcDbLine
 10
109.4019896847741
 20
99.05449001015348
 30
0.0
 11
109.4019896847741
 21
98.73471958631753
 31
0.0
  0
LINE
  5
17A
330
70
100
AcDbEntity
  8
Predeterminado
 62
    18
420
        0
370
     9
100
AcDbLine
 10
109.4019896847741
 20
99.52473809908584
 30
0.0
 11
109.4019896847741
 21
99.25030353061046
 31
0.0
  0
LINE
  5
17B
330
70
100
AcDbEntity
  8
Predeterminado
 62
    18
420
        0
370
     9
100
AcDbLine
 10
109.4019896847741
 20
99.79570037813996
 30
0.0
 11
109.4019896847741
 21
99.66423911206
 31
0.0
  0
SPLINE
  5
17C
330
70
100
AcDbEntity
  8
Predeterminado
 62
    18
420
        0
370
     9
100
AcDbSpline
210
0.0
220
0.0
230
1.0
 70
     8
 71
     3
 72
    11
 73
     7
 74
     0
 42
0.0000000001
 43
0.0000000001
 40
0.0
 40
0.0
 40
0.0
 40
0.0
 40
1.0
 40
1.0
 40
1.0
 40
2.0
 40
2.0
 40
2.0
 40
2.0
 10
109.5466759979425
 20
99.90009092756096
 30
0.0
 10
109.5459615586593
 20
99.94004494969722
 30
0.0
 10
109.5129932567386
 20
99.97185491667313
 30
0.0
 10
109.473039234603
 20
99.97114047738989
 30
0.0
 10
109.4340917740477
 20
99.97044403697287
 30
0.0
 10
109.4026861251898
 20
99.93903838811561
 30
0.0
 10
109.4019896847741
 20
99.90009092756096
 30
0.0
  0
LINE
  5
17D
330
70
100
AcDbEntity
  8
Predeterminado
 62
    18
420
        0
370
     9
100
AcDbLine
 10
109.405415676927
 20
99.93641273298687
 30
0.0
 11
108.5239973175549
 21
99.93641273298687
 31
0.0
  0
LINE
  5
17E
330
70
100
AcDbEntity
  8
Predeterminado
 62
    18
420
        0
370
     9
100
AcDbLine
 10
108.5250151131806
 20
99.80288960540926
 30
0.0
 11
109.405415676927
 21
99.80288960540926
 31
0.0
  0
LINE
  5
17F
330
70
100
AcDbEntity
  8
Predeterminado
 62
    18
420
        0
370
     9
100
AcDbLine
 10
109.405415676927
 20
99.87523276199347
 30
0.0
 11
108.5250030582244
 21
99.87523276199347
 31
0.0
  0
LINE
  5
180
330
70
100
AcDbEntity
  8
Predeterminado
 62
    18
420
        0
370
     9
100
AcDbLine
 10
108.5286039796531
 20
99.57037873130012
 30
0.0
 11
109.405415676927
 21
99.57037873130012
 31
0.0
  0
LINE
  5
181
330
70
100
AcDbEntity
  8
Predeterminado
 62
    18
420
        0
370
     9
100
AcDbLine
 10
109.405415676927
 20
99.64272188788498
 30
0.0
 11
108.5284138589079
 21
99.64272188788498
 31
0.0
  0
LINE
  5
182
330
70
100
AcDbEntity
  8
Predeterminado
 62
    18
420
        0
370
     9
100
AcDbLine
 10
108.5327443250888
 20
99.12008187332039
 30
0.0
 11
109.4030583270133
 21
99.12008187332039
 31
0.0
  0
LINE
  5
183
330
70
100
AcDbEntity
  8
Predeterminado
 62
    18
420
        0
370
     9
100
AcDbLine
 10
109.4032829818678
 20
99.1924250299046
 30
0.0
 11
108.5325617919021
 21
99.1924250299046
 31
0.0
  0
LINE
  5
184
330
70
100
AcDbEntity
  8
Predeterminado
 62
    18
420
        0
370
     9
100
AcDbLine
 10
108.5335309593205
 20
98.59289520794682
 30
0.0
 11
109.4023692538037
 21
98.59289520794682
 31
0.0
  0
LINE
  5
185
330
70
100
AcDbEntity
  8
Predeterminado
 62
    18
420
        0
370
     9
100
AcDbLine
 10
109.4022832941586
 20
98.66523836453168
 30
0.0
 11
108.5335429089002
 21
98.66523836453168
 31
0.0
  0
LINE
  5
186
330
70
100
AcDbEntity
  8
Predeterminado
 62
    18
420
        0
370
     9
100
AcDbLine
 10
108.5304725771513
 20
98.07603897576163
 30
0.0
 11
109.4053434097104
 21
98.07603897576163
 31
0.0
  0
LINE
  5
187
330
70
100
AcDbEntity
  8
Predeterminado
 62
    18
420
        0
370
     9
100
AcDbLine
 10
109.4051475638842
 20
98.14838213234585
 30
0.0
 11
108.5306694284878
 21
98.14838213234585
 31
0.0
  0
LINE
  5
188
330
70
100
AcDbEntity
  8
Predeterminado
 62
    18
420
        0
370
     9
100
AcDbLine
 10
108.5303526900206
 20
97.66736184898419
 30
0.0
 11
109.405415676927
 21
97.66736184898419
 31
0.0
  0
LINE
  5
189
330
70
100
AcDbEntity
  8
Predeterminado
 62
    18
420
        0
370
     9
100
AcDbLine
 10
109.405415676927
 20
97.73970500556842
 30
0.0
 11
108.5302225243371
 21
97.73970500556842
 31
0.0
  0
LINE
  5
18A
330
70
100
AcDbEntity
  8
Predeterminado
 62
    18
420
        0
370
     9
100
AcDbLine
 10
108.532179603147
 20
97.19249050687883
 30
0.0
 11
109.4036967709189
 21
97.19249050687883
 31
0.0
  0
LINE
  5
18B
330
70
100
AcDbEntity
  8
Predeterminado
 62
    18
420
        0
370
     9
100
AcDbLine
 10
109.4037979156889
 20
97.2648336634637
 30
0.0
 11
108.5320706791641
 21
97.2648336634637
 31
0.0
  0
LINE
  5
18C
330
70
100
AcDbEntity
  8
Predeterminado
 62
    18
420
        0
370
     9
100
AcDbLine
 10
108.5333829546726
 20
96.64693719577071
 30
0.0
 11
109.4025083792454
 21
96.64693719577071
 31
0.0
  0
LINE
  5
18D
330
70
100
AcDbEntity
  8
Predeterminado
 62
    18
420
        0
370
     9
100
AcDbLine
 10
109.4025485783162
 20
96.71928035235492
 30
0.0
 11
109.3296465281892
 21
96.71928035235492
 31
0.0
  0
LINE
  5
18E
330
70
100
AcDbEntity
  8
Predeterminado
 62
    18
420
        0
370
     9
100
AcDbLine
 10
108.6062149623432
 20
96.71928035235492
 30
0.0
 11
108.5333059547933
 21
96.71928035235492
 31
0.0
  0
LINE
  5
18F
330
70
100
AcDbEntity
  8
Predeterminado
 62
    18
420
        0
370
     9
100
AcDbLine
 10
81.4775312431082
 20
181.4645179159532
 30
0.0
 11
81.4775312431082
 21
181.6815473857071
 31
0.0
  0
LINE
  5
190
330
70
100
AcDbEntity
  8
Predeterminado
 62
    18
420
        0
370
     9
100
AcDbLine
 10
72.79635245295328
 20
181.4645179159532
 30
0.0
 11
72.79635245295328
 21
181.6815473857071
 31
0.0
  0
LINE
  5
191
330
70
100
AcDbEntity
  8
Predeterminado
 62
    18
420
        0
370
     9
100
AcDbLine
 10
81.4775312431082
 20
181.4645179159532
 30
0.0
 11
72.79635245295328
 21
181.4645179159532
 31
0.0
  0
CIRCLE
  5
192
330
70
100
AcDbEntity
  8
Predeterminado
 62
    18
420
        0
370
     9
100
AcDbCircle
 10
77.13694184803059
 20
178.3248249201804
 30
0.0
 40
0.7234315658462825
  0
CIRCLE
  5
193
330
70
100
AcDbEntity
  8
Predeterminado
 62
    18
420
        0
370
     9
100
AcDbCircle
 10
77.13694184803059
 20
174.9246965607032
 30
0.0
 40
0.9404610356001313
  0
LINE
  5
194
330
70
100
AcDbEntity
  8
Predeterminado
 62
    18
420
        0
370
     9
100
AcDbLine
 10
81.3328449299388
 20
181.7972964362425
 30
0.0
 11
72.94103876612236
 21
181.7972964362425
 31
0.0
  0
LINE
  5
195
330
70
100
AcDbEntity
  8
Predeterminado
 62
    18
420
        0
370
     9
100
AcDbLine
 10
81.3328449299388
 20
181.6815473857071
 30
0.0
 11
72.94103876612236
 21
181.6815473857071
 31
0.0
  0
LINE
  5
196
330
70
100
AcDbEntity
  8
Predeterminado
 62
    18
420
        0
370
     9
100
AcDbLine
 10
81.3328449299388
 20
181.6815473857071
 30
0.0
 11
81.3328449299388
 21
181.7972964362425
 31
0.0
  0
LINE
  5
197
330
70
100
AcDbEntity
  8
Predeterminado
 62
    18
420
        0
370
     9
100
AcDbLine
 10
72.94103876612236
 20
181.7972964362425
 30
0.0
 11
72.94103876612236
 21
181.6815473857071
 31
0.0
  0
LINE
  5
198
330
70
100
AcDbEntity
  8
Predeterminado
 62
    18
420
        0
370
     9
100
AcDbLine
 10
81.4775312431082
 20
181.6815473857071
 30
0.0
 11
81.3328449299388
 21
181.6815473857071
 31
0.0
  0
LINE
  5
199
330
70
100
AcDbEntity
  8
Predeterminado
 62
    18
420
        0
370
     9
100
AcDbLine
 10
72.94103876612236
 20
181.6815473857071
 30
0.0
 11
72.79635245295328
 21
181.6815473857071
 31
0.0
  0
LINE
  5
19A
330
70
100
AcDbEntity
  8
Predeterminado
 62
    18
420
        0
370
     9
100
AcDbLine
 10
72.79635245295328
 20
170.2947345392872
 30
0.0
 11
72.79635245295328
 21
181.4645179159532
 31
0.0
  0
LINE
  5
19B
330
70
100
AcDbEntity
  8
Predeterminado
 62
    18
420
        0
370
     9
100
AcDbLine
 10
72.79635245295328
 20
181.6815473857071
 30
0.0
 11
72.79635245295328
 21
181.7972964362425
 31
0.0
  0
LINE
  5
19C
330
70
100
AcDbEntity
  8
Predeterminado
 62
    18
420
        0
370
     9
100
AcDbLine
 10
81.3328449299388
 20
181.7972964362425
 30
0.0
 11
81.4775312431082
 21
181.7972964362425
 31
0.0
  0
LINE
  5
19D
330
70
100
AcDbEntity
  8
Predeterminado
 62
    18
420
        0
370
     9
100
AcDbLine
 10
72.79635245295328
 20
181.7972964362425
 30
0.0
 11
72.94103876612236
 21
181.7972964362425
 31
0.0
  0
LINE
  5
19E
330
70
100
AcDbEntity
  8
Predeterminado
 62
    18
420
        0
370
     9
100
AcDbLine
 10
81.4775312431082
 20
170.2947345392872
 30
0.0
 11
81.4775312431082
 21
181.4645179159532
 31
0.0
  0
LINE
  5
19F
330
70
100
AcDbEntity
  8
Predeterminado
 62
    18
420
        0
370
     9
100
AcDbLine
 10
81.4775312431082
 20
181.7972964362425
 30
0.0
 11
81.4775312431082
 21
181.6815473857071
 31
0.0
  0
LINE
  5
1A0
330
70
100
AcDbEntity
  8
Predeterminado
 62
    18
420
        0
370
     9
100
AcDbLine
 10
81.3328449299388
 20
170.1500482261178
 30
0.0
 11
72.94103876612236
 21
170.1500482261178
 31
0.0
  0
SPLINE
  5
1A1
330
70
100
AcDbEntity
  8
Predeterminado
 62
    18
420
        0
370
     9
100
AcDbSpline
210
0.0
220
0.0
230
1.0
 70
     8
 71
     3
 72
     8
 73
     4
 74
     0
 42
0.0000000001
 43
0.0000000001
 40
0.0
 40
0.0
 40
0.0
 40
0.0
 40
1.0
 40
1.0
 40
1.0
 40
1.0
 10
72.79635245295328
 20
170.2947345392872
 30
0.0
 10
72.79635245295328
 20
170.2148264950143
 30
0.0
 10
72.86113072184985
 20
170.1500482261178
 30
0.0
 10
72.94103876612236
 20
170.1500482261178
 30
0.0
  0
SPLINE
  5
1A2
330
70
100
AcDbEntity
  8
Predeterminado
 62
    18
420
        0
370
     9
100
AcDbSpline
210
0.0
220
0.0
230
1.0
 70
     8
 71
     3
 72
     8
 73
     4
 74
     0
 42
0.0000000001
 43
0.0000000001
 40
0.0
 40
0.0
 40
0.0
 40
0.0
 40
1.0
 40
1.0
 40
1.0
 40
1.0
 10
81.3328449299388
 20
170.1500482261178
 30
0.0
 10
81.41275297421131
 20
170.1500482261178
 30
0.0
 10
81.4775312431082
 20
170.2148264950143
 30
0.0
 10
81.4775312431082
 20
170.2947345392872
 30
0.0
  0
LINE
  5
1A3
330
70
100
AcDbEntity
  8
Predeterminado
 62
    18
420
        0
370
     9
100
AcDbLine
 10
102.5293898092345
 20
110.5334086137807
 30
0.0
 11
101.0825266775418
 21
110.5334086137807
 31
0.0
  0
LINE
  5
1A4
330
70
100
AcDbEntity
  8
Predeterminado
 62
    18
420
        0
370
     9
100
AcDbLine
 10
124.0876504714525
 20
102.7203477026412
 30
0.0
 11
125.5345136031452
 21
102.7203477026412
 31
0.0
  0
LINE
  5
1A5
330
70
100
AcDbEntity
  8
Predeterminado
 62
    18
420
        0
370
     9
100
AcDbLine
 10
124.9557683504682
 20
103.4437792684872
 30
0.0
 11
125.245140976807
 21
103.4437792684872
 31
0.0
  0
SPLINE
  5
1A6
330
70
100
AcDbEntity
  8
Predeterminado
 62
    18
420
        0
370
     9
100
AcDbSpline
210
0.0
220
0.0
230
1.0
 70
     8
 71
     3
 72
    11
 73
     7
 74
     0
 42
0.0000000001
 43
0.0000000001
 40
0.0
 40
0.0
 40
0.0
 40
0.0
 40
1.0
 40
1.0
 40
1.0
 40
2.0
 40
2.0
 40
2.0
 40
2.0
 10
125.245140976807
 20
103.0097203289793
 30
0.0
 10
125.3650030432158
 20
103.0097203289793
 30
0.0
 10
125.4621704465609
 20
103.1068877323245
 30
0.0
 10
125.4621704465609
 20
103.2267497987332
 30
0.0
 10
125.4621704465609
 20
103.346611865142
 30
0.0
 10
125.3650030432158
 20
103.4437792684872
 30
0.0
 10
125.245140976807
 20
103.4437792684872
 30
0.0
  0
LINE
  5
1A7
330
70
100
AcDbEntity
  8
Predeterminado
 62
    18
420
        0
370
     9
100
AcDbLine
 10
125.245140976807
 20
103.0097203289793
 30
0.0
 11
124.9557683504682
 21
103.0097203289793
 31
0.0
  0
SPLINE
  5
1A8
330
70
100
AcDbEntity
  8
Predeterminado
 62
    18
420
        0
370
     9
100
AcDbSpline
210
0.0
220
0.0
230
1.0
 70
     8
 71
     3
 72
    11
 73
     7
 74
     0
 42
0.0000000001
 43
0.0000000001
 40
0.0
 40
0.0
 40
0.0
 40
0.0
 40
1.0
 40
1.0
 40
1.0
 40
2.0
 40
2.0
 40
2.0
 40
2.0
 10
124.9557683504682
 20
103.4437792684872
 30
0.0
 10
124.8359062840594
 20
103.4437792684872
 30
0.0
 10
124.7387388807143
 20
103.346611865142
 30
0.0
 10
124.7387388807143
 20
103.2267497987332
 30
0.0
 10
124.7387388807143
 20
103.1068877323245
 30
0.0
 10
124.8359062840594
 20
103.0097203289793
 30
0.0
 10
124.9557683504682
 20
103.0097203289793
 30
0.0
  0
LINE
  5
1A9
330
70
100
AcDbEntity
  8
Predeterminado
 62
    18
420
        0
370
     9
100
AcDbLine
 10
101.6612719302187
 20
110.2440359874419
 30
0.0
 11
101.3718993038803
 21
110.2440359874419
 31
0.0
  0
SPLINE
  5
1AA
330
70
100
AcDbEntity
  8
Predeterminado
 62
    18
420
        0
370
     9
100
AcDbSpline
210
0.0
220
0.0
230
1.0
 70
     8
 71
     3
 72
    11
 73
     7
 74
     0
 42
0.0000000001
 43
0.0000000001
 40
0.0
 40
0.0
 40
0.0
 40
0.0
 40
1.0
 40
1.0
 40
1.0
 40
2.0
 40
2.0
 40
2.0
 40
2.0
 10
101.3718993038803
 20
110.2440359874419
 30
0.0
 10
101.2520372374715
 20
110.2440359874419
 30
0.0
 10
101.1548698341264
 20
110.1468685840967
 30
0.0
 10
101.1548698341264
 20
110.0270065176886
 30
0.0
 10
101.1548698341264
 20
109.9071444512792
 30
0.0
 10
101.2520372374715
 20
109.8099770479347
 30
0.0
 10
101.3718993038803
 20
109.8099770479347
 30
0.0
  0
LINE
  5
1AB
330
70
100
AcDbEntity
  8
Predeterminado
 62
    18
420
        0
370
     9
100
AcDbLine
 10
101.3718993038803
 20
109.8099770479347
 30
0.0
 11
101.6612719302187
 21
109.8099770479347
 31
0.0
  0
SPLINE
  5
1AC
330
70
100
AcDbEntity
  8
Predeterminado
 62
    18
420
        0
370
     9
100
AcDbSpline
210
0.0
220
0.0
230
1.0
 70
     8
 71
     3
 72
    11
 73
     7
 74
     0
 42
0.0000000001
 43
0.0000000001
 40
0.0
 40
0.0
 40
0.0
 40
0.0
 40
1.0
 40
1.0
 40
1.0
 40
2.0
 40
2.0
 40
2.0
 40
2.0
 10
101.6612719302187
 20
109.8099770479347
 30
0.0
 10
101.7811339966278
 20
109.8099770479347
 30
0.0
 10
101.8783013999727
 20
109.9071444512792
 30
0.0
 10
101.8783013999727
 20
110.0270065176886
 30
0.0
 10
101.8783013999727
 20
110.1468685840967
 30
0.0
 10
101.7811339966278
 20
110.2440359874419
 30
0.0
 10
101.6612719302187
 20
110.2440359874419
 30
0.0
  0
LINE
  5
1AD
330
70
100
AcDbEntity
  8
Predeterminado
 62
    18
420
        0
370
     9
100
AcDbLine
 10
105.2928983907675
 20
102.7203477026412
 30
0.0
 11
105.27842975945
 21
102.7203477026412
 31
0.0
  0
LINE
  5
1AE
330
70
100
AcDbEntity
  8
Predeterminado
 62
    18
420
        0
370
     9
100
AcDbLine
 10
105.27842975945
 20
110.5334086137807
 30
0.0
 11
105.2928983907675
 21
110.5334086137807
 31
0.0
  0
LINE
  5
1AF
330
70
100
AcDbEntity
  8
Predeterminado
 62
    18
420
        0
370
     9
100
AcDbLine
 10
121.3386105212369
 20
110.5334086137807
 30
0.0
 11
121.3241418899201
 21
110.5334086137807
 31
0.0
  0
LINE
  5
1B0
330
70
100
AcDbEntity
  8
Predeterminado
 62
    18
420
        0
370
     9
100
AcDbLine
 10
121.3241418899201
 20
102.7203477026412
 30
0.0
 11
121.3386105212369
 21
102.7203477026412
 31
0.0
  0
LINE
  5
1B1
330
70
100
AcDbEntity
  8
Predeterminado
 62
    18
420
        0
370
     9
100
AcDbLine
 10
102.5293898092345
 20
110.5334086137807
 30
0.0
 11
105.27842975945
 21
110.5334086137807
 31
0.0
  0
LINE
  5
1B2
330
70
100
AcDbEntity
  8
Predeterminado
 62
    18
420
        0
370
     9
100
AcDbLine
 10
105.27842975945
 20
102.8650340158102
 30
0.0
 11
105.27842975945
 21
110.3887223006116
 31
0.0
  0
LINE
  5
1B3
330
70
100
AcDbEntity
  8
Predeterminado
 62
    18
420
        0
370
     9
100
AcDbLine
 10
105.27842975945
 20
102.8650340158102
 30
0.0
 11
105.27842975945
 21
102.7203477026412
 31
0.0
  0
LINE
  5
1B4
330
70
100
AcDbEntity
  8
Predeterminado
 62
    18
420
        0
370
     9
100
AcDbLine
 10
105.27842975945
 20
110.5334086137807
 30
0.0
 11
105.27842975945
 21
110.3887223006116
 31
0.0
  0
LINE
  5
1B5
330
70
100
AcDbEntity
  8
Predeterminado
 62
    18
420
        0
370
     9
100
AcDbLine
 10
101.0825266775418
 20
102.8650340158102
 30
0.0
 11
105.27842975945
 21
102.8650340158102
 31
0.0
  0
LINE
  5
1B6
330
70
100
AcDbEntity
  8
Predeterminado
 62
    18
420
        0
370
     9
100
AcDbLine
 10
101.0825266775418
 20
108.941859168919
 30
0.0
 11
101.0825266775418
 21
102.8650340158102
 31
0.0
  0
LINE
  5
1B7
330
70
100
AcDbEntity
  8
Predeterminado
 62
    18
420
        0
370
     9
100
AcDbLine
 10
101.6612719302187
 20
108.941859168919
 30
0.0
 11
101.0825266775418
 21
108.941859168919
 31
0.0
  0
SPLINE
  5
1B8
330
70
100
AcDbEntity
  8
Predeterminado
 62
    18
420
        0
370
     9
100
AcDbSpline
210
0.0
220
0.0
230
1.0
 70
     8
 71
     3
 72
     8
 73
     4
 74
     0
 42
0.0000000001
 43
0.0000000001
 40
0.0
 40
0.0
 40
0.0
 40
0.0
 40
1.0
 40
1.0
 40
1.0
 40
1.0
 10
101.6612719302187
 20
108.941859168919
 30
0.0
 10
102.1407201958545
 20
108.941859168919
 30
0.0
 10
102.5293898092345
 20
109.3305287822989
 30
0.0
 10
102.5293898092345
 20
109.8099770479347
 30
0.0
  0
LINE
  5
1B9
330
70
100
AcDbEntity
  8
Predeterminado
 62
    18
420
        0
370
     9
100
AcDbLine
 10
102.5293898092345
 20
110.3887223006116
 30
0.0
 11
102.5293898092345
 21
109.8099770479347
 31
0.0
  0
LINE
  5
1BA
330
70
100
AcDbEntity
  8
Predeterminado
 62
    18
420
        0
370
     9
100
AcDbLine
 10
105.27842975945
 20
110.3887223006116
 30
0.0
 11
102.5293898092345
 21
110.3887223006116
 31
0.0
  0
LINE
  5
1BB
330
70
100
AcDbEntity
  8
Predeterminado
 62
    18
420
        0
370
     9
100
AcDbLine
 10
102.3847034960651
 20
109.8099770479347
 30
0.0
 11
102.3847034960651
 21
110.3887223006116
 31
0.0
  0
SPLINE
  5
1BC
330
70
100
AcDbEntity
  8
Predeterminado
 62
    18
420
        0
370
     9
100
AcDbSpline
210
0.0
220
0.0
230
1.0
 70
     8
 71
     3
 72
     8
 73
     4
 74
     0
 42
0.0000000001
 43
0.0000000001
 40
0.0
 40
0.0
 40
0.0
 40
0.0
 40
1.0
 40
1.0
 40
1.0
 40
1.0
 10
101.6612719302187
 20
109.086545482088
 30
0.0
 10
102.060812151582
 20
109.086545482088
 30
0.0
 10
102.3847034960651
 20
109.4104368265714
 30
0.0
 10
102.3847034960651
 20
109.8099770479347
 30
0.0
  0
LINE
  5
1BD
330
70
100
AcDbEntity
  8
Predeterminado
 62
    18
420
        0
370
     9
100
AcDbLine
 10
101.0825266775418
 20
109.086545482088
 30
0.0
 11
101.6612719302187
 21
109.086545482088
 31
0.0
  0
LINE
  5
1BE
330
70
100
AcDbEntity
  8
Predeterminado
 62
    18
420
        0
370
     9
100
AcDbLine
 10
100.9378403643724
 20
102.8650340158102
 30
0.0
 11
100.9378403643724
 21
108.941859168919
 31
0.0
  0
LINE
  5
1BF
330
70
100
AcDbEntity
  8
Predeterminado
 62
    18
420
        0
370
     9
100
AcDbLine
 10
105.27842975945
 20
102.7203477026412
 30
0.0
 11
101.0825266775418
 21
102.7203477026412
 31
0.0
  0
LINE
  5
1C0
330
70
100
AcDbEntity
  8
Predeterminado
 62
    18
420
        0
370
     9
100
AcDbLine
 10
101.0825266775418
 20
102.7203477026412
 30
0.0
 11
101.0825266775418
 21
102.8650340158102
 31
0.0
  0
SPLINE
  5
1C1
330
70
100
AcDbEntity
  8
Predeterminado
 62
    18
420
        0
370
     9
100
AcDbSpline
210
0.0
220
0.0
230
1.0
 70
     8
 71
     3
 72
     8
 73
     4
 74
     0
 42
0.0000000001
 43
0.0000000001
 40
0.0
 40
0.0
 40
0.0
 40
0.0
 40
1.0
 40
1.0
 40
1.0
 40
1.0
 10
100.9378403643724
 20
102.8650340158102
 30
0.0
 10
100.9378403643724
 20
102.7851259715377
 30
0.0
 10
101.002618633269
 20
102.7203477026412
 30
0.0
 10
101.0825266775418
 20
102.7203477026412
 30
0.0
  0
LINE
  5
1C2
330
70
100
AcDbEntity
  8
Predeterminado
 62
    18
420
        0
370
     9
100
AcDbLine
 10
100.9378403643724
 20
102.8650340158102
 30
0.0
 11
101.0825266775418
 21
102.8650340158102
 31
0.0
  0
LINE
  5
1C3
330
70
100
AcDbEntity
  8
Predeterminado
 62
    18
420
        0
370
     9
100
AcDbLine
 10
100.9378403643724
 20
108.941859168919
 30
0.0
 11
101.0825266775418
 21
108.941859168919
 31
0.0
  0
SPLINE
  5
1C4
330
70
100
AcDbEntity
  8
Predeterminado
 62
    18
420
        0
370
     9
100
AcDbSpline
210
0.0
220
0.0
230
1.0
 70
     8
 71
     3
 72
     8
 73
     4
 74
     0
 42
0.0000000001
 43
0.0000000001
 40
0.0
 40
0.0
 40
0.0
 40
0.0
 40
1.0
 40
1.0
 40
1.0
 40
1.0
 10
101.0825266775418
 20
109.086545482088
 30
0.0
 10
101.002618633269
 20
109.086545482088
 30
0.0
 10
100.9378403643724
 20
109.0217672131915
 30
0.0
 10
100.9378403643724
 20
108.941859168919
 30
0.0
  0
LINE
  5
1C5
330
70
100
AcDbEntity
  8
Predeterminado
 62
    18
420
        0
370
     9
100
AcDbLine
 10
101.0825266775418
 20
109.086545482088
 30
0.0
 11
101.0825266775418
 21
108.941859168919
 31
0.0
  0
LINE
  5
1C6
330
70
100
AcDbEntity
  8
Predeterminado
 62
    18
420
        0
370
     9
100
AcDbLine
 10
101.6612719302187
 20
109.086545482088
 30
0.0
 11
101.6612719302187
 21
108.941859168919
 31
0.0
  0
LINE
  5
1C7
330
70
100
AcDbEntity
  8
Predeterminado
 62
    18
420
        0
370
     9
100
AcDbLine
 10
102.3847034960651
 20
109.8099770479347
 30
0.0
 11
102.5293898092345
 21
109.8099770479347
 31
0.0
  0
LINE
  5
1C8
330
70
100
AcDbEntity
  8
Predeterminado
 62
    18
420
        0
370
     9
100
AcDbLine
 10
102.3847034960651
 20
110.3887223006116
 30
0.0
 11
102.5293898092345
 21
110.3887223006116
 31
0.0
  0
SPLINE
  5
1C9
330
70
100
AcDbEntity
  8
Predeterminado
 62
    18
420
        0
370
     9
100
AcDbSpline
210
0.0
220
0.0
230
1.0
 70
     8
 71
     3
 72
     8
 73
     4
 74
     0
 42
0.0000000001
 43
0.0000000001
 40
0.0
 40
0.0
 40
0.0
 40
0.0
 40
1.0
 40
1.0
 40
1.0
 40
1.0
 10
102.5293898092345
 20
110.5334086137807
 30
0.0
 10
102.4494817649616
 20
110.5334086137807
 30
0.0
 10
102.3847034960651
 20
110.4686303448841
 30
0.0
 10
102.3847034960651
 20
110.3887223006116
 30
0.0
  0
LINE
  5
1CA
330
70
100
AcDbEntity
  8
Predeterminado
 62
    18
420
        0
370
     9
100
AcDbLine
 10
102.5293898092345
 20
110.5334086137807
 30
0.0
 11
102.5293898092345
 21
110.3887223006116
 31
0.0
  0
LINE
  5
1CB
330
70
100
AcDbEntity
  8
Predeterminado
 62
    18
420
        0
370
     9
100
AcDbLine
 10
105.2928983907675
 20
110.5334086137807
 30
0.0
 11
121.3241418899201
 21
110.5334086137807
 31
0.0
  0
LINE
  5
1CC
330
70
100
AcDbEntity
  8
Predeterminado
 62
    18
420
        0
370
     9
100
AcDbLine
 10
121.3241418899201
 20
110.3887223006116
 30
0.0
 11
121.3241418899201
 21
102.8650340158102
 31
0.0
  0
LINE
  5
1CD
330
70
100
AcDbEntity
  8
Predeterminado
 62
    18
420
        0
370
     9
100
AcDbLine
 10
121.3241418899201
 20
110.5334086137807
 30
0.0
 11
121.3241418899201
 21
110.3887223006116
 31
0.0
  0
LINE
  5
1CE
330
70
100
AcDbEntity
  8
Predeterminado
 62
    18
420
        0
370
     9
100
AcDbLine
 10
105.2928983907675
 20
110.3887223006116
 30
0.0
 11
105.2928983907675
 21
102.8650340158102
 31
0.0
  0
LINE
  5
1CF
330
70
100
AcDbEntity
  8
Predeterminado
 62
    18
420
        0
370
     9
100
AcDbLine
 10
121.3241418899201
 20
110.3887223006116
 30
0.0
 11
105.2928983907675
 21
110.3887223006116
 31
0.0
  0
LINE
  5
1D0
330
70
100
AcDbEntity
  8
Predeterminado
 62
    18
420
        0
370
     9
100
AcDbLine
 10
105.2928983907675
 20
110.3887223006116
 30
0.0
 11
105.2928983907675
 21
110.5334086137807
 31
0.0
  0
LINE
  5
1D1
330
70
100
AcDbEntity
  8
Predeterminado
 62
    18
420
        0
370
     9
100
AcDbLine
 10
124.0876504714525
 20
102.7203477026412
 30
0.0
 11
121.3386105212369
 21
102.7203477026412
 31
0.0
  0
LINE
  5
1D2
330
70
100
AcDbEntity
  8
Predeterminado
 62
    18
420
        0
370
     9
100
AcDbLine
 10
121.3386105212369
 20
102.8650340158102
 30
0.0
 11
121.3386105212369
 21
110.3887223006116
 31
0.0
  0
LINE
  5
1D3
330
70
100
AcDbEntity
  8
Predeterminado
 62
    18
420
        0
370
     9
100
AcDbLine
 10
121.3386105212369
 20
110.3887223006116
 30
0.0
 11
121.3386105212369
 21
110.5334086137807
 31
0.0
  0
LINE
  5
1D4
330
70
100
AcDbEntity
  8
Predeterminado
 62
    18
420
        0
370
     9
100
AcDbLine
 10
121.3386105212369
 20
102.7203477026412
 30
0.0
 11
121.3386105212369
 21
102.8650340158102
 31
0.0
  0
LINE
  5
1D5
330
70
100
AcDbEntity
  8
Predeterminado
 62
    18
420
        0
370
     9
100
AcDbLine
 10
125.5345136031452
 20
110.3887223006116
 30
0.0
 11
121.3386105212369
 21
110.3887223006116
 31
0.0
  0
LINE
  5
1D6
330
70
100
AcDbEntity
  8
Predeterminado
 62
    18
420
        0
370
     9
100
AcDbLine
 10
125.5345136031452
 20
104.3118971475029
 30
0.0
 11
125.5345136031452
 21
110.3887223006116
 31
0.0
  0
LINE
  5
1D7
330
70
100
AcDbEntity
  8
Predeterminado
 62
    18
420
        0
370
     9
100
AcDbLine
 10
124.9557683504682
 20
104.3118971475029
 30
0.0
 11
125.5345136031452
 21
104.3118971475029
 31
0.0
  0
SPLINE
  5
1D8
330
70
100
AcDbEntity
  8
Predeterminado
 62
    18
420
        0
370
     9
100
AcDbSpline
210
0.0
220
0.0
230
1.0
 70
     8
 71
     3
 72
     8
 73
     4
 74
     0
 42
0.0000000001
 43
0.0000000001
 40
0.0
 40
0.0
 40
0.0
 40
0.0
 40
1.0
 40
1.0
 40
1.0
 40
1.0
 10
124.9557683504682
 20
104.3118971475029
 30
0.0
 10
124.4763200848325
 20
104.3118971475029
 30
0.0
 10
124.0876504714525
 20
103.9232275341229
 30
0.0
 10
124.0876504714525
 20
103.4437792684872
 30
0.0
  0
LINE
  5
1D9
330
70
100
AcDbEntity
  8
Predeterminado
 62
    18
420
        0
370
     9
100
AcDbLine
 10
124.0876504714525
 20
102.8650340158102
 30
0.0
 11
124.0876504714525
 21
103.4437792684872
 31
0.0
  0
LINE
  5
1DA
330
70
100
AcDbEntity
  8
Predeterminado
 62
    18
420
        0
370
     9
100
AcDbLine
 10
121.3386105212369
 20
102.8650340158102
 30
0.0
 11
124.0876504714525
 21
102.8650340158102
 31
0.0
  0
LINE
  5
1DB
330
70
100
AcDbEntity
  8
Predeterminado
 62
    18
420
        0
370
     9
100
AcDbLine
 10
124.2323367846222
 20
103.4437792684872
 30
0.0
 11
124.2323367846222
 21
102.8650340158102
 31
0.0
  0
SPLINE
  5
1DC
330
70
100
AcDbEntity
  8
Predeterminado
 62
    18
420
        0
370
     9
100
AcDbSpline
210
0.0
220
0.0
230
1.0
 70
     8
 71
     3
 72
     8
 73
     4
 74
     0
 42
0.0000000001
 43
0.0000000001
 40
0.0
 40
0.0
 40
0.0
 40
0.0
 40
1.0
 40
1.0
 40
1.0
 40
1.0
 10
124.9557683504682
 20
104.1672108343332
 30
0.0
 10
124.556228129105
 20
104.1672108343332
 30
0.0
 10
124.2323367846222
 20
103.8433194898504
 30
0.0
 10
124.2323367846222
 20
103.4437792684872
 30
0.0
  0
LINE
  5
1DD
330
70
100
AcDbEntity
  8
Predeterminado
 62
    18
420
        0
370
     9
100
AcDbLine
 10
125.5345136031452
 20
104.1672108343332
 30
0.0
 11
124.9557683504682
 21
104.1672108343332
 31
0.0
  0
LINE
  5
1DE
330
70
100
AcDbEntity
  8
Predeterminado
 62
    18
420
        0
370
     9
100
AcDbLine
 10
125.6791999163142
 20
110.3887223006116
 30
0.0
 11
125.6791999163142
 21
104.3118971475029
 31
0.0
  0
LINE
  5
1DF
330
70
100
AcDbEntity
  8
Predeterminado
 62
    18
420
        0
370
     9
100
AcDbLine
 10
121.3386105212369
 20
110.5334086137807
 30
0.0
 11
125.5345136031452
 21
110.5334086137807
 31
0.0
  0
LINE
  5
1E0
330
70
100
AcDbEntity
  8
Predeterminado
 62
    18
420
        0
370
     9
100
AcDbLine
 10
125.5345136031452
 20
110.5334086137807
 30
0.0
 11
125.5345136031452
 21
110.3887223006116
 31
0.0
  0
SPLINE
  5
1E1
330
70
100
AcDbEntity
  8
Predeterminado
 62
    18
420
        0
370
     9
100
AcDbSpline
210
0.0
220
0.0
230
1.0
 70
     8
 71
     3
 72
     8
 73
     4
 74
     0
 42
0.0000000001
 43
0.0000000001
 40
0.0
 40
0.0
 40
0.0
 40
0.0
 40
1.0
 40
1.0
 40
1.0
 40
1.0
 10
125.6791999163142
 20
110.3887223006116
 30
0.0
 10
125.6791999163142
 20
110.4686303448841
 30
0.0
 10
125.6144216474183
 20
110.5334086137807
 30
0.0
 10
125.5345136031452
 20
110.5334086137807
 30
0.0
  0
LINE
  5
1E2
330
70
100
AcDbEntity
  8
Predeterminado
 62
    18
420
        0
370
     9
100
AcDbLine
 10
125.6791999163142
 20
110.3887223006116
 30
0.0
 11
125.5345136031452
 21
110.3887223006116
 31
0.0
  0
LINE
  5
1E3
330
70
100
AcDbEntity
  8
Predeterminado
 62
    18
420
        0
370
     9
100
AcDbLine
 10
125.6791999163142
 20
104.3118971475029
 30
0.0
 11
125.5345136031452
 21
104.3118971475029
 31
0.0
  0
SPLINE
  5
1E4
330
70
100
AcDbEntity
  8
Predeterminado
 62
    18
420
        0
370
     9
100
AcDbSpline
210
0.0
220
0.0
230
1.0
 70
     8
 71
     3
 72
     8
 73
     4
 74
     0
 42
0.0000000001
 43
0.0000000001
 40
0.0
 40
0.0
 40
0.0
 40
0.0
 40
1.0
 40
1.0
 40
1.0
 40
1.0
 10
125.5345136031452
 20
104.1672108343332
 30
0.0
 10
125.6144216474183
 20
104.1672108343332
 30
0.0
 10
125.6791999163142
 20
104.2319891032304
 30
0.0
 10
125.6791999163142
 20
104.3118971475029
 30
0.0
  0
LINE
  5
1E5
330
70
100
AcDbEntity
  8
Predeterminado
 62
    18
420
        0
370
     9
100
AcDbLine
 10
125.5345136031452
 20
104.1672108343332
 30
0.0
 11
125.5345136031452
 21
104.3118971475029
 31
0.0
  0
LINE
  5
1E6
330
70
100
AcDbEntity
  8
Predeterminado
 62
    18
420
        0
370
     9
100
AcDbLine
 10
124.9557683504682
 20
104.1672108343332
 30
0.0
 11
124.9557683504682
 21
104.3118971475029
 31
0.0
  0
LINE
  5
1E7
330
70
100
AcDbEntity
  8
Predeterminado
 62
    18
420
        0
370
     9
100
AcDbLine
 10
124.2323367846222
 20
103.4437792684872
 30
0.0
 11
124.0876504714525
 21
103.4437792684872
 31
0.0
  0
LINE
  5
1E8
330
70
100
AcDbEntity
  8
Predeterminado
 62
    18
420
        0
370
     9
100
AcDbLine
 10
124.2323367846222
 20
102.8650340158102
 30
0.0
 11
124.0876504714525
 21
102.8650340158102
 31
0.0
  0
SPLINE
  5
1E9
330
70
100
AcDbEntity
  8
Predeterminado
 62
    18
420
        0
370
     9
100
AcDbSpline
210
0.0
220
0.0
230
1.0
 70
     8
 71
     3
 72
     8
 73
     4
 74
     0
 42
0.0000000001
 43
0.0000000001
 40
0.0
 40
0.0
 40
0.0
 40
0.0
 40
1.0
 40
1.0
 40
1.0
 40
1.0
 10
124.0876504714525
 20
102.7203477026412
 30
0.0
 10
124.167558515725
 20
102.7203477026412
 30
0.0
 10
124.2323367846222
 20
102.7851259715377
 30
0.0
 10
124.2323367846222
 20
102.8650340158102
 30
0.0
  0
LINE
  5
1EA
330
70
100
AcDbEntity
  8
Predeterminado
 62
    18
420
        0
370
     9
100
AcDbLine
 10
124.0876504714525
 20
102.7203477026412
 30
0.0
 11
124.0876504714525
 21
102.8650340158102
 31
0.0
  0
LINE
  5
1EB
330
70
100
AcDbEntity
  8
Predeterminado
 62
    18
420
        0
370
     9
100
AcDbLine
 10
121.3241418899201
 20
102.7203477026412
 30
0.0
 11
105.2928983907675
 21
102.7203477026412
 31
0.0
  0
LINE
  5
1EC
330
70
100
AcDbEntity
  8
Predeterminado
 62
    18
420
        0
370
     9
100
AcDbLine
 10
105.2928983907675
 20
102.7203477026412
 30
0.0
 11
105.2928983907675
 21
102.8650340158102
 31
0.0
  0
LINE
  5
1ED
330
70
100
AcDbEntity
  8
Predeterminado
 62
    18
420
        0
370
     9
100
AcDbLine
 10
105.2928983907675
 20
102.8650340158102
 30
0.0
 11
121.3241418899201
 21
102.8650340158102
 31
0.0
  0
LINE
  5
1EE
330
70
100
AcDbEntity
  8
Predeterminado
 62
    18
420
        0
370
     9
100
AcDbLine
 10
121.3241418899201
 20
102.8650340158102
 30
0.0
 11
121.3241418899201
 21
102.7203477026412
 31
0.0
  0
LINE
  5
1EF
330
70
100
AcDbEntity
  8
Predeterminado
 62
    18
420
        0
370
     9
100
AcDbLine
 10
100.9378403643724
 20
110.3887223006116
 30
0.0
 11
100.9378403643724
 21
108.941859168919
 31
0.0
  0
SPLINE
  5
1F0
330
70
100
AcDbEntity
  8
Predeterminado
 62
    18
420
        0
370
     9
100
AcDbSpline
210
0.0
220
0.0
230
1.0
 70
     8
 71
     3
 72
     8
 73
     4
 74
     0
 42
0.0000000001
 43
0.0000000001
 40
0.0
 40
0.0
 40
0.0
 40
0.0
 40
1.0
 40
1.0
 40
1.0
 40
1.0
 10
101.0825266775418
 20
110.5334086137807
 30
0.0
 10
101.002618633269
 20
110.5334086137807
 30
0.0
 10
100.9378403643724
 20
110.4686303448841
 30
0.0
 10
100.9378403643724
 20
110.3887223006116
 30
0.0
  0
LINE
  5
1F1
330
70
100
AcDbEntity
  8
Predeterminado
 62
    18
420
        0
370
     9
100
AcDbLine
 10
125.6791999163142
 20
102.8650340158102
 30
0.0
 11
125.6791999163142
 21
104.3118971475029
 31
0.0
  0
SPLINE
  5
1F2
330
70
100
AcDbEntity
  8
Predeterminado
 62
    18
420
        0
370
     9
100
AcDbSpline
210
0.0
220
0.0
230
1.0
 70
     8
 71
     3
 72
     8
 73
     4
 74
     0
 42
0.0000000001
 43
0.0000000001
 40
0.0
 40
0.0
 40
0.0
 40
0.0
 40
1.0
 40
1.0
 40
1.0
 40
1.0
 10
125.5345136031452
 20
102.7203477026412
 30
0.0
 10
125.6144216474183
 20
102.7203477026412
 30
0.0
 10
125.6791999163142
 20
102.7851259715377
 30
0.0
 10
125.6791999163142
 20
102.8650340158102
 30
0.0
  0
LINE
  5
1F3
330
70
100
AcDbEntity
  8
Predeterminado
 62
    18
420
        0
370
     9
100
AcDbLine
 10
153.8206878277337
 20
181.4645179159532
 30
0.0
 11
153.8206878277337
 21
181.6815473857071
 31
0.0
  0
LINE
  5
1F4
330
70
100
AcDbEntity
  8
Predeterminado
 62
    18
420
        0
370
     9
100
AcDbLine
 10
145.1395090375791
 20
181.4645179159532
 30
0.0
 11
145.1395090375791
 21
181.6815473857071
 31
0.0
  0
LINE
  5
1F5
330
70
100
AcDbEntity
  8
Predeterminado
 62
    18
420
        0
370
     9
100
AcDbLine
 10
153.8206878277337
 20
181.4645179159532
 30
0.0
 11
145.1395090375791
 21
181.4645179159532
 31
0.0
  0
CIRCLE
  5
1F6
330
70
100
AcDbEntity
  8
Predeterminado
 62
    18
420
        0
370
     9
100
AcDbCircle
 10
149.4800984326566
 20
178.3248249201804
 30
0.0
 40
0.7234315658462024
  0
CIRCLE
  5
1F7
330
70
100
AcDbEntity
  8
Predeterminado
 62
    18
420
        0
370
     9
100
AcDbCircle
 10
149.4800984326564
 20
174.9246965607032
 30
0.0
 40
0.9404610356002914
  0
LINE
  5
1F8
330
70
100
AcDbEntity
  8
Predeterminado
 62
    18
420
        0
370
     9
100
AcDbLine
 10
153.6760015145646
 20
181.7972964362425
 30
0.0
 11
145.2841953507482
 21
181.7972964362425
 31
0.0
  0
LINE
  5
1F9
330
70
100
AcDbEntity
  8
Predeterminado
 62
    18
420
        0
370
     9
100
AcDbLine
 10
153.6760015145646
 20
181.6815473857071
 30
0.0
 11
145.2841953507482
 21
181.6815473857071
 31
0.0
  0
LINE
  5
1FA
330
70
100
AcDbEntity
  8
Predeterminado
 62
    18
420
        0
370
     9
100
AcDbLine
 10
153.6760015145646
 20
181.6815473857071
 30
0.0
 11
153.6760015145646
 21
181.7972964362425
 31
0.0
  0
LINE
  5
1FB
330
70
100
AcDbEntity
  8
Predeterminado
 62
    18
420
        0
370
     9
100
AcDbLine
 10
145.2841953507482
 20
181.7972964362425
 30
0.0
 11
145.2841953507482
 21
181.6815473857071
 31
0.0
  0
LINE
  5
1FC
330
70
100
AcDbEntity
  8
Predeterminado
 62
    18
420
        0
370
     9
100
AcDbLine
 10
153.8206878277337
 20
181.6815473857071
 30
0.0
 11
153.6760015145646
 21
181.6815473857071
 31
0.0
  0
LINE
  5
1FD
330
70
100
AcDbEntity
  8
Predeterminado
 62
    18
420
        0
370
     9
100
AcDbLine
 10
145.2841953507482
 20
181.6815473857071
 30
0.0
 11
145.1395090375791
 21
181.6815473857071
 31
0.0
  0
LINE
  5
1FE
330
70
100
AcDbEntity
  8
Predeterminado
 62
    18
420
        0
370
     9
100
AcDbLine
 10
145.1395090375791
 20
170.2947345392872
 30
0.0
 11
145.1395090375791
 21
181.4645179159532
 31
0.0
  0
LINE
  5
1FF
330
70
100
AcDbEntity
  8
Predeterminado
 62
    18
420
        0
370
     9
100
AcDbLine
 10
145.1395090375791
 20
181.6815473857071
 30
0.0
 11
145.1395090375791
 21
181.7972964362425
 31
0.0
  0
LINE
  5
200
330
70
100
AcDbEntity
  8
Predeterminado
 62
    18
420
        0
370
     9
100
AcDbLine
 10
153.6760015145646
 20
181.7972964362425
 30
0.0
 11
153.8206878277343
 21
181.7972964362425
 31
0.0
  0
LINE
  5
201
330
70
100
AcDbEntity
  8
Predeterminado
 62
    18
420
        0
370
     9
100
AcDbLine
 10
145.1395090375791
 20
181.7972964362425
 30
0.0
 11
145.2841953507482
 21
181.7972964362425
 31
0.0
  0
LINE
  5
202
330
70
100
AcDbEntity
  8
Predeterminado
 62
    18
420
        0
370
     9
100
AcDbLine
 10
153.8206878277337
 20
170.2947345392872
 30
0.0
 11
153.8206878277337
 21
181.4645179159532
 31
0.0
  0
LINE
  5
203
330
70
100
AcDbEntity
  8
Predeterminado
 62
    18
420
        0
370
     9
100
AcDbLine
 10
153.8206878277337
 20
181.7972964362425
 30
0.0
 11
153.8206878277337
 21
181.6815473857071
 31
0.0
  0
LINE
  5
204
330
70
100
AcDbEntity
  8
Predeterminado
 62
    18
420
        0
370
     9
100
AcDbLine
 10
153.6760015145646
 20
170.1500482261178
 30
0.0
 11
145.2841953507482
 21
170.1500482261178
 31
0.0
  0
SPLINE
  5
205
330
70
100
AcDbEntity
  8
Predeterminado
 62
    18
420
        0
370
     9
100
AcDbSpline
210
0.0
220
0.0
230
1.0
 70
     8
 71
     3
 72
     8
 73
     4
 74
     0
 42
0.0000000001
 43
0.0000000001
 40
0.0
 40
0.0
 40
0.0
 40
0.0
 40
1.0
 40
1.0
 40
1.0
 40
1.0
 10
145.1395090375791
 20
170.2947345392872
 30
0.0
 10
145.1395090375791
 20
170.2148264950143
 30
0.0
 10
145.2042873064757
 20
170.1500482261178
 30
0.0
 10
145.2841953507482
 20
170.1500482261178
 30
0.0
  0
SPLINE
  5
206
330
70
100
AcDbEntity
  8
Predeterminado
 62
    18
420
        0
370
     9
100
AcDbSpline
210
0.0
220
0.0
230
1.0
 70
     8
 71
     3
 72
     8
 73
     4
 74
     0
 42
0.0000000001
 43
0.0000000001
 40
0.0
 40
0.0
 40
0.0
 40
0.0
 40
1.0
 40
1.0
 40
1.0
 40
1.0
 10
153.6760015145646
 20
170.1500482261178
 30
0.0
 10
153.7559095588378
 20
170.1500482261178
 30
0.0
 10
153.8206878277343
 20
170.2148264950143
 30
0.0
 10
153.8206878277343
 20
170.2947345392872
 30
0.0
  0
INSERT
  5
208
330
70
100
AcDbEntity
  8
Predeterminado
100
AcDbBlockReference
  2
Block_0
 10
0.0
 20
0.0
 30
0.0
  0
INSERT
  5
214
330
70
100
AcDbEntity
  8
Predeterminado
100
AcDbBlockReference
  2
Block_1
 10
0.0
 20
0.0
 30
0.0
  0
INSERT
  5
220
330
70
100
AcDbEntity
  8
Predeterminado
100
AcDbBlockReference
  2
Block_2
 10
0.0
 20
0.0
 30
0.0
  0
ENDSEC
  0
SECTION
  2
OBJECTS
  0
DICTIONARY
  5
C
330
0
100
AcDbDictionary
281
     1
  3
ACAD_COLOR
350
63
  3
ACAD_DETAILVIEWSTYLE
350
6A
  3
ACAD_GROUP
350
D
  3
ACAD_LAYOUT
350
62
  3
ACAD_MATERIAL
350
10
  3
ACAD_MLEADERSTYLE
350
66
  3
ACAD_MLINESTYLE
350
5F
  3
ACAD_PLOTSETTINGS
350
61
  3
ACAD_PLOTSTYLENAME
350
E
  3
ACAD_SCALELIST
350
42
  3
ACAD_SECTIONVIEWSTYLE
350
68
  3
ACAD_TABLESTYLE
350
64
  3
ACAD_VISUALSTYLE
350
29
  3
ACDB_RECOMPOSE_DATA
350
234
  3
AcDbVariableDictionary
350
22B
  0
DICTIONARY
  5
63
102
{ACAD_REACTORS
330
C
102
}
330
C
100
AcDbDictionary
281
     1
  0
DICTIONARY
  5
6A
102
{ACAD_REACTORS
330
C
102
}
330
C
100
AcDbDictionary
281
     1
  3
Imperial24
350
6B
  0
DICTIONARY
  5
D
102
{ACAD_REACTORS
330
C
102
}
330
C
100
AcDbDictionary
281
     1
  0
DICTIONARY
  5
62
102
{ACAD_REACTORS
330
C
102
}
330
C
100
AcDbDictionary
281
     1
  3
Layout1
350
6F
  3
Layout2
350
77
  3
Model
350
73
  0
DICTIONARY
  5
10
102
{ACAD_REACTORS
330
C
102
}
330
C
100
AcDbDictionary
281
     1
  3
ByBlock
350
19
  3
ByLayer
350
11
  3
Global
350
21
  0
DICTIONARY
  5
66
102
{ACAD_REACTORS
330
C
102
}
330
C
100
AcDbDictionary
281
     1
  3
Standard
350
67
  0
DICTIONARY
  5
5F
102
{ACAD_REACTORS
330
C
102
}
330
C
100
AcDbDictionary
281
     1
  3
Standard
350
60
  0
DICTIONARY
  5
61
102
{ACAD_REACTORS
330
C
102
}
330
C
100
AcDbDictionary
281
     1
  0
ACDBDICTIONARYWDFLT
  5
E
102
{ACAD_REACTORS
330
C
102
}
330
C
100
AcDbDictionary
281
     1
  3
Normal
350
F
100
AcDbDictionaryWithDefault
340
F
  0
DICTIONARY
  5
42
102
{ACAD_REACTORS
330
C
102
}
330
C
100
AcDbDictionary
281
     1
  3
A0
350
43
  3
A1
350
44
  3
A2
350
45
  3
A3
350
46
  3
A4
350
47
  3
A5
350
48
  3
A6
350
49
  3
A7
350
4A
  3
A8
350
4B
  3
A9
350
4C
  3
B0
350
4D
  3
B1
350
4E
  3
B2
350
4F
  3
B3
350
50
  3
B4
350
51
  3
B5
350
52
  3
B6
350
53
  0
DICTIONARY
  5
68
102
{ACAD_REACTORS
330
C
102
}
330
C
100
AcDbDictionary
281
     1
  3
Imperial24
350
69
  0
DICTIONARY
  5
64
102
{ACAD_REACTORS
330
C
102
}
330
C
100
AcDbDictionary
281
     1
  3
Standard
350
65
  0
DICTIONARY
  5
29
102
{ACAD_REACTORS
330
C
102
}
330
C
100
AcDbDictionary
281
     1
  3
2dWireframe
350
2F
  3
Basic
350
2E
  3
Brighten
350
35
  3
ColorChange
350
39
  3
Conceptual
350
32
  3
Dim
350
34
  3
EdgeColorOff
350
41
  3
Facepattern
350
38
  3
Flat
350
2A
  3
FlatWithEdges
350
2B
  3
Gouraud
350
2C
  3
GouraudWithEdges
350
2D
  3
Hidden
350
31
  3
JitterOff
350
3F
  3
Linepattern
350
37
  3
OverhangOff
350
40
  3
Realistic
350
33
  3
Shaded
350
3E
  3
Shaded with edges
350
3D
  3
Shades of Gray
350
3A
  3
Sketchy
350
3B
  3
Thicken
350
36
  3
Wireframe
350
30
  3
X-Ray
350
3C
  0
XRECORD
  5
234
102
{ACAD_REACTORS
330
C
102
}
330
C
100
AcDbXrecord
280
     1
 90
        1
330
65
  0
DICTIONARY
  5
22B
102
{ACAD_REACTORS
330
C
102
}
330
C
100
AcDbDictionary
281
     1
  3
CANNOSCALE
350
230
  3
CMLEADERSTYLE
350
22D
  3
CTABLESTYLE
350
22C
  3
CVIEWDETAILSTYLE
350
22E
  3
CVIEWSECTIONSTYLE
350
22F
  0
ACDBDETAILVIEWSTYLE
  5
6B
102
{ACAD_XDICTIONARY
360
269
102
}
102
{ACAD_REACTORS
330
6A
102
}
330
6A
100
AcDbModelDocViewStyle
 70
     0
  3
Imperial24
290
     0
100
AcDbDetailViewStyle
 70
     0
 71
     0
 90
        3
 71
     1
340
55
 62
   256
 40
0.24
340
0
 62
   256
 40
0.24
300

 40
0.36
280
     3
 71
     2
340
5D
 90
       25
 62
   256
 71
     3
340
55
 62
   256
 40
0.24
 90
        1
 40
0.75
 90
        1
300
%<\AcVar ViewType \f "%tc1">% %<\AcVar ViewDetailId>%\PSCALE %<\AcVar ViewScale \f "%sn">%
 71
     4
340
5D
 90
       25
 62
   256
340
5D
 90
       25
 62
   256
280
     0
  0
LAYOUT
  5
6F
102
{ACAD_REACTORS
330
62
102
}
330
62
100
AcDbPlotSettings
  1

  2

  4

  6

 40
0.0
 41
0.0
 42
0.0
 43
0.0
 44
0.0
 45
0.0
 46
0.0
 47
0.0
 48
0.0
 49
0.0
140
0.0
141
0.0
142
1.0
143
1.0
 70
   688
 72
     0
 73
     0
 74
     5
  7

 75
    16
147
1.0
 76
     0
 77
     2
 78
   300
148
0.0
149
0.0
100
AcDbLayout
  1
Layout1
 70
     1
 71
     1
 10
0.0
 20
0.0
 11
12.0
 21
9.0
 12
0.0
 22
0.0
 32
0.0
 14
0.0
 24
0.0
 34
0.0
 15
0.0
 25
0.0
 35
0.0
146
0.0
 13
0.0
 23
0.0
 33
0.0
 16
1.0
 26
0.0
 36
0.0
 17
0.0
 27
1.0
 37
0.0
 76
     0
330
6C
  0
LAYOUT
  5
77
102
{ACAD_REACTORS
330
62
102
}
330
62
100
AcDbPlotSettings
  1

  2

  4

  6

 40
0.0
 41
0.0
 42
0.0
 43
0.0
 44
0.0
 45
0.0
 46
0.0
 47
0.0
 48
0.0
 49
0.0
140
0.0
141
0.0
142
1.0
143
1.0
 70
   688
 72
     0
 73
     0
 74
     5
  7

 75
    16
147
1.0
 76
     0
 77
     2
 78
   300
148
0.0
149
0.0
100
AcDbLayout
  1
Layout2
 70
     1
 71
     2
 10
0.0
 20
0.0
 11
12.0
 21
9.0
 12
0.0
 22
0.0
 32
0.0
 14
0.0
 24
0.0
 34
0.0
 15
0.0
 25
0.0
 35
0.0
146
0.0
 13
0.0
 23
0.0
 33
0.0
 16
1.0
 26
0.0
 36
0.0
 17
0.0
 27
1.0
 37
0.0
 76
     0
330
74
  0
LAYOUT
  5
73
102
{ACAD_REACTORS
330
62
102
}
330
62
100
AcDbPlotSettings
  1

  2

  4

  6

 40
0.0
 41
0.0
 42
0.0
 43
0.0
 44
0.0
 45
0.0
 46
0.0
 47
0.0
 48
0.0
 49
0.0
140
0.0
141
0.0
142
1.0
143
1.0
 70
  1712
 72
     0
 73
     0
 74
     0
  7

 75
     0
147
1.0
 76
     0
 77
     2
 78
   300
148
0.0
149
0.0
100
AcDbLayout
  1
Model
 70
     1
 71
     0
 10
0.0
 20
0.0
 11
12.0
 21
9.0
 12
0.0
 22
0.0
 32
0.0
 14
0.0
 24
0.0
 34
0.0
 15
0.0
 25
0.0
 35
0.0
146
0.0
 13
0.0
 23
0.0
 33
0.0
 16
1.0
 26
0.0
 36
0.0
 17
0.0
 27
1.0
 37
0.0
 76
     0
330
70
  0
MATERIAL
  5
19
102
{ACAD_XDICTIONARY
360
1A
102
}
102
{ACAD_REACTORS
330
10
102
}
330
10
100
AcDbMaterial
  1
ByBlock
 72
     0
 43
0.0208333333333333
 43
0.0
 43
0.0
 43
0.0
 43
0.0
 43
0.0208333333333333
 43
0.0
 43
0.0
 43
0.0
 43
0.0
 43
1.0
 43
0.0
 43
0.0
 43
0.0
 43
0.0
 43
1.0
 77
     0
 47
0.0208333333333333
 47
0.0
 47
0.0
 47
0.0
 47
0.0
 47
0.0208333333333333
 47
0.0
 47
0.0
 47
0.0
 47
0.0
 47
1.0
 47
0.0
 47
0.0
 47
0.0
 47
0.0
 47
1.0
171
     0
 49
0.0208333333333333
 49
0.0
 49
0.0
 49
0.0
 49
0.0
 49
0.0208333333333333
 49
0.0
 49
0.0
 49
0.0
 49
0.0
 49
1.0
 49
0.0
 49
0.0
 49
0.0
 49
0.0
 49
1.0
175
     0
142
0.0208333333333333
142
0.0
142
0.0
142
0.0
142
0.0
142
0.0208333333333333
142
0.0
142
0.0
142
0.0
142
0.0
142
1.0
142
0.0
142
0.0
142
0.0
142
0.0
142
1.0
179
     0
144
0.0208333333333333
144
0.0
144
0.0
144
0.0
144
0.0
144
0.0208333333333333
144
0.0
144
0.0
144
0.0
144
0.0
144
1.0
144
0.0
144
0.0
144
0.0
144
0.0
144
1.0
147
0.0208333333333333
147
0.0
147
0.0
147
0.0
147
0.0
147
0.0208333333333333
147
0.0
147
0.0
147
0.0
147
0.0
147
1.0
147
0.0
147
0.0
147
0.0
147
0.0
147
1.0
  0
MATERIAL
  5
11
102
{ACAD_XDICTIONARY
360
12
102
}
102
{ACAD_REACTORS
330
10
102
}
330
10
100
AcDbMaterial
  1
ByLayer
 72
     0
 43
0.0208333333333333
 43
0.0
 43
0.0
 43
0.0
 43
0.0
 43
0.0208333333333333
 43
0.0
 43
0.0
 43
0.0
 43
0.0
 43
1.0
 43
0.0
 43
0.0
 43
0.0
 43
0.0
 43
1.0
 77
     0
 47
0.0208333333333333
 47
0.0
 47
0.0
 47
0.0
 47
0.0
 47
0.0208333333333333
 47
0.0
 47
0.0
 47
0.0
 47
0.0
 47
1.0
 47
0.0
 47
0.0
 47
0.0
 47
0.0
 47
1.0
171
     0
 49
0.0208333333333333
 49
0.0
 49
0.0
 49
0.0
 49
0.0
 49
0.0208333333333333
 49
0.0
 49
0.0
 49
0.0
 49
0.0
 49
1.0
 49
0.0
 49
0.0
 49
0.0
 49
0.0
 49
1.0
175
     0
142
0.0208333333333333
142
0.0
142
0.0
142
0.0
142
0.0
142
0.0208333333333333
142
0.0
142
0.0
142
0.0
142
0.0
142
1.0
142
0.0
142
0.0
142
0.0
142
0.0
142
1.0
179
     0
144
0.0208333333333333
144
0.0
144
0.0
144
0.0
144
0.0
144
0.0208333333333333
144
0.0
144
0.0
144
0.0
144
0.0
144
1.0
144
0.0
144
0.0
144
0.0
144
0.0
144
1.0
147
0.0208333333333333
147
0.0
147
0.0
147
0.0
147
0.0
147
0.0208333333333333
147
0.0
147
0.0
147
0.0
147
0.0
147
1.0
147
0.0
147
0.0
147
0.0
147
0.0
147
1.0
  0
MATERIAL
  5
21
102
{ACAD_XDICTIONARY
360
22
102
}
102
{ACAD_REACTORS
330
10
102
}
330
10
100
AcDbMaterial
  1
Global
 72
     0
 43
0.0208333333333333
 43
0.0
 43
0.0
 43
0.0
 43
0.0
 43
0.0208333333333333
 43
0.0
 43
0.0
 43
0.0
 43
0.0
 43
1.0
 43
0.0
 43
0.0
 43
0.0
 43
0.0
 43
1.0
 77
     0
 47
0.0208333333333333
 47
0.0
 47
0.0
 47
0.0
 47
0.0
 47
0.0208333333333333
 47
0.0
 47
0.0
 47
0.0
 47
0.0
 47
1.0
 47
0.0
 47
0.0
 47
0.0
 47
0.0
 47
1.0
171
     0
 49
0.0208333333333333
 49
0.0
 49
0.0
 49
0.0
 49
0.0
 49
0.0208333333333333
 49
0.0
 49
0.0
 49
0.0
 49
0.0
 49
1.0
 49
0.0
 49
0.0
 49
0.0
 49
0.0
 49
1.0
175
     0
142
0.0208333333333333
142
0.0
142
0.0
142
0.0
142
0.0
142
0.0208333333333333
142
0.0
142
0.0
142
0.0
142
0.0
142
1.0
142
0.0
142
0.0
142
0.0
142
0.0
142
1.0
179
     0
144
0.0208333333333333
144
0.0
144
0.0
144
0.0
144
0.0
144
0.0208333333333333
144
0.0
144
0.0
144
0.0
144
0.0
144
1.0
144
0.0
144
0.0
144
0.0
144
0.0
144
1.0
147
0.0208333333333333
147
0.0
147
0.0
147
0.0
147
0.0
147
0.0208333333333333
147
0.0
147
0.0
147
0.0
147
0.0
147
1.0
147
0.0
147
0.0
147
0.0
147
0.0
147
1.0
  0
MLEADERSTYLE
  5
67
102
{ACAD_XDICTIONARY
360
265
102
}
102
{ACAD_REACTORS
330
66
102
}
330
66
100
AcDbMLeaderStyle
179
     2
170
     2
171
     1
172
     0
 90
        2
 40
0.0
 41
0.0
173
     1
 91
-1056964608
340
5B
 92
       -2
290
     1
 42
0.09
291
     1
 43
0.36
  3
Standard
 44
0.18
300

342
55
174
     1
178
     6
175
     1
176
     0
 93
-1056964608
 45
0.18
292
     0
297
     0
 46
0.18
 94
-1056964608
 47
1.0
 49
1.0
140
1.0
293
     1
141
0.0
294
     1
177
     0
142
1.0
295
     0
296
     0
143
0.125
271
     0
272
     9
273
     9
  0
MLINESTYLE
  5
60
102
{ACAD_REACTORS
330
5F
102
}
330
5F
100
AcDbMlineStyle
  2
STANDARD
 70
     0
  3

 62
   256
 51
90.0
 52
90.0
 71
     2
 49
0.5
 62
   256
  6
BYLAYER
 49
-0.5
 62
   256
  6
BYLAYER
  0
ACDBPLACEHOLDER
  5
F
102
{ACAD_REACTORS
330
E
102
}
330
E
  0
SCALE
  5
43
102
{ACAD_REACTORS
330
42
102
}
330
42
100
AcDbScale
 70
     0
300
1:1
140
1.0
141
1.0
290
     1
  0
SCALE
  5
44
102
{ACAD_REACTORS
330
42
102
}
330
42
100
AcDbScale
 70
     0
300
1/128" = 1'-0"
140
0.0078125
141
12.0
290
     0
  0
SCALE
  5
45
102
{ACAD_REACTORS
330
42
102
}
330
42
100
AcDbScale
 70
     0
300
1/64" = 1'-0"
140
0.015625
141
12.0
290
     0
  0
SCALE
  5
46
102
{ACAD_REACTORS
330
42
102
}
330
42
100
AcDbScale
 70
     0
300
1/32" = 1'-0"
140
0.03125
141
12.0
290
     0
  0
SCALE
  5
47
102
{ACAD_REACTORS
330
42
102
}
330
42
100
AcDbScale
 70
     0
300
1/16" = 1'-0"
140
0.0625
141
12.0
290
     0
  0
SCALE
  5
48
102
{ACAD_REACTORS
330
42
102
}
330
42
100
AcDbScale
 70
     0
300
3/32" = 1'-0"
140
0.09375
141
12.0
290
     0
  0
SCALE
  5
49
102
{ACAD_REACTORS
330
42
102
}
330
42
100
AcDbScale
 70
     0
300
1/8" = 1'-0"
140
0.125
141
12.0
290
     0
  0
SCALE
  5
4A
102
{ACAD_REACTORS
330
42
102
}
330
42
100
AcDbScale
 70
     0
300
3/16" = 1'-0"
140
0.1875
141
12.0
290
     0
  0
SCALE
  5
4B
102
{ACAD_REACTORS
330
42
102
}
330
42
100
AcDbScale
 70
     0
300
1/4" = 1'-0"
140
0.25
141
12.0
290
     0
  0
SCALE
  5
4C
102
{ACAD_REACTORS
330
42
102
}
330
42
100
AcDbScale
 70
     0
300
3/8" = 1'-0"
140
0.375
141
12.0
290
     0
  0
SCALE
  5
4D
102
{ACAD_REACTORS
330
42
102
}
330
42
100
AcDbScale
 70
     0
300
1/2" = 1'-0"
140
0.5
141
12.0
290
     0
  0
SCALE
  5
4E
102
{ACAD_REACTORS
330
42
102
}
330
42
100
AcDbScale
 70
     0
300
3/4" = 1'-0"
140
0.75
141
12.0
290
     0
  0
SCALE
  5
4F
102
{ACAD_REACTORS
330
42
102
}
330
42
100
AcDbScale
 70
     0
300
1" = 1'-0"
140
1.0
141
12.0
290
     0
  0
SCALE
  5
50
102
{ACAD_REACTORS
330
42
102
}
330
42
100
AcDbScale
 70
     0
300
1-1/2" = 1'-0"
140
1.5
141
12.0
290
     0
  0
SCALE
  5
51
102
{ACAD_REACTORS
330
42
102
}
330
42
100
AcDbScale
 70
     0
300
3" = 1'-0"
140
3.0
141
12.0
290
     0
  0
SCALE
  5
52
102
{ACAD_REACTORS
330
42
102
}
330
42
100
AcDbScale
 70
     0
300
6" = 1'-0"
140
6.0
141
12.0
290
     0
  0
SCALE
  5
53
102
{ACAD_REACTORS
330
42
102
}
330
42
100
AcDbScale
 70
     0
300
1'-0" = 1'-0"
140
12.0
141
12.0
290
     0
  0
ACDBSECTIONVIEWSTYLE
  5
69
102
{ACAD_XDICTIONARY
360
267
102
}
102
{ACAD_REACTORS
330
68
102
}
330
68
100
AcDbModelDocViewStyle
 70
     0
  3
Imperial24
290
     0
100
AcDbSectionViewStyle
 70
     0
 71
     0
 90
       78
 71
     1
340
55
 62
   256
 40
0.24
340
0
340
0
 62
   256
 40
0.24
300
I, O, Q, S, X, Z
 40
0.48
 90
        3
 40
0.18
 90
        1
 71
     2
340
5D
 90
       25
 62
   256
340
5D
 90
       50
 62
   256
 40
0.24
 40
0.0
 40
0.24
 71
     3
340
55
 62
   256
 40
0.24
 90
        1
 40
0.75
 90
        1
300
%<\AcVar ViewType \f "%tc1">% %<\AcVar ViewSectionStartId>%-%<\AcVar ViewSectionEndId>%\PSCALE %<\AcVar ViewScale \f "%sn">%
 71
     4
 62
   256
 62
   257
300
ANSI31
 40
1.0
 90
        0
290
     0
290
     0
 90
        6
 40
0.0
 40
1.570796326794896
 40
0.2617993877991494
 40
1.308996938995747
 40
-0.2617993877991494
 40
1.832595714594046
  0
TABLESTYLE
  5
65
102
{ACAD_XDICTIONARY
360
231
102
}
102
{ACAD_REACTORS
330
64
102
}
330
64
100
AcDbTableStyle
280
     0
  3
Standard
 70
     0
 71
     0
 40
0.06
 41
0.06
280
     0
281
     0
  7
Standard
140
0.18
170
     2
 62
     0
 63
     7
283
     0
 90
      512
 91
        0
  1

274
    -2
284
     1
 64
     0
275
    -2
285
     1
 65
     0
276
    -2
286
     1
 66
     0
277
    -2
287
     1
 67
     0
278
    -2
288
     1
 68
     0
279
    -2
289
     1
 69
     0
  7
Standard
140
0.25
170
     5
 62
     0
 63
     7
283
     0
 90
      512
 91
        0
  1

274
    -2
284
     1
 64
     0
275
    -2
285
     1
 65
     0
276
    -2
286
     1
 66
     0
277
    -2
287
     1
 67
     0
278
    -2
288
     1
 68
     0
279
    -2
289
     1
 69
     0
  7
Standard
140
0.18
170
     5
 62
     0
 63
     7
283
     0
 90
      512
 91
        0
  1

274
    -2
284
     1
 64
     0
275
    -2
285
     1
 65
     0
276
    -2
286
     1
 66
     0
277
    -2
287
     1
 67
     0
278
    -2
288
     1
 68
     0
279
    -2
289
     1
 69
     0
  0
VISUALSTYLE
  5
2F
102
{ACAD_XDICTIONARY
360
23F
102
}
102
{ACAD_REACTORS
330
29
102
}
330
29
100
AcDbVisualStyle
  2
2dWireframe
 70
     4
177
     2
291
     0
 71
     0
176
     1
 72
     2
176
     1
 73
     0
176
     1
 90
        0
176
     1
 40
0.6
176
     1
 41
30.0
176
     1
 63
     7
421
 16777215
176
     1
 74
     1
176
     1
 91
        4
176
     1
 64
     7
176
     1
 65
   257
176
     1
 75
     1
176
     1
175
     1
176
     1
 42
1.0
176
     1
 92
        0
176
     1
 66
   257
176
     1
 43
1.0
176
     1
 76
     1
176
     1
 77
     6
176
     1
 78
     2
176
     1
 67
     7
176
     1
 79
     5
176
     1
170
     0
176
     1
171
     0
176
     1
290
     0
176
     1
 93
        1
176
     1
 44
0.0
176
     1
173
     0
176
     1
1001
ACAD
1000
AcDbSavedByObjectVersion
1070
     0
  0
VISUALSTYLE
  5
2E
102
{ACAD_XDICTIONARY
360
23D
102
}
102
{ACAD_REACTORS
330
29
102
}
330
29
100
AcDbVisualStyle
  2
Basic
 70
     7
177
     2
291
     1
 71
     1
176
     1
 72
     0
176
     1
 73
     1
176
     1
 90
        0
176
     1
 40
0.6
176
     1
 41
30.0
176
     1
 63
     7
421
 16777215
176
     1
 74
     0
176
     1
 91
        4
176
     1
 64
     7
176
     1
 65
   257
176
     1
 75
     1
176
     1
175
     1
176
     1
 42
1.0
176
     1
 92
        8
176
     1
 66
     7
176
     1
 43
1.0
176
     1
 76
     1
176
     1
 77
     6
176
     1
 78
     2
176
     1
 67
     7
176
     1
 79
     5
176
     1
170
     0
176
     1
171
     0
176
     1
290
     0
176
     1
 93
        1
176
     1
 44
0.0
176
     1
173
     0
176
     1
1001
ACAD
1000
AcDbSavedByObjectVersion
1070
     0
  0
VISUALSTYLE
  5
35
102
{ACAD_XDICTIONARY
360
24B
102
}
102
{ACAD_REACTORS
330
29
102
}
330
29
100
AcDbVisualStyle
  2
Brighten
 70
    12
177
     2
291
     1
 71
     2
176
     1
 72
     2
176
     1
 73
     0
176
     1
 90
        0
176
     1
 40
0.6
176
     1
 41
30.0
176
     1
 63
     7
421
 16777215
176
     1
 74
     1
176
     1
 91
        4
176
     1
 64
     7
176
     1
 65
   257
176
     1
 75
     1
176
     1
175
     1
176
     1
 42
1.0
176
     1
 92
        8
176
     1
 66
     7
176
     1
 43
1.0
176
     1
 76
     1
176
     1
 77
     6
176
     1
 78
     2
176
     1
 67
     7
176
     1
 79
     5
176
     1
170
     0
176
     1
171
     0
176
     1
290
     0
176
     1
 93
        1
176
     1
 44
50.0
176
     1
173
     0
176
     1
1001
ACAD
1000
AcDbSavedByObjectVersion
1070
     0
  0
VISUALSTYLE
  5
39
102
{ACAD_XDICTIONARY
360
253
102
}
102
{ACAD_REACTORS
330
29
102
}
330
29
100
AcDbVisualStyle
  2
ColorChange
 70
    16
177
     2
291
     1
 71
     2
176
     1
 72
     2
176
     1
 73
     3
176
     1
 90
        0
176
     1
 40
0.6
176
     1
 41
30.0
176
     1
 63
     8
421
  8421504
176
     1
 74
     1
176
     1
 91
        4
176
     1
 64
     7
176
     1
 65
   257
176
     1
 75
     1
176
     1
175
     1
176
     1
 42
1.0
176
     1
 92
        8
176
     1
 66
     8
424
  8421504
176
     1
 43
1.0
176
     1
 76
     1
176
     1
 77
     6
176
     1
 78
     2
176
     1
 67
     7
176
     1
 79
     5
176
     1
170
     0
176
     1
171
     0
176
     1
290
     0
176
     1
 93
        1
176
     1
 44
0.0
176
     1
173
     0
176
     1
1001
ACAD
1000
AcDbSavedByObjectVersion
1070
     0
  0
VISUALSTYLE
  5
32
102
{ACAD_XDICTIONARY
360
245
102
}
102
{ACAD_REACTORS
330
29
102
}
330
29
100
AcDbVisualStyle
  2
Conceptual
 70
     9
177
     2
291
     0
 71
     3
176
     1
 72
     2
176
     1
 73
     0
176
     1
 90
        0
176
     1
 40
0.6
176
     1
 41
30.0
176
     1
 63
     7
421
 16777215
176
     1
 74
     2
176
     1
 91
        2
176
     1
 64
     7
176
     1
 65
   257
176
     1
 75
     1
176
     1
175
     1
176
     1
 42
179.0
176
     1
 92
        8
176
     1
 66
     7
176
     1
 43
1.0
176
     1
 76
     1
176
     1
 77
     6
176
     1
 78
     2
176
     1
 67
     7
176
     1
 79
     3
176
     1
170
     0
176
     1
171
     0
176
     1
290
     0
176
     1
 93
        1
176
     1
 44
0.0
176
     1
173
     0
176
     1
1001
ACAD
1000
AcDbSavedByObjectVersion
1070
     0
  0
VISUALSTYLE
  5
34
102
{ACAD_XDICTIONARY
360
249
102
}
102
{ACAD_REACTORS
330
29
102
}
330
29
100
AcDbVisualStyle
  2
Dim
 70
    11
177
     2
291
     1
 71
     2
176
     1
 72
     2
176
     1
 73
     0
176
     1
 90
        0
176
     1
 40
0.6
176
     1
 41
30.0
176
     1
 63
     7
421
 16777215
176
     1
 74
     1
176
     1
 91
        4
176
     1
 64
     7
176
     1
 65
   257
176
     1
 75
     1
176
     1
175
     1
176
     1
 42
1.0
176
     1
 92
        8
176
     1
 66
     7
176
     1
 43
1.0
176
     1
 76
     1
176
     1
 77
     6
176
     1
 78
     2
176
     1
 67
     7
176
     1
 79
     5
176
     1
170
     0
176
     1
171
     0
176
     1
290
     0
176
     1
 93
        1
176
     1
 44
-50.0
176
     1
173
     0
176
     1
1001
ACAD
1000
AcDbSavedByObjectVersion
1070
     0
  0
VISUALSTYLE
  5
41
102
{ACAD_XDICTIONARY
360
263
102
}
102
{ACAD_REACTORS
330
29
102
}
330
29
100
AcDbVisualStyle
  2
EdgeColorOff
 70
    22
177
     2
291
     1
 71
     2
176
     0
 72
     2
176
     0
 73
     0
176
     0
 90
        0
176
     0
 40
0.6
176
     0
 41
30.0
176
     0
 63
     7
421
 16777215
176
     0
 74
     1
176
     0
 91
        4
176
     0
 64
     7
176
     0
 65
   257
176
     0
 75
     1
176
     0
175
     1
176
     0
 42
1.0
176
     0
 92
        8
176
     2
 66
     7
176
     0
 43
1.0
176
     0
 76
     1
176
     0
 77
     6
176
     0
 78
     2
176
     0
 67
     7
176
     0
 79
     5
176
     0
170
     0
176
     0
171
     0
176
     0
290
     0
176
     0
 93
        1
176
     0
 44
0.0
176
     0
173
     0
176
     0
1001
ACAD
1000
AcDbSavedByObjectVersion
1070
     0
  0
VISUALSTYLE
  5
38
102
{ACAD_XDICTIONARY
360
251
102
}
102
{ACAD_REACTORS
330
29
102
}
330
29
100
AcDbVisualStyle
  2
Facepattern
 70
    15
177
     2
291
     1
 71
     2
176
     1
 72
     2
176
     1
 73
     0
176
     1
 90
        0
176
     1
 40
0.6
176
     1
 41
30.0
176
     1
 63
     7
421
 16777215
176
     1
 74
     1
176
     1
 91
        4
176
     1
 64
     7
176
     1
 65
   257
176
     1
 75
     1
176
     1
175
     1
176
     1
 42
1.0
176
     1
 92
        8
176
     1
 66
     7
176
     1
 43
1.0
176
     1
 76
     1
176
     1
 77
     6
176
     1
 78
     2
176
     1
 67
     7
176
     1
 79
     5
176
     1
170
     0
176
     1
171
     0
176
     1
290
     0
176
     1
 93
        1
176
     1
 44
0.0
176
     1
173
     0
176
     1
1001
ACAD
1000
AcDbSavedByObjectVersion
1070
     0
  0
VISUALSTYLE
  5
2A
102
{ACAD_XDICTIONARY
360
235
102
}
102
{ACAD_REACTORS
330
29
102
}
330
29
100
AcDbVisualStyle
  2
Flat
 70
     0
177
     2
291
     1
 71
     2
176
     1
 72
     1
176
     1
 73
     1
176
     1
 90
        2
176
     1
 40
0.6
176
     1
 41
30.0
176
     1
 63
     7
421
 16777215
176
     1
 74
     0
176
     1
 91
        0
176
     1
 64
     7
176
     1
 65
   257
176
     1
 75
     1
176
     1
175
     1
176
     1
 42
1.0
176
     1
 92
        8
176
     1
 66
     7
176
     1
 43
1.0
176
     1
 76
     1
176
     1
 77
     6
176
     1
 78
     2
176
     1
 67
     7
176
     1
 79
     5
176
     1
170
     0
176
     1
171
     0
176
     1
290
     0
176
     1
 93
       13
176
     1
 44
0.0
176
     1
173
     0
176
     1
1001
ACAD
1000
AcDbSavedByObjectVersion
1070
     0
  0
VISUALSTYLE
  5
2B
102
{ACAD_XDICTIONARY
360
237
102
}
102
{ACAD_REACTORS
330
29
102
}
330
29
100
AcDbVisualStyle
  2
FlatWithEdges
 70
     1
177
     2
291
     1
 71
     2
176
     1
 72
     1
176
     1
 73
     1
176
     1
 90
        2
176
     1
 40
0.6
176
     1
 41
30.0
176
     1
 63
     7
421
 16777215
176
     1
 74
     1
176
     1
 91
        0
176
     1
 64
     7
176
     1
 65
   257
176
     1
 75
     1
176
     1
175
     1
176
     1
 42
1.0
176
     1
 92
        0
176
     1
 66
   257
176
     1
 43
1.0
176
     1
 76
     1
176
     1
 77
     6
176
     1
 78
     2
176
     1
 67
     7
176
     1
 79
     5
176
     1
170
     0
176
     1
171
     0
176
     1
290
     0
176
     1
 93
       13
176
     1
 44
0.0
176
     1
173
     0
176
     1
1001
ACAD
1000
AcDbSavedByObjectVersion
1070
     0
  0
VISUALSTYLE
  5
2C
102
{ACAD_XDICTIONARY
360
239
102
}
102
{ACAD_REACTORS
330
29
102
}
330
29
100
AcDbVisualStyle
  2
Gouraud
 70
     2
177
     2
291
     1
 71
     2
176
     1
 72
     2
176
     1
 73
     1
176
     1
 90
        2
176
     1
 40
0.6
176
     1
 41
30.0
176
     1
 63
     7
421
 16777215
176
     1
 74
     0
176
     1
 91
        0
176
     1
 64
     7
176
     1
 65
   257
176
     1
 75
     1
176
     1
175
     1
176
     1
 42
1.0
176
     1
 92
        0
176
     1
 66
     7
176
     1
 43
1.0
176
     1
 76
     1
176
     1
 77
     6
176
     1
 78
     2
176
     1
 67
     7
176
     1
 79
     5
176
     1
170
     0
176
     1
171
     0
176
     1
290
     0
176
     1
 93
       13
176
     1
 44
0.0
176
     1
173
     0
176
     1
1001
ACAD
1000
AcDbSavedByObjectVersion
1070
     0
  0
VISUALSTYLE
  5
2D
102
{ACAD_XDICTIONARY
360
23B
102
}
102
{ACAD_REACTORS
330
29
102
}
330
29
100
AcDbVisualStyle
  2
GouraudWithEdges
 70
     3
177
     2
291
     1
 71
     2
176
     1
 72
     2
176
     1
 73
     1
176
     1
 90
        2
176
     1
 40
0.6
176
     1
 41
30.0
176
     1
 63
     7
421
 16777215
176
     1
 74
     1
176
     1
 91
        0
176
     1
 64
     7
176
     1
 65
   257
176
     1
 75
     1
176
     1
175
     1
176
     1
 42
1.0
176
     1
 92
        0
176
     1
 66
   257
176
     1
 43
1.0
176
     1
 76
     1
176
     1
 77
     6
176
     1
 78
     2
176
     1
 67
     7
176
     1
 79
     5
176
     1
170
     0
176
     1
171
     0
176
     1
290
     0
176
     1
 93
       13
176
     1
 44
0.0
176
     1
173
     0
176
     1
1001
ACAD
1000
AcDbSavedByObjectVersion
1070
     0
  0
VISUALSTYLE
  5
31
102
{ACAD_XDICTIONARY
360
243
102
}
102
{ACAD_REACTORS
330
29
102
}
330
29
100
AcDbVisualStyle
  2
Hidden
 70
     6
177
     2
291
     0
 71
     1
176
     1
 72
     2
176
     1
 73
     2
176
     1
 90
        0
176
     1
 40
0.6
176
     1
 41
30.0
176
     1
 63
     7
421
 16777215
176
     1
 74
     2
176
     1
 91
        2
176
     1
 64
     7
176
     1
 65
   257
176
     1
 75
     2
176
     1
175
     1
176
     1
 42
40.0
176
     1
 92
        0
176
     1
 66
   257
176
     1
 43
1.0
176
     1
 76
     1
176
     1
 77
     6
176
     1
 78
     2
176
     1
 67
     7
176
     1
 79
     3
176
     1
170
     0
176
     1
171
     0
176
     1
290
     0
176
     1
 93
        1
176
     1
 44
0.0
176
     1
173
     0
176
     1
1001
ACAD
1000
AcDbSavedByObjectVersion
1070
     0
  0
VISUALSTYLE
  5
3F
102
{ACAD_XDICTIONARY
360
25F
102
}
102
{ACAD_REACTORS
330
29
102
}
330
29
100
AcDbVisualStyle
  2
JitterOff
 70
    20
177
     2
291
     1
 71
     2
176
     0
 72
     2
176
     0
 73
     0
176
     0
 90
        0
176
     0
 40
0.6
176
     0
 41
30.0
176
     0
 63
     7
421
 16777215
176
     0
 74
     1
176
     0
 91
        4
176
     0
 64
     7
176
     0
 65
   257
176
     0
 75
     1
176
     0
175
     1
176
     0
 42
1.0
176
     0
 92
       10
176
     2
 66
     7
176
     0
 43
1.0
176
     0
 76
     1
176
     0
 77
     6
176
     0
 78
     2
176
     0
 67
     7
176
     0
 79
     5
176
     0
170
     0
176
     0
171
     0
176
     0
290
     0
176
     0
 93
        1
176
     0
 44
0.0
176
     0
173
     0
176
     0
1001
ACAD
1000
AcDbSavedByObjectVersion
1070
     0
  0
VISUALSTYLE
  5
37
102
{ACAD_XDICTIONARY
360
24F
102
}
102
{ACAD_REACTORS
330
29
102
}
330
29
100
AcDbVisualStyle
  2
Linepattern
 70
    14
177
     2
291
     1
 71
     2
176
     1
 72
     2
176
     1
 73
     0
176
     1
 90
        0
176
     1
 40
0.6
176
     1
 41
30.0
176
     1
 63
     7
421
 16777215
176
     1
 74
     1
176
     1
 91
        4
176
     1
 64
     7
176
     1
 65
   257
176
     1
 75
     7
176
     1
175
     7
176
     1
 42
1.0
176
     1
 92
        8
176
     1
 66
     7
176
     1
 43
1.0
176
     1
 76
     1
176
     1
 77
     6
176
     1
 78
     2
176
     1
 67
     7
176
     1
 79
     5
176
     1
170
     0
176
     1
171
     0
176
     1
290
     0
176
     1
 93
        1
176
     1
 44
0.0
176
     1
173
     0
176
     1
1001
ACAD
1000
AcDbSavedByObjectVersion
1070
     0
  0
VISUALSTYLE
  5
40
102
{ACAD_XDICTIONARY
360
261
102
}
102
{ACAD_REACTORS
330
29
102
}
330
29
100
AcDbVisualStyle
  2
OverhangOff
 70
    21
177
     2
291
     1
 71
     2
176
     0
 72
     2
176
     0
 73
     0
176
     0
 90
        0
176
     0
 40
0.6
176
     0
 41
30.0
176
     0
 63
     7
421
 16777215
176
     0
 74
     1
176
     0
 91
        4
176
     0
 64
     7
176
     0
 65
   257
176
     0
 75
     1
176
     0
175
     1
176
     0
 42
1.0
176
     0
 92
        9
176
     2
 66
     7
176
     0
 43
1.0
176
     0
 76
     1
176
     0
 77
     6
176
     0
 78
     2
176
     0
 67
     7
176
     0
 79
     5
176
     0
170
     0
176
     0
171
     0
176
     0
290
     0
176
     0
 93
        1
176
     0
 44
0.0
176
     0
173
     0
176
     0
1001
ACAD
1000
AcDbSavedByObjectVersion
1070
     0
  0
VISUALSTYLE
  5
33
102
{ACAD_XDICTIONARY
360
247
102
}
102
{ACAD_REACTORS
330
29
102
}
330
29
100
AcDbVisualStyle
  2
Realistic
 70
     8
177
     2
291
     0
 71
     2
176
     1
 72
     3
176
     1
 73
     0
176
     1
 90
        2
176
     1
 40
0.6
176
     1
 41
30.0
176
     1
 63
     7
421
 16777215
176
     1
 74
     0
176
     1
 91
        0
176
     1
 64
     7
176
     1
 65
   257
176
     1
 75
     1
176
     1
175
     1
176
     1
 42
1.0
176
     1
 92
        8
176
     1
 66
   257
176
     1
 43
1.0
176
     1
 76
     1
176
     1
 77
     6
176
     1
 78
     2
176
     1
 67
     7
176
     1
 79
     3
176
     1
170
     0
176
     1
171
     0
176
     1
290
     0
176
     1
 93
       13
176
     1
 44
0.0
176
     1
173
     0
176
     1
1001
ACAD
1000
AcDbSavedByObjectVersion
1070
     0
  0
VISUALSTYLE
  5
3E
102
{ACAD_XDICTIONARY
360
25D
102
}
102
{ACAD_REACTORS
330
29
102
}
330
29
100
AcDbVisualStyle
  2
Shaded
 70
    27
177
     2
291
     0
 71
     2
176
     1
 72
     2
176
     1
 73
     1
176
     1
 90
        2
176
     1
 40
0.6
176
     1
 41
30.0
176
     1
 63
     7
421
 16777215
176
     1
 74
     0
176
     1
 91
        4
176
     1
 64
     7
176
     1
 65
   257
176
     1
 75
     1
176
     1
175
     1
176
     1
 42
1.0
176
     1
 92
        8
176
     1
 66
   257
176
     1
 43
1.0
176
     1
 76
     1
176
     1
 77
     6
176
     1
 78
     2
176
     1
 67
     8
425
  7895160
176
     1
 79
     3
176
     1
170
     0
176
     1
171
     0
176
     1
290
     0
176
     1
 93
        5
176
     1
 44
0.0
176
     1
173
     0
176
     1
1001
ACAD
1000
AcDbSavedByObjectVersion
1070
     0
  0
VISUALSTYLE
  5
3D
102
{ACAD_XDICTIONARY
360
25B
102
}
102
{ACAD_REACTORS
330
29
102
}
330
29
100
AcDbVisualStyle
  2
Shaded with edges
 70
    26
177
     2
291
     0
 71
     2
176
     1
 72
     2
176
     1
 73
     1
176
     1
 90
        2
176
     1
 40
0.6
176
     1
 41
30.0
176
     1
 63
     7
421
 16777215
176
     1
 74
     1
176
     1
 91
        2
176
     1
 64
     7
176
     1
 65
   257
176
     1
 75
     2
176
     1
175
     1
176
     1
 42
1.0
176
     1
 92
        8
176
     1
 66
   257
176
     1
 43
1.0
176
     1
 76
     1
176
     1
 77
     6
176
     1
 78
     2
176
     1
 67
     7
176
     1
 79
     3
176
     1
170
     0
176
     1
171
     0
176
     1
290
     0
176
     1
 93
        5
176
     1
 44
0.0
176
     1
173
     0
176
     1
1001
ACAD
1000
AcDbSavedByObjectVersion
1070
     0
  0
VISUALSTYLE
  5
3A
102
{ACAD_XDICTIONARY
360
255
102
}
102
{ACAD_REACTORS
330
29
102
}
330
29
100
AcDbVisualStyle
  2
Shades of Gray
 70
    23
177
     2
291
     0
 71
     2
176
     1
 72
     2
176
     1
 73
     3
176
     1
 90
        0
176
     1
 40
0.6
176
     1
 41
30.0
176
     1
 63
     7
421
 16777215
176
     1
 74
     2
176
     1
 91
        2
176
     1
 64
     7
176
     1
 65
     7
176
     1
 75
     1
176
     1
175
     1
176
     1
 42
40.0
176
     1
 92
        8
176
     1
 66
     7
176
     1
 43
1.0
176
     1
 76
     1
176
     1
 77
     6
176
     1
 78
     2
176
     1
 67
     7
176
     1
 79
     3
176
     1
170
     0
176
     1
171
     0
176
     1
290
     0
176
     1
 93
        1
176
     1
 44
0.0
176
     1
173
     0
176
     1
1001
ACAD
1000
AcDbSavedByObjectVersion
1070
     0
  0
VISUALSTYLE
  5
3B
102
{ACAD_XDICTIONARY
360
257
102
}
102
{ACAD_REACTORS
330
29
102
}
330
29
100
AcDbVisualStyle
  2
Sketchy
 70
    24
177
     2
291
     0
 71
     1
176
     1
 72
     2
176
     1
 73
     2
176
     1
 90
        0
176
     1
 40
0.6
176
     1
 41
30.0
176
     1
 63
     7
421
 16777215
176
     1
 74
     2
176
     1
 91
        2
176
     1
 64
     7
176
     1
 65
     7
176
     1
 75
     1
176
     1
175
     1
176
     1
 42
40.0
176
     1
 92
       11
176
     1
 66
     7
176
     1
 43
1.0
176
     1
 76
     1
176
     1
 77
     6
176
     1
 78
     2
176
     1
 67
     7
176
     1
 79
     6
176
     1
170
     0
176
     1
171
     0
176
     1
290
     0
176
     1
 93
        1
176
     1
 44
0.0
176
     1
173
     0
176
     1
1001
ACAD
1000
AcDbSavedByObjectVersion
1070
     0
  0
VISUALSTYLE
  5
36
102
{ACAD_XDICTIONARY
360
24D
102
}
102
{ACAD_REACTORS
330
29
102
}
330
29
100
AcDbVisualStyle
  2
Thicken
 70
    13
177
     2
291
     1
 71
     2
176
     1
 72
     2
176
     1
 73
     0
176
     1
 90
        0
176
     1
 40
0.6
176
     1
 41
30.0
176
     1
 63
     7
421
 16777215
176
     1
 74
     1
176
     1
 91
        4
176
     1
 64
     7
176
     1
 65
   257
176
     1
 75
     1
176
     1
175
     1
176
     1
 42
1.0
176
     1
 92
       12
176
     1
 66
     7
176
     1
 43
1.0
176
     1
 76
     1
176
     1
 77
     6
176
     1
 78
     2
176
     1
 67
     7
176
     1
 79
     5
176
     1
170
     0
176
     1
171
     0
176
     1
290
     0
176
     1
 93
        1
176
     1
 44
0.0
176
     1
173
     0
176
     1
1001
ACAD
1000
AcDbSavedByObjectVersion
1070
     0
  0
VISUALSTYLE
  5
30
102
{ACAD_XDICTIONARY
360
241
102
}
102
{ACAD_REACTORS
330
29
102
}
330
29
100
AcDbVisualStyle
  2
Wireframe
 70
     5
177
     2
291
     0
 71
     0
176
     1
 72
     2
176
     1
 73
     0
176
     1
 90
        0
176
     1
 40
0.6
176
     1
 41
30.0
176
     1
 63
     7
421
 16777215
176
     1
 74
     1
176
     1
 91
        4
176
     1
 64
     7
176
     1
 65
   257
176
     1
 75
     1
176
     1
175
     1
176
     1
 42
1.0
176
     1
 92
        0
176
     1
 66
   257
176
     1
 43
1.0
176
     1
 76
     1
176
     1
 77
     6
176
     1
 78
     2
176
     1
 67
     7
176
     1
 79
     3
176
     1
170
     0
176
     1
171
     0
176
     1
290
     0
176
     1
 93
        1
176
     1
 44
0.0
176
     1
173
     0
176
     1
1001
ACAD
1000
AcDbSavedByObjectVersion
1070
     0
  0
VISUALSTYLE
  5
3C
102
{ACAD_XDICTIONARY
360
259
102
}
102
{ACAD_REACTORS
330
29
102
}
330
29
100
AcDbVisualStyle
  2
X-Ray
 70
    25
177
     2
291
     0
 71
     2
176
     1
 72
     2
176
     1
 73
     1
176
     1
 90
        1
176
     1
 40
0.5
176
     1
 41
30.0
176
     1
 63
     7
421
 16777215
176
     1
 74
     1
176
     1
 91
        0
176
     1
 64
     7
176
     1
 65
   257
176
     1
 75
     1
176
     1
175
     1
176
     1
 42
1.0
176
     1
 92
        8
176
     1
 66
     7
176
     1
 43
1.0
176
     1
 76
     1
176
     1
 77
     6
176
     1
 78
     2
176
     1
 67
     7
176
     1
 79
     3
176
     1
170
     0
176
     1
171
     0
176
     1
290
     0
176
     1
 93
       13
176
     1
 44
0.0
176
     1
173
     0
176
     1
1001
ACAD
1000
AcDbSavedByObjectVersion
1070
     0
  0
DICTIONARYVAR
  5
230
102
{ACAD_REACTORS
330
22B
102
}
330
22B
100
DictionaryVariables
280
     0
  1
1:1
  0
DICTIONARYVAR
  5
22D
102
{ACAD_REACTORS
330
22B
102
}
330
22B
100
DictionaryVariables
280
     0
  1
STANDARD
  0
DICTIONARYVAR
  5
22C
102
{ACAD_REACTORS
330
22B
102
}
330
22B
100
DictionaryVariables
280
     0
  1
STANDARD
  0
DICTIONARYVAR
  5
22E
102
{ACAD_REACTORS
330
22B
102
}
330
22B
100
DictionaryVariables
280
     0
  1
Imperial24
  0
DICTIONARYVAR
  5
22F
102
{ACAD_REACTORS
330
22B
102
}
330
22B
100
DictionaryVariables
280
     0
  1
Imperial24
  0
DICTIONARY
  5
269
330
6B
100
AcDbDictionary
280
     1
281
     1
  3
ACAD_XREC_ROUNDTRIP
360
26A
  0
DICTIONARY
  5
1A
330
19
100
AcDbDictionary
280
     1
281
     1
  3
BUMPTILE
360
1C
  3
DIFFUSETILE
360
1B
  3
OPACITYTILE
360
1F
  3
REFLECTIONTILE
360
1E
  3
REFRACTIONTILE
360
20
  3
SPECULARTILE
360
1D
  0
DICTIONARY
  5
12
330
11
100
AcDbDictionary
280
     1
281
     1
  3
BUMPTILE
360
14
  3
DIFFUSETILE
360
13
  3
OPACITYTILE
360
17
  3
REFLECTIONTILE
360
16
  3
REFRACTIONTILE
360
18
  3
SPECULARTILE
360
15
  0
DICTIONARY
  5
22
330
21
100
AcDbDictionary
280
     1
281
     1
  3
BUMPTILE
360
24
  3
DIFFUSETILE
360
23
  3
OPACITYTILE
360
27
  3
REFLECTIONTILE
360
26
  3
REFRACTIONTILE
360
28
  3
SPECULARTILE
360
25
  0
DICTIONARY
  5
265
330
67
100
AcDbDictionary
280
     1
281
     1
  3
ACAD_XREC_ROUNDTRIP
360
266
  0
DICTIONARY
  5
267
330
69
100
AcDbDictionary
280
     1
281
     1
  3
ACAD_XREC_ROUNDTRIP
360
268
  0
DICTIONARY
  5
231
330
65
100
AcDbDictionary
280
     1
281
     1
  3
ACAD_ROUNDTRIP_2008_TABLESTYLE_CELLSTYLEMAP
360
232
  0
DICTIONARY
  5
23F
330
2F
100
AcDbDictionary
280
     1
281
     1
  3
ACAD_XREC_ROUNDTRIP
360
240
  0
DICTIONARY
  5
23D
330
2E
100
AcDbDictionary
280
     1
281
     1
  3
ACAD_XREC_ROUNDTRIP
360
23E
  0
DICTIONARY
  5
24B
330
35
100
AcDbDictionary
280
     1
281
     1
  3
ACAD_XREC_ROUNDTRIP
360
24C
  0
DICTIONARY
  5
253
330
39
100
AcDbDictionary
280
     1
281
     1
  3
ACAD_XREC_ROUNDTRIP
360
254
  0
DICTIONARY
  5
245
330
32
100
AcDbDictionary
280
     1
281
     1
  3
ACAD_XREC_ROUNDTRIP
360
246
  0
DICTIONARY
  5
249
330
34
100
AcDbDictionary
280
     1
281
     1
  3
ACAD_XREC_ROUNDTRIP
360
24A
  0
DICTIONARY
  5
263
330
41
100
AcDbDictionary
280
     1
281
     1
  3
ACAD_XREC_ROUNDTRIP
360
264
  0
DICTIONARY
  5
251
330
38
100
AcDbDictionary
280
     1
281
     1
  3
ACAD_XREC_ROUNDTRIP
360
252
  0
DICTIONARY
  5
235
330
2A
100
AcDbDictionary
280
     1
281
     1
  3
ACAD_XREC_ROUNDTRIP
360
236
  0
DICTIONARY
  5
237
330
2B
100
AcDbDictionary
280
     1
281
     1
  3
ACAD_XREC_ROUNDTRIP
360
238
  0
DICTIONARY
  5
239
330
2C
100
AcDbDictionary
280
     1
281
     1
  3
ACAD_XREC_ROUNDTRIP
360
23A
  0
DICTIONARY
  5
23B
330
2D
100
AcDbDictionary
280
     1
281
     1
  3
ACAD_XREC_ROUNDTRIP
360
23C
  0
DICTIONARY
  5
243
330
31
100
AcDbDictionary
280
     1
281
     1
  3
ACAD_XREC_ROUNDTRIP
360
244
  0
DICTIONARY
  5
25F
330
3F
100
AcDbDictionary
280
     1
281
     1
  3
ACAD_XREC_ROUNDTRIP
360
260
  0
DICTIONARY
  5
24F
330
37
100
AcDbDictionary
280
     1
281
     1
  3
ACAD_XREC_ROUNDTRIP
360
250
  0
DICTIONARY
  5
261
330
40
100
AcDbDictionary
280
     1
281
     1
  3
ACAD_XREC_ROUNDTRIP
360
262
  0
DICTIONARY
  5
247
330
33
100
AcDbDictionary
280
     1
281
     1
  3
ACAD_XREC_ROUNDTRIP
360
248
  0
DICTIONARY
  5
25D
330
3E
100
AcDbDictionary
280
     1
281
     1
  3
ACAD_XREC_ROUNDTRIP
360
25E
  0
DICTIONARY
  5
25B
330
3D
100
AcDbDictionary
280
     1
281
     1
  3
ACAD_XREC_ROUNDTRIP
360
25C
  0
DICTIONARY
  5
255
330
3A
100
AcDbDictionary
280
     1
281
     1
  3
ACAD_XREC_ROUNDTRIP
360
256
  0
DICTIONARY
  5
257
330
3B
100
AcDbDictionary
280
     1
281
     1
  3
ACAD_XREC_ROUNDTRIP
360
258
  0
DICTIONARY
  5
24D
330
36
100
AcDbDictionary
280
     1
281
     1
  3
ACAD_XREC_ROUNDTRIP
360
24E
  0
DICTIONARY
  5
241
330
30
100
AcDbDictionary
280
     1
281
     1
  3
ACAD_XREC_ROUNDTRIP
360
242
  0
DICTIONARY
  5
259
330
3C
100
AcDbDictionary
280
     1
281
     1
  3
ACAD_XREC_ROUNDTRIP
360
25A
  0
XRECORD
  5
26A
102
{ACAD_REACTORS
330
269
102
}
330
269
100
AcDbXrecord
280
     1
102
DISPLAYNAME
  1
Imperial24
102
FLAGS
 90
        0
  0
XRECORD
  5
1C
102
{ACAD_REACTORS
330
1A
102
}
330
1A
100
AcDbXrecord
280
     1
270
     1
271
     1
  0
XRECORD
  5
1B
102
{ACAD_REACTORS
330
1A
102
}
330
1A
100
AcDbXrecord
280
     1
270
     1
271
     1
  0
XRECORD
  5
1F
102
{ACAD_REACTORS
330
1A
102
}
330
1A
100
AcDbXrecord
280
     1
270
     1
271
     1
  0
XRECORD
  5
1E
102
{ACAD_REACTORS
330
1A
102
}
330
1A
100
AcDbXrecord
280
     1
270
     1
271
     1
  0
XRECORD
  5
20
102
{ACAD_REACTORS
330
1A
102
}
330
1A
100
AcDbXrecord
280
     1
270
     1
271
     1
  0
XRECORD
  5
1D
102
{ACAD_REACTORS
330
1A
102
}
330
1A
100
AcDbXrecord
280
     1
270
     1
271
     1
  0
XRECORD
  5
14
102
{ACAD_REACTORS
330
12
102
}
330
12
100
AcDbXrecord
280
     1
270
     1
271
     1
  0
XRECORD
  5
13
102
{ACAD_REACTORS
330
12
102
}
330
12
100
AcDbXrecord
280
     1
270
     1
271
     1
  0
XRECORD
  5
17
102
{ACAD_REACTORS
330
12
102
}
330
12
100
AcDbXrecord
280
     1
270
     1
271
     1
  0
XRECORD
  5
16
102
{ACAD_REACTORS
330
12
102
}
330
12
100
AcDbXrecord
280
     1
270
     1
271
     1
  0
XRECORD
  5
18
102
{ACAD_REACTORS
330
12
102
}
330
12
100
AcDbXrecord
280
     1
270
     1
271
     1
  0
XRECORD
  5
15
102
{ACAD_REACTORS
330
12
102
}
330
12
100
AcDbXrecord
280
     1
270
     1
271
     1
  0
XRECORD
  5
24
102
{ACAD_REACTORS
330
22
102
}
330
22
100
AcDbXrecord
280
     1
270
     1
271
     1
  0
XRECORD
  5
23
102
{ACAD_REACTORS
330
22
102
}
330
22
100
AcDbXrecord
280
     1
270
     1
271
     1
  0
XRECORD
  5
27
102
{ACAD_REACTORS
330
22
102
}
330
22
100
AcDbXrecord
280
     1
270
     1
271
     1
  0
XRECORD
  5
26
102
{ACAD_REACTORS
330
22
102
}
330
22
100
AcDbXrecord
280
     1
270
     1
271
     1
  0
XRECORD
  5
28
102
{ACAD_REACTORS
330
22
102
}
330
22
100
AcDbXrecord
280
     1
270
     1
271
     1
  0
XRECORD
  5
25
102
{ACAD_REACTORS
330
22
102
}
330
22
100
AcDbXrecord
280
     1
270
     1
271
     1
  0
XRECORD
  5
266
102
{ACAD_REACTORS
330
265
102
}
330
265
100
AcDbXrecord
280
     1
102
ACAD_ROUNDTRIP_2012_MLEADER_STYLE
298
     1
  0
XRECORD
  5
268
102
{ACAD_REACTORS
330
267
102
}
330
267
100
AcDbXrecord
280
     1
102
DISPLAYNAME
  1
Imperial24
102
FLAGS
 90
        0
  0
CELLSTYLEMAP
  5
232
102
{ACAD_REACTORS
330
231
102
}
330
231
100
AcDbCellStyleMap
 90
        3
300
CELLSTYLE
  1
TABLEFORMAT_BEGIN
 90
        5
170
     1
 91
        0
 92
    32768
 62
   257
 93
        1
300
CONTENTFORMAT
  1
CONTENTFORMAT_BEGIN
 90
        0
 91
        0
 92
      512
 93
        0
300

 40
0.0
140
1.0
 94
        5
 62
     0
340
55
144
0.25
309
CONTENTFORMAT_END
171
     0
 94
        0
309
TABLEFORMAT_END
  1
CELLSTYLE_BEGIN
 90
        1
 91
        1
300
_TITLE
309
CELLSTYLE_END
300
CELLSTYLE
  1
TABLEFORMAT_BEGIN
 90
        5
170
     1
 91
        0
 92
        0
 62
   257
 93
        1
300
CONTENTFORMAT
  1
CONTENTFORMAT_BEGIN
 90
        0
 91
        0
 92
      512
 93
        0
300

 40
0.0
140
1.0
 94
        5
 62
     0
340
55
144
0.18
309
CONTENTFORMAT_END
171
     0
 94
        0
309
TABLEFORMAT_END
  1
CELLSTYLE_BEGIN
 90
        2
 91
        1
300
_HEADER
309
CELLSTYLE_END
300
CELLSTYLE
  1
TABLEFORMAT_BEGIN
 90
        5
170
     1
 91
        0
 92
        0
 62
   257
 93
        1
300
CONTENTFORMAT
  1
CONTENTFORMAT_BEGIN
 90
        0
 91
        0
 92
      512
 93
        0
300

 40
0.0
140
1.0
 94
        2
 62
     0
340
55
144
0.18
309
CONTENTFORMAT_END
171
     0
 94
        0
309
TABLEFORMAT_END
  1
CELLSTYLE_BEGIN
 90
        3
 91
        2
300
_DATA
309
CELLSTYLE_END
  0
XRECORD
  5
240
102
{ACAD_REACTORS
330
23F
102
}
330
23F
100
AcDbXrecord
280
     1
102
RTVSPost2010Prop28
280
     1
102
RTVSPost2010PropOp28
 70
     1
102
RTVSPost2010Prop29
280
     1
102
RTVSPost2010PropOp29
 70
     1
102
RTVSPost2010Prop30
280
     0
102
RTVSPost2010PropOp30
 70
     1
102
RTVSPost2010Prop31
280
     0
102
RTVSPost2010PropOp31
 70
     1
102
RTVSPost2010Prop32
280
     0
102
RTVSPost2010PropOp32
 70
     1
102
RTVSPost2010Prop33
280
     0
102
RTVSPost2010PropOp33
 70
     1
102
RTVSPost2010Prop34
280
     0
102
RTVSPost2010PropOp34
 70
     1
102
RTVSPost2010Prop35
280
     0
102
RTVSPost2010PropOp35
 70
     1
102
RTVSPost2010Prop36
280
     0
102
RTVSPost2010PropOp36
 70
     1
102
RTVSPost2010Prop37
 90
       50
102
RTVSPost2010PropOp37
 70
     1
102
RTVSPost2010Prop38
140
0.0
102
RTVSPost2010PropOp38
 70
     1
102
RTVSPost2010Prop39
140
1.0
102
RTVSPost2010PropOp39
 70
     1
102
RTVSPost2010Prop40
 90
        0
102
RTVSPost2010PropOp40
 70
     1
102
RTVSPost2010Prop41ColorIndex
 90
       18
102
RTVSPost2010Prop41ColorRGB
 90
        0
102
RTVSPost2010PropOp41
 70
     1
102
RTVSPost2010Prop42
 90
       50
102
RTVSPost2010PropOp42
 70
     1
102
RTVSPost2010Prop43
 90
        3
102
RTVSPost2010PropOp43
 70
     1
102
RTVSPost2010Prop44ColorIndex
 90
        5
102
RTVSPost2010Prop44ColorRGB
 90
      255
102
RTVSPost2010PropOp44
 70
     1
102
RTVSPost2010Prop45
280
     0
102
RTVSPost2010PropOp45
 70
     1
102
RTVSPost2010Prop46
 90
       50
102
RTVSPost2010PropOp46
 70
     1
102
RTVSPost2010Prop47
 90
       50
102
RTVSPost2010PropOp47
 70
     1
102
RTVSPost2010Prop48
 90
       50
102
RTVSPost2010PropOp48
 70
     1
102
RTVSPost2010Prop49
280
     0
102
RTVSPost2010PropOp49
 70
     1
102
RTVSPost2010Prop50
 90
       50
102
RTVSPost2010PropOp50
 70
     1
102
RTVSPost2010Prop51ColorIndex
 90
      256
102
RTVSPost2010Prop51ColorRGB
 90
-16777216
102
RTVSPost2010PropOp51
 70
     0
102
RTVSPost2010Prop52
140
1.0
102
RTVSPost2010PropOp52
 70
     0
102
RTVSPost2010Prop53
 90
        2
102
RTVSPost2010PropOp53
 70
     1
102
RTVSPost2010Prop54
  1
strokes_ogs.tif
102
RTVSPost2010PropOp54
 70
     1
102
RTVSPost2010Prop55
280
     0
102
RTVSPost2010PropOp55
 70
     1
102
RTVSPost2010Prop56
140
1.0
102
RTVSPost2010PropOp56
 70
     1
102
RTVSPost2010Prop57
140
1.0
102
RTVSPost2010PropOp57
 70
     1
  0
XRECORD
  5
23E
102
{ACAD_REACTORS
330
23D
102
}
330
23D
100
AcDbXrecord
280
     1
102
RTVSPost2010Prop28
280
     0
102
RTVSPost2010PropOp28
 70
     1
102
RTVSPost2010Prop29
280
     1
102
RTVSPost2010PropOp29
 70
     1
102
RTVSPost2010Prop30
280
     1
102
RTVSPost2010PropOp30
 70
     1
102
RTVSPost2010Prop31
280
     0
102
RTVSPost2010PropOp31
 70
     1
102
RTVSPost2010Prop32
280
     0
102
RTVSPost2010PropOp32
 70
     1
102
RTVSPost2010Prop33
280
     0
102
RTVSPost2010PropOp33
 70
     1
102
RTVSPost2010Prop34
280
     0
102
RTVSPost2010PropOp34
 70
     1
102
RTVSPost2010Prop35
280
     0
102
RTVSPost2010PropOp35
 70
     1
102
RTVSPost2010Prop36
280
     0
102
RTVSPost2010PropOp36
 70
     1
102
RTVSPost2010Prop37
 90
       50
102
RTVSPost2010PropOp37
 70
     1
102
RTVSPost2010Prop38
140
0.0
102
RTVSPost2010PropOp38
 70
     1
102
RTVSPost2010Prop39
140
1.0
102
RTVSPost2010PropOp39
 70
     1
102
RTVSPost2010Prop40
 90
        0
102
RTVSPost2010PropOp40
 70
     1
102
RTVSPost2010Prop41ColorIndex
 90
       18
102
RTVSPost2010Prop41ColorRGB
 90
        0
102
RTVSPost2010PropOp41
 70
     1
102
RTVSPost2010Prop42
 90
       50
102
RTVSPost2010PropOp42
 70
     1
102
RTVSPost2010Prop43
 90
        3
102
RTVSPost2010PropOp43
 70
     1
102
RTVSPost2010Prop44ColorIndex
 90
        5
102
RTVSPost2010Prop44ColorRGB
 90
      255
102
RTVSPost2010PropOp44
 70
     1
102
RTVSPost2010Prop45
280
     0
102
RTVSPost2010PropOp45
 70
     1
102
RTVSPost2010Prop46
 90
       50
102
RTVSPost2010PropOp46
 70
     1
102
RTVSPost2010Prop47
 90
       50
102
RTVSPost2010PropOp47
 70
     1
102
RTVSPost2010Prop48
 90
       50
102
RTVSPost2010PropOp48
 70
     1
102
RTVSPost2010Prop49
280
     0
102
RTVSPost2010PropOp49
 70
     1
102
RTVSPost2010Prop50
 90
       50
102
RTVSPost2010PropOp50
 70
     1
102
RTVSPost2010Prop51ColorIndex
 90
      256
102
RTVSPost2010Prop51ColorRGB
 90
-16777216
102
RTVSPost2010PropOp51
 70
     0
102
RTVSPost2010Prop52
140
1.0
102
RTVSPost2010PropOp52
 70
     0
102
RTVSPost2010Prop53
 90
        2
102
RTVSPost2010PropOp53
 70
     1
102
RTVSPost2010Prop54
  1
strokes_ogs.tif
102
RTVSPost2010PropOp54
 70
     1
102
RTVSPost2010Prop55
280
     0
102
RTVSPost2010PropOp55
 70
     1
102
RTVSPost2010Prop56
140
1.0
102
RTVSPost2010PropOp56
 70
     1
102
RTVSPost2010Prop57
140
1.0
102
RTVSPost2010PropOp57
 70
     1
  0
XRECORD
  5
24C
102
{ACAD_REACTORS
330
24B
102
}
330
24B
100
AcDbXrecord
280
     1
102
RTVSPost2010Prop28
280
     0
102
RTVSPost2010PropOp28
 70
     1
102
RTVSPost2010Prop29
280
     1
102
RTVSPost2010PropOp29
 70
     1
102
RTVSPost2010Prop30
280
     1
102
RTVSPost2010PropOp30
 70
     1
102
RTVSPost2010Prop31
280
     0
102
RTVSPost2010PropOp31
 70
     1
102
RTVSPost2010Prop32
280
     0
102
RTVSPost2010PropOp32
 70
     1
102
RTVSPost2010Prop33
280
     0
102
RTVSPost2010PropOp33
 70
     1
102
RTVSPost2010Prop34
280
     0
102
RTVSPost2010PropOp34
 70
     1
102
RTVSPost2010Prop35
280
     0
102
RTVSPost2010PropOp35
 70
     1
102
RTVSPost2010Prop36
280
     0
102
RTVSPost2010PropOp36
 70
     1
102
RTVSPost2010Prop37
 90
       50
102
RTVSPost2010PropOp37
 70
     1
102
RTVSPost2010Prop38
140
0.0
102
RTVSPost2010PropOp38
 70
     1
102
RTVSPost2010Prop39
140
1.0
102
RTVSPost2010PropOp39
 70
     1
102
RTVSPost2010Prop40
 90
        0
102
RTVSPost2010PropOp40
 70
     1
102
RTVSPost2010Prop41ColorIndex
 90
       18
102
RTVSPost2010Prop41ColorRGB
 90
        0
102
RTVSPost2010PropOp41
 70
     1
102
RTVSPost2010Prop42
 90
       50
102
RTVSPost2010PropOp42
 70
     1
102
RTVSPost2010Prop43
 90
        3
102
RTVSPost2010PropOp43
 70
     1
102
RTVSPost2010Prop44ColorIndex
 90
        5
102
RTVSPost2010Prop44ColorRGB
 90
      255
102
RTVSPost2010PropOp44
 70
     1
102
RTVSPost2010Prop45
280
     0
102
RTVSPost2010PropOp45
 70
     1
102
RTVSPost2010Prop46
 90
       50
102
RTVSPost2010PropOp46
 70
     1
102
RTVSPost2010Prop47
 90
       50
102
RTVSPost2010PropOp47
 70
     1
102
RTVSPost2010Prop48
 90
       50
102
RTVSPost2010PropOp48
 70
     1
102
RTVSPost2010Prop49
280
     0
102
RTVSPost2010PropOp49
 70
     1
102
RTVSPost2010Prop50
 90
       50
102
RTVSPost2010PropOp50
 70
     1
102
RTVSPost2010Prop51ColorIndex
 90
      256
102
RTVSPost2010Prop51ColorRGB
 90
-16777216
102
RTVSPost2010PropOp51
 70
     0
102
RTVSPost2010Prop52
140
1.0
102
RTVSPost2010PropOp52
 70
     0
102
RTVSPost2010Prop53
 90
        2
102
RTVSPost2010PropOp53
 70
     1
102
RTVSPost2010Prop54
  1
strokes_ogs.tif
102
RTVSPost2010PropOp54
 70
     1
102
RTVSPost2010Prop55
280
     0
102
RTVSPost2010PropOp55
 70
     1
102
RTVSPost2010Prop56
140
1.0
102
RTVSPost2010PropOp56
 70
     1
102
RTVSPost2010Prop57
140
1.0
102
RTVSPost2010PropOp57
 70
     1
  0
XRECORD
  5
254
102
{ACAD_REACTORS
330
253
102
}
330
253
100
AcDbXrecord
280
     1
102
RTVSPost2010Prop28
280
     0
102
RTVSPost2010PropOp28
 70
     1
102
RTVSPost2010Prop29
280
     1
102
RTVSPost2010PropOp29
 70
     1
102
RTVSPost2010Prop30
280
     1
102
RTVSPost2010PropOp30
 70
     1
102
RTVSPost2010Prop31
280
     0
102
RTVSPost2010PropOp31
 70
     1
102
RTVSPost2010Prop32
280
     0
102
RTVSPost2010PropOp32
 70
     1
102
RTVSPost2010Prop33
280
     0
102
RTVSPost2010PropOp33
 70
     1
102
RTVSPost2010Prop34
280
     0
102
RTVSPost2010PropOp34
 70
     1
102
RTVSPost2010Prop35
280
     0
102
RTVSPost2010PropOp35
 70
     1
102
RTVSPost2010Prop36
280
     0
102
RTVSPost2010PropOp36
 70
     1
102
RTVSPost2010Prop37
 90
       50
102
RTVSPost2010PropOp37
 70
     1
102
RTVSPost2010Prop38
140
0.0
102
RTVSPost2010PropOp38
 70
     1
102
RTVSPost2010Prop39
140
1.0
102
RTVSPost2010PropOp39
 70
     1
102
RTVSPost2010Prop40
 90
        0
102
RTVSPost2010PropOp40
 70
     1
102
RTVSPost2010Prop41ColorIndex
 90
       18
102
RTVSPost2010Prop41ColorRGB
 90
        0
102
RTVSPost2010PropOp41
 70
     1
102
RTVSPost2010Prop42
 90
       50
102
RTVSPost2010PropOp42
 70
     1
102
RTVSPost2010Prop43
 90
        3
102
RTVSPost2010PropOp43
 70
     1
102
RTVSPost2010Prop44ColorIndex
 90
        5
102
RTVSPost2010Prop44ColorRGB
 90
      255
102
RTVSPost2010PropOp44
 70
     1
102
RTVSPost2010Prop45
280
     0
102
RTVSPost2010PropOp45
 70
     1
102
RTVSPost2010Prop46
 90
       50
102
RTVSPost2010PropOp46
 70
     1
102
RTVSPost2010Prop47
 90
       50
102
RTVSPost2010PropOp47
 70
     1
102
RTVSPost2010Prop48
 90
       50
102
RTVSPost2010PropOp48
 70
     1
102
RTVSPost2010Prop49
280
     0
102
RTVSPost2010PropOp49
 70
     1
102
RTVSPost2010Prop50
 90
       50
102
RTVSPost2010PropOp50
 70
     1
102
RTVSPost2010Prop51ColorIndex
 90
      256
102
RTVSPost2010Prop51ColorRGB
 90
-16777216
102
RTVSPost2010PropOp51
 70
     0
102
RTVSPost2010Prop52
140
1.0
102
RTVSPost2010PropOp52
 70
     0
102
RTVSPost2010Prop53
 90
        2
102
RTVSPost2010PropOp53
 70
     1
102
RTVSPost2010Prop54
  1
strokes_ogs.tif
102
RTVSPost2010PropOp54
 70
     1
102
RTVSPost2010Prop55
280
     0
102
RTVSPost2010PropOp55
 70
     1
102
RTVSPost2010Prop56
140
1.0
102
RTVSPost2010PropOp56
 70
     1
102
RTVSPost2010Prop57
140
1.0
102
RTVSPost2010PropOp57
 70
     1
  0
XRECORD
  5
246
102
{ACAD_REACTORS
330
245
102
}
330
245
100
AcDbXrecord
280
     1
102
RTVSPost2010Prop28
280
     0
102
RTVSPost2010PropOp28
 70
     1
102
RTVSPost2010Prop29
280
     1
102
RTVSPost2010PropOp29
 70
     1
102
RTVSPost2010Prop30
280
     1
102
RTVSPost2010PropOp30
 70
     1
102
RTVSPost2010Prop31
280
     0
102
RTVSPost2010PropOp31
 70
     1
102
RTVSPost2010Prop32
280
     0
102
RTVSPost2010PropOp32
 70
     1
102
RTVSPost2010Prop33
280
     0
102
RTVSPost2010PropOp33
 70
     1
102
RTVSPost2010Prop34
280
     0
102
RTVSPost2010PropOp34
 70
     1
102
RTVSPost2010Prop35
280
     0
102
RTVSPost2010PropOp35
 70
     1
102
RTVSPost2010Prop36
280
     0
102
RTVSPost2010PropOp36
 70
     1
102
RTVSPost2010Prop37
 90
       50
102
RTVSPost2010PropOp37
 70
     1
102
RTVSPost2010Prop38
140
0.0
102
RTVSPost2010PropOp38
 70
     1
102
RTVSPost2010Prop39
140
1.0
102
RTVSPost2010PropOp39
 70
     1
102
RTVSPost2010Prop40
 90
        0
102
RTVSPost2010PropOp40
 70
     1
102
RTVSPost2010Prop41ColorIndex
 90
       18
102
RTVSPost2010Prop41ColorRGB
 90
        0
102
RTVSPost2010PropOp41
 70
     1
102
RTVSPost2010Prop42
 90
       50
102
RTVSPost2010PropOp42
 70
     1
102
RTVSPost2010Prop43
 90
        3
102
RTVSPost2010PropOp43
 70
     1
102
RTVSPost2010Prop44ColorIndex
 90
        5
102
RTVSPost2010Prop44ColorRGB
 90
      255
102
RTVSPost2010PropOp44
 70
     1
102
RTVSPost2010Prop45
280
     0
102
RTVSPost2010PropOp45
 70
     1
102
RTVSPost2010Prop46
 90
       50
102
RTVSPost2010PropOp46
 70
     1
102
RTVSPost2010Prop47
 90
       50
102
RTVSPost2010PropOp47
 70
     1
102
RTVSPost2010Prop48
 90
       50
102
RTVSPost2010PropOp48
 70
     1
102
RTVSPost2010Prop49
280
     0
102
RTVSPost2010PropOp49
 70
     1
102
RTVSPost2010Prop50
 90
       50
102
RTVSPost2010PropOp50
 70
     1
102
RTVSPost2010Prop51ColorIndex
 90
      256
102
RTVSPost2010Prop51ColorRGB
 90
-16777216
102
RTVSPost2010PropOp51
 70
     0
102
RTVSPost2010Prop52
140
1.0
102
RTVSPost2010PropOp52
 70
     0
102
RTVSPost2010Prop53
 90
        2
102
RTVSPost2010PropOp53
 70
     1
102
RTVSPost2010Prop54
  1
strokes_ogs.tif
102
RTVSPost2010PropOp54
 70
     1
102
RTVSPost2010Prop55
280
     0
102
RTVSPost2010PropOp55
 70
     1
102
RTVSPost2010Prop56
140
1.0
102
RTVSPost2010PropOp56
 70
     1
102
RTVSPost2010Prop57
140
1.0
102
RTVSPost2010PropOp57
 70
     1
  0
XRECORD
  5
24A
102
{ACAD_REACTORS
330
249
102
}
330
249
100
AcDbXrecord
280
     1
102
RTVSPost2010Prop28
280
     0
102
RTVSPost2010PropOp28
 70
     1
102
RTVSPost2010Prop29
280
     1
102
RTVSPost2010PropOp29
 70
     1
102
RTVSPost2010Prop30
280
     1
102
RTVSPost2010PropOp30
 70
     1
102
RTVSPost2010Prop31
280
     0
102
RTVSPost2010PropOp31
 70
     1
102
RTVSPost2010Prop32
280
     0
102
RTVSPost2010PropOp32
 70
     1
102
RTVSPost2010Prop33
280
     0
102
RTVSPost2010PropOp33
 70
     1
102
RTVSPost2010Prop34
280
     0
102
RTVSPost2010PropOp34
 70
     1
102
RTVSPost2010Prop35
280
     0
102
RTVSPost2010PropOp35
 70
     1
102
RTVSPost2010Prop36
280
     0
102
RTVSPost2010PropOp36
 70
     1
102
RTVSPost2010Prop37
 90
       50
102
RTVSPost2010PropOp37
 70
     1
102
RTVSPost2010Prop38
140
0.0
102
RTVSPost2010PropOp38
 70
     1
102
RTVSPost2010Prop39
140
1.0
102
RTVSPost2010PropOp39
 70
     1
102
RTVSPost2010Prop40
 90
        0
102
RTVSPost2010PropOp40
 70
     1
102
RTVSPost2010Prop41ColorIndex
 90
       18
102
RTVSPost2010Prop41ColorRGB
 90
        0
102
RTVSPost2010PropOp41
 70
     1
102
RTVSPost2010Prop42
 90
       50
102
RTVSPost2010PropOp42
 70
     1
102
RTVSPost2010Prop43
 90
        3
102
RTVSPost2010PropOp43
 70
     1
102
RTVSPost2010Prop44ColorIndex
 90
        5
102
RTVSPost2010Prop44ColorRGB
 90
      255
102
RTVSPost2010PropOp44
 70
     1
102
RTVSPost2010Prop45
280
     0
102
RTVSPost2010PropOp45
 70
     1
102
RTVSPost2010Prop46
 90
       50
102
RTVSPost2010PropOp46
 70
     1
102
RTVSPost2010Prop47
 90
       50
102
RTVSPost2010PropOp47
 70
     1
102
RTVSPost2010Prop48
 90
       50
102
RTVSPost2010PropOp48
 70
     1
102
RTVSPost2010Prop49
280
     0
102
RTVSPost2010PropOp49
 70
     1
102
RTVSPost2010Prop50
 90
       50
102
RTVSPost2010PropOp50
 70
     1
102
RTVSPost2010Prop51ColorIndex
 90
      256
102
RTVSPost2010Prop51ColorRGB
 90
-16777216
102
RTVSPost2010PropOp51
 70
     0
102
RTVSPost2010Prop52
140
1.0
102
RTVSPost2010PropOp52
 70
     0
102
RTVSPost2010Prop53
 90
        2
102
RTVSPost2010PropOp53
 70
     1
102
RTVSPost2010Prop54
  1
strokes_ogs.tif
102
RTVSPost2010PropOp54
 70
     1
102
RTVSPost2010Prop55
280
     0
102
RTVSPost2010PropOp55
 70
     1
102
RTVSPost2010Prop56
140
1.0
102
RTVSPost2010PropOp56
 70
     1
102
RTVSPost2010Prop57
140
1.0
102
RTVSPost2010PropOp57
 70
     1
  0
XRECORD
  5
264
102
{ACAD_REACTORS
330
263
102
}
330
263
100
AcDbXrecord
280
     1
102
RTVSPost2010Prop28
280
     0
102
RTVSPost2010PropOp28
 70
     0
102
RTVSPost2010Prop29
280
     1
102
RTVSPost2010PropOp29
 70
     0
102
RTVSPost2010Prop30
280
     1
102
RTVSPost2010PropOp30
 70
     0
102
RTVSPost2010Prop31
280
     0
102
RTVSPost2010PropOp31
 70
     0
102
RTVSPost2010Prop32
280
     0
102
RTVSPost2010PropOp32
 70
     0
102
RTVSPost2010Prop33
280
     0
102
RTVSPost2010PropOp33
 70
     0
102
RTVSPost2010Prop34
280
     0
102
RTVSPost2010PropOp34
 70
     0
102
RTVSPost2010Prop35
280
     0
102
RTVSPost2010PropOp35
 70
     0
102
RTVSPost2010Prop36
280
     0
102
RTVSPost2010PropOp36
 70
     0
102
RTVSPost2010Prop37
 90
       50
102
RTVSPost2010PropOp37
 70
     0
102
RTVSPost2010Prop38
140
0.0
102
RTVSPost2010PropOp38
 70
     0
102
RTVSPost2010Prop39
140
1.0
102
RTVSPost2010PropOp39
 70
     0
102
RTVSPost2010Prop40
 90
        0
102
RTVSPost2010PropOp40
 70
     0
102
RTVSPost2010Prop41ColorIndex
 90
       18
102
RTVSPost2010Prop41ColorRGB
 90
        0
102
RTVSPost2010PropOp41
 70
     0
102
RTVSPost2010Prop42
 90
       50
102
RTVSPost2010PropOp42
 70
     0
102
RTVSPost2010Prop43
 90
        3
102
RTVSPost2010PropOp43
 70
     0
102
RTVSPost2010Prop44ColorIndex
 90
        5
102
RTVSPost2010Prop44ColorRGB
 90
      255
102
RTVSPost2010PropOp44
 70
     0
102
RTVSPost2010Prop45
280
     0
102
RTVSPost2010PropOp45
 70
     0
102
RTVSPost2010Prop46
 90
       50
102
RTVSPost2010PropOp46
 70
     0
102
RTVSPost2010Prop47
 90
       50
102
RTVSPost2010PropOp47
 70
     0
102
RTVSPost2010Prop48
 90
       50
102
RTVSPost2010PropOp48
 70
     0
102
RTVSPost2010Prop49
280
     0
102
RTVSPost2010PropOp49
 70
     0
102
RTVSPost2010Prop50
 90
       50
102
RTVSPost2010PropOp50
 70
     0
102
RTVSPost2010Prop51ColorIndex
 90
      256
102
RTVSPost2010Prop51ColorRGB
 90
-16777216
102
RTVSPost2010PropOp51
 70
     0
102
RTVSPost2010Prop52
140
1.0
102
RTVSPost2010PropOp52
 70
     0
102
RTVSPost2010Prop53
 90
        2
102
RTVSPost2010PropOp53
 70
     0
102
RTVSPost2010Prop54
  1
strokes_ogs.tif
102
RTVSPost2010PropOp54
 70
     0
102
RTVSPost2010Prop55
280
     0
102
RTVSPost2010PropOp55
 70
     0
102
RTVSPost2010Prop56
140
1.0
102
RTVSPost2010PropOp56
 70
     0
102
RTVSPost2010Prop57
140
1.0
102
RTVSPost2010PropOp57
 70
     0
  0
XRECORD
  5
252
102
{ACAD_REACTORS
330
251
102
}
330
251
100
AcDbXrecord
280
     1
102
RTVSPost2010Prop28
280
     0
102
RTVSPost2010PropOp28
 70
     1
102
RTVSPost2010Prop29
280
     1
102
RTVSPost2010PropOp29
 70
     1
102
RTVSPost2010Prop30
280
     1
102
RTVSPost2010PropOp30
 70
     1
102
RTVSPost2010Prop31
280
     0
102
RTVSPost2010PropOp31
 70
     1
102
RTVSPost2010Prop32
280
     0
102
RTVSPost2010PropOp32
 70
     1
102
RTVSPost2010Prop33
280
     0
102
RTVSPost2010PropOp33
 70
     1
102
RTVSPost2010Prop34
280
     0
102
RTVSPost2010PropOp34
 70
     1
102
RTVSPost2010Prop35
280
     0
102
RTVSPost2010PropOp35
 70
     1
102
RTVSPost2010Prop36
280
     0
102
RTVSPost2010PropOp36
 70
     1
102
RTVSPost2010Prop37
 90
       50
102
RTVSPost2010PropOp37
 70
     1
102
RTVSPost2010Prop38
140
0.0
102
RTVSPost2010PropOp38
 70
     1
102
RTVSPost2010Prop39
140
1.0
102
RTVSPost2010PropOp39
 70
     1
102
RTVSPost2010Prop40
 90
        0
102
RTVSPost2010PropOp40
 70
     1
102
RTVSPost2010Prop41ColorIndex
 90
       18
102
RTVSPost2010Prop41ColorRGB
 90
        0
102
RTVSPost2010PropOp41
 70
     1
102
RTVSPost2010Prop42
 90
       50
102
RTVSPost2010PropOp42
 70
     1
102
RTVSPost2010Prop43
 90
        3
102
RTVSPost2010PropOp43
 70
     1
102
RTVSPost2010Prop44ColorIndex
 90
        5
102
RTVSPost2010Prop44ColorRGB
 90
      255
102
RTVSPost2010PropOp44
 70
     1
102
RTVSPost2010Prop45
280
     0
102
RTVSPost2010PropOp45
 70
     1
102
RTVSPost2010Prop46
 90
       50
102
RTVSPost2010PropOp46
 70
     1
102
RTVSPost2010Prop47
 90
       50
102
RTVSPost2010PropOp47
 70
     1
102
RTVSPost2010Prop48
 90
       50
102
RTVSPost2010PropOp48
 70
     1
102
RTVSPost2010Prop49
280
     0
102
RTVSPost2010PropOp49
 70
     1
102
RTVSPost2010Prop50
 90
       50
102
RTVSPost2010PropOp50
 70
     1
102
RTVSPost2010Prop51ColorIndex
 90
      256
102
RTVSPost2010Prop51ColorRGB
 90
-16777216
102
RTVSPost2010PropOp51
 70
     0
102
RTVSPost2010Prop52
140
1.0
102
RTVSPost2010PropOp52
 70
     0
102
RTVSPost2010Prop53
 90
        2
102
RTVSPost2010PropOp53
 70
     1
102
RTVSPost2010Prop54
  1
strokes_ogs.tif
102
RTVSPost2010PropOp54
 70
     1
102
RTVSPost2010Prop55
280
     0
102
RTVSPost2010PropOp55
 70
     1
102
RTVSPost2010Prop56
140
1.0
102
RTVSPost2010PropOp56
 70
     1
102
RTVSPost2010Prop57
140
1.0
102
RTVSPost2010PropOp57
 70
     1
  0
XRECORD
  5
236
102
{ACAD_REACTORS
330
235
102
}
330
235
100
AcDbXrecord
280
     1
102
RTVSPost2010Prop28
280
     0
102
RTVSPost2010PropOp28
 70
     1
102
RTVSPost2010Prop29
280
     1
102
RTVSPost2010PropOp29
 70
     1
102
RTVSPost2010Prop30
280
     1
102
RTVSPost2010PropOp30
 70
     1
102
RTVSPost2010Prop31
280
     0
102
RTVSPost2010PropOp31
 70
     1
102
RTVSPost2010Prop32
280
     0
102
RTVSPost2010PropOp32
 70
     1
102
RTVSPost2010Prop33
280
     0
102
RTVSPost2010PropOp33
 70
     1
102
RTVSPost2010Prop34
280
     0
102
RTVSPost2010PropOp34
 70
     1
102
RTVSPost2010Prop35
280
     0
102
RTVSPost2010PropOp35
 70
     1
102
RTVSPost2010Prop36
280
     0
102
RTVSPost2010PropOp36
 70
     1
102
RTVSPost2010Prop37
 90
       50
102
RTVSPost2010PropOp37
 70
     1
102
RTVSPost2010Prop38
140
0.0
102
RTVSPost2010PropOp38
 70
     1
102
RTVSPost2010Prop39
140
1.0
102
RTVSPost2010PropOp39
 70
     1
102
RTVSPost2010Prop40
 90
        0
102
RTVSPost2010PropOp40
 70
     1
102
RTVSPost2010Prop41ColorIndex
 90
       18
102
RTVSPost2010Prop41ColorRGB
 90
        0
102
RTVSPost2010PropOp41
 70
     1
102
RTVSPost2010Prop42
 90
       50
102
RTVSPost2010PropOp42
 70
     1
102
RTVSPost2010Prop43
 90
        3
102
RTVSPost2010PropOp43
 70
     1
102
RTVSPost2010Prop44ColorIndex
 90
        5
102
RTVSPost2010Prop44ColorRGB
 90
      255
102
RTVSPost2010PropOp44
 70
     1
102
RTVSPost2010Prop45
280
     0
102
RTVSPost2010PropOp45
 70
     1
102
RTVSPost2010Prop46
 90
       50
102
RTVSPost2010PropOp46
 70
     1
102
RTVSPost2010Prop47
 90
       50
102
RTVSPost2010PropOp47
 70
     1
102
RTVSPost2010Prop48
 90
       50
102
RTVSPost2010PropOp48
 70
     1
102
RTVSPost2010Prop49
280
     0
102
RTVSPost2010PropOp49
 70
     1
102
RTVSPost2010Prop50
 90
       50
102
RTVSPost2010PropOp50
 70
     1
102
RTVSPost2010Prop51ColorIndex
 90
      256
102
RTVSPost2010Prop51ColorRGB
 90
-16777216
102
RTVSPost2010PropOp51
 70
     0
102
RTVSPost2010Prop52
140
1.0
102
RTVSPost2010PropOp52
 70
     0
102
RTVSPost2010Prop53
 90
        2
102
RTVSPost2010PropOp53
 70
     1
102
RTVSPost2010Prop54
  1
strokes_ogs.tif
102
RTVSPost2010PropOp54
 70
     1
102
RTVSPost2010Prop55
280
     0
102
RTVSPost2010PropOp55
 70
     1
102
RTVSPost2010Prop56
140
1.0
102
RTVSPost2010PropOp56
 70
     1
102
RTVSPost2010Prop57
140
1.0
102
RTVSPost2010PropOp57
 70
     1
  0
XRECORD
  5
238
102
{ACAD_REACTORS
330
237
102
}
330
237
100
AcDbXrecord
280
     1
102
RTVSPost2010Prop28
280
     0
102
RTVSPost2010PropOp28
 70
     1
102
RTVSPost2010Prop29
280
     1
102
RTVSPost2010PropOp29
 70
     1
102
RTVSPost2010Prop30
280
     1
102
RTVSPost2010PropOp30
 70
     1
102
RTVSPost2010Prop31
280
     0
102
RTVSPost2010PropOp31
 70
     1
102
RTVSPost2010Prop32
280
     0
102
RTVSPost2010PropOp32
 70
     1
102
RTVSPost2010Prop33
280
     0
102
RTVSPost2010PropOp33
 70
     1
102
RTVSPost2010Prop34
280
     0
102
RTVSPost2010PropOp34
 70
     1
102
RTVSPost2010Prop35
280
     0
102
RTVSPost2010PropOp35
 70
     1
102
RTVSPost2010Prop36
280
     0
102
RTVSPost2010PropOp36
 70
     1
102
RTVSPost2010Prop37
 90
       50
102
RTVSPost2010PropOp37
 70
     1
102
RTVSPost2010Prop38
140
0.0
102
RTVSPost2010PropOp38
 70
     1
102
RTVSPost2010Prop39
140
1.0
102
RTVSPost2010PropOp39
 70
     1
102
RTVSPost2010Prop40
 90
        0
102
RTVSPost2010PropOp40
 70
     1
102
RTVSPost2010Prop41ColorIndex
 90
       18
102
RTVSPost2010Prop41ColorRGB
 90
        0
102
RTVSPost2010PropOp41
 70
     1
102
RTVSPost2010Prop42
 90
       50
102
RTVSPost2010PropOp42
 70
     1
102
RTVSPost2010Prop43
 90
        3
102
RTVSPost2010PropOp43
 70
     1
102
RTVSPost2010Prop44ColorIndex
 90
        5
102
RTVSPost2010Prop44ColorRGB
 90
      255
102
RTVSPost2010PropOp44
 70
     1
102
RTVSPost2010Prop45
280
     0
102
RTVSPost2010PropOp45
 70
     1
102
RTVSPost2010Prop46
 90
       50
102
RTVSPost2010PropOp46
 70
     1
102
RTVSPost2010Prop47
 90
       50
102
RTVSPost2010PropOp47
 70
     1
102
RTVSPost2010Prop48
 90
       50
102
RTVSPost2010PropOp48
 70
     1
102
RTVSPost2010Prop49
280
     0
102
RTVSPost2010PropOp49
 70
     1
102
RTVSPost2010Prop50
 90
       50
102
RTVSPost2010PropOp50
 70
     1
102
RTVSPost2010Prop51ColorIndex
 90
      256
102
RTVSPost2010Prop51ColorRGB
 90
-16777216
102
RTVSPost2010PropOp51
 70
     0
102
RTVSPost2010Prop52
140
1.0
102
RTVSPost2010PropOp52
 70
     0
102
RTVSPost2010Prop53
 90
        2
102
RTVSPost2010PropOp53
 70
     1
102
RTVSPost2010Prop54
  1
strokes_ogs.tif
102
RTVSPost2010PropOp54
 70
     1
102
RTVSPost2010Prop55
280
     0
102
RTVSPost2010PropOp55
 70
     1
102
RTVSPost2010Prop56
140
1.0
102
RTVSPost2010PropOp56
 70
     1
102
RTVSPost2010Prop57
140
1.0
102
RTVSPost2010PropOp57
 70
     1
  0
XRECORD
  5
23A
102
{ACAD_REACTORS
330
239
102
}
330
239
100
AcDbXrecord
280
     1
102
RTVSPost2010Prop28
280
     0
102
RTVSPost2010PropOp28
 70
     1
102
RTVSPost2010Prop29
280
     1
102
RTVSPost2010PropOp29
 70
     1
102
RTVSPost2010Prop30
280
     1
102
RTVSPost2010PropOp30
 70
     1
102
RTVSPost2010Prop31
280
     0
102
RTVSPost2010PropOp31
 70
     1
102
RTVSPost2010Prop32
280
     0
102
RTVSPost2010PropOp32
 70
     1
102
RTVSPost2010Prop33
280
     0
102
RTVSPost2010PropOp33
 70
     1
102
RTVSPost2010Prop34
280
     0
102
RTVSPost2010PropOp34
 70
     1
102
RTVSPost2010Prop35
280
     0
102
RTVSPost2010PropOp35
 70
     1
102
RTVSPost2010Prop36
280
     0
102
RTVSPost2010PropOp36
 70
     1
102
RTVSPost2010Prop37
 90
       50
102
RTVSPost2010PropOp37
 70
     1
102
RTVSPost2010Prop38
140
0.0
102
RTVSPost2010PropOp38
 70
     1
102
RTVSPost2010Prop39
140
1.0
102
RTVSPost2010PropOp39
 70
     1
102
RTVSPost2010Prop40
 90
        0
102
RTVSPost2010PropOp40
 70
     1
102
RTVSPost2010Prop41ColorIndex
 90
       18
102
RTVSPost2010Prop41ColorRGB
 90
        0
102
RTVSPost2010PropOp41
 70
     1
102
RTVSPost2010Prop42
 90
       50
102
RTVSPost2010PropOp42
 70
     1
102
RTVSPost2010Prop43
 90
        3
102
RTVSPost2010PropOp43
 70
     1
102
RTVSPost2010Prop44ColorIndex
 90
        5
102
RTVSPost2010Prop44ColorRGB
 90
      255
102
RTVSPost2010PropOp44
 70
     1
102
RTVSPost2010Prop45
280
     0
102
RTVSPost2010PropOp45
 70
     1
102
RTVSPost2010Prop46
 90
       50
102
RTVSPost2010PropOp46
 70
     1
102
RTVSPost2010Prop47
 90
       50
102
RTVSPost2010PropOp47
 70
     1
102
RTVSPost2010Prop48
 90
       50
102
RTVSPost2010PropOp48
 70
     1
102
RTVSPost2010Prop49
280
     0
102
RTVSPost2010PropOp49
 70
     1
102
RTVSPost2010Prop50
 90
       50
102
RTVSPost2010PropOp50
 70
     1
102
RTVSPost2010Prop51ColorIndex
 90
      256
102
RTVSPost2010Prop51ColorRGB
 90
-16777216
102
RTVSPost2010PropOp51
 70
     0
102
RTVSPost2010Prop52
140
1.0
102
RTVSPost2010PropOp52
 70
     0
102
RTVSPost2010Prop53
 90
        2
102
RTVSPost2010PropOp53
 70
     1
102
RTVSPost2010Prop54
  1
strokes_ogs.tif
102
RTVSPost2010PropOp54
 70
     1
102
RTVSPost2010Prop55
280
     0
102
RTVSPost2010PropOp55
 70
     1
102
RTVSPost2010Prop56
140
1.0
102
RTVSPost2010PropOp56
 70
     1
102
RTVSPost2010Prop57
140
1.0
102
RTVSPost2010PropOp57
 70
     1
  0
XRECORD
  5
23C
102
{ACAD_REACTORS
330
23B
102
}
330
23B
100
AcDbXrecord
280
     1
102
RTVSPost2010Prop28
280
     0
102
RTVSPost2010PropOp28
 70
     1
102
RTVSPost2010Prop29
280
     1
102
RTVSPost2010PropOp29
 70
     1
102
RTVSPost2010Prop30
280
     1
102
RTVSPost2010PropOp30
 70
     1
102
RTVSPost2010Prop31
280
     0
102
RTVSPost2010PropOp31
 70
     1
102
RTVSPost2010Prop32
280
     0
102
RTVSPost2010PropOp32
 70
     1
102
RTVSPost2010Prop33
280
     0
102
RTVSPost2010PropOp33
 70
     1
102
RTVSPost2010Prop34
280
     0
102
RTVSPost2010PropOp34
 70
     1
102
RTVSPost2010Prop35
280
     0
102
RTVSPost2010PropOp35
 70
     1
102
RTVSPost2010Prop36
280
     0
102
RTVSPost2010PropOp36
 70
     1
102
RTVSPost2010Prop37
 90
       50
102
RTVSPost2010PropOp37
 70
     1
102
RTVSPost2010Prop38
140
0.0
102
RTVSPost2010PropOp38
 70
     1
102
RTVSPost2010Prop39
140
1.0
102
RTVSPost2010PropOp39
 70
     1
102
RTVSPost2010Prop40
 90
        0
102
RTVSPost2010PropOp40
 70
     1
102
RTVSPost2010Prop41ColorIndex
 90
       18
102
RTVSPost2010Prop41ColorRGB
 90
        0
102
RTVSPost2010PropOp41
 70
     1
102
RTVSPost2010Prop42
 90
       50
102
RTVSPost2010PropOp42
 70
     1
102
RTVSPost2010Prop43
 90
        3
102
RTVSPost2010PropOp43
 70
     1
102
RTVSPost2010Prop44ColorIndex
 90
        5
102
RTVSPost2010Prop44ColorRGB
 90
      255
102
RTVSPost2010PropOp44
 70
     1
102
RTVSPost2010Prop45
280
     0
102
RTVSPost2010PropOp45
 70
     1
102
RTVSPost2010Prop46
 90
       50
102
RTVSPost2010PropOp46
 70
     1
102
RTVSPost2010Prop47
 90
       50
102
RTVSPost2010PropOp47
 70
     1
102
RTVSPost2010Prop48
 90
       50
102
RTVSPost2010PropOp48
 70
     1
102
RTVSPost2010Prop49
280
     0
102
RTVSPost2010PropOp49
 70
     1
102
RTVSPost2010Prop50
 90
       50
102
RTVSPost2010PropOp50
 70
     1
102
RTVSPost2010Prop51ColorIndex
 90
      256
102
RTVSPost2010Prop51ColorRGB
 90
-16777216
102
RTVSPost2010PropOp51
 70
     0
102
RTVSPost2010Prop52
140
1.0
102
RTVSPost2010PropOp52
 70
     0
102
RTVSPost2010Prop53
 90
        2
102
RTVSPost2010PropOp53
 70
     1
102
RTVSPost2010Prop54
  1
strokes_ogs.tif
102
RTVSPost2010PropOp54
 70
     1
102
RTVSPost2010Prop55
280
     0
102
RTVSPost2010PropOp55
 70
     1
102
RTVSPost2010Prop56
140
1.0
102
RTVSPost2010PropOp56
 70
     1
102
RTVSPost2010Prop57
140
1.0
102
RTVSPost2010PropOp57
 70
     1
  0
XRECORD
  5
244
102
{ACAD_REACTORS
330
243
102
}
330
243
100
AcDbXrecord
280
     1
102
RTVSPost2010Prop28
280
     0
102
RTVSPost2010PropOp28
 70
     1
102
RTVSPost2010Prop29
280
     1
102
RTVSPost2010PropOp29
 70
     1
102
RTVSPost2010Prop30
280
     1
102
RTVSPost2010PropOp30
 70
     1
102
RTVSPost2010Prop31
280
     0
102
RTVSPost2010PropOp31
 70
     1
102
RTVSPost2010Prop32
280
     0
102
RTVSPost2010PropOp32
 70
     1
102
RTVSPost2010Prop33
280
     0
102
RTVSPost2010PropOp33
 70
     1
102
RTVSPost2010Prop34
280
     0
102
RTVSPost2010PropOp34
 70
     1
102
RTVSPost2010Prop35
280
     0
102
RTVSPost2010PropOp35
 70
     1
102
RTVSPost2010Prop36
280
     0
102
RTVSPost2010PropOp36
 70
     1
102
RTVSPost2010Prop37
 90
       50
102
RTVSPost2010PropOp37
 70
     1
102
RTVSPost2010Prop38
140
0.0
102
RTVSPost2010PropOp38
 70
     1
102
RTVSPost2010Prop39
140
1.0
102
RTVSPost2010PropOp39
 70
     1
102
RTVSPost2010Prop40
 90
        0
102
RTVSPost2010PropOp40
 70
     1
102
RTVSPost2010Prop41ColorIndex
 90
       18
102
RTVSPost2010Prop41ColorRGB
 90
        0
102
RTVSPost2010PropOp41
 70
     1
102
RTVSPost2010Prop42
 90
       50
102
RTVSPost2010PropOp42
 70
     1
102
RTVSPost2010Prop43
 90
        3
102
RTVSPost2010PropOp43
 70
     1
102
RTVSPost2010Prop44ColorIndex
 90
        5
102
RTVSPost2010Prop44ColorRGB
 90
      255
102
RTVSPost2010PropOp44
 70
     1
102
RTVSPost2010Prop45
280
     0
102
RTVSPost2010PropOp45
 70
     1
102
RTVSPost2010Prop46
 90
       50
102
RTVSPost2010PropOp46
 70
     1
102
RTVSPost2010Prop47
 90
       50
102
RTVSPost2010PropOp47
 70
     1
102
RTVSPost2010Prop48
 90
       50
102
RTVSPost2010PropOp48
 70
     1
102
RTVSPost2010Prop49
280
     0
102
RTVSPost2010PropOp49
 70
     1
102
RTVSPost2010Prop50
 90
       50
102
RTVSPost2010PropOp50
 70
     1
102
RTVSPost2010Prop51ColorIndex
 90
      256
102
RTVSPost2010Prop51ColorRGB
 90
-16777216
102
RTVSPost2010PropOp51
 70
     0
102
RTVSPost2010Prop52
140
1.0
102
RTVSPost2010PropOp52
 70
     0
102
RTVSPost2010Prop53
 90
        2
102
RTVSPost2010PropOp53
 70
     1
102
RTVSPost2010Prop54
  1
strokes_ogs.tif
102
RTVSPost2010PropOp54
 70
     1
102
RTVSPost2010Prop55
280
     0
102
RTVSPost2010PropOp55
 70
     1
102
RTVSPost2010Prop56
140
1.0
102
RTVSPost2010PropOp56
 70
     1
102
RTVSPost2010Prop57
140
1.0
102
RTVSPost2010PropOp57
 70
     1
  0
XRECORD
  5
260
102
{ACAD_REACTORS
330
25F
102
}
330
25F
100
AcDbXrecord
280
     1
102
RTVSPost2010Prop28
280
     0
102
RTVSPost2010PropOp28
 70
     0
102
RTVSPost2010Prop29
280
     1
102
RTVSPost2010PropOp29
 70
     0
102
RTVSPost2010Prop30
280
     1
102
RTVSPost2010PropOp30
 70
     0
102
RTVSPost2010Prop31
280
     0
102
RTVSPost2010PropOp31
 70
     0
102
RTVSPost2010Prop32
280
     0
102
RTVSPost2010PropOp32
 70
     0
102
RTVSPost2010Prop33
280
     0
102
RTVSPost2010PropOp33
 70
     0
102
RTVSPost2010Prop34
280
     0
102
RTVSPost2010PropOp34
 70
     0
102
RTVSPost2010Prop35
280
     0
102
RTVSPost2010PropOp35
 70
     0
102
RTVSPost2010Prop36
280
     0
102
RTVSPost2010PropOp36
 70
     0
102
RTVSPost2010Prop37
 90
       50
102
RTVSPost2010PropOp37
 70
     0
102
RTVSPost2010Prop38
140
0.0
102
RTVSPost2010PropOp38
 70
     0
102
RTVSPost2010Prop39
140
1.0
102
RTVSPost2010PropOp39
 70
     0
102
RTVSPost2010Prop40
 90
        0
102
RTVSPost2010PropOp40
 70
     0
102
RTVSPost2010Prop41ColorIndex
 90
       18
102
RTVSPost2010Prop41ColorRGB
 90
        0
102
RTVSPost2010PropOp41
 70
     0
102
RTVSPost2010Prop42
 90
       50
102
RTVSPost2010PropOp42
 70
     0
102
RTVSPost2010Prop43
 90
        3
102
RTVSPost2010PropOp43
 70
     0
102
RTVSPost2010Prop44ColorIndex
 90
        5
102
RTVSPost2010Prop44ColorRGB
 90
      255
102
RTVSPost2010PropOp44
 70
     0
102
RTVSPost2010Prop45
280
     0
102
RTVSPost2010PropOp45
 70
     0
102
RTVSPost2010Prop46
 90
       50
102
RTVSPost2010PropOp46
 70
     0
102
RTVSPost2010Prop47
 90
       50
102
RTVSPost2010PropOp47
 70
     0
102
RTVSPost2010Prop48
 90
       50
102
RTVSPost2010PropOp48
 70
     0
102
RTVSPost2010Prop49
280
     0
102
RTVSPost2010PropOp49
 70
     0
102
RTVSPost2010Prop50
 90
       50
102
RTVSPost2010PropOp50
 70
     0
102
RTVSPost2010Prop51ColorIndex
 90
      256
102
RTVSPost2010Prop51ColorRGB
 90
-16777216
102
RTVSPost2010PropOp51
 70
     0
102
RTVSPost2010Prop52
140
1.0
102
RTVSPost2010PropOp52
 70
     0
102
RTVSPost2010Prop53
 90
        2
102
RTVSPost2010PropOp53
 70
     0
102
RTVSPost2010Prop54
  1
strokes_ogs.tif
102
RTVSPost2010PropOp54
 70
     0
102
RTVSPost2010Prop55
280
     0
102
RTVSPost2010PropOp55
 70
     0
102
RTVSPost2010Prop56
140
1.0
102
RTVSPost2010PropOp56
 70
     0
102
RTVSPost2010Prop57
140
1.0
102
RTVSPost2010PropOp57
 70
     0
  0
XRECORD
  5
250
102
{ACAD_REACTORS
330
24F
102
}
330
24F
100
AcDbXrecord
280
     1
102
RTVSPost2010Prop28
280
     0
102
RTVSPost2010PropOp28
 70
     1
102
RTVSPost2010Prop29
280
     1
102
RTVSPost2010PropOp29
 70
     1
102
RTVSPost2010Prop30
280
     1
102
RTVSPost2010PropOp30
 70
     1
102
RTVSPost2010Prop31
280
     0
102
RTVSPost2010PropOp31
 70
     1
102
RTVSPost2010Prop32
280
     0
102
RTVSPost2010PropOp32
 70
     1
102
RTVSPost2010Prop33
280
     0
102
RTVSPost2010PropOp33
 70
     1
102
RTVSPost2010Prop34
280
     0
102
RTVSPost2010PropOp34
 70
     1
102
RTVSPost2010Prop35
280
     0
102
RTVSPost2010PropOp35
 70
     1
102
RTVSPost2010Prop36
280
     0
102
RTVSPost2010PropOp36
 70
     1
102
RTVSPost2010Prop37
 90
       50
102
RTVSPost2010PropOp37
 70
     1
102
RTVSPost2010Prop38
140
0.0
102
RTVSPost2010PropOp38
 70
     1
102
RTVSPost2010Prop39
140
1.0
102
RTVSPost2010PropOp39
 70
     1
102
RTVSPost2010Prop40
 90
        0
102
RTVSPost2010PropOp40
 70
     1
102
RTVSPost2010Prop41ColorIndex
 90
       18
102
RTVSPost2010Prop41ColorRGB
 90
        0
102
RTVSPost2010PropOp41
 70
     1
102
RTVSPost2010Prop42
 90
       50
102
RTVSPost2010PropOp42
 70
     1
102
RTVSPost2010Prop43
 90
        3
102
RTVSPost2010PropOp43
 70
     1
102
RTVSPost2010Prop44ColorIndex
 90
        5
102
RTVSPost2010Prop44ColorRGB
 90
      255
102
RTVSPost2010PropOp44
 70
     1
102
RTVSPost2010Prop45
280
     0
102
RTVSPost2010PropOp45
 70
     1
102
RTVSPost2010Prop46
 90
       50
102
RTVSPost2010PropOp46
 70
     1
102
RTVSPost2010Prop47
 90
       50
102
RTVSPost2010PropOp47
 70
     1
102
RTVSPost2010Prop48
 90
       50
102
RTVSPost2010PropOp48
 70
     1
102
RTVSPost2010Prop49
280
     0
102
RTVSPost2010PropOp49
 70
     1
102
RTVSPost2010Prop50
 90
       50
102
RTVSPost2010PropOp50
 70
     1
102
RTVSPost2010Prop51ColorIndex
 90
      256
102
RTVSPost2010Prop51ColorRGB
 90
-16777216
102
RTVSPost2010PropOp51
 70
     0
102
RTVSPost2010Prop52
140
1.0
102
RTVSPost2010PropOp52
 70
     0
102
RTVSPost2010Prop53
 90
        2
102
RTVSPost2010PropOp53
 70
     1
102
RTVSPost2010Prop54
  1
strokes_ogs.tif
102
RTVSPost2010PropOp54
 70
     1
102
RTVSPost2010Prop55
280
     0
102
RTVSPost2010PropOp55
 70
     1
102
RTVSPost2010Prop56
140
1.0
102
RTVSPost2010PropOp56
 70
     1
102
RTVSPost2010Prop57
140
1.0
102
RTVSPost2010PropOp57
 70
     1
  0
XRECORD
  5
262
102
{ACAD_REACTORS
330
261
102
}
330
261
100
AcDbXrecord
280
     1
102
RTVSPost2010Prop28
280
     0
102
RTVSPost2010PropOp28
 70
     0
102
RTVSPost2010Prop29
280
     1
102
RTVSPost2010PropOp29
 70
     0
102
RTVSPost2010Prop30
280
     1
102
RTVSPost2010PropOp30
 70
     0
102
RTVSPost2010Prop31
280
     0
102
RTVSPost2010PropOp31
 70
     0
102
RTVSPost2010Prop32
280
     0
102
RTVSPost2010PropOp32
 70
     0
102
RTVSPost2010Prop33
280
     0
102
RTVSPost2010PropOp33
 70
     0
102
RTVSPost2010Prop34
280
     0
102
RTVSPost2010PropOp34
 70
     0
102
RTVSPost2010Prop35
280
     0
102
RTVSPost2010PropOp35
 70
     0
102
RTVSPost2010Prop36
280
     0
102
RTVSPost2010PropOp36
 70
     0
102
RTVSPost2010Prop37
 90
       50
102
RTVSPost2010PropOp37
 70
     0
102
RTVSPost2010Prop38
140
0.0
102
RTVSPost2010PropOp38
 70
     0
102
RTVSPost2010Prop39
140
1.0
102
RTVSPost2010PropOp39
 70
     0
102
RTVSPost2010Prop40
 90
        0
102
RTVSPost2010PropOp40
 70
     0
102
RTVSPost2010Prop41ColorIndex
 90
       18
102
RTVSPost2010Prop41ColorRGB
 90
        0
102
RTVSPost2010PropOp41
 70
     0
102
RTVSPost2010Prop42
 90
       50
102
RTVSPost2010PropOp42
 70
     0
102
RTVSPost2010Prop43
 90
        3
102
RTVSPost2010PropOp43
 70
     0
102
RTVSPost2010Prop44ColorIndex
 90
        5
102
RTVSPost2010Prop44ColorRGB
 90
      255
102
RTVSPost2010PropOp44
 70
     0
102
RTVSPost2010Prop45
280
     0
102
RTVSPost2010PropOp45
 70
     0
102
RTVSPost2010Prop46
 90
       50
102
RTVSPost2010PropOp46
 70
     0
102
RTVSPost2010Prop47
 90
       50
102
RTVSPost2010PropOp47
 70
     0
102
RTVSPost2010Prop48
 90
       50
102
RTVSPost2010PropOp48
 70
     0
102
RTVSPost2010Prop49
280
     0
102
RTVSPost2010PropOp49
 70
     0
102
RTVSPost2010Prop50
 90
       50
102
RTVSPost2010PropOp50
 70
     0
102
RTVSPost2010Prop51ColorIndex
 90
      256
102
RTVSPost2010Prop51ColorRGB
 90
-16777216
102
RTVSPost2010PropOp51
 70
     0
102
RTVSPost2010Prop52
140
1.0
102
RTVSPost2010PropOp52
 70
     0
102
RTVSPost2010Prop53
 90
        2
102
RTVSPost2010PropOp53
 70
     0
102
RTVSPost2010Prop54
  1
strokes_ogs.tif
102
RTVSPost2010PropOp54
 70
     0
102
RTVSPost2010Prop55
280
     0
102
RTVSPost2010PropOp55
 70
     0
102
RTVSPost2010Prop56
140
1.0
102
RTVSPost2010PropOp56
 70
     0
102
RTVSPost2010Prop57
140
1.0
102
RTVSPost2010PropOp57
 70
     0
  0
XRECORD
  5
248
102
{ACAD_REACTORS
330
247
102
}
330
247
100
AcDbXrecord
280
     1
102
RTVSPost2010Prop28
280
     0
102
RTVSPost2010PropOp28
 70
     1
102
RTVSPost2010Prop29
280
     1
102
RTVSPost2010PropOp29
 70
     1
102
RTVSPost2010Prop30
280
     1
102
RTVSPost2010PropOp30
 70
     1
102
RTVSPost2010Prop31
280
     0
102
RTVSPost2010PropOp31
 70
     1
102
RTVSPost2010Prop32
280
     0
102
RTVSPost2010PropOp32
 70
     1
102
RTVSPost2010Prop33
280
     0
102
RTVSPost2010PropOp33
 70
     1
102
RTVSPost2010Prop34
280
     0
102
RTVSPost2010PropOp34
 70
     1
102
RTVSPost2010Prop35
280
     0
102
RTVSPost2010PropOp35
 70
     1
102
RTVSPost2010Prop36
280
     0
102
RTVSPost2010PropOp36
 70
     1
102
RTVSPost2010Prop37
 90
       50
102
RTVSPost2010PropOp37
 70
     1
102
RTVSPost2010Prop38
140
0.0
102
RTVSPost2010PropOp38
 70
     1
102
RTVSPost2010Prop39
140
1.0
102
RTVSPost2010PropOp39
 70
     1
102
RTVSPost2010Prop40
 90
        0
102
RTVSPost2010PropOp40
 70
     1
102
RTVSPost2010Prop41ColorIndex
 90
       18
102
RTVSPost2010Prop41ColorRGB
 90
        0
102
RTVSPost2010PropOp41
 70
     1
102
RTVSPost2010Prop42
 90
       50
102
RTVSPost2010PropOp42
 70
     1
102
RTVSPost2010Prop43
 90
        3
102
RTVSPost2010PropOp43
 70
     1
102
RTVSPost2010Prop44ColorIndex
 90
        5
102
RTVSPost2010Prop44ColorRGB
 90
      255
102
RTVSPost2010PropOp44
 70
     1
102
RTVSPost2010Prop45
280
     0
102
RTVSPost2010PropOp45
 70
     1
102
RTVSPost2010Prop46
 90
       50
102
RTVSPost2010PropOp46
 70
     1
102
RTVSPost2010Prop47
 90
       50
102
RTVSPost2010PropOp47
 70
     1
102
RTVSPost2010Prop48
 90
       50
102
RTVSPost2010PropOp48
 70
     1
102
RTVSPost2010Prop49
280
     0
102
RTVSPost2010PropOp49
 70
     1
102
RTVSPost2010Prop50
 90
       50
102
RTVSPost2010PropOp50
 70
     1
102
RTVSPost2010Prop51ColorIndex
 90
      256
102
RTVSPost2010Prop51ColorRGB
 90
-16777216
102
RTVSPost2010PropOp51
 70
     0
102
RTVSPost2010Prop52
140
1.0
102
RTVSPost2010PropOp52
 70
     0
102
RTVSPost2010Prop53
 90
        2
102
RTVSPost2010PropOp53
 70
     1
102
RTVSPost2010Prop54
  1
strokes_ogs.tif
102
RTVSPost2010PropOp54
 70
     1
102
RTVSPost2010Prop55
280
     0
102
RTVSPost2010PropOp55
 70
     1
102
RTVSPost2010Prop56
140
1.0
102
RTVSPost2010PropOp56
 70
     1
102
RTVSPost2010Prop57
140
1.0
102
RTVSPost2010PropOp57
 70
     1
  0
XRECORD
  5
25E
102
{ACAD_REACTORS
330
25D
102
}
330
25D
100
AcDbXrecord
280
     1
102
RTVSPost2010Prop28
280
     0
102
RTVSPost2010PropOp28
 70
     1
102
RTVSPost2010Prop29
280
     1
102
RTVSPost2010PropOp29
 70
     1
102
RTVSPost2010Prop30
280
     1
102
RTVSPost2010PropOp30
 70
     1
102
RTVSPost2010Prop31
280
     0
102
RTVSPost2010PropOp31
 70
     1
102
RTVSPost2010Prop32
280
     0
102
RTVSPost2010PropOp32
 70
     1
102
RTVSPost2010Prop33
280
     0
102
RTVSPost2010PropOp33
 70
     1
102
RTVSPost2010Prop34
280
     0
102
RTVSPost2010PropOp34
 70
     1
102
RTVSPost2010Prop35
280
     0
102
RTVSPost2010PropOp35
 70
     1
102
RTVSPost2010Prop36
280
     0
102
RTVSPost2010PropOp36
 70
     1
102
RTVSPost2010Prop37
 90
       50
102
RTVSPost2010PropOp37
 70
     1
102
RTVSPost2010Prop38
140
0.0
102
RTVSPost2010PropOp38
 70
     1
102
RTVSPost2010Prop39
140
1.0
102
RTVSPost2010PropOp39
 70
     1
102
RTVSPost2010Prop40
 90
        0
102
RTVSPost2010PropOp40
 70
     1
102
RTVSPost2010Prop41ColorIndex
 90
       18
102
RTVSPost2010Prop41ColorRGB
 90
        0
102
RTVSPost2010PropOp41
 70
     1
102
RTVSPost2010Prop42
 90
       50
102
RTVSPost2010PropOp42
 70
     1
102
RTVSPost2010Prop43
 90
        3
102
RTVSPost2010PropOp43
 70
     1
102
RTVSPost2010Prop44ColorIndex
 90
        5
102
RTVSPost2010Prop44ColorRGB
 90
      255
102
RTVSPost2010PropOp44
 70
     1
102
RTVSPost2010Prop45
280
     0
102
RTVSPost2010PropOp45
 70
     1
102
RTVSPost2010Prop46
 90
       50
102
RTVSPost2010PropOp46
 70
     1
102
RTVSPost2010Prop47
 90
       50
102
RTVSPost2010PropOp47
 70
     1
102
RTVSPost2010Prop48
 90
       50
102
RTVSPost2010PropOp48
 70
     1
102
RTVSPost2010Prop49
280
     0
102
RTVSPost2010PropOp49
 70
     1
102
RTVSPost2010Prop50
 90
       50
102
RTVSPost2010PropOp50
 70
     1
102
RTVSPost2010Prop51ColorIndex
 90
      256
102
RTVSPost2010Prop51ColorRGB
 90
-16777216
102
RTVSPost2010PropOp51
 70
     0
102
RTVSPost2010Prop52
140
1.0
102
RTVSPost2010PropOp52
 70
     0
102
RTVSPost2010Prop53
 90
        2
102
RTVSPost2010PropOp53
 70
     1
102
RTVSPost2010Prop54
  1
strokes_ogs.tif
102
RTVSPost2010PropOp54
 70
     1
102
RTVSPost2010Prop55
280
     0
102
RTVSPost2010PropOp55
 70
     1
102
RTVSPost2010Prop56
140
1.0
102
RTVSPost2010PropOp56
 70
     1
102
RTVSPost2010Prop57
140
1.0
102
RTVSPost2010PropOp57
 70
     1
  0
XRECORD
  5
25C
102
{ACAD_REACTORS
330
25B
102
}
330
25B
100
AcDbXrecord
280
     1
102
RTVSPost2010Prop28
280
     0
102
RTVSPost2010PropOp28
 70
     1
102
RTVSPost2010Prop29
280
     1
102
RTVSPost2010PropOp29
 70
     1
102
RTVSPost2010Prop30
280
     1
102
RTVSPost2010PropOp30
 70
     1
102
RTVSPost2010Prop31
280
     0
102
RTVSPost2010PropOp31
 70
     1
102
RTVSPost2010Prop32
280
     0
102
RTVSPost2010PropOp32
 70
     1
102
RTVSPost2010Prop33
280
     0
102
RTVSPost2010PropOp33
 70
     1
102
RTVSPost2010Prop34
280
     0
102
RTVSPost2010PropOp34
 70
     1
102
RTVSPost2010Prop35
280
     0
102
RTVSPost2010PropOp35
 70
     1
102
RTVSPost2010Prop36
280
     0
102
RTVSPost2010PropOp36
 70
     1
102
RTVSPost2010Prop37
 90
       50
102
RTVSPost2010PropOp37
 70
     1
102
RTVSPost2010Prop38
140
0.0
102
RTVSPost2010PropOp38
 70
     1
102
RTVSPost2010Prop39
140
1.0
102
RTVSPost2010PropOp39
 70
     1
102
RTVSPost2010Prop40
 90
        0
102
RTVSPost2010PropOp40
 70
     1
102
RTVSPost2010Prop41ColorIndex
 90
       18
102
RTVSPost2010Prop41ColorRGB
 90
        0
102
RTVSPost2010PropOp41
 70
     1
102
RTVSPost2010Prop42
 90
       50
102
RTVSPost2010PropOp42
 70
     1
102
RTVSPost2010Prop43
 90
        3
102
RTVSPost2010PropOp43
 70
     1
102
RTVSPost2010Prop44ColorIndex
 90
        5
102
RTVSPost2010Prop44ColorRGB
 90
      255
102
RTVSPost2010PropOp44
 70
     1
102
RTVSPost2010Prop45
280
     0
102
RTVSPost2010PropOp45
 70
     1
102
RTVSPost2010Prop46
 90
       50
102
RTVSPost2010PropOp46
 70
     1
102
RTVSPost2010Prop47
 90
       50
102
RTVSPost2010PropOp47
 70
     1
102
RTVSPost2010Prop48
 90
       50
102
RTVSPost2010PropOp48
 70
     1
102
RTVSPost2010Prop49
280
     0
102
RTVSPost2010PropOp49
 70
     1
102
RTVSPost2010Prop50
 90
       50
102
RTVSPost2010PropOp50
 70
     1
102
RTVSPost2010Prop51ColorIndex
 90
      256
102
RTVSPost2010Prop51ColorRGB
 90
-16777216
102
RTVSPost2010PropOp51
 70
     0
102
RTVSPost2010Prop52
140
1.0
102
RTVSPost2010PropOp52
 70
     0
102
RTVSPost2010Prop53
 90
        2
102
RTVSPost2010PropOp53
 70
     1
102
RTVSPost2010Prop54
  1
strokes_ogs.tif
102
RTVSPost2010PropOp54
 70
     1
102
RTVSPost2010Prop55
280
     0
102
RTVSPost2010PropOp55
 70
     1
102
RTVSPost2010Prop56
140
1.0
102
RTVSPost2010PropOp56
 70
     1
102
RTVSPost2010Prop57
140
1.0
102
RTVSPost2010PropOp57
 70
     1
  0
XRECORD
  5
256
102
{ACAD_REACTORS
330
255
102
}
330
255
100
AcDbXrecord
280
     1
102
RTVSPost2010Prop28
280
     0
102
RTVSPost2010PropOp28
 70
     1
102
RTVSPost2010Prop29
280
     1
102
RTVSPost2010PropOp29
 70
     1
102
RTVSPost2010Prop30
280
     1
102
RTVSPost2010PropOp30
 70
     1
102
RTVSPost2010Prop31
280
     0
102
RTVSPost2010PropOp31
 70
     1
102
RTVSPost2010Prop32
280
     0
102
RTVSPost2010PropOp32
 70
     1
102
RTVSPost2010Prop33
280
     0
102
RTVSPost2010PropOp33
 70
     1
102
RTVSPost2010Prop34
280
     0
102
RTVSPost2010PropOp34
 70
     1
102
RTVSPost2010Prop35
280
     0
102
RTVSPost2010PropOp35
 70
     1
102
RTVSPost2010Prop36
280
     0
102
RTVSPost2010PropOp36
 70
     1
102
RTVSPost2010Prop37
 90
       50
102
RTVSPost2010PropOp37
 70
     1
102
RTVSPost2010Prop38
140
0.0
102
RTVSPost2010PropOp38
 70
     1
102
RTVSPost2010Prop39
140
1.0
102
RTVSPost2010PropOp39
 70
     1
102
RTVSPost2010Prop40
 90
        0
102
RTVSPost2010PropOp40
 70
     1
102
RTVSPost2010Prop41ColorIndex
 90
       18
102
RTVSPost2010Prop41ColorRGB
 90
        0
102
RTVSPost2010PropOp41
 70
     1
102
RTVSPost2010Prop42
 90
       50
102
RTVSPost2010PropOp42
 70
     1
102
RTVSPost2010Prop43
 90
        3
102
RTVSPost2010PropOp43
 70
     1
102
RTVSPost2010Prop44ColorIndex
 90
        5
102
RTVSPost2010Prop44ColorRGB
 90
      255
102
RTVSPost2010PropOp44
 70
     1
102
RTVSPost2010Prop45
280
     0
102
RTVSPost2010PropOp45
 70
     1
102
RTVSPost2010Prop46
 90
       50
102
RTVSPost2010PropOp46
 70
     1
102
RTVSPost2010Prop47
 90
       50
102
RTVSPost2010PropOp47
 70
     1
102
RTVSPost2010Prop48
 90
       50
102
RTVSPost2010PropOp48
 70
     1
102
RTVSPost2010Prop49
280
     0
102
RTVSPost2010PropOp49
 70
     1
102
RTVSPost2010Prop50
 90
       50
102
RTVSPost2010PropOp50
 70
     1
102
RTVSPost2010Prop51ColorIndex
 90
      256
102
RTVSPost2010Prop51ColorRGB
 90
-16777216
102
RTVSPost2010PropOp51
 70
     0
102
RTVSPost2010Prop52
140
1.0
102
RTVSPost2010PropOp52
 70
     0
102
RTVSPost2010Prop53
 90
        2
102
RTVSPost2010PropOp53
 70
     1
102
RTVSPost2010Prop54
  1
strokes_ogs.tif
102
RTVSPost2010PropOp54
 70
     1
102
RTVSPost2010Prop55
280
     0
102
RTVSPost2010PropOp55
 70
     1
102
RTVSPost2010Prop56
140
1.0
102
RTVSPost2010PropOp56
 70
     1
102
RTVSPost2010Prop57
140
1.0
102
RTVSPost2010PropOp57
 70
     1
  0
XRECORD
  5
258
102
{ACAD_REACTORS
330
257
102
}
330
257
100
AcDbXrecord
280
     1
102
RTVSPost2010Prop28
280
     0
102
RTVSPost2010PropOp28
 70
     1
102
RTVSPost2010Prop29
280
     1
102
RTVSPost2010PropOp29
 70
     1
102
RTVSPost2010Prop30
280
     1
102
RTVSPost2010PropOp30
 70
     1
102
RTVSPost2010Prop31
280
     0
102
RTVSPost2010PropOp31
 70
     1
102
RTVSPost2010Prop32
280
     0
102
RTVSPost2010PropOp32
 70
     1
102
RTVSPost2010Prop33
280
     0
102
RTVSPost2010PropOp33
 70
     1
102
RTVSPost2010Prop34
280
     0
102
RTVSPost2010PropOp34
 70
     1
102
RTVSPost2010Prop35
280
     0
102
RTVSPost2010PropOp35
 70
     1
102
RTVSPost2010Prop36
280
     0
102
RTVSPost2010PropOp36
 70
     1
102
RTVSPost2010Prop37
 90
       50
102
RTVSPost2010PropOp37
 70
     1
102
RTVSPost2010Prop38
140
0.0
102
RTVSPost2010PropOp38
 70
     1
102
RTVSPost2010Prop39
140
1.0
102
RTVSPost2010PropOp39
 70
     1
102
RTVSPost2010Prop40
 90
        0
102
RTVSPost2010PropOp40
 70
     1
102
RTVSPost2010Prop41ColorIndex
 90
       18
102
RTVSPost2010Prop41ColorRGB
 90
        0
102
RTVSPost2010PropOp41
 70
     1
102
RTVSPost2010Prop42
 90
       50
102
RTVSPost2010PropOp42
 70
     1
102
RTVSPost2010Prop43
 90
        3
102
RTVSPost2010PropOp43
 70
     1
102
RTVSPost2010Prop44ColorIndex
 90
        5
102
RTVSPost2010Prop44ColorRGB
 90
      255
102
RTVSPost2010PropOp44
 70
     1
102
RTVSPost2010Prop45
280
     0
102
RTVSPost2010PropOp45
 70
     1
102
RTVSPost2010Prop46
 90
       50
102
RTVSPost2010PropOp46
 70
     1
102
RTVSPost2010Prop47
 90
       50
102
RTVSPost2010PropOp47
 70
     1
102
RTVSPost2010Prop48
 90
       50
102
RTVSPost2010PropOp48
 70
     1
102
RTVSPost2010Prop49
280
     0
102
RTVSPost2010PropOp49
 70
     1
102
RTVSPost2010Prop50
 90
       50
102
RTVSPost2010PropOp50
 70
     1
102
RTVSPost2010Prop51ColorIndex
 90
      256
102
RTVSPost2010Prop51ColorRGB
 90
-16777216
102
RTVSPost2010PropOp51
 70
     0
102
RTVSPost2010Prop52
140
1.0
102
RTVSPost2010PropOp52
 70
     0
102
RTVSPost2010Prop53
 90
        2
102
RTVSPost2010PropOp53
 70
     1
102
RTVSPost2010Prop54
  1
strokes_ogs.tif
102
RTVSPost2010PropOp54
 70
     1
102
RTVSPost2010Prop55
280
     0
102
RTVSPost2010PropOp55
 70
     1
102
RTVSPost2010Prop56
140
1.0
102
RTVSPost2010PropOp56
 70
     1
102
RTVSPost2010Prop57
140
1.0
102
RTVSPost2010PropOp57
 70
     1
  0
XRECORD
  5
24E
102
{ACAD_REACTORS
330
24D
102
}
330
24D
100
AcDbXrecord
280
     1
102
RTVSPost2010Prop28
280
     0
102
RTVSPost2010PropOp28
 70
     1
102
RTVSPost2010Prop29
280
     1
102
RTVSPost2010PropOp29
 70
     1
102
RTVSPost2010Prop30
280
     1
102
RTVSPost2010PropOp30
 70
     1
102
RTVSPost2010Prop31
280
     0
102
RTVSPost2010PropOp31
 70
     1
102
RTVSPost2010Prop32
280
     0
102
RTVSPost2010PropOp32
 70
     1
102
RTVSPost2010Prop33
280
     0
102
RTVSPost2010PropOp33
 70
     1
102
RTVSPost2010Prop34
280
     0
102
RTVSPost2010PropOp34
 70
     1
102
RTVSPost2010Prop35
280
     0
102
RTVSPost2010PropOp35
 70
     1
102
RTVSPost2010Prop36
280
     0
102
RTVSPost2010PropOp36
 70
     1
102
RTVSPost2010Prop37
 90
       50
102
RTVSPost2010PropOp37
 70
     1
102
RTVSPost2010Prop38
140
0.0
102
RTVSPost2010PropOp38
 70
     1
102
RTVSPost2010Prop39
140
1.0
102
RTVSPost2010PropOp39
 70
     1
102
RTVSPost2010Prop40
 90
        0
102
RTVSPost2010PropOp40
 70
     1
102
RTVSPost2010Prop41ColorIndex
 90
       18
102
RTVSPost2010Prop41ColorRGB
 90
        0
102
RTVSPost2010PropOp41
 70
     1
102
RTVSPost2010Prop42
 90
       50
102
RTVSPost2010PropOp42
 70
     1
102
RTVSPost2010Prop43
 90
        3
102
RTVSPost2010PropOp43
 70
     1
102
RTVSPost2010Prop44ColorIndex
 90
        5
102
RTVSPost2010Prop44ColorRGB
 90
      255
102
RTVSPost2010PropOp44
 70
     1
102
RTVSPost2010Prop45
280
     0
102
RTVSPost2010PropOp45
 70
     1
102
RTVSPost2010Prop46
 90
       50
102
RTVSPost2010PropOp46
 70
     1
102
RTVSPost2010Prop47
 90
       50
102
RTVSPost2010PropOp47
 70
     1
102
RTVSPost2010Prop48
 90
       50
102
RTVSPost2010PropOp48
 70
     1
102
RTVSPost2010Prop49
280
     0
102
RTVSPost2010PropOp49
 70
     1
102
RTVSPost2010Prop50
 90
       50
102
RTVSPost2010PropOp50
 70
     1
102
RTVSPost2010Prop51ColorIndex
 90
      256
102
RTVSPost2010Prop51ColorRGB
 90
-16777216
102
RTVSPost2010PropOp51
 70
     0
102
RTVSPost2010Prop52
140
1.0
102
RTVSPost2010PropOp52
 70
     0
102
RTVSPost2010Prop53
 90
        2
102
RTVSPost2010PropOp53
 70
     1
102
RTVSPost2010Prop54
  1
strokes_ogs.tif
102
RTVSPost2010PropOp54
 70
     1
102
RTVSPost2010Prop55
280
     0
102
RTVSPost2010PropOp55
 70
     1
102
RTVSPost2010Prop56
140
1.0
102
RTVSPost2010PropOp56
 70
     1
102
RTVSPost2010Prop57
140
1.0
102
RTVSPost2010PropOp57
 70
     1
  0
XRECORD
  5
242
102
{ACAD_REACTORS
330
241
102
}
330
241
100
AcDbXrecord
280
     1
102
RTVSPost2010Prop28
280
     0
102
RTVSPost2010PropOp28
 70
     1
102
RTVSPost2010Prop29
280
     1
102
RTVSPost2010PropOp29
 70
     1
102
RTVSPost2010Prop30
280
     1
102
RTVSPost2010PropOp30
 70
     1
102
RTVSPost2010Prop31
280
     0
102
RTVSPost2010PropOp31
 70
     1
102
RTVSPost2010Prop32
280
     0
102
RTVSPost2010PropOp32
 70
     1
102
RTVSPost2010Prop33
280
     0
102
RTVSPost2010PropOp33
 70
     1
102
RTVSPost2010Prop34
280
     0
102
RTVSPost2010PropOp34
 70
     1
102
RTVSPost2010Prop35
280
     0
102
RTVSPost2010PropOp35
 70
     1
102
RTVSPost2010Prop36
280
     0
102
RTVSPost2010PropOp36
 70
     1
102
RTVSPost2010Prop37
 90
       50
102
RTVSPost2010PropOp37
 70
     1
102
RTVSPost2010Prop38
140
0.0
102
RTVSPost2010PropOp38
 70
     1
102
RTVSPost2010Prop39
140
1.0
102
RTVSPost2010PropOp39
 70
     1
102
RTVSPost2010Prop40
 90
        0
102
RTVSPost2010PropOp40
 70
     1
102
RTVSPost2010Prop41ColorIndex
 90
       18
102
RTVSPost2010Prop41ColorRGB
 90
        0
102
RTVSPost2010PropOp41
 70
     1
102
RTVSPost2010Prop42
 90
       50
102
RTVSPost2010PropOp42
 70
     1
102
RTVSPost2010Prop43
 90
        3
102
RTVSPost2010PropOp43
 70
     1
102
RTVSPost2010Prop44ColorIndex
 90
        5
102
RTVSPost2010Prop44ColorRGB
 90
      255
102
RTVSPost2010PropOp44
 70
     1
102
RTVSPost2010Prop45
280
     0
102
RTVSPost2010PropOp45
 70
     1
102
RTVSPost2010Prop46
 90
       50
102
RTVSPost2010PropOp46
 70
     1
102
RTVSPost2010Prop47
 90
       50
102
RTVSPost2010PropOp47
 70
     1
102
RTVSPost2010Prop48
 90
       50
102
RTVSPost2010PropOp48
 70
     1
102
RTVSPost2010Prop49
280
     0
102
RTVSPost2010PropOp49
 70
     1
102
RTVSPost2010Prop50
 90
       50
102
RTVSPost2010PropOp50
 70
     1
102
RTVSPost2010Prop51ColorIndex
 90
      256
102
RTVSPost2010Prop51ColorRGB
 90
-16777216
102
RTVSPost2010PropOp51
 70
     0
102
RTVSPost2010Prop52
140
1.0
102
RTVSPost2010PropOp52
 70
     0
102
RTVSPost2010Prop53
 90
        2
102
RTVSPost2010PropOp53
 70
     1
102
RTVSPost2010Prop54
  1
strokes_ogs.tif
102
RTVSPost2010PropOp54
 70
     1
102
RTVSPost2010Prop55
280
     0
102
RTVSPost2010PropOp55
 70
     1
102
RTVSPost2010Prop56
140
1.0
102
RTVSPost2010PropOp56
 70
     1
102
RTVSPost2010Prop57
140
1.0
102
RTVSPost2010PropOp57
 70
     1
  0
XRECORD
  5
25A
102
{ACAD_REACTORS
330
259
102
}
330
259
100
AcDbXrecord
280
     1
102
RTVSPost2010Prop28
280
     0
102
RTVSPost2010PropOp28
 70
     1
102
RTVSPost2010Prop29
280
     1
102
RTVSPost2010PropOp29
 70
     1
102
RTVSPost2010Prop30
280
     1
102
RTVSPost2010PropOp30
 70
     1
102
RTVSPost2010Prop31
280
     0
102
RTVSPost2010PropOp31
 70
     1
102
RTVSPost2010Prop32
280
     0
102
RTVSPost2010PropOp32
 70
     1
102
RTVSPost2010Prop33
280
     0
102
RTVSPost2010PropOp33
 70
     1
102
RTVSPost2010Prop34
280
     0
102
RTVSPost2010PropOp34
 70
     1
102
RTVSPost2010Prop35
280
     0
102
RTVSPost2010PropOp35
 70
     1
102
RTVSPost2010Prop36
280
     0
102
RTVSPost2010PropOp36
 70
     1
102
RTVSPost2010Prop37
 90
       50
102
RTVSPost2010PropOp37
 70
     1
102
RTVSPost2010Prop38
140
0.0
102
RTVSPost2010PropOp38
 70
     1
102
RTVSPost2010Prop39
140
1.0
102
RTVSPost2010PropOp39
 70
     1
102
RTVSPost2010Prop40
 90
        0
102
RTVSPost2010PropOp40
 70
     1
102
RTVSPost2010Prop41ColorIndex
 90
       18
102
RTVSPost2010Prop41ColorRGB
 90
        0
102
RTVSPost2010PropOp41
 70
     1
102
RTVSPost2010Prop42
 90
       50
102
RTVSPost2010PropOp42
 70
     1
102
RTVSPost2010Prop43
 90
        3
102
RTVSPost2010PropOp43
 70
     1
102
RTVSPost2010Prop44ColorIndex
 90
        5
102
RTVSPost2010Prop44ColorRGB
 90
      255
102
RTVSPost2010PropOp44
 70
     1
102
RTVSPost2010Prop45
280
     0
102
RTVSPost2010PropOp45
 70
     1
102
RTVSPost2010Prop46
 90
       50
102
RTVSPost2010PropOp46
 70
     1
102
RTVSPost2010Prop47
 90
       50
102
RTVSPost2010PropOp47
 70
     1
102
RTVSPost2010Prop48
 90
       50
102
RTVSPost2010PropOp48
 70
     1
102
RTVSPost2010Prop49
280
     0
102
RTVSPost2010PropOp49
 70
     1
102
RTVSPost2010Prop50
 90
       50
102
RTVSPost2010PropOp50
 70
     1
102
RTVSPost2010Prop51ColorIndex
 90
      256
102
RTVSPost2010Prop51ColorRGB
 90
-16777216
102
RTVSPost2010PropOp51
 70
     0
102
RTVSPost2010Prop52
140
1.0
102
RTVSPost2010PropOp52
 70
     0
102
RTVSPost2010Prop53
 90
        2
102
RTVSPost2010PropOp53
 70
     1
102
RTVSPost2010Prop54
  1
strokes_ogs.tif
102
RTVSPost2010PropOp54
 70
     1
102
RTVSPost2010Prop55
280
     0
102
RTVSPost2010PropOp55
 70
     1
102
RTVSPost2010Prop56
140
1.0
102
RTVSPost2010PropOp56
 70
     1
102
RTVSPost2010Prop57
140
1.0
102
RTVSPost2010PropOp57
 70
     1
  0
ENDSEC
  0
EOF
