  0
SECTION
  2
HEADER
  9
$ACADVER
  1
AC1018
  9
$ACADMAINTVER
 70
     0
  9
$DWGCODEPAGE
  3
ASCII
  9
$INSBASE
 10
0.0
 20
0.0
 30
0.0
  9
$EXTMIN
 10
1.000000000000000E+20
 20
1.000000000000000E+20
 30
1.000000000000000E+20
  9
$EXTMAX
 10
-1.000000000000000E+20
 20
-1.000000000000000E+20
 30
-1.000000000000000E+20
  9
$LIMMIN
 10
0.0
 20
0.0
  9
$LIMMAX
 10
12.0
 20
9.0
  9
$ORTHOMODE
 70
     0
  9
$REGENMODE
 70
     1
  9
$FILLMODE
 70
     1
  9
$QTEXTMODE
 70
     0
  9
$MIRRTEXT
 70
     1
  9
$LTSCALE
 40
1.0
  9
$ATTMODE
 70
     1
  9
$TEXTSIZE
 40
0.2
  9
$TRACEWID
 40
0.05
  9
$TEXTSTYLE
  7
Standard
  9
$CLAYER
  8
0
  9
$CELTYPE
  6
ByLayer
  9
$CECOLOR
 62
   256
  9
$CELTSCALE
 40
1.0
  9
$DISPSILH
 70
     0
  9
$DIMSCALE
 40
1.0
  9
$DIMASZ
 40
0.18
  9
$DIMEXO
 40
0.0625
  9
$DIMDLI
 40
0.38
  9
$DIMRND
 40
0.0
  9
$DIMDLE
 40
0.0
  9
$DIMEXE
 40
0.18
  9
$DIMTP
 40
0.0
  9
$DIMTM
 40
0.0
  9
$DIMTXT
 40
0.18
  9
$DIMCEN
 40
0.09
  9
$DIMTSZ
 40
0.0
  9
$DIMTOL
 70
     0
  9
$DIMLIM
 70
     0
  9
$DIMTIH
 70
     1
  9
$DIMTOH
 70
     1
  9
$DIMSE1
 70
     0
  9
$DIMSE2
 70
     0
  9
$DIMTAD
 70
     0
  9
$DIMZIN
 70
     0
  9
$DIMBLK
  1

  9
$DIMASO
 70
     1
  9
$DIMSHO
 70
     1
  9
$DIMPOST
  1

  9
$DIMAPOST
  1

  9
$DIMALT
 70
     0
  9
$DIMALTD
 70
     2
  9
$DIMALTF
 40
25.4
  9
$DIMLFAC
 40
1.0
  9
$DIMTOFL
 70
     0
  9
$DIMTVP
 40
0.0
  9
$DIMTIX
 70
     0
  9
$DIMSOXD
 70
     0
  9
$DIMSAH
 70
     0
  9
$DIMBLK1
  1

  9
$DIMBLK2
  1

  9
$DIMSTYLE
  2
Standard
  9
$DIMCLRD
 70
     0
  9
$DIMCLRE
 70
     0
  9
$DIMCLRT
 70
     0
  9
$DIMTFAC
 40
1.0
  9
$DIMGAP
 40
0.09
  9
$DIMJUST
 70
     0
  9
$DIMSD1
 70
     0
  9
$DIMSD2
 70
     0
  9
$DIMTOLJ
 70
     1
  9
$DIMTZIN
 70
     0
  9
$DIMALTZ
 70
     0
  9
$DIMALTTZ
 70
     0
  9
$DIMUPT
 70
     0
  9
$DIMDEC
 70
     4
  9
$DIMTDEC
 70
     4
  9
$DIMALTU
 70
     2
  9
$DIMALTTD
 70
     2
  9
$DIMTXSTY
  7
Standard
  9
$DIMAUNIT
 70
     0
  9
$DIMADEC
 70
     0
  9
$DIMALTRND
 40
0.0
  9
$DIMAZIN
 70
     0
  9
$DIMDSEP
 70
    46
  9
$DIMATFIT
 70
     3
  9
$DIMFRAC
 70
     0
  9
$DIMLDRBLK
  1

  9
$DIMLUNIT
 70
     2
  9
$DIMLWD
 70
    -2
  9
$DIMLWE
 70
    -2
  9
$DIMTMOVE
 70
     0
  9
$LUNITS
 70
     2
  9
$LUPREC
 70
     4
  9
$SKETCHINC
 40
0.1
  9
$FILLETRAD
 40
0.5
  9
$AUNITS
 70
     0
  9
$AUPREC
 70
     0
  9
$MENU
  1
.
  9
$ELEVATION
 40
0.0
  9
$PELEVATION
 40
0.0
  9
$THICKNESS
 40
0.0
  9
$LIMCHECK
 70
     0
  9
$CHAMFERA
 40
0.5
  9
$CHAMFERB
 40
0.5
  9
$CHAMFERC
 40
1.0
  9
$CHAMFERD
 40
0.0
  9
$SKPOLY
 70
     0
  9
$TDCREATE
 40
2456965.963326273
  9
$TDUCREATE
 40
2456965.921659607
  9
$TDUPDATE
 40
2456965.963326285
  9
$TDUUPDATE
 40
2456965.921659618
  9
$TDINDWG
 40
0.0000000116
  9
$TDUSRTIMER
 40
0.0000000116
  9
$USRTIMER
 70
     1
  9
$ANGBASE
 50
0.0
  9
$ANGDIR
 70
     0
  9
$PDMODE
 70
     0
  9
$PDSIZE
 40
0.0
  9
$PLINEWID
 40
0.0
  9
$SPLFRAME
 70
     0
  9
$SPLINETYPE
 70
     6
  9
$SPLINESEGS
 70
     8
  9
$HANDSEED
  5
699
  9
$SURFTAB1
 70
     6
  9
$SURFTAB2
 70
     6
  9
$SURFTYPE
 70
     6
  9
$SURFU
 70
     6
  9
$SURFV
 70
     6
  9
$UCSBASE
  2

  9
$UCSNAME
  2

  9
$UCSORG
 10
0.0
 20
0.0
 30
0.0
  9
$UCSXDIR
 10
1.0
 20
0.0
 30
0.0
  9
$UCSYDIR
 10
0.0
 20
1.0
 30
0.0
  9
$UCSORTHOREF
  2

  9
$UCSORTHOVIEW
 70
     0
  9
$UCSORGTOP
 10
0.0
 20
0.0
 30
0.0
  9
$UCSORGBOTTOM
 10
0.0
 20
0.0
 30
0.0
  9
$UCSORGLEFT
 10
0.0
 20
0.0
 30
0.0
  9
$UCSORGRIGHT
 10
0.0
 20
0.0
 30
0.0
  9
$UCSORGFRONT
 10
0.0
 20
0.0
 30
0.0
  9
$UCSORGBACK
 10
0.0
 20
0.0
 30
0.0
  9
$PUCSBASE
  2

  9
$PUCSNAME
  2

  9
$PUCSORG
 10
0.0
 20
0.0
 30
0.0
  9
$PUCSXDIR
 10
1.0
 20
0.0
 30
0.0
  9
$PUCSYDIR
 10
0.0
 20
1.0
 30
0.0
  9
$PUCSORTHOREF
  2

  9
$PUCSORTHOVIEW
 70
     0
  9
$PUCSORGTOP
 10
0.0
 20
0.0
 30
0.0
  9
$PUCSORGBOTTOM
 10
0.0
 20
0.0
 30
0.0
  9
$PUCSORGLEFT
 10
0.0
 20
0.0
 30
0.0
  9
$PUCSORGRIGHT
 10
0.0
 20
0.0
 30
0.0
  9
$PUCSORGFRONT
 10
0.0
 20
0.0
 30
0.0
  9
$PUCSORGBACK
 10
0.0
 20
0.0
 30
0.0
  9
$USERI1
 70
     0
  9
$USERI2
 70
     0
  9
$USERI3
 70
     0
  9
$USERI4
 70
     0
  9
$USERI5
 70
     0
  9
$USERR1
 40
0.0
  9
$USERR2
 40
0.0
  9
$USERR3
 40
0.0
  9
$USERR4
 40
0.0
  9
$USERR5
 40
0.0
  9
$WORLDVIEW
 70
     1
  9
$SHADEDGE
 70
     3
  9
$SHADEDIF
 70
    70
  9
$TILEMODE
 70
     1
  9
$MAXACTVP
 70
    64
  9
$PINSBASE
 10
0.0
 20
0.0
 30
0.0
  9
$PLIMCHECK
 70
     0
  9
$PEXTMIN
 10
1.000000000000000E+20
 20
1.000000000000000E+20
 30
1.000000000000000E+20
  9
$PEXTMAX
 10
-1.000000000000000E+20
 20
-1.000000000000000E+20
 30
-1.000000000000000E+20
  9
$PLIMMIN
 10
0.0
 20
0.0
  9
$PLIMMAX
 10
12.0
 20
9.0
  9
$UNITMODE
 70
     0
  9
$VISRETAIN
 70
     1
  9
$PLINEGEN
 70
     0
  9
$PSLTSCALE
 70
     1
  9
$TREEDEPTH
 70
  3020
  9
$CMLSTYLE
  2
Standard
  9
$CMLJUST
 70
     0
  9
$CMLSCALE
 40
1.0
  9
$PROXYGRAPHICS
 70
     1
  9
$MEASUREMENT
 70
     0
  9
$CELWEIGHT
370
    -1
  9
$ENDCAPS
280
     0
  9
$JOINSTYLE
280
     0
  9
$LWDISPLAY
290
     1
  9
$INSUNITS
 70
     1
  9
$HYPERLINKBASE
  1

  9
$STYLESHEET
  1

  9
$XEDIT
290
     1
  9
$CEPSNTYPE
380
     0
  9
$PSTYLEMODE
290
     1
  9
$FINGERPRINTGUID
  2
{8B63DC30-0E7D-4CF0-A28B-7159D8D43804}
  9
$VERSIONGUID
  2
{FAEB1C32-E019-11D5-929B-00C0DF256EC4}
  9
$EXTNAMES
290
     1
  9
$PSVPSCALE
 40
0.0
  9
$OLESTARTUP
290
     0
  9
$SORTENTS
280
   127
  9
$INDEXCTL
280
     0
  9
$HIDETEXT
280
     1
  9
$XCLIPFRAME
290
     0
  9
$HALOGAP
280
     0
  9
$OBSCOLOR
 70
   257
  9
$OBSLTYPE
280
     0
  9
$INTERSECTIONDISPLAY
280
     0
  9
$INTERSECTIONCOLOR
 70
   257
  9
$DIMASSOC
280
     2
  9
$PROJECTNAME
  1

  0
ENDSEC
  0
SECTION
  2
CLASSES
  0
CLASS
  1
ACDBDICTIONARYWDFLT
  2
AcDbDictionaryWithDefault
  3
ObjectDBX Classes
 90
        0
 91
        3
280
     0
281
     0
  0
CLASS
  1
VISUALSTYLE
  2
AcDbVisualStyle
  3
ObjectDBX Classes
 90
     4095
 91
        3
280
     0
281
     0
  0
ENDSEC
  0
SECTION
  2
TABLES
  0
TABLE
  2
VPORT
  5
8
330
0
100
AcDbSymbolTable
 70
     1
  0
VPORT
  5
29
330
8
100
AcDbSymbolTableRecord
100
AcDbViewportTableRecord
  2
*Active
 70
     0
 10
0.0
 20
0.0
 11
1.0
 21
1.0
 12
0.0
 22
0.0
 13
0.0
 23
0.0
 14
0.5
 24
0.5
 15
0.5
 25
0.5
 16
0.0
 26
0.0
 36
1.0
 17
105.0008091239277
 27
148.5001637099431
 37
0.0
 40
297.0003274198861
 41
0.7070753762199199
 42
50.0
 43
0.0
 44
0.0
 50
0.0
 51
0.0
 71
     0
 72
   100
 73
     1
 74
     3
 75
     0
 76
     0
 77
     0
 78
     0
281
     0
 65
     1
110
0.0
120
0.0
130
0.0
111
1.0
121
0.0
131
0.0
112
0.0
122
1.0
132
0.0
 79
     0
146
0.0
  0
ENDTAB
  0
TABLE
  2
LTYPE
  5
5
330
0
100
AcDbSymbolTable
 70
     4
  0
LTYPE
  5
14
330
5
100
AcDbSymbolTableRecord
100
AcDbLinetypeTableRecord
  2
ByBlock
 70
     0
  3

 72
    65
 73
     0
 40
0.0
  0
LTYPE
  5
15
330
5
100
AcDbSymbolTableRecord
100
AcDbLinetypeTableRecord
  2
ByLayer
 70
     0
  3

 72
    65
 73
     0
 40
0.0
  0
LTYPE
  5
16
330
5
100
AcDbSymbolTableRecord
100
AcDbLinetypeTableRecord
  2
Continuous
 70
     0
  3
Solid line
 72
    65
 73
     0
 40
0.0
  0
LTYPE
  5
685
330
5
100
AcDbSymbolTableRecord
100
AcDbLinetypeTableRecord
  2
AI-Linetype-1
 70
     0
  3
Adobe Illustrator Linetype No. 1
 72
    65
 73
     4
 40
319.7290826553281
 49
199.830677668886
 74
     0
 49
-39.96613499548069
 74
     0
 49
39.96613499548069
 74
     0
 49
-39.96613499548069
 74
     0
  0
LTYPE
  5
68E
330
5
100
AcDbSymbolTableRecord
100
AcDbLinetypeTableRecord
  2
AI-Linetype-2
 70
     0
  3
Adobe Illustrator Linetype No. 2
 72
    65
 73
     4
 40
592.574820388161
 49
352.7780104152769
 74
     0
 49
-79.93226999096137
 74
     0
 49
79.93226999096137
 74
     0
 49
-79.93226999096137
 74
     0
  0
LTYPE
  5
697
330
5
100
AcDbSymbolTableRecord
100
AcDbLinetypeTableRecord
  2
AI-Linetype-3
 70
     0
  3
Adobe Illustrator Linetype No. 3
 72
    65
 73
     4
 40
592.574820388161
 49
352.7780104152769
 74
     0
 49
-79.93226999096137
 74
     0
 49
79.93226999096137
 74
     0
 49
-79.93226999096137
 74
     0
  0
ENDTAB
  0
TABLE
  2
LAYER
  5
2
330
0
100
AcDbSymbolTable
 70
     6
  0
LAYER
  5
10
330
2
100
AcDbSymbolTableRecord
100
AcDbLayerTableRecord
  2
0
 70
     0
 62
     7
  6
Continuous
370
    -3
390
F
  0
LAYER
  5
3B
330
2
100
AcDbSymbolTableRecord
100
AcDbLayerTableRecord
  2
SOMBREA
 70
     0
 62
     7
  6
Continuous
370
    -3
390
F
  0
LAYER
  5
1E8
330
2
100
AcDbSymbolTableRecord
100
AcDbLayerTableRecord
  2
CAJETIN
 70
     0
 62
     7
  6
Continuous
370
    -3
390
F
  0
LAYER
  5
258
330
2
100
AcDbSymbolTableRecord
100
AcDbLayerTableRecord
  2
1
 70
     0
 62
     7
  6
Continuous
370
    -3
390
F
  0
LAYER
  5
3F2
330
2
100
AcDbSymbolTableRecord
100
AcDbLayerTableRecord
  2
COTAS
 70
     0
 62
     7
  6
Continuous
370
    -3
390
F
  0
LAYER
  5
67C
330
2
100
AcDbSymbolTableRecord
100
AcDbLayerTableRecord
  2
EJES
 70
     0
 62
     7
  6
Continuous
370
    -3
390
F
  0
ENDTAB
  0
TABLE
  2
STYLE
  5
3
330
0
100
AcDbSymbolTable
 70
     1
  0
STYLE
  5
11
330
3
100
AcDbSymbolTableRecord
100
AcDbTextStyleTableRecord
  2
Standard
 70
     0
 40
0.0
 41
1.0
 50
0.0
 71
     0
 42
0.2
  3
txt
  4

  0
ENDTAB
  0
TABLE
  2
VIEW
  5
6
330
0
100
AcDbSymbolTable
 70
     0
  0
ENDTAB
  0
TABLE
  2
UCS
  5
7
330
0
100
AcDbSymbolTable
 70
     0
  0
ENDTAB
  0
TABLE
  2
APPID
  5
9
330
0
100
AcDbSymbolTable
 70
     1
  0
APPID
  5
12
330
9
100
AcDbSymbolTableRecord
100
AcDbRegAppTableRecord
  2
ACAD
 70
     0
  0
ENDTAB
  0
TABLE
  2
DIMSTYLE
  5
A
330
0
100
AcDbSymbolTable
 70
     1
100
AcDbDimStyleTable
  0
DIMSTYLE
105
27
330
A
100
AcDbSymbolTableRecord
100
AcDbDimStyleTableRecord
  2
Standard
 70
     0
340
11
  0
ENDTAB
  0
TABLE
  2
BLOCK_RECORD
  5
1
330
0
100
AcDbSymbolTable
 70
   171
  0
BLOCK_RECORD
  5
1F
330
1
100
AcDbSymbolTableRecord
100
AcDbBlockTableRecord
  2
*Model_Space
340
22
  0
BLOCK_RECORD
  5
1B
330
1
100
AcDbSymbolTableRecord
100
AcDbBlockTableRecord
  2
*Paper_Space
340
1E
  0
BLOCK_RECORD
  5
23
330
1
100
AcDbSymbolTableRecord
100
AcDbBlockTableRecord
  2
*Paper_Space0
340
26
  0
BLOCK_RECORD
  5
3C
330
1
100
AcDbSymbolTableRecord
100
AcDbBlockTableRecord
  2
block 2
340
0
102
{BLKREFS
331
3D
102
}
  0
BLOCK_RECORD
  5
112
330
1
100
AcDbSymbolTableRecord
100
AcDbBlockTableRecord
  2
block 3
340
0
102
{BLKREFS
331
113
102
}
  0
BLOCK_RECORD
  5
1E9
330
1
100
AcDbSymbolTableRecord
100
AcDbBlockTableRecord
  2
block 4
340
0
102
{BLKREFS
331
1EA
102
}
  0
BLOCK_RECORD
  5
1EE
330
1
100
AcDbSymbolTableRecord
100
AcDbBlockTableRecord
  2
block 5
340
0
102
{BLKREFS
331
1EF
102
}
  0
BLOCK_RECORD
  5
1F3
330
1
100
AcDbSymbolTableRecord
100
AcDbBlockTableRecord
  2
block 6
340
0
102
{BLKREFS
331
1F4
102
}
  0
BLOCK_RECORD
  5
1F8
330
1
100
AcDbSymbolTableRecord
100
AcDbBlockTableRecord
  2
block 7
340
0
102
{BLKREFS
331
1F9
102
}
  0
BLOCK_RECORD
  5
1FD
330
1
100
AcDbSymbolTableRecord
100
AcDbBlockTableRecord
  2
block 8
340
0
102
{BLKREFS
331
1FE
102
}
  0
BLOCK_RECORD
  5
202
330
1
100
AcDbSymbolTableRecord
100
AcDbBlockTableRecord
  2
block 9
340
0
102
{BLKREFS
331
203
102
}
  0
BLOCK_RECORD
  5
207
330
1
100
AcDbSymbolTableRecord
100
AcDbBlockTableRecord
  2
block 10
340
0
102
{BLKREFS
331
208
102
}
  0
BLOCK_RECORD
  5
20C
330
1
100
AcDbSymbolTableRecord
100
AcDbBlockTableRecord
  2
block 11
340
0
102
{BLKREFS
331
20D
102
}
  0
BLOCK_RECORD
  5
211
330
1
100
AcDbSymbolTableRecord
100
AcDbBlockTableRecord
  2
block 12
340
0
102
{BLKREFS
331
212
102
}
  0
BLOCK_RECORD
  5
216
330
1
100
AcDbSymbolTableRecord
100
AcDbBlockTableRecord
  2
block 13
340
0
102
{BLKREFS
331
217
102
}
  0
BLOCK_RECORD
  5
21E
330
1
100
AcDbSymbolTableRecord
100
AcDbBlockTableRecord
  2
block 14
340
0
102
{BLKREFS
331
21F
102
}
  0
BLOCK_RECORD
  5
226
330
1
100
AcDbSymbolTableRecord
100
AcDbBlockTableRecord
  2
block 15
340
0
102
{BLKREFS
331
227
102
}
  0
BLOCK_RECORD
  5
22B
330
1
100
AcDbSymbolTableRecord
100
AcDbBlockTableRecord
  2
block 16
340
0
102
{BLKREFS
331
22C
102
}
  0
BLOCK_RECORD
  5
233
330
1
100
AcDbSymbolTableRecord
100
AcDbBlockTableRecord
  2
block 17
340
0
102
{BLKREFS
331
234
102
}
  0
BLOCK_RECORD
  5
23B
330
1
100
AcDbSymbolTableRecord
100
AcDbBlockTableRecord
  2
block 18
340
0
102
{BLKREFS
331
23C
102
}
  0
BLOCK_RECORD
  5
243
330
1
100
AcDbSymbolTableRecord
100
AcDbBlockTableRecord
  2
block 19
340
0
102
{BLKREFS
331
244
102
}
  0
BLOCK_RECORD
  5
24B
330
1
100
AcDbSymbolTableRecord
100
AcDbBlockTableRecord
  2
block 20
340
0
102
{BLKREFS
331
24C
102
}
  0
BLOCK_RECORD
  5
250
330
1
100
AcDbSymbolTableRecord
100
AcDbBlockTableRecord
  2
block 21
340
0
102
{BLKREFS
331
251
102
}
  0
BLOCK_RECORD
  5
259
330
1
100
AcDbSymbolTableRecord
100
AcDbBlockTableRecord
  2
block 22
340
0
102
{BLKREFS
331
25A
102
}
  0
BLOCK_RECORD
  5
25E
330
1
100
AcDbSymbolTableRecord
100
AcDbBlockTableRecord
  2
block 23
340
0
102
{BLKREFS
331
25F
102
}
  0
BLOCK_RECORD
  5
263
330
1
100
AcDbSymbolTableRecord
100
AcDbBlockTableRecord
  2
block 24
340
0
102
{BLKREFS
331
264
102
}
  0
BLOCK_RECORD
  5
268
330
1
100
AcDbSymbolTableRecord
100
AcDbBlockTableRecord
  2
block 25
340
0
102
{BLKREFS
331
269
102
}
  0
BLOCK_RECORD
  5
270
330
1
100
AcDbSymbolTableRecord
100
AcDbBlockTableRecord
  2
block 26
340
0
102
{BLKREFS
331
271
102
}
  0
BLOCK_RECORD
  5
278
330
1
100
AcDbSymbolTableRecord
100
AcDbBlockTableRecord
  2
block 27
340
0
102
{BLKREFS
331
279
102
}
  0
BLOCK_RECORD
  5
27D
330
1
100
AcDbSymbolTableRecord
100
AcDbBlockTableRecord
  2
block 28
340
0
102
{BLKREFS
331
27E
102
}
  0
BLOCK_RECORD
  5
282
330
1
100
AcDbSymbolTableRecord
100
AcDbBlockTableRecord
  2
block 29
340
0
102
{BLKREFS
331
283
102
}
  0
BLOCK_RECORD
  5
287
330
1
100
AcDbSymbolTableRecord
100
AcDbBlockTableRecord
  2
block 30
340
0
102
{BLKREFS
331
288
102
}
  0
BLOCK_RECORD
  5
28C
330
1
100
AcDbSymbolTableRecord
100
AcDbBlockTableRecord
  2
block 31
340
0
102
{BLKREFS
331
28D
102
}
  0
BLOCK_RECORD
  5
294
330
1
100
AcDbSymbolTableRecord
100
AcDbBlockTableRecord
  2
block 32
340
0
102
{BLKREFS
331
295
102
}
  0
BLOCK_RECORD
  5
299
330
1
100
AcDbSymbolTableRecord
100
AcDbBlockTableRecord
  2
block 33
340
0
102
{BLKREFS
331
29A
102
}
  0
BLOCK_RECORD
  5
2A1
330
1
100
AcDbSymbolTableRecord
100
AcDbBlockTableRecord
  2
block 34
340
0
102
{BLKREFS
331
2A2
102
}
  0
BLOCK_RECORD
  5
2A6
330
1
100
AcDbSymbolTableRecord
100
AcDbBlockTableRecord
  2
block 35
340
0
102
{BLKREFS
331
2A7
102
}
  0
BLOCK_RECORD
  5
2AB
330
1
100
AcDbSymbolTableRecord
100
AcDbBlockTableRecord
  2
block 36
340
0
102
{BLKREFS
331
2AC
102
}
  0
BLOCK_RECORD
  5
2B0
330
1
100
AcDbSymbolTableRecord
100
AcDbBlockTableRecord
  2
block 37
340
0
102
{BLKREFS
331
2B1
102
}
  0
BLOCK_RECORD
  5
2B5
330
1
100
AcDbSymbolTableRecord
100
AcDbBlockTableRecord
  2
block 38
340
0
102
{BLKREFS
331
2B6
102
}
  0
BLOCK_RECORD
  5
2BA
330
1
100
AcDbSymbolTableRecord
100
AcDbBlockTableRecord
  2
block 39
340
0
102
{BLKREFS
331
2BB
102
}
  0
BLOCK_RECORD
  5
2BF
330
1
100
AcDbSymbolTableRecord
100
AcDbBlockTableRecord
  2
block 40
340
0
102
{BLKREFS
331
2C0
102
}
  0
BLOCK_RECORD
  5
2C7
330
1
100
AcDbSymbolTableRecord
100
AcDbBlockTableRecord
  2
block 41
340
0
102
{BLKREFS
331
2C8
102
}
  0
BLOCK_RECORD
  5
2CF
330
1
100
AcDbSymbolTableRecord
100
AcDbBlockTableRecord
  2
block 42
340
0
102
{BLKREFS
331
2D0
102
}
  0
BLOCK_RECORD
  5
2D4
330
1
100
AcDbSymbolTableRecord
100
AcDbBlockTableRecord
  2
block 43
340
0
102
{BLKREFS
331
2D5
102
}
  0
BLOCK_RECORD
  5
2D9
330
1
100
AcDbSymbolTableRecord
100
AcDbBlockTableRecord
  2
block 44
340
0
102
{BLKREFS
331
2DA
102
}
  0
BLOCK_RECORD
  5
2DE
330
1
100
AcDbSymbolTableRecord
100
AcDbBlockTableRecord
  2
block 45
340
0
102
{BLKREFS
331
2DF
102
}
  0
BLOCK_RECORD
  5
2E3
330
1
100
AcDbSymbolTableRecord
100
AcDbBlockTableRecord
  2
block 46
340
0
102
{BLKREFS
331
2E4
102
}
  0
BLOCK_RECORD
  5
2EB
330
1
100
AcDbSymbolTableRecord
100
AcDbBlockTableRecord
  2
block 47
340
0
102
{BLKREFS
331
2EC
102
}
  0
BLOCK_RECORD
  5
2F0
330
1
100
AcDbSymbolTableRecord
100
AcDbBlockTableRecord
  2
block 48
340
0
102
{BLKREFS
331
2F1
102
}
  0
BLOCK_RECORD
  5
2F5
330
1
100
AcDbSymbolTableRecord
100
AcDbBlockTableRecord
  2
block 49
340
0
102
{BLKREFS
331
2F6
102
}
  0
BLOCK_RECORD
  5
2FA
330
1
100
AcDbSymbolTableRecord
100
AcDbBlockTableRecord
  2
block 50
340
0
102
{BLKREFS
331
2FB
102
}
  0
BLOCK_RECORD
  5
2FF
330
1
100
AcDbSymbolTableRecord
100
AcDbBlockTableRecord
  2
block 51
340
0
102
{BLKREFS
331
300
102
}
  0
BLOCK_RECORD
  5
304
330
1
100
AcDbSymbolTableRecord
100
AcDbBlockTableRecord
  2
block 52
340
0
102
{BLKREFS
331
305
102
}
  0
BLOCK_RECORD
  5
309
330
1
100
AcDbSymbolTableRecord
100
AcDbBlockTableRecord
  2
block 53
340
0
102
{BLKREFS
331
30A
102
}
  0
BLOCK_RECORD
  5
30E
330
1
100
AcDbSymbolTableRecord
100
AcDbBlockTableRecord
  2
block 54
340
0
102
{BLKREFS
331
30F
102
}
  0
BLOCK_RECORD
  5
313
330
1
100
AcDbSymbolTableRecord
100
AcDbBlockTableRecord
  2
block 55
340
0
102
{BLKREFS
331
314
102
}
  0
BLOCK_RECORD
  5
318
330
1
100
AcDbSymbolTableRecord
100
AcDbBlockTableRecord
  2
block 56
340
0
102
{BLKREFS
331
319
102
}
  0
BLOCK_RECORD
  5
320
330
1
100
AcDbSymbolTableRecord
100
AcDbBlockTableRecord
  2
block 57
340
0
102
{BLKREFS
331
321
102
}
  0
BLOCK_RECORD
  5
325
330
1
100
AcDbSymbolTableRecord
100
AcDbBlockTableRecord
  2
block 58
340
0
102
{BLKREFS
331
326
102
}
  0
BLOCK_RECORD
  5
32A
330
1
100
AcDbSymbolTableRecord
100
AcDbBlockTableRecord
  2
block 59
340
0
102
{BLKREFS
331
32B
102
}
  0
BLOCK_RECORD
  5
32F
330
1
100
AcDbSymbolTableRecord
100
AcDbBlockTableRecord
  2
block 60
340
0
102
{BLKREFS
331
330
102
}
  0
BLOCK_RECORD
  5
334
330
1
100
AcDbSymbolTableRecord
100
AcDbBlockTableRecord
  2
block 61
340
0
102
{BLKREFS
331
335
102
}
  0
BLOCK_RECORD
  5
339
330
1
100
AcDbSymbolTableRecord
100
AcDbBlockTableRecord
  2
block 62
340
0
102
{BLKREFS
331
33A
102
}
  0
BLOCK_RECORD
  5
33E
330
1
100
AcDbSymbolTableRecord
100
AcDbBlockTableRecord
  2
block 63
340
0
102
{BLKREFS
331
33F
102
}
  0
BLOCK_RECORD
  5
346
330
1
100
AcDbSymbolTableRecord
100
AcDbBlockTableRecord
  2
block 64
340
0
102
{BLKREFS
331
347
102
}
  0
BLOCK_RECORD
  5
34E
330
1
100
AcDbSymbolTableRecord
100
AcDbBlockTableRecord
  2
block 65
340
0
102
{BLKREFS
331
34F
102
}
  0
BLOCK_RECORD
  5
356
330
1
100
AcDbSymbolTableRecord
100
AcDbBlockTableRecord
  2
block 66
340
0
102
{BLKREFS
331
357
102
}
  0
BLOCK_RECORD
  5
35E
330
1
100
AcDbSymbolTableRecord
100
AcDbBlockTableRecord
  2
block 67
340
0
102
{BLKREFS
331
35F
102
}
  0
BLOCK_RECORD
  5
363
330
1
100
AcDbSymbolTableRecord
100
AcDbBlockTableRecord
  2
block 68
340
0
102
{BLKREFS
331
364
102
}
  0
BLOCK_RECORD
  5
36B
330
1
100
AcDbSymbolTableRecord
100
AcDbBlockTableRecord
  2
block 69
340
0
102
{BLKREFS
331
36C
102
}
  0
BLOCK_RECORD
  5
373
330
1
100
AcDbSymbolTableRecord
100
AcDbBlockTableRecord
  2
block 70
340
0
102
{BLKREFS
331
374
102
}
  0
BLOCK_RECORD
  5
37B
330
1
100
AcDbSymbolTableRecord
100
AcDbBlockTableRecord
  2
block 71
340
0
102
{BLKREFS
331
37C
102
}
  0
BLOCK_RECORD
  5
383
330
1
100
AcDbSymbolTableRecord
100
AcDbBlockTableRecord
  2
block 72
340
0
102
{BLKREFS
331
384
102
}
  0
BLOCK_RECORD
  5
38B
330
1
100
AcDbSymbolTableRecord
100
AcDbBlockTableRecord
  2
block 73
340
0
102
{BLKREFS
331
38C
102
}
  0
BLOCK_RECORD
  5
393
330
1
100
AcDbSymbolTableRecord
100
AcDbBlockTableRecord
  2
block 74
340
0
102
{BLKREFS
331
394
102
}
  0
BLOCK_RECORD
  5
39B
330
1
100
AcDbSymbolTableRecord
100
AcDbBlockTableRecord
  2
block 75
340
0
102
{BLKREFS
331
39C
102
}
  0
BLOCK_RECORD
  5
3A3
330
1
100
AcDbSymbolTableRecord
100
AcDbBlockTableRecord
  2
block 76
340
0
102
{BLKREFS
331
3A4
102
}
  0
BLOCK_RECORD
  5
3A8
330
1
100
AcDbSymbolTableRecord
100
AcDbBlockTableRecord
  2
block 77
340
0
102
{BLKREFS
331
3A9
102
}
  0
BLOCK_RECORD
  5
3B0
330
1
100
AcDbSymbolTableRecord
100
AcDbBlockTableRecord
  2
block 78
340
0
102
{BLKREFS
331
3B1
102
}
  0
BLOCK_RECORD
  5
3B8
330
1
100
AcDbSymbolTableRecord
100
AcDbBlockTableRecord
  2
block 79
340
0
102
{BLKREFS
331
3B9
102
}
  0
BLOCK_RECORD
  5
3C0
330
1
100
AcDbSymbolTableRecord
100
AcDbBlockTableRecord
  2
block 80
340
0
102
{BLKREFS
331
3C1
102
}
  0
BLOCK_RECORD
  5
3C8
330
1
100
AcDbSymbolTableRecord
100
AcDbBlockTableRecord
  2
block 81
340
0
102
{BLKREFS
331
3C9
102
}
  0
BLOCK_RECORD
  5
3D0
330
1
100
AcDbSymbolTableRecord
100
AcDbBlockTableRecord
  2
block 82
340
0
102
{BLKREFS
331
3D1
102
}
  0
BLOCK_RECORD
  5
3D8
330
1
100
AcDbSymbolTableRecord
100
AcDbBlockTableRecord
  2
block 83
340
0
102
{BLKREFS
331
3D9
102
}
  0
BLOCK_RECORD
  5
3E0
330
1
100
AcDbSymbolTableRecord
100
AcDbBlockTableRecord
  2
block 84
340
0
102
{BLKREFS
331
3E1
102
}
  0
BLOCK_RECORD
  5
3E8
330
1
100
AcDbSymbolTableRecord
100
AcDbBlockTableRecord
  2
block 85
340
0
102
{BLKREFS
331
3E9
102
}
  0
BLOCK_RECORD
  5
3ED
330
1
100
AcDbSymbolTableRecord
100
AcDbBlockTableRecord
  2
block 86
340
0
102
{BLKREFS
331
3EE
102
}
  0
BLOCK_RECORD
  5
3F3
330
1
100
AcDbSymbolTableRecord
100
AcDbBlockTableRecord
  2
block 87
340
0
102
{BLKREFS
331
3F4
102
}
  0
BLOCK_RECORD
  5
3F7
330
1
100
AcDbSymbolTableRecord
100
AcDbBlockTableRecord
  2
block 88
340
0
102
{BLKREFS
331
3F8
102
}
  0
BLOCK_RECORD
  5
3FF
330
1
100
AcDbSymbolTableRecord
100
AcDbBlockTableRecord
  2
block 89
340
0
102
{BLKREFS
331
400
102
}
  0
BLOCK_RECORD
  5
407
330
1
100
AcDbSymbolTableRecord
100
AcDbBlockTableRecord
  2
block 90
340
0
102
{BLKREFS
331
408
102
}
  0
BLOCK_RECORD
  5
40F
330
1
100
AcDbSymbolTableRecord
100
AcDbBlockTableRecord
  2
block 91
340
0
102
{BLKREFS
331
410
102
}
  0
BLOCK_RECORD
  5
417
330
1
100
AcDbSymbolTableRecord
100
AcDbBlockTableRecord
  2
block 92
340
0
102
{BLKREFS
331
418
102
}
  0
BLOCK_RECORD
  5
41F
330
1
100
AcDbSymbolTableRecord
100
AcDbBlockTableRecord
  2
block 93
340
0
102
{BLKREFS
331
420
102
}
  0
BLOCK_RECORD
  5
42A
330
1
100
AcDbSymbolTableRecord
100
AcDbBlockTableRecord
  2
block 94
340
0
102
{BLKREFS
331
42B
102
}
  0
BLOCK_RECORD
  5
435
330
1
100
AcDbSymbolTableRecord
100
AcDbBlockTableRecord
  2
block 95
340
0
102
{BLKREFS
331
436
102
}
  0
BLOCK_RECORD
  5
43A
330
1
100
AcDbSymbolTableRecord
100
AcDbBlockTableRecord
  2
block 96
340
0
102
{BLKREFS
331
43B
102
}
  0
BLOCK_RECORD
  5
442
330
1
100
AcDbSymbolTableRecord
100
AcDbBlockTableRecord
  2
block 97
340
0
102
{BLKREFS
331
443
102
}
  0
BLOCK_RECORD
  5
44A
330
1
100
AcDbSymbolTableRecord
100
AcDbBlockTableRecord
  2
block 98
340
0
102
{BLKREFS
331
44B
102
}
  0
BLOCK_RECORD
  5
452
330
1
100
AcDbSymbolTableRecord
100
AcDbBlockTableRecord
  2
block 99
340
0
102
{BLKREFS
331
453
102
}
  0
BLOCK_RECORD
  5
456
330
1
100
AcDbSymbolTableRecord
100
AcDbBlockTableRecord
  2
block 100
340
0
102
{BLKREFS
331
457
102
}
  0
BLOCK_RECORD
  5
45E
330
1
100
AcDbSymbolTableRecord
100
AcDbBlockTableRecord
  2
block 101
340
0
102
{BLKREFS
331
45F
102
}
  0
BLOCK_RECORD
  5
466
330
1
100
AcDbSymbolTableRecord
100
AcDbBlockTableRecord
  2
block 102
340
0
102
{BLKREFS
331
467
102
}
  0
BLOCK_RECORD
  5
46E
330
1
100
AcDbSymbolTableRecord
100
AcDbBlockTableRecord
  2
block 103
340
0
102
{BLKREFS
331
46F
102
}
  0
BLOCK_RECORD
  5
476
330
1
100
AcDbSymbolTableRecord
100
AcDbBlockTableRecord
  2
block 104
340
0
102
{BLKREFS
331
477
102
}
  0
BLOCK_RECORD
  5
47E
330
1
100
AcDbSymbolTableRecord
100
AcDbBlockTableRecord
  2
block 105
340
0
102
{BLKREFS
331
47F
102
}
  0
BLOCK_RECORD
  5
489
330
1
100
AcDbSymbolTableRecord
100
AcDbBlockTableRecord
  2
block 106
340
0
102
{BLKREFS
331
48A
102
}
  0
BLOCK_RECORD
  5
494
330
1
100
AcDbSymbolTableRecord
100
AcDbBlockTableRecord
  2
block 107
340
0
102
{BLKREFS
331
495
102
}
  0
BLOCK_RECORD
  5
499
330
1
100
AcDbSymbolTableRecord
100
AcDbBlockTableRecord
  2
block 108
340
0
102
{BLKREFS
331
49A
102
}
  0
BLOCK_RECORD
  5
4A1
330
1
100
AcDbSymbolTableRecord
100
AcDbBlockTableRecord
  2
block 109
340
0
102
{BLKREFS
331
4A2
102
}
  0
BLOCK_RECORD
  5
4A9
330
1
100
AcDbSymbolTableRecord
100
AcDbBlockTableRecord
  2
block 110
340
0
102
{BLKREFS
331
4AA
102
}
  0
BLOCK_RECORD
  5
4B1
330
1
100
AcDbSymbolTableRecord
100
AcDbBlockTableRecord
  2
block 111
340
0
102
{BLKREFS
331
4B2
102
}
  0
BLOCK_RECORD
  5
4B5
330
1
100
AcDbSymbolTableRecord
100
AcDbBlockTableRecord
  2
block 112
340
0
102
{BLKREFS
331
4B6
102
}
  0
BLOCK_RECORD
  5
4BD
330
1
100
AcDbSymbolTableRecord
100
AcDbBlockTableRecord
  2
block 113
340
0
102
{BLKREFS
331
4BE
102
}
  0
BLOCK_RECORD
  5
4C5
330
1
100
AcDbSymbolTableRecord
100
AcDbBlockTableRecord
  2
block 114
340
0
102
{BLKREFS
331
4C6
102
}
  0
BLOCK_RECORD
  5
4CD
330
1
100
AcDbSymbolTableRecord
100
AcDbBlockTableRecord
  2
block 115
340
0
102
{BLKREFS
331
4CE
102
}
  0
BLOCK_RECORD
  5
4D8
330
1
100
AcDbSymbolTableRecord
100
AcDbBlockTableRecord
  2
block 116
340
0
102
{BLKREFS
331
4D9
102
}
  0
BLOCK_RECORD
  5
4E3
330
1
100
AcDbSymbolTableRecord
100
AcDbBlockTableRecord
  2
block 117
340
0
102
{BLKREFS
331
4E4
102
}
  0
BLOCK_RECORD
  5
4E8
330
1
100
AcDbSymbolTableRecord
100
AcDbBlockTableRecord
  2
block 118
340
0
102
{BLKREFS
331
4E9
102
}
  0
BLOCK_RECORD
  5
4F0
330
1
100
AcDbSymbolTableRecord
100
AcDbBlockTableRecord
  2
block 119
340
0
102
{BLKREFS
331
4F1
102
}
  0
BLOCK_RECORD
  5
4F8
330
1
100
AcDbSymbolTableRecord
100
AcDbBlockTableRecord
  2
block 120
340
0
102
{BLKREFS
331
4F9
102
}
  0
BLOCK_RECORD
  5
500
330
1
100
AcDbSymbolTableRecord
100
AcDbBlockTableRecord
  2
block 121
340
0
102
{BLKREFS
331
501
102
}
  0
BLOCK_RECORD
  5
504
330
1
100
AcDbSymbolTableRecord
100
AcDbBlockTableRecord
  2
block 122
340
0
102
{BLKREFS
331
505
102
}
  0
BLOCK_RECORD
  5
50C
330
1
100
AcDbSymbolTableRecord
100
AcDbBlockTableRecord
  2
block 123
340
0
102
{BLKREFS
331
50D
102
}
  0
BLOCK_RECORD
  5
514
330
1
100
AcDbSymbolTableRecord
100
AcDbBlockTableRecord
  2
block 124
340
0
102
{BLKREFS
331
515
102
}
  0
BLOCK_RECORD
  5
51C
330
1
100
AcDbSymbolTableRecord
100
AcDbBlockTableRecord
  2
block 125
340
0
102
{BLKREFS
331
51D
102
}
  0
BLOCK_RECORD
  5
527
330
1
100
AcDbSymbolTableRecord
100
AcDbBlockTableRecord
  2
block 126
340
0
102
{BLKREFS
331
528
102
}
  0
BLOCK_RECORD
  5
532
330
1
100
AcDbSymbolTableRecord
100
AcDbBlockTableRecord
  2
block 127
340
0
102
{BLKREFS
331
533
102
}
  0
BLOCK_RECORD
  5
537
330
1
100
AcDbSymbolTableRecord
100
AcDbBlockTableRecord
  2
block 128
340
0
102
{BLKREFS
331
538
102
}
  0
BLOCK_RECORD
  5
53F
330
1
100
AcDbSymbolTableRecord
100
AcDbBlockTableRecord
  2
block 129
340
0
102
{BLKREFS
331
540
102
}
  0
BLOCK_RECORD
  5
547
330
1
100
AcDbSymbolTableRecord
100
AcDbBlockTableRecord
  2
block 130
340
0
102
{BLKREFS
331
548
102
}
  0
BLOCK_RECORD
  5
54F
330
1
100
AcDbSymbolTableRecord
100
AcDbBlockTableRecord
  2
block 131
340
0
102
{BLKREFS
331
550
102
}
  0
BLOCK_RECORD
  5
553
330
1
100
AcDbSymbolTableRecord
100
AcDbBlockTableRecord
  2
block 132
340
0
102
{BLKREFS
331
554
102
}
  0
BLOCK_RECORD
  5
55B
330
1
100
AcDbSymbolTableRecord
100
AcDbBlockTableRecord
  2
block 133
340
0
102
{BLKREFS
331
55C
102
}
  0
BLOCK_RECORD
  5
563
330
1
100
AcDbSymbolTableRecord
100
AcDbBlockTableRecord
  2
block 134
340
0
102
{BLKREFS
331
564
102
}
  0
BLOCK_RECORD
  5
56B
330
1
100
AcDbSymbolTableRecord
100
AcDbBlockTableRecord
  2
block 135
340
0
102
{BLKREFS
331
56C
102
}
  0
BLOCK_RECORD
  5
576
330
1
100
AcDbSymbolTableRecord
100
AcDbBlockTableRecord
  2
block 136
340
0
102
{BLKREFS
331
577
102
}
  0
BLOCK_RECORD
  5
581
330
1
100
AcDbSymbolTableRecord
100
AcDbBlockTableRecord
  2
block 137
340
0
102
{BLKREFS
331
582
102
}
  0
BLOCK_RECORD
  5
586
330
1
100
AcDbSymbolTableRecord
100
AcDbBlockTableRecord
  2
block 138
340
0
102
{BLKREFS
331
587
102
}
  0
BLOCK_RECORD
  5
58E
330
1
100
AcDbSymbolTableRecord
100
AcDbBlockTableRecord
  2
block 139
340
0
102
{BLKREFS
331
58F
102
}
  0
BLOCK_RECORD
  5
596
330
1
100
AcDbSymbolTableRecord
100
AcDbBlockTableRecord
  2
block 140
340
0
102
{BLKREFS
331
597
102
}
  0
BLOCK_RECORD
  5
59E
330
1
100
AcDbSymbolTableRecord
100
AcDbBlockTableRecord
  2
block 141
340
0
102
{BLKREFS
331
59F
102
}
  0
BLOCK_RECORD
  5
5A2
330
1
100
AcDbSymbolTableRecord
100
AcDbBlockTableRecord
  2
block 142
340
0
102
{BLKREFS
331
5A3
102
}
  0
BLOCK_RECORD
  5
5AA
330
1
100
AcDbSymbolTableRecord
100
AcDbBlockTableRecord
  2
block 143
340
0
102
{BLKREFS
331
5AB
102
}
  0
BLOCK_RECORD
  5
5B2
330
1
100
AcDbSymbolTableRecord
100
AcDbBlockTableRecord
  2
block 144
340
0
102
{BLKREFS
331
5B3
102
}
  0
BLOCK_RECORD
  5
5BA
330
1
100
AcDbSymbolTableRecord
100
AcDbBlockTableRecord
  2
block 145
340
0
102
{BLKREFS
331
5BB
102
}
  0
BLOCK_RECORD
  5
5C2
330
1
100
AcDbSymbolTableRecord
100
AcDbBlockTableRecord
  2
block 146
340
0
102
{BLKREFS
331
5C3
102
}
  0
BLOCK_RECORD
  5
5CA
330
1
100
AcDbSymbolTableRecord
100
AcDbBlockTableRecord
  2
block 147
340
0
102
{BLKREFS
331
5CB
102
}
  0
BLOCK_RECORD
  5
5CF
330
1
100
AcDbSymbolTableRecord
100
AcDbBlockTableRecord
  2
block 148
340
0
102
{BLKREFS
331
5D0
102
}
  0
BLOCK_RECORD
  5
5D7
330
1
100
AcDbSymbolTableRecord
100
AcDbBlockTableRecord
  2
block 149
340
0
102
{BLKREFS
331
5D8
102
}
  0
BLOCK_RECORD
  5
5DF
330
1
100
AcDbSymbolTableRecord
100
AcDbBlockTableRecord
  2
block 150
340
0
102
{BLKREFS
331
5E0
102
}
  0
BLOCK_RECORD
  5
5EA
330
1
100
AcDbSymbolTableRecord
100
AcDbBlockTableRecord
  2
block 151
340
0
102
{BLKREFS
331
5EB
102
}
  0
BLOCK_RECORD
  5
5F5
330
1
100
AcDbSymbolTableRecord
100
AcDbBlockTableRecord
  2
block 152
340
0
102
{BLKREFS
331
5F6
102
}
  0
BLOCK_RECORD
  5
5FD
330
1
100
AcDbSymbolTableRecord
100
AcDbBlockTableRecord
  2
block 153
340
0
102
{BLKREFS
331
5FE
102
}
  0
BLOCK_RECORD
  5
605
330
1
100
AcDbSymbolTableRecord
100
AcDbBlockTableRecord
  2
block 154
340
0
102
{BLKREFS
331
606
102
}
  0
BLOCK_RECORD
  5
60D
330
1
100
AcDbSymbolTableRecord
100
AcDbBlockTableRecord
  2
block 155
340
0
102
{BLKREFS
331
60E
102
}
  0
BLOCK_RECORD
  5
611
330
1
100
AcDbSymbolTableRecord
100
AcDbBlockTableRecord
  2
block 156
340
0
102
{BLKREFS
331
612
102
}
  0
BLOCK_RECORD
  5
619
330
1
100
AcDbSymbolTableRecord
100
AcDbBlockTableRecord
  2
block 157
340
0
102
{BLKREFS
331
61A
102
}
  0
BLOCK_RECORD
  5
621
330
1
100
AcDbSymbolTableRecord
100
AcDbBlockTableRecord
  2
block 158
340
0
102
{BLKREFS
331
622
102
}
  0
BLOCK_RECORD
  5
629
330
1
100
AcDbSymbolTableRecord
100
AcDbBlockTableRecord
  2
block 159
340
0
102
{BLKREFS
331
62A
102
}
  0
BLOCK_RECORD
  5
631
330
1
100
AcDbSymbolTableRecord
100
AcDbBlockTableRecord
  2
block 160
340
0
102
{BLKREFS
331
632
102
}
  0
BLOCK_RECORD
  5
639
330
1
100
AcDbSymbolTableRecord
100
AcDbBlockTableRecord
  2
block 161
340
0
102
{BLKREFS
331
63A
102
}
  0
BLOCK_RECORD
  5
63E
330
1
100
AcDbSymbolTableRecord
100
AcDbBlockTableRecord
  2
block 162
340
0
102
{BLKREFS
331
63F
102
}
  0
BLOCK_RECORD
  5
646
330
1
100
AcDbSymbolTableRecord
100
AcDbBlockTableRecord
  2
block 163
340
0
102
{BLKREFS
331
647
102
}
  0
BLOCK_RECORD
  5
64E
330
1
100
AcDbSymbolTableRecord
100
AcDbBlockTableRecord
  2
block 164
340
0
102
{BLKREFS
331
64F
102
}
  0
BLOCK_RECORD
  5
659
330
1
100
AcDbSymbolTableRecord
100
AcDbBlockTableRecord
  2
block 165
340
0
102
{BLKREFS
331
65A
102
}
  0
BLOCK_RECORD
  5
664
330
1
100
AcDbSymbolTableRecord
100
AcDbBlockTableRecord
  2
block 166
340
0
102
{BLKREFS
331
665
102
}
  0
BLOCK_RECORD
  5
66C
330
1
100
AcDbSymbolTableRecord
100
AcDbBlockTableRecord
  2
block 167
340
0
102
{BLKREFS
331
66D
102
}
  0
BLOCK_RECORD
  5
674
330
1
100
AcDbSymbolTableRecord
100
AcDbBlockTableRecord
  2
block 168
340
0
102
{BLKREFS
331
675
102
}
  0
BLOCK_RECORD
  5
67D
330
1
100
AcDbSymbolTableRecord
100
AcDbBlockTableRecord
  2
block 169
340
0
102
{BLKREFS
331
67E
102
}
  0
BLOCK_RECORD
  5
686
330
1
100
AcDbSymbolTableRecord
100
AcDbBlockTableRecord
  2
block 170
340
0
102
{BLKREFS
331
687
102
}
  0
BLOCK_RECORD
  5
68F
330
1
100
AcDbSymbolTableRecord
100
AcDbBlockTableRecord
  2
block 171
340
0
102
{BLKREFS
331
690
102
}
  0
ENDTAB
  0
ENDSEC
  0
SECTION
  2
BLOCKS
  0
BLOCK
  5
20
330
1F
100
AcDbEntity
  8
0
100
AcDbBlockBegin
  2
*Model_Space
 70
     0
 71
     0
 10
0.0
 20
0.0
 30
0.0
  3
*Model_Space
  1

  0
ENDBLK
  5
21
330
1F
100
AcDbEntity
  8
0
100
AcDbBlockEnd
  0
BLOCK
  5
1C
330
1B
100
AcDbEntity
 67
     1
  8
0
100
AcDbBlockBegin
  2
*Paper_Space
 70
     0
 71
     0
 10
0.0
 20
0.0
 30
0.0
  3
*Paper_Space
  1

  0
ENDBLK
  5
1D
330
1B
100
AcDbEntity
 67
     1
  8
0
100
AcDbBlockEnd
  0
BLOCK
  5
24
330
23
100
AcDbEntity
  8
0
100
AcDbBlockBegin
  2
*Paper_Space0
 70
     0
 71
     0
 10
0.0
 20
0.0
 30
0.0
  3
*Paper_Space0
  1

  0
ENDBLK
  5
25
330
23
100
AcDbEntity
  8
0
100
AcDbBlockEnd
  0
BLOCK
  5
3E
330
3C
100
AcDbEntity
  8
0
100
AcDbBlockBegin
  2
block 2
 70
     0
 71
     0
 10
0.0
 20
0.0
 30
0.0
  3
block 2
  1

  0
SPLINE
  5
40
330
3C
100
AcDbEntity
  8
SOMBREA
370
     0
100
AcDbSpline
210
0.0
220
0.0
230
1.0
 70
    11
 71
     3
 72
    71
 73
    67
 74
     0
 42
0.0000000001
 43
0.0000000001
 40
0.0
 40
0.0
 40
0.0
 40
0.0
 40
1.0
 40
1.0
 40
1.0
 40
2.0
 40
2.0
 40
2.0
 40
3.0
 40
3.0
 40
3.0
 40
4.0
 40
4.0
 40
4.0
 40
5.0
 40
5.0
 40
5.0
 40
6.0
 40
6.0
 40
6.0
 40
7.0
 40
7.0
 40
7.0
 40
8.0
 40
8.0
 40
8.0
 40
9.0
 40
9.0
 40
9.0
 40
10.0
 40
10.0
 40
10.0
 40
11.0
 40
11.0
 40
11.0
 40
12.0
 40
12.0
 40
12.0
 40
13.0
 40
13.0
 40
13.0
 40
14.0
 40
14.0
 40
14.0
 40
15.0
 40
15.0
 40
15.0
 40
16.0
 40
16.0
 40
16.0
 40
17.0
 40
17.0
 40
17.0
 40
18.0
 40
18.0
 40
18.0
 40
19.0
 40
19.0
 40
19.0
 40
20.0
 40
20.0
 40
20.0
 40
21.0
 40
21.0
 40
21.0
 40
22.0
 40
22.0
 40
22.0
 40
22.0
 10
132.6581400522881
 20
180.6493853500218
 30
0.0
 10
132.6974141667288
 20
177.4621531592435
 30
0.0
 10
131.8495756084945
 20
171.6828294153749
 30
0.0
 10
130.8963170588665
 20
168.6409803499826
 30
0.0
 10
130.8963170588665
 20
168.6409803499826
 30
0.0
 10
130.8963170588665
 20
168.6409803499826
 30
0.0
 10
130.8963170588665
 20
168.6409803499826
 30
0.0
 10
130.8863262753684
 20
168.5989501573355
 30
0.0
 10
130.8432625533939
 20
168.5663939835227
 30
0.0
 10
130.8001988314193
 20
168.567599767738
 30
0.0
 10
130.8001988314193
 20
168.567599767738
 30
0.0
 10
130.8001988314193
 20
168.567599767738
 30
0.0
 10
130.8001988314193
 20
168.567599767738
 30
0.0
 10
130.8001988314193
 20
168.567599767738
 30
0.0
 10
128.8950597712665
 20
168.567599767738
 30
0.0
 10
128.8950597712665
 20
168.567599767738
 30
0.0
 10
128.8950597712665
 20
168.567599767738
 30
0.0
 10
128.8950597712665
 20
168.567599767738
 30
0.0
 10
128.8950597712665
 20
168.567599767738
 30
0.0
 10
128.7300395886601
 20
168.5770737865724
 30
0.0
 10
128.475102354571
 20
168.5004203614578
 30
0.0
 10
128.3428106006652
 20
168.4013738009164
 30
0.0
 10
128.3428106006652
 20
168.4013738009164
 30
0.0
 10
128.3428106006652
 20
168.4013738009164
 30
0.0
 10
128.3428106006652
 20
168.4013738009164
 30
0.0
 10
128.2859664876589
 20
168.359688118045
 30
0.0
 10
128.1922598286423
 20
168.3567597849508
 30
0.0
 10
128.1326596374296
 20
168.3948281151762
 30
0.0
 10
128.1326596374296
 20
168.3948281151762
 30
0.0
 10
128.1326596374296
 20
168.3948281151762
 30
0.0
 10
128.1326596374296
 20
168.3948281151762
 30
0.0
 10
128.1326596374296
 20
168.3948281151762
 30
0.0
 10
122.84512359851
 20
171.4475292385061
 30
0.0
 10
122.84512359851
 20
171.4475292385061
 30
0.0
 10
122.84512359851
 20
171.4475292385061
 30
0.0
 10
122.84512359851
 20
171.4475292385061
 30
0.0
 10
122.84512359851
 20
171.4475292385061
 30
0.0
 10
122.8313432074781
 20
171.4545916889099
 30
0.0
 10
122.8134286991367
 20
171.4728507070271
 30
0.0
 10
122.8068830133966
 20
171.4869756078348
 30
0.0
 10
122.7810447802119
 20
171.5357237411099
 30
0.0
 10
122.7993037983291
 20
171.5961852067622
 30
0.0
 10
122.8478796767164
 20
171.6221956948348
 30
0.0
 10
122.8478796767164
 20
171.6221956948348
 30
0.0
 10
122.8478796767164
 20
171.6221956948348
 30
0.0
 10
122.8478796767164
 20
171.6221956948348
 30
0.0
 10
126.0504425525175
 20
173.1101334164984
 30
0.0
 10
130.1966177042244
 20
177.1121312270346
 30
0.0
 10
131.7968656127976
 20
180.26026155826
 30
0.0
 10
131.7968656127976
 20
180.26026155826
 30
0.0
 10
131.7968656127976
 20
180.26026155826
 30
0.0
 10
131.7968656127976
 20
180.26026155826
 30
0.0
 10
131.9260567787212
 20
180.513820753246
 30
0.0
 10
132.2629873394499
 20
180.7343070097555
 30
0.0
 10
132.5472079044817
 20
180.7508434789937
 30
0.0
 10
132.5472079044817
 20
180.7508434789937
 30
0.0
 10
132.5472079044817
 20
180.7508434789937
 30
0.0
 10
132.5472079044817
 20
180.7508434789937
 30
0.0
 10
132.5503084924639
 20
180.7513602436574
 30
0.0
 10
132.5571986879798
 20
180.7515324985453
 30
0.0
 10
132.5606437857377
 20
180.7515324985453
 30
0.0
 10
132.6157653498651
 20
180.75032671433
 30
0.0
 10
132.6595180913912
 20
180.7045069141492
 30
0.0
 10
132.6581400522881
 20
180.6493853500218
 30
0.0
 10
132.6581400522881
 20
180.6493853500218
 30
0.0
 10
132.6581400522881
 20
180.6493853500218
 30
0.0
 10
132.6581400522881
 20
180.6493853500218
 30
0.0
  0
SPLINE
  5
41
330
3C
100
AcDbEntity
  8
SOMBREA
370
     0
100
AcDbSpline
210
0.0
220
0.0
230
1.0
 70
    11
 71
     3
 72
   140
 73
   136
 74
     0
 42
0.0000000001
 43
0.0000000001
 40
0.0
 40
0.0
 40
0.0
 40
0.0
 40
1.0
 40
1.0
 40
1.0
 40
2.0
 40
2.0
 40
2.0
 40
3.0
 40
3.0
 40
3.0
 40
4.0
 40
4.0
 40
4.0
 40
5.0
 40
5.0
 40
5.0
 40
6.0
 40
6.0
 40
6.0
 40
7.0
 40
7.0
 40
7.0
 40
8.0
 40
8.0
 40
8.0
 40
9.0
 40
9.0
 40
9.0
 40
10.0
 40
10.0
 40
10.0
 40
11.0
 40
11.0
 40
11.0
 40
12.0
 40
12.0
 40
12.0
 40
13.0
 40
13.0
 40
13.0
 40
14.0
 40
14.0
 40
14.0
 40
15.0
 40
15.0
 40
15.0
 40
16.0
 40
16.0
 40
16.0
 40
17.0
 40
17.0
 40
17.0
 40
18.0
 40
18.0
 40
18.0
 40
19.0
 40
19.0
 40
19.0
 40
20.0
 40
20.0
 40
20.0
 40
21.0
 40
21.0
 40
21.0
 40
22.0
 40
22.0
 40
22.0
 40
23.0
 40
23.0
 40
23.0
 40
24.0
 40
24.0
 40
24.0
 40
25.0
 40
25.0
 40
25.0
 40
26.0
 40
26.0
 40
26.0
 40
27.0
 40
27.0
 40
27.0
 40
28.0
 40
28.0
 40
28.0
 40
29.0
 40
29.0
 40
29.0
 40
30.0
 40
30.0
 40
30.0
 40
31.0
 40
31.0
 40
31.0
 40
32.0
 40
32.0
 40
32.0
 40
33.0
 40
33.0
 40
33.0
 40
34.0
 40
34.0
 40
34.0
 40
35.0
 40
35.0
 40
35.0
 40
36.0
 40
36.0
 40
36.0
 40
37.0
 40
37.0
 40
37.0
 40
38.0
 40
38.0
 40
38.0
 40
39.0
 40
39.0
 40
39.0
 40
40.0
 40
40.0
 40
40.0
 40
41.0
 40
41.0
 40
41.0
 40
42.0
 40
42.0
 40
42.0
 40
43.0
 40
43.0
 40
43.0
 40
44.0
 40
44.0
 40
44.0
 40
45.0
 40
45.0
 40
45.0
 40
45.0
 10
131.4843952461505
 20
167.7847013022412
 30
0.0
 10
131.4527003467773
 20
167.6606777829546
 30
0.0
 10
131.3248872199569
 20
167.5645595555075
 30
0.0
 10
131.1967295833607
 20
167.5685214179291
 30
0.0
 10
131.1967295833607
 20
167.5685214179291
 30
0.0
 10
133.4598143005657
 20
180.7415417150472
 30
0.0
 10
133.4598143005657
 20
180.7415417150472
 30
0.0
 10
133.5152803744689
 20
177.2874867029149
 30
0.0
 10
132.5668449617021
 20
171.0652956422603
 30
0.0
 10
131.4843952461505
 20
167.7847013022412
 30
0.0
 10
131.4843952461505
 20
167.7847013022412
 30
0.0
 10
132.6605516207186
 20
181.556651844581
 30
0.0
 10
132.6605516207186
 20
181.556651844581
 30
0.0
 10
132.6643412282524
 20
181.5568240994689
 30
0.0
 10
132.6722649530957
 20
181.556651844581
 30
0.0
 10
132.6763990704053
 20
181.556651844581
 30
0.0
 10
133.1177160932002
 20
181.5478668452982
 30
0.0
 10
133.4684270449607
 20
181.18303099273
 30
0.0
 10
133.4598143005657
 20
180.7415417150472
 30
0.0
 10
133.4598143005657
 20
180.7415417150472
 30
0.0
 10
131.1057790025505
 20
180.6619599568383
 30
0.0
 10
131.1057790025505
 20
180.6619599568383
 30
0.0
 10
131.3765636863263
 20
181.186476090488
 30
0.0
 10
132.0710953943314
 20
181.5861074304115
 30
0.0
 10
132.6605516207186
 20
181.556651844581
 30
0.0
 10
132.6605516207186
 20
181.556651844581
 30
0.0
 10
131.1967295833607
 20
167.5685214179291
 30
0.0
 10
131.1967295833607
 20
167.5685214179291
 30
0.0
 10
131.1967295833607
 20
167.5685214179291
 30
0.0
 10
130.6896111933887
 20
167.5685214179291
 30
0.0
 10
130.6896111933887
 20
167.5685214179291
 30
0.0
 10
130.6896111933887
 20
167.5685214179291
 30
0.0
 10
130.6896111933887
 20
167.5685214179291
 30
0.0
 10
130.6896111933887
 20
167.5685214179291
 30
0.0
 10
130.6238098262117
 20
167.5652485750591
 30
0.0
 10
130.5466396364334
 20
167.6098625910247
 30
0.0
 10
130.5166672859391
 20
167.66842925291
 30
0.0
 10
130.5166672859391
 20
167.66842925291
 30
0.0
 10
130.3437233784894
 20
167.7683370878909
 30
0.0
 10
130.3437233784894
 20
167.7683370878909
 30
0.0
 10
130.4091802358907
 20
167.771609930761
 30
0.0
 10
130.4866949354448
 20
167.7269959147954
 30
0.0
 10
130.5166672859391
 20
167.66842925291
 30
0.0
 10
130.5166672859391
 20
167.66842925291
 30
0.0
 10
130.3437233784894
 20
167.7683370878909
 30
0.0
 10
130.3437233784894
 20
167.7683370878909
 30
0.0
 10
130.3437233784894
 20
167.7683370878909
 30
0.0
 10
128.8950597712665
 20
167.7683370878909
 30
0.0
 10
128.8950597712665
 20
167.7683370878909
 30
0.0
 10
128.8950597712665
 20
167.7683370878909
 30
0.0
 10
128.5488274465914
 20
167.5685214179291
 30
0.0
 10
128.5488274465914
 20
167.5685214179291
 30
0.0
 10
128.5488274465914
 20
167.5685214179291
 30
0.0
 10
128.0720259168895
 20
167.5685214179291
 30
0.0
 10
128.0720259168895
 20
167.5685214179291
 30
0.0
 10
128.0720259168895
 20
167.5685214179291
 30
0.0
 10
128.721771354041
 20
167.66842925291
 30
0.0
 10
128.721771354041
 20
167.66842925291
 30
0.0
 10
128.6917990035468
 20
167.6098625910247
 30
0.0
 10
128.6146288137684
 20
167.5652485750591
 30
0.0
 10
128.5488274465914
 20
167.5685214179291
 30
0.0
 10
128.5488274465914
 20
167.5685214179291
 30
0.0
 10
128.721771354041
 20
167.66842925291
 30
0.0
 10
128.721771354041
 20
167.66842925291
 30
0.0
 10
128.7520882143111
 20
167.7269959147954
 30
0.0
 10
128.8292584040894
 20
167.771609930761
 30
0.0
 10
128.8950597712665
 20
167.7683370878909
 30
0.0
 10
128.8950597712665
 20
167.7683370878909
 30
0.0
 10
128.0720259168895
 20
167.5685214179291
 30
0.0
 10
128.0720259168895
 20
167.5685214179291
 30
0.0
 10
128.0169043527621
 20
167.5655930848349
 30
0.0
 10
127.9280208306067
 20
167.5881584751495
 30
0.0
 10
127.8808229913226
 20
167.6172695512043
 30
0.0
 10
127.8808229913226
 20
167.6172695512043
 30
0.0
 10
131.1057790025505
 20
180.6619599568383
 30
0.0
 10
131.1057790025505
 20
180.6619599568383
 30
0.0
 10
128.2577166860436
 20
175.0726333543213
 30
0.0
 10
120.8318084687572
 20
170.2250362990934
 30
0.0
 10
114.5689652545586
 20
169.8665738773775
 30
0.0
 10
114.5689652545586
 20
169.8665738773775
 30
0.0
 10
121.8067711342603
 20
170.8782268340029
 30
0.0
 10
121.8067711342603
 20
170.8782268340029
 30
0.0
 10
120.2206481264948
 20
170.0629444495813
 30
0.0
 10
117.1417642602044
 20
169.1465484459635
 30
0.0
 10
115.3678834246299
 20
168.9618912061368
 30
0.0
 10
115.3678834246299
 20
168.9618912061368
 30
0.0
 10
127.8808229913226
 20
167.6172695512043
 30
0.0
 10
127.8808229913226
 20
167.6172695512043
 30
0.0
 10
127.8808229913226
 20
167.6172695512043
 30
0.0
 10
122.2673807044998
 20
170.8580730121189
 30
0.0
 10
122.2673807044998
 20
170.8580730121189
 30
0.0
 10
122.2673807044998
 20
170.8580730121189
 30
0.0
 10
121.8067711342603
 20
170.8782268340029
 30
0.0
 10
121.8067711342603
 20
170.8782268340029
 30
0.0
 10
121.9369958295113
 20
170.9478178087138
 30
0.0
 10
122.143701694989
 20
170.9388605545431
 30
0.0
 10
122.2673807044998
 20
170.8580730121189
 30
0.0
 10
122.2673807044998
 20
170.8580730121189
 30
0.0
 10
114.495584672314
 20
167.8422344347992
 30
0.0
 10
114.495584672314
 20
167.8422344347992
 30
0.0
 10
114.483871339937
 20
167.6889275845699
 30
0.0
 10
114.3505460567038
 20
167.5669711239381
 30
0.0
 10
114.1968946966988
 20
167.5685214179291
 30
0.0
 10
114.1968946966988
 20
167.5685214179291
 30
0.0
 10
113.2725749682376
 20
168.7174615202094
 30
0.0
 10
113.2725749682376
 20
168.7174615202094
 30
0.0
 10
113.2725749682376
 20
168.7174615202094
 30
0.0
 10
113.2725749682376
 20
167.5685214179291
 30
0.0
 10
113.2725749682376
 20
167.5685214179291
 30
0.0
 10
113.2725749682376
 20
167.5685214179291
 30
0.0
 10
114.495584672314
 20
167.8422344347992
 30
0.0
 10
114.495584672314
 20
167.8422344347992
 30
0.0
 10
114.495584672314
 20
167.8422344347992
 30
0.0
 10
114.5145327099828
 20
168.0599646131024
 30
0.0
 10
114.5145327099828
 20
168.0599646131024
 30
0.0
 10
114.5145327099828
 20
168.0599646131024
 30
0.0
 10
114.1968946966988
 20
167.5685214179291
 30
0.0
 10
114.1968946966988
 20
167.5685214179291
 30
0.0
 10
114.1968946966988
 20
167.5685214179291
 30
0.0
 10
113.2725749682376
 20
167.5685214179291
 30
0.0
 10
113.2725749682376
 20
167.5685214179291
 30
0.0
 10
113.2725749682376
 20
167.5685214179291
 30
0.0
 10
114.5713768229892
 20
169.8665738773775
 30
0.0
 10
114.5713768229892
 20
169.8665738773775
 30
0.0
 10
114.5713768229892
 20
169.8665738773775
 30
0.0
 10
113.2725749682376
 20
168.7174615202094
 30
0.0
 10
113.2725749682376
 20
168.7174615202094
 30
0.0
 10
113.2725749682376
 20
168.7174615202094
 30
0.0
 10
114.5145327099828
 20
168.0599646131024
 30
0.0
 10
114.5145327099828
 20
168.0599646131024
 30
0.0
 10
114.5420934920465
 20
168.5086885960769
 30
0.0
 10
114.9213987551981
 20
168.9095257202157
 30
0.0
 10
115.3678834246299
 20
168.9618912061368
 30
0.0
 10
115.3678834246299
 20
168.9618912061368
 30
0.0
 10
131.4843952461505
 20
167.7847013022412
 30
0.0
 10
131.4843952461505
 20
167.7847013022412
 30
0.0
  0
POLYLINE
  5
42
330
3C
100
AcDbEntity
  8
SOMBREA
 62
     7
420
 16777215
370
     9
100
AcDb2dPolyline
 66
     1
 10
0.0
 20
0.0
 30
0.0
  0
VERTEX
  5
43
330
42
100
AcDbEntity
  8
SOMBREA
 62
     7
420
 16777215
370
     9
100
AcDbVertex
100
AcDb2dVertex
 10
113.2725749682376
 20
168.297159593738
 30
0.0
  0
VERTEX
  5
44
330
42
100
AcDbEntity
  8
SOMBREA
 62
     7
420
 16777215
370
     9
100
AcDbVertex
100
AcDb2dVertex
 10
114.9248438529561
 20
169.9496007333444
 30
0.0
  0
SEQEND
  5
45
330
42
100
AcDbEntity
  8
SOMBREA
370
     9
  0
POLYLINE
  5
46
330
3C
100
AcDbEntity
  8
SOMBREA
 62
     7
420
 16777215
370
     9
100
AcDb2dPolyline
 66
     1
 10
0.0
 20
0.0
 30
0.0
  0
VERTEX
  5
47
330
46
100
AcDbEntity
  8
SOMBREA
 62
     7
420
 16777215
370
     9
100
AcDbVertex
100
AcDb2dVertex
 10
113.2725749682376
 20
167.6789368010718
 30
0.0
  0
VERTEX
  5
48
330
46
100
AcDbEntity
  8
SOMBREA
 62
     7
420
 16777215
370
     9
100
AcDbVertex
100
AcDb2dVertex
 10
115.7309967283191
 20
170.1373585611533
 30
0.0
  0
SEQEND
  5
49
330
46
100
AcDbEntity
  8
SOMBREA
370
     9
  0
POLYLINE
  5
4A
330
3C
100
AcDbEntity
  8
SOMBREA
 62
     7
420
 16777215
370
     9
100
AcDb2dPolyline
 66
     1
 10
0.0
 20
0.0
 30
0.0
  0
VERTEX
  5
4B
330
4A
100
AcDbEntity
  8
SOMBREA
 62
     7
420
 16777215
370
     9
100
AcDbVertex
100
AcDb2dVertex
 10
113.7803823777612
 20
167.5685214179291
 30
0.0
  0
VERTEX
  5
4C
330
4A
100
AcDbEntity
  8
SOMBREA
 62
     7
420
 16777215
370
     9
100
AcDbVertex
100
AcDb2dVertex
 10
116.5371496036821
 20
170.3251163889622
 30
0.0
  0
SEQEND
  5
4D
330
4A
100
AcDbEntity
  8
SOMBREA
370
     9
  0
POLYLINE
  5
4E
330
3C
100
AcDbEntity
  8
SOMBREA
 62
     7
420
 16777215
370
     9
100
AcDb2dPolyline
 66
     1
 10
0.0
 20
0.0
 30
0.0
  0
VERTEX
  5
4F
330
4E
100
AcDbEntity
  8
SOMBREA
 62
     7
420
 16777215
370
     9
100
AcDbVertex
100
AcDb2dVertex
 10
115.9108308312847
 20
169.0809193336743
 30
0.0
  0
VERTEX
  5
50
330
4E
100
AcDbEntity
  8
SOMBREA
 62
     7
420
 16777215
370
     9
100
AcDbVertex
100
AcDb2dVertex
 10
117.3429579692694
 20
170.513046471659
 30
0.0
  0
SEQEND
  5
51
330
4E
100
AcDbEntity
  8
SOMBREA
370
     9
  0
POLYLINE
  5
52
330
3C
100
AcDbEntity
  8
SOMBREA
 62
     7
420
 16777215
370
     9
100
AcDb2dPolyline
 66
     1
 10
0.0
 20
0.0
 30
0.0
  0
VERTEX
  5
53
330
52
100
AcDbEntity
  8
SOMBREA
 62
     7
420
 16777215
370
     9
100
AcDbVertex
100
AcDb2dVertex
 10
116.7028588058401
 20
169.2547245155635
 30
0.0
  0
VERTEX
  5
54
330
52
100
AcDbEntity
  8
SOMBREA
 62
     7
420
 16777215
370
     9
100
AcDbVertex
100
AcDb2dVertex
 10
118.1491108446324
 20
170.7008042994679
 30
0.0
  0
SEQEND
  5
55
330
52
100
AcDbEntity
  8
SOMBREA
370
     9
  0
POLYLINE
  5
56
330
3C
100
AcDbEntity
  8
SOMBREA
 62
     7
420
 16777215
370
     9
100
AcDb2dPolyline
 66
     1
 10
0.0
 20
0.0
 30
0.0
  0
VERTEX
  5
57
330
56
100
AcDbEntity
  8
SOMBREA
 62
     7
420
 16777215
370
     9
100
AcDbVertex
100
AcDb2dVertex
 10
117.4948867803955
 20
169.4283574425648
 30
0.0
  0
VERTEX
  5
58
330
56
100
AcDbEntity
  8
SOMBREA
 62
     7
420
 16777215
370
     9
100
AcDbVertex
100
AcDb2dVertex
 10
118.9549192102197
 20
170.8887343821647
 30
0.0
  0
SEQEND
  5
59
330
56
100
AcDbEntity
  8
SOMBREA
370
     9
  0
POLYLINE
  5
5A
330
3C
100
AcDbEntity
  8
SOMBREA
 62
     7
420
 16777215
370
     9
100
AcDb2dPolyline
 66
     1
 10
0.0
 20
0.0
 30
0.0
  0
VERTEX
  5
5B
330
5A
100
AcDbEntity
  8
SOMBREA
 62
     7
420
 16777215
370
     9
100
AcDbVertex
100
AcDb2dVertex
 10
118.2865702451751
 20
169.6021626244539
 30
0.0
  0
VERTEX
  5
5C
330
5A
100
AcDbEntity
  8
SOMBREA
 62
     7
420
 16777215
370
     9
100
AcDbVertex
100
AcDb2dVertex
 10
119.875449331147
 20
171.19069720065
 30
0.0
  0
SEQEND
  5
5D
330
5A
100
AcDbEntity
  8
SOMBREA
370
     9
  0
POLYLINE
  5
5E
330
3C
100
AcDbEntity
  8
SOMBREA
 62
     7
420
 16777215
370
     9
100
AcDb2dPolyline
 66
     1
 10
0.0
 20
0.0
 30
0.0
  0
VERTEX
  5
5F
330
5E
100
AcDbEntity
  8
SOMBREA
 62
     7
420
 16777215
370
     9
100
AcDbVertex
100
AcDb2dVertex
 10
119.1871187991063
 20
169.8844883857189
 30
0.0
  0
VERTEX
  5
60
330
5E
100
AcDbEntity
  8
SOMBREA
 62
     7
420
 16777215
370
     9
100
AcDbVertex
100
AcDb2dVertex
 10
121.1063827600667
 20
171.8035800917914
 30
0.0
  0
SEQEND
  5
61
330
5E
100
AcDbEntity
  8
SOMBREA
370
     9
  0
POLYLINE
  5
62
330
3C
100
AcDbEntity
  8
SOMBREA
 62
     7
420
 16777215
370
     9
100
AcDb2dPolyline
 66
     1
 10
0.0
 20
0.0
 30
0.0
  0
VERTEX
  5
63
330
62
100
AcDbEntity
  8
SOMBREA
 62
     7
420
 16777215
370
     9
100
AcDbVertex
100
AcDb2dVertex
 10
120.1834410707088
 20
170.2624156097673
 30
0.0
  0
VERTEX
  5
64
330
62
100
AcDbEntity
  8
SOMBREA
 62
     7
420
 16777215
370
     9
100
AcDbVertex
100
AcDb2dVertex
 10
122.3373161889864
 20
172.4162907280449
 30
0.0
  0
SEQEND
  5
65
330
62
100
AcDbEntity
  8
SOMBREA
370
     9
  0
POLYLINE
  5
66
330
3C
100
AcDbEntity
  8
SOMBREA
 62
     7
420
 16777215
370
     9
100
AcDb2dPolyline
 66
     1
 10
0.0
 20
0.0
 30
0.0
  0
VERTEX
  5
67
330
66
100
AcDbEntity
  8
SOMBREA
 62
     7
420
 16777215
370
     9
100
AcDbVertex
100
AcDb2dVertex
 10
121.1794188325355
 20
170.6403428338157
 30
0.0
  0
VERTEX
  5
68
330
66
100
AcDbEntity
  8
SOMBREA
 62
     7
420
 16777215
370
     9
100
AcDbVertex
100
AcDb2dVertex
 10
123.5682496179061
 20
173.0290013642984
 30
0.0
  0
SEQEND
  5
69
330
66
100
AcDbEntity
  8
SOMBREA
370
     9
  0
POLYLINE
  5
6A
330
3C
100
AcDbEntity
  8
SOMBREA
 62
     7
420
 16777215
370
     9
100
AcDb2dPolyline
 66
     1
 10
0.0
 20
0.0
 30
0.0
  0
VERTEX
  5
6B
330
6A
100
AcDbEntity
  8
SOMBREA
 62
     7
420
 16777215
370
     9
100
AcDbVertex
100
AcDb2dVertex
 10
130.8201803984155
 20
180.2811043996957
 30
0.0
  0
VERTEX
  5
6C
330
6A
100
AcDbEntity
  8
SOMBREA
 62
     7
420
 16777215
370
     9
100
AcDbVertex
100
AcDb2dVertex
 10
131.8898832522626
 20
181.3508072535428
 30
0.0
  0
SEQEND
  5
6D
330
6A
100
AcDbEntity
  8
SOMBREA
370
     9
  0
POLYLINE
  5
6E
330
3C
100
AcDbEntity
  8
SOMBREA
 62
     7
420
 16777215
370
     9
100
AcDb2dPolyline
 66
     1
 10
0.0
 20
0.0
 30
0.0
  0
VERTEX
  5
6F
330
6E
100
AcDbEntity
  8
SOMBREA
 62
     7
420
 16777215
370
     9
100
AcDbVertex
100
AcDb2dVertex
 10
122.0262238614425
 20
170.8687528151685
 30
0.0
  0
VERTEX
  5
70
330
6E
100
AcDbEntity
  8
SOMBREA
 62
     7
420
 16777215
370
     9
100
AcDbVertex
100
AcDb2dVertex
 10
126.1723990131494
 20
175.0151002217633
 30
0.0
  0
SEQEND
  5
71
330
6E
100
AcDbEntity
  8
SOMBREA
370
     9
  0
POLYLINE
  5
72
330
3C
100
AcDbEntity
  8
SOMBREA
 62
     7
420
 16777215
370
     9
100
AcDb2dPolyline
 66
     1
 10
0.0
 20
0.0
 30
0.0
  0
VERTEX
  5
73
330
72
100
AcDbEntity
  8
SOMBREA
 62
     7
420
 16777215
370
     9
100
AcDbVertex
100
AcDb2dVertex
 10
128.9729189805964
 20
177.8154479343225
 30
0.0
  0
VERTEX
  5
74
330
72
100
AcDbEntity
  8
SOMBREA
 62
     7
420
 16777215
370
     9
100
AcDbVertex
100
AcDb2dVertex
 10
132.6981031862804
 20
181.5408043948944
 30
0.0
  0
SEQEND
  5
75
330
72
100
AcDbEntity
  8
SOMBREA
370
     9
  0
POLYLINE
  5
76
330
3C
100
AcDbEntity
  8
SOMBREA
 62
     7
420
 16777215
370
     9
100
AcDb2dPolyline
 66
     1
 10
0.0
 20
0.0
 30
0.0
  0
VERTEX
  5
77
330
76
100
AcDbEntity
  8
SOMBREA
 62
     7
420
 16777215
370
     9
100
AcDbVertex
100
AcDb2dVertex
 10
122.4995802933864
 20
170.7240587093341
 30
0.0
  0
VERTEX
  5
78
330
76
100
AcDbEntity
  8
SOMBREA
 62
     7
420
 16777215
370
     9
100
AcDbVertex
100
AcDb2dVertex
 10
123.0849024024641
 20
171.309208563524
 30
0.0
  0
SEQEND
  5
79
330
76
100
AcDbEntity
  8
SOMBREA
370
     9
  0
POLYLINE
  5
7A
330
3C
100
AcDbEntity
  8
SOMBREA
 62
     7
420
 16777215
370
     9
100
AcDb2dPolyline
 66
     1
 10
0.0
 20
0.0
 30
0.0
  0
VERTEX
  5
7B
330
7A
100
AcDbEntity
  8
SOMBREA
 62
     7
420
 16777215
370
     9
100
AcDbVertex
100
AcDb2dVertex
 10
124.8718746095189
 20
173.0961807705787
 30
0.0
  0
VERTEX
  5
7C
330
7A
100
AcDbEntity
  8
SOMBREA
 62
     7
420
 16777215
370
     9
100
AcDbVertex
100
AcDb2dVertex
 10
130.9293899973429
 20
179.1538684132906
 30
0.0
  0
SEQEND
  5
7D
330
7A
100
AcDbEntity
  8
SOMBREA
370
     9
  0
POLYLINE
  5
7E
330
3C
100
AcDbEntity
  8
SOMBREA
 62
     7
420
 16777215
370
     9
100
AcDb2dPolyline
 66
     1
 10
0.0
 20
0.0
 30
0.0
  0
VERTEX
  5
7F
330
7E
100
AcDbEntity
  8
SOMBREA
 62
     7
420
 16777215
370
     9
100
AcDbVertex
100
AcDb2dVertex
 10
132.487607713269
 20
180.7119138743288
 30
0.0
  0
VERTEX
  5
80
330
7E
100
AcDbEntity
  8
SOMBREA
 62
     7
420
 16777215
370
     9
100
AcDbVertex
100
AcDb2dVertex
 10
133.1335635428868
 20
181.3580419588345
 30
0.0
  0
SEQEND
  5
81
330
7E
100
AcDbEntity
  8
SOMBREA
370
     9
  0
POLYLINE
  5
82
330
3C
100
AcDbEntity
  8
SOMBREA
 62
     7
420
 16777215
370
     9
100
AcDb2dPolyline
 66
     1
 10
0.0
 20
0.0
 30
0.0
  0
VERTEX
  5
83
330
82
100
AcDbEntity
  8
SOMBREA
 62
     7
420
 16777215
370
     9
100
AcDbVertex
100
AcDb2dVertex
 10
122.8916324182425
 20
170.4977157866361
 30
0.0
  0
VERTEX
  5
84
330
82
100
AcDbEntity
  8
SOMBREA
 62
     7
420
 16777215
370
     9
100
AcDbVertex
100
AcDb2dVertex
 10
123.4766100175444
 20
171.0828656408258
 30
0.0
  0
SEQEND
  5
85
330
82
100
AcDbEntity
  8
SOMBREA
370
     9
  0
POLYLINE
  5
86
330
3C
100
AcDbEntity
  8
SOMBREA
 62
     7
420
 16777215
370
     9
100
AcDb2dPolyline
 66
     1
 10
0.0
 20
0.0
 30
0.0
  0
VERTEX
  5
87
330
86
100
AcDbEntity
  8
SOMBREA
 62
     7
420
 16777215
370
     9
100
AcDbVertex
100
AcDb2dVertex
 10
127.1473616786525
 20
174.753617301934
 30
0.0
  0
VERTEX
  5
88
330
86
100
AcDbEntity
  8
SOMBREA
 62
     7
420
 16777215
370
     9
100
AcDbVertex
100
AcDb2dVertex
 10
128.6876648862372
 20
176.2939205095187
 30
0.0
  0
SEQEND
  5
89
330
86
100
AcDbEntity
  8
SOMBREA
370
     9
  0
POLYLINE
  5
8A
330
3C
100
AcDbEntity
  8
SOMBREA
 62
     7
420
 16777215
370
     9
100
AcDb2dPolyline
 66
     1
 10
0.0
 20
0.0
 30
0.0
  0
VERTEX
  5
8B
330
8A
100
AcDbEntity
  8
SOMBREA
 62
     7
420
 16777215
370
     9
100
AcDbVertex
100
AcDb2dVertex
 10
132.6230000551569
 20
180.2292556784383
 30
0.0
  0
VERTEX
  5
8C
330
8A
100
AcDbEntity
  8
SOMBREA
 62
     7
420
 16777215
370
     9
100
AcDbVertex
100
AcDb2dVertex
 10
133.3674856806524
 20
180.9737413039339
 30
0.0
  0
SEQEND
  5
8D
330
8A
100
AcDbEntity
  8
SOMBREA
370
     9
  0
POLYLINE
  5
8E
330
3C
100
AcDbEntity
  8
SOMBREA
 62
     7
420
 16777215
370
     9
100
AcDb2dPolyline
 66
     1
 10
0.0
 20
0.0
 30
0.0
  0
VERTEX
  5
8F
330
8E
100
AcDbEntity
  8
SOMBREA
 62
     7
420
 16777215
370
     9
100
AcDbVertex
100
AcDb2dVertex
 10
123.2833400333227
 20
170.2715451188259
 30
0.0
  0
VERTEX
  5
90
330
8E
100
AcDbEntity
  8
SOMBREA
 62
     7
420
 16777215
370
     9
100
AcDbVertex
100
AcDb2dVertex
 10
123.8686621424004
 20
170.8566949730157
 30
0.0
  0
SEQEND
  5
91
330
8E
100
AcDbEntity
  8
SOMBREA
370
     9
  0
POLYLINE
  5
92
330
3C
100
AcDbEntity
  8
SOMBREA
 62
     7
420
 16777215
370
     9
100
AcDb2dPolyline
 66
     1
 10
0.0
 20
0.0
 30
0.0
  0
VERTEX
  5
93
330
92
100
AcDbEntity
  8
SOMBREA
 62
     7
420
 16777215
370
     9
100
AcDbVertex
100
AcDb2dVertex
 10
123.6753921581788
 20
170.0452021961278
 30
0.0
  0
VERTEX
  5
94
330
92
100
AcDbEntity
  8
SOMBREA
 62
     7
420
 16777215
370
     9
100
AcDbVertex
100
AcDb2dVertex
 10
124.2607142672564
 20
170.6303520503176
 30
0.0
  0
SEQEND
  5
95
330
92
100
AcDbEntity
  8
SOMBREA
370
     9
  0
POLYLINE
  5
96
330
3C
100
AcDbEntity
  8
SOMBREA
 62
     7
420
 16777215
370
     9
100
AcDb2dPolyline
 66
     1
 10
0.0
 20
0.0
 30
0.0
  0
VERTEX
  5
97
330
96
100
AcDbEntity
  8
SOMBREA
 62
     7
420
 16777215
370
     9
100
AcDbVertex
100
AcDb2dVertex
 10
124.0674442830348
 20
169.8190315283176
 30
0.0
  0
VERTEX
  5
98
330
96
100
AcDbEntity
  8
SOMBREA
 62
     7
420
 16777215
370
     9
100
AcDbVertex
100
AcDb2dVertex
 10
124.6524218823367
 20
170.4041813825074
 30
0.0
  0
SEQEND
  5
99
330
96
100
AcDbEntity
  8
SOMBREA
370
     9
  0
POLYLINE
  5
9A
330
3C
100
AcDbEntity
  8
SOMBREA
 62
     7
420
 16777215
370
     9
100
AcDb2dPolyline
 66
     1
 10
0.0
 20
0.0
 30
0.0
  0
VERTEX
  5
9B
330
9A
100
AcDbEntity
  8
SOMBREA
 62
     7
420
 16777215
370
     9
100
AcDbVertex
100
AcDb2dVertex
 10
124.459151898115
 20
169.5926886056195
 30
0.0
  0
VERTEX
  5
9C
330
9A
100
AcDbEntity
  8
SOMBREA
 62
     7
420
 16777215
370
     9
100
AcDbVertex
100
AcDb2dVertex
 10
125.0444740071927
 20
170.1778384598093
 30
0.0
  0
SEQEND
  5
9D
330
9A
100
AcDbEntity
  8
SOMBREA
370
     9
  0
POLYLINE
  5
9E
330
3C
100
AcDbEntity
  8
SOMBREA
 62
     7
420
 16777215
370
     9
100
AcDb2dPolyline
 66
     1
 10
0.0
 20
0.0
 30
0.0
  0
VERTEX
  5
9F
330
9E
100
AcDbEntity
  8
SOMBREA
 62
     7
420
 16777215
370
     9
100
AcDbVertex
100
AcDb2dVertex
 10
124.8512040229711
 20
169.3663456829214
 30
0.0
  0
VERTEX
  5
A0
330
9E
100
AcDbEntity
  8
SOMBREA
 62
     7
420
 16777215
370
     9
100
AcDbVertex
100
AcDb2dVertex
 10
125.436181622273
 20
169.9514955371112
 30
0.0
  0
SEQEND
  5
A1
330
9E
100
AcDbEntity
  8
SOMBREA
370
     9
  0
POLYLINE
  5
A2
330
3C
100
AcDbEntity
  8
SOMBREA
 62
     7
420
 16777215
370
     9
100
AcDb2dPolyline
 66
     1
 10
0.0
 20
0.0
 30
0.0
  0
VERTEX
  5
A3
330
A2
100
AcDbEntity
  8
SOMBREA
 62
     7
420
 16777215
370
     9
100
AcDbVertex
100
AcDb2dVertex
 10
125.2429116380513
 20
169.1401750151113
 30
0.0
  0
VERTEX
  5
A4
330
A2
100
AcDbEntity
  8
SOMBREA
 62
     7
420
 16777215
370
     9
100
AcDbVertex
100
AcDb2dVertex
 10
125.828233747129
 20
169.7253248693011
 30
0.0
  0
SEQEND
  5
A5
330
A2
100
AcDbEntity
  8
SOMBREA
370
     9
  0
POLYLINE
  5
A6
330
3C
100
AcDbEntity
  8
SOMBREA
 62
     7
420
 16777215
370
     9
100
AcDb2dPolyline
 66
     1
 10
0.0
 20
0.0
 30
0.0
  0
VERTEX
  5
A7
330
A6
100
AcDbEntity
  8
SOMBREA
 62
     7
420
 16777215
370
     9
100
AcDbVertex
100
AcDb2dVertex
 10
125.6349637629074
 20
168.9138320924132
 30
0.0
  0
VERTEX
  5
A8
330
A6
100
AcDbEntity
  8
SOMBREA
 62
     7
420
 16777215
370
     9
100
AcDbVertex
100
AcDb2dVertex
 10
126.2202858719851
 20
169.498981946603
 30
0.0
  0
SEQEND
  5
A9
330
A6
100
AcDbEntity
  8
SOMBREA
370
     9
  0
POLYLINE
  5
AA
330
3C
100
AcDbEntity
  8
SOMBREA
 62
     7
420
 16777215
370
     9
100
AcDb2dPolyline
 66
     1
 10
0.0
 20
0.0
 30
0.0
  0
VERTEX
  5
AB
330
AA
100
AcDbEntity
  8
SOMBREA
 62
     7
420
 16777215
370
     9
100
AcDbVertex
100
AcDb2dVertex
 10
126.0270158877634
 20
168.687661424603
 30
0.0
  0
VERTEX
  5
AC
330
AA
100
AcDbEntity
  8
SOMBREA
 62
     7
420
 16777215
370
     9
100
AcDbVertex
100
AcDb2dVertex
 10
126.6119934870653
 20
169.2728112787928
 30
0.0
  0
SEQEND
  5
AD
330
AA
100
AcDbEntity
  8
SOMBREA
370
     9
  0
POLYLINE
  5
AE
330
3C
100
AcDbEntity
  8
SOMBREA
 62
     7
420
 16777215
370
     9
100
AcDb2dPolyline
 66
     1
 10
0.0
 20
0.0
 30
0.0
  0
VERTEX
  5
AF
330
AE
100
AcDbEntity
  8
SOMBREA
 62
     7
420
 16777215
370
     9
100
AcDbVertex
100
AcDb2dVertex
 10
132.5661559421505
 20
179.5543610276536
 30
0.0
  0
VERTEX
  5
B0
330
AE
100
AcDbEntity
  8
SOMBREA
 62
     7
420
 16777215
370
     9
100
AcDbVertex
100
AcDb2dVertex
 10
133.4322535185021
 20
180.4202863491173
 30
0.0
  0
SEQEND
  5
B1
330
AE
100
AcDbEntity
  8
SOMBREA
370
     9
  0
POLYLINE
  5
B2
330
3C
100
AcDbEntity
  8
SOMBREA
 62
     7
420
 16777215
370
     9
100
AcDb2dPolyline
 66
     1
 10
0.0
 20
0.0
 30
0.0
  0
VERTEX
  5
B3
330
B2
100
AcDbEntity
  8
SOMBREA
 62
     7
420
 16777215
370
     9
100
AcDbVertex
100
AcDb2dVertex
 10
132.5096563389199
 20
178.8794663768689
 30
0.0
  0
VERTEX
  5
B4
330
B2
100
AcDbEntity
  8
SOMBREA
 62
     7
420
 16777215
370
     9
100
AcDbVertex
100
AcDb2dVertex
 10
133.3740313663925
 20
179.7440136592294
 30
0.0
  0
SEQEND
  5
B5
330
B2
100
AcDbEntity
  8
SOMBREA
370
     9
  0
POLYLINE
  5
B6
330
3C
100
AcDbEntity
  8
SOMBREA
 62
     7
420
 16777215
370
     9
100
AcDb2dPolyline
 66
     1
 10
0.0
 20
0.0
 30
0.0
  0
VERTEX
  5
B7
330
B6
100
AcDbEntity
  8
SOMBREA
 62
     7
420
 16777215
370
     9
100
AcDbVertex
100
AcDb2dVertex
 10
132.4528122259135
 20
178.2045717260843
 30
0.0
  0
VERTEX
  5
B8
330
B6
100
AcDbEntity
  8
SOMBREA
 62
     7
420
 16777215
370
     9
100
AcDbVertex
100
AcDb2dVertex
 10
133.3161537240588
 20
179.0679132242295
 30
0.0
  0
SEQEND
  5
B9
330
B6
100
AcDbEntity
  8
SOMBREA
370
     9
  0
POLYLINE
  5
BA
330
3C
100
AcDbEntity
  8
SOMBREA
 62
     7
420
 16777215
370
     9
100
AcDb2dPolyline
 66
     1
 10
0.0
 20
0.0
 30
0.0
  0
VERTEX
  5
BB
330
BA
100
AcDbEntity
  8
SOMBREA
 62
     7
420
 16777215
370
     9
100
AcDbVertex
100
AcDb2dVertex
 10
132.396312622683
 20
177.5296770752996
 30
0.0
  0
VERTEX
  5
BC
330
BA
100
AcDbEntity
  8
SOMBREA
 62
     7
420
 16777215
370
     9
100
AcDbVertex
100
AcDb2dVertex
 10
133.258276081725
 20
178.3918127892295
 30
0.0
  0
SEQEND
  5
BD
330
BA
100
AcDbEntity
  8
SOMBREA
370
     9
  0
POLYLINE
  5
BE
330
3C
100
AcDbEntity
  8
SOMBREA
 62
     7
420
 16777215
370
     9
100
AcDb2dPolyline
 66
     1
 10
0.0
 20
0.0
 30
0.0
  0
VERTEX
  5
BF
330
BE
100
AcDbEntity
  8
SOMBREA
 62
     7
420
 16777215
370
     9
100
AcDbVertex
100
AcDb2dVertex
 10
132.3394685096766
 20
176.8549546794028
 30
0.0
  0
VERTEX
  5
C0
330
BE
100
AcDbEntity
  8
SOMBREA
 62
     7
420
 16777215
370
     9
100
AcDbVertex
100
AcDb2dVertex
 10
133.2003984393912
 20
177.7157123542295
 30
0.0
  0
SEQEND
  5
C1
330
BE
100
AcDbEntity
  8
SOMBREA
370
     9
  0
POLYLINE
  5
C2
330
3C
100
AcDbEntity
  8
SOMBREA
 62
     7
420
 16777215
370
     9
100
AcDb2dPolyline
 66
     1
 10
0.0
 20
0.0
 30
0.0
  0
VERTEX
  5
C3
330
C2
100
AcDbEntity
  8
SOMBREA
 62
     7
420
 16777215
370
     9
100
AcDbVertex
100
AcDb2dVertex
 10
132.282968906446
 20
176.1798877737302
 30
0.0
  0
VERTEX
  5
C4
330
C2
100
AcDbEntity
  8
SOMBREA
 62
     7
420
 16777215
370
     9
100
AcDbVertex
100
AcDb2dVertex
 10
133.1425207970575
 20
177.0394396643416
 30
0.0
  0
SEQEND
  5
C5
330
C2
100
AcDbEntity
  8
SOMBREA
370
     9
  0
POLYLINE
  5
C6
330
3C
100
AcDbEntity
  8
SOMBREA
 62
     7
420
 16777215
370
     9
100
AcDb2dPolyline
 66
     1
 10
0.0
 20
0.0
 30
0.0
  0
VERTEX
  5
C7
330
C6
100
AcDbEntity
  8
SOMBREA
 62
     7
420
 16777215
370
     9
100
AcDbVertex
100
AcDb2dVertex
 10
132.2261247934397
 20
175.5049931229455
 30
0.0
  0
VERTEX
  5
C8
330
C6
100
AcDbEntity
  8
SOMBREA
 62
     7
420
 16777215
370
     9
100
AcDbVertex
100
AcDb2dVertex
 10
133.0846431547237
 20
176.3633392293416
 30
0.0
  0
SEQEND
  5
C9
330
C6
100
AcDbEntity
  8
SOMBREA
370
     9
  0
POLYLINE
  5
CA
330
3C
100
AcDbEntity
  8
SOMBREA
 62
     7
420
 16777215
370
     9
100
AcDb2dPolyline
 66
     1
 10
0.0
 20
0.0
 30
0.0
  0
VERTEX
  5
CB
330
CA
100
AcDbEntity
  8
SOMBREA
 62
     7
420
 16777215
370
     9
100
AcDbVertex
100
AcDb2dVertex
 10
132.1696251902091
 20
174.8302707270487
 30
0.0
  0
VERTEX
  5
CC
330
CA
100
AcDbEntity
  8
SOMBREA
 62
     7
420
 16777215
370
     9
100
AcDbVertex
100
AcDb2dVertex
 10
133.0264210026142
 20
175.6872387943417
 30
0.0
  0
SEQEND
  5
CD
330
CA
100
AcDbEntity
  8
SOMBREA
370
     9
  0
POLYLINE
  5
CE
330
3C
100
AcDbEntity
  8
SOMBREA
 62
     7
420
 16777215
370
     9
100
AcDb2dPolyline
 66
     1
 10
0.0
 20
0.0
 30
0.0
  0
VERTEX
  5
CF
330
CE
100
AcDbEntity
  8
SOMBREA
 62
     7
420
 16777215
370
     9
100
AcDbVertex
100
AcDb2dVertex
 10
126.4187235028436
 20
168.4613185019049
 30
0.0
  0
VERTEX
  5
D0
330
CE
100
AcDbEntity
  8
SOMBREA
 62
     7
420
 16777215
370
     9
100
AcDbVertex
100
AcDb2dVertex
 10
127.0040456119213
 20
169.0464683560947
 30
0.0
  0
SEQEND
  5
D1
330
CE
100
AcDbEntity
  8
SOMBREA
370
     9
  0
POLYLINE
  5
D2
330
3C
100
AcDbEntity
  8
SOMBREA
 62
     7
420
 16777215
370
     9
100
AcDb2dPolyline
 66
     1
 10
0.0
 20
0.0
 30
0.0
  0
VERTEX
  5
D3
330
D2
100
AcDbEntity
  8
SOMBREA
 62
     7
420
 16777215
370
     9
100
AcDbVertex
100
AcDb2dVertex
 10
126.8107756276997
 20
168.2349755792068
 30
0.0
  0
VERTEX
  5
D4
330
D2
100
AcDbEntity
  8
SOMBREA
 62
     7
420
 16777215
370
     9
100
AcDbVertex
100
AcDb2dVertex
 10
127.3960977367774
 20
168.8201254333966
 30
0.0
  0
SEQEND
  5
D5
330
D2
100
AcDbEntity
  8
SOMBREA
370
     9
  0
POLYLINE
  5
D6
330
3C
100
AcDbEntity
  8
SOMBREA
 62
     7
420
 16777215
370
     9
100
AcDb2dPolyline
 66
     1
 10
0.0
 20
0.0
 30
0.0
  0
VERTEX
  5
D7
330
D6
100
AcDbEntity
  8
SOMBREA
 62
     7
420
 16777215
370
     9
100
AcDbVertex
100
AcDb2dVertex
 10
132.0428455927161
 20
174.0856128466653
 30
0.0
  0
VERTEX
  5
D8
330
D6
100
AcDbEntity
  8
SOMBREA
 62
     7
420
 16777215
370
     9
100
AcDbVertex
100
AcDb2dVertex
 10
132.9685433602804
 20
175.0109661044538
 30
0.0
  0
SEQEND
  5
D9
330
D6
100
AcDbEntity
  8
SOMBREA
370
     9
  0
POLYLINE
  5
DA
330
3C
100
AcDbEntity
  8
SOMBREA
 62
     7
420
 16777215
370
     9
100
AcDb2dPolyline
 66
     1
 10
0.0
 20
0.0
 30
0.0
  0
VERTEX
  5
DB
330
DA
100
AcDbEntity
  8
SOMBREA
 62
     7
420
 16777215
370
     9
100
AcDbVertex
100
AcDb2dVertex
 10
131.8781699198856
 20
173.3023698713927
 30
0.0
  0
VERTEX
  5
DC
330
DA
100
AcDbEntity
  8
SOMBREA
 62
     7
420
 16777215
370
     9
100
AcDbVertex
100
AcDb2dVertex
 10
132.9106657179466
 20
174.3350379243417
 30
0.0
  0
SEQEND
  5
DD
330
DA
100
AcDbEntity
  8
SOMBREA
370
     9
  0
POLYLINE
  5
DE
330
3C
100
AcDbEntity
  8
SOMBREA
 62
     7
420
 16777215
370
     9
100
AcDb2dPolyline
 66
     1
 10
0.0
 20
0.0
 30
0.0
  0
VERTEX
  5
DF
330
DE
100
AcDbEntity
  8
SOMBREA
 62
     7
420
 16777215
370
     9
100
AcDbVertex
100
AcDb2dVertex
 10
127.2028277525557
 20
168.0088049113967
 30
0.0
  0
VERTEX
  5
E0
330
DE
100
AcDbEntity
  8
SOMBREA
 62
     7
420
 16777215
370
     9
100
AcDbVertex
100
AcDb2dVertex
 10
127.7878053518576
 20
168.5939547655864
 30
0.0
  0
SEQEND
  5
E1
330
DE
100
AcDbEntity
  8
SOMBREA
370
     9
  0
POLYLINE
  5
E2
330
3C
100
AcDbEntity
  8
SOMBREA
 62
     7
420
 16777215
370
     9
100
AcDb2dPolyline
 66
     1
 10
0.0
 20
0.0
 30
0.0
  0
VERTEX
  5
E3
330
E2
100
AcDbEntity
  8
SOMBREA
 62
     7
420
 16777215
370
     9
100
AcDbVertex
100
AcDb2dVertex
 10
131.7131497372792
 20
172.519299151008
 30
0.0
  0
VERTEX
  5
E4
330
E2
100
AcDbEntity
  8
SOMBREA
 62
     7
420
 16777215
370
     9
100
AcDbVertex
100
AcDb2dVertex
 10
132.7594259263721
 20
173.5654030852131
 30
0.0
  0
SEQEND
  5
E5
330
E2
100
AcDbEntity
  8
SOMBREA
370
     9
  0
POLYLINE
  5
E6
330
3C
100
AcDbEntity
  8
SOMBREA
 62
     7
420
 16777215
370
     9
100
AcDb2dPolyline
 66
     1
 10
0.0
 20
0.0
 30
0.0
  0
VERTEX
  5
E7
330
E6
100
AcDbEntity
  8
SOMBREA
 62
     7
420
 16777215
370
     9
100
AcDbVertex
100
AcDb2dVertex
 10
127.594535367636
 20
167.7824619886986
 30
0.0
  0
VERTEX
  5
E8
330
E6
100
AcDbEntity
  8
SOMBREA
 62
     7
420
 16777215
370
     9
100
AcDbVertex
100
AcDb2dVertex
 10
128.2091408076563
 20
168.3972396836068
 30
0.0
  0
SEQEND
  5
E9
330
E6
100
AcDbEntity
  8
SOMBREA
370
     9
  0
POLYLINE
  5
EA
330
3C
100
AcDbEntity
  8
SOMBREA
 62
     7
420
 16777215
370
     9
100
AcDb2dPolyline
 66
     1
 10
0.0
 20
0.0
 30
0.0
  0
VERTEX
  5
EB
330
EA
100
AcDbEntity
  8
SOMBREA
 62
     7
420
 16777215
370
     9
100
AcDbVertex
100
AcDb2dVertex
 10
131.5481295546728
 20
171.7362284306233
 30
0.0
  0
VERTEX
  5
EC
330
EA
100
AcDbEntity
  8
SOMBREA
 62
     7
420
 16777215
370
     9
100
AcDbVertex
100
AcDb2dVertex
 10
132.5844149602677
 20
172.7723415813303
 30
0.0
  0
SEQEND
  5
ED
330
EA
100
AcDbEntity
  8
SOMBREA
370
     9
  0
POLYLINE
  5
EE
330
3C
100
AcDbEntity
  8
SOMBREA
 62
     7
420
 16777215
370
     9
100
AcDb2dPolyline
 66
     1
 10
0.0
 20
0.0
 30
0.0
  0
VERTEX
  5
EF
330
EE
100
AcDbEntity
  8
SOMBREA
 62
     7
420
 16777215
370
     9
100
AcDbVertex
100
AcDb2dVertex
 10
128.0138037647799
 20
167.5835075931763
 30
0.0
  0
VERTEX
  5
F0
330
EE
100
AcDbEntity
  8
SOMBREA
 62
     7
420
 16777215
370
     9
100
AcDbVertex
100
AcDb2dVertex
 10
128.9980681942296
 20
168.567599767738
 30
0.0
  0
SEQEND
  5
F1
330
EE
100
AcDbEntity
  8
SOMBREA
370
     9
  0
POLYLINE
  5
F2
330
3C
100
AcDbEntity
  8
SOMBREA
 62
     7
420
 16777215
370
     9
100
AcDb2dPolyline
 66
     1
 10
0.0
 20
0.0
 30
0.0
  0
VERTEX
  5
F3
330
F2
100
AcDbEntity
  8
SOMBREA
 62
     7
420
 16777215
370
     9
100
AcDbVertex
100
AcDb2dVertex
 10
131.3834538818422
 20
170.9529854553507
 30
0.0
  0
VERTEX
  5
F4
330
F2
100
AcDbEntity
  8
SOMBREA
 62
     7
420
 16777215
370
     9
100
AcDbVertex
100
AcDb2dVertex
 10
132.409748503939
 20
171.9792800774475
 30
0.0
  0
SEQEND
  5
F5
330
F2
100
AcDbEntity
  8
SOMBREA
370
     9
  0
POLYLINE
  5
F6
330
3C
100
AcDbEntity
  8
SOMBREA
 62
     7
420
 16777215
370
     9
100
AcDb2dPolyline
 66
     1
 10
0.0
 20
0.0
 30
0.0
  0
VERTEX
  5
F7
330
F6
100
AcDbEntity
  8
SOMBREA
 62
     7
420
 16777215
370
     9
100
AcDbVertex
100
AcDb2dVertex
 10
128.710058021664
 20
167.661711312282
 30
0.0
  0
VERTEX
  5
F8
330
F6
100
AcDbEntity
  8
SOMBREA
 62
     7
420
 16777215
370
     9
100
AcDbVertex
100
AcDb2dVertex
 10
129.6161187320079
 20
168.567599767738
 30
0.0
  0
SEQEND
  5
F9
330
F6
100
AcDbEntity
  8
SOMBREA
370
     9
  0
POLYLINE
  5
FA
330
3C
100
AcDbEntity
  8
SOMBREA
 62
     7
420
 16777215
370
     9
100
AcDb2dPolyline
 66
     1
 10
0.0
 20
0.0
 30
0.0
  0
VERTEX
  5
FB
330
FA
100
AcDbEntity
  8
SOMBREA
 62
     7
420
 16777215
370
     9
100
AcDbVertex
100
AcDb2dVertex
 10
131.2184336992359
 20
170.169914734966
 30
0.0
  0
VERTEX
  5
FC
330
FA
100
AcDbEntity
  8
SOMBREA
 62
     7
420
 16777215
370
     9
100
AcDbVertex
100
AcDb2dVertex
 10
132.2347375378346
 20
171.1862185735647
 30
0.0
  0
SEQEND
  5
FD
330
FA
100
AcDbEntity
  8
SOMBREA
370
     9
  0
POLYLINE
  5
FE
330
3C
100
AcDbEntity
  8
SOMBREA
 62
     7
420
 16777215
370
     9
100
AcDb2dPolyline
 66
     1
 10
0.0
 20
0.0
 30
0.0
  0
VERTEX
  5
FF
330
FE
100
AcDbEntity
  8
SOMBREA
 62
     7
420
 16777215
370
     9
100
AcDbVertex
100
AcDb2dVertex
 10
129.4349065899391
 20
167.7683370878909
 30
0.0
  0
VERTEX
  5
100
330
FE
100
AcDbEntity
  8
SOMBREA
 62
     7
420
 16777215
370
     9
100
AcDbVertex
100
AcDb2dVertex
 10
130.234513779562
 20
168.567599767738
 30
0.0
  0
SEQEND
  5
101
330
FE
100
AcDbEntity
  8
SOMBREA
370
     9
  0
POLYLINE
  5
102
330
3C
100
AcDbEntity
  8
SOMBREA
 62
     7
420
 16777215
370
     9
100
AcDb2dPolyline
 66
     1
 10
0.0
 20
0.0
 30
0.0
  0
VERTEX
  5
103
330
102
100
AcDbEntity
  8
SOMBREA
 62
     7
420
 16777215
370
     9
100
AcDbVertex
100
AcDb2dVertex
 10
131.0534135166295
 20
169.3868440145813
 30
0.0
  0
VERTEX
  5
104
330
102
100
AcDbEntity
  8
SOMBREA
 62
     7
420
 16777215
370
     9
100
AcDbVertex
100
AcDb2dVertex
 10
132.0597265717301
 20
170.3931570696819
 30
0.0
  0
SEQEND
  5
105
330
102
100
AcDbEntity
  8
SOMBREA
370
     9
  0
POLYLINE
  5
106
330
3C
100
AcDbEntity
  8
SOMBREA
 62
     7
420
 16777215
370
     9
100
AcDb2dPolyline
 66
     1
 10
0.0
 20
0.0
 30
0.0
  0
VERTEX
  5
107
330
106
100
AcDbEntity
  8
SOMBREA
 62
     7
420
 16777215
370
     9
100
AcDbVertex
100
AcDb2dVertex
 10
130.0533016374932
 20
167.7683370878909
 30
0.0
  0
VERTEX
  5
108
330
106
100
AcDbEntity
  8
SOMBREA
 62
     7
420
 16777215
370
     9
100
AcDbVertex
100
AcDb2dVertex
 10
131.8850601154015
 20
169.5999233109112
 30
0.0
  0
SEQEND
  5
109
330
106
100
AcDbEntity
  8
SOMBREA
370
     9
  0
POLYLINE
  5
10A
330
3C
100
AcDbEntity
  8
SOMBREA
 62
     7
420
 16777215
370
     9
100
AcDb2dPolyline
 66
     1
 10
0.0
 20
0.0
 30
0.0
  0
VERTEX
  5
10B
330
10A
100
AcDbEntity
  8
SOMBREA
 62
     7
420
 16777215
370
     9
100
AcDbVertex
100
AcDb2dVertex
 10
130.5514627732945
 20
167.648275431026
 30
0.0
  0
VERTEX
  5
10C
330
10A
100
AcDbEntity
  8
SOMBREA
 62
     7
420
 16777215
370
     9
100
AcDbVertex
100
AcDb2dVertex
 10
131.710049149297
 20
168.8068618070285
 30
0.0
  0
SEQEND
  5
10D
330
10A
100
AcDbEntity
  8
SOMBREA
370
     9
  0
POLYLINE
  5
10E
330
3C
100
AcDbEntity
  8
SOMBREA
 62
     7
420
 16777215
370
     9
100
AcDb2dPolyline
 66
     1
 10
0.0
 20
0.0
 30
0.0
  0
VERTEX
  5
10F
330
10E
100
AcDbEntity
  8
SOMBREA
 62
     7
420
 16777215
370
     9
100
AcDbVertex
100
AcDb2dVertex
 10
131.0899315528639
 20
167.5685214179291
 30
0.0
  0
VERTEX
  5
110
330
10E
100
AcDbEntity
  8
SOMBREA
 62
     7
420
 16777215
370
     9
100
AcDbVertex
100
AcDb2dVertex
 10
131.5350381831925
 20
168.0138003031457
 30
0.0
  0
SEQEND
  5
111
330
10E
100
AcDbEntity
  8
SOMBREA
370
     9
  0
ENDBLK
  5
3F
330
3C
100
AcDbEntity
  8
0
100
AcDbBlockEnd
  0
BLOCK
  5
114
330
112
100
AcDbEntity
  8
0
100
AcDbBlockBegin
  2
block 3
 70
     0
 71
     0
 10
0.0
 20
0.0
 30
0.0
  3
block 3
  1

  0
SPLINE
  5
116
330
112
100
AcDbEntity
  8
SOMBREA
370
     0
100
AcDbSpline
210
0.0
220
0.0
230
1.0
 70
    11
 71
     3
 72
    71
 73
    67
 74
     0
 42
0.0000000001
 43
0.0000000001
 40
0.0
 40
0.0
 40
0.0
 40
0.0
 40
1.0
 40
1.0
 40
1.0
 40
2.0
 40
2.0
 40
2.0
 40
3.0
 40
3.0
 40
3.0
 40
4.0
 40
4.0
 40
4.0
 40
5.0
 40
5.0
 40
5.0
 40
6.0
 40
6.0
 40
6.0
 40
7.0
 40
7.0
 40
7.0
 40
8.0
 40
8.0
 40
8.0
 40
9.0
 40
9.0
 40
9.0
 40
10.0
 40
10.0
 40
10.0
 40
11.0
 40
11.0
 40
11.0
 40
12.0
 40
12.0
 40
12.0
 40
13.0
 40
13.0
 40
13.0
 40
14.0
 40
14.0
 40
14.0
 40
15.0
 40
15.0
 40
15.0
 40
16.0
 40
16.0
 40
16.0
 40
17.0
 40
17.0
 40
17.0
 40
18.0
 40
18.0
 40
18.0
 40
19.0
 40
19.0
 40
19.0
 40
20.0
 40
20.0
 40
20.0
 40
21.0
 40
21.0
 40
21.0
 40
22.0
 40
22.0
 40
22.0
 40
22.0
 10
89.28590957354149
 20
180.6493853500218
 30
0.0
 10
89.24680771398862
 20
177.4621531592435
 30
0.0
 10
90.09464627222299
 20
171.6828294153749
 30
0.0
 10
91.04773256696309
 20
168.6409803499826
 30
0.0
 10
91.04773256696309
 20
168.6409803499826
 30
0.0
 10
91.04773256696309
 20
168.6409803499826
 30
0.0
 10
91.04773256696309
 20
168.6409803499826
 30
0.0
 10
91.05789560534909
 20
168.5989501573355
 30
0.0
 10
91.10078707243571
 20
168.5663939835227
 30
0.0
 10
91.14402304929813
 20
168.567599767738
 30
0.0
 10
91.14402304929813
 20
168.567599767738
 30
0.0
 10
91.14402304929813
 20
168.567599767738
 30
0.0
 10
91.14402304929813
 20
168.567599767738
 30
0.0
 10
91.14402304929813
 20
168.567599767738
 30
0.0
 10
93.04916210945093
 20
168.567599767738
 30
0.0
 10
93.04916210945093
 20
168.567599767738
 30
0.0
 10
93.04916210945093
 20
168.567599767738
 30
0.0
 10
93.04916210945093
 20
168.567599767738
 30
0.0
 10
93.04916210945093
 20
168.567599767738
 30
0.0
 10
93.2140100371694
 20
168.5770737865724
 30
0.0
 10
93.46894727125857
 20
168.5004203614578
 30
0.0
 10
93.6012390251643
 20
168.4013738009164
 30
0.0
 10
93.6012390251643
 20
168.4013738009164
 30
0.0
 10
93.6012390251643
 20
168.4013738009164
 30
0.0
 10
93.6012390251643
 20
168.4013738009164
 30
0.0
 10
93.65825539305857
 20
168.359688118045
 30
0.0
 10
93.75196205207513
 20
168.3567597849508
 30
0.0
 10
93.81156224328787
 20
168.3948281151762
 30
0.0
 10
93.81156224328787
 20
168.3948281151762
 30
0.0
 10
93.81156224328787
 20
168.3948281151762
 30
0.0
 10
93.81156224328787
 20
168.3948281151762
 30
0.0
 10
93.81156224328787
 20
168.3948281151762
 30
0.0
 10
99.09909828220746
 20
171.4475292385061
 30
0.0
 10
99.09909828220746
 20
171.4475292385061
 30
0.0
 10
99.09909828220746
 20
171.4475292385061
 30
0.0
 10
99.09909828220746
 20
171.4475292385061
 30
0.0
 10
99.09909828220746
 20
171.4475292385061
 30
0.0
 10
99.14681288615523
 20
171.4750900205698
 30
0.0
 10
99.16317710050555
 20
171.5364127606615
 30
0.0
 10
99.13561631844185
 20
171.5841273646093
 30
0.0
 10
99.12855386803803
 20
171.598080010529
 30
0.0
 10
99.11029484992083
 20
171.6156500090946
 30
0.0
 10
99.09616994911319
 20
171.6221956948348
 30
0.0
 10
99.09616994911319
 20
171.6221956948348
 30
0.0
 10
99.09616994911319
 20
171.6221956948348
 30
0.0
 10
99.09616994911319
 20
171.6221956948348
 30
0.0
 10
95.89343481842411
 20
173.1101334164984
 30
0.0
 10
91.74760417649301
 20
177.1121312270346
 30
0.0
 10
90.1473562679198
 20
180.26026155826
 30
0.0
 10
90.1473562679198
 20
180.26026155826
 30
0.0
 10
90.1473562679198
 20
180.26026155826
 30
0.0
 10
90.1473562679198
 20
180.26026155826
 30
0.0
 10
90.01816510199625
 20
180.513820753246
 30
0.0
 10
89.68123454126759
 20
180.7343070097555
 30
0.0
 10
89.39701397623575
 20
180.7508434789937
 30
0.0
 10
89.39701397623575
 20
180.7508434789937
 30
0.0
 10
89.39701397623575
 20
180.7508434789937
 30
0.0
 10
89.39701397623575
 20
180.7508434789937
 30
0.0
 10
89.34223692188417
 20
180.757216909846
 30
0.0
 10
89.29279976905741
 20
180.7177705405173
 30
0.0
 10
89.28642633820519
 20
180.6629934861657
 30
0.0
 10
89.28608182842939
 20
180.6595483884078
 30
0.0
 10
89.28573731865359
 20
180.6528304477797
 30
0.0
 10
89.28590957354149
 20
180.6493853500218
 30
0.0
 10
89.28590957354149
 20
180.6493853500218
 30
0.0
 10
89.28590957354149
 20
180.6493853500218
 30
0.0
 10
89.28590957354149
 20
180.6493853500218
 30
0.0
  0
SPLINE
  5
117
330
112
100
AcDbEntity
  8
SOMBREA
370
     0
100
AcDbSpline
210
0.0
220
0.0
230
1.0
 70
    11
 71
     3
 72
   140
 73
   136
 74
     0
 42
0.0000000001
 43
0.0000000001
 40
0.0
 40
0.0
 40
0.0
 40
0.0
 40
1.0
 40
1.0
 40
1.0
 40
2.0
 40
2.0
 40
2.0
 40
3.0
 40
3.0
 40
3.0
 40
4.0
 40
4.0
 40
4.0
 40
5.0
 40
5.0
 40
5.0
 40
6.0
 40
6.0
 40
6.0
 40
7.0
 40
7.0
 40
7.0
 40
8.0
 40
8.0
 40
8.0
 40
9.0
 40
9.0
 40
9.0
 40
10.0
 40
10.0
 40
10.0
 40
11.0
 40
11.0
 40
11.0
 40
12.0
 40
12.0
 40
12.0
 40
13.0
 40
13.0
 40
13.0
 40
14.0
 40
14.0
 40
14.0
 40
15.0
 40
15.0
 40
15.0
 40
16.0
 40
16.0
 40
16.0
 40
17.0
 40
17.0
 40
17.0
 40
18.0
 40
18.0
 40
18.0
 40
19.0
 40
19.0
 40
19.0
 40
20.0
 40
20.0
 40
20.0
 40
21.0
 40
21.0
 40
21.0
 40
22.0
 40
22.0
 40
22.0
 40
23.0
 40
23.0
 40
23.0
 40
24.0
 40
24.0
 40
24.0
 40
25.0
 40
25.0
 40
25.0
 40
26.0
 40
26.0
 40
26.0
 40
27.0
 40
27.0
 40
27.0
 40
28.0
 40
28.0
 40
28.0
 40
29.0
 40
29.0
 40
29.0
 40
30.0
 40
30.0
 40
30.0
 40
31.0
 40
31.0
 40
31.0
 40
32.0
 40
32.0
 40
32.0
 40
33.0
 40
33.0
 40
33.0
 40
34.0
 40
34.0
 40
34.0
 40
35.0
 40
35.0
 40
35.0
 40
36.0
 40
36.0
 40
36.0
 40
37.0
 40
37.0
 40
37.0
 40
38.0
 40
38.0
 40
38.0
 40
39.0
 40
39.0
 40
39.0
 40
40.0
 40
40.0
 40
40.0
 40
41.0
 40
41.0
 40
41.0
 40
42.0
 40
42.0
 40
42.0
 40
43.0
 40
43.0
 40
43.0
 40
44.0
 40
44.0
 40
44.0
 40
45.0
 40
45.0
 40
45.0
 40
45.0
 10
90.45948212479114
 20
167.7847013022412
 30
0.0
 10
90.49152153394019
 20
167.6606777829546
 30
0.0
 10
90.61933466076056
 20
167.5645595555075
 30
0.0
 10
90.74732004246884
 20
167.5685214179291
 30
0.0
 10
90.74732004246884
 20
167.5685214179291
 30
0.0
 10
88.4844075801517
 20
180.7415417150472
 30
0.0
 10
88.4844075801517
 20
180.7415417150472
 30
0.0
 10
88.42876925136062
 20
177.2874867029149
 30
0.0
 10
89.37720466412748
 20
171.0652956422603
 30
0.0
 10
90.45948212479114
 20
167.7847013022412
 30
0.0
 10
90.45948212479114
 20
167.7847013022412
 30
0.0
 10
89.28367025999881
 20
181.556651844581
 30
0.0
 10
89.28367025999881
 20
181.556651844581
 30
0.0
 10
88.84218098231602
 20
181.556651844581
 30
0.0
 10
88.4842353252638
 20
181.1988784424167
 30
0.0
 10
88.4842353252638
 20
180.7573891647339
 30
0.0
 10
88.4842353252638
 20
180.7534273023122
 30
0.0
 10
88.4844075801517
 20
180.7455035774689
 30
0.0
 10
88.4844075801517
 20
180.7415417150472
 30
0.0
 10
88.4844075801517
 20
180.7415417150472
 30
0.0
 10
90.83844287816692
 20
180.6619599568383
 30
0.0
 10
90.83844287816692
 20
180.6619599568383
 30
0.0
 10
90.56765819439113
 20
181.186476090488
 30
0.0
 10
89.87312648638606
 20
181.5861074304115
 30
0.0
 10
89.28367025999881
 20
181.556651844581
 30
0.0
 10
89.28367025999881
 20
181.556651844581
 30
0.0
 10
90.74732004246884
 20
167.5685214179291
 30
0.0
 10
90.74732004246884
 20
167.5685214179291
 30
0.0
 10
90.74732004246884
 20
167.5685214179291
 30
0.0
 10
91.25443843244079
 20
167.5685214179291
 30
0.0
 10
91.25443843244079
 20
167.5685214179291
 30
0.0
 10
91.25443843244079
 20
167.5685214179291
 30
0.0
 10
91.25443843244079
 20
167.5685214179291
 30
0.0
 10
91.25443843244079
 20
167.5685214179291
 30
0.0
 10
91.32006754472997
 20
167.5652485750591
 30
0.0
 10
91.39740998939621
 20
167.6098625910247
 30
0.0
 10
91.42755459477837
 20
167.66842925291
 30
0.0
 10
91.42755459477837
 20
167.66842925291
 30
0.0
 10
91.60049850222805
 20
167.7683370878909
 30
0.0
 10
91.60049850222805
 20
167.7683370878909
 30
0.0
 10
91.53486938993888
 20
167.771609930761
 30
0.0
 10
91.45752694527263
 20
167.7269959147954
 30
0.0
 10
91.42755459477837
 20
167.66842925291
 30
0.0
 10
91.42755459477837
 20
167.66842925291
 30
0.0
 10
91.60049850222805
 20
167.7683370878909
 30
0.0
 10
91.60049850222805
 20
167.7683370878909
 30
0.0
 10
91.60049850222805
 20
167.7683370878909
 30
0.0
 10
93.04916210945093
 20
167.7683370878909
 30
0.0
 10
93.04916210945093
 20
167.7683370878909
 30
0.0
 10
93.04916210945093
 20
167.7683370878909
 30
0.0
 10
93.39522217923819
 20
167.5685214179291
 30
0.0
 10
93.39522217923819
 20
167.5685214179291
 30
0.0
 10
93.39522217923819
 20
167.5685214179291
 30
0.0
 10
93.87202370894009
 20
167.5685214179291
 30
0.0
 10
93.87202370894009
 20
167.5685214179291
 30
0.0
 10
93.87202370894009
 20
167.5685214179291
 30
0.0
 10
93.22227827178851
 20
167.66842925291
 30
0.0
 10
93.22227827178851
 20
167.66842925291
 30
0.0
 10
93.25225062228277
 20
167.6098625910247
 30
0.0
 10
93.32959306694902
 20
167.5652485750591
 30
0.0
 10
93.39522217923819
 20
167.5685214179291
 30
0.0
 10
93.39522217923819
 20
167.5685214179291
 30
0.0
 10
93.22227827178851
 20
167.66842925291
 30
0.0
 10
93.22227827178851
 20
167.66842925291
 30
0.0
 10
93.19213366640635
 20
167.7269959147954
 30
0.0
 10
93.1147912217401
 20
167.771609930761
 30
0.0
 10
93.04916210945093
 20
167.7683370878909
 30
0.0
 10
93.04916210945093
 20
167.7683370878909
 30
0.0
 10
93.87202370894009
 20
167.5685214179291
 30
0.0
 10
93.87202370894009
 20
167.5685214179291
 30
0.0
 10
93.92714527306748
 20
167.5655930848349
 30
0.0
 10
94.01620105011078
 20
167.5881584751495
 30
0.0
 10
94.06305437961906
 20
167.6172695512043
 30
0.0
 10
94.06305437961906
 20
167.6172695512043
 30
0.0
 10
90.83844287816692
 20
180.6619599568383
 30
0.0
 10
90.83844287816692
 20
180.6619599568383
 30
0.0
 10
93.68633293978596
 20
175.0726333543213
 30
0.0
 10
101.1124134119603
 20
170.2250362990934
 30
0.0
 10
107.3752566261588
 20
169.8665738773775
 30
0.0
 10
107.3752566261588
 20
169.8665738773775
 30
0.0
 10
100.1374507464571
 20
170.8782268340029
 30
0.0
 10
100.1374507464571
 20
170.8782268340029
 30
0.0
 10
101.7234014993348
 20
170.0629444495813
 30
0.0
 10
104.802457620513
 20
169.1465484459635
 30
0.0
 10
106.5759939463117
 20
168.9618912061368
 30
0.0
 10
106.5759939463117
 20
168.9618912061368
 30
0.0
 10
94.06305437961906
 20
167.6172695512043
 30
0.0
 10
94.06305437961906
 20
167.6172695512043
 30
0.0
 10
94.06305437961906
 20
167.6172695512043
 30
0.0
 10
99.67666892132974
 20
170.8580730121189
 30
0.0
 10
99.67666892132974
 20
170.8580730121189
 30
0.0
 10
99.67666892132974
 20
170.8580730121189
 30
0.0
 10
100.1374507464571
 20
170.8782268340029
 30
0.0
 10
100.1374507464571
 20
170.8782268340029
 30
0.0
 10
100.0070537963183
 20
170.9478178087138
 30
0.0
 10
99.80034793084056
 20
170.9388605545431
 30
0.0
 10
99.67666892132974
 20
170.8580730121189
 30
0.0
 10
99.67666892132974
 20
170.8580730121189
 30
0.0
 10
107.4486372084034
 20
167.8422344347992
 30
0.0
 10
107.4486372084034
 20
167.8422344347992
 30
0.0
 10
107.4603505407805
 20
167.6889275845699
 30
0.0
 10
107.5936758240136
 20
167.5669711239381
 30
0.0
 10
107.7473271840187
 20
167.5685214179291
 30
0.0
 10
107.7473271840187
 20
167.5685214179291
 30
0.0
 10
108.6716469124798
 20
168.7174615202094
 30
0.0
 10
108.6716469124798
 20
168.7174615202094
 30
0.0
 10
108.6716469124798
 20
168.7174615202094
 30
0.0
 10
108.6716469124798
 20
167.5685214179291
 30
0.0
 10
108.6716469124798
 20
167.5685214179291
 30
0.0
 10
108.6716469124798
 20
167.5685214179291
 30
0.0
 10
107.4486372084034
 20
167.8422344347992
 30
0.0
 10
107.4486372084034
 20
167.8422344347992
 30
0.0
 10
107.4486372084034
 20
167.8422344347992
 30
0.0
 10
107.4293446609588
 20
168.0599646131024
 30
0.0
 10
107.4293446609588
 20
168.0599646131024
 30
0.0
 10
107.4293446609588
 20
168.0599646131024
 30
0.0
 10
107.7473271840187
 20
167.5685214179291
 30
0.0
 10
107.7473271840187
 20
167.5685214179291
 30
0.0
 10
107.7473271840187
 20
167.5685214179291
 30
0.0
 10
108.6716469124798
 20
167.5685214179291
 30
0.0
 10
108.6716469124798
 20
167.5685214179291
 30
0.0
 10
108.6716469124798
 20
167.5685214179291
 30
0.0
 10
107.3728450577283
 20
169.8665738773775
 30
0.0
 10
107.3728450577283
 20
169.8665738773775
 30
0.0
 10
107.3728450577283
 20
169.8665738773775
 30
0.0
 10
108.6716469124798
 20
168.7174615202094
 30
0.0
 10
108.6716469124798
 20
168.7174615202094
 30
0.0
 10
108.6716469124798
 20
168.7174615202094
 30
0.0
 10
107.4293446609588
 20
168.0599646131024
 30
0.0
 10
107.4293446609588
 20
168.0599646131024
 30
0.0
 10
107.4021283886709
 20
168.5086885960769
 30
0.0
 10
107.0224786157436
 20
168.9095257202157
 30
0.0
 10
106.5759939463117
 20
168.9618912061368
 30
0.0
 10
106.5759939463117
 20
168.9618912061368
 30
0.0
 10
90.45948212479114
 20
167.7847013022412
 30
0.0
 10
90.45948212479114
 20
167.7847013022412
 30
0.0
  0
POLYLINE
  5
118
330
112
100
AcDbEntity
  8
SOMBREA
 62
     7
420
 16777215
370
     9
100
AcDb2dPolyline
 66
     1
 10
0.0
 20
0.0
 30
0.0
  0
VERTEX
  5
119
330
118
100
AcDbEntity
  8
SOMBREA
 62
     7
420
 16777215
370
     9
100
AcDbVertex
100
AcDb2dVertex
 10
90.85429032785355
 20
167.5685214179291
 30
0.0
  0
VERTEX
  5
11A
330
118
100
AcDbEntity
  8
SOMBREA
 62
     7
420
 16777215
370
     9
100
AcDbVertex
100
AcDb2dVertex
 10
90.409011442637
 20
168.0138003031457
 30
0.0
  0
SEQEND
  5
11B
330
118
100
AcDbEntity
  8
SOMBREA
370
     9
  0
POLYLINE
  5
11C
330
112
100
AcDbEntity
  8
SOMBREA
 62
     7
420
 16777215
370
     9
100
AcDb2dPolyline
 66
     1
 10
0.0
 20
0.0
 30
0.0
  0
VERTEX
  5
11D
330
11C
100
AcDbEntity
  8
SOMBREA
 62
     7
420
 16777215
370
     9
100
AcDbVertex
100
AcDb2dVertex
 10
91.39275910742296
 20
167.648275431026
 30
0.0
  0
VERTEX
  5
11E
330
11C
100
AcDbEntity
  8
SOMBREA
 62
     7
420
 16777215
370
     9
100
AcDbVertex
100
AcDb2dVertex
 10
90.23417273142044
 20
168.8068618070285
 30
0.0
  0
SEQEND
  5
11F
330
11C
100
AcDbEntity
  8
SOMBREA
370
     9
  0
POLYLINE
  5
120
330
112
100
AcDbEntity
  8
SOMBREA
 62
     7
420
 16777215
370
     9
100
AcDb2dPolyline
 66
     1
 10
0.0
 20
0.0
 30
0.0
  0
VERTEX
  5
121
330
120
100
AcDbEntity
  8
SOMBREA
 62
     7
420
 16777215
370
     9
100
AcDbVertex
100
AcDb2dVertex
 10
91.89092024322422
 20
167.7683370878909
 30
0.0
  0
VERTEX
  5
122
330
120
100
AcDbEntity
  8
SOMBREA
 62
     7
420
 16777215
370
     9
100
AcDbVertex
100
AcDb2dVertex
 10
90.05916176531599
 20
169.5999233109112
 30
0.0
  0
SEQEND
  5
123
330
120
100
AcDbEntity
  8
SOMBREA
370
     9
  0
POLYLINE
  5
124
330
112
100
AcDbEntity
  8
SOMBREA
 62
     7
420
 16777215
370
     9
100
AcDb2dPolyline
 66
     1
 10
0.0
 20
0.0
 30
0.0
  0
VERTEX
  5
125
330
124
100
AcDbEntity
  8
SOMBREA
 62
     7
420
 16777215
370
     9
100
AcDbVertex
100
AcDb2dVertex
 10
92.50914303589045
 20
167.7683370878909
 30
0.0
  0
VERTEX
  5
126
330
124
100
AcDbEntity
  8
SOMBREA
 62
     7
420
 16777215
370
     9
100
AcDbVertex
100
AcDb2dVertex
 10
91.70970810115543
 20
168.567599767738
 30
0.0
  0
SEQEND
  5
127
330
124
100
AcDbEntity
  8
SOMBREA
370
     9
  0
POLYLINE
  5
128
330
112
100
AcDbEntity
  8
SOMBREA
 62
     7
420
 16777215
370
     9
100
AcDb2dPolyline
 66
     1
 10
0.0
 20
0.0
 30
0.0
  0
VERTEX
  5
129
330
128
100
AcDbEntity
  8
SOMBREA
 62
     7
420
 16777215
370
     9
100
AcDbVertex
100
AcDb2dVertex
 10
90.89063610920005
 20
169.3868440145813
 30
0.0
  0
VERTEX
  5
12A
330
128
100
AcDbEntity
  8
SOMBREA
 62
     7
420
 16777215
370
     9
100
AcDbVertex
100
AcDb2dVertex
 10
89.88432305409944
 20
170.3931570696819
 30
0.0
  0
SEQEND
  5
12B
330
128
100
AcDbEntity
  8
SOMBREA
370
     9
  0
POLYLINE
  5
12C
330
112
100
AcDbEntity
  8
SOMBREA
 62
     7
420
 16777215
370
     9
100
AcDb2dPolyline
 66
     1
 10
0.0
 20
0.0
 30
0.0
  0
VERTEX
  5
12D
330
12C
100
AcDbEntity
  8
SOMBREA
 62
     7
420
 16777215
370
     9
100
AcDbVertex
100
AcDb2dVertex
 10
93.23399160416558
 20
167.661711312282
 30
0.0
  0
VERTEX
  5
12E
330
12C
100
AcDbEntity
  8
SOMBREA
 62
     7
420
 16777215
370
     9
100
AcDbVertex
100
AcDb2dVertex
 10
92.32793089382166
 20
168.567599767738
 30
0.0
  0
SEQEND
  5
12F
330
12C
100
AcDbEntity
  8
SOMBREA
370
     9
  0
POLYLINE
  5
130
330
112
100
AcDbEntity
  8
SOMBREA
 62
     7
420
 16777215
370
     9
100
AcDb2dPolyline
 66
     1
 10
0.0
 20
0.0
 30
0.0
  0
VERTEX
  5
131
330
130
100
AcDbEntity
  8
SOMBREA
 62
     7
420
 16777215
370
     9
100
AcDbVertex
100
AcDb2dVertex
 10
90.72561592659368
 20
170.169914734966
 30
0.0
  0
VERTEX
  5
132
330
130
100
AcDbEntity
  8
SOMBREA
 62
     7
420
 16777215
370
     9
100
AcDbVertex
100
AcDb2dVertex
 10
89.70948434288287
 20
171.1862185735647
 30
0.0
  0
SEQEND
  5
133
330
130
100
AcDbEntity
  8
SOMBREA
370
     9
  0
POLYLINE
  5
134
330
112
100
AcDbEntity
  8
SOMBREA
 62
     7
420
 16777215
370
     9
100
AcDb2dPolyline
 66
     1
 10
0.0
 20
0.0
 30
0.0
  0
VERTEX
  5
135
330
134
100
AcDbEntity
  8
SOMBREA
 62
     7
420
 16777215
370
     9
100
AcDbVertex
100
AcDb2dVertex
 10
93.93041811593754
 20
167.5835075931763
 30
0.0
  0
VERTEX
  5
136
330
134
100
AcDbEntity
  8
SOMBREA
 62
     7
420
 16777215
370
     9
100
AcDbVertex
100
AcDb2dVertex
 10
92.94615368648789
 20
168.567599767738
 30
0.0
  0
SEQEND
  5
137
330
134
100
AcDbEntity
  8
SOMBREA
370
     9
  0
POLYLINE
  5
138
330
112
100
AcDbEntity
  8
SOMBREA
 62
     7
420
 16777215
370
     9
100
AcDb2dPolyline
 66
     1
 10
0.0
 20
0.0
 30
0.0
  0
VERTEX
  5
139
330
138
100
AcDbEntity
  8
SOMBREA
 62
     7
420
 16777215
370
     9
100
AcDbVertex
100
AcDb2dVertex
 10
90.5607679988752
 20
170.9529854553507
 30
0.0
  0
VERTEX
  5
13A
330
138
100
AcDbEntity
  8
SOMBREA
 62
     7
420
 16777215
370
     9
100
AcDbVertex
100
AcDb2dVertex
 10
89.53447337677842
 20
171.9792800774475
 30
0.0
  0
SEQEND
  5
13B
330
138
100
AcDbEntity
  8
SOMBREA
370
     9
  0
POLYLINE
  5
13C
330
112
100
AcDbEntity
  8
SOMBREA
 62
     7
420
 16777215
370
     9
100
AcDb2dPolyline
 66
     1
 10
0.0
 20
0.0
 30
0.0
  0
VERTEX
  5
13D
330
13C
100
AcDbEntity
  8
SOMBREA
 62
     7
420
 16777215
370
     9
100
AcDbVertex
100
AcDb2dVertex
 10
94.34951425819358
 20
167.7824619886986
 30
0.0
  0
VERTEX
  5
13E
330
13C
100
AcDbEntity
  8
SOMBREA
 62
     7
420
 16777215
370
     9
100
AcDbVertex
100
AcDb2dVertex
 10
93.73473656328531
 20
168.3972396836068
 30
0.0
  0
SEQEND
  5
13F
330
13C
100
AcDbEntity
  8
SOMBREA
370
     9
  0
POLYLINE
  5
140
330
112
100
AcDbEntity
  8
SOMBREA
 62
     7
420
 16777215
370
     9
100
AcDb2dPolyline
 66
     1
 10
0.0
 20
0.0
 30
0.0
  0
VERTEX
  5
141
330
140
100
AcDbEntity
  8
SOMBREA
 62
     7
420
 16777215
370
     9
100
AcDbVertex
100
AcDb2dVertex
 10
90.39574781626885
 20
171.7362284306233
 30
0.0
  0
VERTEX
  5
142
330
140
100
AcDbEntity
  8
SOMBREA
 62
     7
420
 16777215
370
     9
100
AcDbVertex
100
AcDb2dVertex
 10
89.35963466556187
 20
172.7723415813303
 30
0.0
  0
SEQEND
  5
143
330
140
100
AcDbEntity
  8
SOMBREA
370
     9
  0
POLYLINE
  5
144
330
112
100
AcDbEntity
  8
SOMBREA
 62
     7
420
 16777215
370
     9
100
AcDb2dPolyline
 66
     1
 10
0.0
 20
0.0
 30
0.0
  0
VERTEX
  5
145
330
144
100
AcDbEntity
  8
SOMBREA
 62
     7
420
 16777215
370
     9
100
AcDbVertex
100
AcDb2dVertex
 10
94.74139412816172
 20
168.0088049113967
 30
0.0
  0
VERTEX
  5
146
330
144
100
AcDbEntity
  8
SOMBREA
 62
     7
420
 16777215
370
     9
100
AcDbVertex
100
AcDb2dVertex
 10
94.15624427397192
 20
168.5939547655864
 30
0.0
  0
SEQEND
  5
147
330
144
100
AcDbEntity
  8
SOMBREA
370
     9
  0
POLYLINE
  5
148
330
112
100
AcDbEntity
  8
SOMBREA
 62
     7
420
 16777215
370
     9
100
AcDb2dPolyline
 66
     1
 10
0.0
 20
0.0
 30
0.0
  0
VERTEX
  5
149
330
148
100
AcDbEntity
  8
SOMBREA
 62
     7
420
 16777215
370
     9
100
AcDbVertex
100
AcDb2dVertex
 10
90.23089988855038
 20
172.519299151008
 30
0.0
  0
VERTEX
  5
14A
330
148
100
AcDbEntity
  8
SOMBREA
 62
     7
420
 16777215
370
     9
100
AcDbVertex
100
AcDb2dVertex
 10
89.18479595434532
 20
173.5654030852131
 30
0.0
  0
SEQEND
  5
14B
330
148
100
AcDbEntity
  8
SOMBREA
370
     9
  0
POLYLINE
  5
14C
330
112
100
AcDbEntity
  8
SOMBREA
 62
     7
420
 16777215
370
     9
100
AcDb2dPolyline
 66
     1
 10
0.0
 20
0.0
 30
0.0
  0
VERTEX
  5
14D
330
14C
100
AcDbEntity
  8
SOMBREA
 62
     7
420
 16777215
370
     9
100
AcDbVertex
100
AcDb2dVertex
 10
95.13344625301777
 20
168.2349755792068
 30
0.0
  0
VERTEX
  5
14E
330
14C
100
AcDbEntity
  8
SOMBREA
 62
     7
420
 16777215
370
     9
100
AcDbVertex
100
AcDb2dVertex
 10
94.54829639882797
 20
168.8201254333966
 30
0.0
  0
SEQEND
  5
14F
330
14C
100
AcDbEntity
  8
SOMBREA
370
     9
  0
POLYLINE
  5
150
330
112
100
AcDbEntity
  8
SOMBREA
 62
     7
420
 16777215
370
     9
100
AcDb2dPolyline
 66
     1
 10
0.0
 20
0.0
 30
0.0
  0
VERTEX
  5
151
330
150
100
AcDbEntity
  8
SOMBREA
 62
     7
420
 16777215
370
     9
100
AcDbVertex
100
AcDb2dVertex
 10
95.5253261229859
 20
168.4613185019049
 30
0.0
  0
VERTEX
  5
152
330
150
100
AcDbEntity
  8
SOMBREA
 62
     7
420
 16777215
370
     9
100
AcDbVertex
100
AcDb2dVertex
 10
94.94017626879611
 20
169.0464683560947
 30
0.0
  0
SEQEND
  5
153
330
150
100
AcDbEntity
  8
SOMBREA
370
     9
  0
POLYLINE
  5
154
330
112
100
AcDbEntity
  8
SOMBREA
 62
     7
420
 16777215
370
     9
100
AcDb2dPolyline
 66
     1
 10
0.0
 20
0.0
 30
0.0
  0
VERTEX
  5
155
330
154
100
AcDbEntity
  8
SOMBREA
 62
     7
420
 16777215
370
     9
100
AcDbVertex
100
AcDb2dVertex
 10
90.06605196083191
 20
173.3023698713927
 30
0.0
  0
VERTEX
  5
156
330
154
100
AcDbEntity
  8
SOMBREA
 62
     7
420
 16777215
370
     9
100
AcDbVertex
100
AcDb2dVertex
 10
89.0335561627708
 20
174.3350379243417
 30
0.0
  0
SEQEND
  5
157
330
154
100
AcDbEntity
  8
SOMBREA
370
     9
  0
POLYLINE
  5
158
330
112
100
AcDbEntity
  8
SOMBREA
 62
     7
420
 16777215
370
     9
100
AcDb2dPolyline
 66
     1
 10
0.0
 20
0.0
 30
0.0
  0
VERTEX
  5
159
330
158
100
AcDbEntity
  8
SOMBREA
 62
     7
420
 16777215
370
     9
100
AcDbVertex
100
AcDb2dVertex
 10
89.90120403311344
 20
174.0856128466653
 30
0.0
  0
VERTEX
  5
15A
330
158
100
AcDbEntity
  8
SOMBREA
 62
     7
420
 16777215
370
     9
100
AcDbVertex
100
AcDb2dVertex
 10
88.97550626554914
 20
175.0109661044538
 30
0.0
  0
SEQEND
  5
15B
330
158
100
AcDbEntity
  8
SOMBREA
370
     9
  0
POLYLINE
  5
15C
330
112
100
AcDbEntity
  8
SOMBREA
 62
     7
420
 16777215
370
     9
100
AcDb2dPolyline
 66
     1
 10
0.0
 20
0.0
 30
0.0
  0
VERTEX
  5
15D
330
15C
100
AcDbEntity
  8
SOMBREA
 62
     7
420
 16777215
370
     9
100
AcDbVertex
100
AcDb2dVertex
 10
95.91720599295404
 20
168.687661424603
 30
0.0
  0
VERTEX
  5
15E
330
15C
100
AcDbEntity
  8
SOMBREA
 62
     7
420
 16777215
370
     9
100
AcDbVertex
100
AcDb2dVertex
 10
95.33205613876424
 20
169.2728112787928
 30
0.0
  0
SEQEND
  5
15F
330
15C
100
AcDbEntity
  8
SOMBREA
370
     9
  0
POLYLINE
  5
160
330
112
100
AcDbEntity
  8
SOMBREA
 62
     7
420
 16777215
370
     9
100
AcDb2dPolyline
 66
     1
 10
0.0
 20
0.0
 30
0.0
  0
VERTEX
  5
161
330
160
100
AcDbEntity
  8
SOMBREA
 62
     7
420
 16777215
370
     9
100
AcDbVertex
100
AcDb2dVertex
 10
96.30908586292219
 20
168.9138320924132
 30
0.0
  0
VERTEX
  5
162
330
160
100
AcDbEntity
  8
SOMBREA
 62
     7
420
 16777215
370
     9
100
AcDbVertex
100
AcDb2dVertex
 10
95.7239360087324
 20
169.498981946603
 30
0.0
  0
SEQEND
  5
163
330
160
100
AcDbEntity
  8
SOMBREA
370
     9
  0
POLYLINE
  5
164
330
112
100
AcDbEntity
  8
SOMBREA
 62
     7
420
 16777215
370
     9
100
AcDb2dPolyline
 66
     1
 10
0.0
 20
0.0
 30
0.0
  0
VERTEX
  5
165
330
164
100
AcDbEntity
  8
SOMBREA
 62
     7
420
 16777215
370
     9
100
AcDbVertex
100
AcDb2dVertex
 10
96.70096573289032
 20
169.1401750151113
 30
0.0
  0
VERTEX
  5
166
330
164
100
AcDbEntity
  8
SOMBREA
 62
     7
420
 16777215
370
     9
100
AcDbVertex
100
AcDb2dVertex
 10
96.11581587870053
 20
169.7253248693011
 30
0.0
  0
SEQEND
  5
167
330
164
100
AcDbEntity
  8
SOMBREA
370
     9
  0
POLYLINE
  5
168
330
112
100
AcDbEntity
  8
SOMBREA
 62
     7
420
 16777215
370
     9
100
AcDb2dPolyline
 66
     1
 10
0.0
 20
0.0
 30
0.0
  0
VERTEX
  5
169
330
168
100
AcDbEntity
  8
SOMBREA
 62
     7
420
 16777215
370
     9
100
AcDbVertex
100
AcDb2dVertex
 10
97.09301785774637
 20
169.3663456829214
 30
0.0
  0
VERTEX
  5
16A
330
168
100
AcDbEntity
  8
SOMBREA
 62
     7
420
 16777215
370
     9
100
AcDbVertex
100
AcDb2dVertex
 10
96.50786800355658
 20
169.9514955371112
 30
0.0
  0
SEQEND
  5
16B
330
168
100
AcDbEntity
  8
SOMBREA
370
     9
  0
POLYLINE
  5
16C
330
112
100
AcDbEntity
  8
SOMBREA
 62
     7
420
 16777215
370
     9
100
AcDb2dPolyline
 66
     1
 10
0.0
 20
0.0
 30
0.0
  0
VERTEX
  5
16D
330
16C
100
AcDbEntity
  8
SOMBREA
 62
     7
420
 16777215
370
     9
100
AcDbVertex
100
AcDb2dVertex
 10
97.48489772771451
 20
169.5926886056195
 30
0.0
  0
VERTEX
  5
16E
330
16C
100
AcDbEntity
  8
SOMBREA
 62
     7
420
 16777215
370
     9
100
AcDbVertex
100
AcDb2dVertex
 10
96.89974787352472
 20
170.1778384598093
 30
0.0
  0
SEQEND
  5
16F
330
16C
100
AcDbEntity
  8
SOMBREA
370
     9
  0
POLYLINE
  5
170
330
112
100
AcDbEntity
  8
SOMBREA
 62
     7
420
 16777215
370
     9
100
AcDb2dPolyline
 66
     1
 10
0.0
 20
0.0
 30
0.0
  0
VERTEX
  5
171
330
170
100
AcDbEntity
  8
SOMBREA
 62
     7
420
 16777215
370
     9
100
AcDbVertex
100
AcDb2dVertex
 10
97.87677759768265
 20
169.8190315283176
 30
0.0
  0
VERTEX
  5
172
330
170
100
AcDbEntity
  8
SOMBREA
 62
     7
420
 16777215
370
     9
100
AcDbVertex
100
AcDb2dVertex
 10
97.29162774349285
 20
170.4041813825074
 30
0.0
  0
SEQEND
  5
173
330
170
100
AcDbEntity
  8
SOMBREA
370
     9
  0
POLYLINE
  5
174
330
112
100
AcDbEntity
  8
SOMBREA
 62
     7
420
 16777215
370
     9
100
AcDb2dPolyline
 66
     1
 10
0.0
 20
0.0
 30
0.0
  0
VERTEX
  5
175
330
174
100
AcDbEntity
  8
SOMBREA
 62
     7
420
 16777215
370
     9
100
AcDbVertex
100
AcDb2dVertex
 10
98.2688297225387
 20
170.0452021961278
 30
0.0
  0
VERTEX
  5
176
330
174
100
AcDbEntity
  8
SOMBREA
 62
     7
420
 16777215
370
     9
100
AcDbVertex
100
AcDb2dVertex
 10
97.6836798683489
 20
170.6303520503176
 30
0.0
  0
SEQEND
  5
177
330
174
100
AcDbEntity
  8
SOMBREA
370
     9
  0
POLYLINE
  5
178
330
112
100
AcDbEntity
  8
SOMBREA
 62
     7
420
 16777215
370
     9
100
AcDb2dPolyline
 66
     1
 10
0.0
 20
0.0
 30
0.0
  0
VERTEX
  5
179
330
178
100
AcDbEntity
  8
SOMBREA
 62
     7
420
 16777215
370
     9
100
AcDbVertex
100
AcDb2dVertex
 10
98.66070959250683
 20
170.2715451188259
 30
0.0
  0
VERTEX
  5
17A
330
178
100
AcDbEntity
  8
SOMBREA
 62
     7
420
 16777215
370
     9
100
AcDbVertex
100
AcDb2dVertex
 10
98.07555973831704
 20
170.8566949730157
 30
0.0
  0
SEQEND
  5
17B
330
178
100
AcDbEntity
  8
SOMBREA
370
     9
  0
POLYLINE
  5
17C
330
112
100
AcDbEntity
  8
SOMBREA
 62
     7
420
 16777215
370
     9
100
AcDb2dPolyline
 66
     1
 10
0.0
 20
0.0
 30
0.0
  0
VERTEX
  5
17D
330
17C
100
AcDbEntity
  8
SOMBREA
 62
     7
420
 16777215
370
     9
100
AcDbVertex
100
AcDb2dVertex
 10
89.77459669050835
 20
174.8302707270487
 30
0.0
  0
VERTEX
  5
17E
330
17C
100
AcDbEntity
  8
SOMBREA
 62
     7
420
 16777215
370
     9
100
AcDbVertex
100
AcDb2dVertex
 10
88.91762862321538
 20
175.6872387943417
 30
0.0
  0
SEQEND
  5
17F
330
17C
100
AcDbEntity
  8
SOMBREA
370
     9
  0
POLYLINE
  5
180
330
112
100
AcDbEntity
  8
SOMBREA
 62
     7
420
 16777215
370
     9
100
AcDb2dPolyline
 66
     1
 10
0.0
 20
0.0
 30
0.0
  0
VERTEX
  5
181
330
180
100
AcDbEntity
  8
SOMBREA
 62
     7
420
 16777215
370
     9
100
AcDbVertex
100
AcDb2dVertex
 10
89.71792483238988
 20
175.5049931229455
 30
0.0
  0
VERTEX
  5
182
330
180
100
AcDbEntity
  8
SOMBREA
 62
     7
420
 16777215
370
     9
100
AcDbVertex
100
AcDb2dVertex
 10
88.85975098088163
 20
176.3633392293416
 30
0.0
  0
SEQEND
  5
183
330
180
100
AcDbEntity
  8
SOMBREA
370
     9
  0
POLYLINE
  5
184
330
112
100
AcDbEntity
  8
SOMBREA
 62
     7
420
 16777215
370
     9
100
AcDb2dPolyline
 66
     1
 10
0.0
 20
0.0
 30
0.0
  0
VERTEX
  5
185
330
184
100
AcDbEntity
  8
SOMBREA
 62
     7
420
 16777215
370
     9
100
AcDbVertex
100
AcDb2dVertex
 10
89.66125297427142
 20
176.1798877737302
 30
0.0
  0
VERTEX
  5
186
330
184
100
AcDbEntity
  8
SOMBREA
 62
     7
420
 16777215
370
     9
100
AcDbVertex
100
AcDb2dVertex
 10
88.80170108365998
 20
177.0394396643416
 30
0.0
  0
SEQEND
  5
187
330
184
100
AcDbEntity
  8
SOMBREA
370
     9
  0
POLYLINE
  5
188
330
112
100
AcDbEntity
  8
SOMBREA
 62
     7
420
 16777215
370
     9
100
AcDb2dPolyline
 66
     1
 10
0.0
 20
0.0
 30
0.0
  0
VERTEX
  5
189
330
188
100
AcDbEntity
  8
SOMBREA
 62
     7
420
 16777215
370
     9
100
AcDbVertex
100
AcDb2dVertex
 10
89.60458111615294
 20
176.8549546794028
 30
0.0
  0
VERTEX
  5
18A
330
188
100
AcDbEntity
  8
SOMBREA
 62
     7
420
 16777215
370
     9
100
AcDbVertex
100
AcDb2dVertex
 10
88.74382344132621
 20
177.7157123542295
 30
0.0
  0
SEQEND
  5
18B
330
188
100
AcDbEntity
  8
SOMBREA
370
     9
  0
POLYLINE
  5
18C
330
112
100
AcDbEntity
  8
SOMBREA
 62
     7
420
 16777215
370
     9
100
AcDb2dPolyline
 66
     1
 10
0.0
 20
0.0
 30
0.0
  0
VERTEX
  5
18D
330
18C
100
AcDbEntity
  8
SOMBREA
 62
     7
420
 16777215
370
     9
100
AcDbVertex
100
AcDb2dVertex
 10
89.54790925803448
 20
177.5296770752996
 30
0.0
  0
VERTEX
  5
18E
330
18C
100
AcDbEntity
  8
SOMBREA
 62
     7
420
 16777215
370
     9
100
AcDbVertex
100
AcDb2dVertex
 10
88.68594579899246
 20
178.3918127892295
 30
0.0
  0
SEQEND
  5
18F
330
18C
100
AcDbEntity
  8
SOMBREA
370
     9
  0
POLYLINE
  5
190
330
112
100
AcDbEntity
  8
SOMBREA
 62
     7
420
 16777215
370
     9
100
AcDb2dPolyline
 66
     1
 10
0.0
 20
0.0
 30
0.0
  0
VERTEX
  5
191
330
190
100
AcDbEntity
  8
SOMBREA
 62
     7
420
 16777215
370
     9
100
AcDbVertex
100
AcDb2dVertex
 10
89.491237399916
 20
178.2045717260843
 30
0.0
  0
VERTEX
  5
192
330
190
100
AcDbEntity
  8
SOMBREA
 62
     7
420
 16777215
370
     9
100
AcDbVertex
100
AcDb2dVertex
 10
88.6278959017708
 20
179.0679132242295
 30
0.0
  0
SEQEND
  5
193
330
190
100
AcDbEntity
  8
SOMBREA
370
     9
  0
POLYLINE
  5
194
330
112
100
AcDbEntity
  8
SOMBREA
 62
     7
420
 16777215
370
     9
100
AcDb2dPolyline
 66
     1
 10
0.0
 20
0.0
 30
0.0
  0
VERTEX
  5
195
330
194
100
AcDbEntity
  8
SOMBREA
 62
     7
420
 16777215
370
     9
100
AcDbVertex
100
AcDb2dVertex
 10
89.43456554179754
 20
178.8794663768689
 30
0.0
  0
VERTEX
  5
196
330
194
100
AcDbEntity
  8
SOMBREA
 62
     7
420
 16777215
370
     9
100
AcDbVertex
100
AcDb2dVertex
 10
88.57001825943705
 20
179.7440136592294
 30
0.0
  0
SEQEND
  5
197
330
194
100
AcDbEntity
  8
SOMBREA
370
     9
  0
POLYLINE
  5
198
330
112
100
AcDbEntity
  8
SOMBREA
 62
     7
420
 16777215
370
     9
100
AcDb2dPolyline
 66
     1
 10
0.0
 20
0.0
 30
0.0
  0
VERTEX
  5
199
330
198
100
AcDbEntity
  8
SOMBREA
 62
     7
420
 16777215
370
     9
100
AcDbVertex
100
AcDb2dVertex
 10
89.37789368367906
 20
179.5543610276536
 30
0.0
  0
VERTEX
  5
19A
330
198
100
AcDbEntity
  8
SOMBREA
 62
     7
420
 16777215
370
     9
100
AcDbVertex
100
AcDb2dVertex
 10
88.5119683622154
 20
180.4202863491173
 30
0.0
  0
SEQEND
  5
19B
330
198
100
AcDbEntity
  8
SOMBREA
370
     9
  0
POLYLINE
  5
19C
330
112
100
AcDbEntity
  8
SOMBREA
 62
     7
420
 16777215
370
     9
100
AcDb2dPolyline
 66
     1
 10
0.0
 20
0.0
 30
0.0
  0
VERTEX
  5
19D
330
19C
100
AcDbEntity
  8
SOMBREA
 62
     7
420
 16777215
370
     9
100
AcDbVertex
100
AcDb2dVertex
 10
99.05258946247497
 20
170.4977157866361
 30
0.0
  0
VERTEX
  5
19E
330
19C
100
AcDbEntity
  8
SOMBREA
 62
     7
420
 16777215
370
     9
100
AcDbVertex
100
AcDb2dVertex
 10
98.46743960828519
 20
171.0828656408258
 30
0.0
  0
SEQEND
  5
19F
330
19C
100
AcDbEntity
  8
SOMBREA
370
     9
  0
POLYLINE
  5
1A0
330
112
100
AcDbEntity
  8
SOMBREA
 62
     7
420
 16777215
370
     9
100
AcDb2dPolyline
 66
     1
 10
0.0
 20
0.0
 30
0.0
  0
VERTEX
  5
1A1
330
1A0
100
AcDbEntity
  8
SOMBREA
 62
     7
420
 16777215
370
     9
100
AcDbVertex
100
AcDb2dVertex
 10
94.7968602020649
 20
174.753617301934
 30
0.0
  0
VERTEX
  5
1A2
330
1A0
100
AcDbEntity
  8
SOMBREA
 62
     7
420
 16777215
370
     9
100
AcDbVertex
100
AcDb2dVertex
 10
93.25638473959233
 20
176.2939205095187
 30
0.0
  0
SEQEND
  5
1A3
330
1A0
100
AcDbEntity
  8
SOMBREA
370
     9
  0
POLYLINE
  5
1A4
330
112
100
AcDbEntity
  8
SOMBREA
 62
     7
420
 16777215
370
     9
100
AcDb2dPolyline
 66
     1
 10
0.0
 20
0.0
 30
0.0
  0
VERTEX
  5
1A5
330
1A4
100
AcDbEntity
  8
SOMBREA
 62
     7
420
 16777215
370
     9
100
AcDbVertex
100
AcDb2dVertex
 10
89.3212218255606
 20
180.2292556784383
 30
0.0
  0
VERTEX
  5
1A6
330
1A4
100
AcDbEntity
  8
SOMBREA
 62
     7
420
 16777215
370
     9
100
AcDbVertex
100
AcDb2dVertex
 10
88.57656394517717
 20
180.9737413039339
 30
0.0
  0
SEQEND
  5
1A7
330
1A4
100
AcDbEntity
  8
SOMBREA
370
     9
  0
POLYLINE
  5
1A8
330
112
100
AcDbEntity
  8
SOMBREA
 62
     7
420
 16777215
370
     9
100
AcDb2dPolyline
 66
     1
 10
0.0
 20
0.0
 30
0.0
  0
VERTEX
  5
1A9
330
1A8
100
AcDbEntity
  8
SOMBREA
 62
     7
420
 16777215
370
     9
100
AcDbVertex
100
AcDb2dVertex
 10
99.44446933244312
 20
170.7240587093341
 30
0.0
  0
VERTEX
  5
1AA
330
1A8
100
AcDbEntity
  8
SOMBREA
 62
     7
420
 16777215
370
     9
100
AcDbVertex
100
AcDb2dVertex
 10
98.85931947825333
 20
171.309208563524
 30
0.0
  0
SEQEND
  5
1AB
330
1A8
100
AcDbEntity
  8
SOMBREA
370
     9
  0
POLYLINE
  5
1AC
330
112
100
AcDbEntity
  8
SOMBREA
 62
     7
420
 16777215
370
     9
100
AcDb2dPolyline
 66
     1
 10
0.0
 20
0.0
 30
0.0
  0
VERTEX
  5
1AD
330
1AC
100
AcDbEntity
  8
SOMBREA
 62
     7
420
 16777215
370
     9
100
AcDbVertex
100
AcDb2dVertex
 10
97.0723472711986
 20
173.0961807705787
 30
0.0
  0
VERTEX
  5
1AE
330
1AC
100
AcDbEntity
  8
SOMBREA
 62
     7
420
 16777215
370
     9
100
AcDbVertex
100
AcDb2dVertex
 10
91.01465962848667
 20
179.1538684132906
 30
0.0
  0
SEQEND
  5
1AF
330
1AC
100
AcDbEntity
  8
SOMBREA
370
     9
  0
POLYLINE
  5
1B0
330
112
100
AcDbEntity
  8
SOMBREA
 62
     7
420
 16777215
370
     9
100
AcDb2dPolyline
 66
     1
 10
0.0
 20
0.0
 30
0.0
  0
VERTEX
  5
1B1
330
1B0
100
AcDbEntity
  8
SOMBREA
 62
     7
420
 16777215
370
     9
100
AcDbVertex
100
AcDb2dVertex
 10
89.45661416744849
 20
180.7119138743288
 30
0.0
  0
VERTEX
  5
1B2
330
1B0
100
AcDbEntity
  8
SOMBREA
 62
     7
420
 16777215
370
     9
100
AcDbVertex
100
AcDb2dVertex
 10
88.81048608294277
 20
181.3580419588345
 30
0.0
  0
SEQEND
  5
1B3
330
1B0
100
AcDbEntity
  8
SOMBREA
370
     9
  0
POLYLINE
  5
1B4
330
112
100
AcDbEntity
  8
SOMBREA
 62
     7
420
 16777215
370
     9
100
AcDb2dPolyline
 66
     1
 10
0.0
 20
0.0
 30
0.0
  0
VERTEX
  5
1B5
330
1B4
100
AcDbEntity
  8
SOMBREA
 62
     7
420
 16777215
370
     9
100
AcDbVertex
100
AcDb2dVertex
 10
99.91799801927495
 20
170.8687528151685
 30
0.0
  0
VERTEX
  5
1B6
330
1B4
100
AcDbEntity
  8
SOMBREA
 62
     7
420
 16777215
370
     9
100
AcDbVertex
100
AcDb2dVertex
 10
95.77182286756806
 20
175.0151002217633
 30
0.0
  0
SEQEND
  5
1B7
330
1B4
100
AcDbEntity
  8
SOMBREA
370
     9
  0
POLYLINE
  5
1B8
330
112
100
AcDbEntity
  8
SOMBREA
 62
     7
420
 16777215
370
     9
100
AcDb2dPolyline
 66
     1
 10
0.0
 20
0.0
 30
0.0
  0
VERTEX
  5
1B9
330
1B8
100
AcDbEntity
  8
SOMBREA
 62
     7
420
 16777215
370
     9
100
AcDbVertex
100
AcDb2dVertex
 10
92.971302900121
 20
177.8154479343225
 30
0.0
  0
VERTEX
  5
1BA
330
1B8
100
AcDbEntity
  8
SOMBREA
 62
     7
420
 16777215
370
     9
100
AcDbVertex
100
AcDb2dVertex
 10
89.24594643954913
 20
181.5408043948944
 30
0.0
  0
SEQEND
  5
1BB
330
1B8
100
AcDbEntity
  8
SOMBREA
370
     9
  0
POLYLINE
  5
1BC
330
112
100
AcDbEntity
  8
SOMBREA
 62
     7
420
 16777215
370
     9
100
AcDb2dPolyline
 66
     1
 10
0.0
 20
0.0
 30
0.0
  0
VERTEX
  5
1BD
330
1BC
100
AcDbEntity
  8
SOMBREA
 62
     7
420
 16777215
370
     9
100
AcDbVertex
100
AcDb2dVertex
 10
100.764630793294
 20
170.6403428338157
 30
0.0
  0
VERTEX
  5
1BE
330
1BC
100
AcDbEntity
  8
SOMBREA
 62
     7
420
 16777215
370
     9
100
AcDbVertex
100
AcDb2dVertex
 10
98.3759722628113
 20
173.0290013642984
 30
0.0
  0
SEQEND
  5
1BF
330
1BC
100
AcDbEntity
  8
SOMBREA
370
     9
  0
POLYLINE
  5
1C0
330
112
100
AcDbEntity
  8
SOMBREA
 62
     7
420
 16777215
370
     9
100
AcDb2dPolyline
 66
     1
 10
0.0
 20
0.0
 30
0.0
  0
VERTEX
  5
1C1
330
1C0
100
AcDbEntity
  8
SOMBREA
 62
     7
420
 16777215
370
     9
100
AcDbVertex
100
AcDb2dVertex
 10
91.12386922741405
 20
180.2811043996957
 30
0.0
  0
VERTEX
  5
1C2
330
1C0
100
AcDbEntity
  8
SOMBREA
 62
     7
420
 16777215
370
     9
100
AcDbVertex
100
AcDb2dVertex
 10
90.05416637356694
 20
181.3508072535428
 30
0.0
  0
SEQEND
  5
1C3
330
1C0
100
AcDbEntity
  8
SOMBREA
370
     9
  0
POLYLINE
  5
1C4
330
112
100
AcDbEntity
  8
SOMBREA
 62
     7
420
 16777215
370
     9
100
AcDb2dPolyline
 66
     1
 10
0.0
 20
0.0
 30
0.0
  0
VERTEX
  5
1C5
330
1C4
100
AcDbEntity
  8
SOMBREA
 62
     7
420
 16777215
370
     9
100
AcDbVertex
100
AcDb2dVertex
 10
101.7607808100087
 20
170.2624156097673
 30
0.0
  0
VERTEX
  5
1C6
330
1C4
100
AcDbEntity
  8
SOMBREA
 62
     7
420
 16777215
370
     9
100
AcDbVertex
100
AcDb2dVertex
 10
99.60690569173101
 20
172.4162907280449
 30
0.0
  0
SEQEND
  5
1C7
330
1C4
100
AcDbEntity
  8
SOMBREA
370
     9
  0
POLYLINE
  5
1C8
330
112
100
AcDbEntity
  8
SOMBREA
 62
     7
420
 16777215
370
     9
100
AcDb2dPolyline
 66
     1
 10
0.0
 20
0.0
 30
0.0
  0
VERTEX
  5
1C9
330
1C8
100
AcDbEntity
  8
SOMBREA
 62
     7
420
 16777215
370
     9
100
AcDbVertex
100
AcDb2dVertex
 10
102.7569308267233
 20
169.8844883857189
 30
0.0
  0
VERTEX
  5
1CA
330
1C8
100
AcDbEntity
  8
SOMBREA
 62
     7
420
 16777215
370
     9
100
AcDbVertex
100
AcDb2dVertex
 10
100.8378391206507
 20
171.8035800917914
 30
0.0
  0
SEQEND
  5
1CB
330
1C8
100
AcDbEntity
  8
SOMBREA
370
     9
  0
POLYLINE
  5
1CC
330
112
100
AcDbEntity
  8
SOMBREA
 62
     7
420
 16777215
370
     9
100
AcDb2dPolyline
 66
     1
 10
0.0
 20
0.0
 30
0.0
  0
VERTEX
  5
1CD
330
1CC
100
AcDbEntity
  8
SOMBREA
 62
     7
420
 16777215
370
     9
100
AcDbVertex
100
AcDb2dVertex
 10
103.6574793806545
 20
169.6021626244539
 30
0.0
  0
VERTEX
  5
1CE
330
1CC
100
AcDbEntity
  8
SOMBREA
 62
     7
420
 16777215
370
     9
100
AcDbVertex
100
AcDb2dVertex
 10
102.0687725495704
 20
171.19069720065
 30
0.0
  0
SEQEND
  5
1CF
330
1CC
100
AcDbEntity
  8
SOMBREA
370
     9
  0
POLYLINE
  5
1D0
330
112
100
AcDbEntity
  8
SOMBREA
 62
     7
420
 16777215
370
     9
100
AcDb2dPolyline
 66
     1
 10
0.0
 20
0.0
 30
0.0
  0
VERTEX
  5
1D1
330
1D0
100
AcDbEntity
  8
SOMBREA
 62
     7
420
 16777215
370
     9
100
AcDbVertex
100
AcDb2dVertex
 10
104.449335100322
 20
169.4283574425648
 30
0.0
  0
VERTEX
  5
1D2
330
1D0
100
AcDbEntity
  8
SOMBREA
 62
     7
420
 16777215
370
     9
100
AcDbVertex
100
AcDb2dVertex
 10
102.9891304156099
 20
170.8887343821647
 30
0.0
  0
SEQEND
  5
1D3
330
1D0
100
AcDbEntity
  8
SOMBREA
370
     9
  0
POLYLINE
  5
1D4
330
112
100
AcDbEntity
  8
SOMBREA
 62
     7
420
 16777215
370
     9
100
AcDb2dPolyline
 66
     1
 10
0.0
 20
0.0
 30
0.0
  0
VERTEX
  5
1D5
330
1D4
100
AcDbEntity
  8
SOMBREA
 62
     7
420
 16777215
370
     9
100
AcDbVertex
100
AcDb2dVertex
 10
105.2413630748774
 20
169.2547245155635
 30
0.0
  0
VERTEX
  5
1D6
330
1D4
100
AcDbEntity
  8
SOMBREA
 62
     7
420
 16777215
370
     9
100
AcDbVertex
100
AcDb2dVertex
 10
103.795111036085
 20
170.7008042994679
 30
0.0
  0
SEQEND
  5
1D7
330
1D4
100
AcDbEntity
  8
SOMBREA
370
     9
  0
POLYLINE
  5
1D8
330
112
100
AcDbEntity
  8
SOMBREA
 62
     7
420
 16777215
370
     9
100
AcDb2dPolyline
 66
     1
 10
0.0
 20
0.0
 30
0.0
  0
VERTEX
  5
1D9
330
1D8
100
AcDbEntity
  8
SOMBREA
 62
     7
420
 16777215
370
     9
100
AcDbVertex
100
AcDb2dVertex
 10
106.033046539657
 20
169.0809193336743
 30
0.0
  0
VERTEX
  5
1DA
330
1D8
100
AcDbEntity
  8
SOMBREA
 62
     7
420
 16777215
370
     9
100
AcDbVertex
100
AcDb2dVertex
 10
104.6010916565602
 20
170.513046471659
 30
0.0
  0
SEQEND
  5
1DB
330
1D8
100
AcDbEntity
  8
SOMBREA
370
     9
  0
POLYLINE
  5
1DC
330
112
100
AcDbEntity
  8
SOMBREA
 62
     7
420
 16777215
370
     9
100
AcDb2dPolyline
 66
     1
 10
0.0
 20
0.0
 30
0.0
  0
VERTEX
  5
1DD
330
1DC
100
AcDbEntity
  8
SOMBREA
 62
     7
420
 16777215
370
     9
100
AcDbVertex
100
AcDb2dVertex
 10
108.1638395029563
 20
167.5685214179291
 30
0.0
  0
VERTEX
  5
1DE
330
1DC
100
AcDbEntity
  8
SOMBREA
 62
     7
420
 16777215
370
     9
100
AcDbVertex
100
AcDb2dVertex
 10
105.4070722770353
 20
170.3251163889622
 30
0.0
  0
SEQEND
  5
1DF
330
1DC
100
AcDbEntity
  8
SOMBREA
370
     9
  0
POLYLINE
  5
1E0
330
112
100
AcDbEntity
  8
SOMBREA
 62
     7
420
 16777215
370
     9
100
AcDb2dPolyline
 66
     1
 10
0.0
 20
0.0
 30
0.0
  0
VERTEX
  5
1E1
330
1E0
100
AcDbEntity
  8
SOMBREA
 62
     7
420
 16777215
370
     9
100
AcDbVertex
100
AcDb2dVertex
 10
108.6716469124798
 20
167.6789368010718
 30
0.0
  0
VERTEX
  5
1E2
330
1E0
100
AcDbEntity
  8
SOMBREA
 62
     7
420
 16777215
370
     9
100
AcDbVertex
100
AcDb2dVertex
 10
106.2132251523984
 20
170.1373585611533
 30
0.0
  0
SEQEND
  5
1E3
330
1E0
100
AcDbEntity
  8
SOMBREA
370
     9
  0
POLYLINE
  5
1E4
330
112
100
AcDbEntity
  8
SOMBREA
 62
     7
420
 16777215
370
     9
100
AcDb2dPolyline
 66
     1
 10
0.0
 20
0.0
 30
0.0
  0
VERTEX
  5
1E5
330
1E4
100
AcDbEntity
  8
SOMBREA
 62
     7
420
 16777215
370
     9
100
AcDbVertex
100
AcDb2dVertex
 10
108.6716469124798
 20
168.297159593738
 30
0.0
  0
VERTEX
  5
1E6
330
1E4
100
AcDbEntity
  8
SOMBREA
 62
     7
420
 16777215
370
     9
100
AcDbVertex
100
AcDb2dVertex
 10
107.0190335179856
 20
169.9496007333444
 30
0.0
  0
SEQEND
  5
1E7
330
1E4
100
AcDbEntity
  8
SOMBREA
370
     9
  0
ENDBLK
  5
115
330
112
100
AcDbEntity
  8
0
100
AcDbBlockEnd
  0
BLOCK
  5
1EB
330
1E9
100
AcDbEntity
  8
0
100
AcDbBlockBegin
  2
block 4
 70
     0
 71
     0
 10
0.0
 20
0.0
 30
0.0
  3
block 4
  1

  0
SPLINE
  5
1ED
330
1E9
100
AcDbEntity
  8
0
 62
     7
420
 16777215
370
     9
100
AcDbSpline
210
0.0
220
0.0
230
1.0
 70
     8
 71
     3
 72
     8
 73
     4
 74
     0
 42
0.0000000001
 43
0.0000000001
 40
0.0
 40
0.0
 40
0.0
 40
0.0
 40
1.0
 40
1.0
 40
1.0
 40
1.0
 10
107.4296891707346
 20
168.0599646131024
 30
0.0
 10
107.4021283886709
 20
168.5086885960769
 30
0.0
 10
107.0224786157436
 20
168.9095257202157
 30
0.0
 10
106.5759939463117
 20
168.9618912061368
 30
0.0
  0
ENDBLK
  5
1EC
330
1E9
100
AcDbEntity
  8
0
100
AcDbBlockEnd
  0
BLOCK
  5
1F0
330
1EE
100
AcDbEntity
  8
0
100
AcDbBlockBegin
  2
block 5
 70
     0
 71
     0
 10
0.0
 20
0.0
 30
0.0
  3
block 5
  1

  0
SPLINE
  5
1F2
330
1EE
100
AcDbEntity
  8
0
 62
     7
420
 16777215
370
     9
100
AcDbSpline
210
0.0
220
0.0
230
1.0
 70
     8
 71
     3
 72
     8
 73
     4
 74
     0
 42
0.0000000001
 43
0.0000000001
 40
0.0
 40
0.0
 40
0.0
 40
0.0
 40
1.0
 40
1.0
 40
1.0
 40
1.0
 10
100.1374507464571
 20
170.8783990888908
 30
0.0
 10
100.0070537963183
 20
170.9478178087138
 30
0.0
 10
99.80052018572846
 20
170.9388605545431
 30
0.0
 10
99.67666892132974
 20
170.8580730121189
 30
0.0
  0
ENDBLK
  5
1F1
330
1EE
100
AcDbEntity
  8
0
100
AcDbBlockEnd
  0
BLOCK
  5
1F5
330
1F3
100
AcDbEntity
  8
0
100
AcDbBlockBegin
  2
block 6
 70
     0
 71
     0
 10
0.0
 20
0.0
 30
0.0
  3
block 6
  1

  0
SPLINE
  5
1F7
330
1F3
100
AcDbEntity
  8
0
 62
     7
420
 16777215
370
     9
100
AcDbSpline
210
0.0
220
0.0
230
1.0
 70
     8
 71
     3
 72
     8
 73
     4
 74
     0
 42
0.0000000001
 43
0.0000000001
 40
0.0
 40
0.0
 40
0.0
 40
0.0
 40
1.0
 40
1.0
 40
1.0
 40
1.0
 10
100.1374507464571
 20
170.8783990888908
 30
0.0
 10
101.7234014993348
 20
170.0629444495813
 30
0.0
 10
104.802457620513
 20
169.1463761910756
 30
0.0
 10
106.5759939463117
 20
168.9618912061368
 30
0.0
  0
ENDBLK
  5
1F6
330
1F3
100
AcDbEntity
  8
0
100
AcDbBlockEnd
  0
BLOCK
  5
1FA
330
1F8
100
AcDbEntity
  8
0
100
AcDbBlockBegin
  2
block 7
 70
     0
 71
     0
 10
0.0
 20
0.0
 30
0.0
  3
block 7
  1

  0
SPLINE
  5
1FC
330
1F8
100
AcDbEntity
  8
0
 62
     7
420
 16777215
370
     9
100
AcDbSpline
210
0.0
220
0.0
230
1.0
 70
     8
 71
     3
 72
     8
 73
     4
 74
     0
 42
0.0000000001
 43
0.0000000001
 40
0.0
 40
0.0
 40
0.0
 40
0.0
 40
1.0
 40
1.0
 40
1.0
 40
1.0
 10
131.1915619367238
 20
167.5685214179291
 30
0.0
 10
131.31971957332
 20
167.5645595555075
 30
0.0
 10
131.4475327001403
 20
167.6606777829546
 30
0.0
 10
131.4795721092894
 20
167.7847013022412
 30
0.0
  0
ENDBLK
  5
1FB
330
1F8
100
AcDbEntity
  8
0
100
AcDbBlockEnd
  0
BLOCK
  5
1FF
330
1FD
100
AcDbEntity
  8
0
100
AcDbBlockBegin
  2
block 8
 70
     0
 71
     0
 10
0.0
 20
0.0
 30
0.0
  3
block 8
  1

  0
SPLINE
  5
201
330
1FD
100
AcDbEntity
  8
0
 62
     7
420
 16777215
370
     9
100
AcDbSpline
210
0.0
220
0.0
230
1.0
 70
     8
 71
     3
 72
     8
 73
     4
 74
     0
 42
0.0000000001
 43
0.0000000001
 40
0.0
 40
0.0
 40
0.0
 40
0.0
 40
1.0
 40
1.0
 40
1.0
 40
1.0
 10
130.8914939220053
 20
168.6409803499826
 30
0.0
 10
131.8444079618575
 20
171.6830016702628
 30
0.0
 10
132.6922465200919
 20
177.4623254141314
 30
0.0
 10
132.6533169154269
 20
180.6497298597976
 30
0.0
  0
ENDBLK
  5
200
330
1FD
100
AcDbEntity
  8
0
100
AcDbBlockEnd
  0
BLOCK
  5
204
330
202
100
AcDbEntity
  8
0
100
AcDbBlockBegin
  2
block 9
 70
     0
 71
     0
 10
0.0
 20
0.0
 30
0.0
  3
block 9
  1

  0
SPLINE
  5
206
330
202
100
AcDbEntity
  8
0
 62
     7
420
 16777215
370
     9
100
AcDbSpline
210
0.0
220
0.0
230
1.0
 70
     8
 71
     3
 72
     8
 73
     4
 74
     0
 42
0.0000000001
 43
0.0000000001
 40
0.0
 40
0.0
 40
0.0
 40
0.0
 40
1.0
 40
1.0
 40
1.0
 40
1.0
 10
131.4795721092894
 20
167.7847013022412
 30
0.0
 10
132.5616773150651
 20
171.0652956422603
 30
0.0
 10
133.5104572376078
 20
177.2874867029149
 30
0.0
 10
133.4546466539288
 20
180.7415417150472
 30
0.0
  0
ENDBLK
  5
205
330
202
100
AcDbEntity
  8
0
100
AcDbBlockEnd
  0
BLOCK
  5
209
330
207
100
AcDbEntity
  8
0
100
AcDbBlockBegin
  2
block 10
 70
     0
 71
     0
 10
0.0
 20
0.0
 30
0.0
  3
block 10
  1

  0
SPLINE
  5
20B
330
207
100
AcDbEntity
  8
0
 62
     7
420
 16777215
370
     9
100
AcDbSpline
210
0.0
220
0.0
230
1.0
 70
     8
 71
     3
 72
     8
 73
     4
 74
     0
 42
0.0000000001
 43
0.0000000001
 40
0.0
 40
0.0
 40
0.0
 40
0.0
 40
1.0
 40
1.0
 40
1.0
 40
1.0
 10
89.28590957354149
 20
180.6493853500218
 30
0.0
 10
89.24680771398862
 20
177.4621531592435
 30
0.0
 10
90.09464627222299
 20
171.6828294153749
 30
0.0
 10
91.04773256696309
 20
168.6409803499826
 30
0.0
  0
ENDBLK
  5
20A
330
207
100
AcDbEntity
  8
0
100
AcDbBlockEnd
  0
BLOCK
  5
20E
330
20C
100
AcDbEntity
  8
0
100
AcDbBlockBegin
  2
block 11
 70
     0
 71
     0
 10
0.0
 20
0.0
 30
0.0
  3
block 11
  1

  0
SPLINE
  5
210
330
20C
100
AcDbEntity
  8
0
 62
     7
420
 16777215
370
     9
100
AcDbSpline
210
0.0
220
0.0
230
1.0
 70
     8
 71
     3
 72
     8
 73
     4
 74
     0
 42
0.0000000001
 43
0.0000000001
 40
0.0
 40
0.0
 40
0.0
 40
0.0
 40
1.0
 40
1.0
 40
1.0
 40
1.0
 10
88.4844075801517
 20
180.7415417150472
 30
0.0
 10
88.42876925136062
 20
177.2874867029149
 30
0.0
 10
89.37720466412748
 20
171.0652956422603
 30
0.0
 10
90.45965437967904
 20
167.7847013022412
 30
0.0
  0
ENDBLK
  5
20F
330
20C
100
AcDbEntity
  8
0
100
AcDbBlockEnd
  0
BLOCK
  5
213
330
211
100
AcDbEntity
  8
0
100
AcDbBlockBegin
  2
block 12
 70
     0
 71
     0
 10
0.0
 20
0.0
 30
0.0
  3
block 12
  1

  0
SPLINE
  5
215
330
211
100
AcDbEntity
  8
0
 62
     7
420
 16777215
370
     9
100
AcDbSpline
210
0.0
220
0.0
230
1.0
 70
     8
 71
     3
 72
     8
 73
     4
 74
     0
 42
0.0000000001
 43
0.0000000001
 40
0.0
 40
0.0
 40
0.0
 40
0.0
 40
1.0
 40
1.0
 40
1.0
 40
1.0
 10
90.45965437967904
 20
167.7847013022412
 30
0.0
 10
90.49152153394019
 20
167.6606777829546
 30
0.0
 10
90.61933466076056
 20
167.5645595555075
 30
0.0
 10
90.74749229735673
 20
167.5685214179291
 30
0.0
  0
ENDBLK
  5
214
330
211
100
AcDbEntity
  8
0
100
AcDbBlockEnd
  0
BLOCK
  5
218
330
216
100
AcDbEntity
  8
0
100
AcDbBlockBegin
  2
block 13
 70
     0
 71
     0
 10
0.0
 20
0.0
 30
0.0
  3
block 13
  1

  0
POLYLINE
  5
21A
330
216
100
AcDbEntity
  8
0
 62
     7
420
 16777215
370
     9
100
AcDb2dPolyline
 66
     1
 10
0.0
 20
0.0
 30
0.0
  0
VERTEX
  5
21B
330
21A
100
AcDbEntity
  8
0
 62
     7
420
 16777215
370
     9
100
AcDbVertex
100
AcDb2dVertex
 10
113.2701633998071
 20
168.7176337750973
 30
0.0
  0
VERTEX
  5
21C
330
21A
100
AcDbEntity
  8
0
 62
     7
420
 16777215
370
     9
100
AcDbVertex
100
AcDb2dVertex
 10
114.5689652545586
 20
169.8665738773775
 30
0.0
  0
SEQEND
  5
21D
330
21A
100
AcDbEntity
  8
0
370
     9
  0
ENDBLK
  5
219
330
216
100
AcDbEntity
  8
0
100
AcDbBlockEnd
  0
BLOCK
  5
220
330
21E
100
AcDbEntity
  8
0
100
AcDbBlockBegin
  2
block 14
 70
     0
 71
     0
 10
0.0
 20
0.0
 30
0.0
  3
block 14
  1

  0
POLYLINE
  5
222
330
21E
100
AcDbEntity
  8
0
 62
     7
420
 16777215
370
     9
100
AcDb2dPolyline
 66
     1
 10
0.0
 20
0.0
 30
0.0
  0
VERTEX
  5
223
330
222
100
AcDbEntity
  8
0
 62
     7
420
 16777215
370
     9
100
AcDbVertex
100
AcDb2dVertex
 10
107.3728450577283
 20
169.8665738773775
 30
0.0
  0
VERTEX
  5
224
330
222
100
AcDbEntity
  8
0
 62
     7
420
 16777215
370
     9
100
AcDbVertex
100
AcDb2dVertex
 10
108.6716469124798
 20
168.7176337750973
 30
0.0
  0
SEQEND
  5
225
330
222
100
AcDbEntity
  8
0
370
     9
  0
ENDBLK
  5
221
330
21E
100
AcDbEntity
  8
0
100
AcDbBlockEnd
  0
BLOCK
  5
228
330
226
100
AcDbEntity
  8
0
100
AcDbBlockBegin
  2
block 15
 70
     0
 71
     0
 10
0.0
 20
0.0
 30
0.0
  3
block 15
  1

  0
SPLINE
  5
22A
330
226
100
AcDbEntity
  8
0
 62
     7
420
 16777215
370
     9
100
AcDbSpline
210
0.0
220
0.0
230
1.0
 70
    11
 71
     3
 72
    23
 73
    19
 74
     0
 42
0.0000000001
 43
0.0000000001
 40
0.0
 40
0.0
 40
0.0
 40
0.0
 40
1.0
 40
1.0
 40
1.0
 40
2.0
 40
2.0
 40
2.0
 40
3.0
 40
3.0
 40
3.0
 40
4.0
 40
4.0
 40
4.0
 40
5.0
 40
5.0
 40
5.0
 40
6.0
 40
6.0
 40
6.0
 40
6.0
 10
113.2701633998071
 20
117.6604237276655
 30
0.0
 10
113.2701633998071
 20
118.9295977416986
 30
0.0
 10
112.2411126995039
 20
119.9586484420018
 30
0.0
 10
110.9719386854708
 20
119.9586484420018
 30
0.0
 10
109.7027646714377
 20
119.9586484420018
 30
0.0
 10
108.6740584809104
 20
118.9295977416986
 30
0.0
 10
108.6740584809104
 20
117.6604237276655
 30
0.0
 10
108.6740584809104
 20
116.3912497136325
 30
0.0
 10
109.7027646714377
 20
115.3625435231051
 30
0.0
 10
110.9719386854708
 20
115.3625435231051
 30
0.0
 10
112.2411126995039
 20
115.3625435231051
 30
0.0
 10
113.2701633998071
 20
116.3912497136325
 30
0.0
 10
113.2701633998071
 20
117.6604237276655
 30
0.0
 10
113.2701633998071
 20
117.6604237276655
 30
0.0
 10
113.2701633998071
 20
117.6604237276655
 30
0.0
 10
113.2701633998071
 20
117.6604237276655
 30
0.0
 10
113.2701633998071
 20
117.6604237276655
 30
0.0
 10
113.2701633998071
 20
117.6604237276655
 30
0.0
 10
113.2701633998071
 20
117.6604237276655
 30
0.0
  0
ENDBLK
  5
229
330
226
100
AcDbEntity
  8
0
100
AcDbBlockEnd
  0
BLOCK
  5
22D
330
22B
100
AcDbEntity
  8
0
100
AcDbBlockBegin
  2
block 16
 70
     0
 71
     0
 10
0.0
 20
0.0
 30
0.0
  3
block 16
  1

  0
POLYLINE
  5
22F
330
22B
100
AcDbEntity
  8
0
 62
     7
420
 16777215
370
     9
100
AcDb2dPolyline
 66
     1
 10
0.0
 20
0.0
 30
0.0
  0
VERTEX
  5
230
330
22F
100
AcDbEntity
  8
0
 62
     7
420
 16777215
370
     9
100
AcDbVertex
100
AcDb2dVertex
 10
107.7473271840187
 20
167.5685214179291
 30
0.0
  0
VERTEX
  5
231
330
22F
100
AcDbEntity
  8
0
 62
     7
420
 16777215
370
     9
100
AcDbVertex
100
AcDb2dVertex
 10
108.6716469124798
 20
167.5685214179291
 30
0.0
  0
SEQEND
  5
232
330
22F
100
AcDbEntity
  8
0
370
     9
  0
ENDBLK
  5
22E
330
22B
100
AcDbEntity
  8
0
100
AcDbBlockEnd
  0
BLOCK
  5
235
330
233
100
AcDbEntity
  8
0
100
AcDbBlockBegin
  2
block 17
 70
     0
 71
     0
 10
0.0
 20
0.0
 30
0.0
  3
block 17
  1

  0
POLYLINE
  5
237
330
233
100
AcDbEntity
  8
0
 62
     7
420
 16777215
370
     9
100
AcDb2dPolyline
 66
     1
 10
0.0
 20
0.0
 30
0.0
  0
VERTEX
  5
238
330
237
100
AcDbEntity
  8
0
 62
     7
420
 16777215
370
     9
100
AcDbVertex
100
AcDb2dVertex
 10
107.4486372084034
 20
167.8422344347992
 30
0.0
  0
VERTEX
  5
239
330
237
100
AcDbEntity
  8
0
 62
     7
420
 16777215
370
     9
100
AcDbVertex
100
AcDb2dVertex
 10
107.4296891707346
 20
168.0599646131024
 30
0.0
  0
SEQEND
  5
23A
330
237
100
AcDbEntity
  8
0
370
     9
  0
ENDBLK
  5
236
330
233
100
AcDbEntity
  8
0
100
AcDbBlockEnd
  0
BLOCK
  5
23D
330
23B
100
AcDbEntity
  8
0
100
AcDbBlockBegin
  2
block 18
 70
     0
 71
     0
 10
0.0
 20
0.0
 30
0.0
  3
block 18
  1

  0
POLYLINE
  5
23F
330
23B
100
AcDbEntity
  8
0
 62
     7
420
 16777215
370
     9
100
AcDb2dPolyline
 66
     1
 10
0.0
 20
0.0
 30
0.0
  0
VERTEX
  5
240
330
23F
100
AcDbEntity
  8
0
 62
     7
420
 16777215
370
     9
100
AcDbVertex
100
AcDb2dVertex
 10
108.6716469124798
 20
168.7176337750973
 30
0.0
  0
VERTEX
  5
241
330
23F
100
AcDbEntity
  8
0
 62
     7
420
 16777215
370
     9
100
AcDbVertex
100
AcDb2dVertex
 10
108.6716469124798
 20
167.5685214179291
 30
0.0
  0
SEQEND
  5
242
330
23F
100
AcDbEntity
  8
0
370
     9
  0
ENDBLK
  5
23E
330
23B
100
AcDbEntity
  8
0
100
AcDbBlockEnd
  0
BLOCK
  5
245
330
243
100
AcDbEntity
  8
0
100
AcDbBlockBegin
  2
block 19
 70
     0
 71
     0
 10
0.0
 20
0.0
 30
0.0
  3
block 19
  1

  0
POLYLINE
  5
247
330
243
100
AcDbEntity
  8
0
 62
     7
420
 16777215
370
     9
100
AcDb2dPolyline
 66
     1
 10
0.0
 20
0.0
 30
0.0
  0
VERTEX
  5
248
330
247
100
AcDbEntity
  8
0
 62
     7
420
 16777215
370
     9
100
AcDbVertex
100
AcDb2dVertex
 10
113.2677518313765
 20
167.5685214179291
 30
0.0
  0
VERTEX
  5
249
330
247
100
AcDbEntity
  8
0
 62
     7
420
 16777215
370
     9
100
AcDbVertex
100
AcDb2dVertex
 10
113.2677518313765
 20
168.7176337750973
 30
0.0
  0
SEQEND
  5
24A
330
247
100
AcDbEntity
  8
0
370
     9
  0
ENDBLK
  5
246
330
243
100
AcDbEntity
  8
0
100
AcDbBlockEnd
  0
BLOCK
  5
24D
330
24B
100
AcDbEntity
  8
0
100
AcDbBlockBegin
  2
block 20
 70
     0
 71
     0
 10
0.0
 20
0.0
 30
0.0
  3
block 20
  1

  0
SPLINE
  5
24F
330
24B
100
AcDbEntity
  8
0
 62
     7
420
 16777215
370
     9
100
AcDbSpline
210
0.0
220
0.0
230
1.0
 70
     8
 71
     3
 72
     8
 73
     4
 74
     0
 42
0.0000000001
 43
0.0000000001
 40
0.0
 40
0.0
 40
0.0
 40
0.0
 40
1.0
 40
1.0
 40
1.0
 40
1.0
 10
107.4486372084034
 20
167.8422344347992
 30
0.0
 10
107.4603505407805
 20
167.6889275845699
 30
0.0
 10
107.5936758240136
 20
167.5669711239381
 30
0.0
 10
107.7473271840187
 20
167.5685214179291
 30
0.0
  0
ENDBLK
  5
24E
330
24B
100
AcDbEntity
  8
0
100
AcDbBlockEnd
  0
BLOCK
  5
252
330
250
100
AcDbEntity
  8
0
100
AcDbBlockBegin
  2
block 21
 70
     0
 71
     0
 10
0.0
 20
0.0
 30
0.0
  3
block 21
  1

  0
POLYLINE
  5
254
330
250
100
AcDbEntity
  8
0
 62
     7
420
 16777215
370
     9
100
AcDb2dPolyline
 66
     1
 10
0.0
 20
0.0
 30
0.0
  0
VERTEX
  5
255
330
254
100
AcDbEntity
  8
0
 62
     7
420
 16777215
370
     9
100
AcDbVertex
100
AcDb2dVertex
 10
113.2677518313765
 20
167.5685214179291
 30
0.0
  0
VERTEX
  5
256
330
254
100
AcDbEntity
  8
0
 62
     7
420
 16777215
370
     9
100
AcDbVertex
100
AcDb2dVertex
 10
114.1944831282682
 20
167.5685214179291
 30
0.0
  0
SEQEND
  5
257
330
254
100
AcDbEntity
  8
0
370
     9
  0
ENDBLK
  5
253
330
250
100
AcDbEntity
  8
0
100
AcDbBlockEnd
  0
BLOCK
  5
25B
330
259
100
AcDbEntity
  8
0
100
AcDbBlockBegin
  2
block 22
 70
     0
 71
     0
 10
0.0
 20
0.0
 30
0.0
  3
block 22
  1

  0
SPLINE
  5
25D
330
259
100
AcDbEntity
  8
1
 62
     7
420
 16777215
370
     9
100
AcDbSpline
210
0.0
220
0.0
230
1.0
 70
     8
 71
     3
 72
    11
 73
     7
 74
     0
 42
0.0000000001
 43
0.0000000001
 40
0.0
 40
0.0
 40
0.0
 40
0.0
 40
1.0
 40
1.0
 40
1.0
 40
2.0
 40
2.0
 40
2.0
 40
2.0
 10
99.09892602731956
 20
171.4475292385061
 30
0.0
 10
99.14681288615523
 20
171.4752622754577
 30
0.0
 10
99.16317710050555
 20
171.5362405057736
 30
0.0
 10
99.13561631844185
 20
171.5841273646093
 30
0.0
 10
99.12855386803803
 20
171.598080010529
 30
0.0
 10
99.11029484992083
 20
171.6156500090946
 30
0.0
 10
99.09616994911319
 20
171.6221956948348
 30
0.0
  0
ENDBLK
  5
25C
330
259
100
AcDbEntity
  8
0
100
AcDbBlockEnd
  0
BLOCK
  5
260
330
25E
100
AcDbEntity
  8
0
100
AcDbBlockBegin
  2
block 23
 70
     0
 71
     0
 10
0.0
 20
0.0
 30
0.0
  3
block 23
  1

  0
SPLINE
  5
262
330
25E
100
AcDbEntity
  8
1
 62
     7
420
 16777215
370
     9
100
AcDbSpline
210
0.0
220
0.0
230
1.0
 70
     8
 71
     3
 72
     8
 73
     4
 74
     0
 42
0.0000000001
 43
0.0000000001
 40
0.0
 40
0.0
 40
0.0
 40
0.0
 40
1.0
 40
1.0
 40
1.0
 40
1.0
 10
93.6012390251643
 20
168.4013738009164
 30
0.0
 10
93.65825539305857
 20
168.359688118045
 30
0.0
 10
93.75196205207513
 20
168.3567597849508
 30
0.0
 10
93.81156224328787
 20
168.3948281151762
 30
0.0
  0
ENDBLK
  5
261
330
25E
100
AcDbEntity
  8
0
100
AcDbBlockEnd
  0
BLOCK
  5
265
330
263
100
AcDbEntity
  8
0
100
AcDbBlockBegin
  2
block 24
 70
     0
 71
     0
 10
0.0
 20
0.0
 30
0.0
  3
block 24
  1

  0
SPLINE
  5
267
330
263
100
AcDbEntity
  8
1
 62
     7
420
 16777215
370
     9
100
AcDbSpline
210
0.0
220
0.0
230
1.0
 70
     8
 71
     3
 72
     8
 73
     4
 74
     0
 42
0.0000000001
 43
0.0000000001
 40
0.0
 40
0.0
 40
0.0
 40
0.0
 40
1.0
 40
1.0
 40
1.0
 40
1.0
 10
93.6012390251643
 20
168.4013738009164
 30
0.0
 10
93.46894727125857
 20
168.5004203614578
 30
0.0
 10
93.2140100371694
 20
168.5772460414603
 30
0.0
 10
93.04916210945093
 20
168.5677720226259
 30
0.0
  0
ENDBLK
  5
266
330
263
100
AcDbEntity
  8
0
100
AcDbBlockEnd
  0
BLOCK
  5
26A
330
268
100
AcDbEntity
  8
0
100
AcDbBlockBegin
  2
block 25
 70
     0
 71
     0
 10
0.0
 20
0.0
 30
0.0
  3
block 25
  1

  0
POLYLINE
  5
26C
330
268
100
AcDbEntity
  8
1
 62
     7
420
 16777215
370
     9
100
AcDb2dPolyline
 66
     1
 10
0.0
 20
0.0
 30
0.0
  0
VERTEX
  5
26D
330
26C
100
AcDbEntity
  8
1
 62
     7
420
 16777215
370
     9
100
AcDbVertex
100
AcDb2dVertex
 10
93.81156224328787
 20
168.3948281151762
 30
0.0
  0
VERTEX
  5
26E
330
26C
100
AcDbEntity
  8
1
 62
     7
420
 16777215
370
     9
100
AcDbVertex
100
AcDb2dVertex
 10
99.09892602731956
 20
171.4475292385061
 30
0.0
  0
SEQEND
  5
26F
330
26C
100
AcDbEntity
  8
1
370
     9
  0
ENDBLK
  5
26B
330
268
100
AcDbEntity
  8
0
100
AcDbBlockEnd
  0
BLOCK
  5
272
330
270
100
AcDbEntity
  8
0
100
AcDbBlockBegin
  2
block 26
 70
     0
 71
     0
 10
0.0
 20
0.0
 30
0.0
  3
block 26
  1

  0
POLYLINE
  5
274
330
270
100
AcDbEntity
  8
1
 62
     7
420
 16777215
370
     9
100
AcDb2dPolyline
 66
     1
 10
0.0
 20
0.0
 30
0.0
  0
VERTEX
  5
275
330
274
100
AcDbEntity
  8
1
 62
     7
420
 16777215
370
     9
100
AcDbVertex
100
AcDb2dVertex
 10
94.06322663450696
 20
167.6170972963164
 30
0.0
  0
VERTEX
  5
276
330
274
100
AcDbEntity
  8
1
 62
     7
420
 16777215
370
     9
100
AcDbVertex
100
AcDb2dVertex
 10
99.67666892132974
 20
170.8580730121189
 30
0.0
  0
SEQEND
  5
277
330
274
100
AcDbEntity
  8
1
370
     9
  0
ENDBLK
  5
273
330
270
100
AcDbEntity
  8
0
100
AcDbBlockEnd
  0
BLOCK
  5
27A
330
278
100
AcDbEntity
  8
0
100
AcDbBlockBegin
  2
block 27
 70
     0
 71
     0
 10
0.0
 20
0.0
 30
0.0
  3
block 27
  1

  0
SPLINE
  5
27C
330
278
100
AcDbEntity
  8
1
 62
     7
420
 16777215
370
     9
100
AcDbSpline
210
0.0
220
0.0
230
1.0
 70
     8
 71
     3
 72
     8
 73
     4
 74
     0
 42
0.0000000001
 43
0.0000000001
 40
0.0
 40
0.0
 40
0.0
 40
0.0
 40
1.0
 40
1.0
 40
1.0
 40
1.0
 10
90.1473562679198
 20
180.26026155826
 30
0.0
 10
91.74760417649301
 20
177.1123034819225
 30
0.0
 10
95.89360707331201
 20
173.1101334164984
 30
0.0
 10
99.09616994911319
 20
171.6221956948348
 30
0.0
  0
ENDBLK
  5
27B
330
278
100
AcDbEntity
  8
0
100
AcDbBlockEnd
  0
BLOCK
  5
27F
330
27D
100
AcDbEntity
  8
0
100
AcDbBlockBegin
  2
block 28
 70
     0
 71
     0
 10
0.0
 20
0.0
 30
0.0
  3
block 28
  1

  0
SPLINE
  5
281
330
27D
100
AcDbEntity
  8
1
 62
     7
420
 16777215
370
     9
100
AcDbSpline
210
0.0
220
0.0
230
1.0
 70
     8
 71
     3
 72
     8
 73
     4
 74
     0
 42
0.0000000001
 43
0.0000000001
 40
0.0
 40
0.0
 40
0.0
 40
0.0
 40
1.0
 40
1.0
 40
1.0
 40
1.0
 10
90.83844287816692
 20
180.6619599568383
 30
0.0
 10
93.68633293978596
 20
175.0726333543213
 30
0.0
 10
101.1124134119603
 20
170.2248640442055
 30
0.0
 10
107.3752566261588
 20
169.8665738773775
 30
0.0
  0
ENDBLK
  5
280
330
27D
100
AcDbEntity
  8
0
100
AcDbBlockEnd
  0
BLOCK
  5
284
330
282
100
AcDbEntity
  8
0
100
AcDbBlockBegin
  2
block 29
 70
     0
 71
     0
 10
0.0
 20
0.0
 30
0.0
  3
block 29
  1

  0
SPLINE
  5
286
330
282
100
AcDbEntity
  8
1
 62
     7
420
 16777215
370
     9
100
AcDbSpline
210
0.0
220
0.0
230
1.0
 70
     8
 71
     3
 72
    11
 73
     7
 74
     0
 42
0.0000000001
 43
0.0000000001
 40
0.0
 40
0.0
 40
0.0
 40
0.0
 40
1.0
 40
1.0
 40
1.0
 40
2.0
 40
2.0
 40
2.0
 40
2.0
 10
122.4716750015469
 20
171.6449333400373
 30
0.0
 10
122.4230991231597
 20
171.6192673617405
 30
0.0
 10
122.4044955952667
 20
171.5588058960883
 30
0.0
 10
122.4299893186756
 20
171.5098855079252
 30
0.0
 10
122.4368795141915
 20
171.4948993326781
 30
0.0
 10
122.4558275518603
 20
171.4759512950093
 30
0.0
 10
122.4706414722196
 20
171.4688888446055
 30
0.0
  0
ENDBLK
  5
285
330
282
100
AcDbEntity
  8
0
100
AcDbBlockEnd
  0
BLOCK
  5
289
330
287
100
AcDbEntity
  8
0
100
AcDbBlockBegin
  2
block 30
 70
     0
 71
     0
 10
0.0
 20
0.0
 30
0.0
  3
block 30
  1

  0
SPLINE
  5
28B
330
287
100
AcDbEntity
  8
1
 62
     7
420
 16777215
370
     9
100
AcDbSpline
210
0.0
220
0.0
230
1.0
 70
     8
 71
     3
 72
     8
 73
     4
 74
     0
 42
0.0000000001
 43
0.0000000001
 40
0.0
 40
0.0
 40
0.0
 40
0.0
 40
1.0
 40
1.0
 40
1.0
 40
1.0
 10
121.8825632849355
 20
170.8789158535545
 30
0.0
 10
121.7867895672642
 20
170.9381715349915
 30
0.0
 10
121.6272815410705
 20
170.94402820118
 30
0.0
 10
121.5270291963138
 20
170.8920072250348
 30
0.0
  0
ENDBLK
  5
28A
330
287
100
AcDbEntity
  8
0
100
AcDbBlockEnd
  0
BLOCK
  5
28E
330
28C
100
AcDbEntity
  8
0
100
AcDbBlockBegin
  2
block 31
 70
     0
 71
     0
 10
0.0
 20
0.0
 30
0.0
  3
block 31
  1

  0
POLYLINE
  5
290
330
28C
100
AcDbEntity
  8
1
 62
     7
420
 16777215
370
     9
100
AcDb2dPolyline
 66
     1
 10
0.0
 20
0.0
 30
0.0
  0
VERTEX
  5
291
330
290
100
AcDbEntity
  8
1
 62
     7
420
 16777215
370
     9
100
AcDbVertex
100
AcDb2dVertex
 10
130.5135666979569
 20
167.66842925291
 30
0.0
  0
VERTEX
  5
292
330
290
100
AcDbEntity
  8
1
 62
     7
420
 16777215
370
     9
100
AcDbVertex
100
AcDb2dVertex
 10
130.5135666979569
 20
167.66842925291
 30
0.0
  0
SEQEND
  5
293
330
290
100
AcDbEntity
  8
1
370
     9
  0
ENDBLK
  5
28F
330
28C
100
AcDbEntity
  8
0
100
AcDbBlockEnd
  0
BLOCK
  5
296
330
294
100
AcDbEntity
  8
0
100
AcDbBlockBegin
  2
block 32
 70
     0
 71
     0
 10
0.0
 20
0.0
 30
0.0
  3
block 32
  1

  0
SPLINE
  5
298
330
294
100
AcDbEntity
  8
1
 62
     7
420
 16777215
370
     9
100
AcDbSpline
210
0.0
220
0.0
230
1.0
 70
     8
 71
     3
 72
     8
 73
     4
 74
     0
 42
0.0000000001
 43
0.0000000001
 40
0.0
 40
0.0
 40
0.0
 40
0.0
 40
1.0
 40
1.0
 40
1.0
 40
1.0
 10
128.9977236844538
 20
167.7683370878909
 30
0.0
 10
128.9319223172767
 20
167.771609930761
 30
0.0
 10
128.8547521274984
 20
167.7269959147954
 30
0.0
 10
128.8244352672283
 20
167.66842925291
 30
0.0
  0
ENDBLK
  5
297
330
294
100
AcDbEntity
  8
0
100
AcDbBlockEnd
  0
BLOCK
  5
29B
330
299
100
AcDbEntity
  8
0
100
AcDbBlockBegin
  2
block 33
 70
     0
 71
     0
 10
0.0
 20
0.0
 30
0.0
  3
block 33
  1

  0
POLYLINE
  5
29D
330
299
100
AcDbEntity
  8
1
 62
     7
420
 16777215
370
     9
100
AcDb2dPolyline
 66
     1
 10
0.0
 20
0.0
 30
0.0
  0
VERTEX
  5
29E
330
29D
100
AcDbEntity
  8
1
 62
     7
420
 16777215
370
     9
100
AcDbVertex
100
AcDb2dVertex
 10
130.3385557318525
 20
167.7683370878909
 30
0.0
  0
VERTEX
  5
29F
330
29D
100
AcDbEntity
  8
1
 62
     7
420
 16777215
370
     9
100
AcDbVertex
100
AcDb2dVertex
 10
128.9977236844538
 20
167.7683370878909
 30
0.0
  0
SEQEND
  5
2A0
330
29D
100
AcDbEntity
  8
1
370
     9
  0
ENDBLK
  5
29C
330
299
100
AcDbEntity
  8
0
100
AcDbBlockEnd
  0
BLOCK
  5
2A3
330
2A1
100
AcDbEntity
  8
0
100
AcDbBlockBegin
  2
block 34
 70
     0
 71
     0
 10
0.0
 20
0.0
 30
0.0
  3
block 34
  1

  0
SPLINE
  5
2A5
330
2A1
100
AcDbEntity
  8
1
 62
     7
420
 16777215
370
     9
100
AcDbSpline
210
0.0
220
0.0
230
1.0
 70
     8
 71
     3
 72
     8
 73
     4
 74
     0
 42
0.0000000001
 43
0.0000000001
 40
0.0
 40
0.0
 40
0.0
 40
0.0
 40
1.0
 40
1.0
 40
1.0
 40
1.0
 10
128.6514913597786
 20
167.5685214179291
 30
0.0
 10
128.7172927269557
 20
167.5652485750591
 30
0.0
 10
128.794462916734
 20
167.6098625910247
 30
0.0
 10
128.8244352672283
 20
167.66842925291
 30
0.0
  0
ENDBLK
  5
2A4
330
2A1
100
AcDbEntity
  8
0
100
AcDbBlockEnd
  0
BLOCK
  5
2A8
330
2A6
100
AcDbEntity
  8
0
100
AcDbBlockBegin
  2
block 35
 70
     0
 71
     0
 10
0.0
 20
0.0
 30
0.0
  3
block 35
  1

  0
SPLINE
  5
2AA
330
2A6
100
AcDbEntity
  8
1
 62
     7
420
 16777215
370
     9
100
AcDbSpline
210
0.0
220
0.0
230
1.0
 70
     8
 71
     3
 72
     8
 73
     4
 74
     0
 42
0.0000000001
 43
0.0000000001
 40
0.0
 40
0.0
 40
0.0
 40
0.0
 40
1.0
 40
1.0
 40
1.0
 40
1.0
 10
130.5114996393021
 20
167.66842925291
 30
0.0
 10
130.4815272888079
 20
167.7269959147954
 30
0.0
 10
130.4043570990295
 20
167.771609930761
 30
0.0
 10
130.3385557318525
 20
167.7683370878909
 30
0.0
  0
ENDBLK
  5
2A9
330
2A6
100
AcDbEntity
  8
0
100
AcDbBlockEnd
  0
BLOCK
  5
2AD
330
2AB
100
AcDbEntity
  8
0
100
AcDbBlockBegin
  2
block 36
 70
     0
 71
     0
 10
0.0
 20
0.0
 30
0.0
  3
block 36
  1

  0
SPLINE
  5
2AF
330
2AB
100
AcDbEntity
  8
1
 62
     7
420
 16777215
370
     9
100
AcDbSpline
210
0.0
220
0.0
230
1.0
 70
     8
 71
     3
 72
     8
 73
     4
 74
     0
 42
0.0000000001
 43
0.0000000001
 40
0.0
 40
0.0
 40
0.0
 40
0.0
 40
1.0
 40
1.0
 40
1.0
 40
1.0
 10
130.5114996393021
 20
167.66842925291
 30
0.0
 10
130.5414719897964
 20
167.6098625910247
 30
0.0
 10
130.6189866893505
 20
167.5652485750591
 30
0.0
 10
130.6847880565276
 20
167.5685214179291
 30
0.0
  0
ENDBLK
  5
2AE
330
2AB
100
AcDbEntity
  8
0
100
AcDbBlockEnd
  0
BLOCK
  5
2B2
330
2B0
100
AcDbEntity
  8
0
100
AcDbBlockBegin
  2
block 37
 70
     0
 71
     0
 10
0.0
 20
0.0
 30
0.0
  3
block 37
  1

  0
SPLINE
  5
2B4
330
2B0
100
AcDbEntity
  8
1
 62
     7
420
 16777215
370
     9
100
AcDbSpline
210
0.0
220
0.0
230
1.0
 70
     8
 71
     3
 72
     8
 73
     4
 74
     0
 42
0.0000000001
 43
0.0000000001
 40
0.0
 40
0.0
 40
0.0
 40
0.0
 40
1.0
 40
1.0
 40
1.0
 40
1.0
 10
127.8759998544614
 20
167.6170972963164
 30
0.0
 10
127.9228531839697
 20
167.5883307300374
 30
0.0
 10
128.0117367061251
 20
167.5655930848349
 30
0.0
 10
128.0668582702525
 20
167.5685214179291
 30
0.0
  0
ENDBLK
  5
2B3
330
2B0
100
AcDbEntity
  8
0
100
AcDbBlockEnd
  0
BLOCK
  5
2B7
330
2B5
100
AcDbEntity
  8
0
100
AcDbBlockBegin
  2
block 38
 70
     0
 71
     0
 10
0.0
 20
0.0
 30
0.0
  3
block 38
  1

  0
SPLINE
  5
2B9
330
2B5
100
AcDbEntity
  8
1
 62
     7
420
 16777215
370
     9
100
AcDbSpline
210
0.0
220
0.0
230
1.0
 70
     8
 71
     3
 72
     8
 73
     4
 74
     0
 42
0.0000000001
 43
0.0000000001
 40
0.0
 40
0.0
 40
0.0
 40
0.0
 40
1.0
 40
1.0
 40
1.0
 40
1.0
 10
128.1281810103442
 20
168.3898327234272
 30
0.0
 10
128.1870921820054
 20
168.3541759616323
 30
0.0
 10
128.2794208019187
 20
168.3583100789419
 30
0.0
 10
128.334886875822
 20
168.3993067422616
 30
0.0
  0
ENDBLK
  5
2B8
330
2B5
100
AcDbEntity
  8
0
100
AcDbBlockEnd
  0
BLOCK
  5
2BC
330
2BA
100
AcDbEntity
  8
0
100
AcDbBlockBegin
  2
block 39
 70
     0
 71
     0
 10
0.0
 20
0.0
 30
0.0
  3
block 39
  1

  0
SPLINE
  5
2BE
330
2BA
100
AcDbEntity
  8
1
 62
     7
420
 16777215
370
     9
100
AcDbSpline
210
0.0
220
0.0
230
1.0
 70
     8
 71
     3
 72
     8
 73
     4
 74
     0
 42
0.0000000001
 43
0.0000000001
 40
0.0
 40
0.0
 40
0.0
 40
0.0
 40
1.0
 40
1.0
 40
1.0
 40
1.0
 10
128.8898921246296
 20
168.5677720226259
 30
0.0
 10
128.7238384126958
 20
168.5772460414603
 30
0.0
 10
128.4675231395035
 20
168.4995590870183
 30
0.0
 10
128.334886875822
 20
168.3993067422616
 30
0.0
  0
ENDBLK
  5
2BD
330
2BA
100
AcDbEntity
  8
0
100
AcDbBlockEnd
  0
BLOCK
  5
2C1
330
2BF
100
AcDbEntity
  8
0
100
AcDbBlockBegin
  2
block 40
 70
     0
 71
     0
 10
0.0
 20
0.0
 30
0.0
  3
block 40
  1

  0
POLYLINE
  5
2C3
330
2BF
100
AcDbEntity
  8
1
 62
     7
420
 16777215
370
     9
100
AcDb2dPolyline
 66
     1
 10
0.0
 20
0.0
 30
0.0
  0
VERTEX
  5
2C4
330
2C3
100
AcDbEntity
  8
1
 62
     7
420
 16777215
370
     9
100
AcDbVertex
100
AcDb2dVertex
 10
128.1281810103442
 20
168.3898327234272
 30
0.0
  0
VERTEX
  5
2C5
330
2C3
100
AcDbEntity
  8
1
 62
     7
420
 16777215
370
     9
100
AcDbVertex
100
AcDb2dVertex
 10
122.4706414722196
 20
171.4688888446055
 30
0.0
  0
SEQEND
  5
2C6
330
2C3
100
AcDbEntity
  8
1
370
     9
  0
ENDBLK
  5
2C2
330
2BF
100
AcDbEntity
  8
0
100
AcDbBlockEnd
  0
BLOCK
  5
2C9
330
2C7
100
AcDbEntity
  8
0
100
AcDbBlockBegin
  2
block 41
 70
     0
 71
     0
 10
0.0
 20
0.0
 30
0.0
  3
block 41
  1

  0
POLYLINE
  5
2CB
330
2C7
100
AcDbEntity
  8
1
 62
     7
420
 16777215
370
     9
100
AcDb2dPolyline
 66
     1
 10
0.0
 20
0.0
 30
0.0
  0
VERTEX
  5
2CC
330
2CB
100
AcDbEntity
  8
1
 62
     7
420
 16777215
370
     9
100
AcDbVertex
100
AcDb2dVertex
 10
127.8759998544614
 20
167.6170972963164
 30
0.0
  0
VERTEX
  5
2CD
330
2CB
100
AcDbEntity
  8
1
 62
     7
420
 16777215
370
     9
100
AcDbVertex
100
AcDb2dVertex
 10
121.8825632849355
 20
170.8789158535545
 30
0.0
  0
SEQEND
  5
2CE
330
2CB
100
AcDbEntity
  8
1
370
     9
  0
ENDBLK
  5
2CA
330
2C7
100
AcDbEntity
  8
0
100
AcDbBlockEnd
  0
BLOCK
  5
2D1
330
2CF
100
AcDbEntity
  8
0
100
AcDbBlockBegin
  2
block 42
 70
     0
 71
     0
 10
0.0
 20
0.0
 30
0.0
  3
block 42
  1

  0
SPLINE
  5
2D3
330
2CF
100
AcDbEntity
  8
1
 62
     7
420
 16777215
370
     9
100
AcDbSpline
210
0.0
220
0.0
230
1.0
 70
     8
 71
     3
 72
     8
 73
     4
 74
     0
 42
0.0000000001
 43
0.0000000001
 40
0.0
 40
0.0
 40
0.0
 40
0.0
 40
1.0
 40
1.0
 40
1.0
 40
1.0
 10
93.87219596382799
 20
167.5685214179291
 30
0.0
 10
93.92714527306748
 20
167.5655930848349
 30
0.0
 10
94.01620105011078
 20
167.5883307300374
 30
0.0
 10
94.06322663450696
 20
167.6170972963164
 30
0.0
  0
ENDBLK
  5
2D2
330
2CF
100
AcDbEntity
  8
0
100
AcDbBlockEnd
  0
BLOCK
  5
2D6
330
2D4
100
AcDbEntity
  8
0
100
AcDbBlockBegin
  2
block 43
 70
     0
 71
     0
 10
0.0
 20
0.0
 30
0.0
  3
block 43
  1

  0
SPLINE
  5
2D8
330
2D4
100
AcDbEntity
  8
1
 62
     7
420
 16777215
370
     9
100
AcDbSpline
210
0.0
220
0.0
230
1.0
 70
     8
 71
     3
 72
     8
 73
     4
 74
     0
 42
0.0000000001
 43
0.0000000001
 40
0.0
 40
0.0
 40
0.0
 40
0.0
 40
1.0
 40
1.0
 40
1.0
 40
1.0
 10
93.22227827178851
 20
167.66842925291
 30
0.0
 10
93.19213366640635
 20
167.7269959147954
 30
0.0
 10
93.114963476628
 20
167.771609930761
 30
0.0
 10
93.04916210945093
 20
167.7683370878909
 30
0.0
  0
ENDBLK
  5
2D7
330
2D4
100
AcDbEntity
  8
0
100
AcDbBlockEnd
  0
BLOCK
  5
2DB
330
2D9
100
AcDbEntity
  8
0
100
AcDbBlockBegin
  2
block 44
 70
     0
 71
     0
 10
0.0
 20
0.0
 30
0.0
  3
block 44
  1

  0
SPLINE
  5
2DD
330
2D9
100
AcDbEntity
  8
1
 62
     7
420
 16777215
370
     9
100
AcDbSpline
210
0.0
220
0.0
230
1.0
 70
     8
 71
     3
 72
     8
 73
     4
 74
     0
 42
0.0000000001
 43
0.0000000001
 40
0.0
 40
0.0
 40
0.0
 40
0.0
 40
1.0
 40
1.0
 40
1.0
 40
1.0
 10
91.60049850222805
 20
167.7683370878909
 30
0.0
 10
91.53486938993888
 20
167.771609930761
 30
0.0
 10
91.45752694527263
 20
167.7269959147954
 30
0.0
 10
91.42755459477837
 20
167.66842925291
 30
0.0
  0
ENDBLK
  5
2DC
330
2D9
100
AcDbEntity
  8
0
100
AcDbBlockEnd
  0
BLOCK
  5
2E0
330
2DE
100
AcDbEntity
  8
0
100
AcDbBlockBegin
  2
block 45
 70
     0
 71
     0
 10
0.0
 20
0.0
 30
0.0
  3
block 45
  1

  0
SPLINE
  5
2E2
330
2DE
100
AcDbEntity
  8
1
 62
     7
420
 16777215
370
     9
100
AcDbSpline
210
0.0
220
0.0
230
1.0
 70
     8
 71
     3
 72
     8
 73
     4
 74
     0
 42
0.0000000001
 43
0.0000000001
 40
0.0
 40
0.0
 40
0.0
 40
0.0
 40
1.0
 40
1.0
 40
1.0
 40
1.0
 10
91.25443843244079
 20
167.5685214179291
 30
0.0
 10
91.32023979961787
 20
167.5652485750591
 30
0.0
 10
91.39740998939621
 20
167.6098625910247
 30
0.0
 10
91.42755459477837
 20
167.66842925291
 30
0.0
  0
ENDBLK
  5
2E1
330
2DE
100
AcDbEntity
  8
0
100
AcDbBlockEnd
  0
BLOCK
  5
2E5
330
2E3
100
AcDbEntity
  8
0
100
AcDbBlockBegin
  2
block 46
 70
     0
 71
     0
 10
0.0
 20
0.0
 30
0.0
  3
block 46
  1

  0
POLYLINE
  5
2E7
330
2E3
100
AcDbEntity
  8
1
 62
     7
420
 16777215
370
     9
100
AcDb2dPolyline
 66
     1
 10
0.0
 20
0.0
 30
0.0
  0
VERTEX
  5
2E8
330
2E7
100
AcDbEntity
  8
1
 62
     7
420
 16777215
370
     9
100
AcDbVertex
100
AcDb2dVertex
 10
90.74749229735673
 20
167.5685214179291
 30
0.0
  0
VERTEX
  5
2E9
330
2E7
100
AcDbEntity
  8
1
 62
     7
420
 16777215
370
     9
100
AcDbVertex
100
AcDb2dVertex
 10
91.25443843244079
 20
167.5685214179291
 30
0.0
  0
SEQEND
  5
2EA
330
2E7
100
AcDbEntity
  8
1
370
     9
  0
ENDBLK
  5
2E6
330
2E3
100
AcDbEntity
  8
0
100
AcDbBlockEnd
  0
BLOCK
  5
2ED
330
2EB
100
AcDbEntity
  8
0
100
AcDbBlockBegin
  2
block 47
 70
     0
 71
     0
 10
0.0
 20
0.0
 30
0.0
  3
block 47
  1

  0
SPLINE
  5
2EF
330
2EB
100
AcDbEntity
  8
1
 62
     7
420
 16777215
370
     9
100
AcDbSpline
210
0.0
220
0.0
230
1.0
 70
     8
 71
     3
 72
     8
 73
     4
 74
     0
 42
0.0000000001
 43
0.0000000001
 40
0.0
 40
0.0
 40
0.0
 40
0.0
 40
1.0
 40
1.0
 40
1.0
 40
1.0
 10
93.22227827178851
 20
167.66842925291
 30
0.0
 10
93.25225062228277
 20
167.6098625910247
 30
0.0
 10
93.32959306694902
 20
167.5652485750591
 30
0.0
 10
93.39522217923819
 20
167.5685214179291
 30
0.0
  0
ENDBLK
  5
2EE
330
2EB
100
AcDbEntity
  8
0
100
AcDbBlockEnd
  0
BLOCK
  5
2F2
330
2F0
100
AcDbEntity
  8
0
100
AcDbBlockBegin
  2
block 48
 70
     0
 71
     0
 10
0.0
 20
0.0
 30
0.0
  3
block 48
  1

  0
SPLINE
  5
2F4
330
2F0
100
AcDbEntity
  8
1
 62
     7
420
 16777215
370
     9
100
AcDbSpline
210
0.0
220
0.0
230
1.0
 70
     8
 71
     3
 72
     8
 73
     4
 74
     0
 42
0.0000000001
 43
0.0000000001
 40
0.0
 40
0.0
 40
0.0
 40
0.0
 40
1.0
 40
1.0
 40
1.0
 40
1.0
 10
114.566553686128
 20
169.8665738773775
 30
0.0
 10
120.6857363238196
 20
170.442077457845
 30
0.0
 10
128.1591868901659
 20
175.3375613719085
 30
0.0
 10
131.1312727259594
 20
180.7174260307415
 30
0.0
  0
ENDBLK
  5
2F3
330
2F0
100
AcDbEntity
  8
0
100
AcDbBlockEnd
  0
BLOCK
  5
2F7
330
2F5
100
AcDbEntity
  8
0
100
AcDbBlockBegin
  2
block 49
 70
     0
 71
     0
 10
0.0
 20
0.0
 30
0.0
  3
block 49
  1

  0
SPLINE
  5
2F9
330
2F5
100
AcDbEntity
  8
1
 62
     7
420
 16777215
370
     9
100
AcDbSpline
210
0.0
220
0.0
230
1.0
 70
     8
 71
     3
 72
    11
 73
     7
 74
     0
 42
0.0000000001
 43
0.0000000001
 40
0.0
 40
0.0
 40
0.0
 40
0.0
 40
1.0
 40
1.0
 40
1.0
 40
2.0
 40
2.0
 40
2.0
 40
2.0
 10
89.39718623112365
 20
180.7508434789937
 30
0.0
 10
89.34223692188417
 20
180.757216909846
 30
0.0
 10
89.29279976905741
 20
180.7177705405173
 30
0.0
 10
89.28642633820519
 20
180.6629934861657
 30
0.0
 10
89.28608182842939
 20
180.6595483884078
 30
0.0
 10
89.28573731865359
 20
180.6528304477797
 30
0.0
 10
89.28590957354149
 20
180.6493853500218
 30
0.0
  0
ENDBLK
  5
2F8
330
2F5
100
AcDbEntity
  8
0
100
AcDbBlockEnd
  0
BLOCK
  5
2FC
330
2FA
100
AcDbEntity
  8
0
100
AcDbBlockBegin
  2
block 50
 70
     0
 71
     0
 10
0.0
 20
0.0
 30
0.0
  3
block 50
  1

  0
SPLINE
  5
2FE
330
2FA
100
AcDbEntity
  8
1
 62
     7
420
 16777215
370
     9
100
AcDbSpline
210
0.0
220
0.0
230
1.0
 70
     8
 71
     3
 72
     8
 73
     4
 74
     0
 42
0.0000000001
 43
0.0000000001
 40
0.0
 40
0.0
 40
0.0
 40
0.0
 40
1.0
 40
1.0
 40
1.0
 40
1.0
 10
90.1473562679198
 20
180.26026155826
 30
0.0
 10
90.01816510199625
 20
180.5139930081339
 30
0.0
 10
89.68123454126759
 20
180.7343070097555
 30
0.0
 10
89.39718623112365
 20
180.7508434789937
 30
0.0
  0
ENDBLK
  5
2FD
330
2FA
100
AcDbEntity
  8
0
100
AcDbBlockEnd
  0
BLOCK
  5
301
330
2FF
100
AcDbEntity
  8
0
100
AcDbBlockBegin
  2
block 51
 70
     0
 71
     0
 10
0.0
 20
0.0
 30
0.0
  3
block 51
  1

  0
SPLINE
  5
303
330
2FF
100
AcDbEntity
  8
1
 62
     7
420
 16777215
370
     9
100
AcDbSpline
210
0.0
220
0.0
230
1.0
 70
     8
 71
     3
 72
    11
 73
     7
 74
     0
 42
0.0000000001
 43
0.0000000001
 40
0.0
 40
0.0
 40
0.0
 40
0.0
 40
1.0
 40
1.0
 40
1.0
 40
2.0
 40
2.0
 40
2.0
 40
2.0
 10
132.6533169154269
 20
180.6497298597976
 30
0.0
 10
132.6543504447543
 20
180.7050236788129
 30
0.0
 10
132.6105977032282
 20
180.7506712241058
 30
0.0
 10
132.5554761391008
 20
180.7518770083211
 30
0.0
 10
132.5520310413428
 20
180.752049263209
 30
0.0
 10
132.5454853556027
 20
180.7517047534332
 30
0.0
 10
132.5423847676205
 20
180.7511879887695
 30
0.0
  0
ENDBLK
  5
302
330
2FF
100
AcDbEntity
  8
0
100
AcDbBlockEnd
  0
BLOCK
  5
306
330
304
100
AcDbEntity
  8
0
100
AcDbBlockBegin
  2
block 52
 70
     0
 71
     0
 10
0.0
 20
0.0
 30
0.0
  3
block 52
  1

  0
SPLINE
  5
308
330
304
100
AcDbEntity
  8
1
 62
     7
420
 16777215
370
     9
100
AcDbSpline
210
0.0
220
0.0
230
1.0
 70
     8
 71
     3
 72
     8
 73
     4
 74
     0
 42
0.0000000001
 43
0.0000000001
 40
0.0
 40
0.0
 40
0.0
 40
0.0
 40
1.0
 40
1.0
 40
1.0
 40
1.0
 10
122.4716750015469
 20
171.6449333400373
 30
0.0
 10
125.7269478730449
 20
173.1409670414322
 30
0.0
 10
130.0667375187493
 20
177.1600180858703
 30
0.0
 10
131.8075454158473
 20
180.2910951831938
 30
0.0
  0
ENDBLK
  5
307
330
304
100
AcDbEntity
  8
0
100
AcDbBlockEnd
  0
BLOCK
  5
30B
330
309
100
AcDbEntity
  8
0
100
AcDbBlockBegin
  2
block 53
 70
     0
 71
     0
 10
0.0
 20
0.0
 30
0.0
  3
block 53
  1

  0
SPLINE
  5
30D
330
309
100
AcDbEntity
  8
1
 62
     7
420
 16777215
370
     9
100
AcDbSpline
210
0.0
220
0.0
230
1.0
 70
     8
 71
     3
 72
     8
 73
     4
 74
     0
 42
0.0000000001
 43
0.0000000001
 40
0.0
 40
0.0
 40
0.0
 40
0.0
 40
1.0
 40
1.0
 40
1.0
 40
1.0
 10
132.5423847676205
 20
180.7511879887695
 30
0.0
 10
132.2702220447416
 20
180.7365463232982
 30
0.0
 10
131.9394926599772
 20
180.5294959480447
 30
0.0
 10
131.8075454158473
 20
180.2910951831938
 30
0.0
  0
ENDBLK
  5
30C
330
309
100
AcDbEntity
  8
0
100
AcDbBlockEnd
  0
BLOCK
  5
310
330
30E
100
AcDbEntity
  8
0
100
AcDbBlockBegin
  2
block 54
 70
     0
 71
     0
 10
0.0
 20
0.0
 30
0.0
  3
block 54
  1

  0
SPLINE
  5
312
330
30E
100
AcDbEntity
  8
1
 62
     7
420
 16777215
370
     9
100
AcDbSpline
210
0.0
220
0.0
230
1.0
 70
     8
 71
     3
 72
     8
 73
     4
 74
     0
 42
0.0000000001
 43
0.0000000001
 40
0.0
 40
0.0
 40
0.0
 40
0.0
 40
1.0
 40
1.0
 40
1.0
 40
1.0
 10
90.83844287816692
 20
180.6619599568383
 30
0.0
 10
90.56765819439113
 20
181.186476090488
 30
0.0
 10
89.87312648638606
 20
181.5861074304115
 30
0.0
 10
89.28367025999881
 20
181.556651844581
 30
0.0
  0
ENDBLK
  5
311
330
30E
100
AcDbEntity
  8
0
100
AcDbBlockEnd
  0
BLOCK
  5
315
330
313
100
AcDbEntity
  8
0
100
AcDbBlockBegin
  2
block 55
 70
     0
 71
     0
 10
0.0
 20
0.0
 30
0.0
  3
block 55
  1

  0
SPLINE
  5
317
330
313
100
AcDbEntity
  8
1
 62
     7
420
 16777215
370
     9
100
AcDbSpline
210
0.0
220
0.0
230
1.0
 70
     8
 71
     3
 72
     8
 73
     4
 74
     0
 42
0.0000000001
 43
0.0000000001
 40
0.0
 40
0.0
 40
0.0
 40
0.0
 40
1.0
 40
1.0
 40
1.0
 40
1.0
 10
132.6553839740817
 20
181.556651844581
 30
0.0
 10
132.0900434320002
 20
181.5867964499631
 30
0.0
 10
131.4082585856996
 20
181.2114530492332
 30
0.0
 10
131.1312727259594
 20
180.7174260307415
 30
0.0
  0
ENDBLK
  5
316
330
313
100
AcDbEntity
  8
0
100
AcDbBlockEnd
  0
BLOCK
  5
31A
330
318
100
AcDbEntity
  8
0
100
AcDbBlockBegin
  2
block 56
 70
     0
 71
     0
 10
0.0
 20
0.0
 30
0.0
  3
block 56
  1

  0
POLYLINE
  5
31C
330
318
100
AcDbEntity
  8
1
 62
     7
420
 16777215
370
     9
100
AcDb2dPolyline
 66
     1
 10
0.0
 20
0.0
 30
0.0
  0
VERTEX
  5
31D
330
31C
100
AcDbEntity
  8
1
 62
     7
420
 16777215
370
     9
100
AcDbVertex
100
AcDb2dVertex
 10
130.7950311847824
 20
168.5677720226259
 30
0.0
  0
VERTEX
  5
31E
330
31C
100
AcDbEntity
  8
1
 62
     7
420
 16777215
370
     9
100
AcDbVertex
100
AcDb2dVertex
 10
129.5017414864436
 20
168.5677720226259
 30
0.0
  0
SEQEND
  5
31F
330
31C
100
AcDbEntity
  8
1
370
     9
  0
ENDBLK
  5
31B
330
318
100
AcDbEntity
  8
0
100
AcDbBlockEnd
  0
BLOCK
  5
322
330
320
100
AcDbEntity
  8
0
100
AcDbBlockBegin
  2
block 57
 70
     0
 71
     0
 10
0.0
 20
0.0
 30
0.0
  3
block 57
  1

  0
SPLINE
  5
324
330
320
100
AcDbEntity
  8
1
 62
     7
420
 16777215
370
     9
100
AcDbSpline
210
0.0
220
0.0
230
1.0
 70
     8
 71
     3
 72
     8
 73
     4
 74
     0
 42
0.0000000001
 43
0.0000000001
 40
0.0
 40
0.0
 40
0.0
 40
0.0
 40
1.0
 40
1.0
 40
1.0
 40
1.0
 10
130.7950311847824
 20
168.5677720226259
 30
0.0
 10
130.8384394165327
 20
168.5663939835227
 30
0.0
 10
130.8811586287314
 20
168.5989501573355
 30
0.0
 10
130.8914939220053
 20
168.6409803499826
 30
0.0
  0
ENDBLK
  5
323
330
320
100
AcDbEntity
  8
0
100
AcDbBlockEnd
  0
BLOCK
  5
327
330
325
100
AcDbEntity
  8
0
100
AcDbBlockBegin
  2
block 58
 70
     0
 71
     0
 10
0.0
 20
0.0
 30
0.0
  3
block 58
  1

  0
SPLINE
  5
329
330
325
100
AcDbEntity
  8
1
 62
     7
420
 16777215
370
     9
100
AcDbSpline
210
0.0
220
0.0
230
1.0
 70
     8
 71
     3
 72
    11
 73
     7
 74
     0
 42
0.0000000001
 43
0.0000000001
 40
0.0
 40
0.0
 40
0.0
 40
0.0
 40
1.0
 40
1.0
 40
1.0
 40
2.0
 40
2.0
 40
2.0
 40
2.0
 10
133.4546466539288
 20
180.7415417150472
 30
0.0
 10
133.4632593983237
 20
181.18303099273
 30
0.0
 10
133.1125484465632
 20
181.5478668452982
 30
0.0
 10
132.6712314237683
 20
181.556651844581
 30
0.0
 10
132.6670973064588
 20
181.556651844581
 30
0.0
 10
132.6595180913912
 20
181.556651844581
 30
0.0
 10
132.6553839740817
 20
181.556651844581
 30
0.0
  0
ENDBLK
  5
328
330
325
100
AcDbEntity
  8
0
100
AcDbBlockEnd
  0
BLOCK
  5
32C
330
32A
100
AcDbEntity
  8
0
100
AcDbBlockBegin
  2
block 59
 70
     0
 71
     0
 10
0.0
 20
0.0
 30
0.0
  3
block 59
  1

  0
SPLINE
  5
32E
330
32A
100
AcDbEntity
  8
1
 62
     7
420
 16777215
370
     9
100
AcDbSpline
210
0.0
220
0.0
230
1.0
 70
     8
 71
     3
 72
    11
 73
     7
 74
     0
 42
0.0000000001
 43
0.0000000001
 40
0.0
 40
0.0
 40
0.0
 40
0.0
 40
1.0
 40
1.0
 40
1.0
 40
2.0
 40
2.0
 40
2.0
 40
2.0
 10
89.28367025999881
 20
181.556651844581
 30
0.0
 10
88.84218098231602
 20
181.556651844581
 30
0.0
 10
88.4842353252638
 20
181.1988784424167
 30
0.0
 10
88.4842353252638
 20
180.7573891647339
 30
0.0
 10
88.4842353252638
 20
180.7534273023122
 30
0.0
 10
88.4844075801517
 20
180.7456758323568
 30
0.0
 10
88.4844075801517
 20
180.7415417150472
 30
0.0
  0
ENDBLK
  5
32D
330
32A
100
AcDbEntity
  8
0
100
AcDbBlockEnd
  0
BLOCK
  5
331
330
32F
100
AcDbEntity
  8
0
100
AcDbBlockBegin
  2
block 60
 70
     0
 71
     0
 10
0.0
 20
0.0
 30
0.0
  3
block 60
  1

  0
SPLINE
  5
333
330
32F
100
AcDbEntity
  8
1
 62
     7
420
 16777215
370
     9
100
AcDbSpline
210
0.0
220
0.0
230
1.0
 70
     8
 71
     3
 72
     8
 73
     4
 74
     0
 42
0.0000000001
 43
0.0000000001
 40
0.0
 40
0.0
 40
0.0
 40
0.0
 40
1.0
 40
1.0
 40
1.0
 40
1.0
 10
115.3403226425662
 20
168.99358610551
 30
0.0
 10
114.9076183641663
 20
168.9314020909788
 30
0.0
 10
114.5407154529433
 20
168.5326320254947
 30
0.0
 10
114.5152217295344
 20
168.096138139561
 30
0.0
  0
ENDBLK
  5
332
330
32F
100
AcDbEntity
  8
0
100
AcDbBlockEnd
  0
BLOCK
  5
336
330
334
100
AcDbEntity
  8
0
100
AcDbBlockBegin
  2
block 61
 70
     0
 71
     0
 10
0.0
 20
0.0
 30
0.0
  3
block 61
  1

  0
SPLINE
  5
338
330
334
100
AcDbEntity
  8
1
 62
     7
420
 16777215
370
     9
100
AcDbSpline
210
0.0
220
0.0
230
1.0
 70
     8
 71
     3
 72
     8
 73
     4
 74
     0
 42
0.0000000001
 43
0.0000000001
 40
0.0
 40
0.0
 40
0.0
 40
0.0
 40
1.0
 40
1.0
 40
1.0
 40
1.0
 10
115.3403226425662
 20
168.99358610551
 30
0.0
 10
117.0260089755369
 20
169.2252689297329
 30
0.0
 10
120.0015399090884
 20
170.1382198355928
 30
0.0
 10
121.5270291963138
 20
170.8920072250348
 30
0.0
  0
ENDBLK
  5
337
330
334
100
AcDbEntity
  8
0
100
AcDbBlockEnd
  0
BLOCK
  5
33B
330
339
100
AcDbEntity
  8
0
100
AcDbBlockBegin
  2
block 62
 70
     0
 71
     0
 10
0.0
 20
0.0
 30
0.0
  3
block 62
  1

  0
SPLINE
  5
33D
330
339
100
AcDbEntity
  8
1
 62
     7
420
 16777215
370
     9
100
AcDbSpline
210
0.0
220
0.0
230
1.0
 70
     8
 71
     3
 72
     8
 73
     4
 74
     0
 42
0.0000000001
 43
0.0000000001
 40
0.0
 40
0.0
 40
0.0
 40
0.0
 40
1.0
 40
1.0
 40
1.0
 40
1.0
 10
91.04773256696309
 20
168.6409803499826
 30
0.0
 10
91.05789560534909
 20
168.5989501573355
 30
0.0
 10
91.10078707243571
 20
168.5663939835227
 30
0.0
 10
91.14402304929813
 20
168.5677720226259
 30
0.0
  0
ENDBLK
  5
33C
330
339
100
AcDbEntity
  8
0
100
AcDbBlockEnd
  0
BLOCK
  5
340
330
33E
100
AcDbEntity
  8
0
100
AcDbBlockBegin
  2
block 63
 70
     0
 71
     0
 10
0.0
 20
0.0
 30
0.0
  3
block 63
  1

  0
POLYLINE
  5
342
330
33E
100
AcDbEntity
  8
1
 62
     7
420
 16777215
370
     9
100
AcDb2dPolyline
 66
     1
 10
0.0
 20
0.0
 30
0.0
  0
VERTEX
  5
343
330
342
100
AcDbEntity
  8
1
 62
     7
420
 16777215
370
     9
100
AcDbVertex
100
AcDb2dVertex
 10
93.2241730755554
 20
167.66842925291
 30
0.0
  0
VERTEX
  5
344
330
342
100
AcDbEntity
  8
1
 62
     7
420
 16777215
370
     9
100
AcDbVertex
100
AcDb2dVertex
 10
93.2241730755554
 20
167.66842925291
 30
0.0
  0
SEQEND
  5
345
330
342
100
AcDbEntity
  8
1
370
     9
  0
ENDBLK
  5
341
330
33E
100
AcDbEntity
  8
0
100
AcDbBlockEnd
  0
BLOCK
  5
348
330
346
100
AcDbEntity
  8
0
100
AcDbBlockBegin
  2
block 64
 70
     0
 71
     0
 10
0.0
 20
0.0
 30
0.0
  3
block 64
  1

  0
POLYLINE
  5
34A
330
346
100
AcDbEntity
  8
1
 62
     7
420
 16777215
370
     9
100
AcDb2dPolyline
 66
     1
 10
0.0
 20
0.0
 30
0.0
  0
VERTEX
  5
34B
330
34A
100
AcDbEntity
  8
1
 62
     7
420
 16777215
370
     9
100
AcDbVertex
100
AcDb2dVertex
 10
91.60049850222805
 20
167.7683370878909
 30
0.0
  0
VERTEX
  5
34C
330
34A
100
AcDbEntity
  8
1
 62
     7
420
 16777215
370
     9
100
AcDbVertex
100
AcDb2dVertex
 10
93.04916210945093
 20
167.7683370878909
 30
0.0
  0
SEQEND
  5
34D
330
34A
100
AcDbEntity
  8
1
370
     9
  0
ENDBLK
  5
349
330
346
100
AcDbEntity
  8
0
100
AcDbBlockEnd
  0
BLOCK
  5
350
330
34E
100
AcDbEntity
  8
0
100
AcDbBlockBegin
  2
block 65
 70
     0
 71
     0
 10
0.0
 20
0.0
 30
0.0
  3
block 65
  1

  0
POLYLINE
  5
352
330
34E
100
AcDbEntity
  8
1
 62
     7
420
 16777215
370
     9
100
AcDb2dPolyline
 66
     1
 10
0.0
 20
0.0
 30
0.0
  0
VERTEX
  5
353
330
352
100
AcDbEntity
  8
1
 62
     7
420
 16777215
370
     9
100
AcDbVertex
100
AcDb2dVertex
 10
91.4256597910115
 20
167.66842925291
 30
0.0
  0
VERTEX
  5
354
330
352
100
AcDbEntity
  8
1
 62
     7
420
 16777215
370
     9
100
AcDbVertex
100
AcDb2dVertex
 10
91.4256597910115
 20
167.66842925291
 30
0.0
  0
SEQEND
  5
355
330
352
100
AcDbEntity
  8
1
370
     9
  0
ENDBLK
  5
351
330
34E
100
AcDbEntity
  8
0
100
AcDbBlockEnd
  0
BLOCK
  5
358
330
356
100
AcDbEntity
  8
0
100
AcDbBlockBegin
  2
block 66
 70
     0
 71
     0
 10
0.0
 20
0.0
 30
0.0
  3
block 66
  1

  0
POLYLINE
  5
35A
330
356
100
AcDbEntity
  8
1
 62
     7
420
 16777215
370
     9
100
AcDb2dPolyline
 66
     1
 10
0.0
 20
0.0
 30
0.0
  0
VERTEX
  5
35B
330
35A
100
AcDbEntity
  8
1
 62
     7
420
 16777215
370
     9
100
AcDbVertex
100
AcDb2dVertex
 10
91.14402304929813
 20
168.5677720226259
 30
0.0
  0
VERTEX
  5
35C
330
35A
100
AcDbEntity
  8
1
 62
     7
420
 16777215
370
     9
100
AcDbVertex
100
AcDb2dVertex
 10
93.04916210945093
 20
168.5677720226259
 30
0.0
  0
SEQEND
  5
35D
330
35A
100
AcDbEntity
  8
1
370
     9
  0
ENDBLK
  5
359
330
356
100
AcDbEntity
  8
0
100
AcDbBlockEnd
  0
BLOCK
  5
360
330
35E
100
AcDbEntity
  8
0
100
AcDbBlockBegin
  2
block 67
 70
     0
 71
     0
 10
0.0
 20
0.0
 30
0.0
  3
block 67
  1

  0
SPLINE
  5
362
330
35E
100
AcDbEntity
  8
1
 62
     7
420
 16777215
370
     9
100
AcDbSpline
210
0.0
220
0.0
230
1.0
 70
    11
 71
     3
 72
    23
 73
    19
 74
     0
 42
0.0000000001
 43
0.0000000001
 40
0.0
 40
0.0
 40
0.0
 40
0.0
 40
1.0
 40
1.0
 40
1.0
 40
2.0
 40
2.0
 40
2.0
 40
3.0
 40
3.0
 40
3.0
 40
4.0
 40
4.0
 40
4.0
 40
5.0
 40
5.0
 40
5.0
 40
6.0
 40
6.0
 40
6.0
 40
6.0
 10
133.4567137125836
 20
117.6538780419254
 30
0.0
 10
133.4567137125836
 20
130.0700103616194
 30
0.0
 10
123.3915161029227
 20
140.1348634615044
 30
0.0
 10
110.9757282930046
 20
140.1348634615044
 30
0.0
 10
98.55976822819855
 20
140.1348634615044
 30
0.0
 10
88.49474287342558
 20
130.0700103616194
 30
0.0
 10
88.49474287342558
 20
117.6538780419254
 30
0.0
 10
88.49474287342558
 20
105.2380902320073
 30
0.0
 10
98.55976822819855
 20
95.17289262234642
 30
0.0
 10
110.9757282930046
 20
95.17289262234642
 30
0.0
 10
123.3915161029227
 20
95.17289262234642
 30
0.0
 10
133.4567137125836
 20
105.2380902320073
 30
0.0
 10
133.4567137125836
 20
117.6538780419254
 30
0.0
 10
133.4567137125836
 20
117.6538780419254
 30
0.0
 10
133.4567137125836
 20
117.6538780419254
 30
0.0
 10
133.4567137125836
 20
117.6538780419254
 30
0.0
 10
133.4567137125836
 20
117.6538780419254
 30
0.0
 10
133.4567137125836
 20
117.6538780419254
 30
0.0
 10
133.4567137125836
 20
117.6538780419254
 30
0.0
  0
ENDBLK
  5
361
330
35E
100
AcDbEntity
  8
0
100
AcDbBlockEnd
  0
BLOCK
  5
365
330
363
100
AcDbEntity
  8
0
100
AcDbBlockBegin
  2
block 68
 70
     0
 71
     0
 10
0.0
 20
0.0
 30
0.0
  3
block 68
  1

  0
POLYLINE
  5
367
330
363
100
AcDbEntity
  8
1
 62
     7
420
 16777215
370
     9
100
AcDb2dPolyline
 66
     1
 10
0.0
 20
0.0
 30
0.0
  0
VERTEX
  5
368
330
367
100
AcDbEntity
  8
1
 62
     7
420
 16777215
370
     9
100
AcDbVertex
100
AcDb2dVertex
 10
89.28367025999881
 20
181.556651844581
 30
0.0
  0
VERTEX
  5
369
330
367
100
AcDbEntity
  8
1
 62
     7
420
 16777215
370
     9
100
AcDbVertex
100
AcDb2dVertex
 10
132.6553839740817
 20
181.556651844581
 30
0.0
  0
SEQEND
  5
36A
330
367
100
AcDbEntity
  8
1
370
     9
  0
ENDBLK
  5
366
330
363
100
AcDbEntity
  8
0
100
AcDbBlockEnd
  0
BLOCK
  5
36D
330
36B
100
AcDbEntity
  8
0
100
AcDbBlockBegin
  2
block 69
 70
     0
 71
     0
 10
0.0
 20
0.0
 30
0.0
  3
block 69
  1

  0
POLYLINE
  5
36F
330
36B
100
AcDbEntity
  8
1
 62
     7
420
 16777215
370
     9
100
AcDb2dPolyline
 66
     1
 10
0.0
 20
0.0
 30
0.0
  0
VERTEX
  5
370
330
36F
100
AcDbEntity
  8
1
 62
     7
420
 16777215
370
     9
100
AcDbVertex
100
AcDb2dVertex
 10
113.2677518313765
 20
168.7176337750973
 30
0.0
  0
VERTEX
  5
371
330
36F
100
AcDbEntity
  8
1
 62
     7
420
 16777215
370
     9
100
AcDbVertex
100
AcDb2dVertex
 10
110.9719386854708
 20
168.7176337750973
 30
0.0
  0
SEQEND
  5
372
330
36F
100
AcDbEntity
  8
1
370
     9
  0
ENDBLK
  5
36E
330
36B
100
AcDbEntity
  8
0
100
AcDbBlockEnd
  0
BLOCK
  5
375
330
373
100
AcDbEntity
  8
0
100
AcDbBlockBegin
  2
block 70
 70
     0
 71
     0
 10
0.0
 20
0.0
 30
0.0
  3
block 70
  1

  0
POLYLINE
  5
377
330
373
100
AcDbEntity
  8
1
 62
     7
420
 16777215
370
     9
100
AcDb2dPolyline
 66
     1
 10
0.0
 20
0.0
 30
0.0
  0
VERTEX
  5
378
330
377
100
AcDbEntity
  8
1
 62
     7
420
 16777215
370
     9
100
AcDbVertex
100
AcDb2dVertex
 10
114.566553686128
 20
169.8665738773775
 30
0.0
  0
VERTEX
  5
379
330
377
100
AcDbEntity
  8
1
 62
     7
420
 16777215
370
     9
100
AcDbVertex
100
AcDb2dVertex
 10
110.9719386854708
 20
169.8665738773775
 30
0.0
  0
SEQEND
  5
37A
330
377
100
AcDbEntity
  8
1
370
     9
  0
ENDBLK
  5
376
330
373
100
AcDbEntity
  8
0
100
AcDbBlockEnd
  0
BLOCK
  5
37D
330
37B
100
AcDbEntity
  8
0
100
AcDbBlockBegin
  2
block 71
 70
     0
 71
     0
 10
0.0
 20
0.0
 30
0.0
  3
block 71
  1

  0
POLYLINE
  5
37F
330
37B
100
AcDbEntity
  8
1
 62
     7
420
 16777215
370
     9
100
AcDb2dPolyline
 66
     1
 10
0.0
 20
0.0
 30
0.0
  0
VERTEX
  5
380
330
37F
100
AcDbEntity
  8
1
 62
     7
420
 16777215
370
     9
100
AcDbVertex
100
AcDb2dVertex
 10
113.2701633998071
 20
168.7176337750973
 30
0.0
  0
VERTEX
  5
381
330
37F
100
AcDbEntity
  8
1
 62
     7
420
 16777215
370
     9
100
AcDbVertex
100
AcDb2dVertex
 10
110.9719386854708
 20
168.7176337750973
 30
0.0
  0
SEQEND
  5
382
330
37F
100
AcDbEntity
  8
1
370
     9
  0
ENDBLK
  5
37E
330
37B
100
AcDbEntity
  8
0
100
AcDbBlockEnd
  0
BLOCK
  5
385
330
383
100
AcDbEntity
  8
0
100
AcDbBlockBegin
  2
block 72
 70
     0
 71
     0
 10
0.0
 20
0.0
 30
0.0
  3
block 72
  1

  0
POLYLINE
  5
387
330
383
100
AcDbEntity
  8
1
 62
     7
420
 16777215
370
     9
100
AcDb2dPolyline
 66
     1
 10
0.0
 20
0.0
 30
0.0
  0
VERTEX
  5
388
330
387
100
AcDbEntity
  8
1
 62
     7
420
 16777215
370
     9
100
AcDbVertex
100
AcDb2dVertex
 10
114.5152217295344
 20
168.096138139561
 30
0.0
  0
VERTEX
  5
389
330
387
100
AcDbEntity
  8
1
 62
     7
420
 16777215
370
     9
100
AcDbVertex
100
AcDb2dVertex
 10
114.4931731038835
 20
167.8422344347992
 30
0.0
  0
SEQEND
  5
38A
330
387
100
AcDbEntity
  8
1
370
     9
  0
ENDBLK
  5
386
330
383
100
AcDbEntity
  8
0
100
AcDbBlockEnd
  0
BLOCK
  5
38D
330
38B
100
AcDbEntity
  8
0
100
AcDbBlockBegin
  2
block 73
 70
     0
 71
     0
 10
0.0
 20
0.0
 30
0.0
  3
block 73
  1

  0
POLYLINE
  5
38F
330
38B
100
AcDbEntity
  8
1
 62
     7
420
 16777215
370
     9
100
AcDb2dPolyline
 66
     1
 10
0.0
 20
0.0
 30
0.0
  0
VERTEX
  5
390
330
38F
100
AcDbEntity
  8
1
 62
     7
420
 16777215
370
     9
100
AcDbVertex
100
AcDb2dVertex
 10
114.5689652545586
 20
169.8665738773775
 30
0.0
  0
VERTEX
  5
391
330
38F
100
AcDbEntity
  8
1
 62
     7
420
 16777215
370
     9
100
AcDbVertex
100
AcDb2dVertex
 10
107.3752566261588
 20
169.8665738773775
 30
0.0
  0
SEQEND
  5
392
330
38F
100
AcDbEntity
  8
1
370
     9
  0
ENDBLK
  5
38E
330
38B
100
AcDbEntity
  8
0
100
AcDbBlockEnd
  0
BLOCK
  5
395
330
393
100
AcDbEntity
  8
0
100
AcDbBlockBegin
  2
block 74
 70
     0
 71
     0
 10
0.0
 20
0.0
 30
0.0
  3
block 74
  1

  0
POLYLINE
  5
397
330
393
100
AcDbEntity
  8
1
 62
     7
420
 16777215
370
     9
100
AcDb2dPolyline
 66
     1
 10
0.0
 20
0.0
 30
0.0
  0
VERTEX
  5
398
330
397
100
AcDbEntity
  8
1
 62
     7
420
 16777215
370
     9
100
AcDbVertex
100
AcDb2dVertex
 10
113.2677518313765
 20
168.7176337750973
 30
0.0
  0
VERTEX
  5
399
330
397
100
AcDbEntity
  8
1
 62
     7
420
 16777215
370
     9
100
AcDbVertex
100
AcDb2dVertex
 10
108.6716469124798
 20
168.7176337750973
 30
0.0
  0
SEQEND
  5
39A
330
397
100
AcDbEntity
  8
1
370
     9
  0
ENDBLK
  5
396
330
393
100
AcDbEntity
  8
0
100
AcDbBlockEnd
  0
BLOCK
  5
39D
330
39B
100
AcDbEntity
  8
0
100
AcDbBlockBegin
  2
block 75
 70
     0
 71
     0
 10
0.0
 20
0.0
 30
0.0
  3
block 75
  1

  0
POLYLINE
  5
39F
330
39B
100
AcDbEntity
  8
1
 62
     7
420
 16777215
370
     9
100
AcDb2dPolyline
 66
     1
 10
0.0
 20
0.0
 30
0.0
  0
VERTEX
  5
3A0
330
39F
100
AcDbEntity
  8
1
 62
     7
420
 16777215
370
     9
100
AcDbVertex
100
AcDb2dVertex
 10
130.7433547184129
 20
168.5677720226259
 30
0.0
  0
VERTEX
  5
3A1
330
39F
100
AcDbEntity
  8
1
 62
     7
420
 16777215
370
     9
100
AcDbVertex
100
AcDb2dVertex
 10
128.8898921246296
 20
168.5677720226259
 30
0.0
  0
SEQEND
  5
3A2
330
39F
100
AcDbEntity
  8
1
370
     9
  0
ENDBLK
  5
39E
330
39B
100
AcDbEntity
  8
0
100
AcDbBlockEnd
  0
BLOCK
  5
3A5
330
3A3
100
AcDbEntity
  8
0
100
AcDbBlockBegin
  2
block 76
 70
     0
 71
     0
 10
0.0
 20
0.0
 30
0.0
  3
block 76
  1

  0
SPLINE
  5
3A7
330
3A3
100
AcDbEntity
  8
1
 62
     7
420
 16777215
370
     9
100
AcDbSpline
210
0.0
220
0.0
230
1.0
 70
     8
 71
     3
 72
     8
 73
     4
 74
     0
 42
0.0000000001
 43
0.0000000001
 40
0.0
 40
0.0
 40
0.0
 40
0.0
 40
1.0
 40
1.0
 40
1.0
 40
1.0
 10
114.1944831282682
 20
167.5685214179291
 30
0.0
 10
114.3481344882733
 20
167.5669711239381
 30
0.0
 10
114.4811152617306
 20
167.6889275845699
 30
0.0
 10
114.4931731038835
 20
167.8422344347992
 30
0.0
  0
ENDBLK
  5
3A6
330
3A3
100
AcDbEntity
  8
0
100
AcDbBlockEnd
  0
BLOCK
  5
3AA
330
3A8
100
AcDbEntity
  8
0
100
AcDbBlockBegin
  2
block 77
 70
     0
 71
     0
 10
0.0
 20
0.0
 30
0.0
  3
block 77
  1

  0
POLYLINE
  5
3AC
330
3A8
100
AcDbEntity
  8
1
 62
     7
420
 16777215
370
     9
100
AcDb2dPolyline
 66
     1
 10
0.0
 20
0.0
 30
0.0
  0
VERTEX
  5
3AD
330
3AC
100
AcDbEntity
  8
1
 62
     7
420
 16777215
370
     9
100
AcDbVertex
100
AcDb2dVertex
 10
93.39522217923819
 20
167.5685214179291
 30
0.0
  0
VERTEX
  5
3AE
330
3AC
100
AcDbEntity
  8
1
 62
     7
420
 16777215
370
     9
100
AcDbVertex
100
AcDb2dVertex
 10
93.87219596382799
 20
167.5685214179291
 30
0.0
  0
SEQEND
  5
3AF
330
3AC
100
AcDbEntity
  8
1
370
     9
  0
ENDBLK
  5
3AB
330
3A8
100
AcDbEntity
  8
0
100
AcDbBlockEnd
  0
BLOCK
  5
3B2
330
3B0
100
AcDbEntity
  8
0
100
AcDbBlockBegin
  2
block 78
 70
     0
 71
     0
 10
0.0
 20
0.0
 30
0.0
  3
block 78
  1

  0
POLYLINE
  5
3B4
330
3B0
100
AcDbEntity
  8
1
 62
     7
420
 16777215
370
     9
100
AcDb2dPolyline
 66
     1
 10
0.0
 20
0.0
 30
0.0
  0
VERTEX
  5
3B5
330
3B4
100
AcDbEntity
  8
1
 62
     7
420
 16777215
370
     9
100
AcDbVertex
100
AcDb2dVertex
 10
130.6847880565276
 20
167.5685214179291
 30
0.0
  0
VERTEX
  5
3B6
330
3B4
100
AcDbEntity
  8
1
 62
     7
420
 16777215
370
     9
100
AcDbVertex
100
AcDb2dVertex
 10
131.1915619367238
 20
167.5685214179291
 30
0.0
  0
SEQEND
  5
3B7
330
3B4
100
AcDbEntity
  8
1
370
     9
  0
ENDBLK
  5
3B3
330
3B0
100
AcDbEntity
  8
0
100
AcDbBlockEnd
  0
BLOCK
  5
3BA
330
3B8
100
AcDbEntity
  8
0
100
AcDbBlockBegin
  2
block 79
 70
     0
 71
     0
 10
0.0
 20
0.0
 30
0.0
  3
block 79
  1

  0
POLYLINE
  5
3BC
330
3B8
100
AcDbEntity
  8
1
 62
     7
420
 16777215
370
     9
100
AcDb2dPolyline
 66
     1
 10
0.0
 20
0.0
 30
0.0
  0
VERTEX
  5
3BD
330
3BC
100
AcDbEntity
  8
1
 62
     7
420
 16777215
370
     9
100
AcDbVertex
100
AcDb2dVertex
 10
128.0668582702525
 20
167.5685214179291
 30
0.0
  0
VERTEX
  5
3BE
330
3BC
100
AcDbEntity
  8
1
 62
     7
420
 16777215
370
     9
100
AcDbVertex
100
AcDb2dVertex
 10
128.6514913597786
 20
167.5685214179291
 30
0.0
  0
SEQEND
  5
3BF
330
3BC
100
AcDbEntity
  8
1
370
     9
  0
ENDBLK
  5
3BB
330
3B8
100
AcDbEntity
  8
0
100
AcDbBlockEnd
  0
BLOCK
  5
3C2
330
3C0
100
AcDbEntity
  8
0
100
AcDbBlockBegin
  2
block 80
 70
     0
 71
     0
 10
0.0
 20
0.0
 30
0.0
  3
block 80
  1

  0
POLYLINE
  5
3C4
330
3C0
100
AcDbEntity
  8
1
 62
     7
420
 16777215
370
     9
100
AcDb2dPolyline
 66
     1
 10
0.0
 20
0.0
 30
0.0
  0
VERTEX
  5
3C5
330
3C4
100
AcDbEntity
  8
1
 62
     7
420
 16777215
370
     9
100
AcDbVertex
100
AcDb2dVertex
 10
93.39522217923819
 20
167.5685214179291
 30
0.0
  0
VERTEX
  5
3C6
330
3C4
100
AcDbEntity
  8
1
 62
     7
420
 16777215
370
     9
100
AcDbVertex
100
AcDb2dVertex
 10
91.25443843244079
 20
167.5685214179291
 30
0.0
  0
SEQEND
  5
3C7
330
3C4
100
AcDbEntity
  8
1
370
     9
  0
ENDBLK
  5
3C3
330
3C0
100
AcDbEntity
  8
0
100
AcDbBlockEnd
  0
BLOCK
  5
3CA
330
3C8
100
AcDbEntity
  8
0
100
AcDbBlockBegin
  2
block 81
 70
     0
 71
     0
 10
0.0
 20
0.0
 30
0.0
  3
block 81
  1

  0
POLYLINE
  5
3CC
330
3C8
100
AcDbEntity
  8
1
 62
     7
420
 16777215
370
     9
100
AcDb2dPolyline
 66
     1
 10
0.0
 20
0.0
 30
0.0
  0
VERTEX
  5
3CD
330
3CC
100
AcDbEntity
  8
1
 62
     7
420
 16777215
370
     9
100
AcDbVertex
100
AcDb2dVertex
 10
93.87219596382799
 20
167.5685214179291
 30
0.0
  0
VERTEX
  5
3CE
330
3CC
100
AcDbEntity
  8
1
 62
     7
420
 16777215
370
     9
100
AcDbVertex
100
AcDb2dVertex
 10
107.7473271840187
 20
167.5685214179291
 30
0.0
  0
SEQEND
  5
3CF
330
3CC
100
AcDbEntity
  8
1
370
     9
  0
ENDBLK
  5
3CB
330
3C8
100
AcDbEntity
  8
0
100
AcDbBlockEnd
  0
BLOCK
  5
3D2
330
3D0
100
AcDbEntity
  8
0
100
AcDbBlockBegin
  2
block 82
 70
     0
 71
     0
 10
0.0
 20
0.0
 30
0.0
  3
block 82
  1

  0
POLYLINE
  5
3D4
330
3D0
100
AcDbEntity
  8
1
 62
     7
420
 16777215
370
     9
100
AcDb2dPolyline
 66
     1
 10
0.0
 20
0.0
 30
0.0
  0
VERTEX
  5
3D5
330
3D4
100
AcDbEntity
  8
1
 62
     7
420
 16777215
370
     9
100
AcDbVertex
100
AcDb2dVertex
 10
113.2677518313765
 20
167.5685214179291
 30
0.0
  0
VERTEX
  5
3D6
330
3D4
100
AcDbEntity
  8
1
 62
     7
420
 16777215
370
     9
100
AcDbVertex
100
AcDb2dVertex
 10
108.6716469124798
 20
167.5685214179291
 30
0.0
  0
SEQEND
  5
3D7
330
3D4
100
AcDbEntity
  8
1
370
     9
  0
ENDBLK
  5
3D3
330
3D0
100
AcDbEntity
  8
0
100
AcDbBlockEnd
  0
BLOCK
  5
3DA
330
3D8
100
AcDbEntity
  8
0
100
AcDbBlockBegin
  2
block 83
 70
     0
 71
     0
 10
0.0
 20
0.0
 30
0.0
  3
block 83
  1

  0
POLYLINE
  5
3DC
330
3D8
100
AcDbEntity
  8
1
 62
     7
420
 16777215
370
     9
100
AcDb2dPolyline
 66
     1
 10
0.0
 20
0.0
 30
0.0
  0
VERTEX
  5
3DD
330
3DC
100
AcDbEntity
  8
1
 62
     7
420
 16777215
370
     9
100
AcDbVertex
100
AcDb2dVertex
 10
114.1944831282682
 20
167.5685214179291
 30
0.0
  0
VERTEX
  5
3DE
330
3DC
100
AcDbEntity
  8
1
 62
     7
420
 16777215
370
     9
100
AcDbVertex
100
AcDb2dVertex
 10
128.0668582702525
 20
167.5685214179291
 30
0.0
  0
SEQEND
  5
3DF
330
3DC
100
AcDbEntity
  8
1
370
     9
  0
ENDBLK
  5
3DB
330
3D8
100
AcDbEntity
  8
0
100
AcDbBlockEnd
  0
BLOCK
  5
3E2
330
3E0
100
AcDbEntity
  8
0
100
AcDbBlockBegin
  2
block 84
 70
     0
 71
     0
 10
0.0
 20
0.0
 30
0.0
  3
block 84
  1

  0
POLYLINE
  5
3E4
330
3E0
100
AcDbEntity
  8
1
 62
     7
420
 16777215
370
     9
100
AcDb2dPolyline
 66
     1
 10
0.0
 20
0.0
 30
0.0
  0
VERTEX
  5
3E5
330
3E4
100
AcDbEntity
  8
1
 62
     7
420
 16777215
370
     9
100
AcDbVertex
100
AcDb2dVertex
 10
128.6514913597786
 20
167.5685214179291
 30
0.0
  0
VERTEX
  5
3E6
330
3E4
100
AcDbEntity
  8
1
 62
     7
420
 16777215
370
     9
100
AcDbVertex
100
AcDb2dVertex
 10
130.6847880565276
 20
167.5685214179291
 30
0.0
  0
SEQEND
  5
3E7
330
3E4
100
AcDbEntity
  8
1
370
     9
  0
ENDBLK
  5
3E3
330
3E0
100
AcDbEntity
  8
0
100
AcDbBlockEnd
  0
BLOCK
  5
3EA
330
3E8
100
AcDbEntity
  8
0
100
AcDbBlockBegin
  2
block 85
 70
     0
 71
     0
 10
0.0
 20
0.0
 30
0.0
  3
block 85
  1

  0
SPLINE
  5
3EC
330
3E8
100
AcDbEntity
  8
1
 62
     7
420
 16777215
370
     9
100
AcDbSpline
210
0.0
220
0.0
230
1.0
 70
    11
 71
     3
 72
    23
 73
    19
 74
     0
 42
0.0000000001
 43
0.0000000001
 40
0.0
 40
0.0
 40
0.0
 40
0.0
 40
1.0
 40
1.0
 40
1.0
 40
2.0
 40
2.0
 40
2.0
 40
3.0
 40
3.0
 40
3.0
 40
4.0
 40
4.0
 40
4.0
 40
5.0
 40
5.0
 40
5.0
 40
6.0
 40
6.0
 40
6.0
 40
6.0
 10
114.5689652545586
 20
117.6604237276655
 30
0.0
 10
114.5689652545586
 20
119.6472116046821
 30
0.0
 10
112.9587265624873
 20
121.2574502967533
 30
0.0
 10
110.9719386854708
 20
121.2574502967533
 30
0.0
 10
108.9854953182301
 20
121.2574502967533
 30
0.0
 10
107.3752566261588
 20
119.6472116046821
 30
0.0
 10
107.3752566261588
 20
117.6604237276655
 30
0.0
 10
107.3752566261588
 20
115.6739803604248
 30
0.0
 10
108.9854953182301
 20
114.0637416683535
 30
0.0
 10
110.9719386854708
 20
114.0637416683535
 30
0.0
 10
112.9587265624873
 20
114.0637416683535
 30
0.0
 10
114.5689652545586
 20
115.6739803604248
 30
0.0
 10
114.5689652545586
 20
117.6604237276655
 30
0.0
 10
114.5689652545586
 20
117.6604237276655
 30
0.0
 10
114.5689652545586
 20
117.6604237276655
 30
0.0
 10
114.5689652545586
 20
117.6604237276655
 30
0.0
 10
114.5689652545586
 20
117.6604237276655
 30
0.0
 10
114.5689652545586
 20
117.6604237276655
 30
0.0
 10
114.5689652545586
 20
117.6604237276655
 30
0.0
  0
ENDBLK
  5
3EB
330
3E8
100
AcDbEntity
  8
0
100
AcDbBlockEnd
  0
BLOCK
  5
3EF
330
3ED
100
AcDbEntity
  8
0
100
AcDbBlockBegin
  2
block 86
 70
     0
 71
     0
 10
0.0
 20
0.0
 30
0.0
  3
block 86
  1

  0
SPLINE
  5
3F1
330
3ED
100
AcDbEntity
  8
1
 62
     7
420
 16777215
370
     9
100
AcDbSpline
210
0.0
220
0.0
230
1.0
 70
    11
 71
     3
 72
    23
 73
    19
 74
     0
 42
0.0000000001
 43
0.0000000001
 40
0.0
 40
0.0
 40
0.0
 40
0.0
 40
1.0
 40
1.0
 40
1.0
 40
2.0
 40
2.0
 40
2.0
 40
3.0
 40
3.0
 40
3.0
 40
4.0
 40
4.0
 40
4.0
 40
5.0
 40
5.0
 40
5.0
 40
6.0
 40
6.0
 40
6.0
 40
6.0
 10
131.6480373896537
 20
117.6604237276655
 30
0.0
 10
131.6480373896537
 20
129.0795447562054
 30
0.0
 10
122.3910597140106
 20
138.3365224318484
 30
0.0
 10
110.9719386854708
 20
138.3365224318484
 30
0.0
 10
99.55316216670681
 20
138.3365224318484
 30
0.0
 10
90.29618449106376
 20
129.0795447562054
 30
0.0
 10
90.29618449106376
 20
117.6604237276655
 30
0.0
 10
90.29618449106376
 20
106.2416472089015
 30
0.0
 10
99.55316216670681
 20
96.98466953325847
 30
0.0
 10
110.9719386854708
 20
96.98466953325847
 30
0.0
 10
122.3910597140106
 20
96.98466953325847
 30
0.0
 10
131.6480373896537
 20
106.2416472089015
 30
0.0
 10
131.6480373896537
 20
117.6604237276655
 30
0.0
 10
131.6480373896537
 20
117.6604237276655
 30
0.0
 10
131.6480373896537
 20
117.6604237276655
 30
0.0
 10
131.6480373896537
 20
117.6604237276655
 30
0.0
 10
131.6480373896537
 20
117.6604237276655
 30
0.0
 10
131.6480373896537
 20
117.6604237276655
 30
0.0
 10
131.6480373896537
 20
117.6604237276655
 30
0.0
  0
ENDBLK
  5
3F0
330
3ED
100
AcDbEntity
  8
0
100
AcDbBlockEnd
  0
BLOCK
  5
3F5
330
3F3
100
AcDbEntity
  8
0
100
AcDbBlockBegin
  2
block 87
 70
     0
 71
     0
 10
0.0
 20
0.0
 30
0.0
  3
block 87
  1

  0
INSERT
  5
3F8
330
3F3
100
AcDbEntity
  8
COTAS
100
AcDbBlockReference
  2
block 88
 10
0.0
 20
0.0
 30
0.0
  0
INSERT
  5
400
330
3F3
100
AcDbEntity
  8
COTAS
100
AcDbBlockReference
  2
block 89
 10
0.0
 20
0.0
 30
0.0
  0
INSERT
  5
408
330
3F3
100
AcDbEntity
  8
COTAS
100
AcDbBlockReference
  2
block 90
 10
0.0
 20
0.0
 30
0.0
  0
INSERT
  5
410
330
3F3
100
AcDbEntity
  8
COTAS
100
AcDbBlockReference
  2
block 91
 10
0.0
 20
0.0
 30
0.0
  0
INSERT
  5
418
330
3F3
100
AcDbEntity
  8
COTAS
100
AcDbBlockReference
  2
block 92
 10
0.0
 20
0.0
 30
0.0
  0
INSERT
  5
420
330
3F3
100
AcDbEntity
  8
COTAS
100
AcDbBlockReference
  2
block 93
 10
0.0
 20
0.0
 30
0.0
  0
INSERT
  5
42B
330
3F3
100
AcDbEntity
  8
COTAS
100
AcDbBlockReference
  2
block 94
 10
0.0
 20
0.0
 30
0.0
  0
INSERT
  5
436
330
3F3
100
AcDbEntity
  8
COTAS
100
AcDbBlockReference
  2
block 95
 10
0.0
 20
0.0
 30
0.0
  0
INSERT
  5
43B
330
3F3
100
AcDbEntity
  8
COTAS
100
AcDbBlockReference
  2
block 96
 10
0.0
 20
0.0
 30
0.0
  0
INSERT
  5
443
330
3F3
100
AcDbEntity
  8
COTAS
100
AcDbBlockReference
  2
block 97
 10
0.0
 20
0.0
 30
0.0
  0
INSERT
  5
44B
330
3F3
100
AcDbEntity
  8
COTAS
100
AcDbBlockReference
  2
block 98
 10
0.0
 20
0.0
 30
0.0
  0
ENDBLK
  5
3F6
330
3F3
100
AcDbEntity
  8
0
100
AcDbBlockEnd
  0
BLOCK
  5
3F9
330
3F7
100
AcDbEntity
  8
0
100
AcDbBlockBegin
  2
block 88
 70
     0
 71
     0
 10
0.0
 20
0.0
 30
0.0
  3
block 88
  1

  0
POLYLINE
  5
3FB
330
3F7
100
AcDbEntity
  8
COTAS
 62
     7
420
 16777215
370
     9
100
AcDb2dPolyline
 66
     1
 10
0.0
 20
0.0
 30
0.0
  0
VERTEX
  5
3FC
330
3FB
100
AcDbEntity
  8
COTAS
 62
     7
420
 16777215
370
     9
100
AcDbVertex
100
AcDb2dVertex
 10
108.6764700493409
 20
167.4687858378362
 30
0.0
  0
VERTEX
  5
3FD
330
3FB
100
AcDbEntity
  8
COTAS
 62
     7
420
 16777215
370
     9
100
AcDbVertex
100
AcDb2dVertex
 10
108.6764700493409
 20
161.0946659660554
 30
0.0
  0
SEQEND
  5
3FE
330
3FB
100
AcDbEntity
  8
COTAS
370
     9
  0
ENDBLK
  5
3FA
330
3F7
100
AcDbEntity
  8
0
100
AcDbBlockEnd
  0
BLOCK
  5
401
330
3FF
100
AcDbEntity
  8
0
100
AcDbBlockBegin
  2
block 89
 70
     0
 71
     0
 10
0.0
 20
0.0
 30
0.0
  3
block 89
  1

  0
POLYLINE
  5
403
330
3FF
100
AcDbEntity
  8
COTAS
 62
     7
420
 16777215
370
     9
100
AcDb2dPolyline
 66
     1
 10
0.0
 20
0.0
 30
0.0
  0
VERTEX
  5
404
330
403
100
AcDbEntity
  8
COTAS
 62
     7
420
 16777215
370
     9
100
AcDbVertex
100
AcDb2dVertex
 10
113.2725749682376
 20
167.4686135829483
 30
0.0
  0
VERTEX
  5
405
330
403
100
AcDbEntity
  8
COTAS
 62
     7
420
 16777215
370
     9
100
AcDbVertex
100
AcDb2dVertex
 10
113.2725749682376
 20
161.0946659660554
 30
0.0
  0
SEQEND
  5
406
330
403
100
AcDbEntity
  8
COTAS
370
     9
  0
ENDBLK
  5
402
330
3FF
100
AcDbEntity
  8
0
100
AcDbBlockEnd
  0
BLOCK
  5
409
330
407
100
AcDbEntity
  8
0
100
AcDbBlockBegin
  2
block 90
 70
     0
 71
     0
 10
0.0
 20
0.0
 30
0.0
  3
block 90
  1

  0
POLYLINE
  5
40B
330
407
100
AcDbEntity
  8
COTAS
 62
     7
420
 16777215
370
     9
100
AcDb2dPolyline
 66
     1
 10
0.0
 20
0.0
 30
0.0
  0
VERTEX
  5
40C
330
40B
100
AcDbEntity
  8
COTAS
 62
     7
420
 16777215
370
     9
100
AcDbVertex
100
AcDb2dVertex
 10
105.6792349999143
 20
162.3936400756949
 30
0.0
  0
VERTEX
  5
40D
330
40B
100
AcDbEntity
  8
COTAS
 62
     7
420
 16777215
370
     9
100
AcDbVertex
100
AcDb2dVertex
 10
102.6816554407118
 20
162.3936400756949
 30
0.0
  0
SEQEND
  5
40E
330
40B
100
AcDbEntity
  8
COTAS
370
     9
  0
ENDBLK
  5
40A
330
407
100
AcDbEntity
  8
0
100
AcDbBlockEnd
  0
BLOCK
  5
411
330
40F
100
AcDbEntity
  8
0
100
AcDbBlockBegin
  2
block 91
 70
     0
 71
     0
 10
0.0
 20
0.0
 30
0.0
  3
block 91
  1

  0
POLYLINE
  5
413
330
40F
100
AcDbEntity
  8
COTAS
 62
     7
420
 16777215
370
     9
100
AcDb2dPolyline
 66
     1
 10
0.0
 20
0.0
 30
0.0
  0
VERTEX
  5
414
330
413
100
AcDbEntity
  8
COTAS
 62
     7
420
 16777215
370
     9
100
AcDbVertex
100
AcDb2dVertex
 10
116.2701545274401
 20
162.3936400756949
 30
0.0
  0
VERTEX
  5
415
330
413
100
AcDbEntity
  8
COTAS
 62
     7
420
 16777215
370
     9
100
AcDbVertex
100
AcDb2dVertex
 10
127.2393457887901
 20
162.3936400756949
 30
0.0
  0
SEQEND
  5
416
330
413
100
AcDbEntity
  8
COTAS
370
     9
  0
ENDBLK
  5
412
330
40F
100
AcDbEntity
  8
0
100
AcDbBlockEnd
  0
BLOCK
  5
419
330
417
100
AcDbEntity
  8
0
100
AcDbBlockBegin
  2
block 92
 70
     0
 71
     0
 10
0.0
 20
0.0
 30
0.0
  3
block 92
  1

  0
POLYLINE
  5
41B
330
417
100
AcDbEntity
  8
COTAS
 62
     7
420
 16777215
370
     9
100
AcDb2dPolyline
 66
     1
 10
0.0
 20
0.0
 30
0.0
  0
VERTEX
  5
41C
330
41B
100
AcDbEntity
  8
COTAS
 62
     7
420
 16777215
370
     9
100
AcDbVertex
100
AcDb2dVertex
 10
108.6764700493409
 20
162.3936400756949
 30
0.0
  0
VERTEX
  5
41D
330
41B
100
AcDbEntity
  8
COTAS
 62
     7
420
 16777215
370
     9
100
AcDbVertex
100
AcDb2dVertex
 10
113.2725749682376
 20
162.3936400756949
 30
0.0
  0
SEQEND
  5
41E
330
41B
100
AcDbEntity
  8
COTAS
370
     9
  0
ENDBLK
  5
41A
330
417
100
AcDbEntity
  8
0
100
AcDbBlockEnd
  0
BLOCK
  5
421
330
41F
100
AcDbEntity
  8
0
100
AcDbBlockBegin
  2
block 93
 70
     0
 71
     0
 10
0.0
 20
0.0
 30
0.0
  3
block 93
  1

  0
POLYLINE
  5
423
330
41F
100
AcDbEntity
  8
COTAS
370
     0
100
AcDb2dPolyline
 66
     1
 10
0.0
 20
0.0
 30
0.0
  0
VERTEX
  5
424
330
423
100
AcDbEntity
  8
COTAS
370
     0
100
AcDbVertex
100
AcDb2dVertex
 10
105.6792349999143
 20
162.8931792505993
 30
0.0
  0
VERTEX
  5
425
330
423
100
AcDbEntity
  8
COTAS
370
     0
100
AcDbVertex
100
AcDb2dVertex
 10
105.6792349999143
 20
161.8939286459025
 30
0.0
  0
VERTEX
  5
426
330
423
100
AcDbEntity
  8
COTAS
370
     0
100
AcDbVertex
100
AcDb2dVertex
 10
108.6764700493409
 20
162.3936400756949
 30
0.0
  0
VERTEX
  5
427
330
423
100
AcDbEntity
  8
COTAS
370
     0
100
AcDbVertex
100
AcDb2dVertex
 10
105.6792349999143
 20
162.8931792505993
 30
0.0
  0
SEQEND
  5
428
330
423
100
AcDbEntity
  8
COTAS
370
     0
  0
HATCH
  5
429
330
41F
100
AcDbEntity
  8
COTAS
 62
     7
420
 16777215
100
AcDbHatch
 10
0.0
 20
0.0
 30
0.0
210
0.0
220
0.0
230
1.0
  2
SOLID
 70
     1
 71
     0
 91
        1
 92
        1
 93
        3
 72
     1
 10
105.6792349999143
 20
162.8931792505993
 11
105.6792349999143
 21
161.8939286459025
 72
     1
 10
105.6792349999143
 20
161.8939286459025
 11
108.6764700493409
 21
162.3936400756949
 72
     1
 10
108.6764700493409
 20
162.3936400756949
 11
105.6792349999143
 21
162.8931792505993
 97
        0
 75
     2
 76
     1
 98
        0
  0
ENDBLK
  5
422
330
41F
100
AcDbEntity
  8
0
100
AcDbBlockEnd
  0
BLOCK
  5
42C
330
42A
100
AcDbEntity
  8
0
100
AcDbBlockBegin
  2
block 94
 70
     0
 71
     0
 10
0.0
 20
0.0
 30
0.0
  3
block 94
  1

  0
POLYLINE
  5
42E
330
42A
100
AcDbEntity
  8
COTAS
370
     0
100
AcDb2dPolyline
 66
     1
 10
0.0
 20
0.0
 30
0.0
  0
VERTEX
  5
42F
330
42E
100
AcDbEntity
  8
COTAS
370
     0
100
AcDbVertex
100
AcDb2dVertex
 10
116.2701545274401
 20
162.8931792505993
 30
0.0
  0
VERTEX
  5
430
330
42E
100
AcDbEntity
  8
COTAS
370
     0
100
AcDbVertex
100
AcDb2dVertex
 10
116.2701545274401
 20
161.8939286459025
 30
0.0
  0
VERTEX
  5
431
330
42E
100
AcDbEntity
  8
COTAS
370
     0
100
AcDbVertex
100
AcDb2dVertex
 10
113.2725749682376
 20
162.3936400756949
 30
0.0
  0
VERTEX
  5
432
330
42E
100
AcDbEntity
  8
COTAS
370
     0
100
AcDbVertex
100
AcDb2dVertex
 10
116.2701545274401
 20
162.8931792505993
 30
0.0
  0
SEQEND
  5
433
330
42E
100
AcDbEntity
  8
COTAS
370
     0
  0
HATCH
  5
434
330
42A
100
AcDbEntity
  8
COTAS
 62
     7
420
 16777215
100
AcDbHatch
 10
0.0
 20
0.0
 30
0.0
210
0.0
220
0.0
230
1.0
  2
SOLID
 70
     1
 71
     0
 91
        1
 92
        1
 93
        3
 72
     1
 10
116.2701545274401
 20
162.8931792505993
 11
116.2701545274401
 21
161.8939286459025
 72
     1
 10
116.2701545274401
 20
161.8939286459025
 11
113.2725749682376
 21
162.3936400756949
 72
     1
 10
113.2725749682376
 20
162.3936400756949
 11
116.2701545274401
 21
162.8931792505993
 97
        0
 75
     2
 76
     1
 98
        0
  0
ENDBLK
  5
42D
330
42A
100
AcDbEntity
  8
0
100
AcDbBlockEnd
  0
BLOCK
  5
437
330
435
100
AcDbEntity
  8
0
100
AcDbBlockBegin
  2
block 95
 70
     0
 71
     0
 10
0.0
 20
0.0
 30
0.0
  3
block 95
  1

  0
MTEXT
  5
439
330
435
100
AcDbEntity
  8
COTAS
 62
     7
420
 16777215
100
AcDbMText
 10
120.095246568105
 20
163.5425801779751
 30
0.0
 40
2.398890470823883
 41
0.0
 71
     7
 72
     1
  1
\fArial|b1|i0|c0|p34;\W1;\U+00D846
 73
     1
 44
1.0
  0
ENDBLK
  5
438
330
435
100
AcDbEntity
  8
0
100
AcDbBlockEnd
  0
BLOCK
  5
43C
330
43A
100
AcDbEntity
  8
0
100
AcDbBlockBegin
  2
block 96
 70
     0
 71
     0
 10
0.0
 20
0.0
 30
0.0
  3
block 96
  1

  0
POLYLINE
  5
43E
330
43A
100
AcDbEntity
  8
COTAS
 62
     7
420
 16777215
370
     9
100
AcDb2dPolyline
 66
     1
 10
0.0
 20
0.0
 30
0.0
  0
VERTEX
  5
43F
330
43E
100
AcDbEntity
  8
COTAS
 62
     7
420
 16777215
370
     9
100
AcDbVertex
100
AcDb2dVertex
 10
108.6764700493409
 20
167.568693672817
 30
0.0
  0
VERTEX
  5
440
330
43E
100
AcDbEntity
  8
COTAS
 62
     7
420
 16777215
370
     9
100
AcDbVertex
100
AcDb2dVertex
 10
108.6764700493409
 20
167.568693672817
 30
0.0
  0
SEQEND
  5
441
330
43E
100
AcDbEntity
  8
COTAS
370
     9
  0
ENDBLK
  5
43D
330
43A
100
AcDbEntity
  8
0
100
AcDbBlockEnd
  0
BLOCK
  5
444
330
442
100
AcDbEntity
  8
0
100
AcDbBlockBegin
  2
block 97
 70
     0
 71
     0
 10
0.0
 20
0.0
 30
0.0
  3
block 97
  1

  0
POLYLINE
  5
446
330
442
100
AcDbEntity
  8
COTAS
 62
     7
420
 16777215
370
     9
100
AcDb2dPolyline
 66
     1
 10
0.0
 20
0.0
 30
0.0
  0
VERTEX
  5
447
330
446
100
AcDbEntity
  8
COTAS
 62
     7
420
 16777215
370
     9
100
AcDbVertex
100
AcDb2dVertex
 10
113.2725749682376
 20
167.5685214179291
 30
0.0
  0
VERTEX
  5
448
330
446
100
AcDbEntity
  8
COTAS
 62
     7
420
 16777215
370
     9
100
AcDbVertex
100
AcDb2dVertex
 10
113.2725749682376
 20
167.5685214179291
 30
0.0
  0
SEQEND
  5
449
330
446
100
AcDbEntity
  8
COTAS
370
     9
  0
ENDBLK
  5
445
330
442
100
AcDbEntity
  8
0
100
AcDbBlockEnd
  0
BLOCK
  5
44C
330
44A
100
AcDbEntity
  8
0
100
AcDbBlockBegin
  2
block 98
 70
     0
 71
     0
 10
0.0
 20
0.0
 30
0.0
  3
block 98
  1

  0
POLYLINE
  5
44E
330
44A
100
AcDbEntity
  8
COTAS
 62
     7
420
 16777215
370
     9
100
AcDb2dPolyline
 66
     1
 10
0.0
 20
0.0
 30
0.0
  0
VERTEX
  5
44F
330
44E
100
AcDbEntity
  8
COTAS
 62
     7
420
 16777215
370
     9
100
AcDbVertex
100
AcDb2dVertex
 10
113.2725749682376
 20
162.3936400756949
 30
0.0
  0
VERTEX
  5
450
330
44E
100
AcDbEntity
  8
COTAS
 62
     7
420
 16777215
370
     9
100
AcDbVertex
100
AcDb2dVertex
 10
113.2725749682376
 20
162.3936400756949
 30
0.0
  0
SEQEND
  5
451
330
44E
100
AcDbEntity
  8
COTAS
370
     9
  0
ENDBLK
  5
44D
330
44A
100
AcDbEntity
  8
0
100
AcDbBlockEnd
  0
BLOCK
  5
454
330
452
100
AcDbEntity
  8
0
100
AcDbBlockBegin
  2
block 99
 70
     0
 71
     0
 10
0.0
 20
0.0
 30
0.0
  3
block 99
  1

  0
INSERT
  5
457
330
452
100
AcDbEntity
  8
COTAS
100
AcDbBlockReference
  2
block 100
 10
0.0
 20
0.0
 30
0.0
  0
INSERT
  5
45F
330
452
100
AcDbEntity
  8
COTAS
100
AcDbBlockReference
  2
block 101
 10
0.0
 20
0.0
 30
0.0
  0
INSERT
  5
467
330
452
100
AcDbEntity
  8
COTAS
100
AcDbBlockReference
  2
block 102
 10
0.0
 20
0.0
 30
0.0
  0
INSERT
  5
46F
330
452
100
AcDbEntity
  8
COTAS
100
AcDbBlockReference
  2
block 103
 10
0.0
 20
0.0
 30
0.0
  0
INSERT
  5
477
330
452
100
AcDbEntity
  8
COTAS
100
AcDbBlockReference
  2
block 104
 10
0.0
 20
0.0
 30
0.0
  0
INSERT
  5
47F
330
452
100
AcDbEntity
  8
COTAS
100
AcDbBlockReference
  2
block 105
 10
0.0
 20
0.0
 30
0.0
  0
INSERT
  5
48A
330
452
100
AcDbEntity
  8
COTAS
100
AcDbBlockReference
  2
block 106
 10
0.0
 20
0.0
 30
0.0
  0
INSERT
  5
495
330
452
100
AcDbEntity
  8
COTAS
100
AcDbBlockReference
  2
block 107
 10
0.0
 20
0.0
 30
0.0
  0
INSERT
  5
49A
330
452
100
AcDbEntity
  8
COTAS
100
AcDbBlockReference
  2
block 108
 10
0.0
 20
0.0
 30
0.0
  0
INSERT
  5
4A2
330
452
100
AcDbEntity
  8
COTAS
100
AcDbBlockReference
  2
block 109
 10
0.0
 20
0.0
 30
0.0
  0
INSERT
  5
4AA
330
452
100
AcDbEntity
  8
COTAS
100
AcDbBlockReference
  2
block 110
 10
0.0
 20
0.0
 30
0.0
  0
ENDBLK
  5
455
330
452
100
AcDbEntity
  8
0
100
AcDbBlockEnd
  0
BLOCK
  5
458
330
456
100
AcDbEntity
  8
0
100
AcDbBlockBegin
  2
block 100
 70
     0
 71
     0
 10
0.0
 20
0.0
 30
0.0
  3
block 100
  1

  0
POLYLINE
  5
45A
330
456
100
AcDbEntity
  8
COTAS
 62
     7
420
 16777215
370
     9
100
AcDb2dPolyline
 66
     1
 10
0.0
 20
0.0
 30
0.0
  0
VERTEX
  5
45B
330
45A
100
AcDbEntity
  8
COTAS
 62
     7
420
 16777215
370
     9
100
AcDbVertex
100
AcDb2dVertex
 10
114.6664615211089
 20
169.8665738773775
 30
0.0
  0
VERTEX
  5
45C
330
45A
100
AcDbEntity
  8
COTAS
 62
     7
420
 16777215
370
     9
100
AcDbVertex
100
AcDb2dVertex
 10
140.5146854893197
 20
169.8665738773775
 30
0.0
  0
SEQEND
  5
45D
330
45A
100
AcDbEntity
  8
COTAS
370
     9
  0
ENDBLK
  5
459
330
456
100
AcDbEntity
  8
0
100
AcDbBlockEnd
  0
BLOCK
  5
460
330
45E
100
AcDbEntity
  8
0
100
AcDbBlockBegin
  2
block 101
 70
     0
 71
     0
 10
0.0
 20
0.0
 30
0.0
  3
block 101
  1

  0
POLYLINE
  5
462
330
45E
100
AcDbEntity
  8
COTAS
 62
     7
420
 16777215
370
     9
100
AcDb2dPolyline
 66
     1
 10
0.0
 20
0.0
 30
0.0
  0
VERTEX
  5
463
330
462
100
AcDbEntity
  8
COTAS
 62
     7
420
 16777215
370
     9
100
AcDbVertex
100
AcDb2dVertex
 10
131.2914697717047
 20
167.5685214179291
 30
0.0
  0
VERTEX
  5
464
330
462
100
AcDbEntity
  8
COTAS
 62
     7
420
 16777215
370
     9
100
AcDbVertex
100
AcDb2dVertex
 10
140.5146854893197
 20
167.5685214179291
 30
0.0
  0
SEQEND
  5
465
330
462
100
AcDbEntity
  8
COTAS
370
     9
  0
ENDBLK
  5
461
330
45E
100
AcDbEntity
  8
0
100
AcDbBlockEnd
  0
BLOCK
  5
468
330
466
100
AcDbEntity
  8
0
100
AcDbBlockBegin
  2
block 102
 70
     0
 71
     0
 10
0.0
 20
0.0
 30
0.0
  3
block 102
  1

  0
POLYLINE
  5
46A
330
466
100
AcDbEntity
  8
COTAS
 62
     7
420
 16777215
370
     9
100
AcDb2dPolyline
 66
     1
 10
0.0
 20
0.0
 30
0.0
  0
VERTEX
  5
46B
330
46A
100
AcDbEntity
  8
COTAS
 62
     7
420
 16777215
370
     9
100
AcDbVertex
100
AcDb2dVertex
 10
139.2158836345681
 20
164.5711141136146
 30
0.0
  0
VERTEX
  5
46C
330
46A
100
AcDbEntity
  8
COTAS
 62
     7
420
 16777215
370
     9
100
AcDbVertex
100
AcDb2dVertex
 10
139.2158836345681
 20
161.5737068093
 30
0.0
  0
SEQEND
  5
46D
330
46A
100
AcDbEntity
  8
COTAS
370
     9
  0
ENDBLK
  5
469
330
466
100
AcDbEntity
  8
0
100
AcDbBlockEnd
  0
BLOCK
  5
470
330
46E
100
AcDbEntity
  8
0
100
AcDbBlockBegin
  2
block 103
 70
     0
 71
     0
 10
0.0
 20
0.0
 30
0.0
  3
block 103
  1

  0
POLYLINE
  5
472
330
46E
100
AcDbEntity
  8
COTAS
 62
     7
420
 16777215
370
     9
100
AcDb2dPolyline
 66
     1
 10
0.0
 20
0.0
 30
0.0
  0
VERTEX
  5
473
330
472
100
AcDbEntity
  8
COTAS
 62
     7
420
 16777215
370
     9
100
AcDbVertex
100
AcDb2dVertex
 10
139.2158836345681
 20
172.86415343658
 30
0.0
  0
VERTEX
  5
474
330
472
100
AcDbEntity
  8
COTAS
 62
     7
420
 16777215
370
     9
100
AcDbVertex
100
AcDb2dVertex
 10
139.2158836345681
 20
181.7993589816294
 30
0.0
  0
SEQEND
  5
475
330
472
100
AcDbEntity
  8
COTAS
370
     9
  0
ENDBLK
  5
471
330
46E
100
AcDbEntity
  8
0
100
AcDbBlockEnd
  0
BLOCK
  5
478
330
476
100
AcDbEntity
  8
0
100
AcDbBlockBegin
  2
block 104
 70
     0
 71
     0
 10
0.0
 20
0.0
 30
0.0
  3
block 104
  1

  0
POLYLINE
  5
47A
330
476
100
AcDbEntity
  8
COTAS
 62
     7
420
 16777215
370
     9
100
AcDb2dPolyline
 66
     1
 10
0.0
 20
0.0
 30
0.0
  0
VERTEX
  5
47B
330
47A
100
AcDbEntity
  8
COTAS
 62
     7
420
 16777215
370
     9
100
AcDbVertex
100
AcDb2dVertex
 10
139.2158836345681
 20
167.5685214179291
 30
0.0
  0
VERTEX
  5
47C
330
47A
100
AcDbEntity
  8
COTAS
 62
     7
420
 16777215
370
     9
100
AcDbVertex
100
AcDb2dVertex
 10
139.2158836345681
 20
169.8665738773775
 30
0.0
  0
SEQEND
  5
47D
330
47A
100
AcDbEntity
  8
COTAS
370
     9
  0
ENDBLK
  5
479
330
476
100
AcDbEntity
  8
0
100
AcDbBlockEnd
  0
BLOCK
  5
480
330
47E
100
AcDbEntity
  8
0
100
AcDbBlockBegin
  2
block 105
 70
     0
 71
     0
 10
0.0
 20
0.0
 30
0.0
  3
block 105
  1

  0
POLYLINE
  5
482
330
47E
100
AcDbEntity
  8
COTAS
370
     0
100
AcDb2dPolyline
 66
     1
 10
0.0
 20
0.0
 30
0.0
  0
VERTEX
  5
483
330
482
100
AcDbEntity
  8
COTAS
370
     0
100
AcDbVertex
100
AcDb2dVertex
 10
138.7163444596637
 20
164.5711141136146
 30
0.0
  0
VERTEX
  5
484
330
482
100
AcDbEntity
  8
COTAS
370
     0
100
AcDbVertex
100
AcDb2dVertex
 10
139.7154228094726
 20
164.5711141136146
 30
0.0
  0
VERTEX
  5
485
330
482
100
AcDbEntity
  8
COTAS
370
     0
100
AcDbVertex
100
AcDb2dVertex
 10
139.2158836345681
 20
167.5685214179291
 30
0.0
  0
VERTEX
  5
486
330
482
100
AcDbEntity
  8
COTAS
370
     0
100
AcDbVertex
100
AcDb2dVertex
 10
138.7163444596637
 20
164.5711141136146
 30
0.0
  0
SEQEND
  5
487
330
482
100
AcDbEntity
  8
COTAS
370
     0
  0
HATCH
  5
488
330
47E
100
AcDbEntity
  8
COTAS
 62
     7
420
 16777215
100
AcDbHatch
 10
0.0
 20
0.0
 30
0.0
210
0.0
220
0.0
230
1.0
  2
SOLID
 70
     1
 71
     0
 91
        1
 92
        1
 93
        3
 72
     1
 10
138.7163444596637
 20
164.5711141136146
 11
139.7154228094726
 21
164.5711141136146
 72
     1
 10
139.7154228094726
 20
164.5711141136146
 11
139.2158836345681
 21
167.5685214179291
 72
     1
 10
139.2158836345681
 20
167.5685214179291
 11
138.7163444596637
 21
164.5711141136146
 97
        0
 75
     2
 76
     1
 98
        0
  0
ENDBLK
  5
481
330
47E
100
AcDbEntity
  8
0
100
AcDbBlockEnd
  0
BLOCK
  5
48B
330
489
100
AcDbEntity
  8
0
100
AcDbBlockBegin
  2
block 106
 70
     0
 71
     0
 10
0.0
 20
0.0
 30
0.0
  3
block 106
  1

  0
POLYLINE
  5
48D
330
489
100
AcDbEntity
  8
COTAS
370
     0
100
AcDb2dPolyline
 66
     1
 10
0.0
 20
0.0
 30
0.0
  0
VERTEX
  5
48E
330
48D
100
AcDbEntity
  8
COTAS
370
     0
100
AcDbVertex
100
AcDb2dVertex
 10
138.7163444596637
 20
172.86415343658
 30
0.0
  0
VERTEX
  5
48F
330
48D
100
AcDbEntity
  8
COTAS
370
     0
100
AcDbVertex
100
AcDb2dVertex
 10
139.7154228094726
 20
172.86415343658
 30
0.0
  0
VERTEX
  5
490
330
48D
100
AcDbEntity
  8
COTAS
370
     0
100
AcDbVertex
100
AcDb2dVertex
 10
139.2158836345681
 20
169.8665738773775
 30
0.0
  0
VERTEX
  5
491
330
48D
100
AcDbEntity
  8
COTAS
370
     0
100
AcDbVertex
100
AcDb2dVertex
 10
138.7163444596637
 20
172.86415343658
 30
0.0
  0
SEQEND
  5
492
330
48D
100
AcDbEntity
  8
COTAS
370
     0
  0
HATCH
  5
493
330
489
100
AcDbEntity
  8
COTAS
 62
     7
420
 16777215
100
AcDbHatch
 10
0.0
 20
0.0
 30
0.0
210
0.0
220
0.0
230
1.0
  2
SOLID
 70
     1
 71
     0
 91
        1
 92
        1
 93
        3
 72
     1
 10
138.7163444596637
 20
172.86415343658
 11
139.7154228094726
 21
172.86415343658
 72
     1
 10
139.7154228094726
 20
172.86415343658
 11
139.2158836345681
 21
169.8665738773775
 72
     1
 10
139.2158836345681
 20
169.8665738773775
 11
138.7163444596637
 21
172.86415343658
 97
        0
 75
     2
 76
     1
 98
        0
  0
ENDBLK
  5
48C
330
489
100
AcDbEntity
  8
0
100
AcDbBlockEnd
  0
BLOCK
  5
496
330
494
100
AcDbEntity
  8
0
100
AcDbBlockBegin
  2
block 107
 70
     0
 71
     0
 10
0.0
 20
0.0
 30
0.0
  3
block 107
  1

  0
MTEXT
  5
498
330
494
100
AcDbEntity
  8
COTAS
 62
     7
420
 16777215
100
AcDbMText
 10
138.0669435322879
 20
176.6895899870206
 30
0.0
 40
2.398890470823883
 41
0.0
 71
     7
 72
     1
  1
\fArial|b1|i0|c0|p34;\W1;23
 11
-4.371139000186241E-8
 21
0.999999999999999
 31
0.0
 73
     1
 44
1.0
  0
ENDBLK
  5
497
330
494
100
AcDbEntity
  8
0
100
AcDbBlockEnd
  0
BLOCK
  5
49B
330
499
100
AcDbEntity
  8
0
100
AcDbBlockBegin
  2
block 108
 70
     0
 71
     0
 10
0.0
 20
0.0
 30
0.0
  3
block 108
  1

  0
POLYLINE
  5
49D
330
499
100
AcDbEntity
  8
COTAS
 62
     7
420
 16777215
370
     9
100
AcDb2dPolyline
 66
     1
 10
0.0
 20
0.0
 30
0.0
  0
VERTEX
  5
49E
330
49D
100
AcDbEntity
  8
COTAS
 62
     7
420
 16777215
370
     9
100
AcDbVertex
100
AcDb2dVertex
 10
114.566553686128
 20
169.8665738773775
 30
0.0
  0
VERTEX
  5
49F
330
49D
100
AcDbEntity
  8
COTAS
 62
     7
420
 16777215
370
     9
100
AcDbVertex
100
AcDb2dVertex
 10
114.566553686128
 20
169.8665738773775
 30
0.0
  0
SEQEND
  5
4A0
330
49D
100
AcDbEntity
  8
COTAS
370
     9
  0
ENDBLK
  5
49C
330
499
100
AcDbEntity
  8
0
100
AcDbBlockEnd
  0
BLOCK
  5
4A3
330
4A1
100
AcDbEntity
  8
0
100
AcDbBlockBegin
  2
block 109
 70
     0
 71
     0
 10
0.0
 20
0.0
 30
0.0
  3
block 109
  1

  0
POLYLINE
  5
4A5
330
4A1
100
AcDbEntity
  8
COTAS
 62
     7
420
 16777215
370
     9
100
AcDb2dPolyline
 66
     1
 10
0.0
 20
0.0
 30
0.0
  0
VERTEX
  5
4A6
330
4A5
100
AcDbEntity
  8
COTAS
 62
     7
420
 16777215
370
     9
100
AcDbVertex
100
AcDb2dVertex
 10
131.1915619367238
 20
167.5685214179291
 30
0.0
  0
VERTEX
  5
4A7
330
4A5
100
AcDbEntity
  8
COTAS
 62
     7
420
 16777215
370
     9
100
AcDbVertex
100
AcDb2dVertex
 10
131.1915619367238
 20
167.5685214179291
 30
0.0
  0
SEQEND
  5
4A8
330
4A5
100
AcDbEntity
  8
COTAS
370
     9
  0
ENDBLK
  5
4A4
330
4A1
100
AcDbEntity
  8
0
100
AcDbBlockEnd
  0
BLOCK
  5
4AB
330
4A9
100
AcDbEntity
  8
0
100
AcDbBlockBegin
  2
block 110
 70
     0
 71
     0
 10
0.0
 20
0.0
 30
0.0
  3
block 110
  1

  0
POLYLINE
  5
4AD
330
4A9
100
AcDbEntity
  8
COTAS
 62
     7
420
 16777215
370
     9
100
AcDb2dPolyline
 66
     1
 10
0.0
 20
0.0
 30
0.0
  0
VERTEX
  5
4AE
330
4AD
100
AcDbEntity
  8
COTAS
 62
     7
420
 16777215
370
     9
100
AcDbVertex
100
AcDb2dVertex
 10
139.2158836345681
 20
167.5685214179291
 30
0.0
  0
VERTEX
  5
4AF
330
4AD
100
AcDbEntity
  8
COTAS
 62
     7
420
 16777215
370
     9
100
AcDbVertex
100
AcDb2dVertex
 10
139.2158836345681
 20
167.5685214179291
 30
0.0
  0
SEQEND
  5
4B0
330
4AD
100
AcDbEntity
  8
COTAS
370
     9
  0
ENDBLK
  5
4AC
330
4A9
100
AcDbEntity
  8
0
100
AcDbBlockEnd
  0
BLOCK
  5
4B3
330
4B1
100
AcDbEntity
  8
0
100
AcDbBlockBegin
  2
block 111
 70
     0
 71
     0
 10
0.0
 20
0.0
 30
0.0
  3
block 111
  1

  0
INSERT
  5
4B6
330
4B1
100
AcDbEntity
  8
COTAS
100
AcDbBlockReference
  2
block 112
 10
0.0
 20
0.0
 30
0.0
  0
INSERT
  5
4BE
330
4B1
100
AcDbEntity
  8
COTAS
100
AcDbBlockReference
  2
block 113
 10
0.0
 20
0.0
 30
0.0
  0
INSERT
  5
4C6
330
4B1
100
AcDbEntity
  8
COTAS
100
AcDbBlockReference
  2
block 114
 10
0.0
 20
0.0
 30
0.0
  0
INSERT
  5
4CE
330
4B1
100
AcDbEntity
  8
COTAS
100
AcDbBlockReference
  2
block 115
 10
0.0
 20
0.0
 30
0.0
  0
INSERT
  5
4D9
330
4B1
100
AcDbEntity
  8
COTAS
100
AcDbBlockReference
  2
block 116
 10
0.0
 20
0.0
 30
0.0
  0
INSERT
  5
4E4
330
4B1
100
AcDbEntity
  8
COTAS
100
AcDbBlockReference
  2
block 117
 10
0.0
 20
0.0
 30
0.0
  0
INSERT
  5
4E9
330
4B1
100
AcDbEntity
  8
COTAS
100
AcDbBlockReference
  2
block 118
 10
0.0
 20
0.0
 30
0.0
  0
INSERT
  5
4F1
330
4B1
100
AcDbEntity
  8
COTAS
100
AcDbBlockReference
  2
block 119
 10
0.0
 20
0.0
 30
0.0
  0
INSERT
  5
4F9
330
4B1
100
AcDbEntity
  8
COTAS
100
AcDbBlockReference
  2
block 120
 10
0.0
 20
0.0
 30
0.0
  0
ENDBLK
  5
4B4
330
4B1
100
AcDbEntity
  8
0
100
AcDbBlockEnd
  0
BLOCK
  5
4B7
330
4B5
100
AcDbEntity
  8
0
100
AcDbBlockBegin
  2
block 112
 70
     0
 71
     0
 10
0.0
 20
0.0
 30
0.0
  3
block 112
  1

  0
POLYLINE
  5
4B9
330
4B5
100
AcDbEntity
  8
COTAS
 62
     7
420
 16777215
370
     9
100
AcDb2dPolyline
 66
     1
 10
0.0
 20
0.0
 30
0.0
  0
VERTEX
  5
4BA
330
4B9
100
AcDbEntity
  8
COTAS
 62
     7
420
 16777215
370
     9
100
AcDbVertex
100
AcDb2dVertex
 10
133.4567137125836
 20
117.5539702069445
 30
0.0
  0
VERTEX
  5
4BB
330
4B9
100
AcDbEntity
  8
COTAS
 62
     7
420
 16777215
370
     9
100
AcDbVertex
100
AcDb2dVertex
 10
133.4567137125836
 20
76.4074451347291
 30
0.0
  0
SEQEND
  5
4BC
330
4B9
100
AcDbEntity
  8
COTAS
370
     9
  0
ENDBLK
  5
4B8
330
4B5
100
AcDbEntity
  8
0
100
AcDbBlockEnd
  0
BLOCK
  5
4BF
330
4BD
100
AcDbEntity
  8
0
100
AcDbBlockBegin
  2
block 113
 70
     0
 71
     0
 10
0.0
 20
0.0
 30
0.0
  3
block 113
  1

  0
POLYLINE
  5
4C1
330
4BD
100
AcDbEntity
  8
COTAS
 62
     7
420
 16777215
370
     9
100
AcDb2dPolyline
 66
     1
 10
0.0
 20
0.0
 30
0.0
  0
VERTEX
  5
4C2
330
4C1
100
AcDbEntity
  8
COTAS
 62
     7
420
 16777215
370
     9
100
AcDbVertex
100
AcDb2dVertex
 10
88.49474287342558
 20
117.5539702069445
 30
0.0
  0
VERTEX
  5
4C3
330
4C1
100
AcDbEntity
  8
COTAS
 62
     7
420
 16777215
370
     9
100
AcDbVertex
100
AcDb2dVertex
 10
88.49474287342558
 20
76.4074451347291
 30
0.0
  0
SEQEND
  5
4C4
330
4C1
100
AcDbEntity
  8
COTAS
370
     9
  0
ENDBLK
  5
4C0
330
4BD
100
AcDbEntity
  8
0
100
AcDbBlockEnd
  0
BLOCK
  5
4C7
330
4C5
100
AcDbEntity
  8
0
100
AcDbBlockBegin
  2
block 114
 70
     0
 71
     0
 10
0.0
 20
0.0
 30
0.0
  3
block 114
  1

  0
POLYLINE
  5
4C9
330
4C5
100
AcDbEntity
  8
COTAS
 62
     7
420
 16777215
370
     9
100
AcDb2dPolyline
 66
     1
 10
0.0
 20
0.0
 30
0.0
  0
VERTEX
  5
4CA
330
4C9
100
AcDbEntity
  8
COTAS
 62
     7
420
 16777215
370
     9
100
AcDbVertex
100
AcDb2dVertex
 10
130.4591341533811
 20
77.70624698948066
 30
0.0
  0
VERTEX
  5
4CB
330
4C9
100
AcDbEntity
  8
COTAS
 62
     7
420
 16777215
370
     9
100
AcDbVertex
100
AcDb2dVertex
 10
91.49215017774016
 20
77.70624698948066
 30
0.0
  0
SEQEND
  5
4CC
330
4C9
100
AcDbEntity
  8
COTAS
370
     9
  0
ENDBLK
  5
4C8
330
4C5
100
AcDbEntity
  8
0
100
AcDbBlockEnd
  0
BLOCK
  5
4CF
330
4CD
100
AcDbEntity
  8
0
100
AcDbBlockBegin
  2
block 115
 70
     0
 71
     0
 10
0.0
 20
0.0
 30
0.0
  3
block 115
  1

  0
POLYLINE
  5
4D1
330
4CD
100
AcDbEntity
  8
COTAS
370
     0
100
AcDb2dPolyline
 66
     1
 10
0.0
 20
0.0
 30
0.0
  0
VERTEX
  5
4D2
330
4D1
100
AcDbEntity
  8
COTAS
370
     0
100
AcDbVertex
100
AcDb2dVertex
 10
130.4591341533811
 20
78.2057861643851
 30
0.0
  0
VERTEX
  5
4D3
330
4D1
100
AcDbEntity
  8
COTAS
370
     0
100
AcDbVertex
100
AcDb2dVertex
 10
130.4591341533811
 20
77.20670781457622
 30
0.0
  0
VERTEX
  5
4D4
330
4D1
100
AcDbEntity
  8
COTAS
370
     0
100
AcDbVertex
100
AcDb2dVertex
 10
133.4567137125836
 20
77.70624698948066
 30
0.0
  0
VERTEX
  5
4D5
330
4D1
100
AcDbEntity
  8
COTAS
370
     0
100
AcDbVertex
100
AcDb2dVertex
 10
130.4591341533811
 20
78.2057861643851
 30
0.0
  0
SEQEND
  5
4D6
330
4D1
100
AcDbEntity
  8
COTAS
370
     0
  0
HATCH
  5
4D7
330
4CD
100
AcDbEntity
  8
COTAS
 62
     7
420
 16777215
100
AcDbHatch
 10
0.0
 20
0.0
 30
0.0
210
0.0
220
0.0
230
1.0
  2
SOLID
 70
     1
 71
     0
 91
        1
 92
        1
 93
        3
 72
     1
 10
130.4591341533811
 20
78.2057861643851
 11
130.4591341533811
 21
77.20670781457622
 72
     1
 10
130.4591341533811
 20
77.20670781457622
 11
133.4567137125836
 21
77.70624698948066
 72
     1
 10
133.4567137125836
 20
77.70624698948066
 11
130.4591341533811
 21
78.2057861643851
 97
        0
 75
     2
 76
     1
 98
        0
  0
ENDBLK
  5
4D0
330
4CD
100
AcDbEntity
  8
0
100
AcDbBlockEnd
  0
BLOCK
  5
4DA
330
4D8
100
AcDbEntity
  8
0
100
AcDbBlockBegin
  2
block 116
 70
     0
 71
     0
 10
0.0
 20
0.0
 30
0.0
  3
block 116
  1

  0
POLYLINE
  5
4DC
330
4D8
100
AcDbEntity
  8
COTAS
370
     0
100
AcDb2dPolyline
 66
     1
 10
0.0
 20
0.0
 30
0.0
  0
VERTEX
  5
4DD
330
4DC
100
AcDbEntity
  8
COTAS
370
     0
100
AcDbVertex
100
AcDb2dVertex
 10
91.49215017774016
 20
78.2057861643851
 30
0.0
  0
VERTEX
  5
4DE
330
4DC
100
AcDbEntity
  8
COTAS
370
     0
100
AcDbVertex
100
AcDb2dVertex
 10
91.49215017774016
 20
77.20670781457622
 30
0.0
  0
VERTEX
  5
4DF
330
4DC
100
AcDbEntity
  8
COTAS
370
     0
100
AcDbVertex
100
AcDb2dVertex
 10
88.49474287342558
 20
77.70624698948066
 30
0.0
  0
VERTEX
  5
4E0
330
4DC
100
AcDbEntity
  8
COTAS
370
     0
100
AcDbVertex
100
AcDb2dVertex
 10
91.49215017774016
 20
78.2057861643851
 30
0.0
  0
SEQEND
  5
4E1
330
4DC
100
AcDbEntity
  8
COTAS
370
     0
  0
HATCH
  5
4E2
330
4D8
100
AcDbEntity
  8
COTAS
 62
     7
420
 16777215
100
AcDbHatch
 10
0.0
 20
0.0
 30
0.0
210
0.0
220
0.0
230
1.0
  2
SOLID
 70
     1
 71
     0
 91
        1
 92
        1
 93
        3
 72
     1
 10
91.49215017774016
 20
78.2057861643851
 11
91.49215017774016
 21
77.20670781457622
 72
     1
 10
91.49215017774016
 20
77.20670781457622
 11
88.49474287342558
 21
77.70624698948066
 72
     1
 10
88.49474287342558
 20
77.70624698948066
 11
91.49215017774016
 21
78.2057861643851
 97
        0
 75
     2
 76
     1
 98
        0
  0
ENDBLK
  5
4DB
330
4D8
100
AcDbEntity
  8
0
100
AcDbBlockEnd
  0
BLOCK
  5
4E5
330
4E3
100
AcDbEntity
  8
0
100
AcDbBlockBegin
  2
block 117
 70
     0
 71
     0
 10
0.0
 20
0.0
 30
0.0
  3
block 117
  1

  0
MTEXT
  5
4E7
330
4E3
100
AcDbEntity
  8
COTAS
 62
     7
420
 16777215
100
AcDbMText
 10
106.7472153048824
 20
78.85518709176088
 30
0.0
 40
2.398890470823883
 41
0.0
 71
     7
 72
     1
  1
\fArial|b1|i0|c0|p34;\W1;\U+00D8450
 73
     1
 44
1.0
  0
ENDBLK
  5
4E6
330
4E3
100
AcDbEntity
  8
0
100
AcDbBlockEnd
  0
BLOCK
  5
4EA
330
4E8
100
AcDbEntity
  8
0
100
AcDbBlockBegin
  2
block 118
 70
     0
 71
     0
 10
0.0
 20
0.0
 30
0.0
  3
block 118
  1

  0
POLYLINE
  5
4EC
330
4E8
100
AcDbEntity
  8
COTAS
 62
     7
420
 16777215
370
     9
100
AcDb2dPolyline
 66
     1
 10
0.0
 20
0.0
 30
0.0
  0
VERTEX
  5
4ED
330
4EC
100
AcDbEntity
  8
COTAS
 62
     7
420
 16777215
370
     9
100
AcDbVertex
100
AcDb2dVertex
 10
133.4567137125836
 20
117.6538780419254
 30
0.0
  0
VERTEX
  5
4EE
330
4EC
100
AcDbEntity
  8
COTAS
 62
     7
420
 16777215
370
     9
100
AcDbVertex
100
AcDb2dVertex
 10
133.4567137125836
 20
117.6538780419254
 30
0.0
  0
SEQEND
  5
4EF
330
4EC
100
AcDbEntity
  8
COTAS
370
     9
  0
ENDBLK
  5
4EB
330
4E8
100
AcDbEntity
  8
0
100
AcDbBlockEnd
  0
BLOCK
  5
4F2
330
4F0
100
AcDbEntity
  8
0
100
AcDbBlockBegin
  2
block 119
 70
     0
 71
     0
 10
0.0
 20
0.0
 30
0.0
  3
block 119
  1

  0
POLYLINE
  5
4F4
330
4F0
100
AcDbEntity
  8
COTAS
 62
     7
420
 16777215
370
     9
100
AcDb2dPolyline
 66
     1
 10
0.0
 20
0.0
 30
0.0
  0
VERTEX
  5
4F5
330
4F4
100
AcDbEntity
  8
COTAS
 62
     7
420
 16777215
370
     9
100
AcDbVertex
100
AcDb2dVertex
 10
88.49474287342558
 20
117.6538780419254
 30
0.0
  0
VERTEX
  5
4F6
330
4F4
100
AcDbEntity
  8
COTAS
 62
     7
420
 16777215
370
     9
100
AcDbVertex
100
AcDb2dVertex
 10
88.49474287342558
 20
117.6538780419254
 30
0.0
  0
SEQEND
  5
4F7
330
4F4
100
AcDbEntity
  8
COTAS
370
     9
  0
ENDBLK
  5
4F3
330
4F0
100
AcDbEntity
  8
0
100
AcDbBlockEnd
  0
BLOCK
  5
4FA
330
4F8
100
AcDbEntity
  8
0
100
AcDbBlockBegin
  2
block 120
 70
     0
 71
     0
 10
0.0
 20
0.0
 30
0.0
  3
block 120
  1

  0
POLYLINE
  5
4FC
330
4F8
100
AcDbEntity
  8
COTAS
 62
     7
420
 16777215
370
     9
100
AcDb2dPolyline
 66
     1
 10
0.0
 20
0.0
 30
0.0
  0
VERTEX
  5
4FD
330
4FC
100
AcDbEntity
  8
COTAS
 62
     7
420
 16777215
370
     9
100
AcDbVertex
100
AcDb2dVertex
 10
88.49474287342558
 20
77.70624698948066
 30
0.0
  0
VERTEX
  5
4FE
330
4FC
100
AcDbEntity
  8
COTAS
 62
     7
420
 16777215
370
     9
100
AcDbVertex
100
AcDb2dVertex
 10
88.49474287342558
 20
77.70624698948066
 30
0.0
  0
SEQEND
  5
4FF
330
4FC
100
AcDbEntity
  8
COTAS
370
     9
  0
ENDBLK
  5
4FB
330
4F8
100
AcDbEntity
  8
0
100
AcDbBlockEnd
  0
BLOCK
  5
502
330
500
100
AcDbEntity
  8
0
100
AcDbBlockBegin
  2
block 121
 70
     0
 71
     0
 10
0.0
 20
0.0
 30
0.0
  3
block 121
  1

  0
INSERT
  5
505
330
500
100
AcDbEntity
  8
COTAS
100
AcDbBlockReference
  2
block 122
 10
0.0
 20
0.0
 30
0.0
  0
INSERT
  5
50D
330
500
100
AcDbEntity
  8
COTAS
100
AcDbBlockReference
  2
block 123
 10
0.0
 20
0.0
 30
0.0
  0
INSERT
  5
515
330
500
100
AcDbEntity
  8
COTAS
100
AcDbBlockReference
  2
block 124
 10
0.0
 20
0.0
 30
0.0
  0
INSERT
  5
51D
330
500
100
AcDbEntity
  8
COTAS
100
AcDbBlockReference
  2
block 125
 10
0.0
 20
0.0
 30
0.0
  0
INSERT
  5
528
330
500
100
AcDbEntity
  8
COTAS
100
AcDbBlockReference
  2
block 126
 10
0.0
 20
0.0
 30
0.0
  0
INSERT
  5
533
330
500
100
AcDbEntity
  8
COTAS
100
AcDbBlockReference
  2
block 127
 10
0.0
 20
0.0
 30
0.0
  0
INSERT
  5
538
330
500
100
AcDbEntity
  8
COTAS
100
AcDbBlockReference
  2
block 128
 10
0.0
 20
0.0
 30
0.0
  0
INSERT
  5
540
330
500
100
AcDbEntity
  8
COTAS
100
AcDbBlockReference
  2
block 129
 10
0.0
 20
0.0
 30
0.0
  0
INSERT
  5
548
330
500
100
AcDbEntity
  8
COTAS
100
AcDbBlockReference
  2
block 130
 10
0.0
 20
0.0
 30
0.0
  0
ENDBLK
  5
503
330
500
100
AcDbEntity
  8
0
100
AcDbBlockEnd
  0
BLOCK
  5
506
330
504
100
AcDbEntity
  8
0
100
AcDbBlockBegin
  2
block 122
 70
     0
 71
     0
 10
0.0
 20
0.0
 30
0.0
  3
block 122
  1

  0
POLYLINE
  5
508
330
504
100
AcDbEntity
  8
COTAS
 62
     7
420
 16777215
370
     9
100
AcDb2dPolyline
 66
     1
 10
0.0
 20
0.0
 30
0.0
  0
VERTEX
  5
509
330
508
100
AcDbEntity
  8
COTAS
 62
     7
420
 16777215
370
     9
100
AcDbVertex
100
AcDb2dVertex
 10
90.30634752944974
 20
117.5539702069445
 30
0.0
  0
VERTEX
  5
50A
330
508
100
AcDbEntity
  8
COTAS
 62
     7
420
 16777215
370
     9
100
AcDbVertex
100
AcDb2dVertex
 10
90.30634752944974
 20
83.91396863955183
 30
0.0
  0
SEQEND
  5
50B
330
508
100
AcDbEntity
  8
COTAS
370
     9
  0
ENDBLK
  5
507
330
504
100
AcDbEntity
  8
0
100
AcDbBlockEnd
  0
BLOCK
  5
50E
330
50C
100
AcDbEntity
  8
0
100
AcDbBlockBegin
  2
block 123
 70
     0
 71
     0
 10
0.0
 20
0.0
 30
0.0
  3
block 123
  1

  0
POLYLINE
  5
510
330
50C
100
AcDbEntity
  8
COTAS
 62
     7
420
 16777215
370
     9
100
AcDb2dPolyline
 66
     1
 10
0.0
 20
0.0
 30
0.0
  0
VERTEX
  5
511
330
510
100
AcDbEntity
  8
COTAS
 62
     7
420
 16777215
370
     9
100
AcDbVertex
100
AcDb2dVertex
 10
131.6580281731518
 20
117.5539702069445
 30
0.0
  0
VERTEX
  5
512
330
510
100
AcDbEntity
  8
COTAS
 62
     7
420
 16777215
370
     9
100
AcDbVertex
100
AcDb2dVertex
 10
131.6580281731518
 20
83.91396863955183
 30
0.0
  0
SEQEND
  5
513
330
510
100
AcDbEntity
  8
COTAS
370
     9
  0
ENDBLK
  5
50F
330
50C
100
AcDbEntity
  8
0
100
AcDbBlockEnd
  0
BLOCK
  5
516
330
514
100
AcDbEntity
  8
0
100
AcDbBlockBegin
  2
block 124
 70
     0
 71
     0
 10
0.0
 20
0.0
 30
0.0
  3
block 124
  1

  0
POLYLINE
  5
518
330
514
100
AcDbEntity
  8
COTAS
 62
     7
420
 16777215
370
     9
100
AcDb2dPolyline
 66
     1
 10
0.0
 20
0.0
 30
0.0
  0
VERTEX
  5
519
330
518
100
AcDbEntity
  8
COTAS
 62
     7
420
 16777215
370
     9
100
AcDbVertex
100
AcDb2dVertex
 10
93.3039270886522
 20
85.21277049430338
 30
0.0
  0
VERTEX
  5
51A
330
518
100
AcDbEntity
  8
COTAS
 62
     7
420
 16777215
370
     9
100
AcDbVertex
100
AcDb2dVertex
 10
128.6607931237251
 20
85.21277049430338
 30
0.0
  0
SEQEND
  5
51B
330
518
100
AcDbEntity
  8
COTAS
370
     9
  0
ENDBLK
  5
517
330
514
100
AcDbEntity
  8
0
100
AcDbBlockEnd
  0
BLOCK
  5
51E
330
51C
100
AcDbEntity
  8
0
100
AcDbBlockBegin
  2
block 125
 70
     0
 71
     0
 10
0.0
 20
0.0
 30
0.0
  3
block 125
  1

  0
POLYLINE
  5
520
330
51C
100
AcDbEntity
  8
COTAS
370
     0
100
AcDb2dPolyline
 66
     1
 10
0.0
 20
0.0
 30
0.0
  0
VERTEX
  5
521
330
520
100
AcDbEntity
  8
COTAS
370
     0
100
AcDbVertex
100
AcDb2dVertex
 10
93.3039270886522
 20
85.71230966920783
 30
0.0
  0
VERTEX
  5
522
330
520
100
AcDbEntity
  8
COTAS
370
     0
100
AcDbVertex
100
AcDb2dVertex
 10
93.3039270886522
 20
84.71323131939894
 30
0.0
  0
VERTEX
  5
523
330
520
100
AcDbEntity
  8
COTAS
370
     0
100
AcDbVertex
100
AcDb2dVertex
 10
90.30634752944974
 20
85.21277049430338
 30
0.0
  0
VERTEX
  5
524
330
520
100
AcDbEntity
  8
COTAS
370
     0
100
AcDbVertex
100
AcDb2dVertex
 10
93.3039270886522
 20
85.71230966920783
 30
0.0
  0
SEQEND
  5
525
330
520
100
AcDbEntity
  8
COTAS
370
     0
  0
HATCH
  5
526
330
51C
100
AcDbEntity
  8
COTAS
 62
     7
420
 16777215
100
AcDbHatch
 10
0.0
 20
0.0
 30
0.0
210
0.0
220
0.0
230
1.0
  2
SOLID
 70
     1
 71
     0
 91
        1
 92
        1
 93
        3
 72
     1
 10
93.3039270886522
 20
85.71230966920783
 11
93.3039270886522
 21
84.71323131939894
 72
     1
 10
93.3039270886522
 20
84.71323131939894
 11
90.30634752944974
 21
85.21277049430338
 72
     1
 10
90.30634752944974
 20
85.21277049430338
 11
93.3039270886522
 21
85.71230966920783
 97
        0
 75
     2
 76
     1
 98
        0
  0
ENDBLK
  5
51F
330
51C
100
AcDbEntity
  8
0
100
AcDbBlockEnd
  0
BLOCK
  5
529
330
527
100
AcDbEntity
  8
0
100
AcDbBlockBegin
  2
block 126
 70
     0
 71
     0
 10
0.0
 20
0.0
 30
0.0
  3
block 126
  1

  0
POLYLINE
  5
52B
330
527
100
AcDbEntity
  8
COTAS
370
     0
100
AcDb2dPolyline
 66
     1
 10
0.0
 20
0.0
 30
0.0
  0
VERTEX
  5
52C
330
52B
100
AcDbEntity
  8
COTAS
370
     0
100
AcDbVertex
100
AcDb2dVertex
 10
128.6607931237251
 20
85.71230966920783
 30
0.0
  0
VERTEX
  5
52D
330
52B
100
AcDbEntity
  8
COTAS
370
     0
100
AcDbVertex
100
AcDb2dVertex
 10
128.6607931237251
 20
84.71323131939894
 30
0.0
  0
VERTEX
  5
52E
330
52B
100
AcDbEntity
  8
COTAS
370
     0
100
AcDbVertex
100
AcDb2dVertex
 10
131.6580281731518
 20
85.21277049430338
 30
0.0
  0
VERTEX
  5
52F
330
52B
100
AcDbEntity
  8
COTAS
370
     0
100
AcDbVertex
100
AcDb2dVertex
 10
128.6607931237251
 20
85.71230966920783
 30
0.0
  0
SEQEND
  5
530
330
52B
100
AcDbEntity
  8
COTAS
370
     0
  0
HATCH
  5
531
330
527
100
AcDbEntity
  8
COTAS
 62
     7
420
 16777215
100
AcDbHatch
 10
0.0
 20
0.0
 30
0.0
210
0.0
220
0.0
230
1.0
  2
SOLID
 70
     1
 71
     0
 91
        1
 92
        1
 93
        3
 72
     1
 10
128.6607931237251
 20
85.71230966920783
 11
128.6607931237251
 21
84.71323131939894
 72
     1
 10
128.6607931237251
 20
84.71323131939894
 11
131.6580281731518
 21
85.21277049430338
 72
     1
 10
131.6580281731518
 20
85.21277049430338
 11
128.6607931237251
 21
85.71230966920783
 97
        0
 75
     2
 76
     1
 98
        0
  0
ENDBLK
  5
52A
330
527
100
AcDbEntity
  8
0
100
AcDbBlockEnd
  0
BLOCK
  5
534
330
532
100
AcDbEntity
  8
0
100
AcDbBlockBegin
  2
block 127
 70
     0
 71
     0
 10
0.0
 20
0.0
 30
0.0
  3
block 127
  1

  0
MTEXT
  5
536
330
532
100
AcDbEntity
  8
COTAS
 62
     7
420
 16777215
100
AcDbMText
 10
107.7170103237486
 20
86.3617105965836
 30
0.0
 40
2.398890470823883
 41
0.0
 71
     7
 72
     1
  1
\fArial|b1|i0|c0|p34;\W1;414
 73
     1
 44
1.0
  0
ENDBLK
  5
535
330
532
100
AcDbEntity
  8
0
100
AcDbBlockEnd
  0
BLOCK
  5
539
330
537
100
AcDbEntity
  8
0
100
AcDbBlockBegin
  2
block 128
 70
     0
 71
     0
 10
0.0
 20
0.0
 30
0.0
  3
block 128
  1

  0
POLYLINE
  5
53B
330
537
100
AcDbEntity
  8
COTAS
 62
     7
420
 16777215
370
     9
100
AcDb2dPolyline
 66
     1
 10
0.0
 20
0.0
 30
0.0
  0
VERTEX
  5
53C
330
53B
100
AcDbEntity
  8
COTAS
 62
     7
420
 16777215
370
     9
100
AcDbVertex
100
AcDb2dVertex
 10
90.30634752944974
 20
117.6538780419254
 30
0.0
  0
VERTEX
  5
53D
330
53B
100
AcDbEntity
  8
COTAS
 62
     7
420
 16777215
370
     9
100
AcDbVertex
100
AcDb2dVertex
 10
90.30634752944974
 20
117.6538780419254
 30
0.0
  0
SEQEND
  5
53E
330
53B
100
AcDbEntity
  8
COTAS
370
     9
  0
ENDBLK
  5
53A
330
537
100
AcDbEntity
  8
0
100
AcDbBlockEnd
  0
BLOCK
  5
541
330
53F
100
AcDbEntity
  8
0
100
AcDbBlockBegin
  2
block 129
 70
     0
 71
     0
 10
0.0
 20
0.0
 30
0.0
  3
block 129
  1

  0
POLYLINE
  5
543
330
53F
100
AcDbEntity
  8
COTAS
 62
     7
420
 16777215
370
     9
100
AcDb2dPolyline
 66
     1
 10
0.0
 20
0.0
 30
0.0
  0
VERTEX
  5
544
330
543
100
AcDbEntity
  8
COTAS
 62
     7
420
 16777215
370
     9
100
AcDbVertex
100
AcDb2dVertex
 10
131.6580281731518
 20
117.6538780419254
 30
0.0
  0
VERTEX
  5
545
330
543
100
AcDbEntity
  8
COTAS
 62
     7
420
 16777215
370
     9
100
AcDbVertex
100
AcDb2dVertex
 10
131.6580281731518
 20
117.6538780419254
 30
0.0
  0
SEQEND
  5
546
330
543
100
AcDbEntity
  8
COTAS
370
     9
  0
ENDBLK
  5
542
330
53F
100
AcDbEntity
  8
0
100
AcDbBlockEnd
  0
BLOCK
  5
549
330
547
100
AcDbEntity
  8
0
100
AcDbBlockBegin
  2
block 130
 70
     0
 71
     0
 10
0.0
 20
0.0
 30
0.0
  3
block 130
  1

  0
POLYLINE
  5
54B
330
547
100
AcDbEntity
  8
COTAS
 62
     7
420
 16777215
370
     9
100
AcDb2dPolyline
 66
     1
 10
0.0
 20
0.0
 30
0.0
  0
VERTEX
  5
54C
330
54B
100
AcDbEntity
  8
COTAS
 62
     7
420
 16777215
370
     9
100
AcDbVertex
100
AcDb2dVertex
 10
131.6580281731518
 20
85.21277049430338
 30
0.0
  0
VERTEX
  5
54D
330
54B
100
AcDbEntity
  8
COTAS
 62
     7
420
 16777215
370
     9
100
AcDbVertex
100
AcDb2dVertex
 10
131.6580281731518
 20
85.21277049430338
 30
0.0
  0
SEQEND
  5
54E
330
54B
100
AcDbEntity
  8
COTAS
370
     9
  0
ENDBLK
  5
54A
330
547
100
AcDbEntity
  8
0
100
AcDbBlockEnd
  0
BLOCK
  5
551
330
54F
100
AcDbEntity
  8
0
100
AcDbBlockBegin
  2
block 131
 70
     0
 71
     0
 10
0.0
 20
0.0
 30
0.0
  3
block 131
  1

  0
INSERT
  5
554
330
54F
100
AcDbEntity
  8
COTAS
100
AcDbBlockReference
  2
block 132
 10
0.0
 20
0.0
 30
0.0
  0
INSERT
  5
55C
330
54F
100
AcDbEntity
  8
COTAS
100
AcDbBlockReference
  2
block 133
 10
0.0
 20
0.0
 30
0.0
  0
INSERT
  5
564
330
54F
100
AcDbEntity
  8
COTAS
100
AcDbBlockReference
  2
block 134
 10
0.0
 20
0.0
 30
0.0
  0
INSERT
  5
56C
330
54F
100
AcDbEntity
  8
COTAS
100
AcDbBlockReference
  2
block 135
 10
0.0
 20
0.0
 30
0.0
  0
INSERT
  5
577
330
54F
100
AcDbEntity
  8
COTAS
100
AcDbBlockReference
  2
block 136
 10
0.0
 20
0.0
 30
0.0
  0
INSERT
  5
582
330
54F
100
AcDbEntity
  8
COTAS
100
AcDbBlockReference
  2
block 137
 10
0.0
 20
0.0
 30
0.0
  0
INSERT
  5
587
330
54F
100
AcDbEntity
  8
COTAS
100
AcDbBlockReference
  2
block 138
 10
0.0
 20
0.0
 30
0.0
  0
INSERT
  5
58F
330
54F
100
AcDbEntity
  8
COTAS
100
AcDbBlockReference
  2
block 139
 10
0.0
 20
0.0
 30
0.0
  0
INSERT
  5
597
330
54F
100
AcDbEntity
  8
COTAS
100
AcDbBlockReference
  2
block 140
 10
0.0
 20
0.0
 30
0.0
  0
ENDBLK
  5
552
330
54F
100
AcDbEntity
  8
0
100
AcDbBlockEnd
  0
BLOCK
  5
555
330
553
100
AcDbEntity
  8
0
100
AcDbBlockBegin
  2
block 132
 70
     0
 71
     0
 10
0.0
 20
0.0
 30
0.0
  3
block 132
  1

  0
POLYLINE
  5
557
330
553
100
AcDbEntity
  8
COTAS
 62
     7
420
 16777215
370
     9
100
AcDb2dPolyline
 66
     1
 10
0.0
 20
0.0
 30
0.0
  0
VERTEX
  5
558
330
557
100
AcDbEntity
  8
COTAS
 62
     7
420
 16777215
370
     9
100
AcDbVertex
100
AcDb2dVertex
 10
89.18376242501792
 20
181.556651844581
 30
0.0
  0
VERTEX
  5
559
330
557
100
AcDbEntity
  8
COTAS
 62
     7
420
 16777215
370
     9
100
AcDbVertex
100
AcDb2dVertex
 10
80.97857309488057
 20
181.556651844581
 30
0.0
  0
SEQEND
  5
55A
330
557
100
AcDbEntity
  8
COTAS
370
     9
  0
ENDBLK
  5
556
330
553
100
AcDbEntity
  8
0
100
AcDbBlockEnd
  0
BLOCK
  5
55D
330
55B
100
AcDbEntity
  8
0
100
AcDbBlockBegin
  2
block 133
 70
     0
 71
     0
 10
0.0
 20
0.0
 30
0.0
  3
block 133
  1

  0
POLYLINE
  5
55F
330
55B
100
AcDbEntity
  8
COTAS
 62
     7
420
 16777215
370
     9
100
AcDb2dPolyline
 66
     1
 10
0.0
 20
0.0
 30
0.0
  0
VERTEX
  5
560
330
55F
100
AcDbEntity
  8
COTAS
 62
     7
420
 16777215
370
     9
100
AcDbVertex
100
AcDb2dVertex
 10
90.64758446237585
 20
167.5685214179291
 30
0.0
  0
VERTEX
  5
561
330
55F
100
AcDbEntity
  8
COTAS
 62
     7
420
 16777215
370
     9
100
AcDbVertex
100
AcDb2dVertex
 10
80.97857309488057
 20
167.5685214179291
 30
0.0
  0
SEQEND
  5
562
330
55F
100
AcDbEntity
  8
COTAS
370
     9
  0
ENDBLK
  5
55E
330
55B
100
AcDbEntity
  8
0
100
AcDbBlockEnd
  0
BLOCK
  5
565
330
563
100
AcDbEntity
  8
0
100
AcDbBlockBegin
  2
block 134
 70
     0
 71
     0
 10
0.0
 20
0.0
 30
0.0
  3
block 134
  1

  0
POLYLINE
  5
567
330
563
100
AcDbEntity
  8
COTAS
 62
     7
420
 16777215
370
     9
100
AcDb2dPolyline
 66
     1
 10
0.0
 20
0.0
 30
0.0
  0
VERTEX
  5
568
330
567
100
AcDbEntity
  8
COTAS
 62
     7
420
 16777215
370
     9
100
AcDbVertex
100
AcDb2dVertex
 10
82.27754720452002
 20
178.5592445402664
 30
0.0
  0
VERTEX
  5
569
330
567
100
AcDbEntity
  8
COTAS
 62
     7
420
 16777215
370
     9
100
AcDbVertex
100
AcDb2dVertex
 10
82.27754720452002
 20
170.5661009771316
 30
0.0
  0
SEQEND
  5
56A
330
567
100
AcDbEntity
  8
COTAS
370
     9
  0
ENDBLK
  5
566
330
563
100
AcDbEntity
  8
0
100
AcDbBlockEnd
  0
BLOCK
  5
56D
330
56B
100
AcDbEntity
  8
0
100
AcDbBlockBegin
  2
block 135
 70
     0
 71
     0
 10
0.0
 20
0.0
 30
0.0
  3
block 135
  1

  0
POLYLINE
  5
56F
330
56B
100
AcDbEntity
  8
COTAS
370
     0
100
AcDb2dPolyline
 66
     1
 10
0.0
 20
0.0
 30
0.0
  0
VERTEX
  5
570
330
56F
100
AcDbEntity
  8
COTAS
370
     0
100
AcDbVertex
100
AcDb2dVertex
 10
81.77800802961558
 20
178.5592445402664
 30
0.0
  0
VERTEX
  5
571
330
56F
100
AcDbEntity
  8
COTAS
370
     0
100
AcDbVertex
100
AcDb2dVertex
 10
82.77708637942447
 20
178.5592445402664
 30
0.0
  0
VERTEX
  5
572
330
56F
100
AcDbEntity
  8
COTAS
370
     0
100
AcDbVertex
100
AcDb2dVertex
 10
82.27754720452002
 20
181.556651844581
 30
0.0
  0
VERTEX
  5
573
330
56F
100
AcDbEntity
  8
COTAS
370
     0
100
AcDbVertex
100
AcDb2dVertex
 10
81.77800802961558
 20
178.5592445402664
 30
0.0
  0
SEQEND
  5
574
330
56F
100
AcDbEntity
  8
COTAS
370
     0
  0
HATCH
  5
575
330
56B
100
AcDbEntity
  8
COTAS
 62
     7
420
 16777215
100
AcDbHatch
 10
0.0
 20
0.0
 30
0.0
210
0.0
220
0.0
230
1.0
  2
SOLID
 70
     1
 71
     0
 91
        1
 92
        1
 93
        3
 72
     1
 10
81.77800802961558
 20
178.5592445402664
 11
82.77708637942447
 21
178.5592445402664
 72
     1
 10
82.77708637942447
 20
178.5592445402664
 11
82.27754720452002
 21
181.556651844581
 72
     1
 10
82.27754720452002
 20
181.556651844581
 11
81.77800802961558
 21
178.5592445402664
 97
        0
 75
     2
 76
     1
 98
        0
  0
ENDBLK
  5
56E
330
56B
100
AcDbEntity
  8
0
100
AcDbBlockEnd
  0
BLOCK
  5
578
330
576
100
AcDbEntity
  8
0
100
AcDbBlockBegin
  2
block 136
 70
     0
 71
     0
 10
0.0
 20
0.0
 30
0.0
  3
block 136
  1

  0
POLYLINE
  5
57A
330
576
100
AcDbEntity
  8
COTAS
370
     0
100
AcDb2dPolyline
 66
     1
 10
0.0
 20
0.0
 30
0.0
  0
VERTEX
  5
57B
330
57A
100
AcDbEntity
  8
COTAS
370
     0
100
AcDbVertex
100
AcDb2dVertex
 10
81.77800802961558
 20
170.5661009771316
 30
0.0
  0
VERTEX
  5
57C
330
57A
100
AcDbEntity
  8
COTAS
370
     0
100
AcDbVertex
100
AcDb2dVertex
 10
82.77708637942447
 20
170.5661009771316
 30
0.0
  0
VERTEX
  5
57D
330
57A
100
AcDbEntity
  8
COTAS
370
     0
100
AcDbVertex
100
AcDb2dVertex
 10
82.27754720452002
 20
167.5685214179291
 30
0.0
  0
VERTEX
  5
57E
330
57A
100
AcDbEntity
  8
COTAS
370
     0
100
AcDbVertex
100
AcDb2dVertex
 10
81.77800802961558
 20
170.5661009771316
 30
0.0
  0
SEQEND
  5
57F
330
57A
100
AcDbEntity
  8
COTAS
370
     0
  0
HATCH
  5
580
330
576
100
AcDbEntity
  8
COTAS
 62
     7
420
 16777215
100
AcDbHatch
 10
0.0
 20
0.0
 30
0.0
210
0.0
220
0.0
230
1.0
  2
SOLID
 70
     1
 71
     0
 91
        1
 92
        1
 93
        3
 72
     1
 10
81.77800802961558
 20
170.5661009771316
 11
82.77708637942447
 21
170.5661009771316
 72
     1
 10
82.77708637942447
 20
170.5661009771316
 11
82.27754720452002
 21
167.5685214179291
 72
     1
 10
82.27754720452002
 20
167.5685214179291
 11
81.77800802961558
 21
170.5661009771316
 97
        0
 75
     2
 76
     1
 98
        0
  0
ENDBLK
  5
579
330
576
100
AcDbEntity
  8
0
100
AcDbBlockEnd
  0
BLOCK
  5
583
330
581
100
AcDbEntity
  8
0
100
AcDbBlockBegin
  2
block 137
 70
     0
 71
     0
 10
0.0
 20
0.0
 30
0.0
  3
block 137
  1

  0
MTEXT
  5
585
330
581
100
AcDbEntity
  8
COTAS
 62
     7
420
 16777215
100
AcDbMText
 10
81.1286071022398
 20
171.1905249457621
 30
0.0
 40
2.398890470823883
 41
0.0
 71
     7
 72
     1
  1
\fArial|b1|i0|c0|p34;\W1;140
 11
-4.371139000186241E-8
 21
0.999999999999999
 31
0.0
 73
     1
 44
1.0
  0
ENDBLK
  5
584
330
581
100
AcDbEntity
  8
0
100
AcDbBlockEnd
  0
BLOCK
  5
588
330
586
100
AcDbEntity
  8
0
100
AcDbBlockBegin
  2
block 138
 70
     0
 71
     0
 10
0.0
 20
0.0
 30
0.0
  3
block 138
  1

  0
POLYLINE
  5
58A
330
586
100
AcDbEntity
  8
COTAS
 62
     7
420
 16777215
370
     9
100
AcDb2dPolyline
 66
     1
 10
0.0
 20
0.0
 30
0.0
  0
VERTEX
  5
58B
330
58A
100
AcDbEntity
  8
COTAS
 62
     7
420
 16777215
370
     9
100
AcDbVertex
100
AcDb2dVertex
 10
89.28367025999881
 20
181.556651844581
 30
0.0
  0
VERTEX
  5
58C
330
58A
100
AcDbEntity
  8
COTAS
 62
     7
420
 16777215
370
     9
100
AcDbVertex
100
AcDb2dVertex
 10
89.28367025999881
 20
181.556651844581
 30
0.0
  0
SEQEND
  5
58D
330
58A
100
AcDbEntity
  8
COTAS
370
     9
  0
ENDBLK
  5
589
330
586
100
AcDbEntity
  8
0
100
AcDbBlockEnd
  0
BLOCK
  5
590
330
58E
100
AcDbEntity
  8
0
100
AcDbBlockBegin
  2
block 139
 70
     0
 71
     0
 10
0.0
 20
0.0
 30
0.0
  3
block 139
  1

  0
POLYLINE
  5
592
330
58E
100
AcDbEntity
  8
COTAS
 62
     7
420
 16777215
370
     9
100
AcDb2dPolyline
 66
     1
 10
0.0
 20
0.0
 30
0.0
  0
VERTEX
  5
593
330
592
100
AcDbEntity
  8
COTAS
 62
     7
420
 16777215
370
     9
100
AcDbVertex
100
AcDb2dVertex
 10
90.74749229735673
 20
167.5685214179291
 30
0.0
  0
VERTEX
  5
594
330
592
100
AcDbEntity
  8
COTAS
 62
     7
420
 16777215
370
     9
100
AcDbVertex
100
AcDb2dVertex
 10
90.74749229735673
 20
167.5685214179291
 30
0.0
  0
SEQEND
  5
595
330
592
100
AcDbEntity
  8
COTAS
370
     9
  0
ENDBLK
  5
591
330
58E
100
AcDbEntity
  8
0
100
AcDbBlockEnd
  0
BLOCK
  5
598
330
596
100
AcDbEntity
  8
0
100
AcDbBlockBegin
  2
block 140
 70
     0
 71
     0
 10
0.0
 20
0.0
 30
0.0
  3
block 140
  1

  0
POLYLINE
  5
59A
330
596
100
AcDbEntity
  8
COTAS
 62
     7
420
 16777215
370
     9
100
AcDb2dPolyline
 66
     1
 10
0.0
 20
0.0
 30
0.0
  0
VERTEX
  5
59B
330
59A
100
AcDbEntity
  8
COTAS
 62
     7
420
 16777215
370
     9
100
AcDbVertex
100
AcDb2dVertex
 10
82.27754720452002
 20
167.5685214179291
 30
0.0
  0
VERTEX
  5
59C
330
59A
100
AcDbEntity
  8
COTAS
 62
     7
420
 16777215
370
     9
100
AcDbVertex
100
AcDb2dVertex
 10
82.27754720452002
 20
167.5685214179291
 30
0.0
  0
SEQEND
  5
59D
330
59A
100
AcDbEntity
  8
COTAS
370
     9
  0
ENDBLK
  5
599
330
596
100
AcDbEntity
  8
0
100
AcDbBlockEnd
  0
BLOCK
  5
5A0
330
59E
100
AcDbEntity
  8
0
100
AcDbBlockBegin
  2
block 141
 70
     0
 71
     0
 10
0.0
 20
0.0
 30
0.0
  3
block 141
  1

  0
INSERT
  5
5A3
330
59E
100
AcDbEntity
  8
COTAS
100
AcDbBlockReference
  2
block 142
 10
0.0
 20
0.0
 30
0.0
  0
INSERT
  5
5AB
330
59E
100
AcDbEntity
  8
COTAS
100
AcDbBlockReference
  2
block 143
 10
0.0
 20
0.0
 30
0.0
  0
INSERT
  5
5B3
330
59E
100
AcDbEntity
  8
COTAS
100
AcDbBlockReference
  2
block 144
 10
0.0
 20
0.0
 30
0.0
  0
INSERT
  5
5BB
330
59E
100
AcDbEntity
  8
COTAS
100
AcDbBlockReference
  2
block 145
 10
0.0
 20
0.0
 30
0.0
  0
INSERT
  5
5C3
330
59E
100
AcDbEntity
  8
COTAS
100
AcDbBlockReference
  2
block 146
 10
0.0
 20
0.0
 30
0.0
  0
INSERT
  5
5CB
330
59E
100
AcDbEntity
  8
COTAS
100
AcDbBlockReference
  2
block 147
 10
0.0
 20
0.0
 30
0.0
  0
INSERT
  5
5D0
330
59E
100
AcDbEntity
  8
COTAS
100
AcDbBlockReference
  2
block 148
 10
0.0
 20
0.0
 30
0.0
  0
INSERT
  5
5D8
330
59E
100
AcDbEntity
  8
COTAS
100
AcDbBlockReference
  2
block 149
 10
0.0
 20
0.0
 30
0.0
  0
INSERT
  5
5E0
330
59E
100
AcDbEntity
  8
COTAS
100
AcDbBlockReference
  2
block 150
 10
0.0
 20
0.0
 30
0.0
  0
INSERT
  5
5EB
330
59E
100
AcDbEntity
  8
COTAS
100
AcDbBlockReference
  2
block 151
 10
0.0
 20
0.0
 30
0.0
  0
INSERT
  5
5F6
330
59E
100
AcDbEntity
  8
COTAS
100
AcDbBlockReference
  2
block 152
 10
0.0
 20
0.0
 30
0.0
  0
INSERT
  5
5FE
330
59E
100
AcDbEntity
  8
COTAS
100
AcDbBlockReference
  2
block 153
 10
0.0
 20
0.0
 30
0.0
  0
INSERT
  5
606
330
59E
100
AcDbEntity
  8
COTAS
100
AcDbBlockReference
  2
block 154
 10
0.0
 20
0.0
 30
0.0
  0
ENDBLK
  5
5A1
330
59E
100
AcDbEntity
  8
0
100
AcDbBlockEnd
  0
BLOCK
  5
5A4
330
5A2
100
AcDbEntity
  8
0
100
AcDbBlockBegin
  2
block 142
 70
     0
 71
     0
 10
0.0
 20
0.0
 30
0.0
  3
block 142
  1

  0
POLYLINE
  5
5A6
330
5A2
100
AcDbEntity
  8
COTAS
 62
     7
420
 16777215
370
     9
100
AcDb2dPolyline
 66
     1
 10
0.0
 20
0.0
 30
0.0
  0
VERTEX
  5
5A7
330
5A6
100
AcDbEntity
  8
COTAS
 62
     7
420
 16777215
370
     9
100
AcDbVertex
100
AcDb2dVertex
 10
131.6580281731518
 20
117.5539702069445
 30
0.0
  0
VERTEX
  5
5A8
330
5A6
100
AcDbEntity
  8
COTAS
 62
     7
420
 16777215
370
     9
100
AcDbVertex
100
AcDb2dVertex
 10
131.6580281731518
 20
83.91396863955183
 30
0.0
  0
SEQEND
  5
5A9
330
5A6
100
AcDbEntity
  8
COTAS
370
     9
  0
ENDBLK
  5
5A5
330
5A2
100
AcDbEntity
  8
0
100
AcDbBlockEnd
  0
BLOCK
  5
5AC
330
5AA
100
AcDbEntity
  8
0
100
AcDbBlockBegin
  2
block 143
 70
     0
 71
     0
 10
0.0
 20
0.0
 30
0.0
  3
block 143
  1

  0
POLYLINE
  5
5AE
330
5AA
100
AcDbEntity
  8
COTAS
 62
     7
420
 16777215
370
     9
100
AcDb2dPolyline
 66
     1
 10
0.0
 20
0.0
 30
0.0
  0
VERTEX
  5
5AF
330
5AE
100
AcDbEntity
  8
COTAS
 62
     7
420
 16777215
370
     9
100
AcDbVertex
100
AcDb2dVertex
 10
133.4567137125836
 20
96.88062758096802
 30
0.0
  0
VERTEX
  5
5B0
330
5AE
100
AcDbEntity
  8
COTAS
 62
     7
420
 16777215
370
     9
100
AcDbVertex
100
AcDb2dVertex
 10
133.4567137125836
 20
83.91396863955183
 30
0.0
  0
SEQEND
  5
5B1
330
5AE
100
AcDbEntity
  8
COTAS
370
     9
  0
ENDBLK
  5
5AD
330
5AA
100
AcDbEntity
  8
0
100
AcDbBlockEnd
  0
BLOCK
  5
5B4
330
5B2
100
AcDbEntity
  8
0
100
AcDbBlockBegin
  2
block 144
 70
     0
 71
     0
 10
0.0
 20
0.0
 30
0.0
  3
block 144
  1

  0
POLYLINE
  5
5B6
330
5B2
100
AcDbEntity
  8
COTAS
 62
     7
420
 16777215
370
     9
100
AcDb2dPolyline
 66
     1
 10
0.0
 20
0.0
 30
0.0
  0
VERTEX
  5
5B7
330
5B6
100
AcDbEntity
  8
COTAS
 62
     7
420
 16777215
370
     9
100
AcDbVertex
100
AcDb2dVertex
 10
128.6607931237251
 20
85.21277049430338
 30
0.0
  0
VERTEX
  5
5B8
330
5B6
100
AcDbEntity
  8
COTAS
 62
     7
420
 16777215
370
     9
100
AcDbVertex
100
AcDb2dVertex
 10
125.6632135645226
 20
85.21277049430338
 30
0.0
  0
SEQEND
  5
5B9
330
5B6
100
AcDbEntity
  8
COTAS
370
     9
  0
ENDBLK
  5
5B5
330
5B2
100
AcDbEntity
  8
0
100
AcDbBlockEnd
  0
BLOCK
  5
5BC
330
5BA
100
AcDbEntity
  8
0
100
AcDbBlockBegin
  2
block 145
 70
     0
 71
     0
 10
0.0
 20
0.0
 30
0.0
  3
block 145
  1

  0
POLYLINE
  5
5BE
330
5BA
100
AcDbEntity
  8
COTAS
 62
     7
420
 16777215
370
     9
100
AcDb2dPolyline
 66
     1
 10
0.0
 20
0.0
 30
0.0
  0
VERTEX
  5
5BF
330
5BE
100
AcDbEntity
  8
COTAS
 62
     7
420
 16777215
370
     9
100
AcDbVertex
100
AcDb2dVertex
 10
136.4539487620102
 20
85.21277049430338
 30
0.0
  0
VERTEX
  5
5C0
330
5BE
100
AcDbEntity
  8
COTAS
 62
     7
420
 16777215
370
     9
100
AcDbVertex
100
AcDb2dVertex
 10
139.4515283212127
 20
85.21277049430338
 30
0.0
  0
SEQEND
  5
5C1
330
5BE
100
AcDbEntity
  8
COTAS
370
     9
  0
ENDBLK
  5
5BD
330
5BA
100
AcDbEntity
  8
0
100
AcDbBlockEnd
  0
BLOCK
  5
5C4
330
5C2
100
AcDbEntity
  8
0
100
AcDbBlockBegin
  2
block 146
 70
     0
 71
     0
 10
0.0
 20
0.0
 30
0.0
  3
block 146
  1

  0
POLYLINE
  5
5C6
330
5C2
100
AcDbEntity
  8
COTAS
 62
     7
420
 16777215
370
     9
100
AcDb2dPolyline
 66
     1
 10
0.0
 20
0.0
 30
0.0
  0
VERTEX
  5
5C7
330
5C6
100
AcDbEntity
  8
COTAS
 62
     7
420
 16777215
370
     9
100
AcDbVertex
100
AcDb2dVertex
 10
145.1076898202342
 20
85.21277049430338
 30
0.0
  0
VERTEX
  5
5C8
330
5C6
100
AcDbEntity
  8
COTAS
 62
     7
420
 16777215
370
     9
100
AcDbVertex
100
AcDb2dVertex
 10
133.4567137125836
 20
85.21277049430338
 30
0.0
  0
SEQEND
  5
5C9
330
5C6
100
AcDbEntity
  8
COTAS
370
     9
  0
ENDBLK
  5
5C5
330
5C2
100
AcDbEntity
  8
0
100
AcDbBlockEnd
  0
BLOCK
  5
5CC
330
5CA
100
AcDbEntity
  8
0
100
AcDbBlockBegin
  2
block 147
 70
     0
 71
     0
 10
0.0
 20
0.0
 30
0.0
  3
block 147
  1

  0
MTEXT
  5
5CE
330
5CA
100
AcDbEntity
  8
COTAS
 62
     7
420
 16777215
100
AcDbMText
 10
139.9975763158496
 20
86.3617105965836
 30
0.0
 40
2.398890470823883
 41
0.0
 71
     7
 72
     1
  1
\fArial|b1|i0|c0|p34;\W1;18
 73
     1
 44
1.0
  0
ENDBLK
  5
5CD
330
5CA
100
AcDbEntity
  8
0
100
AcDbBlockEnd
  0
BLOCK
  5
5D1
330
5CF
100
AcDbEntity
  8
0
100
AcDbBlockBegin
  2
block 148
 70
     0
 71
     0
 10
0.0
 20
0.0
 30
0.0
  3
block 148
  1

  0
POLYLINE
  5
5D3
330
5CF
100
AcDbEntity
  8
COTAS
 62
     7
420
 16777215
370
     9
100
AcDb2dPolyline
 66
     1
 10
0.0
 20
0.0
 30
0.0
  0
VERTEX
  5
5D4
330
5D3
100
AcDbEntity
  8
COTAS
 62
     7
420
 16777215
370
     9
100
AcDbVertex
100
AcDb2dVertex
 10
131.6580281731518
 20
85.21277049430338
 30
0.0
  0
VERTEX
  5
5D5
330
5D3
100
AcDbEntity
  8
COTAS
 62
     7
420
 16777215
370
     9
100
AcDbVertex
100
AcDb2dVertex
 10
133.4567137125836
 20
85.21277049430338
 30
0.0
  0
SEQEND
  5
5D6
330
5D3
100
AcDbEntity
  8
COTAS
370
     9
  0
ENDBLK
  5
5D2
330
5CF
100
AcDbEntity
  8
0
100
AcDbBlockEnd
  0
BLOCK
  5
5D9
330
5D7
100
AcDbEntity
  8
0
100
AcDbBlockBegin
  2
block 149
 70
     0
 71
     0
 10
0.0
 20
0.0
 30
0.0
  3
block 149
  1

  0
POLYLINE
  5
5DB
330
5D7
100
AcDbEntity
  8
COTAS
 62
     7
420
 16777215
370
     9
100
AcDb2dPolyline
 66
     1
 10
0.0
 20
0.0
 30
0.0
  0
VERTEX
  5
5DC
330
5DB
100
AcDbEntity
  8
COTAS
 62
     7
420
 16777215
370
     9
100
AcDbVertex
100
AcDb2dVertex
 10
131.6580281731518
 20
85.21277049430338
 30
0.0
  0
VERTEX
  5
5DD
330
5DB
100
AcDbEntity
  8
COTAS
 62
     7
420
 16777215
370
     9
100
AcDbVertex
100
AcDb2dVertex
 10
133.4567137125836
 20
85.21277049430338
 30
0.0
  0
SEQEND
  5
5DE
330
5DB
100
AcDbEntity
  8
COTAS
370
     9
  0
ENDBLK
  5
5DA
330
5D7
100
AcDbEntity
  8
0
100
AcDbBlockEnd
  0
BLOCK
  5
5E1
330
5DF
100
AcDbEntity
  8
0
100
AcDbBlockBegin
  2
block 150
 70
     0
 71
     0
 10
0.0
 20
0.0
 30
0.0
  3
block 150
  1

  0
POLYLINE
  5
5E3
330
5DF
100
AcDbEntity
  8
COTAS
370
     0
100
AcDb2dPolyline
 66
     1
 10
0.0
 20
0.0
 30
0.0
  0
VERTEX
  5
5E4
330
5E3
100
AcDbEntity
  8
COTAS
370
     0
100
AcDbVertex
100
AcDb2dVertex
 10
128.6607931237251
 20
85.71230966920783
 30
0.0
  0
VERTEX
  5
5E5
330
5E3
100
AcDbEntity
  8
COTAS
370
     0
100
AcDbVertex
100
AcDb2dVertex
 10
128.6607931237251
 20
84.71323131939894
 30
0.0
  0
VERTEX
  5
5E6
330
5E3
100
AcDbEntity
  8
COTAS
370
     0
100
AcDbVertex
100
AcDb2dVertex
 10
131.6580281731518
 20
85.21277049430338
 30
0.0
  0
VERTEX
  5
5E7
330
5E3
100
AcDbEntity
  8
COTAS
370
     0
100
AcDbVertex
100
AcDb2dVertex
 10
128.6607931237251
 20
85.71230966920783
 30
0.0
  0
SEQEND
  5
5E8
330
5E3
100
AcDbEntity
  8
COTAS
370
     0
  0
HATCH
  5
5E9
330
5DF
100
AcDbEntity
  8
COTAS
 62
     7
420
 16777215
100
AcDbHatch
 10
0.0
 20
0.0
 30
0.0
210
0.0
220
0.0
230
1.0
  2
SOLID
 70
     1
 71
     0
 91
        1
 92
        1
 93
        3
 72
     1
 10
128.6607931237251
 20
85.71230966920783
 11
128.6607931237251
 21
84.71323131939894
 72
     1
 10
128.6607931237251
 20
84.71323131939894
 11
131.6580281731518
 21
85.21277049430338
 72
     1
 10
131.6580281731518
 20
85.21277049430338
 11
128.6607931237251
 21
85.71230966920783
 97
        0
 75
     2
 76
     1
 98
        0
  0
ENDBLK
  5
5E2
330
5DF
100
AcDbEntity
  8
0
100
AcDbBlockEnd
  0
BLOCK
  5
5EC
330
5EA
100
AcDbEntity
  8
0
100
AcDbBlockBegin
  2
block 151
 70
     0
 71
     0
 10
0.0
 20
0.0
 30
0.0
  3
block 151
  1

  0
POLYLINE
  5
5EE
330
5EA
100
AcDbEntity
  8
COTAS
370
     0
100
AcDb2dPolyline
 66
     1
 10
0.0
 20
0.0
 30
0.0
  0
VERTEX
  5
5EF
330
5EE
100
AcDbEntity
  8
COTAS
370
     0
100
AcDbVertex
100
AcDb2dVertex
 10
136.4539487620102
 20
85.71230966920783
 30
0.0
  0
VERTEX
  5
5F0
330
5EE
100
AcDbEntity
  8
COTAS
370
     0
100
AcDbVertex
100
AcDb2dVertex
 10
136.4539487620102
 20
84.71323131939894
 30
0.0
  0
VERTEX
  5
5F1
330
5EE
100
AcDbEntity
  8
COTAS
370
     0
100
AcDbVertex
100
AcDb2dVertex
 10
133.4567137125836
 20
85.21277049430338
 30
0.0
  0
VERTEX
  5
5F2
330
5EE
100
AcDbEntity
  8
COTAS
370
     0
100
AcDbVertex
100
AcDb2dVertex
 10
136.4539487620102
 20
85.71230966920783
 30
0.0
  0
SEQEND
  5
5F3
330
5EE
100
AcDbEntity
  8
COTAS
370
     0
  0
HATCH
  5
5F4
330
5EA
100
AcDbEntity
  8
COTAS
 62
     7
420
 16777215
100
AcDbHatch
 10
0.0
 20
0.0
 30
0.0
210
0.0
220
0.0
230
1.0
  2
SOLID
 70
     1
 71
     0
 91
        1
 92
        1
 93
        3
 72
     1
 10
136.4539487620102
 20
85.71230966920783
 11
136.4539487620102
 21
84.71323131939894
 72
     1
 10
136.4539487620102
 20
84.71323131939894
 11
133.4567137125836
 21
85.21277049430338
 72
     1
 10
133.4567137125836
 20
85.21277049430338
 11
136.4539487620102
 21
85.71230966920783
 97
        0
 75
     2
 76
     1
 98
        0
  0
ENDBLK
  5
5ED
330
5EA
100
AcDbEntity
  8
0
100
AcDbBlockEnd
  0
BLOCK
  5
5F7
330
5F5
100
AcDbEntity
  8
0
100
AcDbBlockBegin
  2
block 152
 70
     0
 71
     0
 10
0.0
 20
0.0
 30
0.0
  3
block 152
  1

  0
POLYLINE
  5
5F9
330
5F5
100
AcDbEntity
  8
COTAS
 62
     7
420
 16777215
370
     9
100
AcDb2dPolyline
 66
     1
 10
0.0
 20
0.0
 30
0.0
  0
VERTEX
  5
5FA
330
5F9
100
AcDbEntity
  8
COTAS
 62
     7
420
 16777215
370
     9
100
AcDbVertex
100
AcDb2dVertex
 10
131.6580281731518
 20
117.6538780419254
 30
0.0
  0
VERTEX
  5
5FB
330
5F9
100
AcDbEntity
  8
COTAS
 62
     7
420
 16777215
370
     9
100
AcDbVertex
100
AcDb2dVertex
 10
131.6580281731518
 20
117.6538780419254
 30
0.0
  0
SEQEND
  5
5FC
330
5F9
100
AcDbEntity
  8
COTAS
370
     9
  0
ENDBLK
  5
5F8
330
5F5
100
AcDbEntity
  8
0
100
AcDbBlockEnd
  0
BLOCK
  5
5FF
330
5FD
100
AcDbEntity
  8
0
100
AcDbBlockBegin
  2
block 153
 70
     0
 71
     0
 10
0.0
 20
0.0
 30
0.0
  3
block 153
  1

  0
POLYLINE
  5
601
330
5FD
100
AcDbEntity
  8
COTAS
 62
     7
420
 16777215
370
     9
100
AcDb2dPolyline
 66
     1
 10
0.0
 20
0.0
 30
0.0
  0
VERTEX
  5
602
330
601
100
AcDbEntity
  8
COTAS
 62
     7
420
 16777215
370
     9
100
AcDbVertex
100
AcDb2dVertex
 10
133.4567137125836
 20
96.98087992572472
 30
0.0
  0
VERTEX
  5
603
330
601
100
AcDbEntity
  8
COTAS
 62
     7
420
 16777215
370
     9
100
AcDbVertex
100
AcDb2dVertex
 10
133.4567137125836
 20
96.98087992572472
 30
0.0
  0
SEQEND
  5
604
330
601
100
AcDbEntity
  8
COTAS
370
     9
  0
ENDBLK
  5
600
330
5FD
100
AcDbEntity
  8
0
100
AcDbBlockEnd
  0
BLOCK
  5
607
330
605
100
AcDbEntity
  8
0
100
AcDbBlockBegin
  2
block 154
 70
     0
 71
     0
 10
0.0
 20
0.0
 30
0.0
  3
block 154
  1

  0
POLYLINE
  5
609
330
605
100
AcDbEntity
  8
COTAS
 62
     7
420
 16777215
370
     9
100
AcDb2dPolyline
 66
     1
 10
0.0
 20
0.0
 30
0.0
  0
VERTEX
  5
60A
330
609
100
AcDbEntity
  8
COTAS
 62
     7
420
 16777215
370
     9
100
AcDbVertex
100
AcDb2dVertex
 10
133.4567137125836
 20
85.21277049430338
 30
0.0
  0
VERTEX
  5
60B
330
609
100
AcDbEntity
  8
COTAS
 62
     7
420
 16777215
370
     9
100
AcDbVertex
100
AcDb2dVertex
 10
133.4567137125836
 20
85.21277049430338
 30
0.0
  0
SEQEND
  5
60C
330
609
100
AcDbEntity
  8
COTAS
370
     9
  0
ENDBLK
  5
608
330
605
100
AcDbEntity
  8
0
100
AcDbBlockEnd
  0
BLOCK
  5
60F
330
60D
100
AcDbEntity
  8
0
100
AcDbBlockBegin
  2
block 155
 70
     0
 71
     0
 10
0.0
 20
0.0
 30
0.0
  3
block 155
  1

  0
INSERT
  5
612
330
60D
100
AcDbEntity
  8
COTAS
100
AcDbBlockReference
  2
block 156
 10
0.0
 20
0.0
 30
0.0
  0
INSERT
  5
61A
330
60D
100
AcDbEntity
  8
COTAS
100
AcDbBlockReference
  2
block 157
 10
0.0
 20
0.0
 30
0.0
  0
INSERT
  5
622
330
60D
100
AcDbEntity
  8
COTAS
100
AcDbBlockReference
  2
block 158
 10
0.0
 20
0.0
 30
0.0
  0
INSERT
  5
62A
330
60D
100
AcDbEntity
  8
COTAS
100
AcDbBlockReference
  2
block 159
 10
0.0
 20
0.0
 30
0.0
  0
INSERT
  5
632
330
60D
100
AcDbEntity
  8
COTAS
100
AcDbBlockReference
  2
block 160
 10
0.0
 20
0.0
 30
0.0
  0
INSERT
  5
63A
330
60D
100
AcDbEntity
  8
COTAS
100
AcDbBlockReference
  2
block 161
 10
0.0
 20
0.0
 30
0.0
  0
INSERT
  5
63F
330
60D
100
AcDbEntity
  8
COTAS
100
AcDbBlockReference
  2
block 162
 10
0.0
 20
0.0
 30
0.0
  0
INSERT
  5
647
330
60D
100
AcDbEntity
  8
COTAS
100
AcDbBlockReference
  2
block 163
 10
0.0
 20
0.0
 30
0.0
  0
INSERT
  5
64F
330
60D
100
AcDbEntity
  8
COTAS
100
AcDbBlockReference
  2
block 164
 10
0.0
 20
0.0
 30
0.0
  0
INSERT
  5
65A
330
60D
100
AcDbEntity
  8
COTAS
100
AcDbBlockReference
  2
block 165
 10
0.0
 20
0.0
 30
0.0
  0
INSERT
  5
665
330
60D
100
AcDbEntity
  8
COTAS
100
AcDbBlockReference
  2
block 166
 10
0.0
 20
0.0
 30
0.0
  0
INSERT
  5
66D
330
60D
100
AcDbEntity
  8
COTAS
100
AcDbBlockReference
  2
block 167
 10
0.0
 20
0.0
 30
0.0
  0
INSERT
  5
675
330
60D
100
AcDbEntity
  8
COTAS
100
AcDbBlockReference
  2
block 168
 10
0.0
 20
0.0
 30
0.0
  0
ENDBLK
  5
610
330
60D
100
AcDbEntity
  8
0
100
AcDbBlockEnd
  0
BLOCK
  5
613
330
611
100
AcDbEntity
  8
0
100
AcDbBlockBegin
  2
block 156
 70
     0
 71
     0
 10
0.0
 20
0.0
 30
0.0
  3
block 156
  1

  0
POLYLINE
  5
615
330
611
100
AcDbEntity
  8
COTAS
 62
     7
420
 16777215
370
     9
100
AcDb2dPolyline
 66
     1
 10
0.0
 20
0.0
 30
0.0
  0
VERTEX
  5
616
330
615
100
AcDbEntity
  8
COTAS
 62
     7
420
 16777215
370
     9
100
AcDbVertex
100
AcDb2dVertex
 10
90.30634752944974
 20
117.5539702069445
 30
0.0
  0
VERTEX
  5
617
330
615
100
AcDbEntity
  8
COTAS
 62
     7
420
 16777215
370
     9
100
AcDbVertex
100
AcDb2dVertex
 10
90.30634752944974
 20
83.91396863955183
 30
0.0
  0
SEQEND
  5
618
330
615
100
AcDbEntity
  8
COTAS
370
     9
  0
ENDBLK
  5
614
330
611
100
AcDbEntity
  8
0
100
AcDbBlockEnd
  0
BLOCK
  5
61B
330
619
100
AcDbEntity
  8
0
100
AcDbBlockBegin
  2
block 157
 70
     0
 71
     0
 10
0.0
 20
0.0
 30
0.0
  3
block 157
  1

  0
POLYLINE
  5
61D
330
619
100
AcDbEntity
  8
COTAS
 62
     7
420
 16777215
370
     9
100
AcDb2dPolyline
 66
     1
 10
0.0
 20
0.0
 30
0.0
  0
VERTEX
  5
61E
330
61D
100
AcDbEntity
  8
COTAS
 62
     7
420
 16777215
370
     9
100
AcDbVertex
100
AcDb2dVertex
 10
88.49474287342558
 20
96.88062758096802
 30
0.0
  0
VERTEX
  5
61F
330
61D
100
AcDbEntity
  8
COTAS
 62
     7
420
 16777215
370
     9
100
AcDbVertex
100
AcDb2dVertex
 10
88.49474287342558
 20
83.91396863955183
 30
0.0
  0
SEQEND
  5
620
330
61D
100
AcDbEntity
  8
COTAS
370
     9
  0
ENDBLK
  5
61C
330
619
100
AcDbEntity
  8
0
100
AcDbBlockEnd
  0
BLOCK
  5
623
330
621
100
AcDbEntity
  8
0
100
AcDbBlockBegin
  2
block 158
 70
     0
 71
     0
 10
0.0
 20
0.0
 30
0.0
  3
block 158
  1

  0
POLYLINE
  5
625
330
621
100
AcDbEntity
  8
COTAS
 62
     7
420
 16777215
370
     9
100
AcDb2dPolyline
 66
     1
 10
0.0
 20
0.0
 30
0.0
  0
VERTEX
  5
626
330
625
100
AcDbEntity
  8
COTAS
 62
     7
420
 16777215
370
     9
100
AcDbVertex
100
AcDb2dVertex
 10
93.3039270886522
 20
85.21277049430338
 30
0.0
  0
VERTEX
  5
627
330
625
100
AcDbEntity
  8
COTAS
 62
     7
420
 16777215
370
     9
100
AcDbVertex
100
AcDb2dVertex
 10
96.30133439296677
 20
85.21277049430338
 30
0.0
  0
SEQEND
  5
628
330
625
100
AcDbEntity
  8
COTAS
370
     9
  0
ENDBLK
  5
624
330
621
100
AcDbEntity
  8
0
100
AcDbBlockEnd
  0
BLOCK
  5
62B
330
629
100
AcDbEntity
  8
0
100
AcDbBlockBegin
  2
block 159
 70
     0
 71
     0
 10
0.0
 20
0.0
 30
0.0
  3
block 159
  1

  0
POLYLINE
  5
62D
330
629
100
AcDbEntity
  8
COTAS
 62
     7
420
 16777215
370
     9
100
AcDb2dPolyline
 66
     1
 10
0.0
 20
0.0
 30
0.0
  0
VERTEX
  5
62E
330
62D
100
AcDbEntity
  8
COTAS
 62
     7
420
 16777215
370
     9
100
AcDbVertex
100
AcDb2dVertex
 10
85.49733556911102
 20
85.21277049430338
 30
0.0
  0
VERTEX
  5
62F
330
62D
100
AcDbEntity
  8
COTAS
 62
     7
420
 16777215
370
     9
100
AcDbVertex
100
AcDb2dVertex
 10
82.49975600990855
 20
85.21277049430338
 30
0.0
  0
SEQEND
  5
630
330
62D
100
AcDbEntity
  8
COTAS
370
     9
  0
ENDBLK
  5
62C
330
629
100
AcDbEntity
  8
0
100
AcDbBlockEnd
  0
BLOCK
  5
633
330
631
100
AcDbEntity
  8
0
100
AcDbBlockBegin
  2
block 160
 70
     0
 71
     0
 10
0.0
 20
0.0
 30
0.0
  3
block 160
  1

  0
POLYLINE
  5
635
330
631
100
AcDbEntity
  8
COTAS
 62
     7
420
 16777215
370
     9
100
AcDb2dPolyline
 66
     1
 10
0.0
 20
0.0
 30
0.0
  0
VERTEX
  5
636
330
635
100
AcDbEntity
  8
COTAS
 62
     7
420
 16777215
370
     9
100
AcDbVertex
100
AcDb2dVertex
 10
76.53164090890363
 20
85.21277049430338
 30
0.0
  0
VERTEX
  5
637
330
635
100
AcDbEntity
  8
COTAS
 62
     7
420
 16777215
370
     9
100
AcDbVertex
100
AcDb2dVertex
 10
88.49474287342558
 20
85.21277049430338
 30
0.0
  0
SEQEND
  5
638
330
635
100
AcDbEntity
  8
COTAS
370
     9
  0
ENDBLK
  5
634
330
631
100
AcDbEntity
  8
0
100
AcDbBlockEnd
  0
BLOCK
  5
63B
330
639
100
AcDbEntity
  8
0
100
AcDbBlockBegin
  2
block 161
 70
     0
 71
     0
 10
0.0
 20
0.0
 30
0.0
  3
block 161
  1

  0
MTEXT
  5
63D
330
639
100
AcDbEntity
  8
COTAS
 62
     7
420
 16777215
100
AcDbMText
 10
77.03824253421189
 20
86.3617105965836
 30
0.0
 40
2.398890470823883
 41
0.0
 71
     7
 72
     1
  1
\fArial|b1|i0|c0|p34;\W1;18
 73
     1
 44
1.0
  0
ENDBLK
  5
63C
330
639
100
AcDbEntity
  8
0
100
AcDbBlockEnd
  0
BLOCK
  5
640
330
63E
100
AcDbEntity
  8
0
100
AcDbBlockBegin
  2
block 162
 70
     0
 71
     0
 10
0.0
 20
0.0
 30
0.0
  3
block 162
  1

  0
POLYLINE
  5
642
330
63E
100
AcDbEntity
  8
COTAS
 62
     7
420
 16777215
370
     9
100
AcDb2dPolyline
 66
     1
 10
0.0
 20
0.0
 30
0.0
  0
VERTEX
  5
643
330
642
100
AcDbEntity
  8
COTAS
 62
     7
420
 16777215
370
     9
100
AcDbVertex
100
AcDb2dVertex
 10
90.30634752944974
 20
85.21277049430338
 30
0.0
  0
VERTEX
  5
644
330
642
100
AcDbEntity
  8
COTAS
 62
     7
420
 16777215
370
     9
100
AcDbVertex
100
AcDb2dVertex
 10
88.49474287342558
 20
85.21277049430338
 30
0.0
  0
SEQEND
  5
645
330
642
100
AcDbEntity
  8
COTAS
370
     9
  0
ENDBLK
  5
641
330
63E
100
AcDbEntity
  8
0
100
AcDbBlockEnd
  0
BLOCK
  5
648
330
646
100
AcDbEntity
  8
0
100
AcDbBlockBegin
  2
block 163
 70
     0
 71
     0
 10
0.0
 20
0.0
 30
0.0
  3
block 163
  1

  0
POLYLINE
  5
64A
330
646
100
AcDbEntity
  8
COTAS
 62
     7
420
 16777215
370
     9
100
AcDb2dPolyline
 66
     1
 10
0.0
 20
0.0
 30
0.0
  0
VERTEX
  5
64B
330
64A
100
AcDbEntity
  8
COTAS
 62
     7
420
 16777215
370
     9
100
AcDbVertex
100
AcDb2dVertex
 10
90.30634752944974
 20
85.21277049430338
 30
0.0
  0
VERTEX
  5
64C
330
64A
100
AcDbEntity
  8
COTAS
 62
     7
420
 16777215
370
     9
100
AcDbVertex
100
AcDb2dVertex
 10
88.49474287342558
 20
85.21277049430338
 30
0.0
  0
SEQEND
  5
64D
330
64A
100
AcDbEntity
  8
COTAS
370
     9
  0
ENDBLK
  5
649
330
646
100
AcDbEntity
  8
0
100
AcDbBlockEnd
  0
BLOCK
  5
650
330
64E
100
AcDbEntity
  8
0
100
AcDbBlockBegin
  2
block 164
 70
     0
 71
     0
 10
0.0
 20
0.0
 30
0.0
  3
block 164
  1

  0
POLYLINE
  5
652
330
64E
100
AcDbEntity
  8
COTAS
370
     0
100
AcDb2dPolyline
 66
     1
 10
0.0
 20
0.0
 30
0.0
  0
VERTEX
  5
653
330
652
100
AcDbEntity
  8
COTAS
370
     0
100
AcDbVertex
100
AcDb2dVertex
 10
93.3039270886522
 20
85.71230966920783
 30
0.0
  0
VERTEX
  5
654
330
652
100
AcDbEntity
  8
COTAS
370
     0
100
AcDbVertex
100
AcDb2dVertex
 10
93.3039270886522
 20
84.71323131939894
 30
0.0
  0
VERTEX
  5
655
330
652
100
AcDbEntity
  8
COTAS
370
     0
100
AcDbVertex
100
AcDb2dVertex
 10
90.30634752944974
 20
85.21277049430338
 30
0.0
  0
VERTEX
  5
656
330
652
100
AcDbEntity
  8
COTAS
370
     0
100
AcDbVertex
100
AcDb2dVertex
 10
93.3039270886522
 20
85.71230966920783
 30
0.0
  0
SEQEND
  5
657
330
652
100
AcDbEntity
  8
COTAS
370
     0
  0
HATCH
  5
658
330
64E
100
AcDbEntity
  8
COTAS
 62
     7
420
 16777215
100
AcDbHatch
 10
0.0
 20
0.0
 30
0.0
210
0.0
220
0.0
230
1.0
  2
SOLID
 70
     1
 71
     0
 91
        1
 92
        1
 93
        3
 72
     1
 10
93.3039270886522
 20
85.71230966920783
 11
93.3039270886522
 21
84.71323131939894
 72
     1
 10
93.3039270886522
 20
84.71323131939894
 11
90.30634752944974
 21
85.21277049430338
 72
     1
 10
90.30634752944974
 20
85.21277049430338
 11
93.3039270886522
 21
85.71230966920783
 97
        0
 75
     2
 76
     1
 98
        0
  0
ENDBLK
  5
651
330
64E
100
AcDbEntity
  8
0
100
AcDbBlockEnd
  0
BLOCK
  5
65B
330
659
100
AcDbEntity
  8
0
100
AcDbBlockBegin
  2
block 165
 70
     0
 71
     0
 10
0.0
 20
0.0
 30
0.0
  3
block 165
  1

  0
POLYLINE
  5
65D
330
659
100
AcDbEntity
  8
COTAS
370
     0
100
AcDb2dPolyline
 66
     1
 10
0.0
 20
0.0
 30
0.0
  0
VERTEX
  5
65E
330
65D
100
AcDbEntity
  8
COTAS
370
     0
100
AcDbVertex
100
AcDb2dVertex
 10
85.49733556911102
 20
85.71230966920783
 30
0.0
  0
VERTEX
  5
65F
330
65D
100
AcDbEntity
  8
COTAS
370
     0
100
AcDbVertex
100
AcDb2dVertex
 10
85.49733556911102
 20
84.71323131939894
 30
0.0
  0
VERTEX
  5
660
330
65D
100
AcDbEntity
  8
COTAS
370
     0
100
AcDbVertex
100
AcDb2dVertex
 10
88.49474287342558
 20
85.21277049430338
 30
0.0
  0
VERTEX
  5
661
330
65D
100
AcDbEntity
  8
COTAS
370
     0
100
AcDbVertex
100
AcDb2dVertex
 10
85.49733556911102
 20
85.71230966920783
 30
0.0
  0
SEQEND
  5
662
330
65D
100
AcDbEntity
  8
COTAS
370
     0
  0
HATCH
  5
663
330
659
100
AcDbEntity
  8
COTAS
 62
     7
420
 16777215
100
AcDbHatch
 10
0.0
 20
0.0
 30
0.0
210
0.0
220
0.0
230
1.0
  2
SOLID
 70
     1
 71
     0
 91
        1
 92
        1
 93
        3
 72
     1
 10
85.49733556911102
 20
85.71230966920783
 11
85.49733556911102
 21
84.71323131939894
 72
     1
 10
85.49733556911102
 20
84.71323131939894
 11
88.49474287342558
 21
85.21277049430338
 72
     1
 10
88.49474287342558
 20
85.21277049430338
 11
85.49733556911102
 21
85.71230966920783
 97
        0
 75
     2
 76
     1
 98
        0
  0
ENDBLK
  5
65C
330
659
100
AcDbEntity
  8
0
100
AcDbBlockEnd
  0
BLOCK
  5
666
330
664
100
AcDbEntity
  8
0
100
AcDbBlockBegin
  2
block 166
 70
     0
 71
     0
 10
0.0
 20
0.0
 30
0.0
  3
block 166
  1

  0
POLYLINE
  5
668
330
664
100
AcDbEntity
  8
COTAS
 62
     7
420
 16777215
370
     9
100
AcDb2dPolyline
 66
     1
 10
0.0
 20
0.0
 30
0.0
  0
VERTEX
  5
669
330
668
100
AcDbEntity
  8
COTAS
 62
     7
420
 16777215
370
     9
100
AcDbVertex
100
AcDb2dVertex
 10
90.30634752944974
 20
117.6538780419254
 30
0.0
  0
VERTEX
  5
66A
330
668
100
AcDbEntity
  8
COTAS
 62
     7
420
 16777215
370
     9
100
AcDbVertex
100
AcDb2dVertex
 10
90.30634752944974
 20
117.6538780419254
 30
0.0
  0
SEQEND
  5
66B
330
668
100
AcDbEntity
  8
COTAS
370
     9
  0
ENDBLK
  5
667
330
664
100
AcDbEntity
  8
0
100
AcDbBlockEnd
  0
BLOCK
  5
66E
330
66C
100
AcDbEntity
  8
0
100
AcDbBlockBegin
  2
block 167
 70
     0
 71
     0
 10
0.0
 20
0.0
 30
0.0
  3
block 167
  1

  0
POLYLINE
  5
670
330
66C
100
AcDbEntity
  8
COTAS
 62
     7
420
 16777215
370
     9
100
AcDb2dPolyline
 66
     1
 10
0.0
 20
0.0
 30
0.0
  0
VERTEX
  5
671
330
670
100
AcDbEntity
  8
COTAS
 62
     7
420
 16777215
370
     9
100
AcDbVertex
100
AcDb2dVertex
 10
88.49474287342558
 20
96.98087992572472
 30
0.0
  0
VERTEX
  5
672
330
670
100
AcDbEntity
  8
COTAS
 62
     7
420
 16777215
370
     9
100
AcDbVertex
100
AcDb2dVertex
 10
88.49474287342558
 20
96.98087992572472
 30
0.0
  0
SEQEND
  5
673
330
670
100
AcDbEntity
  8
COTAS
370
     9
  0
ENDBLK
  5
66F
330
66C
100
AcDbEntity
  8
0
100
AcDbBlockEnd
  0
BLOCK
  5
676
330
674
100
AcDbEntity
  8
0
100
AcDbBlockBegin
  2
block 168
 70
     0
 71
     0
 10
0.0
 20
0.0
 30
0.0
  3
block 168
  1

  0
POLYLINE
  5
678
330
674
100
AcDbEntity
  8
COTAS
 62
     7
420
 16777215
370
     9
100
AcDb2dPolyline
 66
     1
 10
0.0
 20
0.0
 30
0.0
  0
VERTEX
  5
679
330
678
100
AcDbEntity
  8
COTAS
 62
     7
420
 16777215
370
     9
100
AcDbVertex
100
AcDb2dVertex
 10
88.49474287342558
 20
85.21277049430338
 30
0.0
  0
VERTEX
  5
67A
330
678
100
AcDbEntity
  8
COTAS
 62
     7
420
 16777215
370
     9
100
AcDbVertex
100
AcDb2dVertex
 10
88.49474287342558
 20
85.21277049430338
 30
0.0
  0
SEQEND
  5
67B
330
678
100
AcDbEntity
  8
COTAS
370
     9
  0
ENDBLK
  5
677
330
674
100
AcDbEntity
  8
0
100
AcDbBlockEnd
  0
BLOCK
  5
67F
330
67D
100
AcDbEntity
  8
0
100
AcDbBlockBegin
  2
block 169
 70
     0
 71
     0
 10
0.0
 20
0.0
 30
0.0
  3
block 169
  1

  0
POLYLINE
  5
681
330
67D
100
AcDbEntity
  8
EJES
  6
AI-Linetype-1
 62
     7
420
 16777215
370
     9
100
AcDb2dPolyline
 66
     1
 10
0.0
 20
0.0
 30
0.0
  0
VERTEX
  5
682
330
681
100
AcDbEntity
  8
EJES
  6
AI-Linetype-1
 62
     7
420
 16777215
370
     9
100
AcDbVertex
100
AcDb2dVertex
 10
110.9719386854708
 20
164.3778441293929
 30
0.0
  0
VERTEX
  5
683
330
681
100
AcDbEntity
  8
EJES
  6
AI-Linetype-1
 62
     7
420
 16777215
370
     9
100
AcDbVertex
100
AcDb2dVertex
 10
110.9719386854708
 20
173.0574234208016
 30
0.0
  0
SEQEND
  5
684
330
681
100
AcDbEntity
  8
EJES
  6
AI-Linetype-1
370
     9
  0
ENDBLK
  5
680
330
67D
100
AcDbEntity
  8
0
100
AcDbBlockEnd
  0
BLOCK
  5
688
330
686
100
AcDbEntity
  8
0
100
AcDbBlockBegin
  2
block 170
 70
     0
 71
     0
 10
0.0
 20
0.0
 30
0.0
  3
block 170
  1

  0
POLYLINE
  5
68A
330
686
100
AcDbEntity
  8
EJES
  6
AI-Linetype-2
 62
     7
420
 16777215
370
     9
100
AcDb2dPolyline
 66
     1
 10
0.0
 20
0.0
 30
0.0
  0
VERTEX
  5
68B
330
68A
100
AcDbEntity
  8
EJES
  6
AI-Linetype-2
 62
     7
420
 16777215
370
     9
100
AcDbVertex
100
AcDb2dVertex
 10
110.9757282930046
 20
141.844320969005
 30
0.0
  0
VERTEX
  5
68C
330
68A
100
AcDbEntity
  8
EJES
  6
AI-Linetype-2
 62
     7
420
 16777215
370
     9
100
AcDbVertex
100
AcDb2dVertex
 10
110.9757282930046
 20
93.46343511484584
 30
0.0
  0
SEQEND
  5
68D
330
68A
100
AcDbEntity
  8
EJES
  6
AI-Linetype-2
370
     9
  0
ENDBLK
  5
689
330
686
100
AcDbEntity
  8
0
100
AcDbBlockEnd
  0
BLOCK
  5
691
330
68F
100
AcDbEntity
  8
0
100
AcDbBlockBegin
  2
block 171
 70
     0
 71
     0
 10
0.0
 20
0.0
 30
0.0
  3
block 171
  1

  0
POLYLINE
  5
693
330
68F
100
AcDbEntity
  8
EJES
  6
AI-Linetype-3
 62
     7
420
 16777215
370
     9
100
AcDb2dPolyline
 66
     1
 10
0.0
 20
0.0
 30
0.0
  0
VERTEX
  5
694
330
693
100
AcDbEntity
  8
EJES
  6
AI-Linetype-3
 62
     7
420
 16777215
370
     9
100
AcDbVertex
100
AcDb2dVertex
 10
86.78166801327913
 20
117.6604237276655
 30
0.0
  0
VERTEX
  5
695
330
693
100
AcDbEntity
  8
EJES
  6
AI-Linetype-3
 62
     7
420
 16777215
370
     9
100
AcDbVertex
100
AcDb2dVertex
 10
135.1623816125504
 20
117.6604237276655
 30
0.0
  0
SEQEND
  5
696
330
693
100
AcDbEntity
  8
EJES
  6
AI-Linetype-3
370
     9
  0
ENDBLK
  5
692
330
68F
100
AcDbEntity
  8
0
100
AcDbBlockEnd
  0
ENDSEC
  0
SECTION
  2
ENTITIES
  0
INSERT
  5
3D
330
1F
100
AcDbEntity
  8
SOMBREA
100
AcDbBlockReference
  2
block 2
 10
0.0
 20
0.0
 30
0.0
  0
INSERT
  5
113
330
1F
100
AcDbEntity
  8
SOMBREA
100
AcDbBlockReference
  2
block 3
 10
0.0
 20
0.0
 30
0.0
  0
INSERT
  5
1EA
330
1F
100
AcDbEntity
  8
0
100
AcDbBlockReference
  2
block 4
 10
0.0
 20
0.0
 30
0.0
  0
INSERT
  5
1EF
330
1F
100
AcDbEntity
  8
0
100
AcDbBlockReference
  2
block 5
 10
0.0
 20
0.0
 30
0.0
  0
INSERT
  5
1F4
330
1F
100
AcDbEntity
  8
0
100
AcDbBlockReference
  2
block 6
 10
0.0
 20
0.0
 30
0.0
  0
INSERT
  5
1F9
330
1F
100
AcDbEntity
  8
0
100
AcDbBlockReference
  2
block 7
 10
0.0
 20
0.0
 30
0.0
  0
INSERT
  5
1FE
330
1F
100
AcDbEntity
  8
0
100
AcDbBlockReference
  2
block 8
 10
0.0
 20
0.0
 30
0.0
  0
INSERT
  5
203
330
1F
100
AcDbEntity
  8
0
100
AcDbBlockReference
  2
block 9
 10
0.0
 20
0.0
 30
0.0
  0
INSERT
  5
208
330
1F
100
AcDbEntity
  8
0
100
AcDbBlockReference
  2
block 10
 10
0.0
 20
0.0
 30
0.0
  0
INSERT
  5
20D
330
1F
100
AcDbEntity
  8
0
100
AcDbBlockReference
  2
block 11
 10
0.0
 20
0.0
 30
0.0
  0
INSERT
  5
212
330
1F
100
AcDbEntity
  8
0
100
AcDbBlockReference
  2
block 12
 10
0.0
 20
0.0
 30
0.0
  0
INSERT
  5
217
330
1F
100
AcDbEntity
  8
0
100
AcDbBlockReference
  2
block 13
 10
0.0
 20
0.0
 30
0.0
  0
INSERT
  5
21F
330
1F
100
AcDbEntity
  8
0
100
AcDbBlockReference
  2
block 14
 10
0.0
 20
0.0
 30
0.0
  0
INSERT
  5
227
330
1F
100
AcDbEntity
  8
0
100
AcDbBlockReference
  2
block 15
 10
0.0
 20
0.0
 30
0.0
  0
INSERT
  5
22C
330
1F
100
AcDbEntity
  8
0
100
AcDbBlockReference
  2
block 16
 10
0.0
 20
0.0
 30
0.0
  0
INSERT
  5
234
330
1F
100
AcDbEntity
  8
0
100
AcDbBlockReference
  2
block 17
 10
0.0
 20
0.0
 30
0.0
  0
INSERT
  5
23C
330
1F
100
AcDbEntity
  8
0
100
AcDbBlockReference
  2
block 18
 10
0.0
 20
0.0
 30
0.0
  0
INSERT
  5
244
330
1F
100
AcDbEntity
  8
0
100
AcDbBlockReference
  2
block 19
 10
0.0
 20
0.0
 30
0.0
  0
INSERT
  5
24C
330
1F
100
AcDbEntity
  8
0
100
AcDbBlockReference
  2
block 20
 10
0.0
 20
0.0
 30
0.0
  0
INSERT
  5
251
330
1F
100
AcDbEntity
  8
0
100
AcDbBlockReference
  2
block 21
 10
0.0
 20
0.0
 30
0.0
  0
INSERT
  5
25A
330
1F
100
AcDbEntity
  8
1
100
AcDbBlockReference
  2
block 22
 10
0.0
 20
0.0
 30
0.0
  0
INSERT
  5
25F
330
1F
100
AcDbEntity
  8
1
100
AcDbBlockReference
  2
block 23
 10
0.0
 20
0.0
 30
0.0
  0
INSERT
  5
264
330
1F
100
AcDbEntity
  8
1
100
AcDbBlockReference
  2
block 24
 10
0.0
 20
0.0
 30
0.0
  0
INSERT
  5
269
330
1F
100
AcDbEntity
  8
1
100
AcDbBlockReference
  2
block 25
 10
0.0
 20
0.0
 30
0.0
  0
INSERT
  5
271
330
1F
100
AcDbEntity
  8
1
100
AcDbBlockReference
  2
block 26
 10
0.0
 20
0.0
 30
0.0
  0
INSERT
  5
279
330
1F
100
AcDbEntity
  8
1
100
AcDbBlockReference
  2
block 27
 10
0.0
 20
0.0
 30
0.0
  0
INSERT
  5
27E
330
1F
100
AcDbEntity
  8
1
100
AcDbBlockReference
  2
block 28
 10
0.0
 20
0.0
 30
0.0
  0
INSERT
  5
283
330
1F
100
AcDbEntity
  8
1
100
AcDbBlockReference
  2
block 29
 10
0.0
 20
0.0
 30
0.0
  0
INSERT
  5
288
330
1F
100
AcDbEntity
  8
1
100
AcDbBlockReference
  2
block 30
 10
0.0
 20
0.0
 30
0.0
  0
INSERT
  5
28D
330
1F
100
AcDbEntity
  8
1
100
AcDbBlockReference
  2
block 31
 10
0.0
 20
0.0
 30
0.0
  0
INSERT
  5
295
330
1F
100
AcDbEntity
  8
1
100
AcDbBlockReference
  2
block 32
 10
0.0
 20
0.0
 30
0.0
  0
INSERT
  5
29A
330
1F
100
AcDbEntity
  8
1
100
AcDbBlockReference
  2
block 33
 10
0.0
 20
0.0
 30
0.0
  0
INSERT
  5
2A2
330
1F
100
AcDbEntity
  8
1
100
AcDbBlockReference
  2
block 34
 10
0.0
 20
0.0
 30
0.0
  0
INSERT
  5
2A7
330
1F
100
AcDbEntity
  8
1
100
AcDbBlockReference
  2
block 35
 10
0.0
 20
0.0
 30
0.0
  0
INSERT
  5
2AC
330
1F
100
AcDbEntity
  8
1
100
AcDbBlockReference
  2
block 36
 10
0.0
 20
0.0
 30
0.0
  0
INSERT
  5
2B1
330
1F
100
AcDbEntity
  8
1
100
AcDbBlockReference
  2
block 37
 10
0.0
 20
0.0
 30
0.0
  0
INSERT
  5
2B6
330
1F
100
AcDbEntity
  8
1
100
AcDbBlockReference
  2
block 38
 10
0.0
 20
0.0
 30
0.0
  0
INSERT
  5
2BB
330
1F
100
AcDbEntity
  8
1
100
AcDbBlockReference
  2
block 39
 10
0.0
 20
0.0
 30
0.0
  0
INSERT
  5
2C0
330
1F
100
AcDbEntity
  8
1
100
AcDbBlockReference
  2
block 40
 10
0.0
 20
0.0
 30
0.0
  0
INSERT
  5
2C8
330
1F
100
AcDbEntity
  8
1
100
AcDbBlockReference
  2
block 41
 10
0.0
 20
0.0
 30
0.0
  0
INSERT
  5
2D0
330
1F
100
AcDbEntity
  8
1
100
AcDbBlockReference
  2
block 42
 10
0.0
 20
0.0
 30
0.0
  0
INSERT
  5
2D5
330
1F
100
AcDbEntity
  8
1
100
AcDbBlockReference
  2
block 43
 10
0.0
 20
0.0
 30
0.0
  0
INSERT
  5
2DA
330
1F
100
AcDbEntity
  8
1
100
AcDbBlockReference
  2
block 44
 10
0.0
 20
0.0
 30
0.0
  0
INSERT
  5
2DF
330
1F
100
AcDbEntity
  8
1
100
AcDbBlockReference
  2
block 45
 10
0.0
 20
0.0
 30
0.0
  0
INSERT
  5
2E4
330
1F
100
AcDbEntity
  8
1
100
AcDbBlockReference
  2
block 46
 10
0.0
 20
0.0
 30
0.0
  0
INSERT
  5
2EC
330
1F
100
AcDbEntity
  8
1
100
AcDbBlockReference
  2
block 47
 10
0.0
 20
0.0
 30
0.0
  0
INSERT
  5
2F1
330
1F
100
AcDbEntity
  8
1
100
AcDbBlockReference
  2
block 48
 10
0.0
 20
0.0
 30
0.0
  0
INSERT
  5
2F6
330
1F
100
AcDbEntity
  8
1
100
AcDbBlockReference
  2
block 49
 10
0.0
 20
0.0
 30
0.0
  0
INSERT
  5
2FB
330
1F
100
AcDbEntity
  8
1
100
AcDbBlockReference
  2
block 50
 10
0.0
 20
0.0
 30
0.0
  0
INSERT
  5
300
330
1F
100
AcDbEntity
  8
1
100
AcDbBlockReference
  2
block 51
 10
0.0
 20
0.0
 30
0.0
  0
INSERT
  5
305
330
1F
100
AcDbEntity
  8
1
100
AcDbBlockReference
  2
block 52
 10
0.0
 20
0.0
 30
0.0
  0
INSERT
  5
30A
330
1F
100
AcDbEntity
  8
1
100
AcDbBlockReference
  2
block 53
 10
0.0
 20
0.0
 30
0.0
  0
INSERT
  5
30F
330
1F
100
AcDbEntity
  8
1
100
AcDbBlockReference
  2
block 54
 10
0.0
 20
0.0
 30
0.0
  0
INSERT
  5
314
330
1F
100
AcDbEntity
  8
1
100
AcDbBlockReference
  2
block 55
 10
0.0
 20
0.0
 30
0.0
  0
INSERT
  5
319
330
1F
100
AcDbEntity
  8
1
100
AcDbBlockReference
  2
block 56
 10
0.0
 20
0.0
 30
0.0
  0
INSERT
  5
321
330
1F
100
AcDbEntity
  8
1
100
AcDbBlockReference
  2
block 57
 10
0.0
 20
0.0
 30
0.0
  0
INSERT
  5
326
330
1F
100
AcDbEntity
  8
1
100
AcDbBlockReference
  2
block 58
 10
0.0
 20
0.0
 30
0.0
  0
INSERT
  5
32B
330
1F
100
AcDbEntity
  8
1
100
AcDbBlockReference
  2
block 59
 10
0.0
 20
0.0
 30
0.0
  0
INSERT
  5
330
330
1F
100
AcDbEntity
  8
1
100
AcDbBlockReference
  2
block 60
 10
0.0
 20
0.0
 30
0.0
  0
INSERT
  5
335
330
1F
100
AcDbEntity
  8
1
100
AcDbBlockReference
  2
block 61
 10
0.0
 20
0.0
 30
0.0
  0
INSERT
  5
33A
330
1F
100
AcDbEntity
  8
1
100
AcDbBlockReference
  2
block 62
 10
0.0
 20
0.0
 30
0.0
  0
INSERT
  5
33F
330
1F
100
AcDbEntity
  8
1
100
AcDbBlockReference
  2
block 63
 10
0.0
 20
0.0
 30
0.0
  0
INSERT
  5
347
330
1F
100
AcDbEntity
  8
1
100
AcDbBlockReference
  2
block 64
 10
0.0
 20
0.0
 30
0.0
  0
INSERT
  5
34F
330
1F
100
AcDbEntity
  8
1
100
AcDbBlockReference
  2
block 65
 10
0.0
 20
0.0
 30
0.0
  0
INSERT
  5
357
330
1F
100
AcDbEntity
  8
1
100
AcDbBlockReference
  2
block 66
 10
0.0
 20
0.0
 30
0.0
  0
INSERT
  5
35F
330
1F
100
AcDbEntity
  8
1
100
AcDbBlockReference
  2
block 67
 10
0.0
 20
0.0
 30
0.0
  0
INSERT
  5
364
330
1F
100
AcDbEntity
  8
1
100
AcDbBlockReference
  2
block 68
 10
0.0
 20
0.0
 30
0.0
  0
INSERT
  5
36C
330
1F
100
AcDbEntity
  8
1
100
AcDbBlockReference
  2
block 69
 10
0.0
 20
0.0
 30
0.0
  0
INSERT
  5
374
330
1F
100
AcDbEntity
  8
1
100
AcDbBlockReference
  2
block 70
 10
0.0
 20
0.0
 30
0.0
  0
INSERT
  5
37C
330
1F
100
AcDbEntity
  8
1
100
AcDbBlockReference
  2
block 71
 10
0.0
 20
0.0
 30
0.0
  0
INSERT
  5
384
330
1F
100
AcDbEntity
  8
1
100
AcDbBlockReference
  2
block 72
 10
0.0
 20
0.0
 30
0.0
  0
INSERT
  5
38C
330
1F
100
AcDbEntity
  8
1
100
AcDbBlockReference
  2
block 73
 10
0.0
 20
0.0
 30
0.0
  0
INSERT
  5
394
330
1F
100
AcDbEntity
  8
1
100
AcDbBlockReference
  2
block 74
 10
0.0
 20
0.0
 30
0.0
  0
INSERT
  5
39C
330
1F
100
AcDbEntity
  8
1
100
AcDbBlockReference
  2
block 75
 10
0.0
 20
0.0
 30
0.0
  0
INSERT
  5
3A4
330
1F
100
AcDbEntity
  8
1
100
AcDbBlockReference
  2
block 76
 10
0.0
 20
0.0
 30
0.0
  0
INSERT
  5
3A9
330
1F
100
AcDbEntity
  8
1
100
AcDbBlockReference
  2
block 77
 10
0.0
 20
0.0
 30
0.0
  0
INSERT
  5
3B1
330
1F
100
AcDbEntity
  8
1
100
AcDbBlockReference
  2
block 78
 10
0.0
 20
0.0
 30
0.0
  0
INSERT
  5
3B9
330
1F
100
AcDbEntity
  8
1
100
AcDbBlockReference
  2
block 79
 10
0.0
 20
0.0
 30
0.0
  0
INSERT
  5
3C1
330
1F
100
AcDbEntity
  8
1
100
AcDbBlockReference
  2
block 80
 10
0.0
 20
0.0
 30
0.0
  0
INSERT
  5
3C9
330
1F
100
AcDbEntity
  8
1
100
AcDbBlockReference
  2
block 81
 10
0.0
 20
0.0
 30
0.0
  0
INSERT
  5
3D1
330
1F
100
AcDbEntity
  8
1
100
AcDbBlockReference
  2
block 82
 10
0.0
 20
0.0
 30
0.0
  0
INSERT
  5
3D9
330
1F
100
AcDbEntity
  8
1
100
AcDbBlockReference
  2
block 83
 10
0.0
 20
0.0
 30
0.0
  0
INSERT
  5
3E1
330
1F
100
AcDbEntity
  8
1
100
AcDbBlockReference
  2
block 84
 10
0.0
 20
0.0
 30
0.0
  0
INSERT
  5
3E9
330
1F
100
AcDbEntity
  8
1
100
AcDbBlockReference
  2
block 85
 10
0.0
 20
0.0
 30
0.0
  0
INSERT
  5
3EE
330
1F
100
AcDbEntity
  8
1
100
AcDbBlockReference
  2
block 86
 10
0.0
 20
0.0
 30
0.0
  0
INSERT
  5
3F4
330
1F
100
AcDbEntity
  8
COTAS
100
AcDbBlockReference
  2
block 87
 10
0.0
 20
0.0
 30
0.0
  0
INSERT
  5
453
330
1F
100
AcDbEntity
  8
COTAS
100
AcDbBlockReference
  2
block 99
 10
0.0
 20
0.0
 30
0.0
  0
INSERT
  5
4B2
330
1F
100
AcDbEntity
  8
COTAS
100
AcDbBlockReference
  2
block 111
 10
0.0
 20
0.0
 30
0.0
  0
INSERT
  5
501
330
1F
100
AcDbEntity
  8
COTAS
100
AcDbBlockReference
  2
block 121
 10
0.0
 20
0.0
 30
0.0
  0
INSERT
  5
550
330
1F
100
AcDbEntity
  8
COTAS
100
AcDbBlockReference
  2
block 131
 10
0.0
 20
0.0
 30
0.0
  0
INSERT
  5
59F
330
1F
100
AcDbEntity
  8
COTAS
100
AcDbBlockReference
  2
block 141
 10
0.0
 20
0.0
 30
0.0
  0
INSERT
  5
60E
330
1F
100
AcDbEntity
  8
COTAS
100
AcDbBlockReference
  2
block 155
 10
0.0
 20
0.0
 30
0.0
  0
INSERT
  5
67E
330
1F
100
AcDbEntity
  8
EJES
100
AcDbBlockReference
  2
block 169
 10
0.0
 20
0.0
 30
0.0
  0
INSERT
  5
687
330
1F
100
AcDbEntity
  8
EJES
100
AcDbBlockReference
  2
block 170
 10
0.0
 20
0.0
 30
0.0
  0
INSERT
  5
690
330
1F
100
AcDbEntity
  8
EJES
100
AcDbBlockReference
  2
block 171
 10
0.0
 20
0.0
 30
0.0
  0
ENDSEC
  0
SECTION
  2
OBJECTS
  0
DICTIONARY
  5
C
330
0
100
AcDbDictionary
281
     1
  3
ACAD_GROUP
350
D
  3
ACAD_LAYOUT
350
1A
  3
ACAD_MLINESTYLE
350
17
  3
ACAD_PLOTSETTINGS
350
19
  3
ACAD_PLOTSTYLENAME
350
E
  3
ACAD_TABLESTYLE
350
698
  3
ACAD_VISUALSTYLE
350
2A
  0
DICTIONARY
  5
D
102
{ACAD_REACTORS
330
C
102
}
330
C
100
AcDbDictionary
281
     1
  0
DICTIONARY
  5
1A
102
{ACAD_REACTORS
330
C
102
}
330
C
100
AcDbDictionary
281
     1
  3
Layout1
350
1E
  3
Layout2
350
26
  3
Model
350
22
  0
DICTIONARY
  5
17
102
{ACAD_REACTORS
330
C
102
}
330
C
100
AcDbDictionary
281
     1
  3
Standard
350
18
  0
DICTIONARY
  5
19
102
{ACAD_REACTORS
330
C
102
}
330
C
100
AcDbDictionary
281
     1
  0
ACDBDICTIONARYWDFLT
  5
E
102
{ACAD_REACTORS
330
C
102
}
330
C
100
AcDbDictionary
281
     1
  3
Normal
350
F
100
AcDbDictionaryWithDefault
340
F
  0
DICTIONARY
  5
698
102
{ACAD_REACTORS
330
C
102
}
330
C
100
AcDbDictionary
281
     1
  0
DICTIONARY
  5
2A
102
{ACAD_REACTORS
330
C
102
}
330
C
100
AcDbDictionary
281
     1
  3
2dWireframe
350
2F
  3
3D Hidden
350
31
  3
3dWireframe
350
30
  3
Basic
350
32
  3
Brighten
350
36
  3
ColorChange
350
3A
  3
Conceptual
350
34
  3
Dim
350
35
  3
Facepattern
350
39
  3
Flat
350
2B
  3
FlatWithEdges
350
2C
  3
Gouraud
350
2D
  3
GouraudWithEdges
350
2E
  3
Linepattern
350
38
  3
Realistic
350
33
  3
Thicken
350
37
  0
LAYOUT
  5
1E
102
{ACAD_REACTORS
330
1A
102
}
330
1A
100
AcDbPlotSettings
  1

  2
none_device
  4

  6

 40
0.0
 41
0.0
 42
0.0
 43
0.0
 44
0.0
 45
0.0
 46
0.0
 47
0.0
 48
0.0
 49
0.0
140
0.0
141
0.0
142
1.0
143
1.0
 70
   688
 72
     0
 73
     0
 74
     5
  7

 75
    16
 76
     0
 77
     2
 78
   300
147
1.0
148
0.0
149
0.0
100
AcDbLayout
  1
Layout1
 70
     1
 71
     1
 10
0.0
 20
0.0
 11
12.0
 21
9.0
 12
0.0
 22
0.0
 32
0.0
 14
1.000000000000000E+20
 24
1.000000000000000E+20
 34
1.000000000000000E+20
 15
-1.000000000000000E+20
 25
-1.000000000000000E+20
 35
-1.000000000000000E+20
146
0.0
 13
0.0
 23
0.0
 33
0.0
 16
1.0
 26
0.0
 36
0.0
 17
0.0
 27
1.0
 37
0.0
 76
     0
330
1B
  0
LAYOUT
  5
26
102
{ACAD_REACTORS
330
1A
102
}
330
1A
100
AcDbPlotSettings
  1

  2
none_device
  4

  6

 40
0.0
 41
0.0
 42
0.0
 43
0.0
 44
0.0
 45
0.0
 46
0.0
 47
0.0
 48
0.0
 49
0.0
140
0.0
141
0.0
142
1.0
143
1.0
 70
   688
 72
     0
 73
     0
 74
     5
  7

 75
    16
 76
     0
 77
     2
 78
   300
147
1.0
148
0.0
149
0.0
100
AcDbLayout
  1
Layout2
 70
     1
 71
     2
 10
0.0
 20
0.0
 11
0.0
 21
0.0
 12
0.0
 22
0.0
 32
0.0
 14
0.0
 24
0.0
 34
0.0
 15
0.0
 25
0.0
 35
0.0
146
0.0
 13
0.0
 23
0.0
 33
0.0
 16
1.0
 26
0.0
 36
0.0
 17
0.0
 27
1.0
 37
0.0
 76
     0
330
23
  0
LAYOUT
  5
22
102
{ACAD_REACTORS
330
1A
102
}
330
1A
100
AcDbPlotSettings
  1

  2
none_device
  4

  6

 40
0.0
 41
0.0
 42
0.0
 43
0.0
 44
0.0
 45
0.0
 46
0.0
 47
0.0
 48
0.0
 49
0.0
140
0.0
141
0.0
142
1.0
143
1.0
 70
  1712
 72
     0
 73
     0
 74
     0
  7

 75
     0
 76
     0
 77
     2
 78
   300
147
1.0
148
0.0
149
0.0
100
AcDbLayout
  1
Model
 70
     1
 71
     0
 10
0.0
 20
0.0
 11
12.0
 21
9.0
 12
0.0
 22
0.0
 32
0.0
 14
1.000000000000000E+20
 24
1.000000000000000E+20
 34
1.000000000000000E+20
 15
-1.000000000000000E+20
 25
-1.000000000000000E+20
 35
-1.000000000000000E+20
146
0.0
 13
0.0
 23
0.0
 33
0.0
 16
1.0
 26
0.0
 36
0.0
 17
0.0
 27
1.0
 37
0.0
 76
     0
330
1F
331
29
  0
MLINESTYLE
  5
18
102
{ACAD_REACTORS
330
17
102
}
330
17
100
AcDbMlineStyle
  2
Standard
 70
     0
  3

 62
   256
 51
90.0
 52
90.0
 71
     2
 49
0.5
 62
   256
  6
BYLAYER
 49
-0.5
 62
   256
  6
BYLAYER
  0
ACDBPLACEHOLDER
  5
F
102
{ACAD_REACTORS
330
E
102
}
330
E
  0
VISUALSTYLE
  5
2F
102
{ACAD_REACTORS
330
2A
102
}
330
2A
100
AcDbVisualStyle
  2
2dWireframe
 70
     4
 71
     0
 72
     2
 73
     0
 90
        0
 40
-0.6
 41
-30.0
 62
     5
 63
     7
421
 16777215
 74
     1
 91
        4
 64
     7
 65
   257
 75
     1
175
     1
 42
1.0
 92
        0
 66
   257
 43
1.0
 76
     1
 77
     6
 78
     2
 67
     7
 79
     5
170
     0
171
     0
290
     0
174
     0
 93
        1
 44
0.0
173
     0
291
     0
 45
0.0
1001
ACAD
1000
AcDbSavedByObjectVersion
1070
     0
  0
VISUALSTYLE
  5
31
102
{ACAD_REACTORS
330
2A
102
}
330
2A
100
AcDbVisualStyle
  2
3D Hidden
 70
     6
 71
     1
 72
     2
 73
     2
 90
        0
 40
-0.6
 41
-30.0
 62
     5
 63
     7
421
 16777215
 74
     2
 91
        2
 64
     7
 65
   257
 75
     2
175
     1
 42
40.0
 92
        0
 66
   257
 43
1.0
 76
     1
 77
     6
 78
     2
 67
     7
 79
     3
170
     0
171
     0
290
     0
174
     0
 93
        1
 44
0.0
173
     0
291
     0
 45
0.0
1001
ACAD
1000
AcDbSavedByObjectVersion
1070
     0
  0
VISUALSTYLE
  5
30
102
{ACAD_REACTORS
330
2A
102
}
330
2A
100
AcDbVisualStyle
  2
3dWireframe
 70
     5
 71
     0
 72
     2
 73
     0
 90
        0
 40
-0.6
 41
-30.0
 62
     5
 63
     7
421
 16777215
 74
     1
 91
        4
 64
     7
 65
   257
 75
     1
175
     1
 42
1.0
 92
        0
 66
   257
 43
1.0
 76
     1
 77
     6
 78
     2
 67
     7
 79
     5
170
     0
171
     0
290
     0
174
     0
 93
        1
 44
0.0
173
     0
291
     0
 45
0.0
1001
ACAD
1000
AcDbSavedByObjectVersion
1070
     0
  0
VISUALSTYLE
  5
32
102
{ACAD_REACTORS
330
2A
102
}
330
2A
100
AcDbVisualStyle
  2
Basic
 70
     7
 71
     1
 72
     0
 73
     1
 90
        0
 40
-0.6
 41
-30.0
 62
     5
 63
     7
421
 16777215
 74
     0
 91
        4
 64
     7
 65
   257
 75
     1
175
     1
 42
1.0
 92
        8
 66
     7
 43
1.0
 76
     1
 77
     6
 78
     2
 67
     7
 79
     5
170
     0
171
     0
290
     0
174
     0
 93
        1
 44
0.0
173
     0
291
     1
 45
0.0
1001
ACAD
1000
AcDbSavedByObjectVersion
1070
     0
  0
VISUALSTYLE
  5
36
102
{ACAD_REACTORS
330
2A
102
}
330
2A
100
AcDbVisualStyle
  2
Brighten
 70
    12
 71
     2
 72
     2
 73
     0
 90
        0
 40
-0.6
 41
-30.0
 62
     5
 63
     7
421
 16777215
 74
     1
 91
        4
 64
     7
 65
   257
 75
     1
175
     1
 42
1.0
 92
        8
 66
     7
 43
1.0
 76
     1
 77
     6
 78
     2
 67
     7
 79
     5
170
     0
171
     0
290
     0
174
     0
 93
        1
 44
50.0
173
     0
291
     1
 45
0.0
1001
ACAD
1000
AcDbSavedByObjectVersion
1070
     0
  0
VISUALSTYLE
  5
3A
102
{ACAD_REACTORS
330
2A
102
}
330
2A
100
AcDbVisualStyle
  2
ColorChange
 70
    16
 71
     2
 72
     2
 73
     3
 90
        0
 40
-0.6
 41
-30.0
 62
     5
 63
     8
421
  8421504
 74
     1
 91
        4
 64
     7
 65
   257
 75
     1
175
     1
 42
1.0
 92
        8
 66
     8
424
  8421504
 43
1.0
 76
     1
 77
     6
 78
     2
 67
     7
 79
     5
170
     0
171
     0
290
     0
174
     0
 93
        1
 44
0.0
173
     0
291
     1
 45
0.0
1001
ACAD
1000
AcDbSavedByObjectVersion
1070
     0
  0
VISUALSTYLE
  5
34
102
{ACAD_REACTORS
330
2A
102
}
330
2A
100
AcDbVisualStyle
  2
Conceptual
 70
     9
 71
     3
 72
     2
 73
     0
 90
        0
 40
-0.6
 41
-30.0
 62
     5
 63
     7
421
 16777215
 74
     2
 91
        2
 64
     7
 65
   257
 75
     1
175
     1
 42
40.0
 92
        8
 66
     7
 43
1.0
 76
     1
 77
     6
 78
     2
 67
     7
 79
     3
170
     0
171
     0
290
     0
174
     0
 93
        1
 44
0.0
173
     0
291
     0
 45
0.0
1001
ACAD
1000
AcDbSavedByObjectVersion
1070
     0
  0
VISUALSTYLE
  5
35
102
{ACAD_REACTORS
330
2A
102
}
330
2A
100
AcDbVisualStyle
  2
Dim
 70
    11
 71
     2
 72
     2
 73
     0
 90
        0
 40
-0.6
 41
-30.0
 62
     5
 63
     7
421
 16777215
 74
     1
 91
        4
 64
     7
 65
   257
 75
     1
175
     1
 42
1.0
 92
        8
 66
     7
 43
1.0
 76
     1
 77
     6
 78
     2
 67
     7
 79
     5
170
     0
171
     0
290
     0
174
     0
 93
        1
 44
-50.0
173
     0
291
     1
 45
0.0
1001
ACAD
1000
AcDbSavedByObjectVersion
1070
     0
  0
VISUALSTYLE
  5
39
102
{ACAD_REACTORS
330
2A
102
}
330
2A
100
AcDbVisualStyle
  2
Facepattern
 70
    15
 71
     2
 72
     2
 73
     0
 90
        0
 40
-0.6
 41
-30.0
 62
     5
 63
     7
421
 16777215
 74
     1
 91
        4
 64
     7
 65
   257
 75
     1
175
     1
 42
1.0
 92
        8
 66
     7
 43
1.0
 76
     1
 77
     6
 78
     2
 67
     7
 79
     5
170
     0
171
     0
290
     0
174
     0
 93
        1
 44
0.0
173
     0
291
     1
 45
0.0
1001
ACAD
1000
AcDbSavedByObjectVersion
1070
     0
  0
VISUALSTYLE
  5
2B
102
{ACAD_REACTORS
330
2A
102
}
330
2A
100
AcDbVisualStyle
  2
Flat
 70
     0
 71
     2
 72
     1
 73
     1
 90
        2
 40
-0.6
 41
30.0
 62
     5
 63
     7
421
 16777215
 74
     0
 91
        4
 64
     7
 65
   257
 75
     1
175
     1
 42
1.0
 92
        8
 66
     7
 43
1.0
 76
     1
 77
     6
 78
     2
 67
     7
 79
     5
170
     0
171
     0
290
     0
174
     0
 93
       13
 44
0.0
173
     0
291
     1
 45
0.0
1001
ACAD
1000
AcDbSavedByObjectVersion
1070
     0
  0
VISUALSTYLE
  5
2C
102
{ACAD_REACTORS
330
2A
102
}
330
2A
100
AcDbVisualStyle
  2
FlatWithEdges
 70
     1
 71
     2
 72
     1
 73
     1
 90
        2
 40
-0.6
 41
30.0
 62
     5
 63
     7
421
 16777215
 74
     1
 91
        4
 64
     7
 65
   257
 75
     1
175
     1
 42
1.0
 92
        0
 66
   257
 43
1.0
 76
     1
 77
     6
 78
     2
 67
     7
 79
     5
170
     0
171
     0
290
     0
174
     0
 93
       13
 44
0.0
173
     0
291
     1
 45
0.0
1001
ACAD
1000
AcDbSavedByObjectVersion
1070
     0
  0
VISUALSTYLE
  5
2D
102
{ACAD_REACTORS
330
2A
102
}
330
2A
100
AcDbVisualStyle
  2
Gouraud
 70
     2
 71
     2
 72
     2
 73
     1
 90
        2
 40
-0.6
 41
30.0
 62
     5
 63
     7
421
 16777215
 74
     0
 91
        4
 64
     7
 65
   257
 75
     1
175
     1
 42
1.0
 92
        0
 66
     7
 43
1.0
 76
     1
 77
     6
 78
     2
 67
     7
 79
     5
170
     0
171
     0
290
     0
174
     0
 93
       13
 44
0.0
173
     0
291
     1
 45
0.0
1001
ACAD
1000
AcDbSavedByObjectVersion
1070
     0
  0
VISUALSTYLE
  5
2E
102
{ACAD_REACTORS
330
2A
102
}
330
2A
100
AcDbVisualStyle
  2
GouraudWithEdges
 70
     3
 71
     2
 72
     2
 73
     1
 90
        2
 40
-0.6
 41
30.0
 62
     5
 63
     7
421
 16777215
 74
     1
 91
        4
 64
     7
 65
   257
 75
     1
175
     1
 42
1.0
 92
        0
 66
   257
 43
1.0
 76
     1
 77
     6
 78
     2
 67
     7
 79
     5
170
     0
171
     0
290
     0
174
     0
 93
       13
 44
0.0
173
     0
291
     1
 45
0.0
1001
ACAD
1000
AcDbSavedByObjectVersion
1070
     0
  0
VISUALSTYLE
  5
38
102
{ACAD_REACTORS
330
2A
102
}
330
2A
100
AcDbVisualStyle
  2
Linepattern
 70
    14
 71
     2
 72
     2
 73
     0
 90
        0
 40
-0.6
 41
-30.0
 62
     5
 63
     7
421
 16777215
 74
     1
 91
        4
 64
     7
 65
   257
 75
     7
175
     7
 42
1.0
 92
        8
 66
     7
 43
1.0
 76
     1
 77
     6
 78
     2
 67
     7
 79
     5
170
     0
171
     0
290
     0
174
     0
 93
        1
 44
0.0
173
     0
291
     1
 45
0.0
1001
ACAD
1000
AcDbSavedByObjectVersion
1070
     0
  0
VISUALSTYLE
  5
33
102
{ACAD_REACTORS
330
2A
102
}
330
2A
100
AcDbVisualStyle
  2
Realistic
 70
     8
 71
     2
 72
     2
 73
     0
 90
        0
 40
-0.6
 41
-30.0
 62
     5
 63
     7
421
 16777215
 74
     1
 91
        0
 64
     7
 65
   257
 75
     1
175
     1
 42
1.0
 92
        8
 66
     8
424
  7895160
 43
1.0
 76
     1
 77
     6
 78
     2
 67
     7
 79
     5
170
     0
171
     0
290
     0
174
     0
 93
       13
 44
0.0
173
     0
291
     0
 45
0.0
1001
ACAD
1000
AcDbSavedByObjectVersion
1070
     0
  0
VISUALSTYLE
  5
37
102
{ACAD_REACTORS
330
2A
102
}
330
2A
100
AcDbVisualStyle
  2
Thicken
 70
    13
 71
     2
 72
     2
 73
     0
 90
        0
 40
-0.6
 41
-30.0
 62
     5
 63
     7
421
 16777215
 74
     1
 91
        4
 64
     7
 65
   257
 75
     1
175
     1
 42
1.0
 92
       12
 66
     7
 43
1.0
 76
     1
 77
     6
 78
     2
 67
     7
 79
     5
170
     0
171
     0
290
     0
174
     0
 93
        1
 44
0.0
173
     0
291
     1
 45
0.0
1001
ACAD
1000
AcDbSavedByObjectVersion
1070
     0
  0
ENDSEC
  0
EOF
