  0
SECTION
  2
HEADER
  9
$ACADVER
  1
AC1015
  9
$ACADMAINTVER
 70
    20
  9
$DWGCODEPAGE
  3
ANSI_1252
  9
$INSBASE
 10
0.0
 20
0.0
 30
0.0
  9
$EXTMIN
 10
13.046399968179
 20
-33.3071140809991
 30
-0.0000000000000043
  9
$EXTMAX
 10
808.8387906470895
 20
442.7323693856737
 30
0.000000000000011
  9
$LIMMIN
 10
0.0
 20
0.0
  9
$LIMMAX
 10
420.0
 20
297.0
  9
$ORTHOMODE
 70
     1
  9
$REGENMODE
 70
     1
  9
$FILLMODE
 70
     1
  9
$QTEXTMODE
 70
     0
  9
$MIRRTEXT
 70
     0
  9
$LTSCALE
 40
1.0
  9
$ATTMODE
 70
     1
  9
$TEXTSIZE
 40
2.5
  9
$TRACEWID
 40
1.0
  9
$TEXTSTYLE
  7
Standard
  9
$CLAYER
  8
0
  9
$CELTYPE
  6
ByLayer
  9
$CECOLOR
 62
   256
  9
$CELTSCALE
 40
1.0
  9
$DISPSILH
 70
     0
  9
$DIMSCALE
 40
1.0
  9
$DIMASZ
 40
0.18
  9
$DIMEXO
 40
0.0625
  9
$DIMDLI
 40
0.38
  9
$DIMRND
 40
0.0
  9
$DIMDLE
 40
0.0
  9
$DIMEXE
 40
0.18
  9
$DIMTP
 40
0.0
  9
$DIMTM
 40
0.0
  9
$DIMTXT
 40
0.18
  9
$DIMCEN
 40
0.09
  9
$DIMTSZ
 40
0.0
  9
$DIMTOL
 70
     0
  9
$DIMLIM
 70
     0
  9
$DIMTIH
 70
     1
  9
$DIMTOH
 70
     1
  9
$DIMSE1
 70
     0
  9
$DIMSE2
 70
     0
  9
$DIMTAD
 70
     0
  9
$DIMZIN
 70
     0
  9
$DIMBLK
  1

  9
$DIMASO
 70
     1
  9
$DIMSHO
 70
     1
  9
$DIMPOST
  1

  9
$DIMAPOST
  1

  9
$DIMALT
 70
     0
  9
$DIMALTD
 70
     2
  9
$DIMALTF
 40
25.4
  9
$DIMLFAC
 40
1.0
  9
$DIMTOFL
 70
     0
  9
$DIMTVP
 40
0.0
  9
$DIMTIX
 70
     0
  9
$DIMSOXD
 70
     0
  9
$DIMSAH
 70
     0
  9
$DIMBLK1
  1

  9
$DIMBLK2
  1

  9
$DIMSTYLE
  2
STANDARD
  9
$DIMCLRD
 70
     0
  9
$DIMCLRE
 70
     0
  9
$DIMCLRT
 70
     0
  9
$DIMTFAC
 40
1.0
  9
$DIMGAP
 40
0.09
  9
$DIMJUST
 70
     0
  9
$DIMSD1
 70
     0
  9
$DIMSD2
 70
     0
  9
$DIMTOLJ
 70
     1
  9
$DIMTZIN
 70
     0
  9
$DIMALTZ
 70
     0
  9
$DIMALTTZ
 70
     0
  9
$DIMUPT
 70
     0
  9
$DIMDEC
 70
     4
  9
$DIMTDEC
 70
     4
  9
$DIMALTU
 70
     2
  9
$DIMALTTD
 70
     2
  9
$DIMTXSTY
  7
Standard
  9
$DIMAUNIT
 70
     0
  9
$DIMADEC
 70
     0
  9
$DIMALTRND
 40
0.0
  9
$DIMAZIN
 70
     0
  9
$DIMDSEP
 70
    46
  9
$DIMATFIT
 70
     3
  9
$DIMFRAC
 70
     0
  9
$DIMLDRBLK
  1

  9
$DIMLUNIT
 70
     2
  9
$DIMLWD
 70
    -2
  9
$DIMLWE
 70
    -2
  9
$DIMTMOVE
 70
     0
  9
$LUNITS
 70
     2
  9
$LUPREC
 70
     4
  9
$SKETCHINC
 40
1.0
  9
$FILLETRAD
 40
0.0
  9
$AUNITS
 70
     0
  9
$AUPREC
 70
     0
  9
$MENU
  1
.
  9
$ELEVATION
 40
0.0
  9
$PELEVATION
 40
0.0
  9
$THICKNESS
 40
0.0
  9
$LIMCHECK
 70
     0
  9
$CHAMFERA
 40
0.0
  9
$CHAMFERB
 40
0.0
  9
$CHAMFERC
 40
0.0
  9
$CHAMFERD
 40
0.0
  9
$SKPOLY
 70
     0
  9
$TDCREATE
 40
2455019.583955972
  9
$TDUCREATE
 40
2455019.500622639
  9
$TDUPDATE
 40
2455026.520341609
  9
$TDUUPDATE
 40
2455026.437008276
  9
$TDINDWG
 40
0.1352690856
  9
$TDUSRTIMER
 40
0.1352689120
  9
$USRTIMER
 70
     1
  9
$ANGBASE
 50
0.0
  9
$ANGDIR
 70
     0
  9
$PDMODE
 70
     0
  9
$PDSIZE
 40
0.0
  9
$PLINEWID
 40
0.0
  9
$SPLFRAME
 70
     0
  9
$SPLINETYPE
 70
     6
  9
$SPLINESEGS
 70
     8
  9
$HANDSEED
  5
739
  9
$SURFTAB1
 70
     6
  9
$SURFTAB2
 70
     6
  9
$SURFTYPE
 70
     6
  9
$SURFU
 70
     6
  9
$SURFV
 70
     6
  9
$UCSBASE
  2

  9
$UCSNAME
  2

  9
$UCSORG
 10
0.0
 20
0.0
 30
0.0
  9
$UCSXDIR
 10
1.0
 20
0.0
 30
0.0
  9
$UCSYDIR
 10
0.0
 20
1.0
 30
0.0
  9
$UCSORTHOREF
  2

  9
$UCSORTHOVIEW
 70
     0
  9
$UCSORGTOP
 10
0.0
 20
0.0
 30
0.0
  9
$UCSORGBOTTOM
 10
0.0
 20
0.0
 30
0.0
  9
$UCSORGLEFT
 10
0.0
 20
0.0
 30
0.0
  9
$UCSORGRIGHT
 10
0.0
 20
0.0
 30
0.0
  9
$UCSORGFRONT
 10
0.0
 20
0.0
 30
0.0
  9
$UCSORGBACK
 10
0.0
 20
0.0
 30
0.0
  9
$PUCSBASE
  2

  9
$PUCSNAME
  2

  9
$PUCSORG
 10
0.0
 20
0.0
 30
0.0
  9
$PUCSXDIR
 10
1.0
 20
0.0
 30
0.0
  9
$PUCSYDIR
 10
0.0
 20
1.0
 30
0.0
  9
$PUCSORTHOREF
  2

  9
$PUCSORTHOVIEW
 70
     0
  9
$PUCSORGTOP
 10
0.0
 20
0.0
 30
0.0
  9
$PUCSORGBOTTOM
 10
0.0
 20
0.0
 30
0.0
  9
$PUCSORGLEFT
 10
0.0
 20
0.0
 30
0.0
  9
$PUCSORGRIGHT
 10
0.0
 20
0.0
 30
0.0
  9
$PUCSORGFRONT
 10
0.0
 20
0.0
 30
0.0
  9
$PUCSORGBACK
 10
0.0
 20
0.0
 30
0.0
  9
$USERI1
 70
     0
  9
$USERI2
 70
     0
  9
$USERI3
 70
     0
  9
$USERI4
 70
     0
  9
$USERI5
 70
     0
  9
$USERR1
 40
0.0
  9
$USERR2
 40
0.0
  9
$USERR3
 40
0.0
  9
$USERR4
 40
0.0
  9
$USERR5
 40
0.0
  9
$WORLDVIEW
 70
     1
  9
$SHADEDGE
 70
     3
  9
$SHADEDIF
 70
    70
  9
$TILEMODE
 70
     1
  9
$MAXACTVP
 70
    64
  9
$PINSBASE
 10
0.0
 20
0.0
 30
0.0
  9
$PLIMCHECK
 70
     0
  9
$PEXTMIN
 10
1.000000000000000E+20
 20
1.000000000000000E+20
 30
1.000000000000000E+20
  9
$PEXTMAX
 10
-1.000000000000000E+20
 20
-1.000000000000000E+20
 30
-1.000000000000000E+20
  9
$PLIMMIN
 10
0.0
 20
0.0
  9
$PLIMMAX
 10
420.0
 20
297.0
  9
$UNITMODE
 70
     0
  9
$VISRETAIN
 70
     1
  9
$PLINEGEN
 70
     0
  9
$PSLTSCALE
 70
     1
  9
$TREEDEPTH
 70
  3020
  9
$CMLSTYLE
  2
Standard
  9
$CMLJUST
 70
     0
  9
$CMLSCALE
 40
20.0
  9
$PROXYGRAPHICS
 70
     1
  9
$MEASUREMENT
 70
     1
  9
$CELWEIGHT
370
    -1
  9
$ENDCAPS
280
     0
  9
$JOINSTYLE
280
     0
  9
$LWDISPLAY
290
     0
  9
$INSUNITS
 70
     4
  9
$HYPERLINKBASE
  1

  9
$STYLESHEET
  1

  9
$XEDIT
290
     1
  9
$CEPSNTYPE
380
     0
  9
$PSTYLEMODE
290
     1
  9
$FINGERPRINTGUID
  2
{A6C950DD-243C-480B-8B88-1E8CBBE87BD7}
  9
$VERSIONGUID
  2
{E23059C8-86E0-4873-A610-B64CE9791DAC}
  9
$EXTNAMES
290
     1
  9
$PSVPSCALE
 40
0.0
  9
$OLESTARTUP
290
     0
  0
ENDSEC
  0
SECTION
  2
CLASSES
  0
CLASS
  1
ACDBDICTIONARYWDFLT
  2
AcDbDictionaryWithDefault
  3
ObjectDBX Classes
 90
        0
280
     0
281
     0
  0
CLASS
  1
TABLESTYLE
  2
AcDbTableStyle
  3
ObjectDBX Classes
 90
     2047
280
     0
281
     0
  0
CLASS
  1
SORTENTSTABLE
  2
AcDbSortentsTable
  3
ObjectDBX Classes
 90
        0
280
     0
281
     0
  0
CLASS
  1
DICTIONARYVAR
  2
AcDbDictionaryVar
  3
ObjectDBX Classes
 90
        0
280
     0
281
     0
  0
CLASS
  1
ACDBPLACEHOLDER
  2
AcDbPlaceHolder
  3
ObjectDBX Classes
 90
        0
280
     0
281
     0
  0
CLASS
  1
LAYOUT
  2
AcDbLayout
  3
ObjectDBX Classes
 90
        0
280
     0
281
     0
  0
CLASS
  1
DIMASSOC
  2
AcDbDimAssoc
  3
"AcDbDimAssoc|Product Desc:     AcDim ARX App For Dimension|Company:          Autodesk, Inc.|WEB Address:      www.autodesk.com"
 90
    32768
280
     0
281
     0
  0
ENDSEC
  0
SECTION
  2
TABLES
  0
TABLE
  2
VPORT
  5
8
330
0
100
AcDbSymbolTable
 70
     2
  0
VPORT
  5
731
330
8
100
AcDbSymbolTableRecord
100
AcDbViewportTableRecord
  2
*Active
 70
     0
 10
0.0
 20
0.0
 11
1.0
 21
1.0
 12
410.9425953076343
 22
204.7126276523373
 13
0.0
 23
0.0
 14
10.0
 24
10.0
 15
10.0
 25
10.0
 16
0.0
 26
0.0
 36
1.0
 17
0.0
 27
0.0
 37
0.0
 40
523.716484487074
 41
1.525474525474525
 42
50.0
 43
0.0
 44
0.0
 50
0.0
 51
0.0
 71
     0
 72
  1000
 73
     1
 74
     3
 75
     0
 76
     0
 77
     0
 78
     0
281
     0
 65
     1
110
0.0
120
0.0
130
0.0
111
1.0
121
0.0
131
0.0
112
0.0
122
1.0
132
0.0
 79
     0
146
0.0
  0
ENDTAB
  0
TABLE
  2
LTYPE
  5
5
330
0
100
AcDbSymbolTable
 70
     1
  0
LTYPE
  5
14
330
5
100
AcDbSymbolTableRecord
100
AcDbLinetypeTableRecord
  2
ByBlock
 70
     0
  3

 72
    65
 73
     0
 40
0.0
  0
LTYPE
  5
15
330
5
100
AcDbSymbolTableRecord
100
AcDbLinetypeTableRecord
  2
ByLayer
 70
     0
  3

 72
    65
 73
     0
 40
0.0
  0
LTYPE
  5
16
330
5
100
AcDbSymbolTableRecord
100
AcDbLinetypeTableRecord
  2
Continuous
 70
     0
  3
Solid line
 72
    65
 73
     0
 40
0.0
  0
ENDTAB
  0
TABLE
  2
LAYER
  5
2
102
{ACAD_XDICTIONARY
360
35
102
}
330
0
100
AcDbSymbolTable
 70
     2
  0
LAYER
  5
10
330
2
100
AcDbSymbolTableRecord
100
AcDbLayerTableRecord
  2
0
 70
     0
 62
     7
  6
Continuous
370
    -3
390
F
  0
LAYER
  5
22A
330
2
100
AcDbSymbolTableRecord
100
AcDbLayerTableRecord
  2
Defpoints
 70
     0
 62
     7
  6
Continuous
290
     0
370
    -3
390
F
  0
ENDTAB
  0
TABLE
  2
STYLE
  5
3
330
0
100
AcDbSymbolTable
 70
     1
  0
STYLE
  5
11
330
3
100
AcDbSymbolTableRecord
100
AcDbTextStyleTableRecord
  2
Standard
 70
     0
 40
0.0
 41
1.0
 50
0.0
 71
     0
 42
2.5
  3
txt
  4

  0
ENDTAB
  0
TABLE
  2
VIEW
  5
6
330
0
100
AcDbSymbolTable
 70
     0
  0
ENDTAB
  0
TABLE
  2
UCS
  5
7
330
0
100
AcDbSymbolTable
 70
     0
  0
ENDTAB
  0
TABLE
  2
APPID
  5
9
330
0
100
AcDbSymbolTable
 70
     8
  0
APPID
  5
12
330
9
100
AcDbSymbolTableRecord
100
AcDbRegAppTableRecord
  2
ACAD
 70
     0
  0
APPID
  5
34
330
9
100
AcDbSymbolTableRecord
100
AcDbRegAppTableRecord
  2
ACAD_PSEXT
 70
     0
  0
APPID
  5
2E1
330
9
100
AcDbSymbolTableRecord
100
AcDbRegAppTableRecord
  2
ACAD_DSTYLE_DIMTEXT_FILL
 70
     0
  0
APPID
  5
2E2
330
9
100
AcDbSymbolTableRecord
100
AcDbRegAppTableRecord
  2
ACAD_DSTYLE_DIMEXT_LENGTH
 70
     0
  0
APPID
  5
2E3
330
9
100
AcDbSymbolTableRecord
100
AcDbRegAppTableRecord
  2
ACAD_DSTYLE_DIMEXT_ENABLED
 70
     0
  0
APPID
  5
2E4
330
9
100
AcDbSymbolTableRecord
100
AcDbRegAppTableRecord
  2
ACAD_DSTYLE_DIM_LINETYPE
 70
     0
  0
APPID
  5
2E5
330
9
100
AcDbSymbolTableRecord
100
AcDbRegAppTableRecord
  2
ACAD_DSTYLE_DIM_EXT1_LINETYPE
 70
     0
  0
APPID
  5
2E6
330
9
100
AcDbSymbolTableRecord
100
AcDbRegAppTableRecord
  2
ACAD_DSTYLE_DIM_EXT2_LINETYPE
 70
     0
  0
ENDTAB
  0
TABLE
  2
DIMSTYLE
  5
A
330
0
100
AcDbSymbolTable
 70
     1
100
AcDbDimStyleTable
 71
     1
340
33
  0
DIMSTYLE
105
33
330
A
100
AcDbSymbolTableRecord
100
AcDbDimStyleTableRecord
  2
STANDARD
 70
     0
340
11
  0
ENDTAB
  0
TABLE
  2
BLOCK_RECORD
  5
1
330
0
100
AcDbSymbolTable
 70
     2
  0
BLOCK_RECORD
  5
23
102
{ACAD_XDICTIONARY
360
19E
102
}
330
1
100
AcDbSymbolTableRecord
100
AcDbBlockTableRecord
  2
*Model_Space
340
26
  0
BLOCK_RECORD
  5
1F
330
1
100
AcDbSymbolTableRecord
100
AcDbBlockTableRecord
  2
*Paper_Space
340
22
  0
BLOCK_RECORD
  5
27
330
1
100
AcDbSymbolTableRecord
100
AcDbBlockTableRecord
  2
*Paper_Space0
340
2A
  0
BLOCK_RECORD
  5
70A
102
{ACAD_XDICTIONARY
360
70B
102
}
330
1
100
AcDbSymbolTableRecord
100
AcDbBlockTableRecord
  2
27015_27432_P
340
0
310
2800000020000000200000000100080000000000000400000000000000000000000000000000000000000000000080000080000000808000800000008000800080800000C0C0C000C0DCC000F0CAA6000020400000206000002080000020A0000020C0000020E00000400000004020000040400000406000004080000040A0
310
000040C0000040E00000600000006020000060400000606000006080000060A0000060C0000060E00000800000008020000080400000806000008080000080A0000080C0000080E00000A0000000A0200000A0400000A0600000A0800000A0A00000A0C00000A0E00000C0000000C0200000C0400000C0600000C0800000C0
310
A00000C0C00000C0E00000E0000000E0200000E0400000E0600000E0800000E0A00000E0C00000E0E00040000000400020004000400040006000400080004000A0004000C0004000E00040200000402020004020400040206000402080004020A0004020C0004020E000404000004040200040404000404060004040800040
310
40A0004040C0004040E00040600000406020004060400040606000406080004060A0004060C0004060E00040800000408020004080400040806000408080004080A0004080C0004080E00040A0000040A0200040A0400040A0600040A0800040A0A00040A0C00040A0E00040C0000040C0200040C0400040C0600040C08000
310
40C0A00040C0C00040C0E00040E0000040E0200040E0400040E0600040E0800040E0A00040E0C00040E0E00080000000800020008000400080006000800080008000A0008000C0008000E00080200000802020008020400080206000802080008020A0008020C0008020E00080400000804020008040400080406000804080
310
008040A0008040C0008040E00080600000806020008060400080606000806080008060A0008060C0008060E00080800000808020008080400080806000808080008080A0008080C0008080E00080A0000080A0200080A0400080A0600080A0800080A0A00080A0C00080A0E00080C0000080C0200080C0400080C0600080C0
310
800080C0A00080C0C00080C0E00080E0000080E0200080E0400080E0600080E0800080E0A00080E0C00080E0E000C0000000C0002000C0004000C0006000C0008000C000A000C000C000C000E000C0200000C0202000C0204000C0206000C0208000C020A000C020C000C020E000C0400000C0402000C0404000C0406000C0
310
408000C040A000C040C000C040E000C0600000C0602000C0604000C0606000C0608000C060A000C060C000C060E000C0800000C0802000C0804000C0806000C0808000C080A000C080C000C080E000C0A00000C0A02000C0A04000C0A06000C0A08000C0A0A000C0A0C000C0A0E000C0C00000C0C02000C0C04000C0C06000
310
C0C08000C0C0A000F0FBFF00A4A0A000808080000000FF0000FF000000FFFF00FF000000FF00FF00FFFF0000FFFFFF0000000000000000000000000000000000000000000000000000000000000000000000000000000000000000000000000000000000000000000000000000000000000000000000000000000000000000
310
00000000000000000000000000000000000000000000000000000000000000000000000000000000000000000000000000000000000000000000000000000000000000000000000000000000000000000000000000000000000000000000000000000000000000000000000000000000000000000000000000000000000000
310
00000000000000000000000000000000000000000000FFFFFFFFFFFFFFFFFFFFFFFFFFFFFFFFFFFFFFFFFFFFFFFF000000000000FFFFFFFFFFFFFFFFFFFFFFFFFFFFFFFFFFFFFFFFFFFFFFFFFFFFFFFF00000000FFFF000000000000000000000000000000000000000000000000FFFF000000FFFF00000000000000000000
310
00000000000000000000000000000000FFFF0000FFFF0000000000000000000000000000000000000000000000000000FFFF0000FFFF0000000000000000000000000000000000000000000000000000FFFF0000FFFF000000000000000000000000FFFF000000000000000000000000FFFF0000FFFF000000000000000000
310
0000FFFFFFFF0000000000000000000000FFFF0000FFFF0000000000000000000000FF00FFFF0000000000000000000000FFFF0000FFFFFF0000000000000000000000FFFF0000000000000000000000FFFFFF0000FFFF00FFFFFFFFFFFFFFFFFFFFFFFFFFFFFFFFFFFFFFFFFFFFFFFF00FFFF0000FF00FF00FFFFFFFFFFFF
310
FFFFFFFFFFFFFFFFFFFFFFFFFFFFFFFF0000FFFF0000FF00FFFFFFFFFFFFFFFFFFFFFFFFFFFFFFFFFFFFFFFFFFFFFFFFFFFF00FF0000FF00000000000000000000000000FFFF00000000000000000000000000FF0000FF00000000000000000000000000FFFF00000000000000000000000000FF0000FF0000000000000000
310
0000000000FF0000000000000000000000000000FF0000FF00000000000000000000000000000000000000000000000000000000FF0000FFFFFFFFFFFFFFFFFFFFFFFFFFFFFFFFFFFFFFFFFFFFFFFFFFFFFFFFFFFF000000000000000000000000000000000000000000000000000000000000000000000000000000000000
310
00000000000000000000000000000000000000000000000000000000000000000000000000000000000000000000000000000000000000000000000000000000000000000000000000000000000000000000000000000000000000000000000000000000000000000000000000000000000000000000000000000000000000
310
0000000000000000000000000000000000000000000000000000000000000000000000000000000000000000000000000000000000000000
102
{BLKREFS
331
724
102
}
1001
ACAD
1000
DesignCenter Data
1002
{
1070
     1
1070
     4
1002
}
  0
ENDTAB
  0
ENDSEC
  0
SECTION
  2
BLOCKS
  0
BLOCK
  5
24
330
23
100
AcDbEntity
  8
0
100
AcDbBlockBegin
  2
*Model_Space
 70
     0
 10
0.0
 20
0.0
 30
0.0
  3
*Model_Space
  1

  0
ENDBLK
  5
25
330
23
100
AcDbEntity
  8
0
100
AcDbBlockEnd
  0
BLOCK
  5
20
330
1F
100
AcDbEntity
 67
     1
  8
0
100
AcDbBlockBegin
  2
*Paper_Space
 70
     0
 10
0.0
 20
0.0
 30
0.0
  3
*Paper_Space
  1

  0
ENDBLK
  5
21
330
1F
100
AcDbEntity
 67
     1
  8
0
100
AcDbBlockEnd
  0
BLOCK
  5
28
330
27
100
AcDbEntity
 67
     1
  8
0
100
AcDbBlockBegin
  2
*Paper_Space0
 70
     0
 10
0.0
 20
0.0
 30
0.0
  3
*Paper_Space0
  1

  0
ENDBLK
  5
29
330
27
100
AcDbEntity
 67
     1
  8
0
100
AcDbBlockEnd
  0
BLOCK
  5
70E
330
70A
100
AcDbEntity
  8
0
100
AcDbBlockBegin
  2
27015_27432_P
 70
     0
 10
0.0
 20
0.0
 30
0.0
  3
27015_27432_P
  1

  0
CIRCLE
  5
710
330
70A
100
AcDbEntity
  8
0
100
AcDbCircle
 10
370.3858646094425
 20
252.6738203249306
 30
0.0
 40
23.00000000000022
  0
ARC
  5
711
330
70A
100
AcDbEntity
  8
0
100
AcDbCircle
 10
616.8858646094352
 20
307.6738203249606
 30
0.0
 40
40.0
100
AcDbArc
 50
0.0
 51
90.0
  0
ARC
  5
712
330
70A
100
AcDbEntity
  8
0
100
AcDbCircle
 10
666.385864609437
 20
438.6738203249306
 30
0.0
 40
4.0
100
AcDbArc
 50
0.0
 51
90.0
  0
ARC
  5
713
330
70A
100
AcDbEntity
  8
0
100
AcDbCircle
 10
370.385864609437
 20
252.6738203249306
 30
0.0
 40
36.00000000000008
100
AcDbArc
 50
270.0
 51
90.0
  0
LINE
  5
714
330
70A
100
AcDbEntity
  8
0
100
AcDbLine
 10
616.8858646094352
 20
347.6738203249606
 30
0.0
 11
123.8858646094388
 21
347.6738203249533
 31
0.0
  0
CIRCLE
  5
715
330
70A
100
AcDbEntity
  8
0
100
AcDbCircle
 10
370.385864609437
 20
382.673820324927
 30
0.0
 40
17.5
  0
LINE
  5
716
330
70A
100
AcDbEntity
  8
0
100
AcDbLine
 10
144.7599524773261
 20
315.5145214668719
 30
0.0
 11
596.0117767415479
 21
315.5145214668719
 31
0.0
  0
ARC
  5
717
330
70A
100
AcDbEntity
  8
0
100
AcDbCircle
 10
596.0117767415479
 20
283.5145214668719
 30
0.0
 40
32.0
100
AcDbArc
 50
0.0
 51
90.0
  0
SPLINE
  5
718
330
70A
100
AcDbEntity
  8
0
100
AcDbSpline
210
0.0
220
0.0
230
1.0
 70
     8
 71
     3
 72
    26
 73
    22
 74
     0
 42
0.0000000001
 43
0.0000000001
 40
7.853979450876906
 40
7.853979450876906
 40
7.853979450876906
 40
7.853979450876906
 40
7.919352950397192
 40
7.919352950397192
 40
8.35700805459029
 40
8.35700805459029
 40
8.794663158783388
 40
8.794663158783388
 40
9.124586633184637
 40
9.124586633184637
 40
9.454510107585889
 40
9.454510107585889
 40
9.784433581987139
 40
9.784433581987139
 40
10.11435705638839
 40
10.11435705638839
 40
10.44428053078964
 40
10.44428053078964
 40
10.88286040666045
 40
10.88286040666045
 40
10.99557777686171
 40
10.99557777686171
 40
10.99557777686171
 40
10.99557777686171
 10
310.3858646094316
 20
324.0326271802032
 30
0.0
 10
310.6191712895063
 20
324.032556697849
 30
0.0
 10
310.8524818897615
 20
324.0378927045922
 30
0.0
 10
312.6443538321012
 20
324.120839279788
 30
0.0
 10
314.1823414142775
 20
324.4368468379243
 30
0.0
 10
316.9561711180151
 20
325.5160815200643
 30
0.0
 10
318.1920103054374
 20
326.2790230600976
 30
0.0
 10
319.8924601161682
 20
327.9277480435367
 30
0.0
 10
320.4721797926825
 20
328.7377308220266
 30
0.0
 10
321.237285040944
 20
330.4854881455058
 30
0.0
 10
321.4197844762541
 20
331.4232508232917
 30
0.0
 10
321.3413386883687
 20
333.2883432739172
 30
0.0
 10
321.0810052898462
 20
334.2116808810015
 30
0.0
 10
320.1769451949615
 20
335.9118151285975
 30
0.0
 10
319.5356620362338
 20
336.6893710189824
 30
0.0
 10
317.9682267281435
 20
338.0334233037201
 30
0.0
 10
317.0419620787991
 20
338.6008515943895
 30
0.0
 10
314.6672769782938
 20
339.6333422556954
 30
0.0
 10
313.1467600673889
 20
340.0020069076954
 30
0.0
 10
311.1904111220404
 20
340.1585930592982
 30
0.0
 10
310.7881373364191
 20
340.1744697443382
 30
0.0
 10
310.3858646094352
 20
340.1743409119254
 30
0.0
  0
LINE
  5
719
330
70A
100
AcDbEntity
  8
0
100
AcDbLine
 10
666.385864609437
 20
442.6738203249306
 30
0.0
 11
74.38586460943702
 21
442.6738203249378
 31
0.0
  0
ARC
  5
71A
330
70A
100
AcDbEntity
  8
0
100
AcDbCircle
 10
123.8858646094388
 20
307.6738203249606
 30
0.0
 40
40.0
100
AcDbArc
 50
90.0
 51
180.0
  0
ARC
  5
71B
330
70A
100
AcDbEntity
  8
0
100
AcDbCircle
 10
74.38586460944065
 20
438.6738203249306
 30
0.0
 40
4.0
100
AcDbArc
 50
90.0
 51
180.0
  0
LWPOLYLINE
  5
71C
330
70A
100
AcDbEntity
  8
0
100
AcDbPolyline
 90
       46
 70
   128
 43
0.0
 10
370.3858941658048
 20
106.1738179259455
 10
347.0601236383093
 20
106.1877285775854
 10
321.7931077259975
 20
106.2469512515826
 10
297.705072962611
 20
106.3437495830048
 10
274.8251131426398
 20
106.4724663705428
 10
253.1082791150777
 20
106.6275952271398
 10
232.4799586615511
 20
106.8040764875668
 10
212.8828567238627
 20
106.9973834323364
 10
193.7837739956423
 20
107.209476194178
 10
175.4358419251123
 20
107.4367768404163
 10
157.7139332102372
 20
107.6781518421021
 10
149.5852380169574
 20
107.7956242260488
 10
141.5921735623608
 20
107.9153835693841
 10
133.834925584307
 20
108.0357901863108
 10
126.9632737102813
 20
108.2404443767091
 10
121.1383004820575
 20
109.054184473146
 10
115.2521264971613
 20
110.6559348165583
 10
110.0716817856785
 20
112.7922288103191
 10
105.6915528875427
 20
115.2138310891105
 10
103.0591194078908
 20
116.9874219155072
 10
100.7779568032777
 20
118.7529316293303
 10
98.91410003508577
 20
120.3764838438628
 10
97.21129281240724
 20
122.0279962593131
 10
95.12938177324144
 20
124.3028343522755
 10
92.78481366221171
 20
127.2711642023578
 10
90.80488593265114
 20
130.2192263198421
 10
89.30486586602205
 20
132.8309770619789
 10
88.19145703446451
 20
135.0679672560664
 10
87.37936891508912
 20
136.9253024805302
 10
86.47925338345089
 20
139.3034265009382
 10
85.51868966209189
 20
142.4210540960348
 10
84.64746411947748
 20
146.3014575985335
 10
84.04118741930437
 20
151.0119764300698
 10
83.8847846674064
 20
157.1851405037132
 10
83.88501797151116
 20
164.9942955084598
 10
83.88424306601269
 20
191.3985567956242
 10
83.88352782563311
 20
201.2223425747234
 10
83.88287218519257
 20
211.9680365575168
 10
83.88230595029858
 20
223.6356560550794
 10
83.88191853116154
 20
238.0988766030914
 10
83.88179932632487
 20
253.7663542284772
 10
83.88206754591124
 20
270.6381448817283
 10
83.88284239559585
 20
288.714260243667
 10
83.88586460943884
 20
307.6738203249606
 10
83.88586460943884
 20
307.6738203249606
 10
83.88586460943884
 20
307.6738203249606
  0
ARC
  5
71D
330
70A
100
AcDbEntity
  8
0
100
AcDbCircle
 10
144.7599524773261
 20
283.5145214668719
 30
0.0
 40
32.0
100
AcDbArc
 50
90.0
 51
180.0
  0
LWPOLYLINE
  5
71E
330
70A
100
AcDbEntity
  8
0
100
AcDbPolyline
 90
       46
 70
   128
 43
0.0
 10
370.385864609437
 20
92.67382032493424
 10
347.0402784510218
 20
92.68773800948929
 10
321.7501617832743
 20
92.74701482871842
 10
297.6399749382101
 20
92.84390217880082
 10
274.7389241917692
 20
92.97273761848282
 10
253.002317236241
 20
93.12800771812272
 10
232.3556333644949
 20
93.30464608291459
 10
212.7413242920004
 20
93.4981227598555
 10
193.6252057416998
 20
93.71040470222306
 10
175.2602994306646
 20
93.93791563133072
 10
157.530078278359
 20
94.17940384963822
 10
149.3901699646078
 20
94.29703361610245
 10
141.3899302347265
 20
94.41689855674576
 10
133.5292100771032
 20
94.53890926460099
 10
125.8250564201437
 20
94.76835734466385
 10
118.4211164577566
 20
95.80267674545121
 10
110.8892947300039
 20
97.85224206069779
 10
104.2134553058706
 20
100.6052017889387
 10
98.64042101937162
 20
103.6863148889906
 10
95.14758883553373
 20
106.0395956716902
 10
92.20583139496671
 20
108.3163738928206
 10
89.77455793457853
 20
110.434186526335
 10
87.523826943215
 20
112.6171172342665
 10
84.83941255646573
 20
115.5502916059859
 10
81.86809121209012
 20
119.3121195516951
 10
79.333969937142
 20
123.0853617868788
 10
77.39816008644925
 20
126.4558852396376
 10
75.95638333397733
 20
129.3526113710768
 10
74.87384377556669
 20
131.8284989080794
 10
73.70291052895414
 20
134.9221289835341
 10
72.46203123169767
 20
138.9495552263624
 10
71.33797703820096
 20
143.9560473642714
 10
70.5630868537985
 20
149.9766231260664
 10
70.38477955895292
 20
157.0143521509535
 10
70.38501797753202
 20
164.994698830641
 10
70.38424311714812
 20
191.3973817310998
 10
70.38352786141081
 20
201.2213596783349
 10
70.38287221031828
 20
211.9672128639886
 10
70.38230596619292
 20
223.6350008927057
 10
70.38191853600188
 20
238.09851498229
 10
70.38179932671233
 20
253.766251512594
 10
70.38206754761382
 20
270.6383594952295
 10
70.3828424079959
 20
288.7148389301965
 10
70.38412390785857
 20
307.9957494221399
 10
70.3859716518466
 20
328.4811207733819
 10
70.38586460944066
 20
438.6738203249306
  0
ARC
  5
71F
330
70A
100
AcDbEntity
  8
0
100
AcDbCircle
 10
370.385864609437
 20
252.6738203249306
 30
0.0
 40
36.00000000000008
100
AcDbArc
 50
90.0
 51
270.0
  0
SPLINE
  5
720
330
70A
100
AcDbEntity
  8
0
100
AcDbSpline
210
0.0
220
0.0
230
1.0
 70
     8
 71
     3
 72
    26
 73
    22
 74
     0
 42
0.0000000001
 43
0.0000000001
 40
7.853979450876906
 40
7.853979450876906
 40
7.853979450876906
 40
7.853979450876906
 40
7.919352950397192
 40
7.919352950397192
 40
8.35700805459029
 40
8.35700805459029
 40
8.794663158783388
 40
8.794663158783388
 40
9.124586633184637
 40
9.124586633184637
 40
9.454510107585889
 40
9.454510107585889
 40
9.784433581987139
 40
9.784433581987139
 40
10.11435705638839
 40
10.11435705638839
 40
10.44428053078964
 40
10.44428053078964
 40
10.88286040666045
 40
10.88286040666045
 40
10.99557777686171
 40
10.99557777686171
 40
10.99557777686171
 40
10.99557777686171
 10
310.3858646094316
 20
324.0326271802032
 30
0.0
 10
310.1525579293568
 20
324.032556697849
 30
0.0
 10
309.9192473291016
 20
324.0378927045922
 30
0.0
 10
308.127375386762
 20
324.120839279788
 30
0.0
 10
306.5893878045856
 20
324.4368468379243
 30
0.0
 10
303.815558100848
 20
325.5160815200643
 30
0.0
 10
302.5797189134257
 20
326.2790230600976
 30
0.0
 10
300.879269102695
 20
327.9277480435367
 30
0.0
 10
300.2995494261806
 20
328.7377308220266
 30
0.0
 10
299.5344441779191
 20
330.4854881455058
 30
0.0
 10
299.351944742609
 20
331.4232508232917
 30
0.0
 10
299.4303905304944
 20
333.2883432739172
 30
0.0
 10
299.690723929017
 20
334.2116808810015
 30
0.0
 10
300.5947840239016
 20
335.9118151285975
 30
0.0
 10
301.2360671826293
 20
336.6893710189824
 30
0.0
 10
302.8035024907197
 20
338.0334233037201
 30
0.0
 10
303.729767140064
 20
338.6008515943895
 30
0.0
 10
306.1044522405694
 20
339.6333422556954
 30
0.0
 10
307.6249691514743
 20
340.0020069076954
 30
0.0
 10
309.5813180968228
 20
340.1585930592982
 30
0.0
 10
309.983591882444
 20
340.1744697443382
 30
0.0
 10
310.3858646094279
 20
340.1743409119254
 30
0.0
  0
ARC
  5
721
330
70A
100
AcDbEntity
  8
0
100
AcDbCircle
 10
370.3858646094297
 20
5718.118042594383
 30
0.0
 40
5417.76628858072
100
AcDbArc
 50
267.6419565446544
 51
272.3580434553456
  0
LWPOLYLINE
  5
722
330
70A
100
AcDbEntity
  8
0
100
AcDbPolyline
 90
       46
 70
   128
 43
0.0
 10
370.3858941658048
 20
106.1738179259455
 10
393.7116646933002
 20
106.1877285775854
 10
418.978680605612
 20
106.2469512515826
 10
443.0667153689985
 20
106.3437495830048
 10
465.9466751889697
 20
106.4724663705428
 10
487.6635092165318
 20
106.6275952271398
 10
508.2918296700584
 20
106.8040764875668
 10
527.8889316077468
 20
106.9973834323364
 10
546.9880143359671
 20
107.209476194178
 10
565.3359464064972
 20
107.4367768404163
 10
583.0578551213723
 20
107.6781518421021
 10
591.1865503146521
 20
107.7956242260488
 10
599.1796147692487
 20
107.9153835693841
 10
606.9368627473025
 20
108.0357901863108
 10
613.8085146213281
 20
108.2404443767091
 10
619.633487849552
 20
109.054184473146
 10
625.5196618344482
 20
110.6559348165583
 10
630.700106545931
 20
112.7922288103191
 10
635.0802354440668
 20
115.2138310891105
 10
637.7126689237186
 20
116.9874219155072
 10
639.9938315283318
 20
118.7529316293303
 10
641.8576882965237
 20
120.3764838438628
 10
643.5604955192022
 20
122.0279962593131
 10
645.642406558368
 20
124.3028343522755
 10
647.9869746693978
 20
127.2711642023578
 10
649.9669023989583
 20
130.2192263198421
 10
651.4669224655874
 20
132.8309770619789
 10
652.580331297145
 20
135.0679672560664
 10
653.3924194165203
 20
136.9253024805302
 10
654.2925349481586
 20
139.3034265009382
 10
655.2530986695176
 20
142.4210540960348
 10
656.124324212132
 20
146.3014575985335
 10
656.7306009123051
 20
151.0119764300698
 10
656.8870036642031
 20
157.1851405037132
 10
656.8867703600983
 20
164.9942955084598
 10
656.8875452655931
 20
191.3985567956242
 10
656.8882605059727
 20
201.2223425747234
 10
656.8889161464133
 20
211.9680365575168
 10
656.8894823813073
 20
223.6356560550794
 10
656.8898698004443
 20
238.0988766030914
 10
656.889989005281
 20
253.7663542284772
 10
656.8897207856946
 20
270.6381448817283
 10
656.88894593601
 20
288.714260243667
 10
656.885923722167
 20
307.6738203249606
 10
656.885923722167
 20
307.6738203249606
 10
656.885923722167
 20
307.6738203249606
  0
LWPOLYLINE
  5
723
330
70A
100
AcDbEntity
  8
0
100
AcDbPolyline
 90
       46
 70
   128
 43
0.0
 10
370.3859237221725
 20
92.67382032493424
 10
393.7315098805878
 20
92.68773800948929
 10
419.0216265483352
 20
92.74701482871842
 10
443.1318133933993
 20
92.84390217880082
 10
466.0328641398402
 20
92.97273761848282
 10
487.7694710953685
 20
93.12800771812272
 10
508.4161549671145
 20
93.30464608291459
 10
528.030464039609
 20
93.4981227598555
 10
547.1465825899096
 20
93.71040470222306
 10
565.5114889009448
 20
93.93791563133072
 10
583.2417100532504
 20
94.17940384963822
 10
591.3816183670016
 20
94.29703361610245
 10
599.3818580968829
 20
94.41689855674576
 10
607.2425782545062
 20
94.53890926460099
 10
614.9467319114657
 20
94.76835734466385
 10
622.3506718738528
 20
95.80267674545121
 10
629.8824936016055
 20
97.85224206069779
 10
636.5583330257388
 20
100.6052017889387
 10
642.1313673122378
 20
103.6863148889906
 10
645.6241994960757
 20
106.0395956716902
 10
648.5659569366427
 20
108.3163738928206
 10
650.9972303970309
 20
110.434186526335
 10
653.2479613883944
 20
112.6171172342665
 10
655.9323757751437
 20
115.5502916059859
 10
658.9036971195193
 20
119.3121195516951
 10
661.4378183944674
 20
123.0853617868788
 10
663.3736282451602
 20
126.4558852396376
 10
664.8154049976321
 20
129.3526113710768
 10
665.8979445560428
 20
131.8284989080794
 10
667.0688778026553
 20
134.9221289835341
 10
668.3097570999118
 20
138.9495552263624
 10
669.4338112934085
 20
143.9560473642714
 10
670.2087014778109
 20
149.9766231260664
 10
670.3870087726565
 20
157.0143521509535
 10
670.3867703540774
 20
164.994698830641
 10
670.3875452144577
 20
191.3973817310998
 10
670.388260470195
 20
201.2213596783349
 10
670.3889161212876
 20
211.9672128639886
 10
670.3894823654129
 20
223.6350008927057
 10
670.389869795604
 20
238.09851498229
 10
670.3899890048935
 20
253.766251512594
 10
670.389720783992
 20
270.6383594952295
 10
670.38894592361
 20
288.7148389301965
 10
670.3876644237473
 20
307.9957494221399
 10
670.3858166797592
 20
328.4811207733819
 10
670.3859237221688
 20
438.6738203249306
  0
ENDBLK
  5
70F
330
70A
100
AcDbEntity
  8
0
100
AcDbBlockEnd
  0
ENDSEC
  0
SECTION
  2
ENTITIES
  0
MTEXT
  5
6B
330
23
100
AcDbEntity
  8
0
100
AcDbMText
 10
13.67895064802198
 20
26.44333632592591
 30
0.0
 40
20.0
 41
853.3333333333334
 71
     1
 72
     5
  1
{\fTimes New Roman|b0|i0|c0|p18;\C0;LAVAMANOS  DE 60x35 CM CON SEMI-COLUMNA.  SERIE EMMA SQUARE }
 73
     1
 44
1.0
1001
ACAD
1000
ACAD_MTEXT_DEFINED_HEIGHT_BEGIN
1070
    46
1040
0.0
1000
ACAD_MTEXT_DEFINED_HEIGHT_END
1000
MTEXTBEGIN
1070
    73
1070
     1
1070
    44
1040
1.0
1070
    74
1070
     0
1000
MTEXTEND
  0
INSERT
  5
724
330
23
100
AcDbEntity
  8
0
100
AcDbBlockReference
  2
27015_27432_P
 10
0.0
 20
0.0
 30
0.0
  0
ENDSEC
  0
SECTION
  2
OBJECTS
  0
DICTIONARY
  5
C
330
0
100
AcDbDictionary
281
     1
  3
ACAD_COLOR
350
1C
  3
ACAD_GROUP
350
D
  3
ACAD_LAYOUT
350
1A
  3
ACAD_MATERIAL
350
1B
  3
ACAD_MLINESTYLE
350
17
  3
ACAD_PLOTSETTINGS
350
19
  3
ACAD_PLOTSTYLENAME
350
E
  3
ACAD_TABLESTYLE
350
1D
  3
ACDBHEADERROUNDTRIPXREC
350
732
  3
AcDbVariableDictionary
350
111
  0
DICTIONARY
  5
35
330
2
100
AcDbDictionary
280
     1
281
     1
  3
ACAD_LAYERSTATES
360
36
  0
DICTIONARY
  5
19E
330
23
100
AcDbDictionary
280
     1
281
     1
  3
ACAD_SORTENTS
360
19F
  0
DICTIONARY
  5
70B
330
70A
100
AcDbDictionary
280
     1
281
     1
  3
AcDbBlockTableRecordData
360
70C
  0
DICTIONARY
  5
1C
102
{ACAD_REACTORS
330
C
102
}
330
C
100
AcDbDictionary
281
     1
  0
DICTIONARY
  5
D
102
{ACAD_REACTORS
330
C
102
}
330
C
100
AcDbDictionary
281
     1
  0
DICTIONARY
  5
1A
102
{ACAD_REACTORS
330
C
102
}
330
C
100
AcDbDictionary
281
     1
  3
Model
350
26
  3
Presentación1
350
22
  3
Presentación2
350
2A
  0
DICTIONARY
  5
1B
102
{ACAD_REACTORS
330
C
102
}
330
C
100
AcDbDictionary
281
     1
  0
DICTIONARY
  5
17
102
{ACAD_REACTORS
330
C
102
}
330
C
100
AcDbDictionary
281
     1
  3
Standard
350
18
  0
DICTIONARY
  5
19
102
{ACAD_REACTORS
330
C
102
}
330
C
100
AcDbDictionary
281
     1
  0
ACDBDICTIONARYWDFLT
  5
E
102
{ACAD_REACTORS
330
C
102
}
330
C
100
AcDbDictionary
281
     1
  3
Normal
350
F
100
AcDbDictionaryWithDefault
340
F
  0
DICTIONARY
  5
1D
102
{ACAD_REACTORS
330
C
102
}
330
C
100
AcDbDictionary
281
     1
  3
Standard
350
1E
  0
DICTIONARY
  5
732
102
{ACAD_REACTORS
330
C
102
}
330
C
100
AcDbDictionary
281
     1
  0
DICTIONARY
  5
111
102
{ACAD_REACTORS
330
C
102
}
330
C
100
AcDbDictionary
281
     1
  3
CTABLESTYLE
350
112
  3
DIMASSOC
350
114
  3
HIDETEXT
350
113
  3
PROJECTNAME
350
115
  0
DICTIONARY
  5
36
102
{ACAD_REACTORS
330
35
102
}
330
35
100
AcDbDictionary
281
     1
  0
SORTENTSTABLE
  5
19F
102
{ACAD_REACTORS
330
19E
102
}
330
19E
100
AcDbSortentsTable
330
23
331
6B
  5
6B
  0
DICTIONARY
  5
70C
102
{ACAD_REACTORS
330
70B
102
}
330
70B
100
AcDbDictionary
280
     1
281
     1
  3
Edit
360
70D
  0
LAYOUT
  5
26
102
{ACAD_XDICTIONARY
360
735
102
}
102
{ACAD_REACTORS
330
1A
102
}
330
1A
100
AcDbPlotSettings
  1

  2
\\CERAMICAS_GALA\PRT_BU_OT_01.ZPRINTERS.BURGOS
  4

  6

 40
0.0
 41
0.0
 42
0.0
 43
0.0
 44
0.0
 45
0.0
 46
0.0
 47
0.0
 48
0.0
 49
0.0
140
0.0
141
0.0
142
1.0
143
1.0
 70
  1712
 72
     0
 73
     0
 74
     0
  7
C:\Documents and Settings\G0810\Application Data\Autodesk\AutoCAD 2006\R16.2\esp\Plot Styles\jj.stb
 75
     0
147
1.0
148
0.0
149
0.0
100
AcDbLayout
  1
Model
 70
     1
 71
     0
 10
0.0
 20
0.0
 11
12.0
 21
9.0
 12
0.0
 22
0.0
 32
0.0
 14
0.0
 24
0.0
 34
0.0
 15
0.0
 25
0.0
 35
0.0
146
0.0
 13
0.0
 23
0.0
 33
0.0
 16
1.0
 26
0.0
 36
0.0
 17
0.0
 27
1.0
 37
0.0
 76
     0
330
23
  0
LAYOUT
  5
22
102
{ACAD_XDICTIONARY
360
733
102
}
102
{ACAD_REACTORS
330
1A
102
}
330
1A
100
AcDbPlotSettings
  1

  2
\\CERAMICAS_GALA\PRT_BU_OT_01.ZPRINTERS.BURGOS
  4

  6

 40
0.0
 41
0.0
 42
0.0
 43
0.0
 44
0.0
 45
0.0
 46
0.0
 47
0.0
 48
0.0
 49
0.0
140
0.0
141
0.0
142
1.0
143
1.0
 70
   688
 72
     0
 73
     0
 74
     5
  7
C:\Documents and Settings\G0810\Application Data\Autodesk\AutoCAD 2006\R16.2\esp\Plot Styles\jj.stb
 75
    16
147
1.0
148
0.0
149
0.0
100
AcDbLayout
  1
Presentación1
 70
     1
 71
     1
 10
0.0
 20
0.0
 11
420.0
 21
297.0
 12
0.0
 22
0.0
 32
0.0
 14
1.000000000000000E+20
 24
1.000000000000000E+20
 34
1.000000000000000E+20
 15
-1.000000000000000E+20
 25
-1.000000000000000E+20
 35
-1.000000000000000E+20
146
0.0
 13
0.0
 23
0.0
 33
0.0
 16
1.0
 26
0.0
 36
0.0
 17
0.0
 27
1.0
 37
0.0
 76
     0
330
1F
  0
LAYOUT
  5
2A
102
{ACAD_XDICTIONARY
360
737
102
}
102
{ACAD_REACTORS
330
1A
102
}
330
1A
100
AcDbPlotSettings
  1

  2
\\CERAMICAS_GALA\PRT_BU_OT_01.ZPRINTERS.BURGOS
  4

  6

 40
0.0
 41
0.0
 42
0.0
 43
0.0
 44
0.0
 45
0.0
 46
0.0
 47
0.0
 48
0.0
 49
0.0
140
0.0
141
0.0
142
1.0
143
1.0
 70
   688
 72
     0
 73
     0
 74
     5
  7
C:\Documents and Settings\G0810\Application Data\Autodesk\AutoCAD 2006\R16.2\esp\Plot Styles\jj.stb
 75
    16
147
1.0
148
0.0
149
0.0
100
AcDbLayout
  1
Presentación2
 70
     1
 71
     2
 10
0.0
 20
0.0
 11
12.0
 21
9.0
 12
0.0
 22
0.0
 32
0.0
 14
0.0
 24
0.0
 34
0.0
 15
0.0
 25
0.0
 35
0.0
146
0.0
 13
0.0
 23
0.0
 33
0.0
 16
1.0
 26
0.0
 36
0.0
 17
0.0
 27
1.0
 37
0.0
 76
     0
330
27
  0
MLINESTYLE
  5
18
102
{ACAD_REACTORS
330
17
102
}
330
17
100
AcDbMlineStyle
  2
STANDARD
 70
     0
  3

 62
   256
 51
90.0
 52
90.0
 71
     2
 49
0.5
 62
   256
  6
BYLAYER
 49
-0.5
 62
   256
  6
BYLAYER
  0
ACDBPLACEHOLDER
  5
F
102
{ACAD_REACTORS
330
E
102
}
330
E
  0
TABLESTYLE
  5
1E
102
{ACAD_REACTORS
330
1D
102
}
330
1D
100
AcDbTableStyle
  3
Standard
 70
     0
 71
     0
 40
1.5
 41
1.5
280
     0
281
     0
  7
Standard
140
4.5
170
     2
 62
     0
 63
     7
283
     0
274
    -2
284
     1
 64
     0
275
    -2
285
     1
 65
     0
276
    -2
286
     1
 66
     0
277
    -2
287
     1
 67
     0
278
    -2
288
     1
 68
     0
279
    -2
289
     1
 69
     0
  7
Standard
140
6.0
170
     5
 62
     0
 63
     7
283
     0
274
    -2
284
     1
 64
     0
275
    -2
285
     1
 65
     0
276
    -2
286
     1
 66
     0
277
    -2
287
     1
 67
     0
278
    -2
288
     1
 68
     0
279
    -2
289
     1
 69
     0
  7
Standard
140
4.5
170
     5
 62
     0
 63
     7
283
     0
274
    -2
284
     1
 64
     0
275
    -2
285
     1
 65
     0
276
    -2
286
     1
 66
     0
277
    -2
287
     1
 67
     0
278
    -2
288
     1
 68
     0
279
    -2
289
     1
 69
     0
  0
DICTIONARYVAR
  5
112
102
{ACAD_REACTORS
330
111
102
}
330
111
100
DictionaryVariables
280
     0
  1
STANDARD
  0
DICTIONARYVAR
  5
114
102
{ACAD_REACTORS
330
111
102
}
330
111
100
DictionaryVariables
280
     0
  1
2
  0
DICTIONARYVAR
  5
113
102
{ACAD_REACTORS
330
111
102
}
330
111
100
DictionaryVariables
280
     0
  1
1
  0
DICTIONARYVAR
  5
115
102
{ACAD_REACTORS
330
111
102
}
330
111
100
DictionaryVariables
280
     0
  1

  0
XRECORD
  5
70D
102
{ACAD_REACTORS
330
70C
102
}
330
70C
100
AcDbXrecord
280
     1
1070
     0
1070
     0
1070
     0
  0
DICTIONARY
  5
735
330
26
100
AcDbDictionary
280
     1
281
     1
  3
ACAD_XREC_ROUNDTRIP
360
736
  0
DICTIONARY
  5
733
330
22
100
AcDbDictionary
280
     1
281
     1
  3
ACAD_XREC_ROUNDTRIP
360
734
  0
DICTIONARY
  5
737
330
2A
100
AcDbDictionary
280
     1
281
     1
  3
ACAD_XREC_ROUNDTRIP
360
738
  0
XRECORD
  5
736
102
{ACAD_REACTORS
330
735
102
}
330
735
100
AcDbXrecord
280
     1
102
SHADEPLOT
 70
     0
102
SHADEPLOTRESLEVEL
 70
     2
102
SHADEPLOTCUSTOMDPI
 70
   300
  0
XRECORD
  5
734
102
{ACAD_REACTORS
330
733
102
}
330
733
100
AcDbXrecord
280
     1
102
SHADEPLOT
 70
     0
102
SHADEPLOTRESLEVEL
 70
     2
102
SHADEPLOTCUSTOMDPI
 70
   300
  0
XRECORD
  5
738
102
{ACAD_REACTORS
330
737
102
}
330
737
100
AcDbXrecord
280
     1
102
SHADEPLOT
 70
     0
102
SHADEPLOTRESLEVEL
 70
     2
102
SHADEPLOTCUSTOMDPI
 70
   300
  0
ENDSEC
  0
EOF
