  0
SECTION
  2
HEADER
  9
$ACADVER
  1
AC1015
  9
$ACADMAINTVER
 70
    20
  9
$DWGCODEPAGE
  3
ANSI_1252
  9
$INSBASE
 10
0.0
 20
0.0
 30
0.0
  9
$EXTMIN
 10
11.78042075772191
 20
-33.27856874787347
 30
-0.0000000349181948
  9
$EXTMAX
 10
762.098912268018
 20
478.4864805036331
 30
0.0000000814935746
  9
$LIMMIN
 10
0.0
 20
0.0
  9
$LIMMAX
 10
420.0
 20
297.0
  9
$ORTHOMODE
 70
     0
  9
$REGENMODE
 70
     1
  9
$FILLMODE
 70
     1
  9
$QTEXTMODE
 70
     0
  9
$MIRRTEXT
 70
     0
  9
$LTSCALE
 40
1.0
  9
$ATTMODE
 70
     1
  9
$TEXTSIZE
 40
2.5
  9
$TRACEWID
 40
1.0
  9
$TEXTSTYLE
  7
Standard
  9
$CLAYER
  8
0
  9
$CELTYPE
  6
ByLayer
  9
$CECOLOR
 62
   256
  9
$CELTSCALE
 40
1.0
  9
$DISPSILH
 70
     0
  9
$DIMSCALE
 40
1.0
  9
$DIMASZ
 40
0.18
  9
$DIMEXO
 40
0.0625
  9
$DIMDLI
 40
0.38
  9
$DIMRND
 40
0.0
  9
$DIMDLE
 40
0.0
  9
$DIMEXE
 40
0.18
  9
$DIMTP
 40
0.0
  9
$DIMTM
 40
0.0
  9
$DIMTXT
 40
0.18
  9
$DIMCEN
 40
0.09
  9
$DIMTSZ
 40
0.0
  9
$DIMTOL
 70
     0
  9
$DIMLIM
 70
     0
  9
$DIMTIH
 70
     1
  9
$DIMTOH
 70
     1
  9
$DIMSE1
 70
     0
  9
$DIMSE2
 70
     0
  9
$DIMTAD
 70
     0
  9
$DIMZIN
 70
     0
  9
$DIMBLK
  1

  9
$DIMASO
 70
     1
  9
$DIMSHO
 70
     1
  9
$DIMPOST
  1

  9
$DIMAPOST
  1

  9
$DIMALT
 70
     0
  9
$DIMALTD
 70
     2
  9
$DIMALTF
 40
25.4
  9
$DIMLFAC
 40
1.0
  9
$DIMTOFL
 70
     0
  9
$DIMTVP
 40
0.0
  9
$DIMTIX
 70
     0
  9
$DIMSOXD
 70
     0
  9
$DIMSAH
 70
     0
  9
$DIMBLK1
  1

  9
$DIMBLK2
  1

  9
$DIMSTYLE
  2
STANDARD
  9
$DIMCLRD
 70
     0
  9
$DIMCLRE
 70
     0
  9
$DIMCLRT
 70
     0
  9
$DIMTFAC
 40
1.0
  9
$DIMGAP
 40
0.09
  9
$DIMJUST
 70
     0
  9
$DIMSD1
 70
     0
  9
$DIMSD2
 70
     0
  9
$DIMTOLJ
 70
     1
  9
$DIMTZIN
 70
     0
  9
$DIMALTZ
 70
     0
  9
$DIMALTTZ
 70
     0
  9
$DIMUPT
 70
     0
  9
$DIMDEC
 70
     4
  9
$DIMTDEC
 70
     4
  9
$DIMALTU
 70
     2
  9
$DIMALTTD
 70
     2
  9
$DIMTXSTY
  7
Standard
  9
$DIMAUNIT
 70
     0
  9
$DIMADEC
 70
     0
  9
$DIMALTRND
 40
0.0
  9
$DIMAZIN
 70
     0
  9
$DIMDSEP
 70
    46
  9
$DIMATFIT
 70
     3
  9
$DIMFRAC
 70
     0
  9
$DIMLDRBLK
  1

  9
$DIMLUNIT
 70
     2
  9
$DIMLWD
 70
    -2
  9
$DIMLWE
 70
    -2
  9
$DIMTMOVE
 70
     0
  9
$LUNITS
 70
     2
  9
$LUPREC
 70
     4
  9
$SKETCHINC
 40
1.0
  9
$FILLETRAD
 40
0.0
  9
$AUNITS
 70
     0
  9
$AUPREC
 70
     0
  9
$MENU
  1
.
  9
$ELEVATION
 40
0.0
  9
$PELEVATION
 40
0.0
  9
$THICKNESS
 40
0.0
  9
$LIMCHECK
 70
     0
  9
$CHAMFERA
 40
0.0
  9
$CHAMFERB
 40
0.0
  9
$CHAMFERC
 40
0.0
  9
$CHAMFERD
 40
0.0
  9
$SKPOLY
 70
     0
  9
$TDCREATE
 40
2455019.583955972
  9
$TDUCREATE
 40
2455019.500622639
  9
$TDUPDATE
 40
2455026.521190313
  9
$TDUUPDATE
 40
2455026.437856979
  9
$TDINDWG
 40
0.3123938542
  9
$TDUSRTIMER
 40
0.3123936806
  9
$USRTIMER
 70
     1
  9
$ANGBASE
 50
0.0
  9
$ANGDIR
 70
     0
  9
$PDMODE
 70
     0
  9
$PDSIZE
 40
0.0
  9
$PLINEWID
 40
0.0
  9
$SPLFRAME
 70
     0
  9
$SPLINETYPE
 70
     6
  9
$SPLINESEGS
 70
     8
  9
$HANDSEED
  5
C16
  9
$SURFTAB1
 70
     6
  9
$SURFTAB2
 70
     6
  9
$SURFTYPE
 70
     6
  9
$SURFU
 70
     6
  9
$SURFV
 70
     6
  9
$UCSBASE
  2

  9
$UCSNAME
  2

  9
$UCSORG
 10
0.0
 20
0.0
 30
0.0
  9
$UCSXDIR
 10
1.0
 20
0.0
 30
0.0
  9
$UCSYDIR
 10
0.0
 20
1.0
 30
0.0
  9
$UCSORTHOREF
  2

  9
$UCSORTHOVIEW
 70
     0
  9
$UCSORGTOP
 10
0.0
 20
0.0
 30
0.0
  9
$UCSORGBOTTOM
 10
0.0
 20
0.0
 30
0.0
  9
$UCSORGLEFT
 10
0.0
 20
0.0
 30
0.0
  9
$UCSORGRIGHT
 10
0.0
 20
0.0
 30
0.0
  9
$UCSORGFRONT
 10
0.0
 20
0.0
 30
0.0
  9
$UCSORGBACK
 10
0.0
 20
0.0
 30
0.0
  9
$PUCSBASE
  2

  9
$PUCSNAME
  2

  9
$PUCSORG
 10
0.0
 20
0.0
 30
0.0
  9
$PUCSXDIR
 10
1.0
 20
0.0
 30
0.0
  9
$PUCSYDIR
 10
0.0
 20
1.0
 30
0.0
  9
$PUCSORTHOREF
  2

  9
$PUCSORTHOVIEW
 70
     0
  9
$PUCSORGTOP
 10
0.0
 20
0.0
 30
0.0
  9
$PUCSORGBOTTOM
 10
0.0
 20
0.0
 30
0.0
  9
$PUCSORGLEFT
 10
0.0
 20
0.0
 30
0.0
  9
$PUCSORGRIGHT
 10
0.0
 20
0.0
 30
0.0
  9
$PUCSORGFRONT
 10
0.0
 20
0.0
 30
0.0
  9
$PUCSORGBACK
 10
0.0
 20
0.0
 30
0.0
  9
$USERI1
 70
     0
  9
$USERI2
 70
     0
  9
$USERI3
 70
     0
  9
$USERI4
 70
     0
  9
$USERI5
 70
     0
  9
$USERR1
 40
0.0
  9
$USERR2
 40
0.0
  9
$USERR3
 40
0.0
  9
$USERR4
 40
0.0
  9
$USERR5
 40
0.0
  9
$WORLDVIEW
 70
     1
  9
$SHADEDGE
 70
     3
  9
$SHADEDIF
 70
    70
  9
$TILEMODE
 70
     1
  9
$MAXACTVP
 70
    64
  9
$PINSBASE
 10
0.0
 20
0.0
 30
0.0
  9
$PLIMCHECK
 70
     0
  9
$PEXTMIN
 10
1.000000000000000E+20
 20
1.000000000000000E+20
 30
1.000000000000000E+20
  9
$PEXTMAX
 10
-1.000000000000000E+20
 20
-1.000000000000000E+20
 30
-1.000000000000000E+20
  9
$PLIMMIN
 10
0.0
 20
0.0
  9
$PLIMMAX
 10
420.0
 20
297.0
  9
$UNITMODE
 70
     0
  9
$VISRETAIN
 70
     1
  9
$PLINEGEN
 70
     0
  9
$PSLTSCALE
 70
     1
  9
$TREEDEPTH
 70
  3020
  9
$CMLSTYLE
  2
Standard
  9
$CMLJUST
 70
     0
  9
$CMLSCALE
 40
20.0
  9
$PROXYGRAPHICS
 70
     1
  9
$MEASUREMENT
 70
     1
  9
$CELWEIGHT
370
    -1
  9
$ENDCAPS
280
     0
  9
$JOINSTYLE
280
     0
  9
$LWDISPLAY
290
     0
  9
$INSUNITS
 70
     4
  9
$HYPERLINKBASE
  1

  9
$STYLESHEET
  1

  9
$XEDIT
290
     1
  9
$CEPSNTYPE
380
     0
  9
$PSTYLEMODE
290
     1
  9
$FINGERPRINTGUID
  2
{A6C950DD-243C-480B-8B88-1E8CBBE87BD7}
  9
$VERSIONGUID
  2
{2F733484-812A-4D50-951F-FF56DDFA334F}
  9
$EXTNAMES
290
     1
  9
$PSVPSCALE
 40
0.0
  9
$OLESTARTUP
290
     0
  0
ENDSEC
  0
SECTION
  2
CLASSES
  0
CLASS
  1
ACDBDICTIONARYWDFLT
  2
AcDbDictionaryWithDefault
  3
ObjectDBX Classes
 90
        0
280
     0
281
     0
  0
CLASS
  1
TABLESTYLE
  2
AcDbTableStyle
  3
ObjectDBX Classes
 90
     2047
280
     0
281
     0
  0
CLASS
  1
SORTENTSTABLE
  2
AcDbSortentsTable
  3
ObjectDBX Classes
 90
        0
280
     0
281
     0
  0
CLASS
  1
DICTIONARYVAR
  2
AcDbDictionaryVar
  3
ObjectDBX Classes
 90
        0
280
     0
281
     0
  0
CLASS
  1
ACDBPLACEHOLDER
  2
AcDbPlaceHolder
  3
ObjectDBX Classes
 90
        0
280
     0
281
     0
  0
CLASS
  1
LAYOUT
  2
AcDbLayout
  3
ObjectDBX Classes
 90
        0
280
     0
281
     0
  0
CLASS
  1
ACAD_EVALUATION_GRAPH
  2
AcDbEvalGraph
  3
ObjectDBX Classes
 90
    33921
280
     0
281
     0
  0
CLASS
  1
ACAECUSTOBJ
  2
AcAeEditorObj
  3
AcAeEditorObj
 90
    33792
280
     0
281
     0
  0
CLASS
  1
ACDB_DYNAMICBLOCKPURGEPREVENTER_VERSION
  2
AcDbDynamicBlockPurgePreventer
  3
ObjectDBX Classes
 90
    33921
280
     0
281
     0
  0
ENDSEC
  0
SECTION
  2
TABLES
  0
TABLE
  2
VPORT
  5
8
330
0
100
AcDbSymbolTable
 70
     2
  0
VPORT
  5
C0E
330
8
100
AcDbSymbolTableRecord
100
AcDbViewportTableRecord
  2
*Active
 70
     0
 10
0.0
 20
0.0
 11
1.0
 21
1.0
 12
386.93966651287
 22
222.6039558778798
 13
0.0
 23
0.0
 14
10.0
 24
10.0
 15
10.0
 25
10.0
 16
0.0
 26
0.0
 36
1.0
 17
0.0
 27
0.0
 37
0.0
 40
514.8295106242701
 41
1.525474525474525
 42
50.0
 43
0.0
 44
0.0
 50
0.0
 51
0.0
 71
     0
 72
  1000
 73
     1
 74
     3
 75
     0
 76
     0
 77
     0
 78
     0
281
     0
 65
     1
110
0.0
120
0.0
130
0.0
111
1.0
121
0.0
131
0.0
112
0.0
122
1.0
132
0.0
 79
     0
146
0.0
  0
ENDTAB
  0
TABLE
  2
LTYPE
  5
5
330
0
100
AcDbSymbolTable
 70
     1
  0
LTYPE
  5
14
330
5
100
AcDbSymbolTableRecord
100
AcDbLinetypeTableRecord
  2
ByBlock
 70
     0
  3

 72
    65
 73
     0
 40
0.0
  0
LTYPE
  5
15
330
5
100
AcDbSymbolTableRecord
100
AcDbLinetypeTableRecord
  2
ByLayer
 70
     0
  3

 72
    65
 73
     0
 40
0.0
  0
LTYPE
  5
16
330
5
100
AcDbSymbolTableRecord
100
AcDbLinetypeTableRecord
  2
Continuous
 70
     0
  3
Solid line
 72
    65
 73
     0
 40
0.0
  0
ENDTAB
  0
TABLE
  2
LAYER
  5
2
102
{ACAD_XDICTIONARY
360
35
102
}
330
0
100
AcDbSymbolTable
 70
     1
  0
LAYER
  5
10
330
2
100
AcDbSymbolTableRecord
100
AcDbLayerTableRecord
  2
0
 70
     0
 62
     7
  6
Continuous
370
    -3
390
F
  0
ENDTAB
  0
TABLE
  2
STYLE
  5
3
330
0
100
AcDbSymbolTable
 70
     1
  0
STYLE
  5
11
330
3
100
AcDbSymbolTableRecord
100
AcDbTextStyleTableRecord
  2
Standard
 70
     0
 40
0.0
 41
1.0
 50
0.0
 71
     0
 42
2.5
  3
txt
  4

  0
ENDTAB
  0
TABLE
  2
VIEW
  5
6
330
0
100
AcDbSymbolTable
 70
     0
  0
ENDTAB
  0
TABLE
  2
UCS
  5
7
330
0
100
AcDbSymbolTable
 70
     0
  0
ENDTAB
  0
TABLE
  2
APPID
  5
9
330
0
100
AcDbSymbolTable
 70
    11
  0
APPID
  5
12
330
9
100
AcDbSymbolTableRecord
100
AcDbRegAppTableRecord
  2
ACAD
 70
     0
  0
APPID
  5
34
330
9
100
AcDbSymbolTableRecord
100
AcDbRegAppTableRecord
  2
ACAD_PSEXT
 70
     0
  0
APPID
  5
33E
330
9
100
AcDbSymbolTableRecord
100
AcDbRegAppTableRecord
  2
ACAD_DSTYLE_DIMTEXT_FILL
 70
     0
  0
APPID
  5
33F
330
9
100
AcDbSymbolTableRecord
100
AcDbRegAppTableRecord
  2
ACAD_DSTYLE_DIMEXT_LENGTH
 70
     0
  0
APPID
  5
340
330
9
100
AcDbSymbolTableRecord
100
AcDbRegAppTableRecord
  2
ACAD_DSTYLE_DIMEXT_ENABLED
 70
     0
  0
APPID
  5
341
330
9
100
AcDbSymbolTableRecord
100
AcDbRegAppTableRecord
  2
ACAD_DSTYLE_DIM_LINETYPE
 70
     0
  0
APPID
  5
342
330
9
100
AcDbSymbolTableRecord
100
AcDbRegAppTableRecord
  2
ACAD_DSTYLE_DIM_EXT1_LINETYPE
 70
     0
  0
APPID
  5
343
330
9
100
AcDbSymbolTableRecord
100
AcDbRegAppTableRecord
  2
ACAD_DSTYLE_DIM_EXT2_LINETYPE
 70
     0
  0
APPID
  5
80F
330
9
100
AcDbSymbolTableRecord
100
AcDbRegAppTableRecord
  2
ACAUTHENVIRON
 70
     0
  0
APPID
  5
861
330
9
100
AcDbSymbolTableRecord
100
AcDbRegAppTableRecord
  2
AcDbDynamicBlockTrueName
 70
     0
  0
APPID
  5
862
330
9
100
AcDbSymbolTableRecord
100
AcDbRegAppTableRecord
  2
AcDbDynamicBlockGUID
 70
     0
  0
ENDTAB
  0
TABLE
  2
DIMSTYLE
  5
A
330
0
100
AcDbSymbolTable
 70
     1
100
AcDbDimStyleTable
 71
     1
340
33
  0
DIMSTYLE
105
33
330
A
100
AcDbSymbolTableRecord
100
AcDbDimStyleTableRecord
  2
STANDARD
 70
     0
340
11
  0
ENDTAB
  0
TABLE
  2
BLOCK_RECORD
  5
1
330
0
100
AcDbSymbolTable
 70
     2
  0
BLOCK_RECORD
  5
23
102
{ACAD_XDICTIONARY
360
19E
102
}
330
1
100
AcDbSymbolTableRecord
100
AcDbBlockTableRecord
  2
*Model_Space
340
26
  0
BLOCK_RECORD
  5
1F
330
1
100
AcDbSymbolTableRecord
100
AcDbBlockTableRecord
  2
*Paper_Space
340
22
  0
BLOCK_RECORD
  5
27
330
1
100
AcDbSymbolTableRecord
100
AcDbBlockTableRecord
  2
*Paper_Space0
340
2A
  0
BLOCK_RECORD
  5
BE7
102
{ACAD_XDICTIONARY
360
BE8
102
}
330
1
100
AcDbSymbolTableRecord
100
AcDbBlockTableRecord
  2
27015_27430_P
340
0
310
2800000020000000200000000100080000000000000400000000000000000000000000000000000000000000000080000080000000808000800000008000800080800000C0C0C000C0DCC000F0CAA6000020400000206000002080000020A0000020C0000020E00000400000004020000040400000406000004080000040A0
310
000040C0000040E00000600000006020000060400000606000006080000060A0000060C0000060E00000800000008020000080400000806000008080000080A0000080C0000080E00000A0000000A0200000A0400000A0600000A0800000A0A00000A0C00000A0E00000C0000000C0200000C0400000C0600000C0800000C0
310
A00000C0C00000C0E00000E0000000E0200000E0400000E0600000E0800000E0A00000E0C00000E0E00040000000400020004000400040006000400080004000A0004000C0004000E00040200000402020004020400040206000402080004020A0004020C0004020E000404000004040200040404000404060004040800040
310
40A0004040C0004040E00040600000406020004060400040606000406080004060A0004060C0004060E00040800000408020004080400040806000408080004080A0004080C0004080E00040A0000040A0200040A0400040A0600040A0800040A0A00040A0C00040A0E00040C0000040C0200040C0400040C0600040C08000
310
40C0A00040C0C00040C0E00040E0000040E0200040E0400040E0600040E0800040E0A00040E0C00040E0E00080000000800020008000400080006000800080008000A0008000C0008000E00080200000802020008020400080206000802080008020A0008020C0008020E00080400000804020008040400080406000804080
310
008040A0008040C0008040E00080600000806020008060400080606000806080008060A0008060C0008060E00080800000808020008080400080806000808080008080A0008080C0008080E00080A0000080A0200080A0400080A0600080A0800080A0A00080A0C00080A0E00080C0000080C0200080C0400080C0600080C0
310
800080C0A00080C0C00080C0E00080E0000080E0200080E0400080E0600080E0800080E0A00080E0C00080E0E000C0000000C0002000C0004000C0006000C0008000C000A000C000C000C000E000C0200000C0202000C0204000C0206000C0208000C020A000C020C000C020E000C0400000C0402000C0404000C0406000C0
310
408000C040A000C040C000C040E000C0600000C0602000C0604000C0606000C0608000C060A000C060C000C060E000C0800000C0802000C0804000C0806000C0808000C080A000C080C000C080E000C0A00000C0A02000C0A04000C0A06000C0A08000C0A0A000C0A0C000C0A0E000C0C00000C0C02000C0C04000C0C06000
310
C0C08000C0C0A000F0FBFF00A4A0A000808080000000FF0000FF000000FFFF00FF000000FF00FF00FFFF0000FFFFFF0000000000000000000000000000000000000000000000000000000000000000000000000000000000000000000000000000000000000000000000000000000000000000000000000000000000000000
310
00000000000000000000000000000000000000000000000000000000000000000000000000000000000000000000000000000000000000000000000000000000000000000000000000000000000000000000000000000000000000000000000000000000000000000000000000000000000000000000000000000000000000
310
00000000000000000000000000000000000000000000FFFFFFFFFFFFFFFFFFFFFFFFFFFFFFFFFFFFFFFFFFFFFFFF000000000000FFFFFFFFFFFFFFFFFFFFFFFFFFFFFFFFFFFFFFFFFFFFFFFFFFFFFFFF00000000FFFF000000000000000000000000000000000000000000000000FFFF000000FFFF00000000000000000000
310
00000000000000000000000000000000FFFF0000FFFF0000000000000000000000000000000000000000000000000000FFFF0000FFFF0000000000000000000000000000000000000000000000000000FFFF0000FFFF000000000000000000000000FFFF000000000000000000000000FFFF0000FFFF000000000000000000
310
0000FFFFFFFF0000000000000000000000FFFF0000FFFF0000000000000000000000FF00FFFF0000000000000000000000FFFF0000FFFFFF0000000000000000000000FFFF0000000000000000000000FFFFFF0000FFFF00FFFFFFFFFFFFFFFFFFFFFFFFFFFFFFFFFFFFFFFFFFFFFFFF00FFFF0000FF00FF00FFFFFFFFFFFF
310
FFFFFFFFFFFFFFFFFFFFFFFFFFFFFFFF0000FFFF0000FF00FFFFFFFFFFFFFFFFFFFFFFFFFFFFFFFFFFFFFFFFFFFFFFFFFFFF00FF0000FF00000000000000000000000000FFFF00000000000000000000000000FF0000FF00000000000000000000000000FFFF00000000000000000000000000FF0000FF0000000000000000
310
0000000000FF0000000000000000000000000000FF0000FF00000000000000000000000000000000000000000000000000000000FF0000FFFFFFFFFFFFFFFFFFFFFFFFFFFFFFFFFFFFFFFFFFFFFFFFFFFFFFFFFFFF000000000000000000000000000000000000000000000000000000000000000000000000000000000000
310
00000000000000000000000000000000000000000000000000000000000000000000000000000000000000000000000000000000000000000000000000000000000000000000000000000000000000000000000000000000000000000000000000000000000000000000000000000000000000000000000000000000000000
310
0000000000000000000000000000000000000000000000000000000000000000000000000000000000000000000000000000000000000000
102
{BLKREFS
331
C01
102
}
1001
ACAD
1000
DesignCenter Data
1002
{
1070
     1
1070
     4
1002
}
  0
ENDTAB
  0
ENDSEC
  0
SECTION
  2
BLOCKS
  0
BLOCK
  5
24
330
23
100
AcDbEntity
  8
0
100
AcDbBlockBegin
  2
*Model_Space
 70
     0
 10
0.0
 20
0.0
 30
0.0
  3
*Model_Space
  1

  0
ENDBLK
  5
25
330
23
100
AcDbEntity
  8
0
100
AcDbBlockEnd
  0
BLOCK
  5
20
330
1F
100
AcDbEntity
 67
     1
  8
0
100
AcDbBlockBegin
  2
*Paper_Space
 70
     0
 10
0.0
 20
0.0
 30
0.0
  3
*Paper_Space
  1

  0
ENDBLK
  5
21
330
1F
100
AcDbEntity
 67
     1
  8
0
100
AcDbBlockEnd
  0
BLOCK
  5
28
330
27
100
AcDbEntity
 67
     1
  8
0
100
AcDbBlockBegin
  2
*Paper_Space0
 70
     0
 10
0.0
 20
0.0
 30
0.0
  3
*Paper_Space0
  1

  0
ENDBLK
  5
29
330
27
100
AcDbEntity
 67
     1
  8
0
100
AcDbBlockEnd
  0
BLOCK
  5
BEB
330
BE7
100
AcDbEntity
  8
0
100
AcDbBlockBegin
  2
27015_27430_P
 70
     0
 10
0.0
 20
0.0
 30
0.0
  3
27015_27430_P
  1

  0
CIRCLE
  5
BED
330
BE7
100
AcDbEntity
  8
0
100
AcDbCircle
 10
371.9595552934279
 20
288.4741589653893
 30
0.0
 40
23.00000000000022
  0
ARC
  5
BEE
330
BE7
100
AcDbEntity
  8
0
100
AcDbCircle
 10
618.4595552934206
 20
343.4741589654193
 30
0.0
 40
40.0
100
AcDbArc
 50
0.0
 51
90.0
  0
ARC
  5
BEF
330
BE7
100
AcDbEntity
  8
0
100
AcDbCircle
 10
667.9595552934224
 20
474.4741589653893
 30
0.0
 40
4.0
100
AcDbArc
 50
0.0
 51
90.0
  0
ARC
  5
BF0
330
BE7
100
AcDbEntity
  8
0
100
AcDbCircle
 10
371.9595552934225
 20
288.4741589653893
 30
0.0
 40
36.00000000000008
100
AcDbArc
 50
270.0
 51
90.0
  0
LINE
  5
BF1
330
BE7
100
AcDbEntity
  8
0
100
AcDbLine
 10
618.4595552934206
 20
383.4741589654193
 30
0.0
 11
125.4595552934242
 21
383.474158965412
 31
0.0
  0
CIRCLE
  5
BF2
330
BE7
100
AcDbEntity
  8
0
100
AcDbCircle
 10
371.9595552934225
 20
418.4741589653856
 30
0.0
 40
17.5
  0
LINE
  5
BF3
330
BE7
100
AcDbEntity
  8
0
100
AcDbLine
 10
146.3336431613115
 20
351.3148601073305
 30
0.0
 11
597.5854674255333
 21
351.3148601073305
 31
0.0
  0
ARC
  5
BF4
330
BE7
100
AcDbEntity
  8
0
100
AcDbCircle
 10
597.5854674255333
 20
319.3148601073306
 30
0.0
 40
32.0
100
AcDbArc
 50
0.0
 51
90.0
  0
SPLINE
  5
BF5
330
BE7
100
AcDbEntity
  8
0
100
AcDbSpline
210
0.0
220
0.0
230
1.0
 70
     8
 71
     3
 72
    26
 73
    22
 74
     0
 42
0.0000000001
 43
0.0000000001
 40
7.853979450876906
 40
7.853979450876906
 40
7.853979450876906
 40
7.853979450876906
 40
7.919352950397192
 40
7.919352950397192
 40
8.35700805459029
 40
8.35700805459029
 40
8.794663158783388
 40
8.794663158783388
 40
9.124586633184637
 40
9.124586633184637
 40
9.454510107585889
 40
9.454510107585889
 40
9.784433581987139
 40
9.784433581987139
 40
10.11435705638839
 40
10.11435705638839
 40
10.44428053078964
 40
10.44428053078964
 40
10.88286040666045
 40
10.88286040666045
 40
10.99557777686171
 40
10.99557777686171
 40
10.99557777686171
 40
10.99557777686171
 10
311.959555293417
 20
359.8329658206619
 30
0.0
 10
312.1928619734918
 20
359.8328953383077
 30
0.0
 10
312.4261725737469
 20
359.8382313450509
 30
0.0
 10
314.2180445160866
 20
359.9211779202467
 30
0.0
 10
315.7560320982629
 20
360.237185478383
 30
0.0
 10
318.5298618020006
 20
361.316420160523
 30
0.0
 10
319.7657009894228
 20
362.0793617005563
 30
0.0
 10
321.4661508001536
 20
363.7280866839954
 30
0.0
 10
322.0458704766679
 20
364.5380694624853
 30
0.0
 10
322.8109757249295
 20
366.2858267859645
 30
0.0
 10
322.9934751602395
 20
367.2235894637504
 30
0.0
 10
322.9150293723542
 20
369.0886819143759
 30
0.0
 10
322.6546959738316
 20
370.0120195214602
 30
0.0
 10
321.7506358789469
 20
371.7121537690561
 30
0.0
 10
321.1093527202192
 20
372.4897096594411
 30
0.0
 10
319.5419174121289
 20
373.8337619441788
 30
0.0
 10
318.6156527627845
 20
374.4011902348482
 30
0.0
 10
316.2409676622792
 20
375.4336808961541
 30
0.0
 10
314.7204507513743
 20
375.8023455481541
 30
0.0
 10
312.7641018060258
 20
375.958931699757
 30
0.0
 10
312.3618280204046
 20
375.9748083847969
 30
0.0
 10
311.9595552934206
 20
375.974679552384
 30
0.0
  0
LINE
  5
BF6
330
BE7
100
AcDbEntity
  8
0
100
AcDbLine
 10
667.9595552934224
 20
478.4741589653893
 30
0.0
 11
75.95955529342245
 21
478.4741589653966
 31
0.0
  0
ARC
  5
BF7
330
BE7
100
AcDbEntity
  8
0
100
AcDbCircle
 10
125.4595552934242
 20
343.4741589654193
 30
0.0
 40
40.0
100
AcDbArc
 50
90.0
 51
180.0
  0
ARC
  5
BF8
330
BE7
100
AcDbEntity
  8
0
100
AcDbCircle
 10
75.95955529342609
 20
474.4741589653893
 30
0.0
 40
4.0
100
AcDbArc
 50
90.0
 51
180.0
  0
LWPOLYLINE
  5
BF9
330
BE7
100
AcDbEntity
  8
0
100
AcDbPolyline
 90
       46
 70
   128
 43
0.0
 10
371.9595848497902
 20
141.9741565664042
 10
348.6338143222947
 20
141.9880672180441
 10
323.366798409983
 20
142.0472898920413
 10
299.2787636465964
 20
142.1440882234635
 10
276.3988038266252
 20
142.2728050110015
 10
254.6819697990632
 20
142.4279338675985
 10
234.0536493455366
 20
142.6044151280255
 10
214.4565474078481
 20
142.797722072795
 10
195.3574646796278
 20
143.0098148346367
 10
177.0095326090977
 20
143.237115480875
 10
159.2876238942226
 20
143.4784904825608
 10
151.1589287009428
 20
143.5959628665075
 10
143.1658642463462
 20
143.7157222098428
 10
135.4086162682924
 20
143.8361288267695
 10
128.5369643942667
 20
144.0407830171677
 10
122.7119911660429
 20
144.8545231136047
 10
116.8258171811467
 20
146.456273457017
 10
111.6453724696639
 20
148.5925674507778
 10
107.2652435715281
 20
151.0141697295692
 10
104.6328100918763
 20
152.7877605559658
 10
102.3516474872631
 20
154.5532702697889
 10
100.4877907190712
 20
156.1768224843215
 10
98.78498349639267
 20
157.8283348997718
 10
96.70307245722689
 20
160.1031729927342
 10
94.35850434619714
 20
163.0715028428165
 10
92.37857661663657
 20
166.0195649603008
 10
90.87855655000749
 20
168.6313157024376
 10
89.76514771844994
 20
170.868305896525
 10
88.95305959907455
 20
172.7256411209889
 10
88.05294406743632
 20
175.1037651413969
 10
87.09238034607734
 20
178.2213927364935
 10
86.22115480346293
 20
182.1017962389921
 10
85.61487810328982
 20
186.8123150705285
 10
85.45847535139182
 20
192.9854791441719
 10
85.45870865549659
 20
200.7946341489185
 10
85.45793374999812
 20
227.1988954360829
 10
85.45721850961854
 20
237.0226812151821
 10
85.45656286917802
 20
247.7683751979755
 10
85.45599663428403
 20
259.4359946955381
 10
85.45560921514697
 20
273.8992152435501
 10
85.45549001031032
 20
289.5666928689359
 10
85.45575822989667
 20
306.438483522187
 10
85.45653307958128
 20
324.5145988841257
 10
85.45955529342426
 20
343.4741589654193
 10
85.45955529342426
 20
343.4741589654193
 10
85.45955529342426
 20
343.4741589654193
  0
ARC
  5
BFA
330
BE7
100
AcDbEntity
  8
0
100
AcDbCircle
 10
146.3336431613115
 20
319.3148601073306
 30
0.0
 40
32.0
100
AcDbArc
 50
90.0
 51
180.0
  0
LWPOLYLINE
  5
BFB
330
BE7
100
AcDbEntity
  8
0
100
AcDbPolyline
 90
       46
 70
   128
 43
0.0
 10
371.9595552934225
 20
128.4741589653929
 10
348.6139691350072
 20
128.4880766499479
 10
323.3238524672597
 20
128.5473534691771
 10
299.2136656221955
 20
128.6442408192595
 10
276.3126148757546
 20
128.7730762589415
 10
254.5760079202264
 20
128.9283463585814
 10
233.9293240484803
 20
129.1049847233732
 10
214.3150149759858
 20
129.2984614003142
 10
195.1988964256852
 20
129.5107433426817
 10
176.8339901146501
 20
129.7382542717894
 10
159.1037689623445
 20
129.9797424900969
 10
150.9638606485932
 20
130.0973722565611
 10
142.9636209187119
 20
130.2172371972044
 10
135.1029007610887
 20
130.3392479050596
 10
127.3987471041291
 20
130.5686959851225
 10
119.994807141742
 20
131.6030153859099
 10
112.4629854139894
 20
133.6525807011564
 10
105.7871459898561
 20
136.4055404293974
 10
100.214111703357
 20
139.4866535294493
 10
96.72127951951916
 20
141.8399343121489
 10
93.77952207895214
 20
144.1167125332792
 10
91.34824861856396
 20
146.2345251667936
 10
89.09751762720043
 20
148.4174558747252
 10
86.41310324045116
 20
151.3506302464445
 10
83.44178189607555
 20
155.1124581921538
 10
80.90766062112743
 20
158.8857004273375
 10
78.97185077043468
 20
162.2562238800963
 10
77.53007401796276
 20
165.1529500115355
 10
76.44753445955212
 20
167.628837548538
 10
75.27660121293957
 20
170.7224676239927
 10
74.0357219156831
 20
174.7498938668211
 10
72.91166772218639
 20
179.75638600473
 10
72.13677753778393
 20
185.7769617665251
 10
71.95847024293835
 20
192.8146907914122
 10
71.95870866151745
 20
200.7950374710997
 10
71.95793380113355
 20
227.1977203715585
 10
71.95721854539624
 20
237.0216983187936
 10
71.95656289430371
 20
247.7675515044473
 10
71.95599665017835
 20
259.4353395331643
 10
71.95560921998731
 20
273.8988536227487
 10
71.95549001069776
 20
289.5665901530526
 10
71.95575823159924
 20
306.4386981356881
 10
71.95653309198132
 20
324.5151775706552
 10
71.957814591844
 20
343.7960880625985
 10
71.95966233583203
 20
364.2814594138406
 10
71.95955529342609
 20
474.4741589653893
  0
ARC
  5
BFC
330
BE7
100
AcDbEntity
  8
0
100
AcDbCircle
 10
371.9595552934225
 20
288.4741589653893
 30
0.0
 40
36.00000000000008
100
AcDbArc
 50
90.0
 51
270.0
  0
SPLINE
  5
BFD
330
BE7
100
AcDbEntity
  8
0
100
AcDbSpline
210
0.0
220
0.0
230
1.0
 70
     8
 71
     3
 72
    26
 73
    22
 74
     0
 42
0.0000000001
 43
0.0000000001
 40
7.853979450876906
 40
7.853979450876906
 40
7.853979450876906
 40
7.853979450876906
 40
7.919352950397192
 40
7.919352950397192
 40
8.35700805459029
 40
8.35700805459029
 40
8.794663158783388
 40
8.794663158783388
 40
9.124586633184637
 40
9.124586633184637
 40
9.454510107585889
 40
9.454510107585889
 40
9.784433581987139
 40
9.784433581987139
 40
10.11435705638839
 40
10.11435705638839
 40
10.44428053078964
 40
10.44428053078964
 40
10.88286040666045
 40
10.88286040666045
 40
10.99557777686171
 40
10.99557777686171
 40
10.99557777686171
 40
10.99557777686171
 10
311.959555293417
 20
359.8329658206619
 30
0.0
 10
311.7262486133423
 20
359.8328953383077
 30
0.0
 10
311.492938013087
 20
359.8382313450509
 30
0.0
 10
309.7010660707474
 20
359.9211779202467
 30
0.0
 10
308.1630784885711
 20
360.237185478383
 30
0.0
 10
305.3892487848334
 20
361.316420160523
 30
0.0
 10
304.1534095974112
 20
362.0793617005563
 30
0.0
 10
302.4529597866804
 20
363.7280866839954
 30
0.0
 10
301.8732401101661
 20
364.5380694624853
 30
0.0
 10
301.1081348619045
 20
366.2858267859645
 30
0.0
 10
300.9256354265945
 20
367.2235894637504
 30
0.0
 10
301.0040812144798
 20
369.0886819143759
 30
0.0
 10
301.2644146130024
 20
370.0120195214602
 30
0.0
 10
302.1684747078871
 20
371.7121537690561
 30
0.0
 10
302.8097578666148
 20
372.4897096594411
 30
0.0
 10
304.3771931747051
 20
373.8337619441788
 30
0.0
 10
305.3034578240495
 20
374.4011902348482
 30
0.0
 10
307.6781429245548
 20
375.4336808961541
 30
0.0
 10
309.1986598354597
 20
375.8023455481541
 30
0.0
 10
311.1550087808082
 20
375.958931699757
 30
0.0
 10
311.5572825664294
 20
375.9748083847969
 30
0.0
 10
311.9595552934133
 20
375.974679552384
 30
0.0
  0
ARC
  5
BFE
330
BE7
100
AcDbEntity
  8
0
100
AcDbCircle
 10
371.9595552934152
 20
5753.918381234842
 30
0.0
 40
5417.76628858072
100
AcDbArc
 50
267.6419565446544
 51
272.3580434553456
  0
LWPOLYLINE
  5
BFF
330
BE7
100
AcDbEntity
  8
0
100
AcDbPolyline
 90
       46
 70
   128
 43
0.0
 10
371.9595848497902
 20
141.9741565664042
 10
395.2853553772857
 20
141.9880672180441
 10
420.5523712895974
 20
142.0472898920413
 10
444.640406052984
 20
142.1440882234635
 10
467.5203658729551
 20
142.2728050110015
 10
489.2371999005172
 20
142.4279338675985
 10
509.8655203540438
 20
142.6044151280255
 10
529.4626222917322
 20
142.797722072795
 10
548.5617050199525
 20
143.0098148346367
 10
566.9096370904826
 20
143.237115480875
 10
584.6315458053577
 20
143.4784904825608
 10
592.7602409986375
 20
143.5959628665075
 10
600.7533054532341
 20
143.7157222098428
 10
608.5105534312879
 20
143.8361288267695
 10
615.3822053053136
 20
144.0407830171677
 10
621.2071785335374
 20
144.8545231136047
 10
627.0933525184337
 20
146.456273457017
 10
632.2737972299164
 20
148.5925674507778
 10
636.6539261280522
 20
151.0141697295692
 10
639.2863596077041
 20
152.7877605559658
 10
641.5675222123172
 20
154.5532702697889
 10
643.4313789805091
 20
156.1768224843215
 10
645.1341862031877
 20
157.8283348997718
 10
647.2160972423535
 20
160.1031729927342
 10
649.5606653533832
 20
163.0715028428165
 10
651.5405930829437
 20
166.0195649603008
 10
653.0406131495729
 20
168.6313157024376
 10
654.1540219811304
 20
170.868305896525
 10
654.9661101005058
 20
172.7256411209889
 10
655.866225632144
 20
175.1037651413969
 10
656.826789353503
 20
178.2213927364935
 10
657.6980148961174
 20
182.1017962389921
 10
658.3042915962906
 20
186.8123150705285
 10
658.4606943481885
 20
192.9854791441719
 10
658.4604610440838
 20
200.7946341489185
 10
658.4612359495785
 20
227.1988954360829
 10
658.4619511899582
 20
237.0226812151821
 10
658.4626068303987
 20
247.7683751979755
 10
658.4631730652927
 20
259.4359946955381
 10
658.4635604844297
 20
273.8992152435501
 10
658.4636796892664
 20
289.5666928689359
 10
658.46341146968
 20
306.438483522187
 10
658.4626366199954
 20
324.5145988841257
 10
658.4596144061524
 20
343.4741589654193
 10
658.4596144061524
 20
343.4741589654193
 10
658.4596144061524
 20
343.4741589654193
  0
LWPOLYLINE
  5
C00
330
BE7
100
AcDbEntity
  8
0
100
AcDbPolyline
 90
       46
 70
   128
 43
0.0
 10
371.9596144061579
 20
128.4741589653929
 10
395.3052005645732
 20
128.4880766499479
 10
420.5953172323206
 20
128.5473534691771
 10
444.7055040773848
 20
128.6442408192595
 10
467.6065548238256
 20
128.7730762589415
 10
489.3431617793539
 20
128.9283463585814
 10
509.9898456511
 20
129.1049847233732
 10
529.6041547235945
 20
129.2984614003142
 10
548.7202732738951
 20
129.5107433426817
 10
567.0851795849302
 20
129.7382542717894
 10
584.8154007372358
 20
129.9797424900969
 10
592.9553090509871
 20
130.0973722565611
 10
600.9555487808683
 20
130.2172371972044
 10
608.8162689384916
 20
130.3392479050596
 10
616.5204225954512
 20
130.5686959851225
 10
623.9243625578382
 20
131.6030153859099
 10
631.4561842855909
 20
133.6525807011564
 10
638.1320237097242
 20
136.4055404293974
 10
643.7050579962233
 20
139.4866535294493
 10
647.1978901800611
 20
141.8399343121489
 10
650.1396476206282
 20
144.1167125332792
 10
652.5709210810163
 20
146.2345251667936
 10
654.8216520723799
 20
148.4174558747252
 10
657.5060664591291
 20
151.3506302464445
 10
660.4773878035048
 20
155.1124581921538
 10
663.0115090784529
 20
158.8857004273375
 10
664.9473189291456
 20
162.2562238800963
 10
666.3890956816175
 20
165.1529500115355
 10
667.4716352400282
 20
167.628837548538
 10
668.6425684866407
 20
170.7224676239927
 10
669.8834477838972
 20
174.7498938668211
 10
671.0075019773939
 20
179.75638600473
 10
671.7823921617964
 20
185.7769617665251
 10
671.960699456642
 20
192.8146907914122
 10
671.9604610380629
 20
200.7950374710997
 10
671.9612358984432
 20
227.1977203715585
 10
671.9619511541805
 20
237.0216983187936
 10
671.962606805273
 20
247.7675515044473
 10
671.9631730493984
 20
259.4353395331643
 10
671.9635604795894
 20
273.8988536227487
 10
671.963679688879
 20
289.5665901530526
 10
671.9634114679775
 20
306.4386981356881
 10
671.9626366075954
 20
324.5151775706552
 10
671.9613551077327
 20
343.7960880625985
 10
671.9595073637447
 20
364.2814594138406
 10
671.9596144061543
 20
474.4741589653893
  0
ENDBLK
  5
BEC
330
BE7
100
AcDbEntity
  8
0
100
AcDbBlockEnd
  0
ENDSEC
  0
SECTION
  2
ENTITIES
  0
MTEXT
  5
6B
330
23
100
AcDbEntity
  8
0
100
AcDbMText
 10
13.67895064802198
 20
26.44333632592591
 30
0.0
 40
20.0
 41
853.3333333333334
 71
     1
 72
     5
  1
{\fTimes New Roman|b0|i0|c0|p18;\C0;LAVABO  DE 60x35 CM CON COLUMNA.  SERIE EMMA SQUARE }
 73
     1
 44
1.0
1001
ACAD
1000
ACAD_MTEXT_DEFINED_HEIGHT_BEGIN
1070
    46
1040
0.0
1000
ACAD_MTEXT_DEFINED_HEIGHT_END
1000
MTEXTBEGIN
1070
    73
1070
     1
1070
    44
1040
1.0
1070
    74
1070
     0
1000
MTEXTEND
  0
INSERT
  5
C01
330
23
100
AcDbEntity
  8
0
100
AcDbBlockReference
  2
27015_27430_P
 10
0.0
 20
0.0
 30
0.0
  0
ENDSEC
  0
SECTION
  2
OBJECTS
  0
DICTIONARY
  5
C
330
0
100
AcDbDictionary
281
     1
  3
ACAD_COLOR
350
1C
  3
ACAD_GROUP
350
D
  3
ACAD_LAYOUT
350
1A
  3
ACAD_MATERIAL
350
1B
  3
ACAD_MLINESTYLE
350
17
  3
ACAD_PLOTSETTINGS
350
19
  3
ACAD_PLOTSTYLENAME
350
E
  3
ACAD_TABLESTYLE
350
1D
  3
ACDBHEADERROUNDTRIPXREC
350
C0F
  3
AcDbVariableDictionary
350
111
  0
DICTIONARY
  5
35
330
2
100
AcDbDictionary
280
     1
281
     1
  3
ACAD_LAYERSTATES
360
36
  0
DICTIONARY
  5
19E
330
23
100
AcDbDictionary
280
     1
281
     1
  3
ACAD_SORTENTS
360
19F
  0
DICTIONARY
  5
BE8
330
BE7
100
AcDbDictionary
280
     1
281
     1
  3
AcDbBlockTableRecordData
360
BE9
  0
DICTIONARY
  5
1C
102
{ACAD_REACTORS
330
C
102
}
330
C
100
AcDbDictionary
281
     1
  0
DICTIONARY
  5
D
102
{ACAD_REACTORS
330
C
102
}
330
C
100
AcDbDictionary
281
     1
  0
DICTIONARY
  5
1A
102
{ACAD_REACTORS
330
C
102
}
330
C
100
AcDbDictionary
281
     1
  3
Model
350
26
  3
Presentación1
350
22
  3
Presentación2
350
2A
  0
DICTIONARY
  5
1B
102
{ACAD_REACTORS
330
C
102
}
330
C
100
AcDbDictionary
281
     1
  0
DICTIONARY
  5
17
102
{ACAD_REACTORS
330
C
102
}
330
C
100
AcDbDictionary
281
     1
  3
Standard
350
18
  0
DICTIONARY
  5
19
102
{ACAD_REACTORS
330
C
102
}
330
C
100
AcDbDictionary
281
     1
  0
ACDBDICTIONARYWDFLT
  5
E
102
{ACAD_REACTORS
330
C
102
}
330
C
100
AcDbDictionary
281
     1
  3
Normal
350
F
100
AcDbDictionaryWithDefault
340
F
  0
DICTIONARY
  5
1D
102
{ACAD_REACTORS
330
C
102
}
330
C
100
AcDbDictionary
281
     1
  3
Standard
350
1E
  0
DICTIONARY
  5
C0F
102
{ACAD_REACTORS
330
C
102
}
330
C
100
AcDbDictionary
281
     1
  0
DICTIONARY
  5
111
102
{ACAD_REACTORS
330
C
102
}
330
C
100
AcDbDictionary
281
     1
  3
CTABLESTYLE
350
112
  3
DIMASSOC
350
114
  3
HIDETEXT
350
113
  3
PROJECTNAME
350
115
  0
DICTIONARY
  5
36
102
{ACAD_REACTORS
330
35
102
}
330
35
100
AcDbDictionary
281
     1
  0
SORTENTSTABLE
  5
19F
102
{ACAD_REACTORS
330
19E
102
}
330
19E
100
AcDbSortentsTable
330
23
331
6B
  5
6B
  0
DICTIONARY
  5
BE9
102
{ACAD_REACTORS
330
BE8
102
}
330
BE8
100
AcDbDictionary
280
     1
281
     1
  3
Edit
360
BEA
  0
LAYOUT
  5
26
102
{ACAD_XDICTIONARY
360
C12
102
}
102
{ACAD_REACTORS
330
1A
102
}
330
1A
100
AcDbPlotSettings
  1

  2
\\CERAMICAS_GALA\PRT_BU_OT_01.ZPRINTERS.BURGOS
  4

  6

 40
0.0
 41
0.0
 42
0.0
 43
0.0
 44
0.0
 45
0.0
 46
0.0
 47
0.0
 48
0.0
 49
0.0
140
0.0
141
0.0
142
1.0
143
1.0
 70
  1712
 72
     0
 73
     0
 74
     0
  7
C:\Documents and Settings\G0810\Application Data\Autodesk\AutoCAD 2006\R16.2\esp\Plot Styles\jj.stb
 75
     0
147
1.0
148
0.0
149
0.0
100
AcDbLayout
  1
Model
 70
     1
 71
     0
 10
0.0
 20
0.0
 11
12.0
 21
9.0
 12
0.0
 22
0.0
 32
0.0
 14
0.0
 24
0.0
 34
0.0
 15
0.0
 25
0.0
 35
0.0
146
0.0
 13
0.0
 23
0.0
 33
0.0
 16
1.0
 26
0.0
 36
0.0
 17
0.0
 27
1.0
 37
0.0
 76
     0
330
23
  0
LAYOUT
  5
22
102
{ACAD_XDICTIONARY
360
C10
102
}
102
{ACAD_REACTORS
330
1A
102
}
330
1A
100
AcDbPlotSettings
  1

  2
\\CERAMICAS_GALA\PRT_BU_OT_01.ZPRINTERS.BURGOS
  4

  6

 40
0.0
 41
0.0
 42
0.0
 43
0.0
 44
0.0
 45
0.0
 46
0.0
 47
0.0
 48
0.0
 49
0.0
140
0.0
141
0.0
142
1.0
143
1.0
 70
   688
 72
     0
 73
     0
 74
     5
  7
C:\Documents and Settings\G0810\Application Data\Autodesk\AutoCAD 2006\R16.2\esp\Plot Styles\jj.stb
 75
    16
147
1.0
148
0.0
149
0.0
100
AcDbLayout
  1
Presentación1
 70
     1
 71
     1
 10
0.0
 20
0.0
 11
420.0
 21
297.0
 12
0.0
 22
0.0
 32
0.0
 14
1.000000000000000E+20
 24
1.000000000000000E+20
 34
1.000000000000000E+20
 15
-1.000000000000000E+20
 25
-1.000000000000000E+20
 35
-1.000000000000000E+20
146
0.0
 13
0.0
 23
0.0
 33
0.0
 16
1.0
 26
0.0
 36
0.0
 17
0.0
 27
1.0
 37
0.0
 76
     0
330
1F
  0
LAYOUT
  5
2A
102
{ACAD_XDICTIONARY
360
C14
102
}
102
{ACAD_REACTORS
330
1A
102
}
330
1A
100
AcDbPlotSettings
  1

  2
\\CERAMICAS_GALA\PRT_BU_OT_01.ZPRINTERS.BURGOS
  4

  6

 40
0.0
 41
0.0
 42
0.0
 43
0.0
 44
0.0
 45
0.0
 46
0.0
 47
0.0
 48
0.0
 49
0.0
140
0.0
141
0.0
142
1.0
143
1.0
 70
   688
 72
     0
 73
     0
 74
     5
  7
C:\Documents and Settings\G0810\Application Data\Autodesk\AutoCAD 2006\R16.2\esp\Plot Styles\jj.stb
 75
    16
147
1.0
148
0.0
149
0.0
100
AcDbLayout
  1
Presentación2
 70
     1
 71
     2
 10
0.0
 20
0.0
 11
12.0
 21
9.0
 12
0.0
 22
0.0
 32
0.0
 14
0.0
 24
0.0
 34
0.0
 15
0.0
 25
0.0
 35
0.0
146
0.0
 13
0.0
 23
0.0
 33
0.0
 16
1.0
 26
0.0
 36
0.0
 17
0.0
 27
1.0
 37
0.0
 76
     0
330
27
  0
MLINESTYLE
  5
18
102
{ACAD_REACTORS
330
17
102
}
330
17
100
AcDbMlineStyle
  2
STANDARD
 70
     0
  3

 62
   256
 51
90.0
 52
90.0
 71
     2
 49
0.5
 62
   256
  6
BYLAYER
 49
-0.5
 62
   256
  6
BYLAYER
  0
ACDBPLACEHOLDER
  5
F
102
{ACAD_REACTORS
330
E
102
}
330
E
  0
TABLESTYLE
  5
1E
102
{ACAD_REACTORS
330
1D
102
}
330
1D
100
AcDbTableStyle
  3
Standard
 70
     0
 71
     0
 40
1.5
 41
1.5
280
     0
281
     0
  7
Standard
140
4.5
170
     2
 62
     0
 63
     7
283
     0
274
    -2
284
     1
 64
     0
275
    -2
285
     1
 65
     0
276
    -2
286
     1
 66
     0
277
    -2
287
     1
 67
     0
278
    -2
288
     1
 68
     0
279
    -2
289
     1
 69
     0
  7
Standard
140
6.0
170
     5
 62
     0
 63
     7
283
     0
274
    -2
284
     1
 64
     0
275
    -2
285
     1
 65
     0
276
    -2
286
     1
 66
     0
277
    -2
287
     1
 67
     0
278
    -2
288
     1
 68
     0
279
    -2
289
     1
 69
     0
  7
Standard
140
4.5
170
     5
 62
     0
 63
     7
283
     0
274
    -2
284
     1
 64
     0
275
    -2
285
     1
 65
     0
276
    -2
286
     1
 66
     0
277
    -2
287
     1
 67
     0
278
    -2
288
     1
 68
     0
279
    -2
289
     1
 69
     0
  0
DICTIONARYVAR
  5
112
102
{ACAD_REACTORS
330
111
102
}
330
111
100
DictionaryVariables
280
     0
  1
STANDARD
  0
DICTIONARYVAR
  5
114
102
{ACAD_REACTORS
330
111
102
}
330
111
100
DictionaryVariables
280
     0
  1
2
  0
DICTIONARYVAR
  5
113
102
{ACAD_REACTORS
330
111
102
}
330
111
100
DictionaryVariables
280
     0
  1
1
  0
DICTIONARYVAR
  5
115
102
{ACAD_REACTORS
330
111
102
}
330
111
100
DictionaryVariables
280
     0
  1

  0
XRECORD
  5
BEA
102
{ACAD_REACTORS
330
BE9
102
}
330
BE9
100
AcDbXrecord
280
     1
1070
     0
1070
     0
1070
     0
  0
DICTIONARY
  5
C12
330
26
100
AcDbDictionary
280
     1
281
     1
  3
ACAD_XREC_ROUNDTRIP
360
C13
  0
DICTIONARY
  5
C10
330
22
100
AcDbDictionary
280
     1
281
     1
  3
ACAD_XREC_ROUNDTRIP
360
C11
  0
DICTIONARY
  5
C14
330
2A
100
AcDbDictionary
280
     1
281
     1
  3
ACAD_XREC_ROUNDTRIP
360
C15
  0
XRECORD
  5
C13
102
{ACAD_REACTORS
330
C12
102
}
330
C12
100
AcDbXrecord
280
     1
102
SHADEPLOT
 70
     0
102
SHADEPLOTRESLEVEL
 70
     2
102
SHADEPLOTCUSTOMDPI
 70
   300
  0
XRECORD
  5
C11
102
{ACAD_REACTORS
330
C10
102
}
330
C10
100
AcDbXrecord
280
     1
102
SHADEPLOT
 70
     0
102
SHADEPLOTRESLEVEL
 70
     2
102
SHADEPLOTCUSTOMDPI
 70
   300
  0
XRECORD
  5
C15
102
{ACAD_REACTORS
330
C14
102
}
330
C14
100
AcDbXrecord
280
     1
102
SHADEPLOT
 70
     0
102
SHADEPLOTRESLEVEL
 70
     2
102
SHADEPLOTCUSTOMDPI
 70
   300
  0
ENDSEC
  0
EOF
