  0
SECTION
  2
HEADER
  9
$ACADVER
  1
AC1015
  9
$ACADMAINTVER
 70
    20
  9
$DWGCODEPAGE
  3
ANSI_1252
  9
$INSBASE
 10
0.0
 20
0.0
 30
0.0
  9
$EXTMIN
 10
13.04448715122021
 20
0.0232111485572659
 30
-0.0015258207003583
  9
$EXTMAX
 10
661.1829072106536
 20
507.0449623299173
 30
0.0000000349246037
  9
$LIMMIN
 10
0.0
 20
0.0
  9
$LIMMAX
 10
420.0
 20
297.0
  9
$ORTHOMODE
 70
     1
  9
$REGENMODE
 70
     1
  9
$FILLMODE
 70
     1
  9
$QTEXTMODE
 70
     0
  9
$MIRRTEXT
 70
     0
  9
$LTSCALE
 40
1.0
  9
$ATTMODE
 70
     1
  9
$TEXTSIZE
 40
2.5
  9
$TRACEWID
 40
1.0
  9
$TEXTSTYLE
  7
Standard
  9
$CLAYER
  8
0
  9
$CELTYPE
  6
ByLayer
  9
$CECOLOR
 62
   256
  9
$CELTSCALE
 40
1.0
  9
$DISPSILH
 70
     0
  9
$DIMSCALE
 40
1.0
  9
$DIMASZ
 40
0.18
  9
$DIMEXO
 40
0.0625
  9
$DIMDLI
 40
0.38
  9
$DIMRND
 40
0.0
  9
$DIMDLE
 40
0.0
  9
$DIMEXE
 40
0.18
  9
$DIMTP
 40
0.0
  9
$DIMTM
 40
0.0
  9
$DIMTXT
 40
0.18
  9
$DIMCEN
 40
0.09
  9
$DIMTSZ
 40
0.0
  9
$DIMTOL
 70
     0
  9
$DIMLIM
 70
     0
  9
$DIMTIH
 70
     1
  9
$DIMTOH
 70
     1
  9
$DIMSE1
 70
     0
  9
$DIMSE2
 70
     0
  9
$DIMTAD
 70
     0
  9
$DIMZIN
 70
     0
  9
$DIMBLK
  1

  9
$DIMASO
 70
     1
  9
$DIMSHO
 70
     1
  9
$DIMPOST
  1

  9
$DIMAPOST
  1

  9
$DIMALT
 70
     0
  9
$DIMALTD
 70
     2
  9
$DIMALTF
 40
25.4
  9
$DIMLFAC
 40
1.0
  9
$DIMTOFL
 70
     0
  9
$DIMTVP
 40
0.0
  9
$DIMTIX
 70
     0
  9
$DIMSOXD
 70
     0
  9
$DIMSAH
 70
     0
  9
$DIMBLK1
  1

  9
$DIMBLK2
  1

  9
$DIMSTYLE
  2
STANDARD
  9
$DIMCLRD
 70
     0
  9
$DIMCLRE
 70
     0
  9
$DIMCLRT
 70
     0
  9
$DIMTFAC
 40
1.0
  9
$DIMGAP
 40
0.09
  9
$DIMJUST
 70
     0
  9
$DIMSD1
 70
     0
  9
$DIMSD2
 70
     0
  9
$DIMTOLJ
 70
     1
  9
$DIMTZIN
 70
     0
  9
$DIMALTZ
 70
     0
  9
$DIMALTTZ
 70
     0
  9
$DIMUPT
 70
     0
  9
$DIMDEC
 70
     4
  9
$DIMTDEC
 70
     4
  9
$DIMALTU
 70
     2
  9
$DIMALTTD
 70
     2
  9
$DIMTXSTY
  7
Standard
  9
$DIMAUNIT
 70
     0
  9
$DIMADEC
 70
     0
  9
$DIMALTRND
 40
0.0
  9
$DIMAZIN
 70
     0
  9
$DIMDSEP
 70
    46
  9
$DIMATFIT
 70
     3
  9
$DIMFRAC
 70
     0
  9
$DIMLDRBLK
  1

  9
$DIMLUNIT
 70
     2
  9
$DIMLWD
 70
    -2
  9
$DIMLWE
 70
    -2
  9
$DIMTMOVE
 70
     0
  9
$LUNITS
 70
     2
  9
$LUPREC
 70
     4
  9
$SKETCHINC
 40
1.0
  9
$FILLETRAD
 40
0.0
  9
$AUNITS
 70
     0
  9
$AUPREC
 70
     0
  9
$MENU
  1
.
  9
$ELEVATION
 40
0.0
  9
$PELEVATION
 40
0.0
  9
$THICKNESS
 40
0.0
  9
$LIMCHECK
 70
     0
  9
$CHAMFERA
 40
0.0
  9
$CHAMFERB
 40
0.0
  9
$CHAMFERC
 40
0.0
  9
$CHAMFERD
 40
0.0
  9
$SKPOLY
 70
     0
  9
$TDCREATE
 40
2455019.583955972
  9
$TDUCREATE
 40
2455019.500622639
  9
$TDUPDATE
 40
2455026.529468496
  9
$TDUUPDATE
 40
2455026.446135162
  9
$TDINDWG
 40
0.3200795718
  9
$TDUSRTIMER
 40
0.3200793981
  9
$USRTIMER
 70
     1
  9
$ANGBASE
 50
0.0
  9
$ANGDIR
 70
     0
  9
$PDMODE
 70
     0
  9
$PDSIZE
 40
0.0
  9
$PLINEWID
 40
0.0
  9
$SPLFRAME
 70
     0
  9
$SPLINETYPE
 70
     6
  9
$SPLINESEGS
 70
     8
  9
$HANDSEED
  5
A11
  9
$SURFTAB1
 70
     6
  9
$SURFTAB2
 70
     6
  9
$SURFTYPE
 70
     6
  9
$SURFU
 70
     6
  9
$SURFV
 70
     6
  9
$UCSBASE
  2

  9
$UCSNAME
  2

  9
$UCSORG
 10
0.0
 20
0.0
 30
0.0
  9
$UCSXDIR
 10
1.0
 20
0.0
 30
0.0
  9
$UCSYDIR
 10
0.0
 20
1.0
 30
0.0
  9
$UCSORTHOREF
  2

  9
$UCSORTHOVIEW
 70
     0
  9
$UCSORGTOP
 10
0.0
 20
0.0
 30
0.0
  9
$UCSORGBOTTOM
 10
0.0
 20
0.0
 30
0.0
  9
$UCSORGLEFT
 10
0.0
 20
0.0
 30
0.0
  9
$UCSORGRIGHT
 10
0.0
 20
0.0
 30
0.0
  9
$UCSORGFRONT
 10
0.0
 20
0.0
 30
0.0
  9
$UCSORGBACK
 10
0.0
 20
0.0
 30
0.0
  9
$PUCSBASE
  2

  9
$PUCSNAME
  2

  9
$PUCSORG
 10
0.0
 20
0.0
 30
0.0
  9
$PUCSXDIR
 10
1.0
 20
0.0
 30
0.0
  9
$PUCSYDIR
 10
0.0
 20
1.0
 30
0.0
  9
$PUCSORTHOREF
  2

  9
$PUCSORTHOVIEW
 70
     0
  9
$PUCSORGTOP
 10
0.0
 20
0.0
 30
0.0
  9
$PUCSORGBOTTOM
 10
0.0
 20
0.0
 30
0.0
  9
$PUCSORGLEFT
 10
0.0
 20
0.0
 30
0.0
  9
$PUCSORGRIGHT
 10
0.0
 20
0.0
 30
0.0
  9
$PUCSORGFRONT
 10
0.0
 20
0.0
 30
0.0
  9
$PUCSORGBACK
 10
0.0
 20
0.0
 30
0.0
  9
$USERI1
 70
     0
  9
$USERI2
 70
     0
  9
$USERI3
 70
     0
  9
$USERI4
 70
     0
  9
$USERI5
 70
     0
  9
$USERR1
 40
0.0
  9
$USERR2
 40
0.0
  9
$USERR3
 40
0.0
  9
$USERR4
 40
0.0
  9
$USERR5
 40
0.0
  9
$WORLDVIEW
 70
     1
  9
$SHADEDGE
 70
     3
  9
$SHADEDIF
 70
    70
  9
$TILEMODE
 70
     1
  9
$MAXACTVP
 70
    64
  9
$PINSBASE
 10
0.0
 20
0.0
 30
0.0
  9
$PLIMCHECK
 70
     0
  9
$PEXTMIN
 10
1.000000000000000E+20
 20
1.000000000000000E+20
 30
1.000000000000000E+20
  9
$PEXTMAX
 10
-1.000000000000000E+20
 20
-1.000000000000000E+20
 30
-1.000000000000000E+20
  9
$PLIMMIN
 10
0.0
 20
0.0
  9
$PLIMMAX
 10
420.0
 20
297.0
  9
$UNITMODE
 70
     0
  9
$VISRETAIN
 70
     1
  9
$PLINEGEN
 70
     0
  9
$PSLTSCALE
 70
     1
  9
$TREEDEPTH
 70
  3020
  9
$CMLSTYLE
  2
Standard
  9
$CMLJUST
 70
     0
  9
$CMLSCALE
 40
20.0
  9
$PROXYGRAPHICS
 70
     1
  9
$MEASUREMENT
 70
     1
  9
$CELWEIGHT
370
    -1
  9
$ENDCAPS
280
     0
  9
$JOINSTYLE
280
     0
  9
$LWDISPLAY
290
     0
  9
$INSUNITS
 70
     4
  9
$HYPERLINKBASE
  1

  9
$STYLESHEET
  1

  9
$XEDIT
290
     1
  9
$CEPSNTYPE
380
     0
  9
$PSTYLEMODE
290
     1
  9
$FINGERPRINTGUID
  2
{A6C950DD-243C-480B-8B88-1E8CBBE87BD7}
  9
$VERSIONGUID
  2
{03C7F8EA-0189-4193-A37E-8E52A1740E62}
  9
$EXTNAMES
290
     1
  9
$PSVPSCALE
 40
0.0
  9
$OLESTARTUP
290
     0
  0
ENDSEC
  0
SECTION
  2
CLASSES
  0
CLASS
  1
ACDBDICTIONARYWDFLT
  2
AcDbDictionaryWithDefault
  3
ObjectDBX Classes
 90
        0
280
     0
281
     0
  0
CLASS
  1
TABLESTYLE
  2
AcDbTableStyle
  3
ObjectDBX Classes
 90
     2047
280
     0
281
     0
  0
CLASS
  1
SORTENTSTABLE
  2
AcDbSortentsTable
  3
ObjectDBX Classes
 90
        0
280
     0
281
     0
  0
CLASS
  1
DICTIONARYVAR
  2
AcDbDictionaryVar
  3
ObjectDBX Classes
 90
        0
280
     0
281
     0
  0
CLASS
  1
ACDBPLACEHOLDER
  2
AcDbPlaceHolder
  3
ObjectDBX Classes
 90
        0
280
     0
281
     0
  0
CLASS
  1
LAYOUT
  2
AcDbLayout
  3
ObjectDBX Classes
 90
        0
280
     0
281
     0
  0
CLASS
  1
ACAD_EVALUATION_GRAPH
  2
AcDbEvalGraph
  3
ObjectDBX Classes
 90
    33921
280
     0
281
     0
  0
CLASS
  1
ACAECUSTOBJ
  2
AcAeEditorObj
  3
AcAeEditorObj
 90
    33792
280
     0
281
     0
  0
CLASS
  1
ACDB_DYNAMICBLOCKPURGEPREVENTER_VERSION
  2
AcDbDynamicBlockPurgePreventer
  3
ObjectDBX Classes
 90
    33921
280
     0
281
     0
  0
ENDSEC
  0
SECTION
  2
TABLES
  0
TABLE
  2
VPORT
  5
8
330
0
100
AcDbSymbolTable
 70
     2
  0
VPORT
  5
A09
330
8
100
AcDbSymbolTableRecord
100
AcDbViewportTableRecord
  2
*Active
 70
     0
 10
0.0
 20
0.0
 11
1.0
 21
1.0
 12
337.1136971809369
 22
253.5340867392373
 13
0.0
 23
0.0
 14
10.0
 24
10.0
 15
10.0
 25
10.0
 16
0.0
 26
0.0
 36
1.0
 17
0.0
 27
0.0
 37
0.0
 40
510.0578095716675
 41
1.525474525474525
 42
50.0
 43
0.0
 44
0.0
 50
0.0
 51
0.0
 71
     0
 72
  1000
 73
     1
 74
     3
 75
     0
 76
     0
 77
     0
 78
     0
281
     0
 65
     1
110
0.0
120
0.0
130
0.0
111
1.0
121
0.0
131
0.0
112
0.0
122
1.0
132
0.0
 79
     0
146
0.0
  0
ENDTAB
  0
TABLE
  2
LTYPE
  5
5
330
0
100
AcDbSymbolTable
 70
     1
  0
LTYPE
  5
14
330
5
100
AcDbSymbolTableRecord
100
AcDbLinetypeTableRecord
  2
ByBlock
 70
     0
  3

 72
    65
 73
     0
 40
0.0
  0
LTYPE
  5
15
330
5
100
AcDbSymbolTableRecord
100
AcDbLinetypeTableRecord
  2
ByLayer
 70
     0
  3

 72
    65
 73
     0
 40
0.0
  0
LTYPE
  5
16
330
5
100
AcDbSymbolTableRecord
100
AcDbLinetypeTableRecord
  2
Continuous
 70
     0
  3
Solid line
 72
    65
 73
     0
 40
0.0
  0
ENDTAB
  0
TABLE
  2
LAYER
  5
2
102
{ACAD_XDICTIONARY
360
35
102
}
330
0
100
AcDbSymbolTable
 70
     1
  0
LAYER
  5
10
330
2
100
AcDbSymbolTableRecord
100
AcDbLayerTableRecord
  2
0
 70
     0
 62
     7
  6
Continuous
370
    -3
390
F
  0
ENDTAB
  0
TABLE
  2
STYLE
  5
3
330
0
100
AcDbSymbolTable
 70
     1
  0
STYLE
  5
11
330
3
100
AcDbSymbolTableRecord
100
AcDbTextStyleTableRecord
  2
Standard
 70
     0
 40
0.0
 41
1.0
 50
0.0
 71
     0
 42
2.5
  3
txt
  4

  0
ENDTAB
  0
TABLE
  2
VIEW
  5
6
330
0
100
AcDbSymbolTable
 70
     0
  0
ENDTAB
  0
TABLE
  2
UCS
  5
7
330
0
100
AcDbSymbolTable
 70
     0
  0
ENDTAB
  0
TABLE
  2
APPID
  5
9
330
0
100
AcDbSymbolTable
 70
    11
  0
APPID
  5
12
330
9
100
AcDbSymbolTableRecord
100
AcDbRegAppTableRecord
  2
ACAD
 70
     0
  0
APPID
  5
34
330
9
100
AcDbSymbolTableRecord
100
AcDbRegAppTableRecord
  2
ACAD_PSEXT
 70
     0
  0
APPID
  5
33E
330
9
100
AcDbSymbolTableRecord
100
AcDbRegAppTableRecord
  2
ACAD_DSTYLE_DIMTEXT_FILL
 70
     0
  0
APPID
  5
33F
330
9
100
AcDbSymbolTableRecord
100
AcDbRegAppTableRecord
  2
ACAD_DSTYLE_DIMEXT_LENGTH
 70
     0
  0
APPID
  5
340
330
9
100
AcDbSymbolTableRecord
100
AcDbRegAppTableRecord
  2
ACAD_DSTYLE_DIMEXT_ENABLED
 70
     0
  0
APPID
  5
341
330
9
100
AcDbSymbolTableRecord
100
AcDbRegAppTableRecord
  2
ACAD_DSTYLE_DIM_LINETYPE
 70
     0
  0
APPID
  5
342
330
9
100
AcDbSymbolTableRecord
100
AcDbRegAppTableRecord
  2
ACAD_DSTYLE_DIM_EXT1_LINETYPE
 70
     0
  0
APPID
  5
343
330
9
100
AcDbSymbolTableRecord
100
AcDbRegAppTableRecord
  2
ACAD_DSTYLE_DIM_EXT2_LINETYPE
 70
     0
  0
APPID
  5
80F
330
9
100
AcDbSymbolTableRecord
100
AcDbRegAppTableRecord
  2
ACAUTHENVIRON
 70
     0
  0
APPID
  5
861
330
9
100
AcDbSymbolTableRecord
100
AcDbRegAppTableRecord
  2
AcDbDynamicBlockTrueName
 70
     0
  0
APPID
  5
862
330
9
100
AcDbSymbolTableRecord
100
AcDbRegAppTableRecord
  2
AcDbDynamicBlockGUID
 70
     0
  0
ENDTAB
  0
TABLE
  2
DIMSTYLE
  5
A
330
0
100
AcDbSymbolTable
 70
     1
100
AcDbDimStyleTable
 71
     1
340
33
  0
DIMSTYLE
105
33
330
A
100
AcDbSymbolTableRecord
100
AcDbDimStyleTableRecord
  2
STANDARD
 70
     0
340
11
  0
ENDTAB
  0
TABLE
  2
BLOCK_RECORD
  5
1
330
0
100
AcDbSymbolTable
 70
     2
  0
BLOCK_RECORD
  5
23
102
{ACAD_XDICTIONARY
360
19E
102
}
330
1
100
AcDbSymbolTableRecord
100
AcDbBlockTableRecord
  2
*Model_Space
340
26
  0
BLOCK_RECORD
  5
1F
330
1
100
AcDbSymbolTableRecord
100
AcDbBlockTableRecord
  2
*Paper_Space
340
22
  0
BLOCK_RECORD
  5
27
330
1
100
AcDbSymbolTableRecord
100
AcDbBlockTableRecord
  2
*Paper_Space0
340
2A
  0
BLOCK_RECORD
  5
9D6
102
{ACAD_XDICTIONARY
360
9D7
102
}
330
1
100
AcDbSymbolTableRecord
100
AcDbBlockTableRecord
  2
27005_P
340
0
310
2800000020000000200000000100080000000000000400000000000000000000000000000000000000000000000080000080000000808000800000008000800080800000C0C0C000C0DCC000F0CAA6000020400000206000002080000020A0000020C0000020E00000400000004020000040400000406000004080000040A0
310
000040C0000040E00000600000006020000060400000606000006080000060A0000060C0000060E00000800000008020000080400000806000008080000080A0000080C0000080E00000A0000000A0200000A0400000A0600000A0800000A0A00000A0C00000A0E00000C0000000C0200000C0400000C0600000C0800000C0
310
A00000C0C00000C0E00000E0000000E0200000E0400000E0600000E0800000E0A00000E0C00000E0E00040000000400020004000400040006000400080004000A0004000C0004000E00040200000402020004020400040206000402080004020A0004020C0004020E000404000004040200040404000404060004040800040
310
40A0004040C0004040E00040600000406020004060400040606000406080004060A0004060C0004060E00040800000408020004080400040806000408080004080A0004080C0004080E00040A0000040A0200040A0400040A0600040A0800040A0A00040A0C00040A0E00040C0000040C0200040C0400040C0600040C08000
310
40C0A00040C0C00040C0E00040E0000040E0200040E0400040E0600040E0800040E0A00040E0C00040E0E00080000000800020008000400080006000800080008000A0008000C0008000E00080200000802020008020400080206000802080008020A0008020C0008020E00080400000804020008040400080406000804080
310
008040A0008040C0008040E00080600000806020008060400080606000806080008060A0008060C0008060E00080800000808020008080400080806000808080008080A0008080C0008080E00080A0000080A0200080A0400080A0600080A0800080A0A00080A0C00080A0E00080C0000080C0200080C0400080C0600080C0
310
800080C0A00080C0C00080C0E00080E0000080E0200080E0400080E0600080E0800080E0A00080E0C00080E0E000C0000000C0002000C0004000C0006000C0008000C000A000C000C000C000E000C0200000C0202000C0204000C0206000C0208000C020A000C020C000C020E000C0400000C0402000C0404000C0406000C0
310
408000C040A000C040C000C040E000C0600000C0602000C0604000C0606000C0608000C060A000C060C000C060E000C0800000C0802000C0804000C0806000C0808000C080A000C080C000C080E000C0A00000C0A02000C0A04000C0A06000C0A08000C0A0A000C0A0C000C0A0E000C0C00000C0C02000C0C04000C0C06000
310
C0C08000C0C0A000F0FBFF00A4A0A000808080000000FF0000FF000000FFFF00FF000000FF00FF00FFFF0000FFFFFF0000000000000000000000000000000000000000000000000000000000000000000000000000000000000000000000000000000000000000000000000000000000000000000000000000000000000000
310
00000000000000000000000000000000000000000000000000000000000000000000000000000000000000000000000000000000000000000000000000000000000000000000000000000000000000000000000000000000000000000000000000000000000000000000000000000000000000000000000000000000000000
310
0000000000000000000000000000000000000000FFFFFFFFFFFFFFFFFFFFFFFFFFFFFFFFFFFFFFFFFFFFFFFFFFFFFFFF00000000FFFF000000000000000000000000000000000000000000000000FFFF000000FFFF0000000000000000000000000000000000000000000000000000FFFF0000FFFF00000000000000000000
310
00000000000000000000000000000000FFFF0000FFFF0000000000000000000000000000000000000000000000000000FFFF0000FFFF0000000000000000000000000000000000000000000000000000FFFF0000FFFF0000000000000000000000FFFFFFFF0000000000000000000000FFFF0000FFFF000000000000000000
310
0000FFFFFFFF0000000000000000000000FFFF0000FFFF0000000000000000000000FF00FFFF0000000000000000000000FFFF0000FFFF00FF000000000000000000FFFFFFFF000000000000000000FF00FFFF0000FFFF00FFFFFFFFFFFFFFFFFFFFFFFFFFFFFFFFFFFFFFFFFFFFFFFF00FFFF0000FFFF0000FFFFFFFFFFFF
310
FFFFFFFFFFFFFFFFFFFFFFFFFFFFFFFF0000FFFF0000FF00FF0000000000000000FFFF0000000000000000000000000000FF00FF0000FF0000FFFFFFFFFFFFFFFFFFFFFFFFFFFFFFFFFFFFFFFFFFFFFFFF0000FF0000FF00000000000000000000000000FFFF00000000000000000000000000FF0000FF0000000000000000
310
0000000000FFFF00000000000000000000000000FF0000FF00000000000000000000000000000000000000000000000000000000FF0000FFFFFFFFFFFFFFFFFFFFFFFFFFFFFFFFFFFFFFFFFFFFFFFFFFFFFFFFFFFF000000000000000000000000000000000000000000000000000000000000000000000000000000000000
310
00000000000000000000000000000000000000000000000000000000000000000000000000000000000000000000000000000000000000000000000000000000000000000000000000000000000000000000000000000000000000000000000000000000000000000000000000000000000000000000000000000000000000
310
0000000000000000000000000000000000000000000000000000000000000000000000000000000000000000000000000000000000000000
102
{BLKREFS
331
9F0
102
}
1001
ACAD
1000
DesignCenter Data
1002
{
1070
     1
1070
     4
1002
}
  0
ENDTAB
  0
ENDSEC
  0
SECTION
  2
BLOCKS
  0
BLOCK
  5
24
330
23
100
AcDbEntity
  8
0
100
AcDbBlockBegin
  2
*Model_Space
 70
     0
 10
0.0
 20
0.0
 30
0.0
  3
*Model_Space
  1

  0
ENDBLK
  5
25
330
23
100
AcDbEntity
  8
0
100
AcDbBlockEnd
  0
BLOCK
  5
20
330
1F
100
AcDbEntity
 67
     1
  8
0
100
AcDbBlockBegin
  2
*Paper_Space
 70
     0
 10
0.0
 20
0.0
 30
0.0
  3
*Paper_Space
  1

  0
ENDBLK
  5
21
330
1F
100
AcDbEntity
 67
     1
  8
0
100
AcDbBlockEnd
  0
BLOCK
  5
28
330
27
100
AcDbEntity
 67
     1
  8
0
100
AcDbBlockBegin
  2
*Paper_Space0
 70
     0
 10
0.0
 20
0.0
 30
0.0
  3
*Paper_Space0
  1

  0
ENDBLK
  5
29
330
27
100
AcDbEntity
 67
     1
  8
0
100
AcDbBlockEnd
  0
BLOCK
  5
9DA
330
9D6
100
AcDbEntity
  8
0
100
AcDbBlockBegin
  2
27005_P
 70
     0
 10
0.0
 20
0.0
 30
0.0
  3
27005_P
  1

  0
CIRCLE
  5
9DC
330
9D6
100
AcDbEntity
  8
0
100
AcDbCircle
 10
339.3619370244246
 20
317.0294878373652
 30
0.0
 40
23.00000000000022
  0
ARC
  5
9DD
330
9D6
100
AcDbEntity
  8
0
100
AcDbCircle
 10
560.8619370244173
 20
372.0294878373952
 30
0.0
 40
40.0
100
AcDbArc
 50
0.0
 51
90.0
  0
ARC
  5
9DE
330
9D6
100
AcDbEntity
  8
0
100
AcDbCircle
 10
610.3619370244191
 20
503.0294878373651
 30
0.0
 40
4.0
100
AcDbArc
 50
0.0
 51
90.0
  0
ARC
  5
9DF
330
9D6
100
AcDbEntity
  8
0
100
AcDbCircle
 10
339.3619370244191
 20
317.0294878373652
 30
0.0
 40
36.00000000000008
100
AcDbArc
 50
270.0
 51
90.0
  0
LINE
  5
9E0
330
9D6
100
AcDbEntity
  8
0
100
AcDbLine
 10
560.8619370244173
 20
412.0294878373952
 30
0.0
 11
117.8619370244209
 21
412.0294878373879
 31
0.0
  0
CIRCLE
  5
9E1
330
9D6
100
AcDbEntity
  8
0
100
AcDbCircle
 10
339.3619370244191
 20
447.0294878373615
 30
0.0
 40
17.5
  0
LINE
  5
9E2
330
9D6
100
AcDbEntity
  8
0
100
AcDbLine
 10
138.7360248923082
 20
379.8701889793065
 30
0.0
 11
539.98784915653
 21
379.8701889793065
 31
0.0
  0
ARC
  5
9E3
330
9D6
100
AcDbEntity
  8
0
100
AcDbCircle
 10
539.98784915653
 20
347.8701889793065
 30
0.0
 40
32.0
100
AcDbArc
 50
0.0
 51
90.0
  0
SPLINE
  5
9E4
330
9D6
100
AcDbEntity
  8
0
100
AcDbSpline
210
0.0
220
0.0
230
1.0
 70
     8
 71
     3
 72
    26
 73
    22
 74
     0
 42
0.0000000001
 43
0.0000000001
 40
7.853979450876906
 40
7.853979450876906
 40
7.853979450876906
 40
7.853979450876906
 40
7.919352950397192
 40
7.919352950397192
 40
8.35700805459029
 40
8.35700805459029
 40
8.794663158783388
 40
8.794663158783388
 40
9.124586633184637
 40
9.124586633184637
 40
9.454510107585889
 40
9.454510107585889
 40
9.784433581987139
 40
9.784433581987139
 40
10.11435705638839
 40
10.11435705638839
 40
10.44428053078964
 40
10.44428053078964
 40
10.88286040666045
 40
10.88286040666045
 40
10.99557777686171
 40
10.99557777686171
 40
10.99557777686171
 40
10.99557777686171
 10
279.3619370244137
 20
388.3882946926378
 30
0.0
 10
279.5952437044884
 20
388.3882242102836
 30
0.0
 10
279.8285543047437
 20
388.3935602170268
 30
0.0
 10
281.6204262470833
 20
388.4765067922226
 30
0.0
 10
283.1584138292596
 20
388.792514350359
 30
0.0
 10
285.9322435329973
 20
389.8717490324989
 30
0.0
 10
287.1680827204195
 20
390.6346905725322
 30
0.0
 10
288.8685325311503
 20
392.2834155559712
 30
0.0
 10
289.4482522076646
 20
393.0933983344612
 30
0.0
 10
290.2133574559261
 20
394.8411556579404
 30
0.0
 10
290.3958568912362
 20
395.7789183357263
 30
0.0
 10
290.3174111033509
 20
397.6440107863518
 30
0.0
 10
290.0570777048283
 20
398.5673483934361
 30
0.0
 10
289.1530176099436
 20
400.267482641032
 30
0.0
 10
288.5117344512159
 20
401.045038531417
 30
0.0
 10
286.9442991431256
 20
402.3890908161547
 30
0.0
 10
286.0180344937812
 20
402.9565191068241
 30
0.0
 10
283.6433493932759
 20
403.98900976813
 30
0.0
 10
282.122832482371
 20
404.35767442013
 30
0.0
 10
280.1664835370225
 20
404.5142605717328
 30
0.0
 10
279.7642097514013
 20
404.5301372567728
 30
0.0
 10
279.3619370244173
 20
404.5300084243599
 30
0.0
  0
LINE
  5
9E5
330
9D6
100
AcDbEntity
  8
0
100
AcDbLine
 10
610.3619370244191
 20
507.0294878373651
 30
0.0
 11
68.36193702441915
 21
507.0294878373724
 31
0.0
  0
ARC
  5
9E6
330
9D6
100
AcDbEntity
  8
0
100
AcDbCircle
 10
117.8619370244209
 20
372.0294878373952
 30
0.0
 40
40.0
100
AcDbArc
 50
90.0
 51
180.0
  0
ARC
  5
9E7
330
9D6
100
AcDbEntity
  8
0
100
AcDbCircle
 10
68.36193702442279
 20
503.0294878373651
 30
0.0
 40
4.0
100
AcDbArc
 50
90.0
 51
180.0
  0
LWPOLYLINE
  5
9E8
330
9D6
100
AcDbEntity
  8
0
100
AcDbPolyline
 90
       46
 70
   128
 43
0.0
 10
339.3619665807869
 20
170.5294854383801
 10
316.0361960532914
 20
170.54339609002
 10
290.7691801409796
 20
170.6026187640173
 10
266.6811453775931
 20
170.6994170954394
 10
268.8011855576219
 20
170.8281338829774
 10
247.0843515300598
 20
170.9832627395744
 10
226.4560310765332
 20
171.1597440000014
 10
206.8589291388448
 20
171.353050944771
 10
187.7598464106245
 20
171.5651437066126
 10
169.4119143400944
 20
171.7924443528509
 10
151.6900056252193
 20
172.0338193545367
 10
143.5613104319395
 20
172.1512917384834
 10
135.5682459773429
 20
172.2710510818187
 10
127.8109979992891
 20
172.3914576987454
 10
120.9393461252634
 20
172.5961118891437
 10
115.1143728970396
 20
173.4098519855806
 10
109.2281989121434
 20
175.0116023289929
 10
104.0477542006606
 20
177.1478963227537
 10
99.66762530252481
 20
179.5694986015451
 10
97.03519182287301
 20
181.3430894279417
 10
94.75402921825979
 20
183.1085991417649
 10
92.89017245006789
 20
184.7321513562974
 10
91.18736522738936
 20
186.3836637717477
 10
89.10545418822357
 20
188.6585018647101
 10
86.76088607719384
 20
191.6268317147924
 10
84.78095834763326
 20
194.5748938322767
 10
83.28093828100419
 20
197.1866445744135
 10
82.16752944944664
 20
199.4236347685009
 10
81.35544133007124
 20
201.2809699929649
 10
80.45532579843301
 20
203.6590940133728
 10
79.49476207707403
 20
206.7767216084694
 10
78.62353653445961
 20
210.6571251109681
 10
78.0172598342865
 20
215.3676439425044
 10
77.86085708238852
 20
221.5408080161478
 10
77.86109038649328
 20
229.3499630208944
 10
77.86031548099481
 20
255.7542243080588
 10
77.85960024061523
 20
265.578010087158
 10
77.85894460017471
 20
276.3237040699514
 10
77.85837836528071
 20
287.991323567514
 10
77.85799094614367
 20
302.454544115526
 10
77.857871741307
 20
318.1220217409118
 10
77.85813996089337
 20
334.9938123941629
 10
77.85891481057797
 20
353.0699277561016
 10
77.86193702442097
 20
372.0294878373952
 10
77.86193702442097
 20
372.0294878373952
 10
77.86193702442097
 20
372.0294878373952
  0
ARC
  5
9E9
330
9D6
100
AcDbEntity
  8
0
100
AcDbCircle
 10
138.7360248923082
 20
347.8701889793065
 30
0.0
 40
32.0
100
AcDbArc
 50
90.0
 51
180.0
  0
LWPOLYLINE
  5
9EA
330
9D6
100
AcDbEntity
  8
0
100
AcDbPolyline
 90
       46
 70
   128
 43
0.0
 10
339.3619370244191
 20
157.0294878373688
 10
316.0163508660039
 20
157.0434055219239
 10
290.7262341982564
 20
157.102682341153
 10
266.6160473531923
 20
157.1995696912354
 10
268.7149966067514
 20
157.3284051309174
 10
246.9783896512231
 20
157.4836752305573
 10
226.331705779477
 20
157.6603135953491
 10
206.7173967069825
 20
157.8537902722901
 10
187.6012781566819
 20
158.0660722146576
 10
169.2363718456467
 20
158.2935831437653
 10
151.5061506933411
 20
158.5350713620728
 10
143.3662423795899
 20
158.652701128537
 10
135.3660026497086
 20
158.7725660691803
 10
127.5052824920853
 20
158.8945767770356
 10
119.8011288351258
 20
159.1240248570984
 10
112.3971888727387
 20
160.1583442578858
 10
104.865367144986
 20
162.2079095731324
 10
98.18952772085276
 20
164.9608693013733
 10
92.61649343435374
 20
168.0419824014252
 10
89.12366125051585
 20
170.3952631841248
 10
86.18190380994883
 20
172.6720414052552
 10
83.75063034956065
 20
174.7898540387696
 10
81.49989935819712
 20
176.9727847467011
 10
78.81548497144786
 20
179.9059591184204
 10
75.84416362707225
 20
183.6677870641297
 10
73.31004235212413
 20
187.4410292993134
 10
71.37423250143138
 20
190.8115527520722
 10
69.93245574895945
 20
193.7082788835114
 10
68.84991619054881
 20
196.184166420514
 10
67.67898294393626
 20
199.2777964959687
 10
66.43810364667979
 20
203.3052227387971
 10
65.31404945318309
 20
208.311714876706
 10
64.53915926878062
 20
214.332290638501
 10
64.36085197393504
 20
221.3700196633881
 10
64.36109039251414
 20
229.3503663430756
 10
64.36031553213024
 20
255.7530492435344
 10
64.35960027639294
 20
265.5770271907695
 10
64.35894462530041
 20
276.3228803764232
 10
64.35837838117504
 20
287.9906684051402
 10
64.357990950984
 20
302.4541824947246
 10
64.35787174169445
 20
318.1219190250285
 10
64.35813996259594
 20
334.994027007664
 10
64.35891482297802
 20
353.0705064426311
 10
64.36019632284069
 20
372.3514169345744
 10
64.36204406682873
 20
392.8367882858165
 10
64.36193702442278
 20
503.0294878373651
  0
ARC
  5
9EB
330
9D6
100
AcDbEntity
  8
0
100
AcDbCircle
 10
339.3619370244191
 20
317.0294878373652
 30
0.0
 40
36.00000000000008
100
AcDbArc
 50
90.0
 51
270.0
  0
SPLINE
  5
9EC
330
9D6
100
AcDbEntity
  8
0
100
AcDbSpline
210
0.0
220
0.0
230
1.0
 70
     8
 71
     3
 72
    26
 73
    22
 74
     0
 42
0.0000000001
 43
0.0000000001
 40
7.853979450876906
 40
7.853979450876906
 40
7.853979450876906
 40
7.853979450876906
 40
7.919352950397192
 40
7.919352950397192
 40
8.35700805459029
 40
8.35700805459029
 40
8.794663158783388
 40
8.794663158783388
 40
9.124586633184637
 40
9.124586633184637
 40
9.454510107585889
 40
9.454510107585889
 40
9.784433581987139
 40
9.784433581987139
 40
10.11435705638839
 40
10.11435705638839
 40
10.44428053078964
 40
10.44428053078964
 40
10.88286040666045
 40
10.88286040666045
 40
10.99557777686171
 40
10.99557777686171
 40
10.99557777686171
 40
10.99557777686171
 10
279.3619370244137
 20
388.3882946926378
 30
0.0
 10
279.1286303443389
 20
388.3882242102836
 30
0.0
 10
278.8953197440837
 20
388.3935602170268
 30
0.0
 10
277.1034478017441
 20
388.4765067922226
 30
0.0
 10
275.5654602195678
 20
388.792514350359
 30
0.0
 10
272.7916305158301
 20
389.8717490324989
 30
0.0
 10
271.5557913284079
 20
390.6346905725322
 30
0.0
 10
269.8553415176771
 20
392.2834155559712
 30
0.0
 10
269.2756218411628
 20
393.0933983344612
 30
0.0
 10
268.5105165929012
 20
394.8411556579404
 30
0.0
 10
268.3280171575912
 20
395.7789183357263
 30
0.0
 10
268.4064629454765
 20
397.6440107863518
 30
0.0
 10
268.6667963439991
 20
398.5673483934361
 30
0.0
 10
269.5708564388838
 20
400.267482641032
 30
0.0
 10
270.2121395976115
 20
401.045038531417
 30
0.0
 10
271.7795749057018
 20
402.3890908161547
 30
0.0
 10
272.7058395550462
 20
402.9565191068241
 30
0.0
 10
275.0805246555515
 20
403.98900976813
 30
0.0
 10
276.6010415664564
 20
404.35767442013
 30
0.0
 10
278.5573905118049
 20
404.5142605717328
 30
0.0
 10
278.9596642974261
 20
404.5301372567728
 30
0.0
 10
279.3619370244101
 20
404.5300084243599
 30
0.0
  0
ARC
  5
9ED
330
9D6
100
AcDbEntity
  8
0
100
AcDbCircle
 10
339.3619370244099
 20
4635.862484881801
 30
0.0
 40
4271.155063355704
100
AcDbArc
 50
267.3441869654289
 51
272.6558130345711
  0
LWPOLYLINE
  5
9EE
330
9D6
100
AcDbEntity
  8
0
100
AcDbPolyline
 90
       46
 70
   128
 43
0.0
 10
339.3619665807869
 20
170.5294854383801
 10
362.6877371082823
 20
170.54339609002
 10
387.9547530205941
 20
170.6026187640173
 10
412.0427877839806
 20
170.6994170954394
 10
434.9227476039518
 20
170.8281338829774
 10
431.6395816315139
 20
170.9832627395744
 10
452.2679020850405
 20
171.1597440000014
 10
471.8650040227289
 20
171.353050944771
 10
490.9640867509493
 20
171.5651437066126
 10
509.3120188214793
 20
171.7924443528509
 10
527.0339275363544
 20
172.0338193545367
 10
535.1626227296342
 20
172.1512917384834
 10
543.1556871842308
 20
172.2710510818187
 10
550.9129351622846
 20
172.3914576987454
 10
557.7845870363103
 20
172.5961118891437
 10
563.6095602645341
 20
173.4098519855806
 10
569.4957342494303
 20
175.0116023289929
 10
574.6761789609131
 20
177.1478963227537
 10
579.0563078590489
 20
179.5694986015451
 10
581.6887413387007
 20
181.3430894279417
 10
583.9699039433139
 20
183.1085991417649
 10
585.8337607115059
 20
184.7321513562974
 10
587.5365679341844
 20
186.3836637717477
 10
589.6184789733502
 20
188.6585018647101
 10
591.9630470843799
 20
191.6268317147924
 10
593.9429748139405
 20
194.5748938322767
 10
595.4429948805695
 20
197.1866445744135
 10
596.5564037121271
 20
199.4236347685009
 10
597.3684918315025
 20
201.2809699929649
 10
598.2686073631407
 20
203.6590940133728
 10
599.2291710844997
 20
206.7767216084694
 10
600.1003966271142
 20
210.6571251109681
 10
600.7066733272872
 20
215.3676439425044
 10
600.8630760791852
 20
221.5408080161478
 10
600.8628427750805
 20
229.3499630208944
 10
600.8636176805753
 20
255.7542243080588
 10
600.8643329209548
 20
265.578010087158
 10
600.8649885613954
 20
276.3237040699514
 10
600.8655547962894
 20
287.991323567514
 10
600.8659422154265
 20
302.454544115526
 10
600.8660614202631
 20
318.1220217409118
 10
600.8657932006768
 20
334.9938123941629
 10
600.8650183509921
 20
353.0699277561016
 10
600.8619961371492
 20
372.0294878373952
 10
600.8619961371492
 20
372.0294878373952
 10
600.8619961371492
 20
372.0294878373952
  0
LWPOLYLINE
  5
9EF
330
9D6
100
AcDbEntity
  8
0
100
AcDbPolyline
 90
       46
 70
   128
 43
0.0
 10
339.3619961371546
 20
157.0294878373688
 10
362.7075822955699
 20
157.0434055219239
 10
387.9976989633174
 20
157.102682341153
 10
412.1078858083815
 20
157.1995696912354
 10
435.0089365548224
 20
157.3284051309174
 10
431.7455435103506
 20
157.4836752305573
 10
452.3922273820967
 20
157.6603135953491
 10
472.0065364545912
 20
157.8537902722901
 10
491.1226550048918
 20
158.0660722146576
 10
509.487561315927
 20
158.2935831437653
 10
527.2177824682326
 20
158.5350713620728
 10
535.3576907819838
 20
158.652701128537
 10
543.3579305118651
 20
158.7725660691803
 10
551.2186506694884
 20
158.8945767770356
 10
558.9228043264479
 20
159.1240248570984
 10
566.326744288835
 20
160.1583442578858
 10
573.8585660165877
 20
162.2079095731324
 10
580.534405440721
 20
164.9608693013733
 10
586.10743972722
 20
168.0419824014252
 10
589.6002719110579
 20
170.3952631841248
 10
592.5420293516249
 20
172.6720414052552
 10
594.9733028120131
 20
174.7898540387696
 10
597.2240338033766
 20
176.9727847467011
 10
599.9084481901259
 20
179.9059591184204
 10
602.8797695345015
 20
183.6677870641297
 10
605.4138908094496
 20
187.4410292993134
 10
607.3497006601423
 20
190.8115527520722
 10
608.7914774126143
 20
193.7082788835114
 10
609.8740169710249
 20
196.184166420514
 10
611.0449502176375
 20
199.2777964959687
 10
612.2858295148939
 20
203.3052227387971
 10
613.4098837083906
 20
208.311714876706
 10
614.1847738927931
 20
214.332290638501
 10
614.3630811876387
 20
221.3700196633881
 10
614.3628427690596
 20
229.3503663430756
 10
614.3636176294399
 20
255.7530492435344
 10
614.3643328851772
 20
265.5770271907695
 10
614.3649885362697
 20
276.3228803764232
 10
614.3655547803951
 20
287.9906684051402
 10
614.3659422105861
 20
302.4541824947246
 10
614.3660614198757
 20
318.1219190250285
 10
614.3657931989742
 20
334.994027007664
 10
614.3650183385921
 20
353.0705064426311
 10
614.3637368387294
 20
372.3514169345744
 10
614.3618890947414
 20
392.8367882858165
 10
614.3619961371509
 20
503.0294878373651
  0
ENDBLK
  5
9DB
330
9D6
100
AcDbEntity
  8
0
100
AcDbBlockEnd
  0
ENDSEC
  0
SECTION
  2
ENTITIES
  0
MTEXT
  5
6B
330
23
100
AcDbEntity
  8
0
100
AcDbMText
 10
13.67895064802198
 20
26.44333632592591
 30
0.0
 40
20.0
 41
853.3333333333334
 71
     1
 72
     5
  1
{\fTimes New Roman|b0|i0|c0|p18;\C0;LAVABO  DE 55x35 CM.  SERIE EMMA SQUARE }
 73
     1
 44
1.0
1001
ACAD
1000
ACAD_MTEXT_DEFINED_HEIGHT_BEGIN
1070
    46
1040
0.0
1000
ACAD_MTEXT_DEFINED_HEIGHT_END
1000
MTEXTBEGIN
1070
    73
1070
     1
1070
    44
1040
1.0
1070
    74
1070
     0
1000
MTEXTEND
  0
INSERT
  5
9F0
330
23
100
AcDbEntity
  8
0
100
AcDbBlockReference
  2
27005_P
 10
0.0
 20
0.0
 30
0.0
  0
ENDSEC
  0
SECTION
  2
OBJECTS
  0
DICTIONARY
  5
C
330
0
100
AcDbDictionary
281
     1
  3
ACAD_COLOR
350
1C
  3
ACAD_GROUP
350
D
  3
ACAD_LAYOUT
350
1A
  3
ACAD_MATERIAL
350
1B
  3
ACAD_MLINESTYLE
350
17
  3
ACAD_PLOTSETTINGS
350
19
  3
ACAD_PLOTSTYLENAME
350
E
  3
ACAD_TABLESTYLE
350
1D
  3
ACDBHEADERROUNDTRIPXREC
350
A0A
  3
AcDbVariableDictionary
350
111
  0
DICTIONARY
  5
35
330
2
100
AcDbDictionary
280
     1
281
     1
  3
ACAD_LAYERSTATES
360
36
  0
DICTIONARY
  5
19E
330
23
100
AcDbDictionary
280
     1
281
     1
  3
ACAD_SORTENTS
360
19F
  0
DICTIONARY
  5
9D7
330
9D6
100
AcDbDictionary
280
     1
281
     1
  3
AcDbBlockTableRecordData
360
9D8
  0
DICTIONARY
  5
1C
102
{ACAD_REACTORS
330
C
102
}
330
C
100
AcDbDictionary
281
     1
  0
DICTIONARY
  5
D
102
{ACAD_REACTORS
330
C
102
}
330
C
100
AcDbDictionary
281
     1
  0
DICTIONARY
  5
1A
102
{ACAD_REACTORS
330
C
102
}
330
C
100
AcDbDictionary
281
     1
  3
Model
350
26
  3
Presentación1
350
22
  3
Presentación2
350
2A
  0
DICTIONARY
  5
1B
102
{ACAD_REACTORS
330
C
102
}
330
C
100
AcDbDictionary
281
     1
  0
DICTIONARY
  5
17
102
{ACAD_REACTORS
330
C
102
}
330
C
100
AcDbDictionary
281
     1
  3
Standard
350
18
  0
DICTIONARY
  5
19
102
{ACAD_REACTORS
330
C
102
}
330
C
100
AcDbDictionary
281
     1
  0
ACDBDICTIONARYWDFLT
  5
E
102
{ACAD_REACTORS
330
C
102
}
330
C
100
AcDbDictionary
281
     1
  3
Normal
350
F
100
AcDbDictionaryWithDefault
340
F
  0
DICTIONARY
  5
1D
102
{ACAD_REACTORS
330
C
102
}
330
C
100
AcDbDictionary
281
     1
  3
Standard
350
1E
  0
DICTIONARY
  5
A0A
102
{ACAD_REACTORS
330
C
102
}
330
C
100
AcDbDictionary
281
     1
  0
DICTIONARY
  5
111
102
{ACAD_REACTORS
330
C
102
}
330
C
100
AcDbDictionary
281
     1
  3
CTABLESTYLE
350
112
  3
DIMASSOC
350
114
  3
HIDETEXT
350
113
  3
PROJECTNAME
350
115
  0
DICTIONARY
  5
36
102
{ACAD_REACTORS
330
35
102
}
330
35
100
AcDbDictionary
281
     1
  0
SORTENTSTABLE
  5
19F
102
{ACAD_REACTORS
330
19E
102
}
330
19E
100
AcDbSortentsTable
330
23
331
6B
  5
6B
  0
DICTIONARY
  5
9D8
102
{ACAD_REACTORS
330
9D7
102
}
330
9D7
100
AcDbDictionary
280
     1
281
     1
  3
Edit
360
9D9
  0
LAYOUT
  5
26
102
{ACAD_XDICTIONARY
360
A0D
102
}
102
{ACAD_REACTORS
330
1A
102
}
330
1A
100
AcDbPlotSettings
  1

  2
\\CERAMICAS_GALA\PRT_BU_OT_01.ZPRINTERS.BURGOS
  4

  6

 40
0.0
 41
0.0
 42
0.0
 43
0.0
 44
0.0
 45
0.0
 46
0.0
 47
0.0
 48
0.0
 49
0.0
140
0.0
141
0.0
142
1.0
143
1.0
 70
  1712
 72
     0
 73
     0
 74
     0
  7
C:\Documents and Settings\G0810\Application Data\Autodesk\AutoCAD 2006\R16.2\esp\Plot Styles\jj.stb
 75
     0
147
1.0
148
0.0
149
0.0
100
AcDbLayout
  1
Model
 70
     1
 71
     0
 10
0.0
 20
0.0
 11
12.0
 21
9.0
 12
0.0
 22
0.0
 32
0.0
 14
0.0
 24
0.0
 34
0.0
 15
0.0
 25
0.0
 35
0.0
146
0.0
 13
0.0
 23
0.0
 33
0.0
 16
1.0
 26
0.0
 36
0.0
 17
0.0
 27
1.0
 37
0.0
 76
     0
330
23
  0
LAYOUT
  5
22
102
{ACAD_XDICTIONARY
360
A0B
102
}
102
{ACAD_REACTORS
330
1A
102
}
330
1A
100
AcDbPlotSettings
  1

  2
\\CERAMICAS_GALA\PRT_BU_OT_01.ZPRINTERS.BURGOS
  4

  6

 40
0.0
 41
0.0
 42
0.0
 43
0.0
 44
0.0
 45
0.0
 46
0.0
 47
0.0
 48
0.0
 49
0.0
140
0.0
141
0.0
142
1.0
143
1.0
 70
   688
 72
     0
 73
     0
 74
     5
  7
C:\Documents and Settings\G0810\Application Data\Autodesk\AutoCAD 2006\R16.2\esp\Plot Styles\jj.stb
 75
    16
147
1.0
148
0.0
149
0.0
100
AcDbLayout
  1
Presentación1
 70
     1
 71
     1
 10
0.0
 20
0.0
 11
420.0
 21
297.0
 12
0.0
 22
0.0
 32
0.0
 14
1.000000000000000E+20
 24
1.000000000000000E+20
 34
1.000000000000000E+20
 15
-1.000000000000000E+20
 25
-1.000000000000000E+20
 35
-1.000000000000000E+20
146
0.0
 13
0.0
 23
0.0
 33
0.0
 16
1.0
 26
0.0
 36
0.0
 17
0.0
 27
1.0
 37
0.0
 76
     0
330
1F
  0
LAYOUT
  5
2A
102
{ACAD_XDICTIONARY
360
A0F
102
}
102
{ACAD_REACTORS
330
1A
102
}
330
1A
100
AcDbPlotSettings
  1

  2
\\CERAMICAS_GALA\PRT_BU_OT_01.ZPRINTERS.BURGOS
  4

  6

 40
0.0
 41
0.0
 42
0.0
 43
0.0
 44
0.0
 45
0.0
 46
0.0
 47
0.0
 48
0.0
 49
0.0
140
0.0
141
0.0
142
1.0
143
1.0
 70
   688
 72
     0
 73
     0
 74
     5
  7
C:\Documents and Settings\G0810\Application Data\Autodesk\AutoCAD 2006\R16.2\esp\Plot Styles\jj.stb
 75
    16
147
1.0
148
0.0
149
0.0
100
AcDbLayout
  1
Presentación2
 70
     1
 71
     2
 10
0.0
 20
0.0
 11
12.0
 21
9.0
 12
0.0
 22
0.0
 32
0.0
 14
0.0
 24
0.0
 34
0.0
 15
0.0
 25
0.0
 35
0.0
146
0.0
 13
0.0
 23
0.0
 33
0.0
 16
1.0
 26
0.0
 36
0.0
 17
0.0
 27
1.0
 37
0.0
 76
     0
330
27
  0
MLINESTYLE
  5
18
102
{ACAD_REACTORS
330
17
102
}
330
17
100
AcDbMlineStyle
  2
STANDARD
 70
     0
  3

 62
   256
 51
90.0
 52
90.0
 71
     2
 49
0.5
 62
   256
  6
BYLAYER
 49
-0.5
 62
   256
  6
BYLAYER
  0
ACDBPLACEHOLDER
  5
F
102
{ACAD_REACTORS
330
E
102
}
330
E
  0
TABLESTYLE
  5
1E
102
{ACAD_REACTORS
330
1D
102
}
330
1D
100
AcDbTableStyle
  3
Standard
 70
     0
 71
     0
 40
1.5
 41
1.5
280
     0
281
     0
  7
Standard
140
4.5
170
     2
 62
     0
 63
     7
283
     0
274
    -2
284
     1
 64
     0
275
    -2
285
     1
 65
     0
276
    -2
286
     1
 66
     0
277
    -2
287
     1
 67
     0
278
    -2
288
     1
 68
     0
279
    -2
289
     1
 69
     0
  7
Standard
140
6.0
170
     5
 62
     0
 63
     7
283
     0
274
    -2
284
     1
 64
     0
275
    -2
285
     1
 65
     0
276
    -2
286
     1
 66
     0
277
    -2
287
     1
 67
     0
278
    -2
288
     1
 68
     0
279
    -2
289
     1
 69
     0
  7
Standard
140
4.5
170
     5
 62
     0
 63
     7
283
     0
274
    -2
284
     1
 64
     0
275
    -2
285
     1
 65
     0
276
    -2
286
     1
 66
     0
277
    -2
287
     1
 67
     0
278
    -2
288
     1
 68
     0
279
    -2
289
     1
 69
     0
  0
DICTIONARYVAR
  5
112
102
{ACAD_REACTORS
330
111
102
}
330
111
100
DictionaryVariables
280
     0
  1
STANDARD
  0
DICTIONARYVAR
  5
114
102
{ACAD_REACTORS
330
111
102
}
330
111
100
DictionaryVariables
280
     0
  1
2
  0
DICTIONARYVAR
  5
113
102
{ACAD_REACTORS
330
111
102
}
330
111
100
DictionaryVariables
280
     0
  1
1
  0
DICTIONARYVAR
  5
115
102
{ACAD_REACTORS
330
111
102
}
330
111
100
DictionaryVariables
280
     0
  1

  0
XRECORD
  5
9D9
102
{ACAD_REACTORS
330
9D8
102
}
330
9D8
100
AcDbXrecord
280
     1
1070
     0
1070
     0
1070
     0
  0
DICTIONARY
  5
A0D
330
26
100
AcDbDictionary
280
     1
281
     1
  3
ACAD_XREC_ROUNDTRIP
360
A0E
  0
DICTIONARY
  5
A0B
330
22
100
AcDbDictionary
280
     1
281
     1
  3
ACAD_XREC_ROUNDTRIP
360
A0C
  0
DICTIONARY
  5
A0F
330
2A
100
AcDbDictionary
280
     1
281
     1
  3
ACAD_XREC_ROUNDTRIP
360
A10
  0
XRECORD
  5
A0E
102
{ACAD_REACTORS
330
A0D
102
}
330
A0D
100
AcDbXrecord
280
     1
102
SHADEPLOT
 70
     0
102
SHADEPLOTRESLEVEL
 70
     2
102
SHADEPLOTCUSTOMDPI
 70
   300
  0
XRECORD
  5
A0C
102
{ACAD_REACTORS
330
A0B
102
}
330
A0B
100
AcDbXrecord
280
     1
102
SHADEPLOT
 70
     0
102
SHADEPLOTRESLEVEL
 70
     2
102
SHADEPLOTCUSTOMDPI
 70
   300
  0
XRECORD
  5
A10
102
{ACAD_REACTORS
330
A0F
102
}
330
A0F
100
AcDbXrecord
280
     1
102
SHADEPLOT
 70
     0
102
SHADEPLOTRESLEVEL
 70
     2
102
SHADEPLOTCUSTOMDPI
 70
   300
  0
ENDSEC
  0
EOF
