  0
SECTION
  2
HEADER
  9
$ACADVER
  1
AC1018
  9
$ACADMAINTVER
 70
     0
  9
$DWGCODEPAGE
  3
ASCII
  9
$INSBASE
 10
0.0
 20
0.0
 30
0.0
  9
$EXTMIN
 10
1.000000000000000E+20
 20
1.000000000000000E+20
 30
1.000000000000000E+20
  9
$EXTMAX
 10
-1.000000000000000E+20
 20
-1.000000000000000E+20
 30
-1.000000000000000E+20
  9
$LIMMIN
 10
0.0
 20
0.0
  9
$LIMMAX
 10
12.0
 20
9.0
  9
$ORTHOMODE
 70
     0
  9
$REGENMODE
 70
     1
  9
$FILLMODE
 70
     1
  9
$QTEXTMODE
 70
     0
  9
$MIRRTEXT
 70
     1
  9
$LTSCALE
 40
1.0
  9
$ATTMODE
 70
     1
  9
$TEXTSIZE
 40
0.2
  9
$TRACEWID
 40
0.05
  9
$TEXTSTYLE
  7
Standard
  9
$CLAYER
  8
0
  9
$CELTYPE
  6
ByLayer
  9
$CECOLOR
 62
   256
  9
$CELTSCALE
 40
1.0
  9
$DISPSILH
 70
     0
  9
$DIMSCALE
 40
1.0
  9
$DIMASZ
 40
0.18
  9
$DIMEXO
 40
0.0625
  9
$DIMDLI
 40
0.38
  9
$DIMRND
 40
0.0
  9
$DIMDLE
 40
0.0
  9
$DIMEXE
 40
0.18
  9
$DIMTP
 40
0.0
  9
$DIMTM
 40
0.0
  9
$DIMTXT
 40
0.18
  9
$DIMCEN
 40
0.09
  9
$DIMTSZ
 40
0.0
  9
$DIMTOL
 70
     0
  9
$DIMLIM
 70
     0
  9
$DIMTIH
 70
     1
  9
$DIMTOH
 70
     1
  9
$DIMSE1
 70
     0
  9
$DIMSE2
 70
     0
  9
$DIMTAD
 70
     0
  9
$DIMZIN
 70
     0
  9
$DIMBLK
  1

  9
$DIMASO
 70
     1
  9
$DIMSHO
 70
     1
  9
$DIMPOST
  1

  9
$DIMAPOST
  1

  9
$DIMALT
 70
     0
  9
$DIMALTD
 70
     2
  9
$DIMALTF
 40
25.4
  9
$DIMLFAC
 40
1.0
  9
$DIMTOFL
 70
     0
  9
$DIMTVP
 40
0.0
  9
$DIMTIX
 70
     0
  9
$DIMSOXD
 70
     0
  9
$DIMSAH
 70
     0
  9
$DIMBLK1
  1

  9
$DIMBLK2
  1

  9
$DIMSTYLE
  2
Standard
  9
$DIMCLRD
 70
     0
  9
$DIMCLRE
 70
     0
  9
$DIMCLRT
 70
     0
  9
$DIMTFAC
 40
1.0
  9
$DIMGAP
 40
0.09
  9
$DIMJUST
 70
     0
  9
$DIMSD1
 70
     0
  9
$DIMSD2
 70
     0
  9
$DIMTOLJ
 70
     1
  9
$DIMTZIN
 70
     0
  9
$DIMALTZ
 70
     0
  9
$DIMALTTZ
 70
     0
  9
$DIMUPT
 70
     0
  9
$DIMDEC
 70
     4
  9
$DIMTDEC
 70
     4
  9
$DIMALTU
 70
     2
  9
$DIMALTTD
 70
     2
  9
$DIMTXSTY
  7
Standard
  9
$DIMAUNIT
 70
     0
  9
$DIMADEC
 70
     0
  9
$DIMALTRND
 40
0.0
  9
$DIMAZIN
 70
     0
  9
$DIMDSEP
 70
    46
  9
$DIMATFIT
 70
     3
  9
$DIMFRAC
 70
     0
  9
$DIMLDRBLK
  1

  9
$DIMLUNIT
 70
     2
  9
$DIMLWD
 70
    -2
  9
$DIMLWE
 70
    -2
  9
$DIMTMOVE
 70
     0
  9
$LUNITS
 70
     2
  9
$LUPREC
 70
     4
  9
$SKETCHINC
 40
0.1
  9
$FILLETRAD
 40
0.5
  9
$AUNITS
 70
     0
  9
$AUPREC
 70
     0
  9
$MENU
  1
.
  9
$ELEVATION
 40
0.0
  9
$PELEVATION
 40
0.0
  9
$THICKNESS
 40
0.0
  9
$LIMCHECK
 70
     0
  9
$CHAMFERA
 40
0.5
  9
$CHAMFERB
 40
0.5
  9
$CHAMFERC
 40
1.0
  9
$CHAMFERD
 40
0.0
  9
$SKPOLY
 70
     0
  9
$TDCREATE
 40
2455768.668159722
  9
$TDUCREATE
 40
2455768.626493055
  9
$TDUPDATE
 40
2455768.668159734
  9
$TDUUPDATE
 40
2455768.626493067
  9
$TDINDWG
 40
0.0000000116
  9
$TDUSRTIMER
 40
0.0000000116
  9
$USRTIMER
 70
     1
  9
$ANGBASE
 50
0.0
  9
$ANGDIR
 70
     0
  9
$PDMODE
 70
     0
  9
$PDSIZE
 40
0.0
  9
$PLINEWID
 40
0.0
  9
$SPLFRAME
 70
     0
  9
$SPLINETYPE
 70
     6
  9
$SPLINESEGS
 70
     8
  9
$HANDSEED
  5
663
  9
$SURFTAB1
 70
     6
  9
$SURFTAB2
 70
     6
  9
$SURFTYPE
 70
     6
  9
$SURFU
 70
     6
  9
$SURFV
 70
     6
  9
$UCSBASE
  2

  9
$UCSNAME
  2

  9
$UCSORG
 10
0.0
 20
0.0
 30
0.0
  9
$UCSXDIR
 10
1.0
 20
0.0
 30
0.0
  9
$UCSYDIR
 10
0.0
 20
1.0
 30
0.0
  9
$UCSORTHOREF
  2

  9
$UCSORTHOVIEW
 70
     0
  9
$UCSORGTOP
 10
0.0
 20
0.0
 30
0.0
  9
$UCSORGBOTTOM
 10
0.0
 20
0.0
 30
0.0
  9
$UCSORGLEFT
 10
0.0
 20
0.0
 30
0.0
  9
$UCSORGRIGHT
 10
0.0
 20
0.0
 30
0.0
  9
$UCSORGFRONT
 10
0.0
 20
0.0
 30
0.0
  9
$UCSORGBACK
 10
0.0
 20
0.0
 30
0.0
  9
$PUCSBASE
  2

  9
$PUCSNAME
  2

  9
$PUCSORG
 10
0.0
 20
0.0
 30
0.0
  9
$PUCSXDIR
 10
1.0
 20
0.0
 30
0.0
  9
$PUCSYDIR
 10
0.0
 20
1.0
 30
0.0
  9
$PUCSORTHOREF
  2

  9
$PUCSORTHOVIEW
 70
     0
  9
$PUCSORGTOP
 10
0.0
 20
0.0
 30
0.0
  9
$PUCSORGBOTTOM
 10
0.0
 20
0.0
 30
0.0
  9
$PUCSORGLEFT
 10
0.0
 20
0.0
 30
0.0
  9
$PUCSORGRIGHT
 10
0.0
 20
0.0
 30
0.0
  9
$PUCSORGFRONT
 10
0.0
 20
0.0
 30
0.0
  9
$PUCSORGBACK
 10
0.0
 20
0.0
 30
0.0
  9
$USERI1
 70
     0
  9
$USERI2
 70
     0
  9
$USERI3
 70
     0
  9
$USERI4
 70
     0
  9
$USERI5
 70
     0
  9
$USERR1
 40
0.0
  9
$USERR2
 40
0.0
  9
$USERR3
 40
0.0
  9
$USERR4
 40
0.0
  9
$USERR5
 40
0.0
  9
$WORLDVIEW
 70
     1
  9
$SHADEDGE
 70
     3
  9
$SHADEDIF
 70
    70
  9
$TILEMODE
 70
     1
  9
$MAXACTVP
 70
    64
  9
$PINSBASE
 10
0.0
 20
0.0
 30
0.0
  9
$PLIMCHECK
 70
     0
  9
$PEXTMIN
 10
1.000000000000000E+20
 20
1.000000000000000E+20
 30
1.000000000000000E+20
  9
$PEXTMAX
 10
-1.000000000000000E+20
 20
-1.000000000000000E+20
 30
-1.000000000000000E+20
  9
$PLIMMIN
 10
0.0
 20
0.0
  9
$PLIMMAX
 10
12.0
 20
9.0
  9
$UNITMODE
 70
     0
  9
$VISRETAIN
 70
     1
  9
$PLINEGEN
 70
     0
  9
$PSLTSCALE
 70
     1
  9
$TREEDEPTH
 70
  3020
  9
$CMLSTYLE
  2
Standard
  9
$CMLJUST
 70
     0
  9
$CMLSCALE
 40
1.0
  9
$PROXYGRAPHICS
 70
     1
  9
$MEASUREMENT
 70
     0
  9
$CELWEIGHT
370
    -1
  9
$ENDCAPS
280
     0
  9
$JOINSTYLE
280
     0
  9
$LWDISPLAY
290
     1
  9
$INSUNITS
 70
     1
  9
$HYPERLINKBASE
  1

  9
$STYLESHEET
  1

  9
$XEDIT
290
     1
  9
$CEPSNTYPE
380
     0
  9
$PSTYLEMODE
290
     1
  9
$FINGERPRINTGUID
  2
{F1F12147-8103-722E-A998-3DBAEAE322C1}
  9
$VERSIONGUID
  2
{FAEB1C32-E019-11D5-929B-00C0DF256EC4}
  9
$EXTNAMES
290
     1
  9
$PSVPSCALE
 40
0.0
  9
$OLESTARTUP
290
     0
  9
$SORTENTS
280
   127
  9
$INDEXCTL
280
     0
  9
$HIDETEXT
280
     1
  9
$XCLIPFRAME
290
     0
  9
$HALOGAP
280
     0
  9
$OBSCOLOR
 70
   257
  9
$OBSLTYPE
280
     0
  9
$INTERSECTIONDISPLAY
280
     0
  9
$INTERSECTIONCOLOR
 70
   257
  9
$DIMASSOC
280
     2
  9
$PROJECTNAME
  1

  0
ENDSEC
  0
SECTION
  2
CLASSES
  0
CLASS
  1
ACDBDICTIONARYWDFLT
  2
AcDbDictionaryWithDefault
  3
ObjectDBX Classes
 90
        0
 91
        3
280
     0
281
     0
  0
CLASS
  1
VISUALSTYLE
  2
AcDbVisualStyle
  3
ObjectDBX Classes
 90
     4095
 91
        3
280
     0
281
     0
  0
ENDSEC
  0
SECTION
  2
TABLES
  0
TABLE
  2
VPORT
  5
8
330
0
100
AcDbSymbolTable
 70
     1
  0
VPORT
  5
29
330
8
100
AcDbSymbolTableRecord
100
AcDbViewportTableRecord
  2
*Active
 70
     0
 10
0.0
 20
0.0
 11
1.0
 21
1.0
 12
0.0
 22
0.0
 13
0.0
 23
0.0
 14
0.5
 24
0.5
 15
0.5
 25
0.5
 16
0.0
 26
0.0
 36
1.0
 17
10.50008091239277
 27
14.8500163709943
 37
0.0
 40
29.70003274198861
 41
0.70707537621992
 42
50.0
 43
0.0
 44
0.0
 50
0.0
 51
0.0
 71
     0
 72
   100
 73
     1
 74
     3
 75
     0
 76
     0
 77
     0
 78
     0
281
     0
 65
     1
110
0.0
120
0.0
130
0.0
111
1.0
121
0.0
131
0.0
112
0.0
122
1.0
132
0.0
 79
     0
146
0.0
  0
ENDTAB
  0
TABLE
  2
LTYPE
  5
5
330
0
100
AcDbSymbolTable
 70
     3
  0
LTYPE
  5
14
330
5
100
AcDbSymbolTableRecord
100
AcDbLinetypeTableRecord
  2
ByBlock
 70
     0
  3

 72
    65
 73
     0
 40
0.0
  0
LTYPE
  5
15
330
5
100
AcDbSymbolTableRecord
100
AcDbLinetypeTableRecord
  2
ByLayer
 70
     0
  3

 72
    65
 73
     0
 40
0.0
  0
LTYPE
  5
16
330
5
100
AcDbSymbolTableRecord
100
AcDbLinetypeTableRecord
  2
Continuous
 70
     0
  3
Solid line
 72
    65
 73
     0
 40
0.0
  0
LTYPE
  5
27E
330
5
100
AcDbSymbolTableRecord
100
AcDbLinetypeTableRecord
  2
AI-Linetype-1
 70
     0
  3
Adobe Illustrator Linetype No. 1
 72
    65
 73
     2
 40
0.1429238588367934
 49
0.0952825725578622
 74
     0
 49
-0.0476412862789311
 74
     0
  0
LTYPE
  5
48B
330
5
100
AcDbSymbolTableRecord
100
AcDbLinetypeTableRecord
  2
AI-Linetype-2
 70
     0
  3
Adobe Illustrator Linetype No. 2
 72
    65
 73
     2
 40
0.1429238588367934
 49
0.0952825725578622
 74
     0
 49
-0.0476412862789311
 74
     0
  0
ENDTAB
  0
TABLE
  2
LAYER
  5
2
330
0
100
AcDbSymbolTable
 70
     6
  0
LAYER
  5
10
330
2
100
AcDbSymbolTableRecord
100
AcDbLayerTableRecord
  2
0
 70
     0
 62
     7
  6
Continuous
370
    -3
390
F
  0
LAYER
  5
3B
330
2
100
AcDbSymbolTableRecord
100
AcDbLayerTableRecord
  2
COTAS
 70
     0
 62
     7
  6
Continuous
370
    -3
390
F
  0
LAYER
  5
265
330
2
100
AcDbSymbolTableRecord
100
AcDbLayerTableRecord
  2
010
 70
     0
 62
     7
  6
Continuous
370
    -3
390
F
  0
LAYER
  5
491
330
2
100
AcDbSymbolTableRecord
100
AcDbLayerTableRecord
  2
018
 70
     0
 62
     7
  6
Continuous
370
    -3
390
F
  0
LAYER
  5
59C
330
2
100
AcDbSymbolTableRecord
100
AcDbLayerTableRecord
  2
025
 70
     0
 62
     7
  6
Continuous
370
    -3
390
F
  0
LAYER
  5
5AC
330
2
100
AcDbSymbolTableRecord
100
AcDbLayerTableRecord
  2
035
 70
     0
 62
     7
  6
Continuous
370
    -3
390
F
  0
ENDTAB
  0
TABLE
  2
STYLE
  5
3
330
0
100
AcDbSymbolTable
 70
     1
  0
STYLE
  5
11
330
3
100
AcDbSymbolTableRecord
100
AcDbTextStyleTableRecord
  2
Standard
 70
     0
 40
0.0
 41
1.0
 50
0.0
 71
     0
 42
0.2
  3
txt
  4

  0
ENDTAB
  0
TABLE
  2
VIEW
  5
6
330
0
100
AcDbSymbolTable
 70
     0
  0
ENDTAB
  0
TABLE
  2
UCS
  5
7
330
0
100
AcDbSymbolTable
 70
     0
  0
ENDTAB
  0
TABLE
  2
APPID
  5
9
330
0
100
AcDbSymbolTable
 70
     1
  0
APPID
  5
12
330
9
100
AcDbSymbolTableRecord
100
AcDbRegAppTableRecord
  2
ACAD
 70
     0
  0
ENDTAB
  0
TABLE
  2
DIMSTYLE
  5
A
330
0
100
AcDbSymbolTable
 70
     1
100
AcDbDimStyleTable
  0
DIMSTYLE
105
27
330
A
100
AcDbSymbolTableRecord
100
AcDbDimStyleTableRecord
  2
Standard
 70
     0
340
11
  0
ENDTAB
  0
TABLE
  2
BLOCK_RECORD
  5
1
330
0
100
AcDbSymbolTable
 70
   148
  0
BLOCK_RECORD
  5
1F
330
1
100
AcDbSymbolTableRecord
100
AcDbBlockTableRecord
  2
*Model_Space
340
22
  0
BLOCK_RECORD
  5
1B
330
1
100
AcDbSymbolTableRecord
100
AcDbBlockTableRecord
  2
*Paper_Space
340
1E
  0
BLOCK_RECORD
  5
23
330
1
100
AcDbSymbolTableRecord
100
AcDbBlockTableRecord
  2
*Paper_Space0
340
26
  0
BLOCK_RECORD
  5
3C
330
1
100
AcDbSymbolTableRecord
100
AcDbBlockTableRecord
  2
block 2
340
0
102
{BLKREFS
331
3D
102
}
  0
BLOCK_RECORD
  5
40
330
1
100
AcDbSymbolTableRecord
100
AcDbBlockTableRecord
  2
block 3
340
0
102
{BLKREFS
331
41
102
}
  0
BLOCK_RECORD
  5
48
330
1
100
AcDbSymbolTableRecord
100
AcDbBlockTableRecord
  2
block 4
340
0
102
{BLKREFS
331
49
102
}
  0
BLOCK_RECORD
  5
50
330
1
100
AcDbSymbolTableRecord
100
AcDbBlockTableRecord
  2
block 5
340
0
102
{BLKREFS
331
51
102
}
  0
BLOCK_RECORD
  5
58
330
1
100
AcDbSymbolTableRecord
100
AcDbBlockTableRecord
  2
block 6
340
0
102
{BLKREFS
331
59
102
}
  0
BLOCK_RECORD
  5
63
330
1
100
AcDbSymbolTableRecord
100
AcDbBlockTableRecord
  2
block 7
340
0
102
{BLKREFS
331
64
102
}
  0
BLOCK_RECORD
  5
6E
330
1
100
AcDbSymbolTableRecord
100
AcDbBlockTableRecord
  2
block 8
340
0
102
{BLKREFS
331
6F
102
}
  0
BLOCK_RECORD
  5
73
330
1
100
AcDbSymbolTableRecord
100
AcDbBlockTableRecord
  2
block 9
340
0
102
{BLKREFS
331
74
102
}
  0
BLOCK_RECORD
  5
7B
330
1
100
AcDbSymbolTableRecord
100
AcDbBlockTableRecord
  2
block 10
340
0
102
{BLKREFS
331
7C
102
}
  0
BLOCK_RECORD
  5
83
330
1
100
AcDbSymbolTableRecord
100
AcDbBlockTableRecord
  2
block 11
340
0
102
{BLKREFS
331
84
102
}
  0
BLOCK_RECORD
  5
8B
330
1
100
AcDbSymbolTableRecord
100
AcDbBlockTableRecord
  2
block 12
340
0
102
{BLKREFS
331
8C
102
}
  0
BLOCK_RECORD
  5
8F
330
1
100
AcDbSymbolTableRecord
100
AcDbBlockTableRecord
  2
block 13
340
0
102
{BLKREFS
331
90
102
}
  0
BLOCK_RECORD
  5
97
330
1
100
AcDbSymbolTableRecord
100
AcDbBlockTableRecord
  2
block 14
340
0
102
{BLKREFS
331
98
102
}
  0
BLOCK_RECORD
  5
9F
330
1
100
AcDbSymbolTableRecord
100
AcDbBlockTableRecord
  2
block 15
340
0
102
{BLKREFS
331
A0
102
}
  0
BLOCK_RECORD
  5
A7
330
1
100
AcDbSymbolTableRecord
100
AcDbBlockTableRecord
  2
block 16
340
0
102
{BLKREFS
331
A8
102
}
  0
BLOCK_RECORD
  5
B2
330
1
100
AcDbSymbolTableRecord
100
AcDbBlockTableRecord
  2
block 17
340
0
102
{BLKREFS
331
B3
102
}
  0
BLOCK_RECORD
  5
BD
330
1
100
AcDbSymbolTableRecord
100
AcDbBlockTableRecord
  2
block 18
340
0
102
{BLKREFS
331
BE
102
}
  0
BLOCK_RECORD
  5
C2
330
1
100
AcDbSymbolTableRecord
100
AcDbBlockTableRecord
  2
block 19
340
0
102
{BLKREFS
331
C3
102
}
  0
BLOCK_RECORD
  5
CA
330
1
100
AcDbSymbolTableRecord
100
AcDbBlockTableRecord
  2
block 20
340
0
102
{BLKREFS
331
CB
102
}
  0
BLOCK_RECORD
  5
D2
330
1
100
AcDbSymbolTableRecord
100
AcDbBlockTableRecord
  2
block 21
340
0
102
{BLKREFS
331
D3
102
}
  0
BLOCK_RECORD
  5
DA
330
1
100
AcDbSymbolTableRecord
100
AcDbBlockTableRecord
  2
block 22
340
0
102
{BLKREFS
331
DB
102
}
  0
BLOCK_RECORD
  5
DE
330
1
100
AcDbSymbolTableRecord
100
AcDbBlockTableRecord
  2
block 23
340
0
102
{BLKREFS
331
DF
102
}
  0
BLOCK_RECORD
  5
E6
330
1
100
AcDbSymbolTableRecord
100
AcDbBlockTableRecord
  2
block 24
340
0
102
{BLKREFS
331
E7
102
}
  0
BLOCK_RECORD
  5
EE
330
1
100
AcDbSymbolTableRecord
100
AcDbBlockTableRecord
  2
block 25
340
0
102
{BLKREFS
331
EF
102
}
  0
BLOCK_RECORD
  5
F6
330
1
100
AcDbSymbolTableRecord
100
AcDbBlockTableRecord
  2
block 26
340
0
102
{BLKREFS
331
F7
102
}
  0
BLOCK_RECORD
  5
101
330
1
100
AcDbSymbolTableRecord
100
AcDbBlockTableRecord
  2
block 27
340
0
102
{BLKREFS
331
102
102
}
  0
BLOCK_RECORD
  5
10C
330
1
100
AcDbSymbolTableRecord
100
AcDbBlockTableRecord
  2
block 28
340
0
102
{BLKREFS
331
10D
102
}
  0
BLOCK_RECORD
  5
111
330
1
100
AcDbSymbolTableRecord
100
AcDbBlockTableRecord
  2
block 29
340
0
102
{BLKREFS
331
112
102
}
  0
BLOCK_RECORD
  5
119
330
1
100
AcDbSymbolTableRecord
100
AcDbBlockTableRecord
  2
block 30
340
0
102
{BLKREFS
331
11A
102
}
  0
BLOCK_RECORD
  5
121
330
1
100
AcDbSymbolTableRecord
100
AcDbBlockTableRecord
  2
block 31
340
0
102
{BLKREFS
331
122
102
}
  0
BLOCK_RECORD
  5
129
330
1
100
AcDbSymbolTableRecord
100
AcDbBlockTableRecord
  2
block 32
340
0
102
{BLKREFS
331
12A
102
}
  0
BLOCK_RECORD
  5
12D
330
1
100
AcDbSymbolTableRecord
100
AcDbBlockTableRecord
  2
block 33
340
0
102
{BLKREFS
331
12E
102
}
  0
BLOCK_RECORD
  5
135
330
1
100
AcDbSymbolTableRecord
100
AcDbBlockTableRecord
  2
block 34
340
0
102
{BLKREFS
331
136
102
}
  0
BLOCK_RECORD
  5
13D
330
1
100
AcDbSymbolTableRecord
100
AcDbBlockTableRecord
  2
block 35
340
0
102
{BLKREFS
331
13E
102
}
  0
BLOCK_RECORD
  5
145
330
1
100
AcDbSymbolTableRecord
100
AcDbBlockTableRecord
  2
block 36
340
0
102
{BLKREFS
331
146
102
}
  0
BLOCK_RECORD
  5
150
330
1
100
AcDbSymbolTableRecord
100
AcDbBlockTableRecord
  2
block 37
340
0
102
{BLKREFS
331
151
102
}
  0
BLOCK_RECORD
  5
15B
330
1
100
AcDbSymbolTableRecord
100
AcDbBlockTableRecord
  2
block 38
340
0
102
{BLKREFS
331
15C
102
}
  0
BLOCK_RECORD
  5
160
330
1
100
AcDbSymbolTableRecord
100
AcDbBlockTableRecord
  2
block 39
340
0
102
{BLKREFS
331
161
102
}
  0
BLOCK_RECORD
  5
168
330
1
100
AcDbSymbolTableRecord
100
AcDbBlockTableRecord
  2
block 40
340
0
102
{BLKREFS
331
169
102
}
  0
BLOCK_RECORD
  5
170
330
1
100
AcDbSymbolTableRecord
100
AcDbBlockTableRecord
  2
block 41
340
0
102
{BLKREFS
331
171
102
}
  0
BLOCK_RECORD
  5
178
330
1
100
AcDbSymbolTableRecord
100
AcDbBlockTableRecord
  2
block 42
340
0
102
{BLKREFS
331
179
102
}
  0
BLOCK_RECORD
  5
17C
330
1
100
AcDbSymbolTableRecord
100
AcDbBlockTableRecord
  2
block 43
340
0
102
{BLKREFS
331
17D
102
}
  0
BLOCK_RECORD
  5
184
330
1
100
AcDbSymbolTableRecord
100
AcDbBlockTableRecord
  2
block 44
340
0
102
{BLKREFS
331
185
102
}
  0
BLOCK_RECORD
  5
18C
330
1
100
AcDbSymbolTableRecord
100
AcDbBlockTableRecord
  2
block 45
340
0
102
{BLKREFS
331
18D
102
}
  0
BLOCK_RECORD
  5
194
330
1
100
AcDbSymbolTableRecord
100
AcDbBlockTableRecord
  2
block 46
340
0
102
{BLKREFS
331
195
102
}
  0
BLOCK_RECORD
  5
19F
330
1
100
AcDbSymbolTableRecord
100
AcDbBlockTableRecord
  2
block 47
340
0
102
{BLKREFS
331
1A0
102
}
  0
BLOCK_RECORD
  5
1AA
330
1
100
AcDbSymbolTableRecord
100
AcDbBlockTableRecord
  2
block 48
340
0
102
{BLKREFS
331
1AB
102
}
  0
BLOCK_RECORD
  5
1AF
330
1
100
AcDbSymbolTableRecord
100
AcDbBlockTableRecord
  2
block 49
340
0
102
{BLKREFS
331
1B0
102
}
  0
BLOCK_RECORD
  5
1B7
330
1
100
AcDbSymbolTableRecord
100
AcDbBlockTableRecord
  2
block 50
340
0
102
{BLKREFS
331
1B8
102
}
  0
BLOCK_RECORD
  5
1BF
330
1
100
AcDbSymbolTableRecord
100
AcDbBlockTableRecord
  2
block 51
340
0
102
{BLKREFS
331
1C0
102
}
  0
BLOCK_RECORD
  5
1C7
330
1
100
AcDbSymbolTableRecord
100
AcDbBlockTableRecord
  2
block 52
340
0
102
{BLKREFS
331
1C8
102
}
  0
BLOCK_RECORD
  5
1CB
330
1
100
AcDbSymbolTableRecord
100
AcDbBlockTableRecord
  2
block 53
340
0
102
{BLKREFS
331
1CC
102
}
  0
BLOCK_RECORD
  5
1D3
330
1
100
AcDbSymbolTableRecord
100
AcDbBlockTableRecord
  2
block 54
340
0
102
{BLKREFS
331
1D4
102
}
  0
BLOCK_RECORD
  5
1DB
330
1
100
AcDbSymbolTableRecord
100
AcDbBlockTableRecord
  2
block 55
340
0
102
{BLKREFS
331
1DC
102
}
  0
BLOCK_RECORD
  5
1E3
330
1
100
AcDbSymbolTableRecord
100
AcDbBlockTableRecord
  2
block 56
340
0
102
{BLKREFS
331
1E4
102
}
  0
BLOCK_RECORD
  5
1EE
330
1
100
AcDbSymbolTableRecord
100
AcDbBlockTableRecord
  2
block 57
340
0
102
{BLKREFS
331
1EF
102
}
  0
BLOCK_RECORD
  5
1F9
330
1
100
AcDbSymbolTableRecord
100
AcDbBlockTableRecord
  2
block 58
340
0
102
{BLKREFS
331
1FA
102
}
  0
BLOCK_RECORD
  5
1FE
330
1
100
AcDbSymbolTableRecord
100
AcDbBlockTableRecord
  2
block 59
340
0
102
{BLKREFS
331
1FF
102
}
  0
BLOCK_RECORD
  5
206
330
1
100
AcDbSymbolTableRecord
100
AcDbBlockTableRecord
  2
block 60
340
0
102
{BLKREFS
331
207
102
}
  0
BLOCK_RECORD
  5
20E
330
1
100
AcDbSymbolTableRecord
100
AcDbBlockTableRecord
  2
block 61
340
0
102
{BLKREFS
331
20F
102
}
  0
BLOCK_RECORD
  5
216
330
1
100
AcDbSymbolTableRecord
100
AcDbBlockTableRecord
  2
block 62
340
0
102
{BLKREFS
331
217
102
}
  0
BLOCK_RECORD
  5
21A
330
1
100
AcDbSymbolTableRecord
100
AcDbBlockTableRecord
  2
block 63
340
0
102
{BLKREFS
331
21B
102
}
  0
BLOCK_RECORD
  5
222
330
1
100
AcDbSymbolTableRecord
100
AcDbBlockTableRecord
  2
block 64
340
0
102
{BLKREFS
331
223
102
}
  0
BLOCK_RECORD
  5
22A
330
1
100
AcDbSymbolTableRecord
100
AcDbBlockTableRecord
  2
block 65
340
0
102
{BLKREFS
331
22B
102
}
  0
BLOCK_RECORD
  5
232
330
1
100
AcDbSymbolTableRecord
100
AcDbBlockTableRecord
  2
block 66
340
0
102
{BLKREFS
331
233
102
}
  0
BLOCK_RECORD
  5
23D
330
1
100
AcDbSymbolTableRecord
100
AcDbBlockTableRecord
  2
block 67
340
0
102
{BLKREFS
331
23E
102
}
  0
BLOCK_RECORD
  5
248
330
1
100
AcDbSymbolTableRecord
100
AcDbBlockTableRecord
  2
block 68
340
0
102
{BLKREFS
331
249
102
}
  0
BLOCK_RECORD
  5
24D
330
1
100
AcDbSymbolTableRecord
100
AcDbBlockTableRecord
  2
block 69
340
0
102
{BLKREFS
331
24E
102
}
  0
BLOCK_RECORD
  5
255
330
1
100
AcDbSymbolTableRecord
100
AcDbBlockTableRecord
  2
block 70
340
0
102
{BLKREFS
331
256
102
}
  0
BLOCK_RECORD
  5
25D
330
1
100
AcDbSymbolTableRecord
100
AcDbBlockTableRecord
  2
block 71
340
0
102
{BLKREFS
331
25E
102
}
  0
BLOCK_RECORD
  5
266
330
1
100
AcDbSymbolTableRecord
100
AcDbBlockTableRecord
  2
block 72
340
0
102
{BLKREFS
331
267
102
}
  0
BLOCK_RECORD
  5
26E
330
1
100
AcDbSymbolTableRecord
100
AcDbBlockTableRecord
  2
block 73
340
0
102
{BLKREFS
331
26F
102
}
  0
BLOCK_RECORD
  5
276
330
1
100
AcDbSymbolTableRecord
100
AcDbBlockTableRecord
  2
block 74
340
0
102
{BLKREFS
331
277
102
}
  0
BLOCK_RECORD
  5
27F
330
1
100
AcDbSymbolTableRecord
100
AcDbBlockTableRecord
  2
block 75
340
0
102
{BLKREFS
331
280
102
}
  0
BLOCK_RECORD
  5
486
330
1
100
AcDbSymbolTableRecord
100
AcDbBlockTableRecord
  2
block 76
340
0
102
{BLKREFS
331
487
102
}
  0
BLOCK_RECORD
  5
48C
330
1
100
AcDbSymbolTableRecord
100
AcDbBlockTableRecord
  2
block 77
340
0
102
{BLKREFS
331
48D
102
}
  0
BLOCK_RECORD
  5
492
330
1
100
AcDbSymbolTableRecord
100
AcDbBlockTableRecord
  2
block 78
340
0
102
{BLKREFS
331
493
102
}
  0
BLOCK_RECORD
  5
497
330
1
100
AcDbSymbolTableRecord
100
AcDbBlockTableRecord
  2
block 79
340
0
102
{BLKREFS
331
498
102
}
  0
BLOCK_RECORD
  5
49C
330
1
100
AcDbSymbolTableRecord
100
AcDbBlockTableRecord
  2
block 80
340
0
102
{BLKREFS
331
49D
102
}
  0
BLOCK_RECORD
  5
4A1
330
1
100
AcDbSymbolTableRecord
100
AcDbBlockTableRecord
  2
block 81
340
0
102
{BLKREFS
331
4A2
102
}
  0
BLOCK_RECORD
  5
4A6
330
1
100
AcDbSymbolTableRecord
100
AcDbBlockTableRecord
  2
block 82
340
0
102
{BLKREFS
331
4A7
102
}
  0
BLOCK_RECORD
  5
4AE
330
1
100
AcDbSymbolTableRecord
100
AcDbBlockTableRecord
  2
block 83
340
0
102
{BLKREFS
331
4AF
102
}
  0
BLOCK_RECORD
  5
4B6
330
1
100
AcDbSymbolTableRecord
100
AcDbBlockTableRecord
  2
block 84
340
0
102
{BLKREFS
331
4B7
102
}
  0
BLOCK_RECORD
  5
4BB
330
1
100
AcDbSymbolTableRecord
100
AcDbBlockTableRecord
  2
block 85
340
0
102
{BLKREFS
331
4BC
102
}
  0
BLOCK_RECORD
  5
4C0
330
1
100
AcDbSymbolTableRecord
100
AcDbBlockTableRecord
  2
block 86
340
0
102
{BLKREFS
331
4C1
102
}
  0
BLOCK_RECORD
  5
4C5
330
1
100
AcDbSymbolTableRecord
100
AcDbBlockTableRecord
  2
block 87
340
0
102
{BLKREFS
331
4C6
102
}
  0
BLOCK_RECORD
  5
4CA
330
1
100
AcDbSymbolTableRecord
100
AcDbBlockTableRecord
  2
block 88
340
0
102
{BLKREFS
331
4CB
102
}
  0
BLOCK_RECORD
  5
4CF
330
1
100
AcDbSymbolTableRecord
100
AcDbBlockTableRecord
  2
block 89
340
0
102
{BLKREFS
331
4D0
102
}
  0
BLOCK_RECORD
  5
4D7
330
1
100
AcDbSymbolTableRecord
100
AcDbBlockTableRecord
  2
block 90
340
0
102
{BLKREFS
331
4D8
102
}
  0
BLOCK_RECORD
  5
4DC
330
1
100
AcDbSymbolTableRecord
100
AcDbBlockTableRecord
  2
block 91
340
0
102
{BLKREFS
331
4DD
102
}
  0
BLOCK_RECORD
  5
4E1
330
1
100
AcDbSymbolTableRecord
100
AcDbBlockTableRecord
  2
block 92
340
0
102
{BLKREFS
331
4E2
102
}
  0
BLOCK_RECORD
  5
4E6
330
1
100
AcDbSymbolTableRecord
100
AcDbBlockTableRecord
  2
block 93
340
0
102
{BLKREFS
331
4E7
102
}
  0
BLOCK_RECORD
  5
4EE
330
1
100
AcDbSymbolTableRecord
100
AcDbBlockTableRecord
  2
block 94
340
0
102
{BLKREFS
331
4EF
102
}
  0
BLOCK_RECORD
  5
4F3
330
1
100
AcDbSymbolTableRecord
100
AcDbBlockTableRecord
  2
block 95
340
0
102
{BLKREFS
331
4F4
102
}
  0
BLOCK_RECORD
  5
4F8
330
1
100
AcDbSymbolTableRecord
100
AcDbBlockTableRecord
  2
block 96
340
0
102
{BLKREFS
331
4F9
102
}
  0
BLOCK_RECORD
  5
500
330
1
100
AcDbSymbolTableRecord
100
AcDbBlockTableRecord
  2
block 97
340
0
102
{BLKREFS
331
501
102
}
  0
BLOCK_RECORD
  5
508
330
1
100
AcDbSymbolTableRecord
100
AcDbBlockTableRecord
  2
block 98
340
0
102
{BLKREFS
331
509
102
}
  0
BLOCK_RECORD
  5
510
330
1
100
AcDbSymbolTableRecord
100
AcDbBlockTableRecord
  2
block 99
340
0
102
{BLKREFS
331
511
102
}
  0
BLOCK_RECORD
  5
518
330
1
100
AcDbSymbolTableRecord
100
AcDbBlockTableRecord
  2
block 100
340
0
102
{BLKREFS
331
519
102
}
  0
BLOCK_RECORD
  5
520
330
1
100
AcDbSymbolTableRecord
100
AcDbBlockTableRecord
  2
block 101
340
0
102
{BLKREFS
331
521
102
}
  0
BLOCK_RECORD
  5
528
330
1
100
AcDbSymbolTableRecord
100
AcDbBlockTableRecord
  2
block 102
340
0
102
{BLKREFS
331
529
102
}
  0
BLOCK_RECORD
  5
530
330
1
100
AcDbSymbolTableRecord
100
AcDbBlockTableRecord
  2
block 103
340
0
102
{BLKREFS
331
531
102
}
  0
BLOCK_RECORD
  5
538
330
1
100
AcDbSymbolTableRecord
100
AcDbBlockTableRecord
  2
block 104
340
0
102
{BLKREFS
331
539
102
}
  0
BLOCK_RECORD
  5
540
330
1
100
AcDbSymbolTableRecord
100
AcDbBlockTableRecord
  2
block 105
340
0
102
{BLKREFS
331
541
102
}
  0
BLOCK_RECORD
  5
548
330
1
100
AcDbSymbolTableRecord
100
AcDbBlockTableRecord
  2
block 106
340
0
102
{BLKREFS
331
549
102
}
  0
BLOCK_RECORD
  5
550
330
1
100
AcDbSymbolTableRecord
100
AcDbBlockTableRecord
  2
block 107
340
0
102
{BLKREFS
331
551
102
}
  0
BLOCK_RECORD
  5
558
330
1
100
AcDbSymbolTableRecord
100
AcDbBlockTableRecord
  2
block 108
340
0
102
{BLKREFS
331
559
102
}
  0
BLOCK_RECORD
  5
560
330
1
100
AcDbSymbolTableRecord
100
AcDbBlockTableRecord
  2
block 109
340
0
102
{BLKREFS
331
561
102
}
  0
BLOCK_RECORD
  5
568
330
1
100
AcDbSymbolTableRecord
100
AcDbBlockTableRecord
  2
block 110
340
0
102
{BLKREFS
331
569
102
}
  0
BLOCK_RECORD
  5
570
330
1
100
AcDbSymbolTableRecord
100
AcDbBlockTableRecord
  2
block 111
340
0
102
{BLKREFS
331
571
102
}
  0
BLOCK_RECORD
  5
575
330
1
100
AcDbSymbolTableRecord
100
AcDbBlockTableRecord
  2
block 112
340
0
102
{BLKREFS
331
576
102
}
  0
BLOCK_RECORD
  5
57A
330
1
100
AcDbSymbolTableRecord
100
AcDbBlockTableRecord
  2
block 113
340
0
102
{BLKREFS
331
57B
102
}
  0
BLOCK_RECORD
  5
57F
330
1
100
AcDbSymbolTableRecord
100
AcDbBlockTableRecord
  2
block 114
340
0
102
{BLKREFS
331
580
102
}
  0
BLOCK_RECORD
  5
584
330
1
100
AcDbSymbolTableRecord
100
AcDbBlockTableRecord
  2
block 115
340
0
102
{BLKREFS
331
585
102
}
  0
BLOCK_RECORD
  5
58C
330
1
100
AcDbSymbolTableRecord
100
AcDbBlockTableRecord
  2
block 116
340
0
102
{BLKREFS
331
58D
102
}
  0
BLOCK_RECORD
  5
594
330
1
100
AcDbSymbolTableRecord
100
AcDbBlockTableRecord
  2
block 117
340
0
102
{BLKREFS
331
595
102
}
  0
BLOCK_RECORD
  5
59D
330
1
100
AcDbSymbolTableRecord
100
AcDbBlockTableRecord
  2
block 118
340
0
102
{BLKREFS
331
59E
102
}
  0
BLOCK_RECORD
  5
5A2
330
1
100
AcDbSymbolTableRecord
100
AcDbBlockTableRecord
  2
block 119
340
0
102
{BLKREFS
331
5A3
102
}
  0
BLOCK_RECORD
  5
5A7
330
1
100
AcDbSymbolTableRecord
100
AcDbBlockTableRecord
  2
block 120
340
0
102
{BLKREFS
331
5A8
102
}
  0
BLOCK_RECORD
  5
5AD
330
1
100
AcDbSymbolTableRecord
100
AcDbBlockTableRecord
  2
block 121
340
0
102
{BLKREFS
331
5AE
102
}
  0
BLOCK_RECORD
  5
5B2
330
1
100
AcDbSymbolTableRecord
100
AcDbBlockTableRecord
  2
block 122
340
0
102
{BLKREFS
331
5B3
102
}
  0
BLOCK_RECORD
  5
5B7
330
1
100
AcDbSymbolTableRecord
100
AcDbBlockTableRecord
  2
block 123
340
0
102
{BLKREFS
331
5B8
102
}
  0
BLOCK_RECORD
  5
5BF
330
1
100
AcDbSymbolTableRecord
100
AcDbBlockTableRecord
  2
block 124
340
0
102
{BLKREFS
331
5C0
102
}
  0
BLOCK_RECORD
  5
5C7
330
1
100
AcDbSymbolTableRecord
100
AcDbBlockTableRecord
  2
block 125
340
0
102
{BLKREFS
331
5C8
102
}
  0
BLOCK_RECORD
  5
5CC
330
1
100
AcDbSymbolTableRecord
100
AcDbBlockTableRecord
  2
block 126
340
0
102
{BLKREFS
331
5CD
102
}
  0
BLOCK_RECORD
  5
5D1
330
1
100
AcDbSymbolTableRecord
100
AcDbBlockTableRecord
  2
block 127
340
0
102
{BLKREFS
331
5D2
102
}
  0
BLOCK_RECORD
  5
5D6
330
1
100
AcDbSymbolTableRecord
100
AcDbBlockTableRecord
  2
block 128
340
0
102
{BLKREFS
331
5D7
102
}
  0
BLOCK_RECORD
  5
5DB
330
1
100
AcDbSymbolTableRecord
100
AcDbBlockTableRecord
  2
block 129
340
0
102
{BLKREFS
331
5DC
102
}
  0
BLOCK_RECORD
  5
5E0
330
1
100
AcDbSymbolTableRecord
100
AcDbBlockTableRecord
  2
block 130
340
0
102
{BLKREFS
331
5E1
102
}
  0
BLOCK_RECORD
  5
5E5
330
1
100
AcDbSymbolTableRecord
100
AcDbBlockTableRecord
  2
block 131
340
0
102
{BLKREFS
331
5E6
102
}
  0
BLOCK_RECORD
  5
5EA
330
1
100
AcDbSymbolTableRecord
100
AcDbBlockTableRecord
  2
block 132
340
0
102
{BLKREFS
331
5EB
102
}
  0
BLOCK_RECORD
  5
5F2
330
1
100
AcDbSymbolTableRecord
100
AcDbBlockTableRecord
  2
block 133
340
0
102
{BLKREFS
331
5F3
102
}
  0
BLOCK_RECORD
  5
5FA
330
1
100
AcDbSymbolTableRecord
100
AcDbBlockTableRecord
  2
block 134
340
0
102
{BLKREFS
331
5FB
102
}
  0
BLOCK_RECORD
  5
5FF
330
1
100
AcDbSymbolTableRecord
100
AcDbBlockTableRecord
  2
block 135
340
0
102
{BLKREFS
331
600
102
}
  0
BLOCK_RECORD
  5
604
330
1
100
AcDbSymbolTableRecord
100
AcDbBlockTableRecord
  2
block 136
340
0
102
{BLKREFS
331
605
102
}
  0
BLOCK_RECORD
  5
609
330
1
100
AcDbSymbolTableRecord
100
AcDbBlockTableRecord
  2
block 137
340
0
102
{BLKREFS
331
60A
102
}
  0
BLOCK_RECORD
  5
60E
330
1
100
AcDbSymbolTableRecord
100
AcDbBlockTableRecord
  2
block 138
340
0
102
{BLKREFS
331
60F
102
}
  0
BLOCK_RECORD
  5
613
330
1
100
AcDbSymbolTableRecord
100
AcDbBlockTableRecord
  2
block 139
340
0
102
{BLKREFS
331
614
102
}
  0
BLOCK_RECORD
  5
617
330
1
100
AcDbSymbolTableRecord
100
AcDbBlockTableRecord
  2
block 140
340
0
102
{BLKREFS
331
618
102
}
  0
BLOCK_RECORD
  5
61F
330
1
100
AcDbSymbolTableRecord
100
AcDbBlockTableRecord
  2
block 141
340
0
102
{BLKREFS
331
620
102
}
  0
BLOCK_RECORD
  5
627
330
1
100
AcDbSymbolTableRecord
100
AcDbBlockTableRecord
  2
block 142
340
0
102
{BLKREFS
331
628
102
}
  0
BLOCK_RECORD
  5
62F
330
1
100
AcDbSymbolTableRecord
100
AcDbBlockTableRecord
  2
block 143
340
0
102
{BLKREFS
331
630
102
}
  0
BLOCK_RECORD
  5
63A
330
1
100
AcDbSymbolTableRecord
100
AcDbBlockTableRecord
  2
block 144
340
0
102
{BLKREFS
331
63B
102
}
  0
BLOCK_RECORD
  5
645
330
1
100
AcDbSymbolTableRecord
100
AcDbBlockTableRecord
  2
block 145
340
0
102
{BLKREFS
331
646
102
}
  0
BLOCK_RECORD
  5
64A
330
1
100
AcDbSymbolTableRecord
100
AcDbBlockTableRecord
  2
block 146
340
0
102
{BLKREFS
331
64B
102
}
  0
BLOCK_RECORD
  5
652
330
1
100
AcDbSymbolTableRecord
100
AcDbBlockTableRecord
  2
block 147
340
0
102
{BLKREFS
331
653
102
}
  0
BLOCK_RECORD
  5
65A
330
1
100
AcDbSymbolTableRecord
100
AcDbBlockTableRecord
  2
block 148
340
0
102
{BLKREFS
331
65B
102
}
  0
ENDTAB
  0
ENDSEC
  0
SECTION
  2
BLOCKS
  0
BLOCK
  5
20
330
1F
100
AcDbEntity
  8
0
100
AcDbBlockBegin
  2
*Model_Space
 70
     0
 71
     0
 10
0.0
 20
0.0
 30
0.0
  3
*Model_Space
  1

  0
ENDBLK
  5
21
330
1F
100
AcDbEntity
  8
0
100
AcDbBlockEnd
  0
BLOCK
  5
1C
330
1B
100
AcDbEntity
 67
     1
  8
0
100
AcDbBlockBegin
  2
*Paper_Space
 70
     0
 71
     0
 10
0.0
 20
0.0
 30
0.0
  3
*Paper_Space
  1

  0
ENDBLK
  5
1D
330
1B
100
AcDbEntity
 67
     1
  8
0
100
AcDbBlockEnd
  0
BLOCK
  5
24
330
23
100
AcDbEntity
  8
0
100
AcDbBlockBegin
  2
*Paper_Space0
 70
     0
 71
     0
 10
0.0
 20
0.0
 30
0.0
  3
*Paper_Space0
  1

  0
ENDBLK
  5
25
330
23
100
AcDbEntity
  8
0
100
AcDbBlockEnd
  0
BLOCK
  5
3E
330
3C
100
AcDbEntity
  8
0
100
AcDbBlockBegin
  2
block 2
 70
     0
 71
     0
 10
0.0
 20
0.0
 30
0.0
  3
block 2
  1

  0
INSERT
  5
41
330
3C
100
AcDbEntity
  8
COTAS
100
AcDbBlockReference
  2
block 3
 10
0.0
 20
0.0
 30
0.0
  0
INSERT
  5
49
330
3C
100
AcDbEntity
  8
COTAS
100
AcDbBlockReference
  2
block 4
 10
0.0
 20
0.0
 30
0.0
  0
INSERT
  5
51
330
3C
100
AcDbEntity
  8
COTAS
100
AcDbBlockReference
  2
block 5
 10
0.0
 20
0.0
 30
0.0
  0
INSERT
  5
59
330
3C
100
AcDbEntity
  8
COTAS
100
AcDbBlockReference
  2
block 6
 10
0.0
 20
0.0
 30
0.0
  0
INSERT
  5
64
330
3C
100
AcDbEntity
  8
COTAS
100
AcDbBlockReference
  2
block 7
 10
0.0
 20
0.0
 30
0.0
  0
INSERT
  5
6F
330
3C
100
AcDbEntity
  8
COTAS
100
AcDbBlockReference
  2
block 8
 10
0.0
 20
0.0
 30
0.0
  0
INSERT
  5
74
330
3C
100
AcDbEntity
  8
COTAS
100
AcDbBlockReference
  2
block 9
 10
0.0
 20
0.0
 30
0.0
  0
INSERT
  5
7C
330
3C
100
AcDbEntity
  8
COTAS
100
AcDbBlockReference
  2
block 10
 10
0.0
 20
0.0
 30
0.0
  0
INSERT
  5
84
330
3C
100
AcDbEntity
  8
COTAS
100
AcDbBlockReference
  2
block 11
 10
0.0
 20
0.0
 30
0.0
  0
ENDBLK
  5
3F
330
3C
100
AcDbEntity
  8
0
100
AcDbBlockEnd
  0
BLOCK
  5
42
330
40
100
AcDbEntity
  8
0
100
AcDbBlockBegin
  2
block 3
 70
     0
 71
     0
 10
0.0
 20
0.0
 30
0.0
  3
block 3
  1

  0
POLYLINE
  5
44
330
40
100
AcDbEntity
  8
COTAS
 62
     1
420
 16711680
370
    25
100
AcDb2dPolyline
 66
     1
 10
0.0
 20
0.0
 30
0.0
  0
VERTEX
  5
45
330
44
100
AcDbEntity
  8
COTAS
 62
     1
420
 16711680
370
    25
100
AcDbVertex
100
AcDb2dVertex
 10
5.563316114444432
 20
13.4669560378274
 30
0.0
  0
VERTEX
  5
46
330
44
100
AcDbEntity
  8
COTAS
 62
     1
420
 16711680
370
    25
100
AcDbVertex
100
AcDb2dVertex
 10
0.198368728903434
 20
13.4669560378274
 30
0.0
  0
SEQEND
  5
47
330
44
100
AcDbEntity
  8
COTAS
370
    25
  0
ENDBLK
  5
43
330
40
100
AcDbEntity
  8
0
100
AcDbBlockEnd
  0
BLOCK
  5
4A
330
48
100
AcDbEntity
  8
0
100
AcDbBlockBegin
  2
block 4
 70
     0
 71
     0
 10
0.0
 20
0.0
 30
0.0
  3
block 4
  1

  0
POLYLINE
  5
4C
330
48
100
AcDbEntity
  8
COTAS
 62
     1
420
 16711680
370
    25
100
AcDb2dPolyline
 66
     1
 10
0.0
 20
0.0
 30
0.0
  0
VERTEX
  5
4D
330
4C
100
AcDbEntity
  8
COTAS
 62
     1
420
 16711680
370
    25
100
AcDbVertex
100
AcDb2dVertex
 10
5.563316114444432
 20
8.00406452302755
 30
0.0
  0
VERTEX
  5
4E
330
4C
100
AcDbEntity
  8
COTAS
 62
     1
420
 16711680
370
    25
100
AcDbVertex
100
AcDb2dVertex
 10
0.198368728903434
 20
8.00406452302755
 30
0.0
  0
SEQEND
  5
4F
330
4C
100
AcDbEntity
  8
COTAS
370
    25
  0
ENDBLK
  5
4B
330
48
100
AcDbEntity
  8
0
100
AcDbBlockEnd
  0
BLOCK
  5
52
330
50
100
AcDbEntity
  8
0
100
AcDbBlockBegin
  2
block 5
 70
     0
 71
     0
 10
0.0
 20
0.0
 30
0.0
  3
block 5
  1

  0
POLYLINE
  5
54
330
50
100
AcDbEntity
  8
COTAS
 62
     1
420
 16711680
370
    25
100
AcDb2dPolyline
 66
     1
 10
0.0
 20
0.0
 30
0.0
  0
VERTEX
  5
55
330
54
100
AcDbEntity
  8
COTAS
 62
     1
420
 16711680
370
    25
100
AcDbVertex
100
AcDb2dVertex
 10
0.357170510056678
 20
13.14935247552091
 30
0.0
  0
VERTEX
  5
56
330
54
100
AcDbEntity
  8
COTAS
 62
     1
420
 16711680
370
    25
100
AcDbVertex
100
AcDb2dVertex
 10
0.357170510056678
 20
8.321702536311617
 30
0.0
  0
SEQEND
  5
57
330
54
100
AcDbEntity
  8
COTAS
370
    25
  0
ENDBLK
  5
53
330
50
100
AcDbEntity
  8
0
100
AcDbBlockEnd
  0
BLOCK
  5
5A
330
58
100
AcDbEntity
  8
0
100
AcDbBlockBegin
  2
block 6
 70
     0
 71
     0
 10
0.0
 20
0.0
 30
0.0
  3
block 6
  1

  0
POLYLINE
  5
5C
330
58
100
AcDbEntity
  8
COTAS
370
     0
100
AcDb2dPolyline
 66
     1
 10
0.0
 20
0.0
 30
0.0
  0
VERTEX
  5
5D
330
5C
100
AcDbEntity
  8
COTAS
370
     0
100
AcDbVertex
100
AcDb2dVertex
 10
0.3042365830055967
 20
13.14935247552091
 30
0.0
  0
VERTEX
  5
5E
330
5C
100
AcDbEntity
  8
COTAS
370
     0
100
AcDbVertex
100
AcDb2dVertex
 10
0.4101044371077594
 20
13.14935247552091
 30
0.0
  0
VERTEX
  5
5F
330
5C
100
AcDbEntity
  8
COTAS
370
     0
100
AcDbVertex
100
AcDb2dVertex
 10
0.357170510056678
 20
13.4669560378274
 30
0.0
  0
VERTEX
  5
60
330
5C
100
AcDbEntity
  8
COTAS
370
     0
100
AcDbVertex
100
AcDb2dVertex
 10
0.3042365830055967
 20
13.14935247552091
 30
0.0
  0
SEQEND
  5
61
330
5C
100
AcDbEntity
  8
COTAS
370
     0
  0
HATCH
  5
62
330
58
100
AcDbEntity
  8
COTAS
 62
     1
420
 16711680
100
AcDbHatch
 10
0.0
 20
0.0
 30
0.0
210
0.0
220
0.0
230
1.0
  2
SOLID
 70
     1
 71
     0
 91
        1
 92
        1
 93
        3
 72
     1
 10
0.3042365830055967
 20
13.14935247552091
 11
0.4101044371077594
 21
13.14935247552091
 72
     1
 10
0.4101044371077594
 20
13.14935247552091
 11
0.357170510056678
 21
13.4669560378274
 72
     1
 10
0.357170510056678
 20
13.4669560378274
 11
0.3042365830055967
 21
13.14935247552091
 97
        0
 75
     2
 76
     1
 98
        0
  0
ENDBLK
  5
5B
330
58
100
AcDbEntity
  8
0
100
AcDbBlockEnd
  0
BLOCK
  5
65
330
63
100
AcDbEntity
  8
0
100
AcDbBlockBegin
  2
block 7
 70
     0
 71
     0
 10
0.0
 20
0.0
 30
0.0
  3
block 7
  1

  0
POLYLINE
  5
67
330
63
100
AcDbEntity
  8
COTAS
370
     0
100
AcDb2dPolyline
 66
     1
 10
0.0
 20
0.0
 30
0.0
  0
VERTEX
  5
68
330
67
100
AcDbEntity
  8
COTAS
370
     0
100
AcDbVertex
100
AcDb2dVertex
 10
0.3042365830055967
 20
8.321702536311617
 30
0.0
  0
VERTEX
  5
69
330
67
100
AcDbEntity
  8
COTAS
370
     0
100
AcDbVertex
100
AcDb2dVertex
 10
0.4101044371077594
 20
8.321702536311617
 30
0.0
  0
VERTEX
  5
6A
330
67
100
AcDbEntity
  8
COTAS
370
     0
100
AcDbVertex
100
AcDb2dVertex
 10
0.357170510056678
 20
8.00406452302755
 30
0.0
  0
VERTEX
  5
6B
330
67
100
AcDbEntity
  8
COTAS
370
     0
100
AcDbVertex
100
AcDb2dVertex
 10
0.3042365830055967
 20
8.321702536311617
 30
0.0
  0
SEQEND
  5
6C
330
67
100
AcDbEntity
  8
COTAS
370
     0
  0
HATCH
  5
6D
330
63
100
AcDbEntity
  8
COTAS
 62
     1
420
 16711680
100
AcDbHatch
 10
0.0
 20
0.0
 30
0.0
210
0.0
220
0.0
230
1.0
  2
SOLID
 70
     1
 71
     0
 91
        1
 92
        1
 93
        3
 72
     1
 10
0.3042365830055967
 20
8.321702536311617
 11
0.4101044371077594
 21
8.321702536311617
 72
     1
 10
0.4101044371077594
 20
8.321702536311617
 11
0.357170510056678
 21
8.00406452302755
 72
     1
 10
0.357170510056678
 20
8.00406452302755
 11
0.3042365830055967
 21
8.321702536311617
 97
        0
 75
     2
 76
     1
 98
        0
  0
ENDBLK
  5
66
330
63
100
AcDbEntity
  8
0
100
AcDbBlockEnd
  0
BLOCK
  5
70
330
6E
100
AcDbEntity
  8
0
100
AcDbBlockBegin
  2
block 8
 70
     0
 71
     0
 10
0.0
 20
0.0
 30
0.0
  3
block 8
  1

  0
MTEXT
  5
72
330
6E
100
AcDbEntity
  8
COTAS
 62
     4
420
    65535
100
AcDbMText
 10
0.2777782322244509
 20
10.33625790125729
 30
0.0
 40
0.2794955300208335
 41
0.0
 71
     7
 72
     1
  1
\fMyriad Pro|b0|i0|c0|p34;\W1;430
 11
-4.371139000186241E-8
 21
0.999999999999999
 31
0.0
 73
     1
 44
1.0
  0
ENDBLK
  5
71
330
6E
100
AcDbEntity
  8
0
100
AcDbBlockEnd
  0
BLOCK
  5
75
330
73
100
AcDbEntity
  8
0
100
AcDbBlockBegin
  2
block 9
 70
     0
 71
     0
 10
0.0
 20
0.0
 30
0.0
  3
block 9
  1

  0
POLYLINE
  5
77
330
73
100
AcDbEntity
  8
COTAS
370
     0
100
AcDb2dPolyline
 66
     1
 10
0.0
 20
0.0
 30
0.0
  0
VERTEX
  5
78
330
77
100
AcDbEntity
  8
COTAS
370
     0
100
AcDbVertex
100
AcDb2dVertex
 10
5.64270839227666
 20
13.4669560378274
 30
0.0
  0
VERTEX
  5
79
330
77
100
AcDbEntity
  8
COTAS
370
     0
100
AcDbVertex
100
AcDb2dVertex
 10
5.64270839227666
 20
13.4669560378274
 30
0.0
  0
SEQEND
  5
7A
330
77
100
AcDbEntity
  8
COTAS
370
     0
  0
ENDBLK
  5
76
330
73
100
AcDbEntity
  8
0
100
AcDbBlockEnd
  0
BLOCK
  5
7D
330
7B
100
AcDbEntity
  8
0
100
AcDbBlockBegin
  2
block 10
 70
     0
 71
     0
 10
0.0
 20
0.0
 30
0.0
  3
block 10
  1

  0
POLYLINE
  5
7F
330
7B
100
AcDbEntity
  8
COTAS
370
     0
100
AcDb2dPolyline
 66
     1
 10
0.0
 20
0.0
 30
0.0
  0
VERTEX
  5
80
330
7F
100
AcDbEntity
  8
COTAS
370
     0
100
AcDbVertex
100
AcDb2dVertex
 10
5.64270839227666
 20
8.00406452302755
 30
0.0
  0
VERTEX
  5
81
330
7F
100
AcDbEntity
  8
COTAS
370
     0
100
AcDbVertex
100
AcDb2dVertex
 10
5.64270839227666
 20
8.00406452302755
 30
0.0
  0
SEQEND
  5
82
330
7F
100
AcDbEntity
  8
COTAS
370
     0
  0
ENDBLK
  5
7E
330
7B
100
AcDbEntity
  8
0
100
AcDbBlockEnd
  0
BLOCK
  5
85
330
83
100
AcDbEntity
  8
0
100
AcDbBlockBegin
  2
block 11
 70
     0
 71
     0
 10
0.0
 20
0.0
 30
0.0
  3
block 11
  1

  0
POLYLINE
  5
87
330
83
100
AcDbEntity
  8
COTAS
370
     0
100
AcDb2dPolyline
 66
     1
 10
0.0
 20
0.0
 30
0.0
  0
VERTEX
  5
88
330
87
100
AcDbEntity
  8
COTAS
370
     0
100
AcDbVertex
100
AcDb2dVertex
 10
0.357170510056678
 20
8.00406452302755
 30
0.0
  0
VERTEX
  5
89
330
87
100
AcDbEntity
  8
COTAS
370
     0
100
AcDbVertex
100
AcDb2dVertex
 10
0.357170510056678
 20
8.00406452302755
 30
0.0
  0
SEQEND
  5
8A
330
87
100
AcDbEntity
  8
COTAS
370
     0
  0
ENDBLK
  5
86
330
83
100
AcDbEntity
  8
0
100
AcDbBlockEnd
  0
BLOCK
  5
8D
330
8B
100
AcDbEntity
  8
0
100
AcDbBlockBegin
  2
block 12
 70
     0
 71
     0
 10
0.0
 20
0.0
 30
0.0
  3
block 12
  1

  0
INSERT
  5
90
330
8B
100
AcDbEntity
  8
COTAS
100
AcDbBlockReference
  2
block 13
 10
0.0
 20
0.0
 30
0.0
  0
INSERT
  5
98
330
8B
100
AcDbEntity
  8
COTAS
100
AcDbBlockReference
  2
block 14
 10
0.0
 20
0.0
 30
0.0
  0
INSERT
  5
A0
330
8B
100
AcDbEntity
  8
COTAS
100
AcDbBlockReference
  2
block 15
 10
0.0
 20
0.0
 30
0.0
  0
INSERT
  5
A8
330
8B
100
AcDbEntity
  8
COTAS
100
AcDbBlockReference
  2
block 16
 10
0.0
 20
0.0
 30
0.0
  0
INSERT
  5
B3
330
8B
100
AcDbEntity
  8
COTAS
100
AcDbBlockReference
  2
block 17
 10
0.0
 20
0.0
 30
0.0
  0
INSERT
  5
BE
330
8B
100
AcDbEntity
  8
COTAS
100
AcDbBlockReference
  2
block 18
 10
0.0
 20
0.0
 30
0.0
  0
INSERT
  5
C3
330
8B
100
AcDbEntity
  8
COTAS
100
AcDbBlockReference
  2
block 19
 10
0.0
 20
0.0
 30
0.0
  0
INSERT
  5
CB
330
8B
100
AcDbEntity
  8
COTAS
100
AcDbBlockReference
  2
block 20
 10
0.0
 20
0.0
 30
0.0
  0
INSERT
  5
D3
330
8B
100
AcDbEntity
  8
COTAS
100
AcDbBlockReference
  2
block 21
 10
0.0
 20
0.0
 30
0.0
  0
ENDBLK
  5
8E
330
8B
100
AcDbEntity
  8
0
100
AcDbBlockEnd
  0
BLOCK
  5
91
330
8F
100
AcDbEntity
  8
0
100
AcDbBlockBegin
  2
block 13
 70
     0
 71
     0
 10
0.0
 20
0.0
 30
0.0
  3
block 13
  1

  0
POLYLINE
  5
93
330
8F
100
AcDbEntity
  8
COTAS
 62
     1
420
 16711680
370
    25
100
AcDb2dPolyline
 66
     1
 10
0.0
 20
0.0
 30
0.0
  0
VERTEX
  5
94
330
93
100
AcDbEntity
  8
COTAS
 62
     1
420
 16711680
370
    25
100
AcDbVertex
100
AcDb2dVertex
 10
9.644585624391325
 20
10.65610077710646
 30
0.0
  0
VERTEX
  5
95
330
93
100
AcDbEntity
  8
COTAS
 62
     1
420
 16711680
370
    25
100
AcDbVertex
100
AcDb2dVertex
 10
9.644585624391325
 20
6.486223352824789
 30
0.0
  0
SEQEND
  5
96
330
93
100
AcDbEntity
  8
COTAS
370
    25
  0
ENDBLK
  5
92
330
8F
100
AcDbEntity
  8
0
100
AcDbBlockEnd
  0
BLOCK
  5
99
330
97
100
AcDbEntity
  8
0
100
AcDbBlockBegin
  2
block 14
 70
     0
 71
     0
 10
0.0
 20
0.0
 30
0.0
  3
block 14
  1

  0
POLYLINE
  5
9B
330
97
100
AcDbEntity
  8
COTAS
 62
     1
420
 16711680
370
    25
100
AcDb2dPolyline
 66
     1
 10
0.0
 20
0.0
 30
0.0
  0
VERTEX
  5
9C
330
9B
100
AcDbEntity
  8
COTAS
 62
     1
420
 16711680
370
    25
100
AcDbVertex
100
AcDb2dVertex
 10
1.640848385650783
 20
10.65610077710646
 30
0.0
  0
VERTEX
  5
9D
330
9B
100
AcDbEntity
  8
COTAS
 62
     1
420
 16711680
370
    25
100
AcDbVertex
100
AcDb2dVertex
 10
1.640848385650783
 20
6.486223352824789
 30
0.0
  0
SEQEND
  5
9E
330
9B
100
AcDbEntity
  8
COTAS
370
    25
  0
ENDBLK
  5
9A
330
97
100
AcDbEntity
  8
0
100
AcDbBlockEnd
  0
BLOCK
  5
A1
330
9F
100
AcDbEntity
  8
0
100
AcDbBlockBegin
  2
block 15
 70
     0
 71
     0
 10
0.0
 20
0.0
 30
0.0
  3
block 15
  1

  0
POLYLINE
  5
A3
330
9F
100
AcDbEntity
  8
COTAS
 62
     1
420
 16711680
370
    25
100
AcDb2dPolyline
 66
     1
 10
0.0
 20
0.0
 30
0.0
  0
VERTEX
  5
A4
330
A3
100
AcDbEntity
  8
COTAS
 62
     1
420
 16711680
370
    25
100
AcDbVertex
100
AcDb2dVertex
 10
9.326982062084838
 20
6.645007908489243
 30
0.0
  0
VERTEX
  5
A5
330
A3
100
AcDbEntity
  8
COTAS
 62
     1
420
 16711680
370
    25
100
AcDbVertex
100
AcDb2dVertex
 10
1.958451947957271
 20
6.645007908489243
 30
0.0
  0
SEQEND
  5
A6
330
A3
100
AcDbEntity
  8
COTAS
370
    25
  0
ENDBLK
  5
A2
330
9F
100
AcDbEntity
  8
0
100
AcDbBlockEnd
  0
BLOCK
  5
A9
330
A7
100
AcDbEntity
  8
0
100
AcDbBlockBegin
  2
block 16
 70
     0
 71
     0
 10
0.0
 20
0.0
 30
0.0
  3
block 16
  1

  0
POLYLINE
  5
AB
330
A7
100
AcDbEntity
  8
COTAS
370
     0
100
AcDb2dPolyline
 66
     1
 10
0.0
 20
0.0
 30
0.0
  0
VERTEX
  5
AC
330
AB
100
AcDbEntity
  8
COTAS
370
     0
100
AcDbVertex
100
AcDb2dVertex
 10
9.326982062084838
 20
6.697959061029114
 30
0.0
  0
VERTEX
  5
AD
330
AB
100
AcDbEntity
  8
COTAS
370
     0
100
AcDbVertex
100
AcDb2dVertex
 10
9.326982062084838
 20
6.592091206926952
 30
0.0
  0
VERTEX
  5
AE
330
AB
100
AcDbEntity
  8
COTAS
370
     0
100
AcDbVertex
100
AcDb2dVertex
 10
9.644585624391325
 20
6.645007908489243
 30
0.0
  0
VERTEX
  5
AF
330
AB
100
AcDbEntity
  8
COTAS
370
     0
100
AcDbVertex
100
AcDb2dVertex
 10
9.326982062084838
 20
6.697959061029114
 30
0.0
  0
SEQEND
  5
B0
330
AB
100
AcDbEntity
  8
COTAS
370
     0
  0
HATCH
  5
B1
330
A7
100
AcDbEntity
  8
COTAS
 62
     1
420
 16711680
100
AcDbHatch
 10
0.0
 20
0.0
 30
0.0
210
0.0
220
0.0
230
1.0
  2
SOLID
 70
     1
 71
     0
 91
        1
 92
        1
 93
        3
 72
     1
 10
9.326982062084838
 20
6.697959061029114
 11
9.326982062084838
 21
6.592091206926952
 72
     1
 10
9.326982062084838
 20
6.592091206926952
 11
9.644585624391325
 21
6.645007908489243
 72
     1
 10
9.644585624391325
 20
6.645007908489243
 11
9.326982062084838
 21
6.697959061029114
 97
        0
 75
     2
 76
     1
 98
        0
  0
ENDBLK
  5
AA
330
A7
100
AcDbEntity
  8
0
100
AcDbBlockEnd
  0
BLOCK
  5
B4
330
B2
100
AcDbEntity
  8
0
100
AcDbBlockBegin
  2
block 17
 70
     0
 71
     0
 10
0.0
 20
0.0
 30
0.0
  3
block 17
  1

  0
POLYLINE
  5
B6
330
B2
100
AcDbEntity
  8
COTAS
370
     0
100
AcDb2dPolyline
 66
     1
 10
0.0
 20
0.0
 30
0.0
  0
VERTEX
  5
B7
330
B6
100
AcDbEntity
  8
COTAS
370
     0
100
AcDbVertex
100
AcDb2dVertex
 10
1.958451947957271
 20
6.697959061029114
 30
0.0
  0
VERTEX
  5
B8
330
B6
100
AcDbEntity
  8
COTAS
370
     0
100
AcDbVertex
100
AcDb2dVertex
 10
1.958451947957271
 20
6.592091206926952
 30
0.0
  0
VERTEX
  5
B9
330
B6
100
AcDbEntity
  8
COTAS
370
     0
100
AcDbVertex
100
AcDb2dVertex
 10
1.640848385650783
 20
6.645007908489243
 30
0.0
  0
VERTEX
  5
BA
330
B6
100
AcDbEntity
  8
COTAS
370
     0
100
AcDbVertex
100
AcDb2dVertex
 10
1.958451947957271
 20
6.697959061029114
 30
0.0
  0
SEQEND
  5
BB
330
B6
100
AcDbEntity
  8
COTAS
370
     0
  0
HATCH
  5
BC
330
B2
100
AcDbEntity
  8
COTAS
 62
     1
420
 16711680
100
AcDbHatch
 10
0.0
 20
0.0
 30
0.0
210
0.0
220
0.0
230
1.0
  2
SOLID
 70
     1
 71
     0
 91
        1
 92
        1
 93
        3
 72
     1
 10
1.958451947957271
 20
6.697959061029114
 11
1.958451947957271
 21
6.592091206926952
 72
     1
 10
1.958451947957271
 20
6.592091206926952
 11
1.640848385650783
 21
6.645007908489243
 72
     1
 10
1.640848385650783
 20
6.645007908489243
 11
1.958451947957271
 21
6.697959061029114
 97
        0
 75
     2
 76
     1
 98
        0
  0
ENDBLK
  5
B5
330
B2
100
AcDbEntity
  8
0
100
AcDbBlockEnd
  0
BLOCK
  5
BF
330
BD
100
AcDbEntity
  8
0
100
AcDbBlockBegin
  2
block 18
 70
     0
 71
     0
 10
0.0
 20
0.0
 30
0.0
  3
block 18
  1

  0
MTEXT
  5
C1
330
BD
100
AcDbEntity
  8
COTAS
 62
     4
420
    65535
100
AcDbMText
 10
5.236789748944823
 20
6.72441741181026
 30
0.0
 40
0.2794955300208335
 41
0.0
 71
     7
 72
     1
  1
\fMyriad Pro|b0|i0|c0|p34;\W1;630
 73
     1
 44
1.0
  0
ENDBLK
  5
C0
330
BD
100
AcDbEntity
  8
0
100
AcDbBlockEnd
  0
BLOCK
  5
C4
330
C2
100
AcDbEntity
  8
0
100
AcDbBlockBegin
  2
block 19
 70
     0
 71
     0
 10
0.0
 20
0.0
 30
0.0
  3
block 19
  1

  0
POLYLINE
  5
C6
330
C2
100
AcDbEntity
  8
COTAS
370
     0
100
AcDb2dPolyline
 66
     1
 10
0.0
 20
0.0
 30
0.0
  0
VERTEX
  5
C7
330
C6
100
AcDbEntity
  8
COTAS
370
     0
100
AcDbVertex
100
AcDb2dVertex
 10
9.644585624391325
 20
10.73551028042747
 30
0.0
  0
VERTEX
  5
C8
330
C6
100
AcDbEntity
  8
COTAS
370
     0
100
AcDbVertex
100
AcDb2dVertex
 10
9.644585624391325
 20
10.73551028042747
 30
0.0
  0
SEQEND
  5
C9
330
C6
100
AcDbEntity
  8
COTAS
370
     0
  0
ENDBLK
  5
C5
330
C2
100
AcDbEntity
  8
0
100
AcDbBlockEnd
  0
BLOCK
  5
CC
330
CA
100
AcDbEntity
  8
0
100
AcDbBlockBegin
  2
block 20
 70
     0
 71
     0
 10
0.0
 20
0.0
 30
0.0
  3
block 20
  1

  0
POLYLINE
  5
CE
330
CA
100
AcDbEntity
  8
COTAS
370
     0
100
AcDb2dPolyline
 66
     1
 10
0.0
 20
0.0
 30
0.0
  0
VERTEX
  5
CF
330
CE
100
AcDbEntity
  8
COTAS
370
     0
100
AcDbVertex
100
AcDb2dVertex
 10
1.640848385650783
 20
10.73551028042747
 30
0.0
  0
VERTEX
  5
D0
330
CE
100
AcDbEntity
  8
COTAS
370
     0
100
AcDbVertex
100
AcDb2dVertex
 10
1.640848385650783
 20
10.73551028042747
 30
0.0
  0
SEQEND
  5
D1
330
CE
100
AcDbEntity
  8
COTAS
370
     0
  0
ENDBLK
  5
CD
330
CA
100
AcDbEntity
  8
0
100
AcDbBlockEnd
  0
BLOCK
  5
D4
330
D2
100
AcDbEntity
  8
0
100
AcDbBlockBegin
  2
block 21
 70
     0
 71
     0
 10
0.0
 20
0.0
 30
0.0
  3
block 21
  1

  0
POLYLINE
  5
D6
330
D2
100
AcDbEntity
  8
COTAS
370
     0
100
AcDb2dPolyline
 66
     1
 10
0.0
 20
0.0
 30
0.0
  0
VERTEX
  5
D7
330
D6
100
AcDbEntity
  8
COTAS
370
     0
100
AcDbVertex
100
AcDb2dVertex
 10
1.640848385650783
 20
6.645007908489243
 30
0.0
  0
VERTEX
  5
D8
330
D6
100
AcDbEntity
  8
COTAS
370
     0
100
AcDbVertex
100
AcDb2dVertex
 10
1.640848385650783
 20
6.645007908489243
 30
0.0
  0
SEQEND
  5
D9
330
D6
100
AcDbEntity
  8
COTAS
370
     0
  0
ENDBLK
  5
D5
330
D2
100
AcDbEntity
  8
0
100
AcDbBlockEnd
  0
BLOCK
  5
DC
330
DA
100
AcDbEntity
  8
0
100
AcDbBlockBegin
  2
block 22
 70
     0
 71
     0
 10
0.0
 20
0.0
 30
0.0
  3
block 22
  1

  0
INSERT
  5
DF
330
DA
100
AcDbEntity
  8
COTAS
100
AcDbBlockReference
  2
block 23
 10
0.0
 20
0.0
 30
0.0
  0
INSERT
  5
E7
330
DA
100
AcDbEntity
  8
COTAS
100
AcDbBlockReference
  2
block 24
 10
0.0
 20
0.0
 30
0.0
  0
INSERT
  5
EF
330
DA
100
AcDbEntity
  8
COTAS
100
AcDbBlockReference
  2
block 25
 10
0.0
 20
0.0
 30
0.0
  0
INSERT
  5
F7
330
DA
100
AcDbEntity
  8
COTAS
100
AcDbBlockReference
  2
block 26
 10
0.0
 20
0.0
 30
0.0
  0
INSERT
  5
102
330
DA
100
AcDbEntity
  8
COTAS
100
AcDbBlockReference
  2
block 27
 10
0.0
 20
0.0
 30
0.0
  0
INSERT
  5
10D
330
DA
100
AcDbEntity
  8
COTAS
100
AcDbBlockReference
  2
block 28
 10
0.0
 20
0.0
 30
0.0
  0
INSERT
  5
112
330
DA
100
AcDbEntity
  8
COTAS
100
AcDbBlockReference
  2
block 29
 10
0.0
 20
0.0
 30
0.0
  0
INSERT
  5
11A
330
DA
100
AcDbEntity
  8
COTAS
100
AcDbBlockReference
  2
block 30
 10
0.0
 20
0.0
 30
0.0
  0
INSERT
  5
122
330
DA
100
AcDbEntity
  8
COTAS
100
AcDbBlockReference
  2
block 31
 10
0.0
 20
0.0
 30
0.0
  0
ENDBLK
  5
DD
330
DA
100
AcDbEntity
  8
0
100
AcDbBlockEnd
  0
BLOCK
  5
E0
330
DE
100
AcDbEntity
  8
0
100
AcDbBlockBegin
  2
block 23
 70
     0
 71
     0
 10
0.0
 20
0.0
 30
0.0
  3
block 23
  1

  0
POLYLINE
  5
E2
330
DE
100
AcDbEntity
  8
COTAS
 62
     1
420
 16711680
370
    25
100
AcDb2dPolyline
 66
     1
 10
0.0
 20
0.0
 30
0.0
  0
VERTEX
  5
E3
330
E2
100
AcDbEntity
  8
COTAS
 62
     1
420
 16711680
370
    25
100
AcDbVertex
100
AcDb2dVertex
 10
2.476801356620186
 20
20.72550140603204
 30
0.0
  0
VERTEX
  5
E4
330
E2
100
AcDbEntity
  8
COTAS
 62
     1
420
 16711680
370
    25
100
AcDbVertex
100
AcDb2dVertex
 10
2.476801356620186
 20
18.54935373074917
 30
0.0
  0
SEQEND
  5
E5
330
E2
100
AcDbEntity
  8
COTAS
370
    25
  0
ENDBLK
  5
E1
330
DE
100
AcDbEntity
  8
0
100
AcDbBlockEnd
  0
BLOCK
  5
E8
330
E6
100
AcDbEntity
  8
0
100
AcDbBlockBegin
  2
block 24
 70
     0
 71
     0
 10
0.0
 20
0.0
 30
0.0
  3
block 24
  1

  0
POLYLINE
  5
EA
330
E6
100
AcDbEntity
  8
COTAS
 62
     1
420
 16711680
370
    25
100
AcDb2dPolyline
 66
     1
 10
0.0
 20
0.0
 30
0.0
  0
VERTEX
  5
EB
330
EA
100
AcDbEntity
  8
COTAS
 62
     1
420
 16711680
370
    25
100
AcDbVertex
100
AcDb2dVertex
 10
8.828975955682687
 20
20.72550140603204
 30
0.0
  0
VERTEX
  5
EC
330
EA
100
AcDbEntity
  8
COTAS
 62
     1
420
 16711680
370
    25
100
AcDbVertex
100
AcDb2dVertex
 10
8.828975955682687
 20
18.54935373074917
 30
0.0
  0
SEQEND
  5
ED
330
EA
100
AcDbEntity
  8
COTAS
370
    25
  0
ENDBLK
  5
E9
330
E6
100
AcDbEntity
  8
0
100
AcDbBlockEnd
  0
BLOCK
  5
F0
330
EE
100
AcDbEntity
  8
0
100
AcDbBlockBegin
  2
block 25
 70
     0
 71
     0
 10
0.0
 20
0.0
 30
0.0
  3
block 25
  1

  0
POLYLINE
  5
F2
330
EE
100
AcDbEntity
  8
COTAS
 62
     1
420
 16711680
370
    25
100
AcDb2dPolyline
 66
     1
 10
0.0
 20
0.0
 30
0.0
  0
VERTEX
  5
F3
330
F2
100
AcDbEntity
  8
COTAS
 62
     1
420
 16711680
370
    25
100
AcDbVertex
100
AcDb2dVertex
 10
2.794422144415464
 20
18.70815551190242
 30
0.0
  0
VERTEX
  5
F4
330
F2
100
AcDbEntity
  8
COTAS
 62
     1
420
 16711680
370
    25
100
AcDbVertex
100
AcDb2dVertex
 10
8.511372393376199
 20
18.70815551190242
 30
0.0
  0
SEQEND
  5
F5
330
F2
100
AcDbEntity
  8
COTAS
370
    25
  0
ENDBLK
  5
F1
330
EE
100
AcDbEntity
  8
0
100
AcDbBlockEnd
  0
BLOCK
  5
F8
330
F6
100
AcDbEntity
  8
0
100
AcDbBlockBegin
  2
block 26
 70
     0
 71
     0
 10
0.0
 20
0.0
 30
0.0
  3
block 26
  1

  0
POLYLINE
  5
FA
330
F6
100
AcDbEntity
  8
COTAS
370
     0
100
AcDb2dPolyline
 66
     1
 10
0.0
 20
0.0
 30
0.0
  0
VERTEX
  5
FB
330
FA
100
AcDbEntity
  8
COTAS
370
     0
100
AcDbVertex
100
AcDb2dVertex
 10
2.794422144415464
 20
18.76108943895349
 30
0.0
  0
VERTEX
  5
FC
330
FA
100
AcDbEntity
  8
COTAS
370
     0
100
AcDbVertex
100
AcDb2dVertex
 10
2.794422144415464
 20
18.65522158485133
 30
0.0
  0
VERTEX
  5
FD
330
FA
100
AcDbEntity
  8
COTAS
370
     0
100
AcDbVertex
100
AcDb2dVertex
 10
2.476801356620186
 20
18.70815551190242
 30
0.0
  0
VERTEX
  5
FE
330
FA
100
AcDbEntity
  8
COTAS
370
     0
100
AcDbVertex
100
AcDb2dVertex
 10
2.794422144415464
 20
18.76108943895349
 30
0.0
  0
SEQEND
  5
FF
330
FA
100
AcDbEntity
  8
COTAS
370
     0
  0
HATCH
  5
100
330
F6
100
AcDbEntity
  8
COTAS
 62
     1
420
 16711680
100
AcDbHatch
 10
0.0
 20
0.0
 30
0.0
210
0.0
220
0.0
230
1.0
  2
SOLID
 70
     1
 71
     0
 91
        1
 92
        1
 93
        3
 72
     1
 10
2.794422144415464
 20
18.76108943895349
 11
2.794422144415464
 21
18.65522158485133
 72
     1
 10
2.794422144415464
 20
18.65522158485133
 11
2.476801356620186
 21
18.70815551190242
 72
     1
 10
2.476801356620186
 20
18.70815551190242
 11
2.794422144415464
 21
18.76108943895349
 97
        0
 75
     2
 76
     1
 98
        0
  0
ENDBLK
  5
F9
330
F6
100
AcDbEntity
  8
0
100
AcDbBlockEnd
  0
BLOCK
  5
103
330
101
100
AcDbEntity
  8
0
100
AcDbBlockBegin
  2
block 27
 70
     0
 71
     0
 10
0.0
 20
0.0
 30
0.0
  3
block 27
  1

  0
POLYLINE
  5
105
330
101
100
AcDbEntity
  8
COTAS
370
     0
100
AcDb2dPolyline
 66
     1
 10
0.0
 20
0.0
 30
0.0
  0
VERTEX
  5
106
330
105
100
AcDbEntity
  8
COTAS
370
     0
100
AcDbVertex
100
AcDb2dVertex
 10
8.511372393376199
 20
18.76108943895349
 30
0.0
  0
VERTEX
  5
107
330
105
100
AcDbEntity
  8
COTAS
370
     0
100
AcDbVertex
100
AcDb2dVertex
 10
8.511372393376199
 20
18.65522158485133
 30
0.0
  0
VERTEX
  5
108
330
105
100
AcDbEntity
  8
COTAS
370
     0
100
AcDbVertex
100
AcDb2dVertex
 10
8.828975955682687
 20
18.70815551190242
 30
0.0
  0
VERTEX
  5
109
330
105
100
AcDbEntity
  8
COTAS
370
     0
100
AcDbVertex
100
AcDb2dVertex
 10
8.511372393376199
 20
18.76108943895349
 30
0.0
  0
SEQEND
  5
10A
330
105
100
AcDbEntity
  8
COTAS
370
     0
  0
HATCH
  5
10B
330
101
100
AcDbEntity
  8
COTAS
 62
     1
420
 16711680
100
AcDbHatch
 10
0.0
 20
0.0
 30
0.0
210
0.0
220
0.0
230
1.0
  2
SOLID
 70
     1
 71
     0
 91
        1
 92
        1
 93
        3
 72
     1
 10
8.511372393376199
 20
18.76108943895349
 11
8.511372393376199
 21
18.65522158485133
 72
     1
 10
8.511372393376199
 20
18.65522158485133
 11
8.828975955682687
 21
18.70815551190242
 72
     1
 10
8.828975955682687
 20
18.70815551190242
 11
8.511372393376199
 21
18.76108943895349
 97
        0
 75
     2
 76
     1
 98
        0
  0
ENDBLK
  5
104
330
101
100
AcDbEntity
  8
0
100
AcDbBlockEnd
  0
BLOCK
  5
10E
330
10C
100
AcDbEntity
  8
0
100
AcDbBlockBegin
  2
block 28
 70
     0
 71
     0
 10
0.0
 20
0.0
 30
0.0
  3
block 28
  1

  0
MTEXT
  5
110
330
10C
100
AcDbEntity
  8
COTAS
 62
     4
420
    65535
100
AcDbMText
 10
5.253619051492467
 20
18.78756501522343
 30
0.0
 40
0.2794955300208335
 41
0.0
 71
     7
 72
     1
  1
\fMyriad Pro|b0|i0|c0|p34;\W1;500
 73
     1
 44
1.0
  0
ENDBLK
  5
10F
330
10C
100
AcDbEntity
  8
0
100
AcDbBlockEnd
  0
BLOCK
  5
113
330
111
100
AcDbEntity
  8
0
100
AcDbBlockBegin
  2
block 29
 70
     0
 71
     0
 10
0.0
 20
0.0
 30
0.0
  3
block 29
  1

  0
POLYLINE
  5
115
330
111
100
AcDbEntity
  8
COTAS
370
     0
100
AcDb2dPolyline
 66
     1
 10
0.0
 20
0.0
 30
0.0
  0
VERTEX
  5
116
330
115
100
AcDbEntity
  8
COTAS
370
     0
100
AcDbVertex
100
AcDb2dVertex
 10
2.476801356620186
 20
20.80489368386427
 30
0.0
  0
VERTEX
  5
117
330
115
100
AcDbEntity
  8
COTAS
370
     0
100
AcDbVertex
100
AcDb2dVertex
 10
2.476801356620186
 20
20.80489368386427
 30
0.0
  0
SEQEND
  5
118
330
115
100
AcDbEntity
  8
COTAS
370
     0
  0
ENDBLK
  5
114
330
111
100
AcDbEntity
  8
0
100
AcDbBlockEnd
  0
BLOCK
  5
11B
330
119
100
AcDbEntity
  8
0
100
AcDbBlockBegin
  2
block 30
 70
     0
 71
     0
 10
0.0
 20
0.0
 30
0.0
  3
block 30
  1

  0
POLYLINE
  5
11D
330
119
100
AcDbEntity
  8
COTAS
370
     0
100
AcDb2dPolyline
 66
     1
 10
0.0
 20
0.0
 30
0.0
  0
VERTEX
  5
11E
330
11D
100
AcDbEntity
  8
COTAS
370
     0
100
AcDbVertex
100
AcDb2dVertex
 10
8.828975955682687
 20
20.80489368386427
 30
0.0
  0
VERTEX
  5
11F
330
11D
100
AcDbEntity
  8
COTAS
370
     0
100
AcDbVertex
100
AcDb2dVertex
 10
8.828975955682687
 20
20.80489368386427
 30
0.0
  0
SEQEND
  5
120
330
11D
100
AcDbEntity
  8
COTAS
370
     0
  0
ENDBLK
  5
11C
330
119
100
AcDbEntity
  8
0
100
AcDbBlockEnd
  0
BLOCK
  5
123
330
121
100
AcDbEntity
  8
0
100
AcDbBlockBegin
  2
block 31
 70
     0
 71
     0
 10
0.0
 20
0.0
 30
0.0
  3
block 31
  1

  0
POLYLINE
  5
125
330
121
100
AcDbEntity
  8
COTAS
370
     0
100
AcDb2dPolyline
 66
     1
 10
0.0
 20
0.0
 30
0.0
  0
VERTEX
  5
126
330
125
100
AcDbEntity
  8
COTAS
370
     0
100
AcDbVertex
100
AcDb2dVertex
 10
8.828975955682687
 20
18.70815551190242
 30
0.0
  0
VERTEX
  5
127
330
125
100
AcDbEntity
  8
COTAS
370
     0
100
AcDbVertex
100
AcDb2dVertex
 10
8.828975955682687
 20
18.70815551190242
 30
0.0
  0
SEQEND
  5
128
330
125
100
AcDbEntity
  8
COTAS
370
     0
  0
ENDBLK
  5
124
330
121
100
AcDbEntity
  8
0
100
AcDbBlockEnd
  0
BLOCK
  5
12B
330
129
100
AcDbEntity
  8
0
100
AcDbBlockBegin
  2
block 32
 70
     0
 71
     0
 10
0.0
 20
0.0
 30
0.0
  3
block 32
  1

  0
INSERT
  5
12E
330
129
100
AcDbEntity
  8
COTAS
100
AcDbBlockReference
  2
block 33
 10
0.0
 20
0.0
 30
0.0
  0
INSERT
  5
136
330
129
100
AcDbEntity
  8
COTAS
100
AcDbBlockReference
  2
block 34
 10
0.0
 20
0.0
 30
0.0
  0
INSERT
  5
13E
330
129
100
AcDbEntity
  8
COTAS
100
AcDbBlockReference
  2
block 35
 10
0.0
 20
0.0
 30
0.0
  0
INSERT
  5
146
330
129
100
AcDbEntity
  8
COTAS
100
AcDbBlockReference
  2
block 36
 10
0.0
 20
0.0
 30
0.0
  0
INSERT
  5
151
330
129
100
AcDbEntity
  8
COTAS
100
AcDbBlockReference
  2
block 37
 10
0.0
 20
0.0
 30
0.0
  0
INSERT
  5
15C
330
129
100
AcDbEntity
  8
COTAS
100
AcDbBlockReference
  2
block 38
 10
0.0
 20
0.0
 30
0.0
  0
INSERT
  5
161
330
129
100
AcDbEntity
  8
COTAS
100
AcDbBlockReference
  2
block 39
 10
0.0
 20
0.0
 30
0.0
  0
INSERT
  5
169
330
129
100
AcDbEntity
  8
COTAS
100
AcDbBlockReference
  2
block 40
 10
0.0
 20
0.0
 30
0.0
  0
INSERT
  5
171
330
129
100
AcDbEntity
  8
COTAS
100
AcDbBlockReference
  2
block 41
 10
0.0
 20
0.0
 30
0.0
  0
ENDBLK
  5
12C
330
129
100
AcDbEntity
  8
0
100
AcDbBlockEnd
  0
BLOCK
  5
12F
330
12D
100
AcDbEntity
  8
0
100
AcDbBlockBegin
  2
block 33
 70
     0
 71
     0
 10
0.0
 20
0.0
 30
0.0
  3
block 33
  1

  0
POLYLINE
  5
131
330
12D
100
AcDbEntity
  8
COTAS
 62
     1
420
 16711680
370
    25
100
AcDb2dPolyline
 66
     1
 10
0.0
 20
0.0
 30
0.0
  0
VERTEX
  5
132
330
131
100
AcDbEntity
  8
COTAS
 62
     1
420
 16711680
370
    25
100
AcDbVertex
100
AcDb2dVertex
 10
19.46716222444774
 20
22.51960496544575
 30
0.0
  0
VERTEX
  5
133
330
131
100
AcDbEntity
  8
COTAS
 62
     1
420
 16711680
370
    25
100
AcDbVertex
100
AcDb2dVertex
 10
20.99203139407674
 20
22.51960496544575
 30
0.0
  0
SEQEND
  5
134
330
131
100
AcDbEntity
  8
COTAS
370
    25
  0
ENDBLK
  5
130
330
12D
100
AcDbEntity
  8
0
100
AcDbBlockEnd
  0
BLOCK
  5
137
330
135
100
AcDbEntity
  8
0
100
AcDbBlockBegin
  2
block 34
 70
     0
 71
     0
 10
0.0
 20
0.0
 30
0.0
  3
block 34
  1

  0
POLYLINE
  5
139
330
135
100
AcDbEntity
  8
COTAS
 62
     1
420
 16711680
370
    25
100
AcDb2dPolyline
 66
     1
 10
0.0
 20
0.0
 30
0.0
  0
VERTEX
  5
13A
330
139
100
AcDbEntity
  8
COTAS
 62
     1
420
 16711680
370
    25
100
AcDbVertex
100
AcDb2dVertex
 10
18.56895633699197
 20
20.80489368386427
 30
0.0
  0
VERTEX
  5
13B
330
139
100
AcDbEntity
  8
COTAS
 62
     1
420
 16711680
370
    25
100
AcDbVertex
100
AcDb2dVertex
 10
20.99203139407674
 20
20.80489368386427
 30
0.0
  0
SEQEND
  5
13C
330
139
100
AcDbEntity
  8
COTAS
370
    25
  0
ENDBLK
  5
138
330
135
100
AcDbEntity
  8
0
100
AcDbBlockEnd
  0
BLOCK
  5
13F
330
13D
100
AcDbEntity
  8
0
100
AcDbBlockBegin
  2
block 35
 70
     0
 71
     0
 10
0.0
 20
0.0
 30
0.0
  3
block 35
  1

  0
POLYLINE
  5
141
330
13D
100
AcDbEntity
  8
COTAS
 62
     1
420
 16711680
370
    25
100
AcDb2dPolyline
 66
     1
 10
0.0
 20
0.0
 30
0.0
  0
VERTEX
  5
142
330
141
100
AcDbEntity
  8
COTAS
 62
     1
420
 16711680
370
    25
100
AcDbVertex
100
AcDb2dVertex
 10
20.83321238743471
 20
22.20200140313926
 30
0.0
  0
VERTEX
  5
143
330
141
100
AcDbEntity
  8
COTAS
 62
     1
420
 16711680
370
    25
100
AcDbVertex
100
AcDb2dVertex
 10
20.83321238743471
 20
21.12249724617076
 30
0.0
  0
SEQEND
  5
144
330
141
100
AcDbEntity
  8
COTAS
370
    25
  0
ENDBLK
  5
140
330
13D
100
AcDbEntity
  8
0
100
AcDbBlockEnd
  0
BLOCK
  5
147
330
145
100
AcDbEntity
  8
0
100
AcDbBlockBegin
  2
block 36
 70
     0
 71
     0
 10
0.0
 20
0.0
 30
0.0
  3
block 36
  1

  0
POLYLINE
  5
149
330
145
100
AcDbEntity
  8
COTAS
370
     0
100
AcDb2dPolyline
 66
     1
 10
0.0
 20
0.0
 30
0.0
  0
VERTEX
  5
14A
330
149
100
AcDbEntity
  8
COTAS
370
     0
100
AcDbVertex
100
AcDb2dVertex
 10
20.78029568587242
 20
22.20200140313926
 30
0.0
  0
VERTEX
  5
14B
330
149
100
AcDbEntity
  8
COTAS
370
     0
100
AcDbVertex
100
AcDb2dVertex
 10
20.88616353997458
 20
22.20200140313926
 30
0.0
  0
VERTEX
  5
14C
330
149
100
AcDbEntity
  8
COTAS
370
     0
100
AcDbVertex
100
AcDb2dVertex
 10
20.83321238743471
 20
22.51960496544575
 30
0.0
  0
VERTEX
  5
14D
330
149
100
AcDbEntity
  8
COTAS
370
     0
100
AcDbVertex
100
AcDb2dVertex
 10
20.78029568587242
 20
22.20200140313926
 30
0.0
  0
SEQEND
  5
14E
330
149
100
AcDbEntity
  8
COTAS
370
     0
  0
HATCH
  5
14F
330
145
100
AcDbEntity
  8
COTAS
 62
     1
420
 16711680
100
AcDbHatch
 10
0.0
 20
0.0
 30
0.0
210
0.0
220
0.0
230
1.0
  2
SOLID
 70
     1
 71
     0
 91
        1
 92
        1
 93
        3
 72
     1
 10
20.78029568587242
 20
22.20200140313926
 11
20.88616353997458
 21
22.20200140313926
 72
     1
 10
20.88616353997458
 20
22.20200140313926
 11
20.83321238743471
 21
22.51960496544575
 72
     1
 10
20.83321238743471
 20
22.51960496544575
 11
20.78029568587242
 21
22.20200140313926
 97
        0
 75
     2
 76
     1
 98
        0
  0
ENDBLK
  5
148
330
145
100
AcDbEntity
  8
0
100
AcDbBlockEnd
  0
BLOCK
  5
152
330
150
100
AcDbEntity
  8
0
100
AcDbBlockBegin
  2
block 37
 70
     0
 71
     0
 10
0.0
 20
0.0
 30
0.0
  3
block 37
  1

  0
POLYLINE
  5
154
330
150
100
AcDbEntity
  8
COTAS
370
     0
100
AcDb2dPolyline
 66
     1
 10
0.0
 20
0.0
 30
0.0
  0
VERTEX
  5
155
330
154
100
AcDbEntity
  8
COTAS
370
     0
100
AcDbVertex
100
AcDb2dVertex
 10
20.78029568587242
 20
21.12249724617076
 30
0.0
  0
VERTEX
  5
156
330
154
100
AcDbEntity
  8
COTAS
370
     0
100
AcDbVertex
100
AcDb2dVertex
 10
20.88616353997458
 20
21.12249724617076
 30
0.0
  0
VERTEX
  5
157
330
154
100
AcDbEntity
  8
COTAS
370
     0
100
AcDbVertex
100
AcDb2dVertex
 10
20.83321238743471
 20
20.80489368386427
 30
0.0
  0
VERTEX
  5
158
330
154
100
AcDbEntity
  8
COTAS
370
     0
100
AcDbVertex
100
AcDb2dVertex
 10
20.78029568587242
 20
21.12249724617076
 30
0.0
  0
SEQEND
  5
159
330
154
100
AcDbEntity
  8
COTAS
370
     0
  0
HATCH
  5
15A
330
150
100
AcDbEntity
  8
COTAS
 62
     1
420
 16711680
100
AcDbHatch
 10
0.0
 20
0.0
 30
0.0
210
0.0
220
0.0
230
1.0
  2
SOLID
 70
     1
 71
     0
 91
        1
 92
        1
 93
        3
 72
     1
 10
20.78029568587242
 20
21.12249724617076
 11
20.88616353997458
 21
21.12249724617076
 72
     1
 10
20.88616353997458
 20
21.12249724617076
 11
20.83321238743471
 21
20.80489368386427
 72
     1
 10
20.83321238743471
 20
20.80489368386427
 11
20.78029568587242
 21
21.12249724617076
 97
        0
 75
     2
 76
     1
 98
        0
  0
ENDBLK
  5
153
330
150
100
AcDbEntity
  8
0
100
AcDbBlockEnd
  0
BLOCK
  5
15D
330
15B
100
AcDbEntity
  8
0
100
AcDbBlockBegin
  2
block 38
 70
     0
 71
     0
 10
0.0
 20
0.0
 30
0.0
  3
block 38
  1

  0
MTEXT
  5
15F
330
15B
100
AcDbEntity
  8
COTAS
 62
     4
420
    65535
100
AcDbMText
 10
20.7538028841137
 20
21.24300676574425
 30
0.0
 40
0.2794955300208335
 41
0.0
 71
     7
 72
     1
  1
\fMyriad Pro|b0|i0|c0|p34;\W1;135
 11
-4.371139000186241E-8
 21
0.999999999999999
 31
0.0
 73
     1
 44
1.0
  0
ENDBLK
  5
15E
330
15B
100
AcDbEntity
  8
0
100
AcDbBlockEnd
  0
BLOCK
  5
162
330
160
100
AcDbEntity
  8
0
100
AcDbBlockBegin
  2
block 39
 70
     0
 71
     0
 10
0.0
 20
0.0
 30
0.0
  3
block 39
  1

  0
POLYLINE
  5
164
330
160
100
AcDbEntity
  8
COTAS
370
     0
100
AcDb2dPolyline
 66
     1
 10
0.0
 20
0.0
 30
0.0
  0
VERTEX
  5
165
330
164
100
AcDbEntity
  8
COTAS
370
     0
100
AcDbVertex
100
AcDb2dVertex
 10
19.38775272112673
 20
22.51960496544575
 30
0.0
  0
VERTEX
  5
166
330
164
100
AcDbEntity
  8
COTAS
370
     0
100
AcDbVertex
100
AcDb2dVertex
 10
19.38775272112673
 20
22.51960496544575
 30
0.0
  0
SEQEND
  5
167
330
164
100
AcDbEntity
  8
COTAS
370
     0
  0
ENDBLK
  5
163
330
160
100
AcDbEntity
  8
0
100
AcDbBlockEnd
  0
BLOCK
  5
16A
330
168
100
AcDbEntity
  8
0
100
AcDbBlockBegin
  2
block 40
 70
     0
 71
     0
 10
0.0
 20
0.0
 30
0.0
  3
block 40
  1

  0
POLYLINE
  5
16C
330
168
100
AcDbEntity
  8
COTAS
370
     0
100
AcDb2dPolyline
 66
     1
 10
0.0
 20
0.0
 30
0.0
  0
VERTEX
  5
16D
330
16C
100
AcDbEntity
  8
COTAS
370
     0
100
AcDbVertex
100
AcDb2dVertex
 10
18.48954683367095
 20
20.80489368386427
 30
0.0
  0
VERTEX
  5
16E
330
16C
100
AcDbEntity
  8
COTAS
370
     0
100
AcDbVertex
100
AcDb2dVertex
 10
18.48954683367095
 20
20.80489368386427
 30
0.0
  0
SEQEND
  5
16F
330
16C
100
AcDbEntity
  8
COTAS
370
     0
  0
ENDBLK
  5
16B
330
168
100
AcDbEntity
  8
0
100
AcDbBlockEnd
  0
BLOCK
  5
172
330
170
100
AcDbEntity
  8
0
100
AcDbBlockBegin
  2
block 41
 70
     0
 71
     0
 10
0.0
 20
0.0
 30
0.0
  3
block 41
  1

  0
POLYLINE
  5
174
330
170
100
AcDbEntity
  8
COTAS
370
     0
100
AcDb2dPolyline
 66
     1
 10
0.0
 20
0.0
 30
0.0
  0
VERTEX
  5
175
330
174
100
AcDbEntity
  8
COTAS
370
     0
100
AcDbVertex
100
AcDb2dVertex
 10
20.83321238743471
 20
20.80489368386427
 30
0.0
  0
VERTEX
  5
176
330
174
100
AcDbEntity
  8
COTAS
370
     0
100
AcDbVertex
100
AcDb2dVertex
 10
20.83321238743471
 20
20.80489368386427
 30
0.0
  0
SEQEND
  5
177
330
174
100
AcDbEntity
  8
COTAS
370
     0
  0
ENDBLK
  5
173
330
170
100
AcDbEntity
  8
0
100
AcDbBlockEnd
  0
BLOCK
  5
17A
330
178
100
AcDbEntity
  8
0
100
AcDbBlockBegin
  2
block 42
 70
     0
 71
     0
 10
0.0
 20
0.0
 30
0.0
  3
block 42
  1

  0
INSERT
  5
17D
330
178
100
AcDbEntity
  8
COTAS
100
AcDbBlockReference
  2
block 43
 10
0.0
 20
0.0
 30
0.0
  0
INSERT
  5
185
330
178
100
AcDbEntity
  8
COTAS
100
AcDbBlockReference
  2
block 44
 10
0.0
 20
0.0
 30
0.0
  0
INSERT
  5
18D
330
178
100
AcDbEntity
  8
COTAS
100
AcDbBlockReference
  2
block 45
 10
0.0
 20
0.0
 30
0.0
  0
INSERT
  5
195
330
178
100
AcDbEntity
  8
COTAS
100
AcDbBlockReference
  2
block 46
 10
0.0
 20
0.0
 30
0.0
  0
INSERT
  5
1A0
330
178
100
AcDbEntity
  8
COTAS
100
AcDbBlockReference
  2
block 47
 10
0.0
 20
0.0
 30
0.0
  0
INSERT
  5
1AB
330
178
100
AcDbEntity
  8
COTAS
100
AcDbBlockReference
  2
block 48
 10
0.0
 20
0.0
 30
0.0
  0
INSERT
  5
1B0
330
178
100
AcDbEntity
  8
COTAS
100
AcDbBlockReference
  2
block 49
 10
0.0
 20
0.0
 30
0.0
  0
INSERT
  5
1B8
330
178
100
AcDbEntity
  8
COTAS
100
AcDbBlockReference
  2
block 50
 10
0.0
 20
0.0
 30
0.0
  0
INSERT
  5
1C0
330
178
100
AcDbEntity
  8
COTAS
100
AcDbBlockReference
  2
block 51
 10
0.0
 20
0.0
 30
0.0
  0
ENDBLK
  5
17B
330
178
100
AcDbEntity
  8
0
100
AcDbBlockEnd
  0
BLOCK
  5
17E
330
17C
100
AcDbEntity
  8
0
100
AcDbBlockBegin
  2
block 43
 70
     0
 71
     0
 10
0.0
 20
0.0
 30
0.0
  3
block 43
  1

  0
POLYLINE
  5
180
330
17C
100
AcDbEntity
  8
COTAS
 62
     1
420
 16711680
370
    25
100
AcDb2dPolyline
 66
     1
 10
0.0
 20
0.0
 30
0.0
  0
VERTEX
  5
181
330
180
100
AcDbEntity
  8
COTAS
 62
     1
420
 16711680
370
    25
100
AcDbVertex
100
AcDb2dVertex
 10
13.99820733759388
 20
23.17860049007745
 30
0.0
  0
VERTEX
  5
182
330
180
100
AcDbEntity
  8
COTAS
 62
     1
420
 16711680
370
    25
100
AcDbVertex
100
AcDb2dVertex
 10
12.84485751018347
 20
23.17860049007745
 30
0.0
  0
SEQEND
  5
183
330
180
100
AcDbEntity
  8
COTAS
370
    25
  0
ENDBLK
  5
17F
330
17C
100
AcDbEntity
  8
0
100
AcDbBlockEnd
  0
BLOCK
  5
186
330
184
100
AcDbEntity
  8
0
100
AcDbBlockBegin
  2
block 44
 70
     0
 71
     0
 10
0.0
 20
0.0
 30
0.0
  3
block 44
  1

  0
POLYLINE
  5
188
330
184
100
AcDbEntity
  8
COTAS
 62
     1
420
 16711680
370
    25
100
AcDb2dPolyline
 66
     1
 10
0.0
 20
0.0
 30
0.0
  0
VERTEX
  5
189
330
188
100
AcDbEntity
  8
COTAS
 62
     1
420
 16711680
370
    25
100
AcDbVertex
100
AcDb2dVertex
 10
14.53533252903769
 20
20.80489368386427
 30
0.0
  0
VERTEX
  5
18A
330
188
100
AcDbEntity
  8
COTAS
 62
     1
420
 16711680
370
    25
100
AcDbVertex
100
AcDb2dVertex
 10
12.84485751018347
 20
20.80489368386427
 30
0.0
  0
SEQEND
  5
18B
330
188
100
AcDbEntity
  8
COTAS
370
    25
  0
ENDBLK
  5
187
330
184
100
AcDbEntity
  8
0
100
AcDbBlockEnd
  0
BLOCK
  5
18E
330
18C
100
AcDbEntity
  8
0
100
AcDbBlockBegin
  2
block 45
 70
     0
 71
     0
 10
0.0
 20
0.0
 30
0.0
  3
block 45
  1

  0
POLYLINE
  5
190
330
18C
100
AcDbEntity
  8
COTAS
 62
     1
420
 16711680
370
    25
100
AcDb2dPolyline
 66
     1
 10
0.0
 20
0.0
 30
0.0
  0
VERTEX
  5
191
330
190
100
AcDbEntity
  8
COTAS
 62
     1
420
 16711680
370
    25
100
AcDbVertex
100
AcDb2dVertex
 10
13.0036765168255
 20
22.86099692777096
 30
0.0
  0
VERTEX
  5
192
330
190
100
AcDbEntity
  8
COTAS
 62
     1
420
 16711680
370
    25
100
AcDbVertex
100
AcDb2dVertex
 10
13.0036765168255
 20
21.12249724617076
 30
0.0
  0
SEQEND
  5
193
330
190
100
AcDbEntity
  8
COTAS
370
    25
  0
ENDBLK
  5
18F
330
18C
100
AcDbEntity
  8
0
100
AcDbBlockEnd
  0
BLOCK
  5
196
330
194
100
AcDbEntity
  8
0
100
AcDbBlockBegin
  2
block 46
 70
     0
 71
     0
 10
0.0
 20
0.0
 30
0.0
  3
block 46
  1

  0
POLYLINE
  5
198
330
194
100
AcDbEntity
  8
COTAS
370
     0
100
AcDb2dPolyline
 66
     1
 10
0.0
 20
0.0
 30
0.0
  0
VERTEX
  5
199
330
198
100
AcDbEntity
  8
COTAS
370
     0
100
AcDbVertex
100
AcDb2dVertex
 10
12.95072536428563
 20
22.86099692777096
 30
0.0
  0
VERTEX
  5
19A
330
198
100
AcDbEntity
  8
COTAS
370
     0
100
AcDbVertex
100
AcDb2dVertex
 10
13.05659321838779
 20
22.86099692777096
 30
0.0
  0
VERTEX
  5
19B
330
198
100
AcDbEntity
  8
COTAS
370
     0
100
AcDbVertex
100
AcDb2dVertex
 10
13.0036765168255
 20
23.17860049007745
 30
0.0
  0
VERTEX
  5
19C
330
198
100
AcDbEntity
  8
COTAS
370
     0
100
AcDbVertex
100
AcDb2dVertex
 10
12.95072536428563
 20
22.86099692777096
 30
0.0
  0
SEQEND
  5
19D
330
198
100
AcDbEntity
  8
COTAS
370
     0
  0
HATCH
  5
19E
330
194
100
AcDbEntity
  8
COTAS
 62
     1
420
 16711680
100
AcDbHatch
 10
0.0
 20
0.0
 30
0.0
210
0.0
220
0.0
230
1.0
  2
SOLID
 70
     1
 71
     0
 91
        1
 92
        1
 93
        3
 72
     1
 10
12.95072536428563
 20
22.86099692777096
 11
13.05659321838779
 21
22.86099692777096
 72
     1
 10
13.05659321838779
 20
22.86099692777096
 11
13.0036765168255
 21
23.17860049007745
 72
     1
 10
13.0036765168255
 20
23.17860049007745
 11
12.95072536428563
 21
22.86099692777096
 97
        0
 75
     2
 76
     1
 98
        0
  0
ENDBLK
  5
197
330
194
100
AcDbEntity
  8
0
100
AcDbBlockEnd
  0
BLOCK
  5
1A1
330
19F
100
AcDbEntity
  8
0
100
AcDbBlockBegin
  2
block 47
 70
     0
 71
     0
 10
0.0
 20
0.0
 30
0.0
  3
block 47
  1

  0
POLYLINE
  5
1A3
330
19F
100
AcDbEntity
  8
COTAS
370
     0
100
AcDb2dPolyline
 66
     1
 10
0.0
 20
0.0
 30
0.0
  0
VERTEX
  5
1A4
330
1A3
100
AcDbEntity
  8
COTAS
370
     0
100
AcDbVertex
100
AcDb2dVertex
 10
12.95072536428563
 20
21.12249724617076
 30
0.0
  0
VERTEX
  5
1A5
330
1A3
100
AcDbEntity
  8
COTAS
370
     0
100
AcDbVertex
100
AcDb2dVertex
 10
13.05659321838779
 20
21.12249724617076
 30
0.0
  0
VERTEX
  5
1A6
330
1A3
100
AcDbEntity
  8
COTAS
370
     0
100
AcDbVertex
100
AcDb2dVertex
 10
13.0036765168255
 20
20.80489368386427
 30
0.0
  0
VERTEX
  5
1A7
330
1A3
100
AcDbEntity
  8
COTAS
370
     0
100
AcDbVertex
100
AcDb2dVertex
 10
12.95072536428563
 20
21.12249724617076
 30
0.0
  0
SEQEND
  5
1A8
330
1A3
100
AcDbEntity
  8
COTAS
370
     0
  0
HATCH
  5
1A9
330
19F
100
AcDbEntity
  8
COTAS
 62
     1
420
 16711680
100
AcDbHatch
 10
0.0
 20
0.0
 30
0.0
210
0.0
220
0.0
230
1.0
  2
SOLID
 70
     1
 71
     0
 91
        1
 92
        1
 93
        3
 72
     1
 10
12.95072536428563
 20
21.12249724617076
 11
13.05659321838779
 21
21.12249724617076
 72
     1
 10
13.05659321838779
 20
21.12249724617076
 11
13.0036765168255
 21
20.80489368386427
 72
     1
 10
13.0036765168255
 20
20.80489368386427
 11
12.95072536428563
 21
21.12249724617076
 97
        0
 75
     2
 76
     1
 98
        0
  0
ENDBLK
  5
1A2
330
19F
100
AcDbEntity
  8
0
100
AcDbBlockEnd
  0
BLOCK
  5
1AC
330
1AA
100
AcDbEntity
  8
0
100
AcDbBlockBegin
  2
block 48
 70
     0
 71
     0
 10
0.0
 20
0.0
 30
0.0
  3
block 48
  1

  0
MTEXT
  5
1AE
330
1AA
100
AcDbEntity
  8
COTAS
 62
     4
420
    65535
100
AcDbMText
 10
12.92426701350448
 20
21.57249591531571
 30
0.0
 40
0.2794955300208335
 41
0.0
 71
     7
 72
     1
  1
\fMyriad Pro|b0|i0|c0|p34;\W1;190
 11
-4.371139000186241E-8
 21
0.999999999999999
 31
0.0
 73
     1
 44
1.0
  0
ENDBLK
  5
1AD
330
1AA
100
AcDbEntity
  8
0
100
AcDbBlockEnd
  0
BLOCK
  5
1B1
330
1AF
100
AcDbEntity
  8
0
100
AcDbBlockBegin
  2
block 49
 70
     0
 71
     0
 10
0.0
 20
0.0
 30
0.0
  3
block 49
  1

  0
POLYLINE
  5
1B3
330
1AF
100
AcDbEntity
  8
COTAS
370
     0
100
AcDb2dPolyline
 66
     1
 10
0.0
 20
0.0
 30
0.0
  0
VERTEX
  5
1B4
330
1B3
100
AcDbEntity
  8
COTAS
370
     0
100
AcDbVertex
100
AcDb2dVertex
 10
14.0776168409149
 20
23.17860049007745
 30
0.0
  0
VERTEX
  5
1B5
330
1B3
100
AcDbEntity
  8
COTAS
370
     0
100
AcDbVertex
100
AcDb2dVertex
 10
14.0776168409149
 20
23.17860049007745
 30
0.0
  0
SEQEND
  5
1B6
330
1B3
100
AcDbEntity
  8
COTAS
370
     0
  0
ENDBLK
  5
1B2
330
1AF
100
AcDbEntity
  8
0
100
AcDbBlockEnd
  0
BLOCK
  5
1B9
330
1B7
100
AcDbEntity
  8
0
100
AcDbBlockBegin
  2
block 50
 70
     0
 71
     0
 10
0.0
 20
0.0
 30
0.0
  3
block 50
  1

  0
POLYLINE
  5
1BB
330
1B7
100
AcDbEntity
  8
COTAS
370
     0
100
AcDb2dPolyline
 66
     1
 10
0.0
 20
0.0
 30
0.0
  0
VERTEX
  5
1BC
330
1BB
100
AcDbEntity
  8
COTAS
370
     0
100
AcDbVertex
100
AcDb2dVertex
 10
14.61474203235871
 20
20.80489368386427
 30
0.0
  0
VERTEX
  5
1BD
330
1BB
100
AcDbEntity
  8
COTAS
370
     0
100
AcDbVertex
100
AcDb2dVertex
 10
14.61474203235871
 20
20.80489368386427
 30
0.0
  0
SEQEND
  5
1BE
330
1BB
100
AcDbEntity
  8
COTAS
370
     0
  0
ENDBLK
  5
1BA
330
1B7
100
AcDbEntity
  8
0
100
AcDbBlockEnd
  0
BLOCK
  5
1C1
330
1BF
100
AcDbEntity
  8
0
100
AcDbBlockBegin
  2
block 51
 70
     0
 71
     0
 10
0.0
 20
0.0
 30
0.0
  3
block 51
  1

  0
POLYLINE
  5
1C3
330
1BF
100
AcDbEntity
  8
COTAS
370
     0
100
AcDb2dPolyline
 66
     1
 10
0.0
 20
0.0
 30
0.0
  0
VERTEX
  5
1C4
330
1C3
100
AcDbEntity
  8
COTAS
370
     0
100
AcDbVertex
100
AcDb2dVertex
 10
13.0036765168255
 20
20.80489368386427
 30
0.0
  0
VERTEX
  5
1C5
330
1C3
100
AcDbEntity
  8
COTAS
370
     0
100
AcDbVertex
100
AcDb2dVertex
 10
13.0036765168255
 20
20.80489368386427
 30
0.0
  0
SEQEND
  5
1C6
330
1C3
100
AcDbEntity
  8
COTAS
370
     0
  0
ENDBLK
  5
1C2
330
1BF
100
AcDbEntity
  8
0
100
AcDbBlockEnd
  0
BLOCK
  5
1C9
330
1C7
100
AcDbEntity
  8
0
100
AcDbBlockBegin
  2
block 52
 70
     0
 71
     0
 10
0.0
 20
0.0
 30
0.0
  3
block 52
  1

  0
INSERT
  5
1CC
330
1C7
100
AcDbEntity
  8
COTAS
100
AcDbBlockReference
  2
block 53
 10
0.0
 20
0.0
 30
0.0
  0
INSERT
  5
1D4
330
1C7
100
AcDbEntity
  8
COTAS
100
AcDbBlockReference
  2
block 54
 10
0.0
 20
0.0
 30
0.0
  0
INSERT
  5
1DC
330
1C7
100
AcDbEntity
  8
COTAS
100
AcDbBlockReference
  2
block 55
 10
0.0
 20
0.0
 30
0.0
  0
INSERT
  5
1E4
330
1C7
100
AcDbEntity
  8
COTAS
100
AcDbBlockReference
  2
block 56
 10
0.0
 20
0.0
 30
0.0
  0
INSERT
  5
1EF
330
1C7
100
AcDbEntity
  8
COTAS
100
AcDbBlockReference
  2
block 57
 10
0.0
 20
0.0
 30
0.0
  0
INSERT
  5
1FA
330
1C7
100
AcDbEntity
  8
COTAS
100
AcDbBlockReference
  2
block 58
 10
0.0
 20
0.0
 30
0.0
  0
INSERT
  5
1FF
330
1C7
100
AcDbEntity
  8
COTAS
100
AcDbBlockReference
  2
block 59
 10
0.0
 20
0.0
 30
0.0
  0
INSERT
  5
207
330
1C7
100
AcDbEntity
  8
COTAS
100
AcDbBlockReference
  2
block 60
 10
0.0
 20
0.0
 30
0.0
  0
INSERT
  5
20F
330
1C7
100
AcDbEntity
  8
COTAS
100
AcDbBlockReference
  2
block 61
 10
0.0
 20
0.0
 30
0.0
  0
ENDBLK
  5
1CA
330
1C7
100
AcDbEntity
  8
0
100
AcDbBlockEnd
  0
BLOCK
  5
1CD
330
1CB
100
AcDbEntity
  8
0
100
AcDbBlockBegin
  2
block 53
 70
     0
 71
     0
 10
0.0
 20
0.0
 30
0.0
  3
block 53
  1

  0
POLYLINE
  5
1CF
330
1CB
100
AcDbEntity
  8
COTAS
 62
     1
420
 16711680
370
    25
100
AcDb2dPolyline
 66
     1
 10
0.0
 20
0.0
 30
0.0
  0
VERTEX
  5
1D0
330
1CF
100
AcDbEntity
  8
COTAS
 62
     1
420
 16711680
370
    25
100
AcDbVertex
100
AcDb2dVertex
 10
14.01436484607872
 20
23.1382928463093
 30
0.0
  0
VERTEX
  5
1D1
330
1CF
100
AcDbEntity
  8
COTAS
 62
     1
420
 16711680
370
    25
100
AcDbVertex
100
AcDb2dVertex
 10
14.01436484607872
 20
19.34815132239896
 30
0.0
  0
SEQEND
  5
1D2
330
1CF
100
AcDbEntity
  8
COTAS
370
    25
  0
ENDBLK
  5
1CE
330
1CB
100
AcDbEntity
  8
0
100
AcDbBlockEnd
  0
BLOCK
  5
1D5
330
1D3
100
AcDbEntity
  8
0
100
AcDbBlockBegin
  2
block 54
 70
     0
 71
     0
 10
0.0
 20
0.0
 30
0.0
  3
block 54
  1

  0
POLYLINE
  5
1D7
330
1D3
100
AcDbEntity
  8
COTAS
 62
     1
420
 16711680
370
    25
100
AcDb2dPolyline
 66
     1
 10
0.0
 20
0.0
 30
0.0
  0
VERTEX
  5
1D8
330
1D7
100
AcDbEntity
  8
COTAS
 62
     1
420
 16711680
370
    25
100
AcDbVertex
100
AcDb2dVertex
 10
15.85342693123383
 20
20.72550140603204
 30
0.0
  0
VERTEX
  5
1D9
330
1D7
100
AcDbEntity
  8
COTAS
 62
     1
420
 16711680
370
    25
100
AcDbVertex
100
AcDb2dVertex
 10
15.85342693123383
 20
19.34815132239896
 30
0.0
  0
SEQEND
  5
1DA
330
1D7
100
AcDbEntity
  8
COTAS
370
    25
  0
ENDBLK
  5
1D6
330
1D3
100
AcDbEntity
  8
0
100
AcDbBlockEnd
  0
BLOCK
  5
1DD
330
1DB
100
AcDbEntity
  8
0
100
AcDbBlockBegin
  2
block 55
 70
     0
 71
     0
 10
0.0
 20
0.0
 30
0.0
  3
block 55
  1

  0
POLYLINE
  5
1DF
330
1DB
100
AcDbEntity
  8
COTAS
 62
     1
420
 16711680
370
    25
100
AcDb2dPolyline
 66
     1
 10
0.0
 20
0.0
 30
0.0
  0
VERTEX
  5
1E0
330
1DF
100
AcDbEntity
  8
COTAS
 62
     1
420
 16711680
370
    25
100
AcDbVertex
100
AcDb2dVertex
 10
14.33200285936279
 20
19.5069531035522
 30
0.0
  0
VERTEX
  5
1E1
330
1DF
100
AcDbEntity
  8
COTAS
 62
     1
420
 16711680
370
    25
100
AcDbVertex
100
AcDb2dVertex
 10
15.53578891794976
 20
19.5069531035522
 30
0.0
  0
SEQEND
  5
1E2
330
1DF
100
AcDbEntity
  8
COTAS
370
    25
  0
ENDBLK
  5
1DE
330
1DB
100
AcDbEntity
  8
0
100
AcDbBlockEnd
  0
BLOCK
  5
1E5
330
1E3
100
AcDbEntity
  8
0
100
AcDbBlockBegin
  2
block 56
 70
     0
 71
     0
 10
0.0
 20
0.0
 30
0.0
  3
block 56
  1

  0
POLYLINE
  5
1E7
330
1E3
100
AcDbEntity
  8
COTAS
370
     0
100
AcDb2dPolyline
 66
     1
 10
0.0
 20
0.0
 30
0.0
  0
VERTEX
  5
1E8
330
1E7
100
AcDbEntity
  8
COTAS
370
     0
100
AcDbVertex
100
AcDb2dVertex
 10
14.33200285936279
 20
19.55988703060328
 30
0.0
  0
VERTEX
  5
1E9
330
1E7
100
AcDbEntity
  8
COTAS
370
     0
100
AcDbVertex
100
AcDb2dVertex
 10
14.33200285936279
 20
19.45401917650112
 30
0.0
  0
VERTEX
  5
1EA
330
1E7
100
AcDbEntity
  8
COTAS
370
     0
100
AcDbVertex
100
AcDb2dVertex
 10
14.01436484607872
 20
19.5069531035522
 30
0.0
  0
VERTEX
  5
1EB
330
1E7
100
AcDbEntity
  8
COTAS
370
     0
100
AcDbVertex
100
AcDb2dVertex
 10
14.33200285936279
 20
19.55988703060328
 30
0.0
  0
SEQEND
  5
1EC
330
1E7
100
AcDbEntity
  8
COTAS
370
     0
  0
HATCH
  5
1ED
330
1E3
100
AcDbEntity
  8
COTAS
 62
     1
420
 16711680
100
AcDbHatch
 10
0.0
 20
0.0
 30
0.0
210
0.0
220
0.0
230
1.0
  2
SOLID
 70
     1
 71
     0
 91
        1
 92
        1
 93
        3
 72
     1
 10
14.33200285936279
 20
19.55988703060328
 11
14.33200285936279
 21
19.45401917650112
 72
     1
 10
14.33200285936279
 20
19.45401917650112
 11
14.01436484607872
 21
19.5069531035522
 72
     1
 10
14.01436484607872
 20
19.5069531035522
 11
14.33200285936279
 21
19.55988703060328
 97
        0
 75
     2
 76
     1
 98
        0
  0
ENDBLK
  5
1E6
330
1E3
100
AcDbEntity
  8
0
100
AcDbBlockEnd
  0
BLOCK
  5
1F0
330
1EE
100
AcDbEntity
  8
0
100
AcDbBlockBegin
  2
block 57
 70
     0
 71
     0
 10
0.0
 20
0.0
 30
0.0
  3
block 57
  1

  0
POLYLINE
  5
1F2
330
1EE
100
AcDbEntity
  8
COTAS
370
     0
100
AcDb2dPolyline
 66
     1
 10
0.0
 20
0.0
 30
0.0
  0
VERTEX
  5
1F3
330
1F2
100
AcDbEntity
  8
COTAS
370
     0
100
AcDbVertex
100
AcDb2dVertex
 10
15.53578891794976
 20
19.55988703060328
 30
0.0
  0
VERTEX
  5
1F4
330
1F2
100
AcDbEntity
  8
COTAS
370
     0
100
AcDbVertex
100
AcDb2dVertex
 10
15.53578891794976
 20
19.45401917650112
 30
0.0
  0
VERTEX
  5
1F5
330
1F2
100
AcDbEntity
  8
COTAS
370
     0
100
AcDbVertex
100
AcDb2dVertex
 10
15.85342693123383
 20
19.5069531035522
 30
0.0
  0
VERTEX
  5
1F6
330
1F2
100
AcDbEntity
  8
COTAS
370
     0
100
AcDbVertex
100
AcDb2dVertex
 10
15.53578891794976
 20
19.55988703060328
 30
0.0
  0
SEQEND
  5
1F7
330
1F2
100
AcDbEntity
  8
COTAS
370
     0
  0
HATCH
  5
1F8
330
1EE
100
AcDbEntity
  8
COTAS
 62
     1
420
 16711680
100
AcDbHatch
 10
0.0
 20
0.0
 30
0.0
210
0.0
220
0.0
230
1.0
  2
SOLID
 70
     1
 71
     0
 91
        1
 92
        1
 93
        3
 72
     1
 10
15.53578891794976
 20
19.55988703060328
 11
15.53578891794976
 21
19.45401917650112
 72
     1
 10
15.53578891794976
 20
19.45401917650112
 11
15.85342693123383
 21
19.5069531035522
 72
     1
 10
15.85342693123383
 20
19.5069531035522
 11
15.53578891794976
 21
19.55988703060328
 97
        0
 75
     2
 76
     1
 98
        0
  0
ENDBLK
  5
1F1
330
1EE
100
AcDbEntity
  8
0
100
AcDbBlockEnd
  0
BLOCK
  5
1FB
330
1F9
100
AcDbEntity
  8
0
100
AcDbBlockBegin
  2
block 58
 70
     0
 71
     0
 10
0.0
 20
0.0
 30
0.0
  3
block 58
  1

  0
MTEXT
  5
1FD
330
1F9
100
AcDbEntity
  8
COTAS
 62
     4
420
    65535
100
AcDbMText
 10
14.51466194248992
 20
19.58634538138443
 30
0.0
 40
0.2794955300208335
 41
0.0
 71
     7
 72
     1
  1
\fMyriad Pro|b0|i0|c0|p34;\W1;145
 73
     1
 44
1.0
  0
ENDBLK
  5
1FC
330
1F9
100
AcDbEntity
  8
0
100
AcDbBlockEnd
  0
BLOCK
  5
200
330
1FE
100
AcDbEntity
  8
0
100
AcDbBlockBegin
  2
block 59
 70
     0
 71
     0
 10
0.0
 20
0.0
 30
0.0
  3
block 59
  1

  0
POLYLINE
  5
202
330
1FE
100
AcDbEntity
  8
COTAS
370
     0
100
AcDb2dPolyline
 66
     1
 10
0.0
 20
0.0
 30
0.0
  0
VERTEX
  5
203
330
202
100
AcDbEntity
  8
COTAS
370
     0
100
AcDbVertex
100
AcDb2dVertex
 10
14.01436484607872
 20
23.21770234963031
 30
0.0
  0
VERTEX
  5
204
330
202
100
AcDbEntity
  8
COTAS
370
     0
100
AcDbVertex
100
AcDb2dVertex
 10
14.01436484607872
 20
23.21770234963031
 30
0.0
  0
SEQEND
  5
205
330
202
100
AcDbEntity
  8
COTAS
370
     0
  0
ENDBLK
  5
201
330
1FE
100
AcDbEntity
  8
0
100
AcDbBlockEnd
  0
BLOCK
  5
208
330
206
100
AcDbEntity
  8
0
100
AcDbBlockBegin
  2
block 60
 70
     0
 71
     0
 10
0.0
 20
0.0
 30
0.0
  3
block 60
  1

  0
POLYLINE
  5
20A
330
206
100
AcDbEntity
  8
COTAS
370
     0
100
AcDb2dPolyline
 66
     1
 10
0.0
 20
0.0
 30
0.0
  0
VERTEX
  5
20B
330
20A
100
AcDbEntity
  8
COTAS
370
     0
100
AcDbVertex
100
AcDb2dVertex
 10
15.85342693123383
 20
20.80489368386427
 30
0.0
  0
VERTEX
  5
20C
330
20A
100
AcDbEntity
  8
COTAS
370
     0
100
AcDbVertex
100
AcDb2dVertex
 10
15.85342693123383
 20
20.80489368386427
 30
0.0
  0
SEQEND
  5
20D
330
20A
100
AcDbEntity
  8
COTAS
370
     0
  0
ENDBLK
  5
209
330
206
100
AcDbEntity
  8
0
100
AcDbBlockEnd
  0
BLOCK
  5
210
330
20E
100
AcDbEntity
  8
0
100
AcDbBlockBegin
  2
block 61
 70
     0
 71
     0
 10
0.0
 20
0.0
 30
0.0
  3
block 61
  1

  0
POLYLINE
  5
212
330
20E
100
AcDbEntity
  8
COTAS
370
     0
100
AcDb2dPolyline
 66
     1
 10
0.0
 20
0.0
 30
0.0
  0
VERTEX
  5
213
330
212
100
AcDbEntity
  8
COTAS
370
     0
100
AcDbVertex
100
AcDb2dVertex
 10
15.85342693123383
 20
19.5069531035522
 30
0.0
  0
VERTEX
  5
214
330
212
100
AcDbEntity
  8
COTAS
370
     0
100
AcDbVertex
100
AcDb2dVertex
 10
15.85342693123383
 20
19.5069531035522
 30
0.0
  0
SEQEND
  5
215
330
212
100
AcDbEntity
  8
COTAS
370
     0
  0
ENDBLK
  5
211
330
20E
100
AcDbEntity
  8
0
100
AcDbBlockEnd
  0
BLOCK
  5
218
330
216
100
AcDbEntity
  8
0
100
AcDbBlockBegin
  2
block 62
 70
     0
 71
     0
 10
0.0
 20
0.0
 30
0.0
  3
block 62
  1

  0
INSERT
  5
21B
330
216
100
AcDbEntity
  8
COTAS
100
AcDbBlockReference
  2
block 63
 10
0.0
 20
0.0
 30
0.0
  0
INSERT
  5
223
330
216
100
AcDbEntity
  8
COTAS
100
AcDbBlockReference
  2
block 64
 10
0.0
 20
0.0
 30
0.0
  0
INSERT
  5
22B
330
216
100
AcDbEntity
  8
COTAS
100
AcDbBlockReference
  2
block 65
 10
0.0
 20
0.0
 30
0.0
  0
INSERT
  5
233
330
216
100
AcDbEntity
  8
COTAS
100
AcDbBlockReference
  2
block 66
 10
0.0
 20
0.0
 30
0.0
  0
INSERT
  5
23E
330
216
100
AcDbEntity
  8
COTAS
100
AcDbBlockReference
  2
block 67
 10
0.0
 20
0.0
 30
0.0
  0
INSERT
  5
249
330
216
100
AcDbEntity
  8
COTAS
100
AcDbBlockReference
  2
block 68
 10
0.0
 20
0.0
 30
0.0
  0
INSERT
  5
24E
330
216
100
AcDbEntity
  8
COTAS
100
AcDbBlockReference
  2
block 69
 10
0.0
 20
0.0
 30
0.0
  0
INSERT
  5
256
330
216
100
AcDbEntity
  8
COTAS
100
AcDbBlockReference
  2
block 70
 10
0.0
 20
0.0
 30
0.0
  0
INSERT
  5
25E
330
216
100
AcDbEntity
  8
COTAS
100
AcDbBlockReference
  2
block 71
 10
0.0
 20
0.0
 30
0.0
  0
ENDBLK
  5
219
330
216
100
AcDbEntity
  8
0
100
AcDbBlockEnd
  0
BLOCK
  5
21C
330
21A
100
AcDbEntity
  8
0
100
AcDbBlockBegin
  2
block 63
 70
     0
 71
     0
 10
0.0
 20
0.0
 30
0.0
  3
block 63
  1

  0
POLYLINE
  5
21E
330
21A
100
AcDbEntity
  8
COTAS
 62
     1
420
 16711680
370
    25
100
AcDb2dPolyline
 66
     1
 10
0.0
 20
0.0
 30
0.0
  0
VERTEX
  5
21F
330
21E
100
AcDbEntity
  8
COTAS
 62
     1
420
 16711680
370
    25
100
AcDbVertex
100
AcDb2dVertex
 10
14.61474203235871
 20
19.42754360023118
 30
0.0
  0
VERTEX
  5
220
330
21E
100
AcDbEntity
  8
COTAS
 62
     1
420
 16711680
370
    25
100
AcDbVertex
100
AcDb2dVertex
 10
14.61474203235871
 20
18.54935373074917
 30
0.0
  0
SEQEND
  5
221
330
21E
100
AcDbEntity
  8
COTAS
370
    25
  0
ENDBLK
  5
21D
330
21A
100
AcDbEntity
  8
0
100
AcDbBlockEnd
  0
BLOCK
  5
224
330
222
100
AcDbEntity
  8
0
100
AcDbBlockBegin
  2
block 64
 70
     0
 71
     0
 10
0.0
 20
0.0
 30
0.0
  3
block 64
  1

  0
POLYLINE
  5
226
330
222
100
AcDbEntity
  8
COTAS
 62
     1
420
 16711680
370
    25
100
AcDb2dPolyline
 66
     1
 10
0.0
 20
0.0
 30
0.0
  0
VERTEX
  5
227
330
226
100
AcDbEntity
  8
COTAS
 62
     1
420
 16711680
370
    25
100
AcDbVertex
100
AcDb2dVertex
 10
18.48954683367095
 20
20.72550140603204
 30
0.0
  0
VERTEX
  5
228
330
226
100
AcDbEntity
  8
COTAS
 62
     1
420
 16711680
370
    25
100
AcDbVertex
100
AcDb2dVertex
 10
18.48954683367095
 20
18.54935373074917
 30
0.0
  0
SEQEND
  5
229
330
226
100
AcDbEntity
  8
COTAS
370
    25
  0
ENDBLK
  5
225
330
222
100
AcDbEntity
  8
0
100
AcDbBlockEnd
  0
BLOCK
  5
22C
330
22A
100
AcDbEntity
  8
0
100
AcDbBlockBegin
  2
block 65
 70
     0
 71
     0
 10
0.0
 20
0.0
 30
0.0
  3
block 65
  1

  0
POLYLINE
  5
22E
330
22A
100
AcDbEntity
  8
COTAS
 62
     1
420
 16711680
370
    25
100
AcDb2dPolyline
 66
     1
 10
0.0
 20
0.0
 30
0.0
  0
VERTEX
  5
22F
330
22E
100
AcDbEntity
  8
COTAS
 62
     1
420
 16711680
370
    25
100
AcDbVertex
100
AcDb2dVertex
 10
14.93234559466519
 20
18.70815551190242
 30
0.0
  0
VERTEX
  5
230
330
22E
100
AcDbEntity
  8
COTAS
 62
     1
420
 16711680
370
    25
100
AcDbVertex
100
AcDb2dVertex
 10
18.17194327136447
 20
18.70815551190242
 30
0.0
  0
SEQEND
  5
231
330
22E
100
AcDbEntity
  8
COTAS
370
    25
  0
ENDBLK
  5
22D
330
22A
100
AcDbEntity
  8
0
100
AcDbBlockEnd
  0
BLOCK
  5
234
330
232
100
AcDbEntity
  8
0
100
AcDbBlockBegin
  2
block 66
 70
     0
 71
     0
 10
0.0
 20
0.0
 30
0.0
  3
block 66
  1

  0
POLYLINE
  5
236
330
232
100
AcDbEntity
  8
COTAS
370
     0
100
AcDb2dPolyline
 66
     1
 10
0.0
 20
0.0
 30
0.0
  0
VERTEX
  5
237
330
236
100
AcDbEntity
  8
COTAS
370
     0
100
AcDbVertex
100
AcDb2dVertex
 10
14.93234559466519
 20
18.76108943895349
 30
0.0
  0
VERTEX
  5
238
330
236
100
AcDbEntity
  8
COTAS
370
     0
100
AcDbVertex
100
AcDb2dVertex
 10
14.93234559466519
 20
18.65522158485133
 30
0.0
  0
VERTEX
  5
239
330
236
100
AcDbEntity
  8
COTAS
370
     0
100
AcDbVertex
100
AcDb2dVertex
 10
14.61474203235871
 20
18.70815551190242
 30
0.0
  0
VERTEX
  5
23A
330
236
100
AcDbEntity
  8
COTAS
370
     0
100
AcDbVertex
100
AcDb2dVertex
 10
14.93234559466519
 20
18.76108943895349
 30
0.0
  0
SEQEND
  5
23B
330
236
100
AcDbEntity
  8
COTAS
370
     0
  0
HATCH
  5
23C
330
232
100
AcDbEntity
  8
COTAS
 62
     1
420
 16711680
100
AcDbHatch
 10
0.0
 20
0.0
 30
0.0
210
0.0
220
0.0
230
1.0
  2
SOLID
 70
     1
 71
     0
 91
        1
 92
        1
 93
        3
 72
     1
 10
14.93234559466519
 20
18.76108943895349
 11
14.93234559466519
 21
18.65522158485133
 72
     1
 10
14.93234559466519
 20
18.65522158485133
 11
14.61474203235871
 21
18.70815551190242
 72
     1
 10
14.61474203235871
 20
18.70815551190242
 11
14.93234559466519
 21
18.76108943895349
 97
        0
 75
     2
 76
     1
 98
        0
  0
ENDBLK
  5
235
330
232
100
AcDbEntity
  8
0
100
AcDbBlockEnd
  0
BLOCK
  5
23F
330
23D
100
AcDbEntity
  8
0
100
AcDbBlockBegin
  2
block 67
 70
     0
 71
     0
 10
0.0
 20
0.0
 30
0.0
  3
block 67
  1

  0
POLYLINE
  5
241
330
23D
100
AcDbEntity
  8
COTAS
370
     0
100
AcDb2dPolyline
 66
     1
 10
0.0
 20
0.0
 30
0.0
  0
VERTEX
  5
242
330
241
100
AcDbEntity
  8
COTAS
370
     0
100
AcDbVertex
100
AcDb2dVertex
 10
18.17194327136447
 20
18.76108943895349
 30
0.0
  0
VERTEX
  5
243
330
241
100
AcDbEntity
  8
COTAS
370
     0
100
AcDbVertex
100
AcDb2dVertex
 10
18.17194327136447
 20
18.65522158485133
 30
0.0
  0
VERTEX
  5
244
330
241
100
AcDbEntity
  8
COTAS
370
     0
100
AcDbVertex
100
AcDb2dVertex
 10
18.48954683367095
 20
18.70815551190242
 30
0.0
  0
VERTEX
  5
245
330
241
100
AcDbEntity
  8
COTAS
370
     0
100
AcDbVertex
100
AcDb2dVertex
 10
18.17194327136447
 20
18.76108943895349
 30
0.0
  0
SEQEND
  5
246
330
241
100
AcDbEntity
  8
COTAS
370
     0
  0
HATCH
  5
247
330
23D
100
AcDbEntity
  8
COTAS
 62
     1
420
 16711680
100
AcDbHatch
 10
0.0
 20
0.0
 30
0.0
210
0.0
220
0.0
230
1.0
  2
SOLID
 70
     1
 71
     0
 91
        1
 92
        1
 93
        3
 72
     1
 10
18.17194327136447
 20
18.76108943895349
 11
18.17194327136447
 21
18.65522158485133
 72
     1
 10
18.17194327136447
 20
18.65522158485133
 11
18.48954683367095
 21
18.70815551190242
 72
     1
 10
18.48954683367095
 20
18.70815551190242
 11
18.17194327136447
 21
18.76108943895349
 97
        0
 75
     2
 76
     1
 98
        0
  0
ENDBLK
  5
240
330
23D
100
AcDbEntity
  8
0
100
AcDbBlockEnd
  0
BLOCK
  5
24A
330
248
100
AcDbEntity
  8
0
100
AcDbBlockBegin
  2
block 68
 70
     0
 71
     0
 10
0.0
 20
0.0
 30
0.0
  3
block 68
  1

  0
MTEXT
  5
24C
330
248
100
AcDbEntity
  8
COTAS
 62
     4
420
    65535
100
AcDbMText
 10
16.15287482835586
 20
18.78756501522343
 30
0.0
 40
0.2794955300208335
 41
0.0
 71
     7
 72
     1
  1
\fMyriad Pro|b0|i0|c0|p34;\W1;305
 73
     1
 44
1.0
  0
ENDBLK
  5
24B
330
248
100
AcDbEntity
  8
0
100
AcDbBlockEnd
  0
BLOCK
  5
24F
330
24D
100
AcDbEntity
  8
0
100
AcDbBlockBegin
  2
block 69
 70
     0
 71
     0
 10
0.0
 20
0.0
 30
0.0
  3
block 69
  1

  0
POLYLINE
  5
251
330
24D
100
AcDbEntity
  8
COTAS
370
     0
100
AcDb2dPolyline
 66
     1
 10
0.0
 20
0.0
 30
0.0
  0
VERTEX
  5
252
330
251
100
AcDbEntity
  8
COTAS
370
     0
100
AcDbVertex
100
AcDb2dVertex
 10
14.61474203235871
 20
19.5069531035522
 30
0.0
  0
VERTEX
  5
253
330
251
100
AcDbEntity
  8
COTAS
370
     0
100
AcDbVertex
100
AcDb2dVertex
 10
14.61474203235871
 20
19.5069531035522
 30
0.0
  0
SEQEND
  5
254
330
251
100
AcDbEntity
  8
COTAS
370
     0
  0
ENDBLK
  5
250
330
24D
100
AcDbEntity
  8
0
100
AcDbBlockEnd
  0
BLOCK
  5
257
330
255
100
AcDbEntity
  8
0
100
AcDbBlockBegin
  2
block 70
 70
     0
 71
     0
 10
0.0
 20
0.0
 30
0.0
  3
block 70
  1

  0
POLYLINE
  5
259
330
255
100
AcDbEntity
  8
COTAS
370
     0
100
AcDb2dPolyline
 66
     1
 10
0.0
 20
0.0
 30
0.0
  0
VERTEX
  5
25A
330
259
100
AcDbEntity
  8
COTAS
370
     0
100
AcDbVertex
100
AcDb2dVertex
 10
18.48954683367095
 20
20.80489368386427
 30
0.0
  0
VERTEX
  5
25B
330
259
100
AcDbEntity
  8
COTAS
370
     0
100
AcDbVertex
100
AcDb2dVertex
 10
18.48954683367095
 20
20.80489368386427
 30
0.0
  0
SEQEND
  5
25C
330
259
100
AcDbEntity
  8
COTAS
370
     0
  0
ENDBLK
  5
258
330
255
100
AcDbEntity
  8
0
100
AcDbBlockEnd
  0
BLOCK
  5
25F
330
25D
100
AcDbEntity
  8
0
100
AcDbBlockBegin
  2
block 71
 70
     0
 71
     0
 10
0.0
 20
0.0
 30
0.0
  3
block 71
  1

  0
POLYLINE
  5
261
330
25D
100
AcDbEntity
  8
COTAS
370
     0
100
AcDb2dPolyline
 66
     1
 10
0.0
 20
0.0
 30
0.0
  0
VERTEX
  5
262
330
261
100
AcDbEntity
  8
COTAS
370
     0
100
AcDbVertex
100
AcDb2dVertex
 10
18.48954683367095
 20
18.70815551190242
 30
0.0
  0
VERTEX
  5
263
330
261
100
AcDbEntity
  8
COTAS
370
     0
100
AcDbVertex
100
AcDb2dVertex
 10
18.48954683367095
 20
18.70815551190242
 30
0.0
  0
SEQEND
  5
264
330
261
100
AcDbEntity
  8
COTAS
370
     0
  0
ENDBLK
  5
260
330
25D
100
AcDbEntity
  8
0
100
AcDbBlockEnd
  0
BLOCK
  5
268
330
266
100
AcDbEntity
  8
0
100
AcDbBlockBegin
  2
block 72
 70
     0
 71
     0
 10
0.0
 20
0.0
 30
0.0
  3
block 72
  1

  0
POLYLINE
  5
26A
330
266
100
AcDbEntity
  8
010
 62
     1
420
 16711680
370
    25
100
AcDb2dPolyline
 66
     1
 10
0.0
 20
0.0
 30
0.0
  0
VERTEX
  5
26B
330
26A
100
AcDbEntity
  8
010
 62
     1
420
 16711680
370
    25
100
AcDbVertex
100
AcDb2dVertex
 10
5.570843653045578
 20
11.55296307643662
 30
0.0
  0
VERTEX
  5
26C
330
26A
100
AcDbEntity
  8
010
 62
     1
420
 16711680
370
    25
100
AcDbVertex
100
AcDb2dVertex
 10
5.71459035699653
 20
11.69669255489879
 30
0.0
  0
SEQEND
  5
26D
330
26A
100
AcDbEntity
  8
010
370
    25
  0
ENDBLK
  5
269
330
266
100
AcDbEntity
  8
0
100
AcDbBlockEnd
  0
BLOCK
  5
270
330
26E
100
AcDbEntity
  8
0
100
AcDbBlockBegin
  2
block 73
 70
     0
 71
     0
 10
0.0
 20
0.0
 30
0.0
  3
block 73
  1

  0
POLYLINE
  5
272
330
26E
100
AcDbEntity
  8
010
 62
     1
420
 16711680
370
    25
100
AcDb2dPolyline
 66
     1
 10
0.0
 20
0.0
 30
0.0
  0
VERTEX
  5
273
330
272
100
AcDbEntity
  8
010
 62
     1
420
 16711680
370
    25
100
AcDbVertex
100
AcDb2dVertex
 10
5.570843653045578
 20
11.69669255489879
 30
0.0
  0
VERTEX
  5
274
330
272
100
AcDbEntity
  8
010
 62
     1
420
 16711680
370
    25
100
AcDbVertex
100
AcDb2dVertex
 10
5.71459035699653
 20
11.55296307643662
 30
0.0
  0
SEQEND
  5
275
330
272
100
AcDbEntity
  8
010
370
    25
  0
ENDBLK
  5
271
330
26E
100
AcDbEntity
  8
0
100
AcDbBlockEnd
  0
BLOCK
  5
278
330
276
100
AcDbEntity
  8
0
100
AcDbBlockBegin
  2
block 74
 70
     0
 71
     0
 10
0.0
 20
0.0
 30
0.0
  3
block 74
  1

  0
POLYLINE
  5
27A
330
276
100
AcDbEntity
  8
010
  6
AI-Linetype-1
 62
     1
420
 16711680
370
    25
100
AcDb2dPolyline
 66
     1
 10
0.0
 20
0.0
 30
0.0
  0
VERTEX
  5
27B
330
27A
100
AcDbEntity
  8
010
  6
AI-Linetype-1
 62
     1
420
 16711680
370
    25
100
AcDbVertex
100
AcDb2dVertex
 10
6.122955019736519
 20
20.80489368386427
 30
0.0
  0
VERTEX
  5
27C
330
27A
100
AcDbEntity
  8
010
  6
AI-Linetype-1
 62
     1
420
 16711680
370
    25
100
AcDbVertex
100
AcDb2dVertex
 10
6.122955019736519
 20
20.81440215367624
 30
0.0
  0
SEQEND
  5
27D
330
27A
100
AcDbEntity
  8
010
  6
AI-Linetype-1
370
    25
  0
ENDBLK
  5
279
330
276
100
AcDbEntity
  8
0
100
AcDbBlockEnd
  0
BLOCK
  5
281
330
27F
100
AcDbEntity
  8
0
100
AcDbBlockBegin
  2
block 75
 70
     0
 71
     0
 10
0.0
 20
0.0
 30
0.0
  3
block 75
  1

  0
POLYLINE
  5
283
330
27F
100
AcDbEntity
  8
010
370
     0
100
AcDb2dPolyline
 66
     1
 10
0.0
 20
0.0
 30
0.0
  0
VERTEX
  5
284
330
283
100
AcDbEntity
  8
010
370
     0
100
AcDbVertex
100
AcDb2dVertex
 10
14.13328962068356
 20
23.14569980648891
 30
0.0
  0
VERTEX
  5
285
330
283
100
AcDbEntity
  8
010
370
     0
100
AcDbVertex
100
AcDb2dVertex
 10
14.10638340719388
 20
23.1717447455391
 30
0.0
  0
VERTEX
  5
286
330
283
100
AcDbEntity
  8
010
370
     0
100
AcDbVertex
100
AcDb2dVertex
 10
14.10562548568713
 20
23.17212370629248
 30
0.0
  0
VERTEX
  5
287
330
283
100
AcDbEntity
  8
010
370
     0
100
AcDbVertex
100
AcDb2dVertex
 10
14.01408923825808
 20
23.11455612275694
 30
0.0
  0
VERTEX
  5
288
330
283
100
AcDbEntity
  8
010
370
     0
100
AcDbVertex
100
AcDb2dVertex
 10
14.61481093431386
 20
20.80494536033063
 30
0.0
  0
VERTEX
  5
289
330
283
100
AcDbEntity
  8
010
370
     0
100
AcDbVertex
100
AcDb2dVertex
 10
14.93241449662035
 20
20.80494536033063
 30
0.0
  0
VERTEX
  5
28A
330
283
100
AcDbEntity
  8
010
370
     0
100
AcDbVertex
100
AcDb2dVertex
 10
15.0310476454308
 20
20.9143616651235
 30
0.0
  0
VERTEX
  5
28B
330
283
100
AcDbEntity
  8
010
370
     0
100
AcDbVertex
100
AcDb2dVertex
 10
15.10883795280557
 20
20.94302487846974
 30
0.0
  0
VERTEX
  5
28C
330
283
100
AcDbEntity
  8
010
370
     0
100
AcDbVertex
100
AcDb2dVertex
 10
15.12768263754162
 20
20.94092336883739
 30
0.0
  0
VERTEX
  5
28D
330
283
100
AcDbEntity
  8
010
370
     0
100
AcDbVertex
100
AcDb2dVertex
 10
15.33686897340506
 20
20.92268157620898
 30
0.0
  0
VERTEX
  5
28E
330
283
100
AcDbEntity
  8
010
370
     0
100
AcDbVertex
100
AcDb2dVertex
 10
15.38351559704786
 20
20.8761555309877
 30
0.0
  0
VERTEX
  5
28F
330
283
100
AcDbEntity
  8
010
370
     0
100
AcDbVertex
100
AcDb2dVertex
 10
15.38971677301219
 20
20.80494536033063
 30
0.0
  0
VERTEX
  5
290
330
283
100
AcDbEntity
  8
010
370
     0
100
AcDbVertex
100
AcDb2dVertex
 10
15.56117928842594
 20
20.80494536033063
 30
0.0
  0
VERTEX
  5
291
330
283
100
AcDbEntity
  8
010
370
     0
100
AcDbVertex
100
AcDb2dVertex
 10
15.56117928842594
 20
20.93458438896273
 30
0.0
  0
VERTEX
  5
292
330
283
100
AcDbEntity
  8
010
370
     0
100
AcDbVertex
100
AcDb2dVertex
 10
15.4084581048155
 20
21.07466206380145
 30
0.0
  0
VERTEX
  5
293
330
283
100
AcDbEntity
  8
010
370
     0
100
AcDbVertex
100
AcDb2dVertex
 10
15.38337779313754
 20
21.08434278850133
 30
0.0
  0
VERTEX
  5
294
330
283
100
AcDbEntity
  8
010
370
     0
100
AcDbVertex
100
AcDb2dVertex
 10
15.21567043427996
 20
21.0991050323942
 30
0.0
  0
VERTEX
  5
295
330
283
100
AcDbEntity
  8
010
370
     0
100
AcDbVertex
100
AcDb2dVertex
 10
15.18910873056608
 20
21.10134434593687
 30
0.0
  0
VERTEX
  5
296
330
283
100
AcDbEntity
  8
010
370
     0
100
AcDbVertex
100
AcDb2dVertex
 10
14.97410017949169
 20
21.26336729349381
 30
0.0
  0
VERTEX
  5
297
330
283
100
AcDbEntity
  8
010
370
     0
100
AcDbVertex
100
AcDb2dVertex
 10
14.13328962068356
 20
23.14569980648891
 30
0.0
  0
SEQEND
  5
298
330
283
100
AcDbEntity
  8
010
370
     0
  0
POLYLINE
  5
299
330
27F
100
AcDbEntity
  8
010
370
     0
100
AcDb2dPolyline
 66
     1
 10
0.0
 20
0.0
 30
0.0
  0
VERTEX
  5
29A
330
299
100
AcDbEntity
  8
010
370
     0
100
AcDbVertex
100
AcDb2dVertex
 10
14.21170004565477
 20
22.70340093083301
 30
0.0
  0
VERTEX
  5
29B
330
299
100
AcDbEntity
  8
010
370
     0
100
AcDbVertex
100
AcDb2dVertex
 10
14.85548546368507
 20
21.21784032662234
 30
0.0
  0
VERTEX
  5
29C
330
299
100
AcDbEntity
  8
010
370
     0
100
AcDbVertex
100
AcDb2dVertex
 10
14.93775439814519
 20
21.08918315085127
 30
0.0
  0
VERTEX
  5
29D
330
299
100
AcDbEntity
  8
010
370
     0
100
AcDbVertex
100
AcDb2dVertex
 10
14.93923579018112
 20
21.00245281479458
 30
0.0
  0
VERTEX
  5
29E
330
299
100
AcDbEntity
  8
010
370
     0
100
AcDbVertex
100
AcDb2dVertex
 10
14.89469067617067
 20
20.95294676001267
 30
0.0
  0
VERTEX
  5
29F
330
299
100
AcDbEntity
  8
010
370
     0
100
AcDbVertex
100
AcDb2dVertex
 10
14.84756173884176
 20
20.93198334015547
 30
0.0
  0
VERTEX
  5
2A0
330
299
100
AcDbEntity
  8
010
370
     0
100
AcDbVertex
100
AcDb2dVertex
 10
14.72918817987819
 20
20.93198334015547
 30
0.0
  0
VERTEX
  5
2A1
330
299
100
AcDbEntity
  8
010
370
     0
100
AcDbVertex
100
AcDb2dVertex
 10
14.6727230276252
 20
20.96634819029114
 30
0.0
  0
VERTEX
  5
2A2
330
299
100
AcDbEntity
  8
010
370
     0
100
AcDbVertex
100
AcDb2dVertex
 10
14.16357202997604
 20
22.68975834371147
 30
0.0
  0
VERTEX
  5
2A3
330
299
100
AcDbEntity
  8
010
370
     0
100
AcDbVertex
100
AcDb2dVertex
 10
14.21170004565477
 20
22.70340093083301
 30
0.0
  0
SEQEND
  5
2A4
330
299
100
AcDbEntity
  8
010
370
     0
  0
SPLINE
  5
2A5
330
27F
100
AcDbEntity
  8
010
370
     0
100
AcDbSpline
210
0.0
220
0.0
230
1.0
 70
    11
 71
     3
 72
    59
 73
    55
 74
     0
 42
0.0000000001
 43
0.0000000001
 40
0.0
 40
0.0
 40
0.0
 40
0.0
 40
1.0
 40
1.0
 40
1.0
 40
2.0
 40
2.0
 40
2.0
 40
3.0
 40
3.0
 40
3.0
 40
4.0
 40
4.0
 40
4.0
 40
5.0
 40
5.0
 40
5.0
 40
6.0
 40
6.0
 40
6.0
 40
7.0
 40
7.0
 40
7.0
 40
8.0
 40
8.0
 40
8.0
 40
9.0
 40
9.0
 40
9.0
 40
10.0
 40
10.0
 40
10.0
 40
11.0
 40
11.0
 40
11.0
 40
12.0
 40
12.0
 40
12.0
 40
13.0
 40
13.0
 40
13.0
 40
14.0
 40
14.0
 40
14.0
 40
15.0
 40
15.0
 40
15.0
 40
16.0
 40
16.0
 40
16.0
 40
17.0
 40
17.0
 40
17.0
 40
18.0
 40
18.0
 40
18.0
 40
18.0
 10
16.56635546126642
 20
20.92764251698044
 30
0.0
 10
16.57241883332043
 20
20.98372870848006
 30
0.0
 10
16.57751757800222
 20
21.03917755689445
 30
0.0
 10
16.58023920523101
 20
21.09340339560477
 30
0.0
 10
16.58023920523101
 20
21.09340339560477
 30
0.0
 10
16.58023920523101
 20
21.09340339560477
 30
0.0
 10
16.58023920523101
 20
21.09340339560477
 30
0.0
 10
16.58023920523101
 20
21.09340339560477
 30
0.0
 10
16.32082334405649
 20
21.08434278850133
 30
0.0
 10
16.32082334405649
 20
21.08434278850133
 30
0.0
 10
16.32082334405649
 20
21.08434278850133
 30
0.0
 10
16.32082334405649
 20
21.08434278850133
 30
0.0
 10
16.32082334405649
 20
21.08434278850133
 30
0.0
 10
16.31376089365267
 20
21.0842222100798
 30
0.0
 10
16.30346005135636
 20
21.07974358299445
 30
0.0
 10
16.29836130667458
 20
21.07466206380145
 30
0.0
 10
16.29836130667458
 20
21.07466206380145
 30
0.0
 10
16.29836130667458
 20
21.07466206380145
 30
0.0
 10
16.29836130667458
 20
21.07466206380145
 30
0.0
 10
16.29836130667458
 20
21.07466206380145
 30
0.0
 10
16.14564012306414
 20
20.93458438896273
 30
0.0
 10
16.14564012306414
 20
20.93458438896273
 30
0.0
 10
16.14564012306414
 20
20.93458438896273
 30
0.0
 10
16.14564012306414
 20
20.93458438896273
 30
0.0
 10
16.14564012306414
 20
20.93458438896273
 30
0.0
 10
16.14564012306414
 20
20.93458438896273
 30
0.0
 10
16.14564012306414
 20
20.80494536033063
 30
0.0
 10
16.14564012306414
 20
20.80494536033063
 30
0.0
 10
16.14564012306414
 20
20.80494536033063
 30
0.0
 10
16.14564012306414
 20
20.80494536033063
 30
0.0
 10
16.14564012306414
 20
20.80494536033063
 30
0.0
 10
16.14564012306414
 20
20.80494536033063
 30
0.0
 10
16.31710263847789
 20
20.80494536033063
 30
0.0
 10
16.31710263847789
 20
20.80494536033063
 30
0.0
 10
16.31710263847789
 20
20.80494536033063
 30
0.0
 10
16.31710263847789
 20
20.80494536033063
 30
0.0
 10
16.31710263847789
 20
20.80494536033063
 30
0.0
 10
16.31710263847789
 20
20.80494536033063
 30
0.0
 10
16.32330381444222
 20
20.8761555309877
 30
0.0
 10
16.32330381444222
 20
20.8761555309877
 30
0.0
 10
16.32330381444222
 20
20.8761555309877
 30
0.0
 10
16.32330381444222
 20
20.8761555309877
 30
0.0
 10
16.32330381444222
 20
20.8761555309877
 30
0.0
 10
16.32330381444222
 20
20.8761555309877
 30
0.0
 10
16.36798673236299
 20
20.92070064499815
 30
0.0
 10
16.36798673236299
 20
20.92070064499815
 30
0.0
 10
16.36798673236299
 20
20.92070064499815
 30
0.0
 10
16.36798673236299
 20
20.92070064499815
 30
0.0
 10
16.36798673236299
 20
20.92070064499815
 30
0.0
 10
16.36798673236299
 20
20.92070064499815
 30
0.0
 10
16.56635546126642
 20
20.92764251698044
 30
0.0
 10
16.56635546126642
 20
20.92764251698044
 30
0.0
 10
16.56635546126642
 20
20.92764251698044
 30
0.0
 10
16.56635546126642
 20
20.92764251698044
 30
0.0
 10
16.56635546126642
 20
20.92764251698044
 30
0.0
  0
POLYLINE
  5
2A6
330
27F
100
AcDbEntity
  8
010
370
     0
100
AcDb2dPolyline
 66
     1
 10
0.0
 20
0.0
 30
0.0
  0
VERTEX
  5
2A7
330
2A6
100
AcDbEntity
  8
010
370
     0
100
AcDbVertex
100
AcDb2dVertex
 10
14.01594959104738
 20
23.09371328132127
 30
0.0
  0
VERTEX
  5
2A8
330
2A6
100
AcDbEntity
  8
010
370
     0
100
AcDbVertex
100
AcDb2dVertex
 10
14.0938432513549
 20
23.17150358869605
 30
0.0
  0
SEQEND
  5
2A9
330
2A6
100
AcDbEntity
  8
010
370
     0
  0
POLYLINE
  5
2AA
330
27F
100
AcDbEntity
  8
010
370
     0
100
AcDb2dPolyline
 66
     1
 10
0.0
 20
0.0
 30
0.0
  0
VERTEX
  5
2AB
330
2AA
100
AcDbEntity
  8
010
370
     0
100
AcDbVertex
100
AcDb2dVertex
 10
14.02077272790853
 20
23.04134779540026
 30
0.0
  0
VERTEX
  5
2AC
330
2AA
100
AcDbEntity
  8
010
370
     0
100
AcDbVertex
100
AcDb2dVertex
 10
14.12908660141885
 20
23.14966166891057
 30
0.0
  0
SEQEND
  5
2AD
330
2AA
100
AcDbEntity
  8
010
370
     0
  0
POLYLINE
  5
2AE
330
27F
100
AcDbEntity
  8
010
370
     0
100
AcDb2dPolyline
 66
     1
 10
0.0
 20
0.0
 30
0.0
  0
VERTEX
  5
2AF
330
2AE
100
AcDbEntity
  8
010
370
     0
100
AcDbVertex
100
AcDb2dVertex
 10
14.02549251183694
 20
22.98899953496803
 30
0.0
  0
VERTEX
  5
2B0
330
2AE
100
AcDbEntity
  8
010
370
     0
100
AcDbVertex
100
AcDb2dVertex
 10
14.14831024690827
 20
23.11195507394968
 30
0.0
  0
SEQEND
  5
2B1
330
2AE
100
AcDbEntity
  8
010
370
     0
  0
POLYLINE
  5
2B2
330
27F
100
AcDbEntity
  8
010
370
     0
100
AcDb2dPolyline
 66
     1
 10
0.0
 20
0.0
 30
0.0
  0
VERTEX
  5
2B3
330
2B2
100
AcDbEntity
  8
010
370
     0
100
AcDbVertex
100
AcDb2dVertex
 10
14.03021229576535
 20
22.93663404904701
 30
0.0
  0
VERTEX
  5
2B4
330
2B2
100
AcDbEntity
  8
010
370
     0
100
AcDbVertex
100
AcDb2dVertex
 10
14.16594914742904
 20
23.07249147913223
 30
0.0
  0
SEQEND
  5
2B5
330
2B2
100
AcDbEntity
  8
010
370
     0
  0
POLYLINE
  5
2B6
330
27F
100
AcDbEntity
  8
010
370
     0
100
AcDb2dPolyline
 66
     1
 10
0.0
 20
0.0
 30
0.0
  0
VERTEX
  5
2B7
330
2B6
100
AcDbEntity
  8
010
370
     0
100
AcDbVertex
100
AcDb2dVertex
 10
14.03493207969375
 20
22.88440636703631
 30
0.0
  0
VERTEX
  5
2B8
330
2B6
100
AcDbEntity
  8
010
370
     0
100
AcDbVertex
100
AcDb2dVertex
 10
14.18355359697222
 20
23.03304510980357
 30
0.0
  0
SEQEND
  5
2B9
330
2B6
100
AcDbEntity
  8
010
370
     0
  0
POLYLINE
  5
2BA
330
27F
100
AcDbEntity
  8
010
370
     0
100
AcDb2dPolyline
 66
     1
 10
0.0
 20
0.0
 30
0.0
  0
VERTEX
  5
2BB
330
2BA
100
AcDbEntity
  8
010
370
     0
100
AcDbVertex
100
AcDb2dVertex
 10
14.03965186362216
 20
22.83205810660408
 30
0.0
  0
VERTEX
  5
2BC
330
2BA
100
AcDbEntity
  8
010
370
     0
100
AcDbVertex
100
AcDb2dVertex
 10
14.2011580465154
 20
22.99358151498612
 30
0.0
  0
SEQEND
  5
2BD
330
2BA
100
AcDbEntity
  8
010
370
     0
  0
POLYLINE
  5
2BE
330
27F
100
AcDbEntity
  8
010
370
     0
100
AcDb2dPolyline
 66
     1
 10
0.0
 20
0.0
 30
0.0
  0
VERTEX
  5
2BF
330
2BE
100
AcDbEntity
  8
010
370
     0
100
AcDbVertex
100
AcDb2dVertex
 10
14.04433719657299
 20
22.77970984617185
 30
0.0
  0
VERTEX
  5
2C0
330
2BE
100
AcDbEntity
  8
010
370
     0
100
AcDbVertex
100
AcDb2dVertex
 10
14.21879694703617
 20
22.95425572407898
 30
0.0
  0
SEQEND
  5
2C1
330
2BE
100
AcDbEntity
  8
010
370
     0
  0
POLYLINE
  5
2C2
330
27F
100
AcDbEntity
  8
010
370
     0
100
AcDb2dPolyline
 66
     1
 10
0.0
 20
0.0
 30
0.0
  0
VERTEX
  5
2C3
330
2C2
100
AcDbEntity
  8
010
370
     0
100
AcDbVertex
100
AcDb2dVertex
 10
14.0490569805014
 20
22.72746493867237
 30
0.0
  0
VERTEX
  5
2C4
330
2C2
100
AcDbEntity
  8
010
370
     0
100
AcDbVertex
100
AcDb2dVertex
 10
14.23640139657935
 20
22.91480935475032
 30
0.0
  0
SEQEND
  5
2C5
330
2C2
100
AcDbEntity
  8
010
370
     0
  0
POLYLINE
  5
2C6
330
27F
100
AcDbEntity
  8
010
370
     0
100
AcDb2dPolyline
 66
     1
 10
0.0
 20
0.0
 30
0.0
  0
VERTEX
  5
2C7
330
2C6
100
AcDbEntity
  8
010
370
     0
100
AcDbVertex
100
AcDb2dVertex
 10
14.0537767644298
 20
22.67511667824014
 30
0.0
  0
VERTEX
  5
2C8
330
2C6
100
AcDbEntity
  8
010
370
     0
100
AcDbVertex
100
AcDb2dVertex
 10
14.25400584612254
 20
22.87534575993287
 30
0.0
  0
SEQEND
  5
2C9
330
2C6
100
AcDbEntity
  8
010
370
     0
  0
POLYLINE
  5
2CA
330
27F
100
AcDbEntity
  8
010
370
     0
100
AcDb2dPolyline
 66
     1
 10
0.0
 20
0.0
 30
0.0
  0
VERTEX
  5
2CB
330
2CA
100
AcDbEntity
  8
010
370
     0
100
AcDbVertex
100
AcDb2dVertex
 10
14.05849654835821
 20
22.62275119231912
 30
0.0
  0
VERTEX
  5
2CC
330
2CA
100
AcDbEntity
  8
010
370
     0
100
AcDbVertex
100
AcDb2dVertex
 10
14.2716447466433
 20
22.83589939060421
 30
0.0
  0
SEQEND
  5
2CD
330
2CA
100
AcDbEntity
  8
010
370
     0
  0
POLYLINE
  5
2CE
330
27F
100
AcDbEntity
  8
010
370
     0
100
AcDb2dPolyline
 66
     1
 10
0.0
 20
0.0
 30
0.0
  0
VERTEX
  5
2CF
330
2CE
100
AcDbEntity
  8
010
370
     0
100
AcDbVertex
100
AcDb2dVertex
 10
14.06321633228662
 20
22.57040293188689
 30
0.0
  0
VERTEX
  5
2D0
330
2CE
100
AcDbEntity
  8
010
370
     0
100
AcDbVertex
100
AcDb2dVertex
 10
14.16667261795821
 20
22.67387644304727
 30
0.0
  0
SEQEND
  5
2D1
330
2CE
100
AcDbEntity
  8
010
370
     0
  0
POLYLINE
  5
2D2
330
27F
100
AcDbEntity
  8
010
370
     0
100
AcDb2dPolyline
 66
     1
 10
0.0
 20
0.0
 30
0.0
  0
VERTEX
  5
2D3
330
2D2
100
AcDbEntity
  8
010
370
     0
100
AcDbVertex
100
AcDb2dVertex
 10
14.18999592977961
 20
22.69719975486867
 30
0.0
  0
VERTEX
  5
2D4
330
2D2
100
AcDbEntity
  8
010
370
     0
100
AcDbVertex
100
AcDb2dVertex
 10
14.28924919618648
 20
22.79645302127555
 30
0.0
  0
SEQEND
  5
2D5
330
2D2
100
AcDbEntity
  8
010
370
     0
  0
POLYLINE
  5
2D6
330
27F
100
AcDbEntity
  8
010
370
     0
100
AcDb2dPolyline
 66
     1
 10
0.0
 20
0.0
 30
0.0
  0
VERTEX
  5
2D7
330
2D6
100
AcDbEntity
  8
010
370
     0
100
AcDbVertex
100
AcDb2dVertex
 10
14.06790166523745
 20
22.51817524987619
 30
0.0
  0
VERTEX
  5
2D8
330
2D6
100
AcDbEntity
  8
010
370
     0
100
AcDbVertex
100
AcDb2dVertex
 10
14.1759743819047
 20
22.62611016263313
 30
0.0
  0
SEQEND
  5
2D9
330
2D6
100
AcDbEntity
  8
010
370
     0
  0
POLYLINE
  5
2DA
330
27F
100
AcDbEntity
  8
010
370
     0
100
AcDb2dPolyline
 66
     1
 10
0.0
 20
0.0
 30
0.0
  0
VERTEX
  5
2DB
330
2DA
100
AcDbEntity
  8
010
370
     0
100
AcDbVertex
100
AcDb2dVertex
 10
14.07262144916585
 20
22.46580976395517
 30
0.0
  0
VERTEX
  5
2DC
330
2DA
100
AcDbEntity
  8
010
370
     0
100
AcDbVertex
100
AcDb2dVertex
 10
14.1852761458512
 20
22.578343882219
 30
0.0
  0
SEQEND
  5
2DD
330
2DA
100
AcDbEntity
  8
010
370
     0
  0
POLYLINE
  5
2DE
330
27F
100
AcDbEntity
  8
010
370
     0
100
AcDb2dPolyline
 66
     1
 10
0.0
 20
0.0
 30
0.0
  0
VERTEX
  5
2DF
330
2DE
100
AcDbEntity
  8
010
370
     0
100
AcDbVertex
100
AcDb2dVertex
 10
14.07734123309426
 20
22.41346150352295
 30
0.0
  0
VERTEX
  5
2E0
330
2DE
100
AcDbEntity
  8
010
370
     0
100
AcDbVertex
100
AcDb2dVertex
 10
14.1945779097977
 20
22.53069818022638
 30
0.0
  0
SEQEND
  5
2E1
330
2DE
100
AcDbEntity
  8
010
370
     0
  0
POLYLINE
  5
2E2
330
27F
100
AcDbEntity
  8
010
370
     0
100
AcDb2dPolyline
 66
     1
 10
0.0
 20
0.0
 30
0.0
  0
VERTEX
  5
2E3
330
2E2
100
AcDbEntity
  8
010
370
     0
100
AcDbVertex
100
AcDb2dVertex
 10
14.08206101702267
 20
22.36123382151225
 30
0.0
  0
VERTEX
  5
2E4
330
2E2
100
AcDbEntity
  8
010
370
     0
100
AcDbVertex
100
AcDb2dVertex
 10
14.20391412472177
 20
22.48293189981225
 30
0.0
  0
SEQEND
  5
2E5
330
2E2
100
AcDbEntity
  8
010
370
     0
  0
POLYLINE
  5
2E6
330
27F
100
AcDbEntity
  8
010
370
     0
100
AcDb2dPolyline
 66
     1
 10
0.0
 20
0.0
 30
0.0
  0
VERTEX
  5
2E7
330
2E6
100
AcDbEntity
  8
010
370
     0
100
AcDbVertex
100
AcDb2dVertex
 10
14.22424020149375
 20
22.67449656064371
 30
0.0
  0
VERTEX
  5
2E8
330
2E6
100
AcDbEntity
  8
010
370
     0
100
AcDbVertex
100
AcDb2dVertex
 10
14.30685364572967
 20
22.75712723036841
 30
0.0
  0
SEQEND
  5
2E9
330
2E6
100
AcDbEntity
  8
010
370
     0
  0
POLYLINE
  5
2EA
330
27F
100
AcDbEntity
  8
010
370
     0
100
AcDb2dPolyline
 66
     1
 10
0.0
 20
0.0
 30
0.0
  0
VERTEX
  5
2EB
330
2EA
100
AcDbEntity
  8
010
370
     0
100
AcDbVertex
100
AcDb2dVertex
 10
14.24150014126114
 20
22.63467123056167
 30
0.0
  0
VERTEX
  5
2EC
330
2EA
100
AcDbEntity
  8
010
370
     0
100
AcDbVertex
100
AcDb2dVertex
 10
14.32449254625043
 20
22.71766363555097
 30
0.0
  0
SEQEND
  5
2ED
330
2EA
100
AcDbEntity
  8
010
370
     0
  0
POLYLINE
  5
2EE
330
27F
100
AcDbEntity
  8
010
370
     0
100
AcDb2dPolyline
 66
     1
 10
0.0
 20
0.0
 30
0.0
  0
VERTEX
  5
2EF
330
2EE
100
AcDbEntity
  8
010
370
     0
100
AcDbVertex
100
AcDb2dVertex
 10
14.25872563005094
 20
22.59484590047963
 30
0.0
  0
VERTEX
  5
2F0
330
2EE
100
AcDbEntity
  8
010
370
     0
100
AcDbVertex
100
AcDb2dVertex
 10
14.34209699579362
 20
22.6782172662223
 30
0.0
  0
SEQEND
  5
2F1
330
2EE
100
AcDbEntity
  8
010
370
     0
  0
POLYLINE
  5
2F2
330
27F
100
AcDbEntity
  8
010
370
     0
100
AcDb2dPolyline
 66
     1
 10
0.0
 20
0.0
 30
0.0
  0
VERTEX
  5
2F3
330
2F2
100
AcDbEntity
  8
010
370
     0
100
AcDbVertex
100
AcDb2dVertex
 10
14.27598556981833
 20
22.55502057039759
 30
0.0
  0
VERTEX
  5
2F4
330
2F2
100
AcDbEntity
  8
010
370
     0
100
AcDbVertex
100
AcDb2dVertex
 10
14.35973589631438
 20
22.63877089689364
 30
0.0
  0
SEQEND
  5
2F5
330
2F2
100
AcDbEntity
  8
010
370
     0
  0
POLYLINE
  5
2F6
330
27F
100
AcDbEntity
  8
010
370
     0
100
AcDb2dPolyline
 66
     1
 10
0.0
 20
0.0
 30
0.0
  0
VERTEX
  5
2F7
330
2F6
100
AcDbEntity
  8
010
370
     0
100
AcDbVertex
100
AcDb2dVertex
 10
14.08764207539057
 20
22.30972961003072
 30
0.0
  0
VERTEX
  5
2F8
330
2F6
100
AcDbEntity
  8
010
370
     0
100
AcDbVertex
100
AcDb2dVertex
 10
14.21321588866827
 20
22.43516561939811
 30
0.0
  0
SEQEND
  5
2F9
330
2F6
100
AcDbEntity
  8
010
370
     0
  0
POLYLINE
  5
2FA
330
27F
100
AcDbEntity
  8
010
370
     0
100
AcDb2dPolyline
 66
     1
 10
0.0
 20
0.0
 30
0.0
  0
VERTEX
  5
2FB
330
2FA
100
AcDbEntity
  8
010
370
     0
100
AcDbVertex
100
AcDb2dVertex
 10
14.0994243097228
 20
22.26446102549111
 30
0.0
  0
VERTEX
  5
2FC
330
2FA
100
AcDbEntity
  8
010
370
     0
100
AcDbVertex
100
AcDb2dVertex
 10
14.22251765261477
 20
22.38739933898397
 30
0.0
  0
SEQEND
  5
2FD
330
2FA
100
AcDbEntity
  8
010
370
     0
  0
POLYLINE
  5
2FE
330
27F
100
AcDbEntity
  8
010
370
     0
100
AcDb2dPolyline
 66
     1
 10
0.0
 20
0.0
 30
0.0
  0
VERTEX
  5
2FF
330
2FE
100
AcDbEntity
  8
010
370
     0
100
AcDbVertex
100
AcDb2dVertex
 10
14.11120654405502
 20
22.2191752154627
 30
0.0
  0
VERTEX
  5
300
330
2FE
100
AcDbEntity
  8
010
370
     0
100
AcDbVertex
100
AcDb2dVertex
 10
14.23181941656126
 20
22.33963305856983
 30
0.0
  0
SEQEND
  5
301
330
2FE
100
AcDbEntity
  8
010
370
     0
  0
POLYLINE
  5
302
330
27F
100
AcDbEntity
  8
010
370
     0
100
AcDb2dPolyline
 66
     1
 10
0.0
 20
0.0
 30
0.0
  0
VERTEX
  5
303
330
302
100
AcDbEntity
  8
010
370
     0
100
AcDbVertex
100
AcDb2dVertex
 10
14.12302322936483
 20
22.17388940543429
 30
0.0
  0
VERTEX
  5
304
330
302
100
AcDbEntity
  8
010
370
     0
100
AcDbVertex
100
AcDb2dVertex
 10
14.24112118050776
 20
22.29186677815569
 30
0.0
  0
SEQEND
  5
305
330
302
100
AcDbEntity
  8
010
370
     0
  0
POLYLINE
  5
306
330
27F
100
AcDbEntity
  8
010
370
     0
100
AcDb2dPolyline
 66
     1
 10
0.0
 20
0.0
 30
0.0
  0
VERTEX
  5
307
330
306
100
AcDbEntity
  8
010
370
     0
100
AcDbVertex
100
AcDb2dVertex
 10
14.13480546369706
 20
22.12860359540588
 30
0.0
  0
VERTEX
  5
308
330
306
100
AcDbEntity
  8
010
370
     0
100
AcDbVertex
100
AcDb2dVertex
 10
14.25028514054394
 20
22.24423830165187
 30
0.0
  0
SEQEND
  5
309
330
306
100
AcDbEntity
  8
010
370
     0
  0
POLYLINE
  5
30A
330
27F
100
AcDbEntity
  8
010
370
     0
100
AcDb2dPolyline
 66
     1
 10
0.0
 20
0.0
 30
0.0
  0
VERTEX
  5
30B
330
30A
100
AcDbEntity
  8
010
370
     0
100
AcDbVertex
100
AcDb2dVertex
 10
14.14658769802929
 20
22.08331778537748
 30
0.0
  0
VERTEX
  5
30C
330
30A
100
AcDbEntity
  8
010
370
     0
100
AcDbVertex
100
AcDb2dVertex
 10
14.25958690449044
 20
22.19647202123773
 30
0.0
  0
SEQEND
  5
30D
330
30A
100
AcDbEntity
  8
010
370
     0
  0
POLYLINE
  5
30E
330
27F
100
AcDbEntity
  8
010
370
     0
100
AcDb2dPolyline
 66
     1
 10
0.0
 20
0.0
 30
0.0
  0
VERTEX
  5
30F
330
30E
100
AcDbEntity
  8
010
370
     0
100
AcDbVertex
100
AcDb2dVertex
 10
14.15836993236152
 20
22.03803197534907
 30
0.0
  0
VERTEX
  5
310
330
30E
100
AcDbEntity
  8
010
370
     0
100
AcDbVertex
100
AcDb2dVertex
 10
14.26888866843693
 20
22.14870574082359
 30
0.0
  0
SEQEND
  5
311
330
30E
100
AcDbEntity
  8
010
370
     0
  0
POLYLINE
  5
312
330
27F
100
AcDbEntity
  8
010
370
     0
100
AcDb2dPolyline
 66
     1
 10
0.0
 20
0.0
 30
0.0
  0
VERTEX
  5
313
330
312
100
AcDbEntity
  8
010
370
     0
100
AcDbVertex
100
AcDb2dVertex
 10
14.17015216669375
 20
21.99274616532067
 30
0.0
  0
VERTEX
  5
314
330
312
100
AcDbEntity
  8
010
370
     0
100
AcDbVertex
100
AcDb2dVertex
 10
14.27822488336101
 20
22.10093946040945
 30
0.0
  0
SEQEND
  5
315
330
312
100
AcDbEntity
  8
010
370
     0
  0
POLYLINE
  5
316
330
27F
100
AcDbEntity
  8
010
370
     0
100
AcDb2dPolyline
 66
     1
 10
0.0
 20
0.0
 30
0.0
  0
VERTEX
  5
317
330
316
100
AcDbEntity
  8
010
370
     0
100
AcDbVertex
100
AcDb2dVertex
 10
14.18179659711566
 20
21.94746035529226
 30
0.0
  0
VERTEX
  5
318
330
316
100
AcDbEntity
  8
010
370
     0
100
AcDbVertex
100
AcDb2dVertex
 10
14.2875266473075
 20
22.05317317999532
 30
0.0
  0
SEQEND
  5
319
330
316
100
AcDbEntity
  8
010
370
     0
  0
POLYLINE
  5
31A
330
27F
100
AcDbEntity
  8
010
370
     0
100
AcDb2dPolyline
 66
     1
 10
0.0
 20
0.0
 30
0.0
  0
VERTEX
  5
31B
330
31A
100
AcDbEntity
  8
010
370
     0
100
AcDbVertex
100
AcDb2dVertex
 10
14.19361328242547
 20
21.90231234917417
 30
0.0
  0
VERTEX
  5
31C
330
31A
100
AcDbEntity
  8
010
370
     0
100
AcDbVertex
100
AcDb2dVertex
 10
14.296828411254
 20
22.00540689958117
 30
0.0
  0
SEQEND
  5
31D
330
31A
100
AcDbEntity
  8
010
370
     0
  0
POLYLINE
  5
31E
330
27F
100
AcDbEntity
  8
010
370
     0
100
AcDb2dPolyline
 66
     1
 10
0.0
 20
0.0
 30
0.0
  0
VERTEX
  5
31F
330
31E
100
AcDbEntity
  8
010
370
     0
100
AcDbVertex
100
AcDb2dVertex
 10
14.2053955167577
 20
21.85702653914577
 30
0.0
  0
VERTEX
  5
320
330
31E
100
AcDbEntity
  8
010
370
     0
100
AcDbVertex
100
AcDb2dVertex
 10
14.3061301752005
 20
21.95776119758857
 30
0.0
  0
SEQEND
  5
321
330
31E
100
AcDbEntity
  8
010
370
     0
  0
POLYLINE
  5
322
330
27F
100
AcDbEntity
  8
010
370
     0
100
AcDb2dPolyline
 66
     1
 10
0.0
 20
0.0
 30
0.0
  0
VERTEX
  5
323
330
322
100
AcDbEntity
  8
010
370
     0
100
AcDbVertex
100
AcDb2dVertex
 10
14.21717775108993
 20
21.81174072911736
 30
0.0
  0
VERTEX
  5
324
330
322
100
AcDbEntity
  8
010
370
     0
100
AcDbVertex
100
AcDb2dVertex
 10
14.31543193914699
 20
21.90999491717443
 30
0.0
  0
SEQEND
  5
325
330
322
100
AcDbEntity
  8
010
370
     0
  0
POLYLINE
  5
326
330
27F
100
AcDbEntity
  8
010
370
     0
100
AcDb2dPolyline
 66
     1
 10
0.0
 20
0.0
 30
0.0
  0
VERTEX
  5
327
330
326
100
AcDbEntity
  8
010
370
     0
100
AcDbVertex
100
AcDb2dVertex
 10
14.22895998542215
 20
21.76645491908895
 30
0.0
  0
VERTEX
  5
328
330
326
100
AcDbEntity
  8
010
370
     0
100
AcDbVertex
100
AcDb2dVertex
 10
14.32473370309349
 20
21.86222863676029
 30
0.0
  0
SEQEND
  5
329
330
326
100
AcDbEntity
  8
010
370
     0
  0
POLYLINE
  5
32A
330
27F
100
AcDbEntity
  8
010
370
     0
100
AcDb2dPolyline
 66
     1
 10
0.0
 20
0.0
 30
0.0
  0
VERTEX
  5
32B
330
32A
100
AcDbEntity
  8
010
370
     0
100
AcDbVertex
100
AcDb2dVertex
 10
14.24074221975438
 20
21.72116910906055
 30
0.0
  0
VERTEX
  5
32C
330
32A
100
AcDbEntity
  8
010
370
     0
100
AcDbVertex
100
AcDb2dVertex
 10
14.33403546703999
 20
21.81446235634615
 30
0.0
  0
SEQEND
  5
32D
330
32A
100
AcDbEntity
  8
010
370
     0
  0
POLYLINE
  5
32E
330
27F
100
AcDbEntity
  8
010
370
     0
100
AcDb2dPolyline
 66
     1
 10
0.0
 20
0.0
 30
0.0
  0
VERTEX
  5
32F
330
32E
100
AcDbEntity
  8
010
370
     0
100
AcDbVertex
100
AcDb2dVertex
 10
14.29321105860814
 20
22.51519524031556
 30
0.0
  0
VERTEX
  5
330
330
32E
100
AcDbEntity
  8
010
370
     0
100
AcDbVertex
100
AcDb2dVertex
 10
14.37734034585757
 20
22.59930730207619
 30
0.0
  0
SEQEND
  5
331
330
32E
100
AcDbEntity
  8
010
370
     0
  0
POLYLINE
  5
332
330
27F
100
AcDbEntity
  8
010
370
     0
100
AcDb2dPolyline
 66
     1
 10
0.0
 20
0.0
 30
0.0
  0
VERTEX
  5
333
330
332
100
AcDbEntity
  8
010
370
     0
100
AcDbVertex
100
AcDb2dVertex
 10
14.31047099837553
 20
22.47549048865505
 30
0.0
  0
VERTEX
  5
334
330
332
100
AcDbEntity
  8
010
370
     0
100
AcDbVertex
100
AcDb2dVertex
 10
14.39494479540075
 20
22.55986093274753
 30
0.0
  0
SEQEND
  5
335
330
332
100
AcDbEntity
  8
010
370
     0
  0
POLYLINE
  5
336
330
27F
100
AcDbEntity
  8
010
370
     0
100
AcDb2dPolyline
 66
     1
 10
0.0
 20
0.0
 30
0.0
  0
VERTEX
  5
337
330
336
100
AcDbEntity
  8
010
370
     0
100
AcDbVertex
100
AcDb2dVertex
 10
14.32773093814292
 20
22.43566515857301
 30
0.0
  0
VERTEX
  5
338
330
336
100
AcDbEntity
  8
010
370
     0
100
AcDbVertex
100
AcDb2dVertex
 10
14.41258369592151
 20
22.5205351418404
 30
0.0
  0
SEQEND
  5
339
330
336
100
AcDbEntity
  8
010
370
     0
  0
POLYLINE
  5
33A
330
27F
100
AcDbEntity
  8
010
370
     0
100
AcDb2dPolyline
 66
     1
 10
0.0
 20
0.0
 30
0.0
  0
VERTEX
  5
33B
330
33A
100
AcDbEntity
  8
010
370
     0
100
AcDbVertex
100
AcDb2dVertex
 10
14.34495642693273
 20
22.39583982849097
 30
0.0
  0
VERTEX
  5
33C
330
33A
100
AcDbEntity
  8
010
370
     0
100
AcDbVertex
100
AcDb2dVertex
 10
14.4301881454647
 20
22.48107154702295
 30
0.0
  0
SEQEND
  5
33D
330
33A
100
AcDbEntity
  8
010
370
     0
  0
POLYLINE
  5
33E
330
27F
100
AcDbEntity
  8
010
370
     0
100
AcDb2dPolyline
 66
     1
 10
0.0
 20
0.0
 30
0.0
  0
VERTEX
  5
33F
330
33E
100
AcDbEntity
  8
010
370
     0
100
AcDbVertex
100
AcDb2dVertex
 10
14.36221636670011
 20
22.35601449840894
 30
0.0
  0
VERTEX
  5
340
330
33E
100
AcDbEntity
  8
010
370
     0
100
AcDbVertex
100
AcDb2dVertex
 10
14.44782704598546
 20
22.44162517769428
 30
0.0
  0
SEQEND
  5
341
330
33E
100
AcDbEntity
  8
010
370
     0
  0
POLYLINE
  5
342
330
27F
100
AcDbEntity
  8
010
370
     0
100
AcDb2dPolyline
 66
     1
 10
0.0
 20
0.0
 30
0.0
  0
VERTEX
  5
343
330
342
100
AcDbEntity
  8
010
370
     0
100
AcDbVertex
100
AcDb2dVertex
 10
14.37944185548992
 20
22.31630974674843
 30
0.0
  0
VERTEX
  5
344
330
342
100
AcDbEntity
  8
010
370
     0
100
AcDbVertex
100
AcDb2dVertex
 10
14.46543149552864
 20
22.40216158287683
 30
0.0
  0
SEQEND
  5
345
330
342
100
AcDbEntity
  8
010
370
     0
  0
POLYLINE
  5
346
330
27F
100
AcDbEntity
  8
010
370
     0
100
AcDb2dPolyline
 66
     1
 10
0.0
 20
0.0
 30
0.0
  0
VERTEX
  5
347
330
346
100
AcDbEntity
  8
010
370
     0
100
AcDbVertex
100
AcDb2dVertex
 10
14.39670179525731
 20
22.27648441666639
 30
0.0
  0
VERTEX
  5
348
330
346
100
AcDbEntity
  8
010
370
     0
100
AcDbVertex
100
AcDb2dVertex
 10
14.48303594507183
 20
22.36271521354817
 30
0.0
  0
SEQEND
  5
349
330
346
100
AcDbEntity
  8
010
370
     0
  0
POLYLINE
  5
34A
330
27F
100
AcDbEntity
  8
010
370
     0
100
AcDb2dPolyline
 66
     1
 10
0.0
 20
0.0
 30
0.0
  0
VERTEX
  5
34B
330
34A
100
AcDbEntity
  8
010
370
     0
100
AcDbVertex
100
AcDb2dVertex
 10
14.41392728404712
 20
22.23665908658435
 30
0.0
  0
VERTEX
  5
34C
330
34A
100
AcDbEntity
  8
010
370
     0
100
AcDbVertex
100
AcDb2dVertex
 10
14.50067484559259
 20
22.32326884421951
 30
0.0
  0
SEQEND
  5
34D
330
34A
100
AcDbEntity
  8
010
370
     0
  0
POLYLINE
  5
34E
330
27F
100
AcDbEntity
  8
010
370
     0
100
AcDb2dPolyline
 66
     1
 10
0.0
 20
0.0
 30
0.0
  0
VERTEX
  5
34F
330
34E
100
AcDbEntity
  8
010
370
     0
100
AcDbVertex
100
AcDb2dVertex
 10
14.43118722381451
 20
22.19683375650232
 30
0.0
  0
VERTEX
  5
350
330
34E
100
AcDbEntity
  8
010
370
     0
100
AcDbVertex
100
AcDb2dVertex
 10
14.51827929513578
 20
22.28392582782359
 30
0.0
  0
SEQEND
  5
351
330
34E
100
AcDbEntity
  8
010
370
     0
  0
POLYLINE
  5
352
330
27F
100
AcDbEntity
  8
010
370
     0
100
AcDb2dPolyline
 66
     1
 10
0.0
 20
0.0
 30
0.0
  0
VERTEX
  5
353
330
352
100
AcDbEntity
  8
010
370
     0
100
AcDbVertex
100
AcDb2dVertex
 10
14.44844716358189
 20
22.15700842642028
 30
0.0
  0
VERTEX
  5
354
330
352
100
AcDbEntity
  8
010
370
     0
100
AcDbVertex
100
AcDb2dVertex
 10
14.53588374467896
 20
22.24447945849493
 30
0.0
  0
SEQEND
  5
355
330
352
100
AcDbEntity
  8
010
370
     0
  0
POLYLINE
  5
356
330
27F
100
AcDbEntity
  8
010
370
     0
100
AcDb2dPolyline
 66
     1
 10
0.0
 20
0.0
 30
0.0
  0
VERTEX
  5
357
330
356
100
AcDbEntity
  8
010
370
     0
100
AcDbVertex
100
AcDb2dVertex
 10
14.4656726523717
 20
22.11732090024856
 30
0.0
  0
VERTEX
  5
358
330
356
100
AcDbEntity
  8
010
370
     0
100
AcDbVertex
100
AcDb2dVertex
 10
14.55352264519973
 20
22.20503308916627
 30
0.0
  0
SEQEND
  5
359
330
356
100
AcDbEntity
  8
010
370
     0
  0
POLYLINE
  5
35A
330
27F
100
AcDbEntity
  8
010
370
     0
100
AcDb2dPolyline
 66
     1
 10
0.0
 20
0.0
 30
0.0
  0
VERTEX
  5
35B
330
35A
100
AcDbEntity
  8
010
370
     0
100
AcDbVertex
100
AcDb2dVertex
 10
14.48293259213909
 20
22.07749557016652
 30
0.0
  0
VERTEX
  5
35C
330
35A
100
AcDbEntity
  8
010
370
     0
100
AcDbVertex
100
AcDb2dVertex
 10
14.57112709474291
 20
22.16556949434882
 30
0.0
  0
SEQEND
  5
35D
330
35A
100
AcDbEntity
  8
010
370
     0
  0
POLYLINE
  5
35E
330
27F
100
AcDbEntity
  8
010
370
     0
100
AcDb2dPolyline
 66
     1
 10
0.0
 20
0.0
 30
0.0
  0
VERTEX
  5
35F
330
35E
100
AcDbEntity
  8
010
370
     0
100
AcDbVertex
100
AcDb2dVertex
 10
14.5001580809289
 20
22.03767024008449
 30
0.0
  0
VERTEX
  5
360
330
35E
100
AcDbEntity
  8
010
370
     0
100
AcDbVertex
100
AcDb2dVertex
 10
14.58873154428609
 20
22.12612312502015
 30
0.0
  0
SEQEND
  5
361
330
35E
100
AcDbEntity
  8
010
370
     0
  0
POLYLINE
  5
362
330
27F
100
AcDbEntity
  8
010
370
     0
100
AcDb2dPolyline
 66
     1
 10
0.0
 20
0.0
 30
0.0
  0
VERTEX
  5
363
330
362
100
AcDbEntity
  8
010
370
     0
100
AcDbVertex
100
AcDb2dVertex
 10
14.51741802069629
 20
21.99784491000245
 30
0.0
  0
VERTEX
  5
364
330
362
100
AcDbEntity
  8
010
370
     0
100
AcDbVertex
100
AcDb2dVertex
 10
14.60637044480686
 20
22.08679733411302
 30
0.0
  0
SEQEND
  5
365
330
362
100
AcDbEntity
  8
010
370
     0
  0
POLYLINE
  5
366
330
27F
100
AcDbEntity
  8
010
370
     0
100
AcDb2dPolyline
 66
     1
 10
0.0
 20
0.0
 30
0.0
  0
VERTEX
  5
367
330
366
100
AcDbEntity
  8
010
370
     0
100
AcDbVertex
100
AcDb2dVertex
 10
14.25252445408661
 20
21.67588329903214
 30
0.0
  0
VERTEX
  5
368
330
366
100
AcDbEntity
  8
010
370
     0
100
AcDbVertex
100
AcDb2dVertex
 10
14.34881493642164
 20
21.77215655587838
 30
0.0
  0
SEQEND
  5
369
330
366
100
AcDbEntity
  8
010
370
     0
  0
POLYLINE
  5
36A
330
27F
100
AcDbEntity
  8
010
370
     0
100
AcDb2dPolyline
 66
     1
 10
0.0
 20
0.0
 30
0.0
  0
VERTEX
  5
36B
330
36A
100
AcDbEntity
  8
010
370
     0
100
AcDbVertex
100
AcDb2dVertex
 10
14.26430668841884
 20
21.63059748900373
 30
0.0
  0
VERTEX
  5
36C
330
36A
100
AcDbEntity
  8
010
370
     0
100
AcDbVertex
100
AcDb2dVertex
 10
14.36517915077196
 20
21.73146995135685
 30
0.0
  0
SEQEND
  5
36D
330
36A
100
AcDbEntity
  8
010
370
     0
  0
POLYLINE
  5
36E
330
27F
100
AcDbEntity
  8
010
370
     0
100
AcDb2dPolyline
 66
     1
 10
0.0
 20
0.0
 30
0.0
  0
VERTEX
  5
36F
330
36E
100
AcDbEntity
  8
010
370
     0
100
AcDbVertex
100
AcDb2dVertex
 10
14.27608892275107
 20
21.58531167897533
 30
0.0
  0
VERTEX
  5
370
330
36E
100
AcDbEntity
  8
010
370
     0
100
AcDbVertex
100
AcDb2dVertex
 10
14.38154336512228
 20
21.69078334683532
 30
0.0
  0
SEQEND
  5
371
330
36E
100
AcDbEntity
  8
010
370
     0
  0
POLYLINE
  5
372
330
27F
100
AcDbEntity
  8
010
370
     0
100
AcDb2dPolyline
 66
     1
 10
0.0
 20
0.0
 30
0.0
  0
VERTEX
  5
373
330
372
100
AcDbEntity
  8
010
370
     0
100
AcDbVertex
100
AcDb2dVertex
 10
14.28776780415056
 20
21.54002586894692
 30
0.0
  0
VERTEX
  5
374
330
372
100
AcDbEntity
  8
010
370
     0
100
AcDbVertex
100
AcDb2dVertex
 10
14.39794203045018
 20
21.65007951682501
 30
0.0
  0
SEQEND
  5
375
330
372
100
AcDbEntity
  8
010
370
     0
  0
POLYLINE
  5
376
330
27F
100
AcDbEntity
  8
010
370
     0
100
AcDb2dPolyline
 66
     1
 10
0.0
 20
0.0
 30
0.0
  0
VERTEX
  5
377
330
376
100
AcDbEntity
  8
010
370
     0
100
AcDbVertex
100
AcDb2dVertex
 10
14.5346435094861
 20
21.95814015834194
 30
0.0
  0
VERTEX
  5
378
330
376
100
AcDbEntity
  8
010
370
     0
100
AcDbVertex
100
AcDb2dVertex
 10
14.62397489435004
 20
22.04733373929557
 30
0.0
  0
SEQEND
  5
379
330
376
100
AcDbEntity
  8
010
370
     0
  0
POLYLINE
  5
37A
330
27F
100
AcDbEntity
  8
010
370
     0
100
AcDb2dPolyline
 66
     1
 10
0.0
 20
0.0
 30
0.0
  0
VERTEX
  5
37B
330
37A
100
AcDbEntity
  8
010
370
     0
100
AcDbVertex
100
AcDb2dVertex
 10
14.55190344925348
 20
21.91831482825991
 30
0.0
  0
VERTEX
  5
37C
330
37A
100
AcDbEntity
  8
010
370
     0
100
AcDbVertex
100
AcDb2dVertex
 10
14.64147599096049
 20
22.00788736996691
 30
0.0
  0
SEQEND
  5
37D
330
37A
100
AcDbEntity
  8
010
370
     0
  0
POLYLINE
  5
37E
330
27F
100
AcDbEntity
  8
010
370
     0
100
AcDb2dPolyline
 66
     1
 10
0.0
 20
0.0
 30
0.0
  0
VERTEX
  5
37F
330
37E
100
AcDbEntity
  8
010
370
     0
100
AcDbVertex
100
AcDb2dVertex
 10
14.56916338902087
 20
21.87848949817787
 30
0.0
  0
VERTEX
  5
380
330
37E
100
AcDbEntity
  8
010
370
     0
100
AcDbVertex
100
AcDb2dVertex
 10
14.65908044050367
 20
21.96844100063825
 30
0.0
  0
SEQEND
  5
381
330
37E
100
AcDbEntity
  8
010
370
     0
  0
POLYLINE
  5
382
330
27F
100
AcDbEntity
  8
010
370
     0
100
AcDb2dPolyline
 66
     1
 10
0.0
 20
0.0
 30
0.0
  0
VERTEX
  5
383
330
382
100
AcDbEntity
  8
010
370
     0
100
AcDbVertex
100
AcDb2dVertex
 10
14.58638887781068
 20
21.83866416809583
 30
0.0
  0
VERTEX
  5
384
330
382
100
AcDbEntity
  8
010
370
     0
100
AcDbVertex
100
AcDb2dVertex
 10
14.67671934102444
 20
21.9289774058208
 30
0.0
  0
SEQEND
  5
385
330
382
100
AcDbEntity
  8
010
370
     0
  0
POLYLINE
  5
386
330
27F
100
AcDbEntity
  8
010
370
     0
100
AcDb2dPolyline
 66
     1
 10
0.0
 20
0.0
 30
0.0
  0
VERTEX
  5
387
330
386
100
AcDbEntity
  8
010
370
     0
100
AcDbVertex
100
AcDb2dVertex
 10
14.30513109685069
 20
21.5003383427752
 30
0.0
  0
VERTEX
  5
388
330
386
100
AcDbEntity
  8
010
370
     0
100
AcDbVertex
100
AcDb2dVertex
 10
14.41420289186775
 20
21.60939291230348
 30
0.0
  0
SEQEND
  5
389
330
386
100
AcDbEntity
  8
010
370
     0
  0
POLYLINE
  5
38A
330
27F
100
AcDbEntity
  8
010
370
     0
100
AcDb2dPolyline
 66
     1
 10
0.0
 20
0.0
 30
0.0
  0
VERTEX
  5
38B
330
38A
100
AcDbEntity
  8
010
370
     0
100
AcDbVertex
100
AcDb2dVertex
 10
14.32276999737145
 20
21.46087474795775
 30
0.0
  0
VERTEX
  5
38C
330
38A
100
AcDbEntity
  8
010
370
     0
100
AcDbVertex
100
AcDb2dVertex
 10
14.43056710621807
 20
21.56882688620348
 30
0.0
  0
SEQEND
  5
38D
330
38A
100
AcDbEntity
  8
010
370
     0
  0
POLYLINE
  5
38E
330
27F
100
AcDbEntity
  8
010
370
     0
100
AcDb2dPolyline
 66
     1
 10
0.0
 20
0.0
 30
0.0
  0
VERTEX
  5
38F
330
38E
100
AcDbEntity
  8
010
370
     0
100
AcDbVertex
100
AcDb2dVertex
 10
14.34037444691464
 20
21.42142837862909
 30
0.0
  0
VERTEX
  5
390
330
38E
100
AcDbEntity
  8
010
370
     0
100
AcDbVertex
100
AcDb2dVertex
 10
14.44693132056839
 20
21.52812305619316
 30
0.0
  0
SEQEND
  5
391
330
38E
100
AcDbEntity
  8
010
370
     0
  0
POLYLINE
  5
392
330
27F
100
AcDbEntity
  8
010
370
     0
100
AcDb2dPolyline
 66
     1
 10
0.0
 20
0.0
 30
0.0
  0
VERTEX
  5
393
330
392
100
AcDbEntity
  8
010
370
     0
100
AcDbVertex
100
AcDb2dVertex
 10
14.35787554352508
 20
21.38196478381164
 30
0.0
  0
VERTEX
  5
394
330
392
100
AcDbEntity
  8
010
370
     0
100
AcDbVertex
100
AcDb2dVertex
 10
14.46332998589629
 20
21.48743645167164
 30
0.0
  0
SEQEND
  5
395
330
392
100
AcDbEntity
  8
010
370
     0
  0
POLYLINE
  5
396
330
27F
100
AcDbEntity
  8
010
370
     0
100
AcDb2dPolyline
 66
     1
 10
0.0
 20
0.0
 30
0.0
  0
VERTEX
  5
397
330
396
100
AcDbEntity
  8
010
370
     0
100
AcDbVertex
100
AcDb2dVertex
 10
14.37547999306827
 20
21.34251841448298
 30
0.0
  0
VERTEX
  5
398
330
396
100
AcDbEntity
  8
010
370
     0
100
AcDbVertex
100
AcDb2dVertex
 10
14.47969420024661
 20
21.44673262166132
 30
0.0
  0
SEQEND
  5
399
330
396
100
AcDbEntity
  8
010
370
     0
  0
POLYLINE
  5
39A
330
27F
100
AcDbEntity
  8
010
370
     0
100
AcDb2dPolyline
 66
     1
 10
0.0
 20
0.0
 30
0.0
  0
VERTEX
  5
39B
330
39A
100
AcDbEntity
  8
010
370
     0
100
AcDbVertex
100
AcDb2dVertex
 10
14.39298108967871
 20
21.30295146673279
 30
0.0
  0
VERTEX
  5
39C
330
39A
100
AcDbEntity
  8
010
370
     0
100
AcDbVertex
100
AcDb2dVertex
 10
14.49595506166419
 20
21.40604601713979
 30
0.0
  0
SEQEND
  5
39D
330
39A
100
AcDbEntity
  8
010
370
     0
  0
POLYLINE
  5
39E
330
27F
100
AcDbEntity
  8
010
370
     0
100
AcDb2dPolyline
 66
     1
 10
0.0
 20
0.0
 30
0.0
  0
VERTEX
  5
39F
330
39E
100
AcDbEntity
  8
010
370
     0
100
AcDbVertex
100
AcDb2dVertex
 10
14.41058553922189
 20
21.26348787191534
 30
0.0
  0
VERTEX
  5
3A0
330
39E
100
AcDbEntity
  8
010
370
     0
100
AcDbVertex
100
AcDb2dVertex
 10
14.5123192760145
 20
21.36534218712947
 30
0.0
  0
SEQEND
  5
3A1
330
39E
100
AcDbEntity
  8
010
370
     0
  0
POLYLINE
  5
3A2
330
27F
100
AcDbEntity
  8
010
370
     0
100
AcDb2dPolyline
 66
     1
 10
0.0
 20
0.0
 30
0.0
  0
VERTEX
  5
3A3
330
3A2
100
AcDbEntity
  8
010
370
     0
100
AcDbVertex
100
AcDb2dVertex
 10
14.42818998876508
 20
21.22404150258668
 30
0.0
  0
VERTEX
  5
3A4
330
3A2
100
AcDbEntity
  8
010
370
     0
100
AcDbVertex
100
AcDb2dVertex
 10
14.5287179413424
 20
21.32465558260795
 30
0.0
  0
SEQEND
  5
3A5
330
3A2
100
AcDbEntity
  8
010
370
     0
  0
POLYLINE
  5
3A6
330
27F
100
AcDbEntity
  8
010
370
     0
100
AcDb2dPolyline
 66
     1
 10
0.0
 20
0.0
 30
0.0
  0
VERTEX
  5
3A7
330
3A6
100
AcDbEntity
  8
010
370
     0
100
AcDbVertex
100
AcDb2dVertex
 10
14.44569108537553
 20
21.18459513325801
 30
0.0
  0
VERTEX
  5
3A8
330
3A6
100
AcDbEntity
  8
010
370
     0
100
AcDbVertex
100
AcDb2dVertex
 10
14.54508215569272
 20
21.28396897808642
 30
0.0
  0
SEQEND
  5
3A9
330
3A6
100
AcDbEntity
  8
010
370
     0
  0
POLYLINE
  5
3AA
330
27F
100
AcDbEntity
  8
010
370
     0
100
AcDb2dPolyline
 66
     1
 10
0.0
 20
0.0
 30
0.0
  0
VERTEX
  5
3AB
330
3AA
100
AcDbEntity
  8
010
370
     0
100
AcDbVertex
100
AcDb2dVertex
 10
14.46332998589629
 20
21.14513153844056
 30
0.0
  0
VERTEX
  5
3AC
330
3AA
100
AcDbEntity
  8
010
370
     0
100
AcDbVertex
100
AcDb2dVertex
 10
14.56144637004304
 20
21.2432651480761
 30
0.0
  0
SEQEND
  5
3AD
330
3AA
100
AcDbEntity
  8
010
370
     0
  0
POLYLINE
  5
3AE
330
27F
100
AcDbEntity
  8
010
370
     0
100
AcDb2dPolyline
 66
     1
 10
0.0
 20
0.0
 30
0.0
  0
VERTEX
  5
3AF
330
3AE
100
AcDbEntity
  8
010
370
     0
100
AcDbVertex
100
AcDb2dVertex
 10
14.48079663152915
 20
21.1056851691119
 30
0.0
  0
VERTEX
  5
3B0
330
3AE
100
AcDbEntity
  8
010
370
     0
100
AcDbVertex
100
AcDb2dVertex
 10
14.57784503537093
 20
21.20257854355457
 30
0.0
  0
SEQEND
  5
3B1
330
3AE
100
AcDbEntity
  8
010
370
     0
  0
POLYLINE
  5
3B2
330
27F
100
AcDbEntity
  8
010
370
     0
100
AcDb2dPolyline
 66
     1
 10
0.0
 20
0.0
 30
0.0
  0
VERTEX
  5
3B3
330
3B2
100
AcDbEntity
  8
010
370
     0
100
AcDbVertex
100
AcDb2dVertex
 10
14.49843553204992
 20
21.06610099587292
 30
0.0
  0
VERTEX
  5
3B4
330
3B2
100
AcDbEntity
  8
010
370
     0
100
AcDbVertex
100
AcDb2dVertex
 10
14.59407144581093
 20
21.16187471354426
 30
0.0
  0
SEQEND
  5
3B5
330
3B2
100
AcDbEntity
  8
010
370
     0
  0
POLYLINE
  5
3B6
330
27F
100
AcDbEntity
  8
010
370
     0
100
AcDb2dPolyline
 66
     1
 10
0.0
 20
0.0
 30
0.0
  0
VERTEX
  5
3B7
330
3B6
100
AcDbEntity
  8
010
370
     0
100
AcDbVertex
100
AcDb2dVertex
 10
14.5160399815931
 20
21.02665462654426
 30
0.0
  0
VERTEX
  5
3B8
330
3B6
100
AcDbEntity
  8
010
370
     0
100
AcDbVertex
100
AcDb2dVertex
 10
14.61047011113883
 20
21.12118810902273
 30
0.0
  0
SEQEND
  5
3B9
330
3B6
100
AcDbEntity
  8
010
370
     0
  0
POLYLINE
  5
3BA
330
27F
100
AcDbEntity
  8
010
370
     0
100
AcDb2dPolyline
 66
     1
 10
0.0
 20
0.0
 30
0.0
  0
VERTEX
  5
3BB
330
3BA
100
AcDbEntity
  8
010
370
     0
100
AcDbVertex
100
AcDb2dVertex
 10
14.53354107820355
 20
20.98719103172681
 30
0.0
  0
VERTEX
  5
3BC
330
3BA
100
AcDbEntity
  8
010
370
     0
100
AcDbVertex
100
AcDb2dVertex
 10
14.62683432548915
 20
21.0805015045012
 30
0.0
  0
SEQEND
  5
3BD
330
3BA
100
AcDbEntity
  8
010
370
     0
  0
POLYLINE
  5
3BE
330
27F
100
AcDbEntity
  8
010
370
     0
100
AcDb2dPolyline
 66
     1
 10
0.0
 20
0.0
 30
0.0
  0
VERTEX
  5
3BF
330
3BE
100
AcDbEntity
  8
010
370
     0
100
AcDbVertex
100
AcDb2dVertex
 10
14.55114552774673
 20
20.94774466239815
 30
0.0
  0
VERTEX
  5
3C0
330
3BE
100
AcDbEntity
  8
010
370
     0
100
AcDbVertex
100
AcDb2dVertex
 10
14.64323299081705
 20
21.03979767449088
 30
0.0
  0
SEQEND
  5
3C1
330
3BE
100
AcDbEntity
  8
010
370
     0
  0
POLYLINE
  5
3C2
330
27F
100
AcDbEntity
  8
010
370
     0
100
AcDb2dPolyline
 66
     1
 10
0.0
 20
0.0
 30
0.0
  0
VERTEX
  5
3C3
330
3C2
100
AcDbEntity
  8
010
370
     0
100
AcDbVertex
100
AcDb2dVertex
 10
14.60364881757807
 20
21.79883883801379
 30
0.0
  0
VERTEX
  5
3C4
330
3C2
100
AcDbEntity
  8
010
370
     0
100
AcDbVertex
100
AcDb2dVertex
 10
14.69432379056762
 20
21.88953103649213
 30
0.0
  0
SEQEND
  5
3C5
330
3C2
100
AcDbEntity
  8
010
370
     0
  0
POLYLINE
  5
3C6
330
27F
100
AcDbEntity
  8
010
370
     0
100
AcDb2dPolyline
 66
     1
 10
0.0
 20
0.0
 30
0.0
  0
VERTEX
  5
3C7
330
3C6
100
AcDbEntity
  8
010
370
     0
100
AcDbVertex
100
AcDb2dVertex
 10
14.62087430636788
 20
21.75913408635328
 30
0.0
  0
VERTEX
  5
3C8
330
3C6
100
AcDbEntity
  8
010
370
     0
100
AcDbVertex
100
AcDb2dVertex
 10
14.7119282401108
 20
21.850205245585
 30
0.0
  0
SEQEND
  5
3C9
330
3C6
100
AcDbEntity
  8
010
370
     0
  0
POLYLINE
  5
3CA
330
27F
100
AcDbEntity
  8
010
370
     0
100
AcDb2dPolyline
 66
     1
 10
0.0
 20
0.0
 30
0.0
  0
VERTEX
  5
3CB
330
3CA
100
AcDbEntity
  8
010
370
     0
100
AcDbVertex
100
AcDb2dVertex
 10
14.63813424613526
 20
21.71930875627125
 30
0.0
  0
VERTEX
  5
3CC
330
3CA
100
AcDbEntity
  8
010
370
     0
100
AcDbVertex
100
AcDb2dVertex
 10
14.72956714063157
 20
21.81074165076755
 30
0.0
  0
SEQEND
  5
3CD
330
3CA
100
AcDbEntity
  8
010
370
     0
  0
POLYLINE
  5
3CE
330
27F
100
AcDbEntity
  8
010
370
     0
100
AcDb2dPolyline
 66
     1
 10
0.0
 20
0.0
 30
0.0
  0
VERTEX
  5
3CF
330
3CE
100
AcDbEntity
  8
010
370
     0
100
AcDbVertex
100
AcDb2dVertex
 10
14.65535973492507
 20
21.67948342618921
 30
0.0
  0
VERTEX
  5
3D0
330
3CE
100
AcDbEntity
  8
010
370
     0
100
AcDbVertex
100
AcDb2dVertex
 10
14.74717159017475
 20
21.77129528143889
 30
0.0
  0
SEQEND
  5
3D1
330
3CE
100
AcDbEntity
  8
010
370
     0
  0
POLYLINE
  5
3D2
330
27F
100
AcDbEntity
  8
010
370
     0
100
AcDb2dPolyline
 66
     1
 10
0.0
 20
0.0
 30
0.0
  0
VERTEX
  5
3D3
330
3D2
100
AcDbEntity
  8
010
370
     0
100
AcDbVertex
100
AcDb2dVertex
 10
14.67261967469246
 20
21.63965809610717
 30
0.0
  0
VERTEX
  5
3D4
330
3D2
100
AcDbEntity
  8
010
370
     0
100
AcDbVertex
100
AcDb2dVertex
 10
14.76481049069552
 20
21.73184891211023
 30
0.0
  0
SEQEND
  5
3D5
330
3D2
100
AcDbEntity
  8
010
370
     0
  0
POLYLINE
  5
3D6
330
27F
100
AcDbEntity
  8
010
370
     0
100
AcDb2dPolyline
 66
     1
 10
0.0
 20
0.0
 30
0.0
  0
VERTEX
  5
3D7
330
3D6
100
AcDbEntity
  8
010
370
     0
100
AcDbVertex
100
AcDb2dVertex
 10
14.68987961445985
 20
21.59995334444666
 30
0.0
  0
VERTEX
  5
3D8
330
3D6
100
AcDbEntity
  8
010
370
     0
100
AcDbVertex
100
AcDb2dVertex
 10
14.7824149402387
 20
21.69238531729278
 30
0.0
  0
SEQEND
  5
3D9
330
3D6
100
AcDbEntity
  8
010
370
     0
  0
POLYLINE
  5
3DA
330
27F
100
AcDbEntity
  8
010
370
     0
100
AcDb2dPolyline
 66
     1
 10
0.0
 20
0.0
 30
0.0
  0
VERTEX
  5
3DB
330
3DA
100
AcDbEntity
  8
010
370
     0
100
AcDbVertex
100
AcDb2dVertex
 10
14.70710510324966
 20
21.56012801436463
 30
0.0
  0
VERTEX
  5
3DC
330
3DA
100
AcDbEntity
  8
010
370
     0
100
AcDbVertex
100
AcDb2dVertex
 10
14.80001938978188
 20
21.65305952638564
 30
0.0
  0
SEQEND
  5
3DD
330
3DA
100
AcDbEntity
  8
010
370
     0
  0
POLYLINE
  5
3DE
330
27F
100
AcDbEntity
  8
010
370
     0
100
AcDb2dPolyline
 66
     1
 10
0.0
 20
0.0
 30
0.0
  0
VERTEX
  5
3DF
330
3DE
100
AcDbEntity
  8
010
370
     0
100
AcDbVertex
100
AcDb2dVertex
 10
14.72436504301705
 20
21.52030268428259
 30
0.0
  0
VERTEX
  5
3E0
330
3DE
100
AcDbEntity
  8
010
370
     0
100
AcDbVertex
100
AcDb2dVertex
 10
14.81765829030265
 20
21.61361315705698
 30
0.0
  0
SEQEND
  5
3E1
330
3DE
100
AcDbEntity
  8
010
370
     0
  0
POLYLINE
  5
3E2
330
27F
100
AcDbEntity
  8
010
370
     0
100
AcDb2dPolyline
 66
     1
 10
0.0
 20
0.0
 30
0.0
  0
VERTEX
  5
3E3
330
3E2
100
AcDbEntity
  8
010
370
     0
100
AcDbVertex
100
AcDb2dVertex
 10
14.74159053180685
 20
21.48047735420055
 30
0.0
  0
VERTEX
  5
3E4
330
3E2
100
AcDbEntity
  8
010
370
     0
100
AcDbVertex
100
AcDb2dVertex
 10
14.83526273984583
 20
21.57414956223953
 30
0.0
  0
SEQEND
  5
3E5
330
3E2
100
AcDbEntity
  8
010
370
     0
  0
POLYLINE
  5
3E6
330
27F
100
AcDbEntity
  8
010
370
     0
100
AcDb2dPolyline
 66
     1
 10
0.0
 20
0.0
 30
0.0
  0
VERTEX
  5
3E7
330
3E6
100
AcDbEntity
  8
010
370
     0
100
AcDbVertex
100
AcDb2dVertex
 10
14.75895382450698
 20
21.44065202411852
 30
0.0
  0
VERTEX
  5
3E8
330
3E6
100
AcDbEntity
  8
010
370
     0
100
AcDbVertex
100
AcDb2dVertex
 10
14.8529016403666
 20
21.53470319291087
 30
0.0
  0
SEQEND
  5
3E9
330
3E6
100
AcDbEntity
  8
010
370
     0
  0
POLYLINE
  5
3EA
330
27F
100
AcDbEntity
  8
010
370
     0
100
AcDb2dPolyline
 66
     1
 10
0.0
 20
0.0
 30
0.0
  0
VERTEX
  5
3EB
330
3EA
100
AcDbEntity
  8
010
370
     0
100
AcDbVertex
100
AcDb2dVertex
 10
14.77607596036405
 20
21.40094727245801
 30
0.0
  0
VERTEX
  5
3EC
330
3EA
100
AcDbEntity
  8
010
370
     0
100
AcDbVertex
100
AcDb2dVertex
 10
14.87050608990978
 20
21.49523959809342
 30
0.0
  0
SEQEND
  5
3ED
330
3EA
100
AcDbEntity
  8
010
370
     0
  0
POLYLINE
  5
3EE
330
27F
100
AcDbEntity
  8
010
370
     0
100
AcDb2dPolyline
 66
     1
 10
0.0
 20
0.0
 30
0.0
  0
VERTEX
  5
3EF
330
3EE
100
AcDbEntity
  8
010
370
     0
100
AcDbVertex
100
AcDb2dVertex
 10
14.79343925306418
 20
21.36112194237597
 30
0.0
  0
VERTEX
  5
3F0
330
3EE
100
AcDbEntity
  8
010
370
     0
100
AcDbVertex
100
AcDb2dVertex
 10
14.88811053945297
 20
21.45579322876476
 30
0.0
  0
SEQEND
  5
3F1
330
3EE
100
AcDbEntity
  8
010
370
     0
  0
POLYLINE
  5
3F2
330
27F
100
AcDbEntity
  8
010
370
     0
100
AcDb2dPolyline
 66
     1
 10
0.0
 20
0.0
 30
0.0
  0
VERTEX
  5
3F3
330
3F2
100
AcDbEntity
  8
010
370
     0
100
AcDbVertex
100
AcDb2dVertex
 10
14.81059583989883
 20
21.32129661229393
 30
0.0
  0
VERTEX
  5
3F4
330
3F2
100
AcDbEntity
  8
010
370
     0
100
AcDbVertex
100
AcDb2dVertex
 10
14.90574943997373
 20
21.41646743785763
 30
0.0
  0
SEQEND
  5
3F5
330
3F2
100
AcDbEntity
  8
010
370
     0
  0
POLYLINE
  5
3F6
330
27F
100
AcDbEntity
  8
010
370
     0
100
AcDb2dPolyline
 66
     1
 10
0.0
 20
0.0
 30
0.0
  0
VERTEX
  5
3F7
330
3F6
100
AcDbEntity
  8
010
370
     0
100
AcDbVertex
100
AcDb2dVertex
 10
14.82795913259895
 20
21.2814712822119
 30
0.0
  0
VERTEX
  5
3F8
330
3F6
100
AcDbEntity
  8
010
370
     0
100
AcDbVertex
100
AcDb2dVertex
 10
14.92335388951691
 20
21.37700384304017
 30
0.0
  0
SEQEND
  5
3F9
330
3F6
100
AcDbEntity
  8
010
370
     0
  0
POLYLINE
  5
3FA
330
27F
100
AcDbEntity
  8
010
370
     0
100
AcDb2dPolyline
 66
     1
 10
0.0
 20
0.0
 30
0.0
  0
VERTEX
  5
3FB
330
3FA
100
AcDbEntity
  8
010
370
     0
100
AcDbVertex
100
AcDb2dVertex
 10
14.84518462138876
 20
21.24178375604018
 30
0.0
  0
VERTEX
  5
3FC
330
3FA
100
AcDbEntity
  8
010
370
     0
100
AcDbVertex
100
AcDb2dVertex
 10
14.9409583390601
 20
21.33755747371151
 30
0.0
  0
SEQEND
  5
3FD
330
3FA
100
AcDbEntity
  8
010
370
     0
  0
POLYLINE
  5
3FE
330
27F
100
AcDbEntity
  8
010
370
     0
100
AcDb2dPolyline
 66
     1
 10
0.0
 20
0.0
 30
0.0
  0
VERTEX
  5
3FF
330
3FE
100
AcDbEntity
  8
010
370
     0
100
AcDbVertex
100
AcDb2dVertex
 10
14.5687844282675
 20
20.90829829306949
 30
0.0
  0
VERTEX
  5
400
330
3FE
100
AcDbEntity
  8
010
370
     0
100
AcDbVertex
100
AcDb2dVertex
 10
14.65959720516737
 20
20.99911106996936
 30
0.0
  0
SEQEND
  5
401
330
3FE
100
AcDbEntity
  8
010
370
     0
  0
POLYLINE
  5
402
330
27F
100
AcDbEntity
  8
010
370
     0
100
AcDb2dPolyline
 66
     1
 10
0.0
 20
0.0
 30
0.0
  0
VERTEX
  5
403
330
402
100
AcDbEntity
  8
010
370
     0
100
AcDbVertex
100
AcDb2dVertex
 10
14.86440826687819
 20
21.20393935716897
 30
0.0
  0
VERTEX
  5
404
330
402
100
AcDbEntity
  8
010
370
     0
100
AcDbVertex
100
AcDb2dVertex
 10
14.95859723958086
 20
21.29811110438285
 30
0.0
  0
SEQEND
  5
405
330
402
100
AcDbEntity
  8
010
370
     0
  0
POLYLINE
  5
406
330
27F
100
AcDbEntity
  8
010
370
     0
100
AcDb2dPolyline
 66
     1
 10
0.0
 20
0.0
 30
0.0
  0
VERTEX
  5
407
330
406
100
AcDbEntity
  8
010
370
     0
100
AcDbVertex
100
AcDb2dVertex
 10
14.58625107390036
 20
20.86883469825203
 30
0.0
  0
VERTEX
  5
408
330
406
100
AcDbEntity
  8
010
370
     0
100
AcDbVertex
100
AcDb2dVertex
 10
14.67957877216354
 20
20.96212794553764
 30
0.0
  0
SEQEND
  5
409
330
406
100
AcDbEntity
  8
010
370
     0
  0
POLYLINE
  5
40A
330
27F
100
AcDbEntity
  8
010
370
     0
100
AcDb2dPolyline
 66
     1
 10
0.0
 20
0.0
 30
0.0
  0
VERTEX
  5
40B
330
40A
100
AcDbEntity
  8
010
370
     0
100
AcDbVertex
100
AcDb2dVertex
 10
14.60388997442113
 20
20.82938832892338
 30
0.0
  0
VERTEX
  5
40C
330
40A
100
AcDbEntity
  8
010
370
     0
100
AcDbVertex
100
AcDb2dVertex
 10
14.71502882809297
 20
20.94054440808401
 30
0.0
  0
SEQEND
  5
40D
330
40A
100
AcDbEntity
  8
010
370
     0
  0
POLYLINE
  5
40E
330
27F
100
AcDbEntity
  8
010
370
     0
100
AcDb2dPolyline
 66
     1
 10
0.0
 20
0.0
 30
0.0
  0
VERTEX
  5
40F
330
40E
100
AcDbEntity
  8
010
370
     0
100
AcDbVertex
100
AcDb2dVertex
 10
14.88662914741704
 20
21.1690749678584
 30
0.0
  0
VERTEX
  5
410
330
40E
100
AcDbEntity
  8
010
370
     0
100
AcDbVertex
100
AcDb2dVertex
 10
14.9769596106308
 20
21.25952600949368
 30
0.0
  0
SEQEND
  5
411
330
40E
100
AcDbEntity
  8
010
370
     0
  0
POLYLINE
  5
412
330
27F
100
AcDbEntity
  8
010
370
     0
100
AcDb2dPolyline
 66
     1
 10
0.0
 20
0.0
 30
0.0
  0
VERTEX
  5
413
330
412
100
AcDbEntity
  8
010
370
     0
100
AcDbVertex
100
AcDb2dVertex
 10
14.90885002795589
 20
21.13433115696935
 30
0.0
  0
VERTEX
  5
414
330
412
100
AcDbEntity
  8
010
370
     0
100
AcDbVertex
100
AcDb2dVertex
 10
15.00152315764506
 20
21.22702151214731
 30
0.0
  0
SEQEND
  5
415
330
412
100
AcDbEntity
  8
010
370
     0
  0
POLYLINE
  5
416
330
27F
100
AcDbEntity
  8
010
370
     0
100
AcDb2dPolyline
 66
     1
 10
0.0
 20
0.0
 30
0.0
  0
VERTEX
  5
417
330
416
100
AcDbEntity
  8
010
370
     0
100
AcDbVertex
100
AcDb2dVertex
 10
14.63651505018902
 20
20.80494536033063
 30
0.0
  0
VERTEX
  5
418
330
416
100
AcDbEntity
  8
010
370
     0
100
AcDbVertex
100
AcDb2dVertex
 10
14.76357025550265
 20
20.93198334015547
 30
0.0
  0
SEQEND
  5
419
330
416
100
AcDbEntity
  8
010
370
     0
  0
POLYLINE
  5
41A
330
27F
100
AcDbEntity
  8
010
370
     0
100
AcDb2dPolyline
 66
     1
 10
0.0
 20
0.0
 30
0.0
  0
VERTEX
  5
41B
330
41A
100
AcDbEntity
  8
010
370
     0
100
AcDbVertex
100
AcDb2dVertex
 10
14.93103645751717
 20
21.09946676765878
 30
0.0
  0
VERTEX
  5
41C
330
41A
100
AcDbEntity
  8
010
370
     0
100
AcDbVertex
100
AcDb2dVertex
 10
15.02608670465933
 20
21.19451701480094
 30
0.0
  0
SEQEND
  5
41D
330
41A
100
AcDbEntity
  8
010
370
     0
  0
POLYLINE
  5
41E
330
27F
100
AcDbEntity
  8
010
370
     0
100
AcDb2dPolyline
 66
     1
 10
0.0
 20
0.0
 30
0.0
  0
VERTEX
  5
41F
330
41E
100
AcDbEntity
  8
010
370
     0
100
AcDbVertex
100
AcDb2dVertex
 10
14.69346251612813
 20
20.80494536033063
 30
0.0
  0
VERTEX
  5
420
330
41E
100
AcDbEntity
  8
010
370
     0
100
AcDbVertex
100
AcDb2dVertex
 10
14.82051772144176
 20
20.93198334015547
 30
0.0
  0
SEQEND
  5
421
330
41E
100
AcDbEntity
  8
010
370
     0
  0
POLYLINE
  5
422
330
27F
100
AcDbEntity
  8
010
370
     0
100
AcDb2dPolyline
 66
     1
 10
0.0
 20
0.0
 30
0.0
  0
VERTEX
  5
423
330
422
100
AcDbEntity
  8
010
370
     0
100
AcDbVertex
100
AcDb2dVertex
 10
14.93837451574163
 20
21.04971955603381
 30
0.0
  0
VERTEX
  5
424
330
422
100
AcDbEntity
  8
010
370
     0
100
AcDbVertex
100
AcDb2dVertex
 10
15.05051244776328
 20
21.16187471354426
 30
0.0
  0
SEQEND
  5
425
330
422
100
AcDbEntity
  8
010
370
     0
  0
POLYLINE
  5
426
330
27F
100
AcDbEntity
  8
010
370
     0
100
AcDb2dPolyline
 66
     1
 10
0.0
 20
0.0
 30
0.0
  0
VERTEX
  5
427
330
426
100
AcDbEntity
  8
010
370
     0
100
AcDbVertex
100
AcDb2dVertex
 10
14.75051333499997
 20
20.80494536033063
 30
0.0
  0
VERTEX
  5
428
330
426
100
AcDbEntity
  8
010
370
     0
100
AcDbVertex
100
AcDb2dVertex
 10
15.08651371933398
 20
21.14079071526553
 30
0.0
  0
SEQEND
  5
429
330
426
100
AcDbEntity
  8
010
370
     0
  0
POLYLINE
  5
42A
330
27F
100
AcDbEntity
  8
010
370
     0
100
AcDb2dPolyline
 66
     1
 10
0.0
 20
0.0
 30
0.0
  0
VERTEX
  5
42B
330
42A
100
AcDbEntity
  8
010
370
     0
100
AcDbVertex
100
AcDb2dVertex
 10
14.8075986048494
 20
20.80494536033063
 30
0.0
  0
VERTEX
  5
42C
330
42A
100
AcDbEntity
  8
010
370
     0
100
AcDbVertex
100
AcDb2dVertex
 10
15.12768263754162
 20
21.12490881460133
 30
0.0
  0
SEQEND
  5
42D
330
42A
100
AcDbEntity
  8
010
370
     0
  0
POLYLINE
  5
42E
330
27F
100
AcDbEntity
  8
010
370
     0
100
AcDb2dPolyline
 66
     1
 10
0.0
 20
0.0
 30
0.0
  0
VERTEX
  5
42F
330
42E
100
AcDbEntity
  8
010
370
     0
100
AcDbVertex
100
AcDb2dVertex
 10
14.86468387469882
 20
20.80494536033063
 30
0.0
  0
VERTEX
  5
430
330
42E
100
AcDbEntity
  8
010
370
     0
100
AcDbVertex
100
AcDb2dVertex
 10
15.16888600672684
 20
21.10914749235865
 30
0.0
  0
SEQEND
  5
431
330
42E
100
AcDbEntity
  8
010
370
     0
  0
POLYLINE
  5
432
330
27F
100
AcDbEntity
  8
010
370
     0
100
AcDb2dPolyline
 66
     1
 10
0.0
 20
0.0
 30
0.0
  0
VERTEX
  5
433
330
432
100
AcDbEntity
  8
010
370
     0
100
AcDbVertex
100
AcDb2dVertex
 10
14.92173469357067
 20
20.80494536033063
 30
0.0
  0
VERTEX
  5
434
330
432
100
AcDbEntity
  8
010
370
     0
100
AcDbVertex
100
AcDb2dVertex
 10
15.02904948873118
 20
20.91226015549114
 30
0.0
  0
SEQEND
  5
435
330
432
100
AcDbEntity
  8
010
370
     0
  0
POLYLINE
  5
436
330
27F
100
AcDbEntity
  8
010
370
     0
100
AcDb2dPolyline
 66
     1
 10
0.0
 20
0.0
 30
0.0
  0
VERTEX
  5
437
330
436
100
AcDbEntity
  8
010
370
     0
100
AcDbVertex
100
AcDb2dVertex
 10
15.03142660618417
 20
20.91449946903382
 30
0.0
  0
VERTEX
  5
438
330
436
100
AcDbEntity
  8
010
370
     0
100
AcDbVertex
100
AcDb2dVertex
 10
15.21591159112302
 20
21.0991050323942
 30
0.0
  0
SEQEND
  5
439
330
436
100
AcDbEntity
  8
010
370
     0
  0
POLYLINE
  5
43A
330
27F
100
AcDbEntity
  8
010
370
     0
100
AcDb2dPolyline
 66
     1
 10
0.0
 20
0.0
 30
0.0
  0
VERTEX
  5
43B
330
43A
100
AcDbEntity
  8
010
370
     0
100
AcDbVertex
100
AcDb2dVertex
 10
15.11614156005245
 20
20.94228418245178
 30
0.0
  0
VERTEX
  5
43C
330
43A
100
AcDbEntity
  8
010
370
     0
100
AcDbVertex
100
AcDb2dVertex
 10
15.26824262606646
 20
21.09450582688731
 30
0.0
  0
SEQEND
  5
43D
330
43A
100
AcDbEntity
  8
010
370
     0
  0
POLYLINE
  5
43E
330
27F
100
AcDbEntity
  8
010
370
     0
100
AcDb2dPolyline
 66
     1
 10
0.0
 20
0.0
 30
0.0
  0
VERTEX
  5
43F
330
43E
100
AcDbEntity
  8
010
370
     0
100
AcDbVertex
100
AcDb2dVertex
 10
15.16826588913041
 20
20.93744382010184
 30
0.0
  0
VERTEX
  5
440
330
43E
100
AcDbEntity
  8
010
370
     0
100
AcDbVertex
100
AcDb2dVertex
 10
15.32074591589779
 20
21.08992384686923
 30
0.0
  0
SEQEND
  5
441
330
43E
100
AcDbEntity
  8
010
370
     0
  0
POLYLINE
  5
442
330
27F
100
AcDbEntity
  8
010
370
     0
100
AcDb2dPolyline
 66
     1
 10
0.0
 20
0.0
 30
0.0
  0
VERTEX
  5
443
330
442
100
AcDbEntity
  8
010
370
     0
100
AcDbVertex
100
AcDb2dVertex
 10
15.22073472798417
 20
20.93286184008375
 30
0.0
  0
VERTEX
  5
444
330
442
100
AcDbEntity
  8
010
370
     0
100
AcDbVertex
100
AcDb2dVertex
 10
15.37321475475155
 20
21.08534186685114
 30
0.0
  0
SEQEND
  5
445
330
442
100
AcDbEntity
  8
010
370
     0
  0
POLYLINE
  5
446
330
27F
100
AcDbEntity
  8
010
370
     0
100
AcDb2dPolyline
 66
     1
 10
0.0
 20
0.0
 30
0.0
  0
VERTEX
  5
447
330
446
100
AcDbEntity
  8
010
370
     0
100
AcDbVertex
100
AcDb2dVertex
 10
15.27320356683792
 20
20.92826263457687
 30
0.0
  0
VERTEX
  5
448
330
446
100
AcDbEntity
  8
010
370
     0
100
AcDbVertex
100
AcDb2dVertex
 10
15.41428032002645
 20
21.06932216227662
 30
0.0
  0
SEQEND
  5
449
330
446
100
AcDbEntity
  8
010
370
     0
  0
POLYLINE
  5
44A
330
27F
100
AcDbEntity
  8
010
370
     0
100
AcDb2dPolyline
 66
     1
 10
0.0
 20
0.0
 30
0.0
  0
VERTEX
  5
44B
330
44A
100
AcDbEntity
  8
010
370
     0
100
AcDbVertex
100
AcDb2dVertex
 10
15.32570685666926
 20
20.92368065455879
 30
0.0
  0
VERTEX
  5
44C
330
44A
100
AcDbEntity
  8
010
370
     0
100
AcDbVertex
100
AcDb2dVertex
 10
15.44404596465524
 20
21.04203698803356
 30
0.0
  0
SEQEND
  5
44D
330
44A
100
AcDbEntity
  8
010
370
     0
  0
POLYLINE
  5
44E
330
27F
100
AcDbEntity
  8
010
370
     0
100
AcDb2dPolyline
 66
     1
 10
0.0
 20
0.0
 30
0.0
  0
VERTEX
  5
44F
330
44E
100
AcDbEntity
  8
010
370
     0
100
AcDbVertex
100
AcDb2dVertex
 10
15.35933101078697
 20
20.90021953882707
 30
0.0
  0
VERTEX
  5
450
330
44E
100
AcDbEntity
  8
010
370
     0
100
AcDbVertex
100
AcDb2dVertex
 10
15.47384606026161
 20
21.01473458830171
 30
0.0
  0
SEQEND
  5
451
330
44E
100
AcDbEntity
  8
010
370
     0
  0
POLYLINE
  5
452
330
27F
100
AcDbEntity
  8
010
370
     0
100
AcDb2dPolyline
 66
     1
 10
0.0
 20
0.0
 30
0.0
  0
VERTEX
  5
453
330
452
100
AcDbEntity
  8
010
370
     0
100
AcDbVertex
100
AcDb2dVertex
 10
15.38413571464429
 20
20.86809400223407
 30
0.0
  0
VERTEX
  5
454
330
452
100
AcDbEntity
  8
010
370
     0
100
AcDbVertex
100
AcDb2dVertex
 10
15.5036117048904
 20
20.98744941405866
 30
0.0
  0
SEQEND
  5
455
330
452
100
AcDbEntity
  8
010
370
     0
  0
POLYLINE
  5
456
330
27F
100
AcDbEntity
  8
010
370
     0
100
AcDb2dPolyline
 66
     1
 10
0.0
 20
0.0
 30
0.0
  0
VERTEX
  5
457
330
456
100
AcDbEntity
  8
010
370
     0
100
AcDbVertex
100
AcDb2dVertex
 10
15.38871769466238
 20
20.81560793789153
 30
0.0
  0
VERTEX
  5
458
330
456
100
AcDbEntity
  8
010
370
     0
100
AcDbVertex
100
AcDb2dVertex
 10
15.53337734951919
 20
20.96014701432681
 30
0.0
  0
SEQEND
  5
459
330
456
100
AcDbEntity
  8
010
370
     0
  0
POLYLINE
  5
45A
330
27F
100
AcDbEntity
  8
010
370
     0
100
AcDb2dPolyline
 66
     1
 10
0.0
 20
0.0
 30
0.0
  0
VERTEX
  5
45B
330
45A
100
AcDbEntity
  8
010
370
     0
100
AcDbVertex
100
AcDb2dVertex
 10
15.43512316146212
 20
20.80494536033063
 30
0.0
  0
VERTEX
  5
45C
330
45A
100
AcDbEntity
  8
010
370
     0
100
AcDbVertex
100
AcDb2dVertex
 10
15.56117928842594
 20
20.93100148729446
 30
0.0
  0
SEQEND
  5
45D
330
45A
100
AcDbEntity
  8
010
370
     0
  0
POLYLINE
  5
45E
330
27F
100
AcDbEntity
  8
010
370
     0
100
AcDb2dPolyline
 66
     1
 10
0.0
 20
0.0
 30
0.0
  0
VERTEX
  5
45F
330
45E
100
AcDbEntity
  8
010
370
     0
100
AcDbVertex
100
AcDb2dVertex
 10
15.49220843131155
 20
20.80494536033063
 30
0.0
  0
VERTEX
  5
460
330
45E
100
AcDbEntity
  8
010
370
     0
100
AcDbVertex
100
AcDb2dVertex
 10
15.56117928842594
 20
20.87391621744503
 30
0.0
  0
SEQEND
  5
461
330
45E
100
AcDbEntity
  8
010
370
     0
  0
POLYLINE
  5
462
330
27F
100
AcDbEntity
  8
010
370
     0
100
AcDb2dPolyline
 66
     1
 10
0.0
 20
0.0
 30
0.0
  0
VERTEX
  5
463
330
462
100
AcDbEntity
  8
010
370
     0
100
AcDbVertex
100
AcDb2dVertex
 10
15.54915589725065
 20
20.80494536033063
 30
0.0
  0
VERTEX
  5
464
330
462
100
AcDbEntity
  8
010
370
     0
100
AcDbVertex
100
AcDb2dVertex
 10
15.56117928842594
 20
20.81696875150592
 30
0.0
  0
SEQEND
  5
465
330
462
100
AcDbEntity
  8
010
370
     0
  0
POLYLINE
  5
466
330
27F
100
AcDbEntity
  8
010
370
     0
100
AcDb2dPolyline
 66
     1
 10
0.0
 20
0.0
 30
0.0
  0
VERTEX
  5
467
330
466
100
AcDbEntity
  8
010
370
     0
100
AcDbVertex
100
AcDb2dVertex
 10
16.14564012306414
 20
20.88793776531993
 30
0.0
  0
VERTEX
  5
468
330
466
100
AcDbEntity
  8
010
370
     0
100
AcDbVertex
100
AcDb2dVertex
 10
16.34280306775229
 20
21.08508348451929
 30
0.0
  0
SEQEND
  5
469
330
466
100
AcDbEntity
  8
010
370
     0
  0
POLYLINE
  5
46A
330
27F
100
AcDbEntity
  8
010
370
     0
100
AcDb2dPolyline
 66
     1
 10
0.0
 20
0.0
 30
0.0
  0
VERTEX
  5
46B
330
46A
100
AcDbEntity
  8
010
370
     0
100
AcDbVertex
100
AcDb2dVertex
 10
16.14564012306414
 20
20.8308697209593
 30
0.0
  0
VERTEX
  5
46C
330
46A
100
AcDbEntity
  8
010
370
     0
100
AcDbVertex
100
AcDb2dVertex
 10
16.40185204332375
 20
21.08706441573012
 30
0.0
  0
SEQEND
  5
46D
330
46A
100
AcDbEntity
  8
010
370
     0
  0
POLYLINE
  5
46E
330
27F
100
AcDbEntity
  8
010
370
     0
100
AcDb2dPolyline
 66
     1
 10
0.0
 20
0.0
 30
0.0
  0
VERTEX
  5
46F
330
46E
100
AcDbEntity
  8
010
370
     0
100
AcDbVertex
100
AcDb2dVertex
 10
16.17668045386338
 20
20.80494536033063
 30
0.0
  0
VERTEX
  5
470
330
46E
100
AcDbEntity
  8
010
370
     0
100
AcDbVertex
100
AcDb2dVertex
 10
16.46103882280553
 20
21.08918315085127
 30
0.0
  0
SEQEND
  5
471
330
46E
100
AcDbEntity
  8
010
370
     0
  0
POLYLINE
  5
472
330
27F
100
AcDbEntity
  8
010
370
     0
100
AcDb2dPolyline
 66
     1
 10
0.0
 20
0.0
 30
0.0
  0
VERTEX
  5
473
330
472
100
AcDbEntity
  8
010
370
     0
100
AcDbVertex
100
AcDb2dVertex
 10
16.23373127273522
 20
20.80494536033063
 30
0.0
  0
VERTEX
  5
474
330
472
100
AcDbEntity
  8
010
370
     0
100
AcDbVertex
100
AcDb2dVertex
 10
16.52008779837699
 20
21.09128466048362
 30
0.0
  0
SEQEND
  5
475
330
472
100
AcDbEntity
  8
010
370
     0
  0
POLYLINE
  5
476
330
27F
100
AcDbEntity
  8
010
370
     0
100
AcDb2dPolyline
 66
     1
 10
0.0
 20
0.0
 30
0.0
  0
VERTEX
  5
477
330
476
100
AcDbEntity
  8
010
370
     0
100
AcDbVertex
100
AcDb2dVertex
 10
16.29081654258465
 20
20.80494536033063
 30
0.0
  0
VERTEX
  5
478
330
476
100
AcDbEntity
  8
010
370
     0
100
AcDbVertex
100
AcDb2dVertex
 10
16.31958310886363
 20
20.83372915209841
 30
0.0
  0
SEQEND
  5
479
330
476
100
AcDbEntity
  8
010
370
     0
  0
POLYLINE
  5
47A
330
27F
100
AcDbEntity
  8
010
370
     0
100
AcDb2dPolyline
 66
     1
 10
0.0
 20
0.0
 30
0.0
  0
VERTEX
  5
47B
330
47A
100
AcDbEntity
  8
010
370
     0
100
AcDbVertex
100
AcDb2dVertex
 10
16.40791541537777
 20
20.92206145861254
 30
0.0
  0
VERTEX
  5
47C
330
47A
100
AcDbEntity
  8
010
370
     0
100
AcDbVertex
100
AcDb2dVertex
 10
16.57913677394846
 20
21.09326559169445
 30
0.0
  0
SEQEND
  5
47D
330
47A
100
AcDbEntity
  8
010
370
     0
  0
POLYLINE
  5
47E
330
27F
100
AcDbEntity
  8
010
370
     0
100
AcDb2dPolyline
 66
     1
 10
0.0
 20
0.0
 30
0.0
  0
VERTEX
  5
47F
330
47E
100
AcDbEntity
  8
010
370
     0
100
AcDbVertex
100
AcDb2dVertex
 10
16.46710219485955
 20
20.92418019373369
 30
0.0
  0
VERTEX
  5
480
330
47E
100
AcDbEntity
  8
010
370
     0
100
AcDbVertex
100
AcDb2dVertex
 10
16.5751749115268
 20
21.03223568491216
 30
0.0
  0
SEQEND
  5
481
330
47E
100
AcDbEntity
  8
010
370
     0
  0
POLYLINE
  5
482
330
27F
100
AcDbEntity
  8
010
370
     0
100
AcDb2dPolyline
 66
     1
 10
0.0
 20
0.0
 30
0.0
  0
VERTEX
  5
483
330
482
100
AcDbEntity
  8
010
370
     0
100
AcDbVertex
100
AcDb2dVertex
 10
16.52615117043101
 20
20.92616112494452
 30
0.0
  0
VERTEX
  5
484
330
482
100
AcDbEntity
  8
010
370
     0
100
AcDbVertex
100
AcDb2dVertex
 10
16.5699383629347
 20
20.96994831744821
 30
0.0
  0
SEQEND
  5
485
330
482
100
AcDbEntity
  8
010
370
     0
  0
ENDBLK
  5
282
330
27F
100
AcDbEntity
  8
0
100
AcDbBlockEnd
  0
BLOCK
  5
488
330
486
100
AcDbEntity
  8
0
100
AcDbBlockBegin
  2
block 76
 70
     0
 71
     0
 10
0.0
 20
0.0
 30
0.0
  3
block 76
  1

  0
SPLINE
  5
48A
330
486
100
AcDbEntity
  8
010
  6
AI-Linetype-2
 62
     1
420
 16711680
370
    25
100
AcDbSpline
210
0.0
220
0.0
230
1.0
 70
     8
 71
     3
 72
     8
 73
     4
 74
     0
 42
0.0000000001
 43
0.0000000001
 40
0.0
 40
0.0
 40
0.0
 40
0.0
 40
1.0
 40
1.0
 40
1.0
 40
1.0
 10
14.13497771858496
 20
23.14239251264127
 30
0.0
 10
14.13036128758929
 20
23.15374410975376
 30
0.0
 10
14.11695985731082
 20
23.16733502040891
 30
0.0
 10
14.10565993666471
 20
23.17207202982611
 30
0.0
  0
ENDBLK
  5
489
330
486
100
AcDbEntity
  8
0
100
AcDbBlockEnd
  0
BLOCK
  5
48E
330
48C
100
AcDbEntity
  8
0
100
AcDbBlockBegin
  2
block 77
 70
     0
 71
     0
 10
0.0
 20
0.0
 30
0.0
  3
block 77
  1

  0
SPLINE
  5
490
330
48C
100
AcDbEntity
  8
010
 62
     1
420
 16711680
370
    25
100
AcDbSpline
210
0.0
220
0.0
230
1.0
 70
     8
 71
     3
 72
    26
 73
    22
 74
     0
 42
0.0000000001
 43
0.0000000001
 40
0.0
 40
0.0
 40
0.0
 40
0.0
 40
1.0
 40
1.0
 40
1.0
 40
2.0
 40
2.0
 40
2.0
 40
3.0
 40
3.0
 40
3.0
 40
4.0
 40
4.0
 40
4.0
 40
5.0
 40
5.0
 40
5.0
 40
6.0
 40
6.0
 40
6.0
 40
7.0
 40
7.0
 40
7.0
 40
7.0
 10
16.55216165850362
 20
20.80489368386427
 30
0.0
 10
16.58623367532986
 20
21.08995829784681
 30
0.0
 10
16.6203056921561
 20
21.37504013731814
 30
0.0
 10
16.48325970334438
 20
21.55616615194297
 30
0.0
 10
16.48325970334438
 20
21.55616615194297
 30
0.0
 10
16.48325970334438
 20
21.55616615194297
 30
0.0
 10
16.48325970334438
 20
21.55616615194297
 30
0.0
 10
16.34583475377929
 20
21.73786060769787
 30
0.0
 10
16.03625826924886
 20
21.81497912100984
 30
0.0
 10
15.86758628301905
 20
21.99617403758984
 30
0.0
 10
15.86758628301905
 20
21.99617403758984
 30
0.0
 10
15.86758628301905
 20
21.99617403758984
 30
0.0
 10
15.86758628301905
 20
21.99617403758984
 30
0.0
 10
15.7463188419388
 20
22.12645040930716
 30
0.0
 10
15.69791521843944
 20
22.31050475702626
 30
0.0
 10
15.6494771439625
 20
22.49457633023416
 30
0.0
 10
15.6494771439625
 20
22.49457633023416
 30
0.0
 10
15.6494771439625
 20
22.49457633023416
 30
0.0
 10
15.6494771439625
 20
22.49457633023416
 30
0.0
 10
15.6403476349039
 20
22.5293201411232
 30
0.0
 10
15.63118367486772
 20
22.56408117750103
 30
0.0
 10
15.62205416580912
 20
22.59884221387887
 30
0.0
  0
ENDBLK
  5
48F
330
48C
100
AcDbEntity
  8
0
100
AcDbBlockEnd
  0
BLOCK
  5
494
330
492
100
AcDbEntity
  8
0
100
AcDbBlockBegin
  2
block 78
 70
     0
 71
     0
 10
0.0
 20
0.0
 30
0.0
  3
block 78
  1

  0
SPLINE
  5
496
330
492
100
AcDbEntity
  8
018
 62
     2
420
 16776960
370
    25
100
AcDbSpline
210
0.0
220
0.0
230
1.0
 70
     8
 71
     3
 72
    14
 73
    10
 74
     0
 42
0.0000000001
 43
0.0000000001
 40
0.0
 40
0.0
 40
0.0
 40
0.0
 40
1.0
 40
1.0
 40
1.0
 40
2.0
 40
2.0
 40
2.0
 40
3.0
 40
3.0
 40
3.0
 40
3.0
 10
5.172659254180367
 20
11.6248278156677
 30
0.0
 10
5.172659254180367
 20
11.36520524862771
 30
0.0
 10
5.383103050725457
 20
11.15474422659383
 30
0.0
 10
5.64270839227666
 20
11.15474422659383
 30
0.0
 10
5.902330959316652
 20
11.15474422659383
 30
0.0
 10
6.112774755861742
 20
11.36520524862771
 30
0.0
 10
6.112774755861742
 20
11.6248278156677
 30
0.0
 10
6.112774755861742
 20
11.6248278156677
 30
0.0
 10
6.112774755861742
 20
11.6248278156677
 30
0.0
 10
6.112774755861742
 20
11.6248278156677
 30
0.0
  0
ENDBLK
  5
495
330
492
100
AcDbEntity
  8
0
100
AcDbBlockEnd
  0
BLOCK
  5
499
330
497
100
AcDbEntity
  8
0
100
AcDbBlockBegin
  2
block 79
 70
     0
 71
     0
 10
0.0
 20
0.0
 30
0.0
  3
block 79
  1

  0
SPLINE
  5
49B
330
497
100
AcDbEntity
  8
018
 62
     2
420
 16776960
370
    25
100
AcDbSpline
210
0.0
220
0.0
230
1.0
 70
     8
 71
     3
 72
    14
 73
    10
 74
     0
 42
0.0000000001
 43
0.0000000001
 40
0.0
 40
0.0
 40
0.0
 40
0.0
 40
1.0
 40
1.0
 40
1.0
 40
2.0
 40
2.0
 40
2.0
 40
3.0
 40
3.0
 40
3.0
 40
3.0
 10
6.112774755861742
 20
11.6248278156677
 30
0.0
 10
6.112774755861742
 20
11.88441593173012
 30
0.0
 10
5.902330959316652
 20
12.094876953764
 30
0.0
 10
5.64270839227666
 20
12.094876953764
 30
0.0
 10
5.383103050725457
 20
12.094876953764
 30
0.0
 10
5.172659254180367
 20
11.88441593173012
 30
0.0
 10
5.172659254180367
 20
11.6248278156677
 30
0.0
 10
5.172659254180367
 20
11.6248278156677
 30
0.0
 10
5.172659254180367
 20
11.6248278156677
 30
0.0
 10
5.172659254180367
 20
11.6248278156677
 30
0.0
  0
ENDBLK
  5
49A
330
497
100
AcDbEntity
  8
0
100
AcDbBlockEnd
  0
BLOCK
  5
49E
330
49C
100
AcDbEntity
  8
0
100
AcDbBlockBegin
  2
block 80
 70
     0
 71
     0
 10
0.0
 20
0.0
 30
0.0
  3
block 80
  1

  0
SPLINE
  5
4A0
330
49C
100
AcDbEntity
  8
018
 62
     2
420
 16776960
370
    25
100
AcDbSpline
210
0.0
220
0.0
230
1.0
 70
    11
 71
     3
 72
    20
 73
    16
 74
     0
 42
0.0000000001
 43
0.0000000001
 40
0.0
 40
0.0
 40
0.0
 40
0.0
 40
1.0
 40
1.0
 40
1.0
 40
2.0
 40
2.0
 40
2.0
 40
3.0
 40
3.0
 40
3.0
 40
4.0
 40
4.0
 40
4.0
 40
5.0
 40
5.0
 40
5.0
 40
5.0
 10
2.784241880540688
 20
10.92609308839791
 30
0.0
 10
2.784241880540688
 20
10.08411119635208
 30
0.0
 10
4.064026795668296
 20
9.401568428544708
 30
0.0
 10
5.64270839227666
 20
9.401568428544708
 30
0.0
 10
7.221407214373813
 20
9.401568428544708
 30
0.0
 10
8.50119212950142
 20
10.08411119635208
 30
0.0
 10
8.50119212950142
 20
10.92609308839791
 30
0.0
 10
8.50119212950142
 20
11.76804052946617
 30
0.0
 10
7.221407214373813
 20
12.45058329727354
 30
0.0
 10
5.64270839227666
 20
12.45058329727354
 30
0.0
 10
4.064026795668296
 20
12.45058329727354
 30
0.0
 10
2.784241880540688
 20
11.76804052946617
 30
0.0
 10
2.784241880540688
 20
10.92609308839791
 30
0.0
 10
2.784241880540688
 20
10.92609308839791
 30
0.0
 10
2.784241880540688
 20
10.92609308839791
 30
0.0
 10
2.784241880540688
 20
10.92609308839791
 30
0.0
  0
ENDBLK
  5
49F
330
49C
100
AcDbEntity
  8
0
100
AcDbBlockEnd
  0
BLOCK
  5
4A3
330
4A1
100
AcDbEntity
  8
0
100
AcDbBlockBegin
  2
block 81
 70
     0
 71
     0
 10
0.0
 20
0.0
 30
0.0
  3
block 81
  1

  0
SPLINE
  5
4A5
330
4A1
100
AcDbEntity
  8
018
 62
     2
420
 16776960
370
    25
100
AcDbSpline
210
0.0
220
0.0
230
1.0
 70
     8
 71
     3
 72
     8
 73
     4
 74
     0
 42
0.0000000001
 43
0.0000000001
 40
0.0
 40
0.0
 40
0.0
 40
0.0
 40
1.0
 40
1.0
 40
1.0
 40
1.0
 10
15.10883795280557
 20
20.94305932944732
 30
0.0
 10
15.08265520984506
 20
20.9479858192412
 30
0.0
 10
15.04775636955691
 20
20.9351528300928
 30
0.0
 10
15.03101319445322
 20
20.91443056707866
 30
0.0
  0
ENDBLK
  5
4A4
330
4A1
100
AcDbEntity
  8
0
100
AcDbBlockEnd
  0
BLOCK
  5
4A8
330
4A6
100
AcDbEntity
  8
0
100
AcDbBlockBegin
  2
block 82
 70
     0
 71
     0
 10
0.0
 20
0.0
 30
0.0
  3
block 82
  1

  0
POLYLINE
  5
4AA
330
4A6
100
AcDbEntity
  8
018
 62
     2
420
 16776960
370
    25
100
AcDb2dPolyline
 66
     1
 10
0.0
 20
0.0
 30
0.0
  0
VERTEX
  5
4AB
330
4AA
100
AcDbEntity
  8
018
 62
     2
420
 16776960
370
    25
100
AcDbVertex
100
AcDb2dVertex
 10
14.93234559466519
 20
20.80489368386427
 30
0.0
  0
VERTEX
  5
4AC
330
4AA
100
AcDbEntity
  8
018
 62
     2
420
 16776960
370
    25
100
AcDbVertex
100
AcDb2dVertex
 10
15.03101319445322
 20
20.91443056707866
 30
0.0
  0
SEQEND
  5
4AD
330
4AA
100
AcDbEntity
  8
018
370
    25
  0
ENDBLK
  5
4A9
330
4A6
100
AcDbEntity
  8
0
100
AcDbBlockEnd
  0
BLOCK
  5
4B0
330
4AE
100
AcDbEntity
  8
0
100
AcDbBlockBegin
  2
block 83
 70
     0
 71
     0
 10
0.0
 20
0.0
 30
0.0
  3
block 83
  1

  0
POLYLINE
  5
4B2
330
4AE
100
AcDbEntity
  8
018
 62
     2
420
 16776960
370
    25
100
AcDb2dPolyline
 66
     1
 10
0.0
 20
0.0
 30
0.0
  0
VERTEX
  5
4B3
330
4B2
100
AcDbEntity
  8
018
 62
     2
420
 16776960
370
    25
100
AcDbVertex
100
AcDb2dVertex
 10
14.89472512714825
 20
20.95294676001267
 30
0.0
  0
VERTEX
  5
4B4
330
4B2
100
AcDbEntity
  8
018
 62
     2
420
 16776960
370
    25
100
AcDbVertex
100
AcDb2dVertex
 10
14.93930469213628
 20
21.002418363817
 30
0.0
  0
SEQEND
  5
4B5
330
4B2
100
AcDbEntity
  8
018
370
    25
  0
ENDBLK
  5
4B1
330
4AE
100
AcDbEntity
  8
0
100
AcDbBlockEnd
  0
BLOCK
  5
4B8
330
4B6
100
AcDbEntity
  8
0
100
AcDbBlockBegin
  2
block 84
 70
     0
 71
     0
 10
0.0
 20
0.0
 30
0.0
  3
block 84
  1

  0
SPLINE
  5
4BA
330
4B6
100
AcDbEntity
  8
018
 62
     2
420
 16776960
370
    25
100
AcDbSpline
210
0.0
220
0.0
230
1.0
 70
     8
 71
     3
 72
     8
 73
     4
 74
     0
 42
0.0000000001
 43
0.0000000001
 40
0.0
 40
0.0
 40
0.0
 40
0.0
 40
1.0
 40
1.0
 40
1.0
 40
1.0
 10
14.84752728786418
 20
20.9319316636891
 30
0.0
 10
14.86344363950596
 20
20.93100148729446
 30
0.0
 10
14.88476879462774
 20
20.94049273161764
 30
0.0
 10
14.89472512714825
 20
20.95294676001267
 30
0.0
  0
ENDBLK
  5
4B9
330
4B6
100
AcDbEntity
  8
0
100
AcDbBlockEnd
  0
BLOCK
  5
4BD
330
4BB
100
AcDbEntity
  8
0
100
AcDbBlockBegin
  2
block 85
 70
     0
 71
     0
 10
0.0
 20
0.0
 30
0.0
  3
block 85
  1

  0
SPLINE
  5
4BF
330
4BB
100
AcDbEntity
  8
018
 62
     2
420
 16776960
370
    25
100
AcDbSpline
210
0.0
220
0.0
230
1.0
 70
     8
 71
     3
 72
     8
 73
     4
 74
     0
 42
0.0000000001
 43
0.0000000001
 40
0.0
 40
0.0
 40
0.0
 40
0.0
 40
1.0
 40
1.0
 40
1.0
 40
1.0
 10
15.10883795280557
 20
20.94305932944732
 30
0.0
 10
15.11355773673398
 20
20.94238753538452
 30
0.0
 10
15.12292840263563
 20
20.94135400605713
 30
0.0
 10
15.12768263754162
 20
20.94097504530375
 30
0.0
  0
ENDBLK
  5
4BE
330
4BB
100
AcDbEntity
  8
0
100
AcDbBlockEnd
  0
BLOCK
  5
4C2
330
4C0
100
AcDbEntity
  8
0
100
AcDbBlockBegin
  2
block 86
 70
     0
 71
     0
 10
0.0
 20
0.0
 30
0.0
  3
block 86
  1

  0
SPLINE
  5
4C4
330
4C0
100
AcDbEntity
  8
018
 62
     2
420
 16776960
370
    25
100
AcDbSpline
210
0.0
220
0.0
230
1.0
 70
     8
 71
     3
 72
     8
 73
     4
 74
     0
 42
0.0000000001
 43
0.0000000001
 40
0.0
 40
0.0
 40
0.0
 40
0.0
 40
1.0
 40
1.0
 40
1.0
 40
1.0
 10
14.97410017949169
 20
21.26336729349381
 30
0.0
 10
15.00276339283793
 20
21.1773604279663
 30
0.0
 10
15.09857156148684
 20
21.10520285542579
 30
0.0
 10
15.18914318154366
 20
21.10137879691445
 30
0.0
  0
ENDBLK
  5
4C3
330
4C0
100
AcDbEntity
  8
0
100
AcDbBlockEnd
  0
BLOCK
  5
4C7
330
4C5
100
AcDbEntity
  8
0
100
AcDbBlockBegin
  2
block 87
 70
     0
 71
     0
 10
0.0
 20
0.0
 30
0.0
  3
block 87
  1

  0
SPLINE
  5
4C9
330
4C5
100
AcDbEntity
  8
018
 62
     2
420
 16776960
370
    25
100
AcDbSpline
210
0.0
220
0.0
230
1.0
 70
     8
 71
     3
 72
     8
 73
     4
 74
     0
 42
0.0000000001
 43
0.0000000001
 40
0.0
 40
0.0
 40
0.0
 40
0.0
 40
1.0
 40
1.0
 40
1.0
 40
1.0
 10
14.85548546368507
 20
21.21780587564476
 30
0.0
 10
14.86854238418774
 20
21.17825615338337
 30
0.0
 10
14.90729973396481
 20
21.11760520735445
 30
0.0
 10
14.93768549619003
 20
21.08914869987369
 30
0.0
  0
ENDBLK
  5
4C8
330
4C5
100
AcDbEntity
  8
0
100
AcDbBlockEnd
  0
BLOCK
  5
4CC
330
4CA
100
AcDbEntity
  8
0
100
AcDbBlockBegin
  2
block 88
 70
     0
 71
     0
 10
0.0
 20
0.0
 30
0.0
  3
block 88
  1

  0
SPLINE
  5
4CE
330
4CA
100
AcDbEntity
  8
018
 62
     2
420
 16776960
370
    25
100
AcDbSpline
210
0.0
220
0.0
230
1.0
 70
     8
 71
     3
 72
     8
 73
     4
 74
     0
 42
0.0000000001
 43
0.0000000001
 40
0.0
 40
0.0
 40
0.0
 40
0.0
 40
1.0
 40
1.0
 40
1.0
 40
1.0
 10
14.93930469213628
 20
21.002418363817
 30
0.0
 10
14.96166337658545
 20
21.02684410692095
 30
0.0
 10
14.96093990605628
 20
21.06556700572044
 30
0.0
 10
14.93768549619003
 20
21.08914869987369
 30
0.0
  0
ENDBLK
  5
4CD
330
4CA
100
AcDbEntity
  8
0
100
AcDbBlockEnd
  0
BLOCK
  5
4D1
330
4CF
100
AcDbEntity
  8
0
100
AcDbBlockBegin
  2
block 89
 70
     0
 71
     0
 10
0.0
 20
0.0
 30
0.0
  3
block 89
  1

  0
POLYLINE
  5
4D3
330
4CF
100
AcDbEntity
  8
018
 62
     2
420
 16776960
370
    25
100
AcDb2dPolyline
 66
     1
 10
0.0
 20
0.0
 30
0.0
  0
VERTEX
  5
4D4
330
4D3
100
AcDbEntity
  8
018
 62
     2
420
 16776960
370
    25
100
AcDbVertex
100
AcDb2dVertex
 10
15.21563598330238
 20
21.09905335592783
 30
0.0
  0
VERTEX
  5
4D5
330
4D3
100
AcDbEntity
  8
018
 62
     2
420
 16776960
370
    25
100
AcDbVertex
100
AcDb2dVertex
 10
15.38334334215996
 20
21.0843944649677
 30
0.0
  0
SEQEND
  5
4D6
330
4D3
100
AcDbEntity
  8
018
370
    25
  0
ENDBLK
  5
4D2
330
4CF
100
AcDbEntity
  8
0
100
AcDbBlockEnd
  0
BLOCK
  5
4D9
330
4D7
100
AcDbEntity
  8
0
100
AcDbBlockBegin
  2
block 90
 70
     0
 71
     0
 10
0.0
 20
0.0
 30
0.0
  3
block 90
  1

  0
SPLINE
  5
4DB
330
4D7
100
AcDbEntity
  8
018
 62
     2
420
 16776960
370
    25
100
AcDbSpline
210
0.0
220
0.0
230
1.0
 70
     8
 71
     3
 72
     8
 73
     4
 74
     0
 42
0.0000000001
 43
0.0000000001
 40
0.0
 40
0.0
 40
0.0
 40
0.0
 40
1.0
 40
1.0
 40
1.0
 40
1.0
 10
14.97410017949169
 20
21.26336729349381
 30
0.0
 10
14.79405937066061
 20
21.75599904739354
 30
0.0
 10
14.38164671805502
 20
22.67952640337033
 30
0.0
 10
14.13497771858496
 20
23.14239251264127
 30
0.0
  0
ENDBLK
  5
4DA
330
4D7
100
AcDbEntity
  8
0
100
AcDbBlockEnd
  0
BLOCK
  5
4DE
330
4DC
100
AcDbEntity
  8
0
100
AcDbBlockBegin
  2
block 91
 70
     0
 71
     0
 10
0.0
 20
0.0
 30
0.0
  3
block 91
  1

  0
SPLINE
  5
4E0
330
4DC
100
AcDbEntity
  8
018
 62
     2
420
 16776960
370
    25
100
AcDbSpline
210
0.0
220
0.0
230
1.0
 70
     8
 71
     3
 72
     8
 73
     4
 74
     0
 42
0.0000000001
 43
0.0000000001
 40
0.0
 40
0.0
 40
0.0
 40
0.0
 40
1.0
 40
1.0
 40
1.0
 40
1.0
 10
14.85548546368507
 20
21.21780587564476
 30
0.0
 10
14.71323737725883
 20
21.6032778637831
 30
0.0
 10
14.3957027169075
 20
22.33594680396881
 30
0.0
 10
14.21173449663235
 20
22.70334925436664
 30
0.0
  0
ENDBLK
  5
4DF
330
4DC
100
AcDbEntity
  8
0
100
AcDbBlockEnd
  0
BLOCK
  5
4E3
330
4E1
100
AcDbEntity
  8
0
100
AcDbBlockBegin
  2
block 92
 70
     0
 71
     0
 10
0.0
 20
0.0
 30
0.0
  3
block 92
  1

  0
SPLINE
  5
4E5
330
4E1
100
AcDbEntity
  8
018
 62
     2
420
 16776960
370
    25
100
AcDbSpline
210
0.0
220
0.0
230
1.0
 70
     8
 71
     3
 72
    11
 73
     7
 74
     0
 42
0.0000000001
 43
0.0000000001
 40
0.0
 40
0.0
 40
0.0
 40
0.0
 40
1.0
 40
1.0
 40
1.0
 40
2.0
 40
2.0
 40
2.0
 40
2.0
 10
14.10565993666471
 20
23.17207202982611
 30
0.0
 10
14.07417174315694
 20
23.18755774424815
 30
0.0
 10
14.03610341293146
 20
23.17460417667821
 30
0.0
 10
14.02063492399821
 20
23.14313320865923
 30
0.0
 10
14.01667306157656
 20
23.13603630727783
 30
0.0
 10
14.01360692457197
 20
23.12268655346573
 30
0.0
 10
14.01408923825808
 20
23.11457334824573
 30
0.0
  0
ENDBLK
  5
4E4
330
4E1
100
AcDbEntity
  8
0
100
AcDbBlockEnd
  0
BLOCK
  5
4E8
330
4E6
100
AcDbEntity
  8
0
100
AcDbBlockBegin
  2
block 93
 70
     0
 71
     0
 10
0.0
 20
0.0
 30
0.0
  3
block 93
  1

  0
POLYLINE
  5
4EA
330
4E6
100
AcDbEntity
  8
018
 62
     2
420
 16776960
370
    25
100
AcDb2dPolyline
 66
     1
 10
0.0
 20
0.0
 30
0.0
  0
VERTEX
  5
4EB
330
4EA
100
AcDbEntity
  8
018
 62
     2
420
 16776960
370
    25
100
AcDbVertex
100
AcDb2dVertex
 10
16.36791783040783
 20
20.92068341950936
 30
0.0
  0
VERTEX
  5
4EC
330
4EA
100
AcDbEntity
  8
018
 62
     2
420
 16776960
370
    25
100
AcDbVertex
100
AcDb2dVertex
 10
16.56635546126642
 20
20.92760806600286
 30
0.0
  0
SEQEND
  5
4ED
330
4EA
100
AcDbEntity
  8
018
370
    25
  0
ENDBLK
  5
4E9
330
4E6
100
AcDbEntity
  8
0
100
AcDbBlockEnd
  0
BLOCK
  5
4F0
330
4EE
100
AcDbEntity
  8
0
100
AcDbBlockBegin
  2
block 94
 70
     0
 71
     0
 10
0.0
 20
0.0
 30
0.0
  3
block 94
  1

  0
SPLINE
  5
4F2
330
4EE
100
AcDbEntity
  8
018
 62
     2
420
 16776960
370
    25
100
AcDbSpline
210
0.0
220
0.0
230
1.0
 70
     8
 71
     3
 72
     8
 73
     4
 74
     0
 42
0.0000000001
 43
0.0000000001
 40
0.0
 40
0.0
 40
0.0
 40
0.0
 40
1.0
 40
1.0
 40
1.0
 40
1.0
 10
16.32347606933012
 20
21.0843944649677
 30
0.0
 10
16.31541454057649
 20
21.08485955316502
 30
0.0
 10
16.30404571797522
 20
21.08043260254604
 30
0.0
 10
16.29843020862974
 20
21.07464483831267
 30
0.0
  0
ENDBLK
  5
4F1
330
4EE
100
AcDbEntity
  8
0
100
AcDbBlockEnd
  0
BLOCK
  5
4F5
330
4F3
100
AcDbEntity
  8
0
100
AcDbBlockBegin
  2
block 95
 70
     0
 71
     0
 10
0.0
 20
0.0
 30
0.0
  3
block 95
  1

  0
SPLINE
  5
4F7
330
4F3
100
AcDbEntity
  8
018
 62
     2
420
 16776960
370
    25
100
AcDbSpline
210
0.0
220
0.0
230
1.0
 70
     8
 71
     3
 72
     8
 73
     4
 74
     0
 42
0.0000000001
 43
0.0000000001
 40
0.0
 40
0.0
 40
0.0
 40
0.0
 40
1.0
 40
1.0
 40
1.0
 40
1.0
 10
15.40838920286034
 20
21.07464483831267
 30
0.0
 10
15.40280814449244
 20
21.08043260254604
 30
0.0
 10
15.39140487091359
 20
21.08485955316502
 30
0.0
 10
15.38334334215996
 20
21.0843944649677
 30
0.0
  0
ENDBLK
  5
4F6
330
4F3
100
AcDbEntity
  8
0
100
AcDbBlockEnd
  0
BLOCK
  5
4FA
330
4F8
100
AcDbEntity
  8
0
100
AcDbBlockBegin
  2
block 96
 70
     0
 71
     0
 10
0.0
 20
0.0
 30
0.0
  3
block 96
  1

  0
POLYLINE
  5
4FC
330
4F8
100
AcDbEntity
  8
018
 62
     2
420
 16776960
370
    25
100
AcDb2dPolyline
 66
     1
 10
0.0
 20
0.0
 30
0.0
  0
VERTEX
  5
4FD
330
4FC
100
AcDbEntity
  8
018
 62
     2
420
 16776960
370
    25
100
AcDbVertex
100
AcDb2dVertex
 10
15.38334334215996
 20
21.0843944649677
 30
0.0
  0
VERTEX
  5
4FE
330
4FC
100
AcDbEntity
  8
018
 62
     2
420
 16776960
370
    25
100
AcDbVertex
100
AcDb2dVertex
 10
16.32347606933012
 20
21.0843944649677
 30
0.0
  0
SEQEND
  5
4FF
330
4FC
100
AcDbEntity
  8
018
370
    25
  0
ENDBLK
  5
4FB
330
4F8
100
AcDbEntity
  8
0
100
AcDbBlockEnd
  0
BLOCK
  5
502
330
500
100
AcDbEntity
  8
0
100
AcDbBlockBegin
  2
block 97
 70
     0
 71
     0
 10
0.0
 20
0.0
 30
0.0
  3
block 97
  1

  0
POLYLINE
  5
504
330
500
100
AcDbEntity
  8
018
 62
     2
420
 16776960
370
    25
100
AcDb2dPolyline
 66
     1
 10
0.0
 20
0.0
 30
0.0
  0
VERTEX
  5
505
330
504
100
AcDbEntity
  8
018
 62
     2
420
 16776960
370
    25
100
AcDbVertex
100
AcDb2dVertex
 10
16.14560567208656
 20
20.80489368386427
 30
0.0
  0
VERTEX
  5
506
330
504
100
AcDbEntity
  8
018
 62
     2
420
 16776960
370
    25
100
AcDbVertex
100
AcDb2dVertex
 10
16.31713708945547
 20
20.80489368386427
 30
0.0
  0
SEQEND
  5
507
330
504
100
AcDbEntity
  8
018
370
    25
  0
ENDBLK
  5
503
330
500
100
AcDbEntity
  8
0
100
AcDbBlockEnd
  0
BLOCK
  5
50A
330
508
100
AcDbEntity
  8
0
100
AcDbBlockBegin
  2
block 98
 70
     0
 71
     0
 10
0.0
 20
0.0
 30
0.0
  3
block 98
  1

  0
POLYLINE
  5
50C
330
508
100
AcDbEntity
  8
018
 62
     2
420
 16776960
370
    25
100
AcDb2dPolyline
 66
     1
 10
0.0
 20
0.0
 30
0.0
  0
VERTEX
  5
50D
330
50C
100
AcDbEntity
  8
018
 62
     2
420
 16776960
370
    25
100
AcDbVertex
100
AcDb2dVertex
 10
16.14560567208656
 20
20.80489368386427
 30
0.0
  0
VERTEX
  5
50E
330
50C
100
AcDbEntity
  8
018
 62
     2
420
 16776960
370
    25
100
AcDbVertex
100
AcDb2dVertex
 10
16.14560567208656
 20
20.93461883994031
 30
0.0
  0
SEQEND
  5
50F
330
50C
100
AcDbEntity
  8
018
370
    25
  0
ENDBLK
  5
50B
330
508
100
AcDbEntity
  8
0
100
AcDbBlockEnd
  0
BLOCK
  5
512
330
510
100
AcDbEntity
  8
0
100
AcDbBlockBegin
  2
block 99
 70
     0
 71
     0
 10
0.0
 20
0.0
 30
0.0
  3
block 99
  1

  0
POLYLINE
  5
514
330
510
100
AcDbEntity
  8
018
 62
     2
420
 16776960
370
    25
100
AcDb2dPolyline
 66
     1
 10
0.0
 20
0.0
 30
0.0
  0
VERTEX
  5
515
330
514
100
AcDbEntity
  8
018
 62
     2
420
 16776960
370
    25
100
AcDbVertex
100
AcDb2dVertex
 10
16.31713708945547
 20
20.80489368386427
 30
0.0
  0
VERTEX
  5
516
330
514
100
AcDbEntity
  8
018
 62
     2
420
 16776960
370
    25
100
AcDbVertex
100
AcDb2dVertex
 10
16.3233382654198
 20
20.87610385452134
 30
0.0
  0
SEQEND
  5
517
330
514
100
AcDbEntity
  8
018
370
    25
  0
ENDBLK
  5
513
330
510
100
AcDbEntity
  8
0
100
AcDbBlockEnd
  0
BLOCK
  5
51A
330
518
100
AcDbEntity
  8
0
100
AcDbBlockBegin
  2
block 100
 70
     0
 71
     0
 10
0.0
 20
0.0
 30
0.0
  3
block 100
  1

  0
POLYLINE
  5
51C
330
518
100
AcDbEntity
  8
018
 62
     2
420
 16776960
370
    25
100
AcDb2dPolyline
 66
     1
 10
0.0
 20
0.0
 30
0.0
  0
VERTEX
  5
51D
330
51C
100
AcDbEntity
  8
018
 62
     2
420
 16776960
370
    25
100
AcDbVertex
100
AcDb2dVertex
 10
15.38971677301219
 20
20.80489368386427
 30
0.0
  0
VERTEX
  5
51E
330
51C
100
AcDbEntity
  8
018
 62
     2
420
 16776960
370
    25
100
AcDbVertex
100
AcDb2dVertex
 10
15.56121373940352
 20
20.80489368386427
 30
0.0
  0
SEQEND
  5
51F
330
51C
100
AcDbEntity
  8
018
370
    25
  0
ENDBLK
  5
51B
330
518
100
AcDbEntity
  8
0
100
AcDbBlockEnd
  0
BLOCK
  5
522
330
520
100
AcDbEntity
  8
0
100
AcDbBlockBegin
  2
block 101
 70
     0
 71
     0
 10
0.0
 20
0.0
 30
0.0
  3
block 101
  1

  0
POLYLINE
  5
524
330
520
100
AcDbEntity
  8
018
 62
     2
420
 16776960
370
    25
100
AcDb2dPolyline
 66
     1
 10
0.0
 20
0.0
 30
0.0
  0
VERTEX
  5
525
330
524
100
AcDbEntity
  8
018
 62
     2
420
 16776960
370
    25
100
AcDbVertex
100
AcDb2dVertex
 10
15.33690342438263
 20
20.92266435072019
 30
0.0
  0
VERTEX
  5
526
330
524
100
AcDbEntity
  8
018
 62
     2
420
 16776960
370
    25
100
AcDbVertex
100
AcDb2dVertex
 10
15.38348114607028
 20
20.87610385452134
 30
0.0
  0
SEQEND
  5
527
330
524
100
AcDbEntity
  8
018
370
    25
  0
ENDBLK
  5
523
330
520
100
AcDbEntity
  8
0
100
AcDbBlockEnd
  0
BLOCK
  5
52A
330
528
100
AcDbEntity
  8
0
100
AcDbBlockBegin
  2
block 102
 70
     0
 71
     0
 10
0.0
 20
0.0
 30
0.0
  3
block 102
  1

  0
POLYLINE
  5
52C
330
528
100
AcDbEntity
  8
018
 62
     2
420
 16776960
370
    25
100
AcDb2dPolyline
 66
     1
 10
0.0
 20
0.0
 30
0.0
  0
VERTEX
  5
52D
330
52C
100
AcDbEntity
  8
018
 62
     2
420
 16776960
370
    25
100
AcDbVertex
100
AcDb2dVertex
 10
15.56121373940352
 20
20.80489368386427
 30
0.0
  0
VERTEX
  5
52E
330
52C
100
AcDbEntity
  8
018
 62
     2
420
 16776960
370
    25
100
AcDbVertex
100
AcDb2dVertex
 10
15.56121373940352
 20
20.93461883994031
 30
0.0
  0
SEQEND
  5
52F
330
52C
100
AcDbEntity
  8
018
370
    25
  0
ENDBLK
  5
52B
330
528
100
AcDbEntity
  8
0
100
AcDbBlockEnd
  0
BLOCK
  5
532
330
530
100
AcDbEntity
  8
0
100
AcDbBlockBegin
  2
block 103
 70
     0
 71
     0
 10
0.0
 20
0.0
 30
0.0
  3
block 103
  1

  0
POLYLINE
  5
534
330
530
100
AcDbEntity
  8
018
 62
     2
420
 16776960
370
    25
100
AcDb2dPolyline
 66
     1
 10
0.0
 20
0.0
 30
0.0
  0
VERTEX
  5
535
330
534
100
AcDbEntity
  8
018
 62
     2
420
 16776960
370
    25
100
AcDbVertex
100
AcDb2dVertex
 10
15.38971677301219
 20
20.80489368386427
 30
0.0
  0
VERTEX
  5
536
330
534
100
AcDbEntity
  8
018
 62
     2
420
 16776960
370
    25
100
AcDbVertex
100
AcDb2dVertex
 10
15.38348114607028
 20
20.87610385452134
 30
0.0
  0
SEQEND
  5
537
330
534
100
AcDbEntity
  8
018
370
    25
  0
ENDBLK
  5
533
330
530
100
AcDbEntity
  8
0
100
AcDbBlockEnd
  0
BLOCK
  5
53A
330
538
100
AcDbEntity
  8
0
100
AcDbBlockBegin
  2
block 104
 70
     0
 71
     0
 10
0.0
 20
0.0
 30
0.0
  3
block 104
  1

  0
POLYLINE
  5
53C
330
538
100
AcDbEntity
  8
018
 62
     2
420
 16776960
370
    25
100
AcDb2dPolyline
 66
     1
 10
0.0
 20
0.0
 30
0.0
  0
VERTEX
  5
53D
330
53C
100
AcDbEntity
  8
018
 62
     2
420
 16776960
370
    25
100
AcDbVertex
100
AcDb2dVertex
 10
15.56121373940352
 20
20.80489368386427
 30
0.0
  0
VERTEX
  5
53E
330
53C
100
AcDbEntity
  8
018
 62
     2
420
 16776960
370
    25
100
AcDbVertex
100
AcDb2dVertex
 10
16.14560567208656
 20
20.80489368386427
 30
0.0
  0
SEQEND
  5
53F
330
53C
100
AcDbEntity
  8
018
370
    25
  0
ENDBLK
  5
53B
330
538
100
AcDbEntity
  8
0
100
AcDbBlockEnd
  0
BLOCK
  5
542
330
540
100
AcDbEntity
  8
0
100
AcDbBlockBegin
  2
block 105
 70
     0
 71
     0
 10
0.0
 20
0.0
 30
0.0
  3
block 105
  1

  0
POLYLINE
  5
544
330
540
100
AcDbEntity
  8
018
 62
     2
420
 16776960
370
    25
100
AcDb2dPolyline
 66
     1
 10
0.0
 20
0.0
 30
0.0
  0
VERTEX
  5
545
330
544
100
AcDbEntity
  8
018
 62
     2
420
 16776960
370
    25
100
AcDbVertex
100
AcDb2dVertex
 10
15.56121373940352
 20
20.93461883994031
 30
0.0
  0
VERTEX
  5
546
330
544
100
AcDbEntity
  8
018
 62
     2
420
 16776960
370
    25
100
AcDbVertex
100
AcDb2dVertex
 10
16.14560567208656
 20
20.93461883994031
 30
0.0
  0
SEQEND
  5
547
330
544
100
AcDbEntity
  8
018
370
    25
  0
ENDBLK
  5
543
330
540
100
AcDbEntity
  8
0
100
AcDbBlockEnd
  0
BLOCK
  5
54A
330
548
100
AcDbEntity
  8
0
100
AcDbBlockBegin
  2
block 106
 70
     0
 71
     0
 10
0.0
 20
0.0
 30
0.0
  3
block 106
  1

  0
POLYLINE
  5
54C
330
548
100
AcDbEntity
  8
018
 62
     2
420
 16776960
370
    25
100
AcDb2dPolyline
 66
     1
 10
0.0
 20
0.0
 30
0.0
  0
VERTEX
  5
54D
330
54C
100
AcDbEntity
  8
018
 62
     2
420
 16776960
370
    25
100
AcDbVertex
100
AcDb2dVertex
 10
15.56121373940352
 20
20.93461883994031
 30
0.0
  0
VERTEX
  5
54E
330
54C
100
AcDbEntity
  8
018
 62
     2
420
 16776960
370
    25
100
AcDbVertex
100
AcDb2dVertex
 10
16.14560567208656
 20
20.93461883994031
 30
0.0
  0
SEQEND
  5
54F
330
54C
100
AcDbEntity
  8
018
370
    25
  0
ENDBLK
  5
54B
330
548
100
AcDbEntity
  8
0
100
AcDbBlockEnd
  0
BLOCK
  5
552
330
550
100
AcDbEntity
  8
0
100
AcDbBlockBegin
  2
block 107
 70
     0
 71
     0
 10
0.0
 20
0.0
 30
0.0
  3
block 107
  1

  0
POLYLINE
  5
554
330
550
100
AcDbEntity
  8
018
 62
     2
420
 16776960
370
    25
100
AcDb2dPolyline
 66
     1
 10
0.0
 20
0.0
 30
0.0
  0
VERTEX
  5
555
330
554
100
AcDbEntity
  8
018
 62
     2
420
 16776960
370
    25
100
AcDbVertex
100
AcDb2dVertex
 10
16.14560567208656
 20
20.93461883994031
 30
0.0
  0
VERTEX
  5
556
330
554
100
AcDbEntity
  8
018
 62
     2
420
 16776960
370
    25
100
AcDbVertex
100
AcDb2dVertex
 10
16.29843020862974
 20
21.07464483831267
 30
0.0
  0
SEQEND
  5
557
330
554
100
AcDbEntity
  8
018
370
    25
  0
ENDBLK
  5
553
330
550
100
AcDbEntity
  8
0
100
AcDbBlockEnd
  0
BLOCK
  5
55A
330
558
100
AcDbEntity
  8
0
100
AcDbBlockBegin
  2
block 108
 70
     0
 71
     0
 10
0.0
 20
0.0
 30
0.0
  3
block 108
  1

  0
POLYLINE
  5
55C
330
558
100
AcDbEntity
  8
018
 62
     2
420
 16776960
370
    25
100
AcDb2dPolyline
 66
     1
 10
0.0
 20
0.0
 30
0.0
  0
VERTEX
  5
55D
330
55C
100
AcDbEntity
  8
018
 62
     2
420
 16776960
370
    25
100
AcDbVertex
100
AcDb2dVertex
 10
15.56121373940352
 20
20.93461883994031
 30
0.0
  0
VERTEX
  5
55E
330
55C
100
AcDbEntity
  8
018
 62
     2
420
 16776960
370
    25
100
AcDbVertex
100
AcDb2dVertex
 10
15.40838920286034
 20
21.07464483831267
 30
0.0
  0
SEQEND
  5
55F
330
55C
100
AcDbEntity
  8
018
370
    25
  0
ENDBLK
  5
55B
330
558
100
AcDbEntity
  8
0
100
AcDbBlockEnd
  0
BLOCK
  5
562
330
560
100
AcDbEntity
  8
0
100
AcDbBlockBegin
  2
block 109
 70
     0
 71
     0
 10
0.0
 20
0.0
 30
0.0
  3
block 109
  1

  0
POLYLINE
  5
564
330
560
100
AcDbEntity
  8
018
 62
     2
420
 16776960
370
    25
100
AcDb2dPolyline
 66
     1
 10
0.0
 20
0.0
 30
0.0
  0
VERTEX
  5
565
330
564
100
AcDbEntity
  8
018
 62
     2
420
 16776960
370
    25
100
AcDbVertex
100
AcDb2dVertex
 10
16.32347606933012
 20
21.0843944649677
 30
0.0
  0
VERTEX
  5
566
330
564
100
AcDbEntity
  8
018
 62
     2
420
 16776960
370
    25
100
AcDbVertex
100
AcDb2dVertex
 10
16.58027365620859
 20
21.0933517191384
 30
0.0
  0
SEQEND
  5
567
330
564
100
AcDbEntity
  8
018
370
    25
  0
ENDBLK
  5
563
330
560
100
AcDbEntity
  8
0
100
AcDbBlockEnd
  0
BLOCK
  5
56A
330
568
100
AcDbEntity
  8
0
100
AcDbBlockBegin
  2
block 110
 70
     0
 71
     0
 10
0.0
 20
0.0
 30
0.0
  3
block 110
  1

  0
POLYLINE
  5
56C
330
568
100
AcDbEntity
  8
018
 62
     2
420
 16776960
370
    25
100
AcDb2dPolyline
 66
     1
 10
0.0
 20
0.0
 30
0.0
  0
VERTEX
  5
56D
330
56C
100
AcDbEntity
  8
018
 62
     2
420
 16776960
370
    25
100
AcDbVertex
100
AcDb2dVertex
 10
16.36791783040783
 20
20.92068341950936
 30
0.0
  0
VERTEX
  5
56E
330
56C
100
AcDbEntity
  8
018
 62
     2
420
 16776960
370
    25
100
AcDbVertex
100
AcDb2dVertex
 10
16.3233382654198
 20
20.87610385452134
 30
0.0
  0
SEQEND
  5
56F
330
56C
100
AcDbEntity
  8
018
370
    25
  0
ENDBLK
  5
56B
330
568
100
AcDbEntity
  8
0
100
AcDbBlockEnd
  0
BLOCK
  5
572
330
570
100
AcDbEntity
  8
0
100
AcDbBlockBegin
  2
block 111
 70
     0
 71
     0
 10
0.0
 20
0.0
 30
0.0
  3
block 111
  1

  0
SPLINE
  5
574
330
570
100
AcDbEntity
  8
018
 62
     2
420
 16776960
370
    25
100
AcDbSpline
210
0.0
220
0.0
230
1.0
 70
     8
 71
     3
 72
     8
 73
     4
 74
     0
 42
0.0000000001
 43
0.0000000001
 40
0.0
 40
0.0
 40
0.0
 40
0.0
 40
1.0
 40
1.0
 40
1.0
 40
1.0
 10
14.01408923825808
 20
23.11457334824573
 30
0.0
 10
13.98356567212254
 20
22.4487048535869
 30
0.0
 10
14.26368657082241
 20
21.37152613760502
 30
0.0
 10
14.61474203235871
 20
20.80489368386427
 30
0.0
  0
ENDBLK
  5
573
330
570
100
AcDbEntity
  8
0
100
AcDbBlockEnd
  0
BLOCK
  5
577
330
575
100
AcDbEntity
  8
0
100
AcDbBlockBegin
  2
block 112
 70
     0
 71
     0
 10
0.0
 20
0.0
 30
0.0
  3
block 112
  1

  0
SPLINE
  5
579
330
575
100
AcDbEntity
  8
018
 62
     2
420
 16776960
370
    25
100
AcDbSpline
210
0.0
220
0.0
230
1.0
 70
     8
 71
     3
 72
     8
 73
     4
 74
     0
 42
0.0000000001
 43
0.0000000001
 40
0.0
 40
0.0
 40
0.0
 40
0.0
 40
1.0
 40
1.0
 40
1.0
 40
1.0
 10
14.16357202997604
 20
22.68979279468905
 30
0.0
 10
14.18841118481095
 20
22.20315551088818
 30
0.0
 10
14.42912016515973
 20
21.3882865381975
 30
0.0
 10
14.67275747860278
 20
20.96629651382477
 30
0.0
  0
ENDBLK
  5
578
330
575
100
AcDbEntity
  8
0
100
AcDbBlockEnd
  0
BLOCK
  5
57C
330
57A
100
AcDbEntity
  8
0
100
AcDbBlockBegin
  2
block 113
 70
     0
 71
     0
 10
0.0
 20
0.0
 30
0.0
  3
block 113
  1

  0
SPLINE
  5
57E
330
57A
100
AcDbEntity
  8
018
 62
     2
420
 16776960
370
    25
100
AcDbSpline
210
0.0
220
0.0
230
1.0
 70
     8
 71
     3
 72
    11
 73
     7
 74
     0
 42
0.0000000001
 43
0.0000000001
 40
0.0
 40
0.0
 40
0.0
 40
0.0
 40
1.0
 40
1.0
 40
1.0
 40
2.0
 40
2.0
 40
2.0
 40
2.0
 10
14.21173449663235
 20
22.70334925436664
 30
0.0
 10
14.20560222262317
 20
22.71597553764956
 30
0.0
 10
14.19040934151056
 20
22.72124653721924
 30
0.0
 10
14.17780028371642
 20
22.71513148869886
 30
0.0
 10
14.16853297074751
 20
22.71108349883326
 30
0.0
 10
14.16222844185044
 20
22.69981802916472
 30
0.0
 10
14.16357202997604
 20
22.68979279468905
 30
0.0
  0
ENDBLK
  5
57D
330
57A
100
AcDbEntity
  8
0
100
AcDbBlockEnd
  0
BLOCK
  5
581
330
57F
100
AcDbEntity
  8
0
100
AcDbBlockBegin
  2
block 114
 70
     0
 71
     0
 10
0.0
 20
0.0
 30
0.0
  3
block 114
  1

  0
SPLINE
  5
583
330
57F
100
AcDbEntity
  8
018
 62
     2
420
 16776960
370
    25
100
AcDbSpline
210
0.0
220
0.0
230
1.0
 70
     8
 71
     3
 72
     8
 73
     4
 74
     0
 42
0.0000000001
 43
0.0000000001
 40
0.0
 40
0.0
 40
0.0
 40
0.0
 40
1.0
 40
1.0
 40
1.0
 40
1.0
 10
14.67275747860278
 20
20.96629651382477
 30
0.0
 10
14.68195588961654
 20
20.94622881938464
 30
0.0
 10
14.70713955422724
 20
20.93089813436172
 30
0.0
 10
14.72918817987819
 20
20.9319316636891
 30
0.0
  0
ENDBLK
  5
582
330
57F
100
AcDbEntity
  8
0
100
AcDbBlockEnd
  0
BLOCK
  5
586
330
584
100
AcDbEntity
  8
0
100
AcDbBlockBegin
  2
block 115
 70
     0
 71
     0
 10
0.0
 20
0.0
 30
0.0
  3
block 115
  1

  0
POLYLINE
  5
588
330
584
100
AcDbEntity
  8
018
 62
     2
420
 16776960
370
    25
100
AcDb2dPolyline
 66
     1
 10
0.0
 20
0.0
 30
0.0
  0
VERTEX
  5
589
330
588
100
AcDbEntity
  8
018
 62
     2
420
 16776960
370
    25
100
AcDbVertex
100
AcDb2dVertex
 10
14.72918817987819
 20
20.9319316636891
 30
0.0
  0
VERTEX
  5
58A
330
588
100
AcDbEntity
  8
018
 62
     2
420
 16776960
370
    25
100
AcDbVertex
100
AcDb2dVertex
 10
14.84752728786418
 20
20.9319316636891
 30
0.0
  0
SEQEND
  5
58B
330
588
100
AcDbEntity
  8
018
370
    25
  0
ENDBLK
  5
587
330
584
100
AcDbEntity
  8
0
100
AcDbBlockEnd
  0
BLOCK
  5
58E
330
58C
100
AcDbEntity
  8
0
100
AcDbBlockBegin
  2
block 116
 70
     0
 71
     0
 10
0.0
 20
0.0
 30
0.0
  3
block 116
  1

  0
POLYLINE
  5
590
330
58C
100
AcDbEntity
  8
018
 62
     2
420
 16776960
370
    25
100
AcDb2dPolyline
 66
     1
 10
0.0
 20
0.0
 30
0.0
  0
VERTEX
  5
591
330
590
100
AcDbEntity
  8
018
 62
     2
420
 16776960
370
    25
100
AcDbVertex
100
AcDb2dVertex
 10
15.18914318154366
 20
21.10137879691445
 30
0.0
  0
VERTEX
  5
592
330
590
100
AcDbEntity
  8
018
 62
     2
420
 16776960
370
    25
100
AcDbVertex
100
AcDb2dVertex
 10
15.21563598330238
 20
21.09905335592783
 30
0.0
  0
SEQEND
  5
593
330
590
100
AcDbEntity
  8
018
370
    25
  0
ENDBLK
  5
58F
330
58C
100
AcDbEntity
  8
0
100
AcDbBlockEnd
  0
BLOCK
  5
596
330
594
100
AcDbEntity
  8
0
100
AcDbBlockBegin
  2
block 117
 70
     0
 71
     0
 10
0.0
 20
0.0
 30
0.0
  3
block 117
  1

  0
POLYLINE
  5
598
330
594
100
AcDbEntity
  8
018
 62
     2
420
 16776960
370
    25
100
AcDb2dPolyline
 66
     1
 10
0.0
 20
0.0
 30
0.0
  0
VERTEX
  5
599
330
598
100
AcDbEntity
  8
018
 62
     2
420
 16776960
370
    25
100
AcDbVertex
100
AcDb2dVertex
 10
15.12768263754162
 20
20.94097504530375
 30
0.0
  0
VERTEX
  5
59A
330
598
100
AcDbEntity
  8
018
 62
     2
420
 16776960
370
    25
100
AcDbVertex
100
AcDb2dVertex
 10
15.33690342438263
 20
20.92266435072019
 30
0.0
  0
SEQEND
  5
59B
330
598
100
AcDbEntity
  8
018
370
    25
  0
ENDBLK
  5
597
330
594
100
AcDbEntity
  8
0
100
AcDbBlockEnd
  0
BLOCK
  5
59F
330
59D
100
AcDbEntity
  8
0
100
AcDbBlockBegin
  2
block 118
 70
     0
 71
     0
 10
0.0
 20
0.0
 30
0.0
  3
block 118
  1

  0
SPLINE
  5
5A1
330
59D
100
AcDbEntity
  8
025
 62
     3
420
    65280
370
    25
100
AcDbSpline
210
0.0
220
0.0
230
1.0
 70
    11
 71
     3
 72
    23
 73
    19
 74
     0
 42
0.0000000001
 43
0.0000000001
 40
0.0
 40
0.0
 40
0.0
 40
0.0
 40
1.0
 40
1.0
 40
1.0
 40
2.0
 40
2.0
 40
2.0
 40
3.0
 40
3.0
 40
3.0
 40
4.0
 40
4.0
 40
4.0
 40
5.0
 40
5.0
 40
5.0
 40
6.0
 40
6.0
 40
6.0
 40
6.0
 10
5.93492158410697
 20
11.6248278156677
 30
0.0
 10
5.93492158410697
 20
11.78619619465063
 30
0.0
 10
5.804093996748374
 20
11.91700655652044
 30
0.0
 10
5.64270839227666
 20
11.91700655652044
 30
0.0
 10
5.481340013293734
 20
11.91700655652044
 30
0.0
 10
5.350512425935139
 20
11.78619619465063
 30
0.0
 10
5.350512425935139
 20
11.6248278156677
 30
0.0
 10
5.350512425935139
 20
11.4634249857072
 30
0.0
 10
5.481340013293734
 20
11.33261462383739
 30
0.0
 10
5.64270839227666
 20
11.33261462383739
 30
0.0
 10
5.804093996748374
 20
11.33261462383739
 30
0.0
 10
5.93492158410697
 20
11.4634249857072
 30
0.0
 10
5.93492158410697
 20
11.6248278156677
 30
0.0
 10
5.93492158410697
 20
11.6248278156677
 30
0.0
 10
5.93492158410697
 20
11.6248278156677
 30
0.0
 10
5.93492158410697
 20
11.6248278156677
 30
0.0
 10
5.93492158410697
 20
11.6248278156677
 30
0.0
 10
5.93492158410697
 20
11.6248278156677
 30
0.0
 10
5.93492158410697
 20
11.6248278156677
 30
0.0
  0
ENDBLK
  5
5A0
330
59D
100
AcDbEntity
  8
0
100
AcDbBlockEnd
  0
BLOCK
  5
5A4
330
5A2
100
AcDbEntity
  8
0
100
AcDbBlockBegin
  2
block 119
 70
     0
 71
     0
 10
0.0
 20
0.0
 30
0.0
  3
block 119
  1

  0
SPLINE
  5
5A6
330
5A2
100
AcDbEntity
  8
025
 62
     3
420
    65280
370
    25
100
AcDbSpline
210
0.0
220
0.0
230
1.0
 70
     8
 71
     3
 72
     8
 73
     4
 74
     0
 42
0.0000000001
 43
0.0000000001
 40
0.0
 40
0.0
 40
0.0
 40
0.0
 40
1.0
 40
1.0
 40
1.0
 40
1.0
 10
9.587793187851327
 20
22.33660137254282
 30
0.0
 10
7.563488196250619
 20
22.58109996042536
 30
0.0
 10
3.742306341541043
 20
22.58109996042536
 30
0.0
 10
1.718001349940335
 20
22.33660137254282
 30
0.0
  0
ENDBLK
  5
5A5
330
5A2
100
AcDbEntity
  8
0
100
AcDbBlockEnd
  0
BLOCK
  5
5A9
330
5A7
100
AcDbEntity
  8
0
100
AcDbBlockBegin
  2
block 120
 70
     0
 71
     0
 10
0.0
 20
0.0
 30
0.0
  3
block 120
  1

  0
SPLINE
  5
5AB
330
5A7
100
AcDbEntity
  8
025
 62
     3
420
    65280
370
    25
100
AcDbSpline
210
0.0
220
0.0
230
1.0
 70
     8
 71
     3
 72
     8
 73
     4
 74
     0
 42
0.0000000001
 43
0.0000000001
 40
0.0
 40
0.0
 40
0.0
 40
0.0
 40
1.0
 40
1.0
 40
1.0
 40
1.0
 10
14.10565993666471
 20
23.17207202982611
 30
0.0
 10
14.47717927888329
 20
22.97266977159529
 30
0.0
 10
15.21153631697041
 20
22.69506379425874
 30
0.0
 10
15.62205416580912
 20
22.59884221387887
 30
0.0
  0
ENDBLK
  5
5AA
330
5A7
100
AcDbEntity
  8
0
100
AcDbBlockEnd
  0
BLOCK
  5
5AF
330
5AD
100
AcDbEntity
  8
0
100
AcDbBlockBegin
  2
block 121
 70
     0
 71
     0
 10
0.0
 20
0.0
 30
0.0
  3
block 121
  1

  0
SPLINE
  5
5B1
330
5AD
100
AcDbEntity
  8
035
 62
     4
420
    65535
370
    25
100
AcDbSpline
210
0.0
220
0.0
230
1.0
 70
    11
 71
     3
 72
    20
 73
    16
 74
     0
 42
0.0000000001
 43
0.0000000001
 40
0.0
 40
0.0
 40
0.0
 40
0.0
 40
1.0
 40
1.0
 40
1.0
 40
2.0
 40
2.0
 40
2.0
 40
3.0
 40
3.0
 40
3.0
 40
4.0
 40
4.0
 40
4.0
 40
5.0
 40
5.0
 40
5.0
 40
5.0
 10
1.640848385650783
 20
10.73551028042747
 30
0.0
 10
1.640848385650783
 20
9.22697087417121
 30
0.0
 10
3.432540376633918
 20
8.00406452302755
 30
0.0
 10
5.64270839227666
 20
8.00406452302755
 30
0.0
 10
7.852893633408191
 20
8.00406452302755
 30
0.0
 10
9.644585624391325
 20
9.22697087417121
 30
0.0
 10
9.644585624391325
 20
10.73551028042747
 30
0.0
 10
9.644585624391325
 20
12.24404968668374
 30
0.0
 10
7.852893633408191
 20
13.4669560378274
 30
0.0
 10
5.64270839227666
 20
13.4669560378274
 30
0.0
 10
3.432540376633918
 20
13.4669560378274
 30
0.0
 10
1.640848385650783
 20
12.24404968668374
 30
0.0
 10
1.640848385650783
 20
10.73551028042747
 30
0.0
 10
1.640848385650783
 20
10.73551028042747
 30
0.0
 10
1.640848385650783
 20
10.73551028042747
 30
0.0
 10
1.640848385650783
 20
10.73551028042747
 30
0.0
  0
ENDBLK
  5
5B0
330
5AD
100
AcDbEntity
  8
0
100
AcDbBlockEnd
  0
BLOCK
  5
5B4
330
5B2
100
AcDbEntity
  8
0
100
AcDbBlockBegin
  2
block 122
 70
     0
 71
     0
 10
0.0
 20
0.0
 30
0.0
  3
block 122
  1

  0
SPLINE
  5
5B6
330
5B2
100
AcDbEntity
  8
035
 62
     4
420
    65535
370
    25
100
AcDbSpline
210
0.0
220
0.0
230
1.0
 70
     8
 71
     3
 72
     8
 73
     4
 74
     0
 42
0.0000000001
 43
0.0000000001
 40
0.0
 40
0.0
 40
0.0
 40
0.0
 40
1.0
 40
1.0
 40
1.0
 40
1.0
 10
8.64969306835836
 20
22.62533501563759
 30
0.0
 10
7.012393133398278
 20
23.41515812762789
 30
0.0
 10
4.293401404393385
 20
23.41515812762789
 30
0.0
 10
2.656084243944512
 20
22.62533501563759
 30
0.0
  0
ENDBLK
  5
5B5
330
5B2
100
AcDbEntity
  8
0
100
AcDbBlockEnd
  0
BLOCK
  5
5B9
330
5B7
100
AcDbEntity
  8
0
100
AcDbBlockBegin
  2
block 123
 70
     0
 71
     0
 10
0.0
 20
0.0
 30
0.0
  3
block 123
  1

  0
POLYLINE
  5
5BB
330
5B7
100
AcDbEntity
  8
035
 62
     4
420
    65535
370
    25
100
AcDb2dPolyline
 66
     1
 10
0.0
 20
0.0
 30
0.0
  0
VERTEX
  5
5BC
330
5BB
100
AcDbEntity
  8
035
 62
     4
420
    65535
370
    25
100
AcDbVertex
100
AcDb2dVertex
 10
2.476801356620186
 20
20.80489368386427
 30
0.0
  0
VERTEX
  5
5BD
330
5BB
100
AcDbEntity
  8
035
 62
     4
420
    65535
370
    25
100
AcDbVertex
100
AcDb2dVertex
 10
8.828975955682687
 20
20.80489368386427
 30
0.0
  0
SEQEND
  5
5BE
330
5BB
100
AcDbEntity
  8
035
370
    25
  0
ENDBLK
  5
5BA
330
5B7
100
AcDbEntity
  8
0
100
AcDbBlockEnd
  0
BLOCK
  5
5C1
330
5BF
100
AcDbEntity
  8
0
100
AcDbBlockBegin
  2
block 124
 70
     0
 71
     0
 10
0.0
 20
0.0
 30
0.0
  3
block 124
  1

  0
POLYLINE
  5
5C3
330
5BF
100
AcDbEntity
  8
035
 62
     4
420
    65535
370
    25
100
AcDb2dPolyline
 66
     1
 10
0.0
 20
0.0
 30
0.0
  0
VERTEX
  5
5C4
330
5C3
100
AcDbEntity
  8
035
 62
     4
420
    65535
370
    25
100
AcDbVertex
100
AcDb2dVertex
 10
5.945084622492957
 20
20.80489368386427
 30
0.0
  0
VERTEX
  5
5C5
330
5C3
100
AcDbEntity
  8
035
 62
     4
420
    65535
370
    25
100
AcDbVertex
100
AcDb2dVertex
 10
6.11659881437308
 20
20.80489368386427
 30
0.0
  0
SEQEND
  5
5C6
330
5C3
100
AcDbEntity
  8
035
370
    25
  0
ENDBLK
  5
5C2
330
5BF
100
AcDbEntity
  8
0
100
AcDbBlockEnd
  0
BLOCK
  5
5C9
330
5C7
100
AcDbEntity
  8
0
100
AcDbBlockBegin
  2
block 125
 70
     0
 71
     0
 10
0.0
 20
0.0
 30
0.0
  3
block 125
  1

  0
SPLINE
  5
5CB
330
5C7
100
AcDbEntity
  8
035
 62
     4
420
    65535
370
    25
100
AcDbSpline
210
0.0
220
0.0
230
1.0
 70
     8
 71
     3
 72
    11
 73
     7
 74
     0
 42
0.0000000001
 43
0.0000000001
 40
0.0
 40
0.0
 40
0.0
 40
0.0
 40
1.0
 40
1.0
 40
1.0
 40
2.0
 40
2.0
 40
2.0
 40
2.0
 10
1.711507340666577
 20
22.34095942120664
 30
0.0
 10
1.67709081406454
 20
22.33417257862346
 30
0.0
 10
1.654680453148999
 20
22.30077235586002
 30
0.0
 10
1.661467295732183
 20
22.26635582925799
 30
0.0
 10
1.661536197687343
 20
22.26597686850461
 30
0.0
 10
1.661691227086451
 20
22.26523617248665
 30
0.0
 10
1.6617773545304
 20
22.26485721173327
 30
0.0
  0
ENDBLK
  5
5CA
330
5C7
100
AcDbEntity
  8
0
100
AcDbBlockEnd
  0
BLOCK
  5
5CE
330
5CC
100
AcDbEntity
  8
0
100
AcDbBlockBegin
  2
block 126
 70
     0
 71
     0
 10
0.0
 20
0.0
 30
0.0
  3
block 126
  1

  0
SPLINE
  5
5D0
330
5CC
100
AcDbEntity
  8
035
 62
     4
420
    65535
370
    25
100
AcDbSpline
210
0.0
220
0.0
230
1.0
 70
     8
 71
     3
 72
    11
 73
     7
 74
     0
 42
0.0000000001
 43
0.0000000001
 40
0.0
 40
0.0
 40
0.0
 40
0.0
 40
1.0
 40
1.0
 40
1.0
 40
2.0
 40
2.0
 40
2.0
 40
2.0
 10
1.719637771375367
 20
22.33675640194193
 30
0.0
 10
1.684670029132055
 20
22.33394864726919
 30
0.0
 10
1.658590639104286
 20
22.30332172820091
 30
0.0
 10
1.661398393777024
 20
22.2683539859576
 30
0.0
 10
1.661501746709763
 20
22.26676924098894
 30
0.0
 10
1.661897932951929
 20
22.26373755496193
 30
0.0
 10
1.662207991750145
 20
22.26218726097085
 30
0.0
  0
ENDBLK
  5
5CF
330
5CC
100
AcDbEntity
  8
0
100
AcDbBlockEnd
  0
BLOCK
  5
5D3
330
5D1
100
AcDbEntity
  8
0
100
AcDbBlockBegin
  2
block 127
 70
     0
 71
     0
 10
0.0
 20
0.0
 30
0.0
  3
block 127
  1

  0
SPLINE
  5
5D5
330
5D1
100
AcDbEntity
  8
035
 62
     4
420
    65535
370
    25
100
AcDbSpline
210
0.0
220
0.0
230
1.0
 70
     8
 71
     3
 72
     8
 73
     4
 74
     0
 42
0.0000000001
 43
0.0000000001
 40
0.0
 40
0.0
 40
0.0
 40
0.0
 40
1.0
 40
1.0
 40
1.0
 40
1.0
 10
1.661260589866706
 20
22.2675099370069
 30
0.0
 10
1.718518114604029
 20
21.77995970230016
 30
0.0
 10
2.092138966454974
 20
21.10988818837662
 30
0.0
 10
2.476801356620186
 20
20.80489368386427
 30
0.0
  0
ENDBLK
  5
5D4
330
5D1
100
AcDbEntity
  8
0
100
AcDbBlockEnd
  0
BLOCK
  5
5D8
330
5D6
100
AcDbEntity
  8
0
100
AcDbBlockBegin
  2
block 128
 70
     0
 71
     0
 10
0.0
 20
0.0
 30
0.0
  3
block 128
  1

  0
SPLINE
  5
5DA
330
5D6
100
AcDbEntity
  8
035
 62
     4
420
    65535
370
    25
100
AcDbSpline
210
0.0
220
0.0
230
1.0
 70
     8
 71
     3
 72
     8
 73
     4
 74
     0
 42
0.0000000001
 43
0.0000000001
 40
0.0
 40
0.0
 40
0.0
 40
0.0
 40
1.0
 40
1.0
 40
1.0
 40
1.0
 10
1.711507340666577
 20
22.34095942120664
 30
0.0
 10
1.964084682791538
 20
22.38336857460715
 30
0.0
 10
2.422075978734965
 20
22.52125861236957
 30
0.0
 10
2.656084243944512
 20
22.62533501563759
 30
0.0
  0
ENDBLK
  5
5D9
330
5D6
100
AcDbEntity
  8
0
100
AcDbBlockEnd
  0
BLOCK
  5
5DD
330
5DB
100
AcDbEntity
  8
0
100
AcDbBlockBegin
  2
block 129
 70
     0
 71
     0
 10
0.0
 20
0.0
 30
0.0
  3
block 129
  1

  0
SPLINE
  5
5DF
330
5DB
100
AcDbEntity
  8
035
 62
     4
420
    65535
370
    25
100
AcDbSpline
210
0.0
220
0.0
230
1.0
 70
     8
 71
     3
 72
    11
 73
     7
 74
     0
 42
0.0000000001
 43
0.0000000001
 40
0.0
 40
0.0
 40
0.0
 40
0.0
 40
1.0
 40
1.0
 40
1.0
 40
2.0
 40
2.0
 40
2.0
 40
2.0
 10
19.44955777490456
 20
22.44141847182881
 30
0.0
 10
19.45765375463577
 20
22.47554216512142
 30
0.0
 10
19.43656975635704
 20
22.50978643683556
 30
0.0
 10
19.40242883757564
 20
22.51789964205556
 30
0.0
 10
19.39515968130634
 20
22.5200183771767
 30
0.0
 10
19.38227501569157
 20
22.52020785755339
 30
0.0
 10
19.37493695746711
 20
22.51829582829772
 30
0.0
  0
ENDBLK
  5
5DE
330
5DB
100
AcDbEntity
  8
0
100
AcDbBlockEnd
  0
BLOCK
  5
5E2
330
5E0
100
AcDbEntity
  8
0
100
AcDbBlockBegin
  2
block 130
 70
     0
 71
     0
 10
0.0
 20
0.0
 30
0.0
  3
block 130
  1

  0
SPLINE
  5
5E4
330
5E0
100
AcDbEntity
  8
035
 62
     4
420
    65535
370
    25
100
AcDbSpline
210
0.0
220
0.0
230
1.0
 70
    24
 71
     3
 72
     8
 73
     4
 74
     0
 42
0.0000000001
 43
0.0000000001
 40
0.0
 40
0.0
 40
0.0
 40
0.0
 40
1.0
 40
1.0
 40
1.0
 40
1.0
 10
14.10565993666471
 20
23.17207202982611
 30
0.0
 10
14.1058321915526
 20
23.17198590238216
 30
0.0
 10
14.1061767013284
 20
23.17181364749426
 30
0.0
 10
14.1063489562163
 20
23.17172752005031
 30
0.0
  0
ENDBLK
  5
5E3
330
5E0
100
AcDbEntity
  8
0
100
AcDbBlockEnd
  0
BLOCK
  5
5E7
330
5E5
100
AcDbEntity
  8
0
100
AcDbBlockBegin
  2
block 131
 70
     0
 71
     0
 10
0.0
 20
0.0
 30
0.0
  3
block 131
  1

  0
SPLINE
  5
5E9
330
5E5
100
AcDbEntity
  8
035
 62
     4
420
    65535
370
    25
100
AcDbSpline
210
0.0
220
0.0
230
1.0
 70
     8
 71
     3
 72
     8
 73
     4
 74
     0
 42
0.0000000001
 43
0.0000000001
 40
0.0
 40
0.0
 40
0.0
 40
0.0
 40
1.0
 40
1.0
 40
1.0
 40
1.0
 10
15.62205416580912
 20
22.59884221387887
 30
0.0
 10
16.6152413984519
 20
22.27827586750053
 30
0.0
 10
18.36893396116471
 20
22.2406381744948
 30
0.0
 10
19.37493695746711
 20
22.51829582829772
 30
0.0
  0
ENDBLK
  5
5E8
330
5E5
100
AcDbEntity
  8
0
100
AcDbBlockEnd
  0
BLOCK
  5
5EC
330
5EA
100
AcDbEntity
  8
0
100
AcDbBlockBegin
  2
block 132
 70
     0
 71
     0
 10
0.0
 20
0.0
 30
0.0
  3
block 132
  1

  0
POLYLINE
  5
5EE
330
5EA
100
AcDbEntity
  8
035
 62
     4
420
    65535
370
    25
100
AcDb2dPolyline
 66
     1
 10
0.0
 20
0.0
 30
0.0
  0
VERTEX
  5
5EF
330
5EE
100
AcDbEntity
  8
035
 62
     4
420
    65535
370
    25
100
AcDbVertex
100
AcDb2dVertex
 10
14.61474203235871
 20
20.80489368386427
 30
0.0
  0
VERTEX
  5
5F0
330
5EE
100
AcDbEntity
  8
035
 62
     4
420
    65535
370
    25
100
AcDbVertex
100
AcDb2dVertex
 10
16.55216165850362
 20
20.80489368386427
 30
0.0
  0
SEQEND
  5
5F1
330
5EE
100
AcDbEntity
  8
035
370
    25
  0
ENDBLK
  5
5ED
330
5EA
100
AcDbEntity
  8
0
100
AcDbBlockEnd
  0
BLOCK
  5
5F4
330
5F2
100
AcDbEntity
  8
0
100
AcDbBlockBegin
  2
block 133
 70
     0
 71
     0
 10
0.0
 20
0.0
 30
0.0
  3
block 133
  1

  0
POLYLINE
  5
5F6
330
5F2
100
AcDbEntity
  8
035
 62
     4
420
    65535
370
    25
100
AcDb2dPolyline
 66
     1
 10
0.0
 20
0.0
 30
0.0
  0
VERTEX
  5
5F7
330
5F6
100
AcDbEntity
  8
035
 62
     4
420
    65535
370
    25
100
AcDbVertex
100
AcDb2dVertex
 10
16.55216165850362
 20
20.80489368386427
 30
0.0
  0
VERTEX
  5
5F8
330
5F6
100
AcDbEntity
  8
035
 62
     4
420
    65535
370
    25
100
AcDbVertex
100
AcDb2dVertex
 10
18.48954683367095
 20
20.80489368386427
 30
0.0
  0
SEQEND
  5
5F9
330
5F6
100
AcDbEntity
  8
035
370
    25
  0
ENDBLK
  5
5F5
330
5F2
100
AcDbEntity
  8
0
100
AcDbBlockEnd
  0
BLOCK
  5
5FC
330
5FA
100
AcDbEntity
  8
0
100
AcDbBlockBegin
  2
block 134
 70
     0
 71
     0
 10
0.0
 20
0.0
 30
0.0
  3
block 134
  1

  0
SPLINE
  5
5FE
330
5FA
100
AcDbEntity
  8
035
 62
     4
420
    65535
370
    25
100
AcDbSpline
210
0.0
220
0.0
230
1.0
 70
     8
 71
     3
 72
     8
 73
     4
 74
     0
 42
0.0000000001
 43
0.0000000001
 40
0.0
 40
0.0
 40
0.0
 40
0.0
 40
1.0
 40
1.0
 40
1.0
 40
1.0
 10
18.48954683367095
 20
20.80489368386427
 30
0.0
 10
18.91308715203477
 20
21.14919675379496
 30
0.0
 10
19.35571331197768
 20
21.90372483925494
 30
0.0
 10
19.44955777490456
 20
22.44141847182881
 30
0.0
  0
ENDBLK
  5
5FD
330
5FA
100
AcDbEntity
  8
0
100
AcDbBlockEnd
  0
BLOCK
  5
601
330
5FF
100
AcDbEntity
  8
0
100
AcDbBlockBegin
  2
block 135
 70
     0
 71
     0
 10
0.0
 20
0.0
 30
0.0
  3
block 135
  1

  0
SPLINE
  5
603
330
5FF
100
AcDbEntity
  8
035
 62
     4
420
    65535
370
    25
100
AcDbSpline
210
0.0
220
0.0
230
1.0
 70
     8
 71
     3
 72
    11
 73
     7
 74
     0
 42
0.0000000001
 43
0.0000000001
 40
0.0
 40
0.0
 40
0.0
 40
0.0
 40
1.0
 40
1.0
 40
1.0
 40
2.0
 40
2.0
 40
2.0
 40
2.0
 10
9.643586546041517
 20
22.26218726097085
 30
0.0
 10
9.649787722005849
 20
22.29670714050563
 30
0.0
 10
9.626843370937824
 20
22.32974562800448
 30
0.0
 10
9.592323491403047
 20
22.33594680396881
 30
0.0
 10
9.59116938365413
 20
22.33617073532308
 30
0.0
 10
9.588930070111456
 20
22.33649801961008
 30
0.0
 10
9.587793187851327
 20
22.33660137254282
 30
0.0
  0
ENDBLK
  5
602
330
5FF
100
AcDbEntity
  8
0
100
AcDbBlockEnd
  0
BLOCK
  5
606
330
604
100
AcDbEntity
  8
0
100
AcDbBlockBegin
  2
block 136
 70
     0
 71
     0
 10
0.0
 20
0.0
 30
0.0
  3
block 136
  1

  0
SPLINE
  5
608
330
604
100
AcDbEntity
  8
035
 62
     4
420
    65535
370
    25
100
AcDbSpline
210
0.0
220
0.0
230
1.0
 70
     8
 71
     3
 72
    11
 73
     7
 74
     0
 42
0.0000000001
 43
0.0000000001
 40
0.0
 40
0.0
 40
0.0
 40
0.0
 40
1.0
 40
1.0
 40
1.0
 40
2.0
 40
2.0
 40
2.0
 40
2.0
 10
9.643999957772472
 20
22.26485721173327
 30
0.0
 10
9.651613623817568
 20
22.29910148344741
 30
0.0
 10
9.630012860875148
 20
22.33303569636333
 30
0.0
 10
9.59576858916101
 20
22.34063213691964
 30
0.0
 10
9.595389628407633
 20
22.34071826436359
 30
0.0
 10
9.59464893238967
 20
22.34087329376269
 30
0.0
 10
9.594269971636296
 20
22.34095942120664
 30
0.0
  0
ENDBLK
  5
607
330
604
100
AcDbEntity
  8
0
100
AcDbBlockEnd
  0
BLOCK
  5
60B
330
609
100
AcDbEntity
  8
0
100
AcDbBlockBegin
  2
block 137
 70
     0
 71
     0
 10
0.0
 20
0.0
 30
0.0
  3
block 137
  1

  0
SPLINE
  5
60D
330
609
100
AcDbEntity
  8
035
 62
     4
420
    65535
370
    25
100
AcDbSpline
210
0.0
220
0.0
230
1.0
 70
     8
 71
     3
 72
     8
 73
     4
 74
     0
 42
0.0000000001
 43
0.0000000001
 40
0.0
 40
0.0
 40
0.0
 40
0.0
 40
1.0
 40
1.0
 40
1.0
 40
1.0
 10
8.64969306835836
 20
22.62533501563759
 30
0.0
 10
8.883701333567908
 20
22.52125861236957
 30
0.0
 10
9.341709855000124
 20
22.38336857460715
 30
0.0
 10
9.594269971636296
 20
22.34095942120664
 30
0.0
  0
ENDBLK
  5
60C
330
609
100
AcDbEntity
  8
0
100
AcDbBlockEnd
  0
BLOCK
  5
610
330
60E
100
AcDbEntity
  8
0
100
AcDbBlockBegin
  2
block 138
 70
     0
 71
     0
 10
0.0
 20
0.0
 30
0.0
  3
block 138
  1

  0
SPLINE
  5
612
330
60E
100
AcDbEntity
  8
035
 62
     4
420
    65535
370
    25
100
AcDbSpline
210
0.0
220
0.0
230
1.0
 70
     8
 71
     3
 72
     8
 73
     4
 74
     0
 42
0.0000000001
 43
0.0000000001
 40
0.0
 40
0.0
 40
0.0
 40
0.0
 40
1.0
 40
1.0
 40
1.0
 40
1.0
 10
8.828975955682687
 20
20.80489368386427
 30
0.0
 10
9.2136383458479
 20
21.10988818837662
 30
0.0
 10
9.587276423187634
 20
21.77995970230016
 30
0.0
 10
9.644533947924957
 20
22.2675099370069
 30
0.0
  0
ENDBLK
  5
611
330
60E
100
AcDbEntity
  8
0
100
AcDbBlockEnd
  0
BLOCK
  5
615
330
613
100
AcDbEntity
  8
0
100
AcDbBlockBegin
  2
block 139
 70
     0
 71
     0
 10
0.0
 20
0.0
 30
0.0
  3
block 139
  1

  0
INSERT
  5
618
330
613
100
AcDbEntity
  8
0
100
AcDbBlockReference
  2
block 140
 10
0.0
 20
0.0
 30
0.0
  0
INSERT
  5
620
330
613
100
AcDbEntity
  8
0
100
AcDbBlockReference
  2
block 141
 10
0.0
 20
0.0
 30
0.0
  0
INSERT
  5
628
330
613
100
AcDbEntity
  8
0
100
AcDbBlockReference
  2
block 142
 10
0.0
 20
0.0
 30
0.0
  0
INSERT
  5
630
330
613
100
AcDbEntity
  8
0
100
AcDbBlockReference
  2
block 143
 10
0.0
 20
0.0
 30
0.0
  0
INSERT
  5
63B
330
613
100
AcDbEntity
  8
0
100
AcDbBlockReference
  2
block 144
 10
0.0
 20
0.0
 30
0.0
  0
INSERT
  5
646
330
613
100
AcDbEntity
  8
0
100
AcDbBlockReference
  2
block 145
 10
0.0
 20
0.0
 30
0.0
  0
INSERT
  5
64B
330
613
100
AcDbEntity
  8
0
100
AcDbBlockReference
  2
block 146
 10
0.0
 20
0.0
 30
0.0
  0
INSERT
  5
653
330
613
100
AcDbEntity
  8
0
100
AcDbBlockReference
  2
block 147
 10
0.0
 20
0.0
 30
0.0
  0
INSERT
  5
65B
330
613
100
AcDbEntity
  8
0
100
AcDbBlockReference
  2
block 148
 10
0.0
 20
0.0
 30
0.0
  0
ENDBLK
  5
616
330
613
100
AcDbEntity
  8
0
100
AcDbBlockEnd
  0
BLOCK
  5
619
330
617
100
AcDbEntity
  8
0
100
AcDbBlockBegin
  2
block 140
 70
     0
 71
     0
 10
0.0
 20
0.0
 30
0.0
  3
block 140
  1

  0
POLYLINE
  5
61B
330
617
100
AcDbEntity
  8
0
 62
     1
420
 16711680
370
    25
100
AcDb2dPolyline
 66
     1
 10
0.0
 20
0.0
 30
0.0
  0
VERTEX
  5
61C
330
61B
100
AcDbEntity
  8
0
 62
     1
420
 16711680
370
    25
100
AcDbVertex
100
AcDb2dVertex
 10
1.638591846619318
 20
22.33660137254282
 30
0.0
  0
VERTEX
  5
61D
330
61B
100
AcDbEntity
  8
0
 62
     1
420
 16711680
370
    25
100
AcDbVertex
100
AcDb2dVertex
 10
0.2163693646887838
 20
22.33660137254282
 30
0.0
  0
SEQEND
  5
61E
330
61B
100
AcDbEntity
  8
0
370
    25
  0
ENDBLK
  5
61A
330
617
100
AcDbEntity
  8
0
100
AcDbBlockEnd
  0
BLOCK
  5
621
330
61F
100
AcDbEntity
  8
0
100
AcDbBlockBegin
  2
block 141
 70
     0
 71
     0
 10
0.0
 20
0.0
 30
0.0
  3
block 141
  1

  0
POLYLINE
  5
623
330
61F
100
AcDbEntity
  8
0
 62
     1
420
 16711680
370
    25
100
AcDb2dPolyline
 66
     1
 10
0.0
 20
0.0
 30
0.0
  0
VERTEX
  5
624
330
623
100
AcDbEntity
  8
0
 62
     1
420
 16711680
370
    25
100
AcDbVertex
100
AcDb2dVertex
 10
2.397409078787959
 20
20.80489368386427
 30
0.0
  0
VERTEX
  5
625
330
623
100
AcDbEntity
  8
0
 62
     1
420
 16711680
370
    25
100
AcDbVertex
100
AcDb2dVertex
 10
0.2163693646887838
 20
20.80489368386427
 30
0.0
  0
SEQEND
  5
626
330
623
100
AcDbEntity
  8
0
370
    25
  0
ENDBLK
  5
622
330
61F
100
AcDbEntity
  8
0
100
AcDbBlockEnd
  0
BLOCK
  5
629
330
627
100
AcDbEntity
  8
0
100
AcDbBlockBegin
  2
block 142
 70
     0
 71
     0
 10
0.0
 20
0.0
 30
0.0
  3
block 142
  1

  0
POLYLINE
  5
62B
330
627
100
AcDbEntity
  8
0
 62
     1
420
 16711680
370
    25
100
AcDb2dPolyline
 66
     1
 10
0.0
 20
0.0
 30
0.0
  0
VERTEX
  5
62C
330
62B
100
AcDbEntity
  8
0
 62
     1
420
 16711680
370
    25
100
AcDbVertex
100
AcDb2dVertex
 10
0.3751711458420279
 20
22.01899781023634
 30
0.0
  0
VERTEX
  5
62D
330
62B
100
AcDbEntity
  8
0
 62
     1
420
 16711680
370
    25
100
AcDbVertex
100
AcDb2dVertex
 10
0.3751711458420279
 20
21.12249724617076
 30
0.0
  0
SEQEND
  5
62E
330
62B
100
AcDbEntity
  8
0
370
    25
  0
ENDBLK
  5
62A
330
627
100
AcDbEntity
  8
0
100
AcDbBlockEnd
  0
BLOCK
  5
631
330
62F
100
AcDbEntity
  8
0
100
AcDbBlockBegin
  2
block 143
 70
     0
 71
     0
 10
0.0
 20
0.0
 30
0.0
  3
block 143
  1

  0
POLYLINE
  5
633
330
62F
100
AcDbEntity
  8
0
370
     0
100
AcDb2dPolyline
 66
     1
 10
0.0
 20
0.0
 30
0.0
  0
VERTEX
  5
634
330
633
100
AcDbEntity
  8
0
370
     0
100
AcDbVertex
100
AcDb2dVertex
 10
0.3222372187909465
 20
22.01899781023634
 30
0.0
  0
VERTEX
  5
635
330
633
100
AcDbEntity
  8
0
370
     0
100
AcDbVertex
100
AcDb2dVertex
 10
0.4281050728931092
 20
22.01899781023634
 30
0.0
  0
VERTEX
  5
636
330
633
100
AcDbEntity
  8
0
370
     0
100
AcDbVertex
100
AcDb2dVertex
 10
0.3751711458420279
 20
22.33660137254282
 30
0.0
  0
VERTEX
  5
637
330
633
100
AcDbEntity
  8
0
370
     0
100
AcDbVertex
100
AcDb2dVertex
 10
0.3222372187909465
 20
22.01899781023634
 30
0.0
  0
SEQEND
  5
638
330
633
100
AcDbEntity
  8
0
370
     0
  0
HATCH
  5
639
330
62F
100
AcDbEntity
  8
0
 62
     1
420
 16711680
100
AcDbHatch
 10
0.0
 20
0.0
 30
0.0
210
0.0
220
0.0
230
1.0
  2
SOLID
 70
     1
 71
     0
 91
        1
 92
        1
 93
        3
 72
     1
 10
0.3222372187909465
 20
22.01899781023634
 11
0.4281050728931092
 21
22.01899781023634
 72
     1
 10
0.4281050728931092
 20
22.01899781023634
 11
0.3751711458420279
 21
22.33660137254282
 72
     1
 10
0.3751711458420279
 20
22.33660137254282
 11
0.3222372187909465
 21
22.01899781023634
 97
        0
 75
     2
 76
     1
 98
        0
  0
ENDBLK
  5
632
330
62F
100
AcDbEntity
  8
0
100
AcDbBlockEnd
  0
BLOCK
  5
63C
330
63A
100
AcDbEntity
  8
0
100
AcDbBlockBegin
  2
block 144
 70
     0
 71
     0
 10
0.0
 20
0.0
 30
0.0
  3
block 144
  1

  0
POLYLINE
  5
63E
330
63A
100
AcDbEntity
  8
0
370
     0
100
AcDb2dPolyline
 66
     1
 10
0.0
 20
0.0
 30
0.0
  0
VERTEX
  5
63F
330
63E
100
AcDbEntity
  8
0
370
     0
100
AcDbVertex
100
AcDb2dVertex
 10
0.3222372187909465
 20
21.12249724617076
 30
0.0
  0
VERTEX
  5
640
330
63E
100
AcDbEntity
  8
0
370
     0
100
AcDbVertex
100
AcDb2dVertex
 10
0.4281050728931092
 20
21.12249724617076
 30
0.0
  0
VERTEX
  5
641
330
63E
100
AcDbEntity
  8
0
370
     0
100
AcDbVertex
100
AcDb2dVertex
 10
0.3751711458420279
 20
20.80489368386427
 30
0.0
  0
VERTEX
  5
642
330
63E
100
AcDbEntity
  8
0
370
     0
100
AcDbVertex
100
AcDb2dVertex
 10
0.3222372187909465
 20
21.12249724617076
 30
0.0
  0
SEQEND
  5
643
330
63E
100
AcDbEntity
  8
0
370
     0
  0
HATCH
  5
644
330
63A
100
AcDbEntity
  8
0
 62
     1
420
 16711680
100
AcDbHatch
 10
0.0
 20
0.0
 30
0.0
210
0.0
220
0.0
230
1.0
  2
SOLID
 70
     1
 71
     0
 91
        1
 92
        1
 93
        3
 72
     1
 10
0.3222372187909465
 20
21.12249724617076
 11
0.4281050728931092
 21
21.12249724617076
 72
     1
 10
0.4281050728931092
 20
21.12249724617076
 11
0.3751711458420279
 21
20.80489368386427
 72
     1
 10
0.3751711458420279
 20
20.80489368386427
 11
0.3222372187909465
 21
21.12249724617076
 97
        0
 75
     2
 76
     1
 98
        0
  0
ENDBLK
  5
63D
330
63A
100
AcDbEntity
  8
0
100
AcDbBlockEnd
  0
BLOCK
  5
647
330
645
100
AcDbEntity
  8
0
100
AcDbBlockBegin
  2
block 145
 70
     0
 71
     0
 10
0.0
 20
0.0
 30
0.0
  3
block 145
  1

  0
MTEXT
  5
649
330
645
100
AcDbEntity
  8
0
 62
     4
420
    65535
100
AcDbMText
 10
0.2957616425210109
 20
21.15150496929279
 30
0.0
 40
0.2794955300208335
 41
0.0
 71
     7
 72
     1
  1
\fMyriad Pro|b0|i0|c0|p34;\W1;120
 11
-4.371139000186241E-8
 21
0.999999999999999
 31
0.0
 73
     1
 44
1.0
  0
ENDBLK
  5
648
330
645
100
AcDbEntity
  8
0
100
AcDbBlockEnd
  0
BLOCK
  5
64C
330
64A
100
AcDbEntity
  8
0
100
AcDbBlockBegin
  2
block 146
 70
     0
 71
     0
 10
0.0
 20
0.0
 30
0.0
  3
block 146
  1

  0
POLYLINE
  5
64E
330
64A
100
AcDbEntity
  8
0
370
     0
100
AcDb2dPolyline
 66
     1
 10
0.0
 20
0.0
 30
0.0
  0
VERTEX
  5
64F
330
64E
100
AcDbEntity
  8
0
370
     0
100
AcDbVertex
100
AcDb2dVertex
 10
1.718001349940335
 20
22.33660137254282
 30
0.0
  0
VERTEX
  5
650
330
64E
100
AcDbEntity
  8
0
370
     0
100
AcDbVertex
100
AcDb2dVertex
 10
1.718001349940335
 20
22.33660137254282
 30
0.0
  0
SEQEND
  5
651
330
64E
100
AcDbEntity
  8
0
370
     0
  0
ENDBLK
  5
64D
330
64A
100
AcDbEntity
  8
0
100
AcDbBlockEnd
  0
BLOCK
  5
654
330
652
100
AcDbEntity
  8
0
100
AcDbBlockBegin
  2
block 147
 70
     0
 71
     0
 10
0.0
 20
0.0
 30
0.0
  3
block 147
  1

  0
POLYLINE
  5
656
330
652
100
AcDbEntity
  8
0
370
     0
100
AcDb2dPolyline
 66
     1
 10
0.0
 20
0.0
 30
0.0
  0
VERTEX
  5
657
330
656
100
AcDbEntity
  8
0
370
     0
100
AcDbVertex
100
AcDb2dVertex
 10
2.476801356620186
 20
20.80489368386427
 30
0.0
  0
VERTEX
  5
658
330
656
100
AcDbEntity
  8
0
370
     0
100
AcDbVertex
100
AcDb2dVertex
 10
2.476801356620186
 20
20.80489368386427
 30
0.0
  0
SEQEND
  5
659
330
656
100
AcDbEntity
  8
0
370
     0
  0
ENDBLK
  5
655
330
652
100
AcDbEntity
  8
0
100
AcDbBlockEnd
  0
BLOCK
  5
65C
330
65A
100
AcDbEntity
  8
0
100
AcDbBlockBegin
  2
block 148
 70
     0
 71
     0
 10
0.0
 20
0.0
 30
0.0
  3
block 148
  1

  0
POLYLINE
  5
65E
330
65A
100
AcDbEntity
  8
0
370
     0
100
AcDb2dPolyline
 66
     1
 10
0.0
 20
0.0
 30
0.0
  0
VERTEX
  5
65F
330
65E
100
AcDbEntity
  8
0
370
     0
100
AcDbVertex
100
AcDb2dVertex
 10
0.3751711458420279
 20
20.80489368386427
 30
0.0
  0
VERTEX
  5
660
330
65E
100
AcDbEntity
  8
0
370
     0
100
AcDbVertex
100
AcDb2dVertex
 10
0.3751711458420279
 20
20.80489368386427
 30
0.0
  0
SEQEND
  5
661
330
65E
100
AcDbEntity
  8
0
370
     0
  0
ENDBLK
  5
65D
330
65A
100
AcDbEntity
  8
0
100
AcDbBlockEnd
  0
ENDSEC
  0
SECTION
  2
ENTITIES
  0
INSERT
  5
3D
330
1F
100
AcDbEntity
  8
COTAS
100
AcDbBlockReference
  2
block 2
 10
0.0
 20
0.0
 30
0.0
  0
INSERT
  5
8C
330
1F
100
AcDbEntity
  8
COTAS
100
AcDbBlockReference
  2
block 12
 10
0.0
 20
0.0
 30
0.0
  0
INSERT
  5
DB
330
1F
100
AcDbEntity
  8
COTAS
100
AcDbBlockReference
  2
block 22
 10
0.0
 20
0.0
 30
0.0
  0
INSERT
  5
12A
330
1F
100
AcDbEntity
  8
COTAS
100
AcDbBlockReference
  2
block 32
 10
0.0
 20
0.0
 30
0.0
  0
INSERT
  5
179
330
1F
100
AcDbEntity
  8
COTAS
100
AcDbBlockReference
  2
block 42
 10
0.0
 20
0.0
 30
0.0
  0
INSERT
  5
1C8
330
1F
100
AcDbEntity
  8
COTAS
100
AcDbBlockReference
  2
block 52
 10
0.0
 20
0.0
 30
0.0
  0
INSERT
  5
217
330
1F
100
AcDbEntity
  8
COTAS
100
AcDbBlockReference
  2
block 62
 10
0.0
 20
0.0
 30
0.0
  0
INSERT
  5
267
330
1F
100
AcDbEntity
  8
010
100
AcDbBlockReference
  2
block 72
 10
0.0
 20
0.0
 30
0.0
  0
INSERT
  5
26F
330
1F
100
AcDbEntity
  8
010
100
AcDbBlockReference
  2
block 73
 10
0.0
 20
0.0
 30
0.0
  0
INSERT
  5
277
330
1F
100
AcDbEntity
  8
010
100
AcDbBlockReference
  2
block 74
 10
0.0
 20
0.0
 30
0.0
  0
INSERT
  5
280
330
1F
100
AcDbEntity
  8
010
100
AcDbBlockReference
  2
block 75
 10
0.0
 20
0.0
 30
0.0
  0
INSERT
  5
487
330
1F
100
AcDbEntity
  8
010
100
AcDbBlockReference
  2
block 76
 10
0.0
 20
0.0
 30
0.0
  0
INSERT
  5
48D
330
1F
100
AcDbEntity
  8
010
100
AcDbBlockReference
  2
block 77
 10
0.0
 20
0.0
 30
0.0
  0
INSERT
  5
493
330
1F
100
AcDbEntity
  8
018
100
AcDbBlockReference
  2
block 78
 10
0.0
 20
0.0
 30
0.0
  0
INSERT
  5
498
330
1F
100
AcDbEntity
  8
018
100
AcDbBlockReference
  2
block 79
 10
0.0
 20
0.0
 30
0.0
  0
INSERT
  5
49D
330
1F
100
AcDbEntity
  8
018
100
AcDbBlockReference
  2
block 80
 10
0.0
 20
0.0
 30
0.0
  0
INSERT
  5
4A2
330
1F
100
AcDbEntity
  8
018
100
AcDbBlockReference
  2
block 81
 10
0.0
 20
0.0
 30
0.0
  0
INSERT
  5
4A7
330
1F
100
AcDbEntity
  8
018
100
AcDbBlockReference
  2
block 82
 10
0.0
 20
0.0
 30
0.0
  0
INSERT
  5
4AF
330
1F
100
AcDbEntity
  8
018
100
AcDbBlockReference
  2
block 83
 10
0.0
 20
0.0
 30
0.0
  0
INSERT
  5
4B7
330
1F
100
AcDbEntity
  8
018
100
AcDbBlockReference
  2
block 84
 10
0.0
 20
0.0
 30
0.0
  0
INSERT
  5
4BC
330
1F
100
AcDbEntity
  8
018
100
AcDbBlockReference
  2
block 85
 10
0.0
 20
0.0
 30
0.0
  0
INSERT
  5
4C1
330
1F
100
AcDbEntity
  8
018
100
AcDbBlockReference
  2
block 86
 10
0.0
 20
0.0
 30
0.0
  0
INSERT
  5
4C6
330
1F
100
AcDbEntity
  8
018
100
AcDbBlockReference
  2
block 87
 10
0.0
 20
0.0
 30
0.0
  0
INSERT
  5
4CB
330
1F
100
AcDbEntity
  8
018
100
AcDbBlockReference
  2
block 88
 10
0.0
 20
0.0
 30
0.0
  0
INSERT
  5
4D0
330
1F
100
AcDbEntity
  8
018
100
AcDbBlockReference
  2
block 89
 10
0.0
 20
0.0
 30
0.0
  0
INSERT
  5
4D8
330
1F
100
AcDbEntity
  8
018
100
AcDbBlockReference
  2
block 90
 10
0.0
 20
0.0
 30
0.0
  0
INSERT
  5
4DD
330
1F
100
AcDbEntity
  8
018
100
AcDbBlockReference
  2
block 91
 10
0.0
 20
0.0
 30
0.0
  0
INSERT
  5
4E2
330
1F
100
AcDbEntity
  8
018
100
AcDbBlockReference
  2
block 92
 10
0.0
 20
0.0
 30
0.0
  0
INSERT
  5
4E7
330
1F
100
AcDbEntity
  8
018
100
AcDbBlockReference
  2
block 93
 10
0.0
 20
0.0
 30
0.0
  0
INSERT
  5
4EF
330
1F
100
AcDbEntity
  8
018
100
AcDbBlockReference
  2
block 94
 10
0.0
 20
0.0
 30
0.0
  0
INSERT
  5
4F4
330
1F
100
AcDbEntity
  8
018
100
AcDbBlockReference
  2
block 95
 10
0.0
 20
0.0
 30
0.0
  0
INSERT
  5
4F9
330
1F
100
AcDbEntity
  8
018
100
AcDbBlockReference
  2
block 96
 10
0.0
 20
0.0
 30
0.0
  0
INSERT
  5
501
330
1F
100
AcDbEntity
  8
018
100
AcDbBlockReference
  2
block 97
 10
0.0
 20
0.0
 30
0.0
  0
INSERT
  5
509
330
1F
100
AcDbEntity
  8
018
100
AcDbBlockReference
  2
block 98
 10
0.0
 20
0.0
 30
0.0
  0
INSERT
  5
511
330
1F
100
AcDbEntity
  8
018
100
AcDbBlockReference
  2
block 99
 10
0.0
 20
0.0
 30
0.0
  0
INSERT
  5
519
330
1F
100
AcDbEntity
  8
018
100
AcDbBlockReference
  2
block 100
 10
0.0
 20
0.0
 30
0.0
  0
INSERT
  5
521
330
1F
100
AcDbEntity
  8
018
100
AcDbBlockReference
  2
block 101
 10
0.0
 20
0.0
 30
0.0
  0
INSERT
  5
529
330
1F
100
AcDbEntity
  8
018
100
AcDbBlockReference
  2
block 102
 10
0.0
 20
0.0
 30
0.0
  0
INSERT
  5
531
330
1F
100
AcDbEntity
  8
018
100
AcDbBlockReference
  2
block 103
 10
0.0
 20
0.0
 30
0.0
  0
INSERT
  5
539
330
1F
100
AcDbEntity
  8
018
100
AcDbBlockReference
  2
block 104
 10
0.0
 20
0.0
 30
0.0
  0
INSERT
  5
541
330
1F
100
AcDbEntity
  8
018
100
AcDbBlockReference
  2
block 105
 10
0.0
 20
0.0
 30
0.0
  0
INSERT
  5
549
330
1F
100
AcDbEntity
  8
018
100
AcDbBlockReference
  2
block 106
 10
0.0
 20
0.0
 30
0.0
  0
INSERT
  5
551
330
1F
100
AcDbEntity
  8
018
100
AcDbBlockReference
  2
block 107
 10
0.0
 20
0.0
 30
0.0
  0
INSERT
  5
559
330
1F
100
AcDbEntity
  8
018
100
AcDbBlockReference
  2
block 108
 10
0.0
 20
0.0
 30
0.0
  0
INSERT
  5
561
330
1F
100
AcDbEntity
  8
018
100
AcDbBlockReference
  2
block 109
 10
0.0
 20
0.0
 30
0.0
  0
INSERT
  5
569
330
1F
100
AcDbEntity
  8
018
100
AcDbBlockReference
  2
block 110
 10
0.0
 20
0.0
 30
0.0
  0
INSERT
  5
571
330
1F
100
AcDbEntity
  8
018
100
AcDbBlockReference
  2
block 111
 10
0.0
 20
0.0
 30
0.0
  0
INSERT
  5
576
330
1F
100
AcDbEntity
  8
018
100
AcDbBlockReference
  2
block 112
 10
0.0
 20
0.0
 30
0.0
  0
INSERT
  5
57B
330
1F
100
AcDbEntity
  8
018
100
AcDbBlockReference
  2
block 113
 10
0.0
 20
0.0
 30
0.0
  0
INSERT
  5
580
330
1F
100
AcDbEntity
  8
018
100
AcDbBlockReference
  2
block 114
 10
0.0
 20
0.0
 30
0.0
  0
INSERT
  5
585
330
1F
100
AcDbEntity
  8
018
100
AcDbBlockReference
  2
block 115
 10
0.0
 20
0.0
 30
0.0
  0
INSERT
  5
58D
330
1F
100
AcDbEntity
  8
018
100
AcDbBlockReference
  2
block 116
 10
0.0
 20
0.0
 30
0.0
  0
INSERT
  5
595
330
1F
100
AcDbEntity
  8
018
100
AcDbBlockReference
  2
block 117
 10
0.0
 20
0.0
 30
0.0
  0
INSERT
  5
59E
330
1F
100
AcDbEntity
  8
025
100
AcDbBlockReference
  2
block 118
 10
0.0
 20
0.0
 30
0.0
  0
INSERT
  5
5A3
330
1F
100
AcDbEntity
  8
025
100
AcDbBlockReference
  2
block 119
 10
0.0
 20
0.0
 30
0.0
  0
INSERT
  5
5A8
330
1F
100
AcDbEntity
  8
025
100
AcDbBlockReference
  2
block 120
 10
0.0
 20
0.0
 30
0.0
  0
INSERT
  5
5AE
330
1F
100
AcDbEntity
  8
035
100
AcDbBlockReference
  2
block 121
 10
0.0
 20
0.0
 30
0.0
  0
INSERT
  5
5B3
330
1F
100
AcDbEntity
  8
035
100
AcDbBlockReference
  2
block 122
 10
0.0
 20
0.0
 30
0.0
  0
INSERT
  5
5B8
330
1F
100
AcDbEntity
  8
035
100
AcDbBlockReference
  2
block 123
 10
0.0
 20
0.0
 30
0.0
  0
INSERT
  5
5C0
330
1F
100
AcDbEntity
  8
035
100
AcDbBlockReference
  2
block 124
 10
0.0
 20
0.0
 30
0.0
  0
INSERT
  5
5C8
330
1F
100
AcDbEntity
  8
035
100
AcDbBlockReference
  2
block 125
 10
0.0
 20
0.0
 30
0.0
  0
INSERT
  5
5CD
330
1F
100
AcDbEntity
  8
035
100
AcDbBlockReference
  2
block 126
 10
0.0
 20
0.0
 30
0.0
  0
INSERT
  5
5D2
330
1F
100
AcDbEntity
  8
035
100
AcDbBlockReference
  2
block 127
 10
0.0
 20
0.0
 30
0.0
  0
INSERT
  5
5D7
330
1F
100
AcDbEntity
  8
035
100
AcDbBlockReference
  2
block 128
 10
0.0
 20
0.0
 30
0.0
  0
INSERT
  5
5DC
330
1F
100
AcDbEntity
  8
035
100
AcDbBlockReference
  2
block 129
 10
0.0
 20
0.0
 30
0.0
  0
INSERT
  5
5E1
330
1F
100
AcDbEntity
  8
035
100
AcDbBlockReference
  2
block 130
 10
0.0
 20
0.0
 30
0.0
  0
INSERT
  5
5E6
330
1F
100
AcDbEntity
  8
035
100
AcDbBlockReference
  2
block 131
 10
0.0
 20
0.0
 30
0.0
  0
INSERT
  5
5EB
330
1F
100
AcDbEntity
  8
035
100
AcDbBlockReference
  2
block 132
 10
0.0
 20
0.0
 30
0.0
  0
INSERT
  5
5F3
330
1F
100
AcDbEntity
  8
035
100
AcDbBlockReference
  2
block 133
 10
0.0
 20
0.0
 30
0.0
  0
INSERT
  5
5FB
330
1F
100
AcDbEntity
  8
035
100
AcDbBlockReference
  2
block 134
 10
0.0
 20
0.0
 30
0.0
  0
INSERT
  5
600
330
1F
100
AcDbEntity
  8
035
100
AcDbBlockReference
  2
block 135
 10
0.0
 20
0.0
 30
0.0
  0
INSERT
  5
605
330
1F
100
AcDbEntity
  8
035
100
AcDbBlockReference
  2
block 136
 10
0.0
 20
0.0
 30
0.0
  0
INSERT
  5
60A
330
1F
100
AcDbEntity
  8
035
100
AcDbBlockReference
  2
block 137
 10
0.0
 20
0.0
 30
0.0
  0
INSERT
  5
60F
330
1F
100
AcDbEntity
  8
035
100
AcDbBlockReference
  2
block 138
 10
0.0
 20
0.0
 30
0.0
  0
INSERT
  5
614
330
1F
100
AcDbEntity
  8
0
100
AcDbBlockReference
  2
block 139
 10
0.0
 20
0.0
 30
0.0
  0
ENDSEC
  0
SECTION
  2
OBJECTS
  0
DICTIONARY
  5
C
330
0
100
AcDbDictionary
281
     1
  3
ACAD_GROUP
350
D
  3
ACAD_LAYOUT
350
1A
  3
ACAD_MLINESTYLE
350
17
  3
ACAD_PLOTSETTINGS
350
19
  3
ACAD_PLOTSTYLENAME
350
E
  3
ACAD_TABLESTYLE
350
662
  3
ACAD_VISUALSTYLE
350
2A
  0
DICTIONARY
  5
D
102
{ACAD_REACTORS
330
C
102
}
330
C
100
AcDbDictionary
281
     1
  0
DICTIONARY
  5
1A
102
{ACAD_REACTORS
330
C
102
}
330
C
100
AcDbDictionary
281
     1
  3
Layout1
350
1E
  3
Layout2
350
26
  3
Model
350
22
  0
DICTIONARY
  5
17
102
{ACAD_REACTORS
330
C
102
}
330
C
100
AcDbDictionary
281
     1
  3
Standard
350
18
  0
DICTIONARY
  5
19
102
{ACAD_REACTORS
330
C
102
}
330
C
100
AcDbDictionary
281
     1
  0
ACDBDICTIONARYWDFLT
  5
E
102
{ACAD_REACTORS
330
C
102
}
330
C
100
AcDbDictionary
281
     1
  3
Normal
350
F
100
AcDbDictionaryWithDefault
340
F
  0
DICTIONARY
  5
662
102
{ACAD_REACTORS
330
C
102
}
330
C
100
AcDbDictionary
281
     1
  0
DICTIONARY
  5
2A
102
{ACAD_REACTORS
330
C
102
}
330
C
100
AcDbDictionary
281
     1
  3
2dWireframe
350
2F
  3
3D Hidden
350
31
  3
3dWireframe
350
30
  3
Basic
350
32
  3
Brighten
350
36
  3
ColorChange
350
3A
  3
Conceptual
350
34
  3
Dim
350
35
  3
Facepattern
350
39
  3
Flat
350
2B
  3
FlatWithEdges
350
2C
  3
Gouraud
350
2D
  3
GouraudWithEdges
350
2E
  3
Linepattern
350
38
  3
Realistic
350
33
  3
Thicken
350
37
  0
LAYOUT
  5
1E
102
{ACAD_REACTORS
330
1A
102
}
330
1A
100
AcDbPlotSettings
  1

  2
none_device
  4

  6

 40
0.0
 41
0.0
 42
0.0
 43
0.0
 44
0.0
 45
0.0
 46
0.0
 47
0.0
 48
0.0
 49
0.0
140
0.0
141
0.0
142
1.0
143
1.0
 70
   688
 72
     0
 73
     0
 74
     5
  7

 75
    16
 76
     0
 77
     2
 78
   300
147
1.0
148
0.0
149
0.0
100
AcDbLayout
  1
Layout1
 70
     1
 71
     1
 10
0.0
 20
0.0
 11
12.0
 21
9.0
 12
0.0
 22
0.0
 32
0.0
 14
1.000000000000000E+20
 24
1.000000000000000E+20
 34
1.000000000000000E+20
 15
-1.000000000000000E+20
 25
-1.000000000000000E+20
 35
-1.000000000000000E+20
146
0.0
 13
0.0
 23
0.0
 33
0.0
 16
1.0
 26
0.0
 36
0.0
 17
0.0
 27
1.0
 37
0.0
 76
     0
330
1B
  0
LAYOUT
  5
26
102
{ACAD_REACTORS
330
1A
102
}
330
1A
100
AcDbPlotSettings
  1

  2
none_device
  4

  6

 40
0.0
 41
0.0
 42
0.0
 43
0.0
 44
0.0
 45
0.0
 46
0.0
 47
0.0
 48
0.0
 49
0.0
140
0.0
141
0.0
142
1.0
143
1.0
 70
   688
 72
     0
 73
     0
 74
     5
  7

 75
    16
 76
     0
 77
     2
 78
   300
147
1.0
148
0.0
149
0.0
100
AcDbLayout
  1
Layout2
 70
     1
 71
     2
 10
0.0
 20
0.0
 11
0.0
 21
0.0
 12
0.0
 22
0.0
 32
0.0
 14
0.0
 24
0.0
 34
0.0
 15
0.0
 25
0.0
 35
0.0
146
0.0
 13
0.0
 23
0.0
 33
0.0
 16
1.0
 26
0.0
 36
0.0
 17
0.0
 27
1.0
 37
0.0
 76
     0
330
23
  0
LAYOUT
  5
22
102
{ACAD_REACTORS
330
1A
102
}
330
1A
100
AcDbPlotSettings
  1

  2
none_device
  4

  6

 40
0.0
 41
0.0
 42
0.0
 43
0.0
 44
0.0
 45
0.0
 46
0.0
 47
0.0
 48
0.0
 49
0.0
140
0.0
141
0.0
142
1.0
143
1.0
 70
  1712
 72
     0
 73
     0
 74
     0
  7

 75
     0
 76
     0
 77
     2
 78
   300
147
1.0
148
0.0
149
0.0
100
AcDbLayout
  1
Model
 70
     1
 71
     0
 10
0.0
 20
0.0
 11
12.0
 21
9.0
 12
0.0
 22
0.0
 32
0.0
 14
1.000000000000000E+20
 24
1.000000000000000E+20
 34
1.000000000000000E+20
 15
-1.000000000000000E+20
 25
-1.000000000000000E+20
 35
-1.000000000000000E+20
146
0.0
 13
0.0
 23
0.0
 33
0.0
 16
1.0
 26
0.0
 36
0.0
 17
0.0
 27
1.0
 37
0.0
 76
     0
330
1F
331
29
  0
MLINESTYLE
  5
18
102
{ACAD_REACTORS
330
17
102
}
330
17
100
AcDbMlineStyle
  2
Standard
 70
     0
  3

 62
   256
 51
90.0
 52
90.0
 71
     2
 49
0.5
 62
   256
  6
BYLAYER
 49
-0.5
 62
   256
  6
BYLAYER
  0
ACDBPLACEHOLDER
  5
F
102
{ACAD_REACTORS
330
E
102
}
330
E
  0
VISUALSTYLE
  5
2F
102
{ACAD_REACTORS
330
2A
102
}
330
2A
100
AcDbVisualStyle
  2
2dWireframe
 70
     4
 71
     0
 72
     2
 73
     0
 90
        0
 40
-0.6
 41
-30.0
 62
     5
 63
     7
421
 16777215
 74
     1
 91
        4
 64
     7
 65
   257
 75
     1
175
     1
 42
1.0
 92
        0
 66
   257
 43
1.0
 76
     1
 77
     6
 78
     2
 67
     7
 79
     5
170
     0
171
     0
290
     0
174
     0
 93
        1
 44
0.0
173
     0
291
     0
 45
0.0
1001
ACAD
1000
AcDbSavedByObjectVersion
1070
     0
  0
VISUALSTYLE
  5
31
102
{ACAD_REACTORS
330
2A
102
}
330
2A
100
AcDbVisualStyle
  2
3D Hidden
 70
     6
 71
     1
 72
     2
 73
     2
 90
        0
 40
-0.6
 41
-30.0
 62
     5
 63
     7
421
 16777215
 74
     2
 91
        2
 64
     7
 65
   257
 75
     2
175
     1
 42
40.0
 92
        0
 66
   257
 43
1.0
 76
     1
 77
     6
 78
     2
 67
     7
 79
     3
170
     0
171
     0
290
     0
174
     0
 93
        1
 44
0.0
173
     0
291
     0
 45
0.0
1001
ACAD
1000
AcDbSavedByObjectVersion
1070
     0
  0
VISUALSTYLE
  5
30
102
{ACAD_REACTORS
330
2A
102
}
330
2A
100
AcDbVisualStyle
  2
3dWireframe
 70
     5
 71
     0
 72
     2
 73
     0
 90
        0
 40
-0.6
 41
-30.0
 62
     5
 63
     7
421
 16777215
 74
     1
 91
        4
 64
     7
 65
   257
 75
     1
175
     1
 42
1.0
 92
        0
 66
   257
 43
1.0
 76
     1
 77
     6
 78
     2
 67
     7
 79
     5
170
     0
171
     0
290
     0
174
     0
 93
        1
 44
0.0
173
     0
291
     0
 45
0.0
1001
ACAD
1000
AcDbSavedByObjectVersion
1070
     0
  0
VISUALSTYLE
  5
32
102
{ACAD_REACTORS
330
2A
102
}
330
2A
100
AcDbVisualStyle
  2
Basic
 70
     7
 71
     1
 72
     0
 73
     1
 90
        0
 40
-0.6
 41
-30.0
 62
     5
 63
     7
421
 16777215
 74
     0
 91
        4
 64
     7
 65
   257
 75
     1
175
     1
 42
1.0
 92
        8
 66
     7
 43
1.0
 76
     1
 77
     6
 78
     2
 67
     7
 79
     5
170
     0
171
     0
290
     0
174
     0
 93
        1
 44
0.0
173
     0
291
     1
 45
0.0
1001
ACAD
1000
AcDbSavedByObjectVersion
1070
     0
  0
VISUALSTYLE
  5
36
102
{ACAD_REACTORS
330
2A
102
}
330
2A
100
AcDbVisualStyle
  2
Brighten
 70
    12
 71
     2
 72
     2
 73
     0
 90
        0
 40
-0.6
 41
-30.0
 62
     5
 63
     7
421
 16777215
 74
     1
 91
        4
 64
     7
 65
   257
 75
     1
175
     1
 42
1.0
 92
        8
 66
     7
 43
1.0
 76
     1
 77
     6
 78
     2
 67
     7
 79
     5
170
     0
171
     0
290
     0
174
     0
 93
        1
 44
50.0
173
     0
291
     1
 45
0.0
1001
ACAD
1000
AcDbSavedByObjectVersion
1070
     0
  0
VISUALSTYLE
  5
3A
102
{ACAD_REACTORS
330
2A
102
}
330
2A
100
AcDbVisualStyle
  2
ColorChange
 70
    16
 71
     2
 72
     2
 73
     3
 90
        0
 40
-0.6
 41
-30.0
 62
     5
 63
     8
421
  8421504
 74
     1
 91
        4
 64
     7
 65
   257
 75
     1
175
     1
 42
1.0
 92
        8
 66
     8
424
  8421504
 43
1.0
 76
     1
 77
     6
 78
     2
 67
     7
 79
     5
170
     0
171
     0
290
     0
174
     0
 93
        1
 44
0.0
173
     0
291
     1
 45
0.0
1001
ACAD
1000
AcDbSavedByObjectVersion
1070
     0
  0
VISUALSTYLE
  5
34
102
{ACAD_REACTORS
330
2A
102
}
330
2A
100
AcDbVisualStyle
  2
Conceptual
 70
     9
 71
     3
 72
     2
 73
     0
 90
        0
 40
-0.6
 41
-30.0
 62
     5
 63
     7
421
 16777215
 74
     2
 91
        2
 64
     7
 65
   257
 75
     1
175
     1
 42
40.0
 92
        8
 66
     7
 43
1.0
 76
     1
 77
     6
 78
     2
 67
     7
 79
     3
170
     0
171
     0
290
     0
174
     0
 93
        1
 44
0.0
173
     0
291
     0
 45
0.0
1001
ACAD
1000
AcDbSavedByObjectVersion
1070
     0
  0
VISUALSTYLE
  5
35
102
{ACAD_REACTORS
330
2A
102
}
330
2A
100
AcDbVisualStyle
  2
Dim
 70
    11
 71
     2
 72
     2
 73
     0
 90
        0
 40
-0.6
 41
-30.0
 62
     5
 63
     7
421
 16777215
 74
     1
 91
        4
 64
     7
 65
   257
 75
     1
175
     1
 42
1.0
 92
        8
 66
     7
 43
1.0
 76
     1
 77
     6
 78
     2
 67
     7
 79
     5
170
     0
171
     0
290
     0
174
     0
 93
        1
 44
-50.0
173
     0
291
     1
 45
0.0
1001
ACAD
1000
AcDbSavedByObjectVersion
1070
     0
  0
VISUALSTYLE
  5
39
102
{ACAD_REACTORS
330
2A
102
}
330
2A
100
AcDbVisualStyle
  2
Facepattern
 70
    15
 71
     2
 72
     2
 73
     0
 90
        0
 40
-0.6
 41
-30.0
 62
     5
 63
     7
421
 16777215
 74
     1
 91
        4
 64
     7
 65
   257
 75
     1
175
     1
 42
1.0
 92
        8
 66
     7
 43
1.0
 76
     1
 77
     6
 78
     2
 67
     7
 79
     5
170
     0
171
     0
290
     0
174
     0
 93
        1
 44
0.0
173
     0
291
     1
 45
0.0
1001
ACAD
1000
AcDbSavedByObjectVersion
1070
     0
  0
VISUALSTYLE
  5
2B
102
{ACAD_REACTORS
330
2A
102
}
330
2A
100
AcDbVisualStyle
  2
Flat
 70
     0
 71
     2
 72
     1
 73
     1
 90
        2
 40
-0.6
 41
30.0
 62
     5
 63
     7
421
 16777215
 74
     0
 91
        4
 64
     7
 65
   257
 75
     1
175
     1
 42
1.0
 92
        8
 66
     7
 43
1.0
 76
     1
 77
     6
 78
     2
 67
     7
 79
     5
170
     0
171
     0
290
     0
174
     0
 93
       13
 44
0.0
173
     0
291
     1
 45
0.0
1001
ACAD
1000
AcDbSavedByObjectVersion
1070
     0
  0
VISUALSTYLE
  5
2C
102
{ACAD_REACTORS
330
2A
102
}
330
2A
100
AcDbVisualStyle
  2
FlatWithEdges
 70
     1
 71
     2
 72
     1
 73
     1
 90
        2
 40
-0.6
 41
30.0
 62
     5
 63
     7
421
 16777215
 74
     1
 91
        4
 64
     7
 65
   257
 75
     1
175
     1
 42
1.0
 92
        0
 66
   257
 43
1.0
 76
     1
 77
     6
 78
     2
 67
     7
 79
     5
170
     0
171
     0
290
     0
174
     0
 93
       13
 44
0.0
173
     0
291
     1
 45
0.0
1001
ACAD
1000
AcDbSavedByObjectVersion
1070
     0
  0
VISUALSTYLE
  5
2D
102
{ACAD_REACTORS
330
2A
102
}
330
2A
100
AcDbVisualStyle
  2
Gouraud
 70
     2
 71
     2
 72
     2
 73
     1
 90
        2
 40
-0.6
 41
30.0
 62
     5
 63
     7
421
 16777215
 74
     0
 91
        4
 64
     7
 65
   257
 75
     1
175
     1
 42
1.0
 92
        0
 66
     7
 43
1.0
 76
     1
 77
     6
 78
     2
 67
     7
 79
     5
170
     0
171
     0
290
     0
174
     0
 93
       13
 44
0.0
173
     0
291
     1
 45
0.0
1001
ACAD
1000
AcDbSavedByObjectVersion
1070
     0
  0
VISUALSTYLE
  5
2E
102
{ACAD_REACTORS
330
2A
102
}
330
2A
100
AcDbVisualStyle
  2
GouraudWithEdges
 70
     3
 71
     2
 72
     2
 73
     1
 90
        2
 40
-0.6
 41
30.0
 62
     5
 63
     7
421
 16777215
 74
     1
 91
        4
 64
     7
 65
   257
 75
     1
175
     1
 42
1.0
 92
        0
 66
   257
 43
1.0
 76
     1
 77
     6
 78
     2
 67
     7
 79
     5
170
     0
171
     0
290
     0
174
     0
 93
       13
 44
0.0
173
     0
291
     1
 45
0.0
1001
ACAD
1000
AcDbSavedByObjectVersion
1070
     0
  0
VISUALSTYLE
  5
38
102
{ACAD_REACTORS
330
2A
102
}
330
2A
100
AcDbVisualStyle
  2
Linepattern
 70
    14
 71
     2
 72
     2
 73
     0
 90
        0
 40
-0.6
 41
-30.0
 62
     5
 63
     7
421
 16777215
 74
     1
 91
        4
 64
     7
 65
   257
 75
     7
175
     7
 42
1.0
 92
        8
 66
     7
 43
1.0
 76
     1
 77
     6
 78
     2
 67
     7
 79
     5
170
     0
171
     0
290
     0
174
     0
 93
        1
 44
0.0
173
     0
291
     1
 45
0.0
1001
ACAD
1000
AcDbSavedByObjectVersion
1070
     0
  0
VISUALSTYLE
  5
33
102
{ACAD_REACTORS
330
2A
102
}
330
2A
100
AcDbVisualStyle
  2
Realistic
 70
     8
 71
     2
 72
     2
 73
     0
 90
        0
 40
-0.6
 41
-30.0
 62
     5
 63
     7
421
 16777215
 74
     1
 91
        0
 64
     7
 65
   257
 75
     1
175
     1
 42
1.0
 92
        8
 66
     8
424
  7895160
 43
1.0
 76
     1
 77
     6
 78
     2
 67
     7
 79
     5
170
     0
171
     0
290
     0
174
     0
 93
       13
 44
0.0
173
     0
291
     0
 45
0.0
1001
ACAD
1000
AcDbSavedByObjectVersion
1070
     0
  0
VISUALSTYLE
  5
37
102
{ACAD_REACTORS
330
2A
102
}
330
2A
100
AcDbVisualStyle
  2
Thicken
 70
    13
 71
     2
 72
     2
 73
     0
 90
        0
 40
-0.6
 41
-30.0
 62
     5
 63
     7
421
 16777215
 74
     1
 91
        4
 64
     7
 65
   257
 75
     1
175
     1
 42
1.0
 92
       12
 66
     7
 43
1.0
 76
     1
 77
     6
 78
     2
 67
     7
 79
     5
170
     0
171
     0
290
     0
174
     0
 93
        1
 44
0.0
173
     0
291
     1
 45
0.0
1001
ACAD
1000
AcDbSavedByObjectVersion
1070
     0
  0
ENDSEC
  0
EOF
