  0
SECTION
  2
HEADER
  9
$ACADVER
  1
AC1024
  9
$ACADMAINTVER
 70
     6
  9
$DWGCODEPAGE
  3
ANSI_1252
  9
$INSBASE
 10
0.0
 20
0.0
 30
0.0
  9
$EXTMIN
 10
1.000000000000000E+20
 20
1.000000000000000E+20
 30
1.000000000000000E+20
  9
$EXTMAX
 10
-1.000000000000000E+20
 20
-1.000000000000000E+20
 30
-1.000000000000000E+20
  9
$LIMMIN
 10
0.0
 20
0.0
  9
$LIMMAX
 10
12.0
 20
9.0
  9
$ORTHOMODE
 70
     0
  9
$REGENMODE
 70
     1
  9
$FILLMODE
 70
     1
  9
$QTEXTMODE
 70
     0
  9
$MIRRTEXT
 70
     1
  9
$LTSCALE
 40
1.0
  9
$ATTMODE
 70
     1
  9
$TEXTSIZE
 40
0.2
  9
$TRACEWID
 40
0.05
  9
$TEXTSTYLE
  7
Standard
  9
$CLAYER
  8
0
  9
$CELTYPE
  6
ByLayer
  9
$CECOLOR
 62
   256
  9
$CELTSCALE
 40
1.0
  9
$DISPSILH
 70
     0
  9
$DIMSCALE
 40
1.0
  9
$DIMASZ
 40
0.18
  9
$DIMEXO
 40
0.0625
  9
$DIMDLI
 40
0.38
  9
$DIMRND
 40
0.0
  9
$DIMDLE
 40
0.0
  9
$DIMEXE
 40
0.18
  9
$DIMTP
 40
0.0
  9
$DIMTM
 40
0.0
  9
$DIMTXT
 40
0.18
  9
$DIMCEN
 40
0.09
  9
$DIMTSZ
 40
0.0
  9
$DIMTOL
 70
     0
  9
$DIMLIM
 70
     0
  9
$DIMTIH
 70
     1
  9
$DIMTOH
 70
     1
  9
$DIMSE1
 70
     0
  9
$DIMSE2
 70
     0
  9
$DIMTAD
 70
     0
  9
$DIMZIN
 70
     0
  9
$DIMBLK
  1

  9
$DIMASO
 70
     1
  9
$DIMSHO
 70
     1
  9
$DIMPOST
  1

  9
$DIMAPOST
  1

  9
$DIMALT
 70
     0
  9
$DIMALTD
 70
     2
  9
$DIMALTF
 40
25.4
  9
$DIMLFAC
 40
1.0
  9
$DIMTOFL
 70
     0
  9
$DIMTVP
 40
0.0
  9
$DIMTIX
 70
     0
  9
$DIMSOXD
 70
     0
  9
$DIMSAH
 70
     0
  9
$DIMBLK1
  1

  9
$DIMBLK2
  1

  9
$DIMSTYLE
  2
Standard
  9
$DIMCLRD
 70
     0
  9
$DIMCLRE
 70
     0
  9
$DIMCLRT
 70
     0
  9
$DIMTFAC
 40
1.0
  9
$DIMGAP
 40
0.09
  9
$DIMJUST
 70
     0
  9
$DIMSD1
 70
     0
  9
$DIMSD2
 70
     0
  9
$DIMTOLJ
 70
     1
  9
$DIMTZIN
 70
     0
  9
$DIMALTZ
 70
     0
  9
$DIMALTTZ
 70
     0
  9
$DIMUPT
 70
     0
  9
$DIMDEC
 70
     4
  9
$DIMTDEC
 70
     4
  9
$DIMALTU
 70
     2
  9
$DIMALTTD
 70
     2
  9
$DIMTXSTY
  7
Standard
  9
$DIMAUNIT
 70
     0
  9
$DIMADEC
 70
     0
  9
$DIMALTRND
 40
0.0
  9
$DIMAZIN
 70
     0
  9
$DIMDSEP
 70
    46
  9
$DIMATFIT
 70
     3
  9
$DIMFRAC
 70
     0
  9
$DIMLDRBLK
  1

  9
$DIMLUNIT
 70
     2
  9
$DIMLWD
 70
    -2
  9
$DIMLWE
 70
    -2
  9
$DIMTMOVE
 70
     0
  9
$DIMFXL
 40
1.0
  9
$DIMFXLON
 70
     0
  9
$DIMJOGANG
 40
0.7853981633974483
  9
$DIMTFILL
 70
     0
  9
$DIMTFILLCLR
 70
     0
  9
$DIMARCSYM
 70
     0
  9
$DIMLTYPE
  6

  9
$DIMLTEX1
  6

  9
$DIMLTEX2
  6

  9
$DIMTXTDIRECTION
 70
     0
  9
$LUNITS
 70
     2
  9
$LUPREC
 70
     4
  9
$SKETCHINC
 40
0.1
  9
$FILLETRAD
 40
0.5
  9
$AUNITS
 70
     0
  9
$AUPREC
 70
     0
  9
$MENU
  1
.
  9
$ELEVATION
 40
0.0
  9
$PELEVATION
 40
0.0
  9
$THICKNESS
 40
0.0
  9
$LIMCHECK
 70
     0
  9
$CHAMFERA
 40
0.5
  9
$CHAMFERB
 40
0.5
  9
$CHAMFERC
 40
1.0
  9
$CHAMFERD
 40
0.0
  9
$SKPOLY
 70
     0
  9
$TDCREATE
 40
2458546.514138518
  9
$TDUCREATE
 40
2458546.472471852
  9
$TDUPDATE
 40
2458546.514139421
  9
$TDUUPDATE
 40
2458546.472472755
  9
$TDINDWG
 40
0.0000000116
  9
$TDUSRTIMER
 40
0.0000000116
  9
$USRTIMER
 70
     1
  9
$ANGBASE
 50
0.0
  9
$ANGDIR
 70
     0
  9
$PDMODE
 70
     0
  9
$PDSIZE
 40
0.0
  9
$PLINEWID
 40
0.0
  9
$SPLFRAME
 70
     0
  9
$SPLINETYPE
 70
     6
  9
$SPLINESEGS
 70
     8
  9
$HANDSEED
  5
64E
  9
$SURFTAB1
 70
     6
  9
$SURFTAB2
 70
     6
  9
$SURFTYPE
 70
     6
  9
$SURFU
 70
     6
  9
$SURFV
 70
     6
  9
$UCSBASE
  2

  9
$UCSNAME
  2

  9
$UCSORG
 10
0.0
 20
0.0
 30
0.0
  9
$UCSXDIR
 10
1.0
 20
0.0
 30
0.0
  9
$UCSYDIR
 10
0.0
 20
1.0
 30
0.0
  9
$UCSORTHOREF
  2

  9
$UCSORTHOVIEW
 70
     0
  9
$UCSORGTOP
 10
0.0
 20
0.0
 30
0.0
  9
$UCSORGBOTTOM
 10
0.0
 20
0.0
 30
0.0
  9
$UCSORGLEFT
 10
0.0
 20
0.0
 30
0.0
  9
$UCSORGRIGHT
 10
0.0
 20
0.0
 30
0.0
  9
$UCSORGFRONT
 10
0.0
 20
0.0
 30
0.0
  9
$UCSORGBACK
 10
0.0
 20
0.0
 30
0.0
  9
$PUCSBASE
  2

  9
$PUCSNAME
  2

  9
$PUCSORG
 10
0.0
 20
0.0
 30
0.0
  9
$PUCSXDIR
 10
1.0
 20
0.0
 30
0.0
  9
$PUCSYDIR
 10
0.0
 20
1.0
 30
0.0
  9
$PUCSORTHOREF
  2

  9
$PUCSORTHOVIEW
 70
     0
  9
$PUCSORGTOP
 10
0.0
 20
0.0
 30
0.0
  9
$PUCSORGBOTTOM
 10
0.0
 20
0.0
 30
0.0
  9
$PUCSORGLEFT
 10
0.0
 20
0.0
 30
0.0
  9
$PUCSORGRIGHT
 10
0.0
 20
0.0
 30
0.0
  9
$PUCSORGFRONT
 10
0.0
 20
0.0
 30
0.0
  9
$PUCSORGBACK
 10
0.0
 20
0.0
 30
0.0
  9
$USERI1
 70
     0
  9
$USERI2
 70
     0
  9
$USERI3
 70
     0
  9
$USERI4
 70
     0
  9
$USERI5
 70
     0
  9
$USERR1
 40
0.0
  9
$USERR2
 40
0.0
  9
$USERR3
 40
0.0
  9
$USERR4
 40
0.0
  9
$USERR5
 40
0.0
  9
$WORLDVIEW
 70
     1
  9
$SHADEDGE
 70
     3
  9
$SHADEDIF
 70
    70
  9
$TILEMODE
 70
     1
  9
$MAXACTVP
 70
    64
  9
$PINSBASE
 10
0.0
 20
0.0
 30
0.0
  9
$PLIMCHECK
 70
     0
  9
$PEXTMIN
 10
1.000000000000000E+20
 20
1.000000000000000E+20
 30
1.000000000000000E+20
  9
$PEXTMAX
 10
-1.000000000000000E+20
 20
-1.000000000000000E+20
 30
-1.000000000000000E+20
  9
$PLIMMIN
 10
0.0
 20
0.0
  9
$PLIMMAX
 10
12.0
 20
9.0
  9
$UNITMODE
 70
     0
  9
$VISRETAIN
 70
     1
  9
$PLINEGEN
 70
     0
  9
$PSLTSCALE
 70
     1
  9
$TREEDEPTH
 70
  3020
  9
$CMLSTYLE
  2
Standard
  9
$CMLJUST
 70
     0
  9
$CMLSCALE
 40
1.0
  9
$PROXYGRAPHICS
 70
     1
  9
$MEASUREMENT
 70
     0
  9
$CELWEIGHT
370
    -1
  9
$ENDCAPS
280
     0
  9
$JOINSTYLE
280
     0
  9
$LWDISPLAY
290
     1
  9
$INSUNITS
 70
     1
  9
$HYPERLINKBASE
  1

  9
$STYLESHEET
  1

  9
$XEDIT
290
     1
  9
$CEPSNTYPE
380
     0
  9
$PSTYLEMODE
290
     1
  9
$FINGERPRINTGUID
  2
{38BA1887-9D18-4B23-8791-5BC0F9984234}
  9
$VERSIONGUID
  2
{FAEB1C32-E019-11D5-929B-00C0DF256EC4}
  9
$EXTNAMES
290
     1
  9
$PSVPSCALE
 40
0.0
  9
$OLESTARTUP
290
     0
  9
$SORTENTS
280
   127
  9
$INDEXCTL
280
     0
  9
$HIDETEXT
280
     1
  9
$XCLIPFRAME
280
     2
  9
$HALOGAP
280
     0
  9
$OBSCOLOR
 70
   257
  9
$OBSLTYPE
280
     0
  9
$INTERSECTIONDISPLAY
280
     0
  9
$INTERSECTIONCOLOR
 70
   257
  9
$DIMASSOC
280
     2
  9
$PROJECTNAME
  1

  9
$CAMERADISPLAY
290
     0
  9
$LENSLENGTH
 40
50.0
  9
$CAMERAHEIGHT
 40
0.0
  9
$STEPSPERSEC
 40
2.0
  9
$STEPSIZE
 40
6.0
  9
$3DDWFPREC
 40
2.0
  9
$PSOLWIDTH
 40
0.25
  9
$PSOLHEIGHT
 40
4.0
  9
$LOFTANG1
 40
1.570796326794897
  9
$LOFTANG2
 40
1.570796326794897
  9
$LOFTMAG1
 40
0.0
  9
$LOFTMAG2
 40
0.0
  9
$LOFTPARAM
 70
     7
  9
$LOFTNORMALS
280
     1
  9
$LATITUDE
 40
37.795
  9
$LONGITUDE
 40
-122.394
  9
$NORTHDIRECTION
 40
0.0
  9
$TIMEZONE
 70
 -8000
  9
$LIGHTGLYPHDISPLAY
280
     1
  9
$TILEMODELIGHTSYNCH
280
     1
  9
$CMATERIAL
347
3C
  9
$SOLIDHIST
280
     1
  9
$SHOWHIST
280
     1
  9
$DWFFRAME
280
     2
  9
$DGNFRAME
280
     2
  9
$REALWORLDSCALE
290
     1
  9
$INTERFERECOLOR
 62
   256
  9
$CSHADOW
280
     0
  9
$SHADOWPLANELOCATION
 40
0.0
  0
ENDSEC
  0
SECTION
  2
CLASSES
  0
CLASS
  1
ACDBDICTIONARYWDFLT
  2
AcDbDictionaryWithDefault
  3
ObjectDBX Classes
 90
        0
 91
        4
280
     0
281
     0
  0
CLASS
  1
VISUALSTYLE
  2
AcDbVisualStyle
  3
ObjectDBX Classes
 90
     4095
 91
        4
280
     0
281
     0
  0
CLASS
  1
MATERIAL
  2
AcDbMaterial
  3
ObjectDBX Classes
 90
     1153
 91
        4
280
     0
281
     0
  0
CLASS
  1
SUN
  2
AcDbSun
  3
SCENEOE
 90
     1024
 91
        4
280
     0
281
     0
  0
ENDSEC
  0
SECTION
  2
TABLES
  0
TABLE
  2
VPORT
  5
8
330
0
100
AcDbSymbolTable
 70
     1
  0
VPORT
  5
29
330
8
100
AcDbSymbolTableRecord
100
AcDbViewportTableRecord
  2
*Active
 70
     0
 10
0.0
 20
0.0
 11
1.0
 21
1.0
 12
0.0
 22
0.0
 13
0.0
 23
0.0
 14
0.5
 24
0.5
 15
0.5
 25
0.5
 16
0.0
 26
0.0
 36
1.0
 17
105.0007777515277
 27
148.5000416295417
 37
0.0
 40
297.0000832590835
 41
0.7070757462376325
 42
50.0
 43
0.0
 44
0.0
 50
0.0
 51
0.0
 71
     0
 72
   100
 73
     1
 74
     3
 75
     0
 76
     0
 77
     0
 78
     0
281
     0
 65
     1
110
0.0
120
0.0
130
0.0
111
1.0
121
0.0
131
0.0
112
0.0
122
1.0
132
0.0
 79
     0
146
0.0
 60
     3
 61
     5
292
     1
282
     1
141
0.0
142
0.0
 63
   250
361
3F
  0
ENDTAB
  0
TABLE
  2
LTYPE
  5
5
330
0
100
AcDbSymbolTable
 70
     4
  0
LTYPE
  5
14
330
5
100
AcDbSymbolTableRecord
100
AcDbLinetypeTableRecord
  2
ByBlock
 70
     0
  3

 72
    65
 73
     0
 40
0.0
  0
LTYPE
  5
15
330
5
100
AcDbSymbolTableRecord
100
AcDbLinetypeTableRecord
  2
ByLayer
 70
     0
  3

 72
    65
 73
     0
 40
0.0
  0
LTYPE
  5
16
330
5
100
AcDbSymbolTableRecord
100
AcDbLinetypeTableRecord
  2
Continuous
 70
     0
  3
Solid line
 72
    65
 73
     0
 40
0.0
  0
LTYPE
  5
4BC
330
5
100
AcDbSymbolTableRecord
100
AcDbLinetypeTableRecord
  2
AI-Linetype-1
 70
     0
  3
Adobe Illustrator Linetype No. 1
 72
    65
 73
     4
 40
1.445094003555134
 49
0.7207831129285451
 74
     0
 49
-0.3603915564642726
 74
     0
 49
0.0035277776980439
 74
     0
 49
-0.3603915564642726
 74
     0
  0
LTYPE
  5
4C5
330
5
100
AcDbSymbolTableRecord
100
AcDbLinetypeTableRecord
  2
AI-Linetype-2
 70
     0
  3
Adobe Illustrator Linetype No. 2
 72
    65
 73
     4
 40
1.445094003555134
 49
0.7207831129285451
 74
     0
 49
-0.3603915564642726
 74
     0
 49
0.0035277776980439
 74
     0
 49
-0.3603915564642726
 74
     0
  0
LTYPE
  5
4CE
330
5
100
AcDbSymbolTableRecord
100
AcDbLinetypeTableRecord
  2
AI-Linetype-3
 70
     0
  3
Adobe Illustrator Linetype No. 3
 72
    65
 73
     4
 40
1.445094003555134
 49
0.7207831129285451
 74
     0
 49
-0.3603915564642726
 74
     0
 49
0.0035277776980439
 74
     0
 49
-0.3603915564642726
 74
     0
  0
ENDTAB
  0
TABLE
  2
LAYER
  5
2
330
0
100
AcDbSymbolTable
 70
    11
  0
LAYER
  5
10
330
2
100
AcDbSymbolTableRecord
100
AcDbLayerTableRecord
  2
0
 70
     0
 62
     7
  6
Continuous
370
    -3
390
F
347
3E
  0
LAYER
  5
40
330
2
100
AcDbSymbolTableRecord
100
AcDbLayerTableRecord
  2
CAJETIN
 70
     0
 62
     7
  6
Continuous
370
    -3
390
F
347
3E
  0
LAYER
  5
41
330
2
100
AcDbSymbolTableRecord
100
AcDbLayerTableRecord
  2
TITULOS
 70
     0
 62
     7
  6
Continuous
370
    -3
390
F
347
3E
  0
LAYER
  5
42
330
2
100
AcDbSymbolTableRecord
100
AcDbLayerTableRecord
  2
TEXTO
 70
     0
 62
     7
  6
Continuous
370
    -3
390
F
347
3E
  0
LAYER
  5
43
330
2
100
AcDbSymbolTableRecord
100
AcDbLayerTableRecord
  2
REVIS_U+00D5ES
 70
     0
 62
     7
  6
Continuous
370
    -3
390
F
347
3E
  0
LAYER
  5
44
330
2
100
AcDbSymbolTableRecord
100
AcDbLayerTableRecord
  2
PIEZA
 70
     0
 62
     7
  6
Continuous
370
    -3
390
F
347
3E
  0
LAYER
  5
4B4
330
2
100
AcDbSymbolTableRecord
100
AcDbLayerTableRecord
  2
Eixos
 70
     0
 62
     7
  6
Continuous
370
    -3
390
F
347
3E
  0
LAYER
  5
4D0
330
2
100
AcDbSymbolTableRecord
100
AcDbLayerTableRecord
  2
trama-1
 70
     0
 62
     7
  6
Continuous
370
    -3
390
F
347
3E
  0
LAYER
  5
4D1
330
2
100
AcDbSymbolTableRecord
100
AcDbLayerTableRecord
  2
SOMBREA
 70
     0
 62
     7
  6
Continuous
370
    -3
390
F
347
3E
  0
LAYER
  5
4D2
330
2
100
AcDbSymbolTableRecord
100
AcDbLayerTableRecord
  2
COTAS
 70
     0
 62
     7
  6
Continuous
370
    -3
390
F
347
3E
  0
LAYER
  5
5D2
330
2
100
AcDbSymbolTableRecord
100
AcDbLayerTableRecord
  2
DEFPOINTS
 70
     0
 62
     7
  6
Continuous
290
     0
370
    -3
390
F
347
3E
  0
ENDTAB
  0
TABLE
  2
STYLE
  5
3
330
0
100
AcDbSymbolTable
 70
     1
  0
STYLE
  5
11
330
3
100
AcDbSymbolTableRecord
100
AcDbTextStyleTableRecord
  2
Standard
 70
     0
 40
0.0
 41
1.0
 50
0.0
 71
     0
 42
0.2
  3
txt
  4

  0
ENDTAB
  0
TABLE
  2
VIEW
  5
6
330
0
100
AcDbSymbolTable
 70
     0
  0
ENDTAB
  0
TABLE
  2
UCS
  5
7
330
0
100
AcDbSymbolTable
 70
     0
  0
ENDTAB
  0
TABLE
  2
APPID
  5
9
330
0
100
AcDbSymbolTable
 70
     1
  0
APPID
  5
12
330
9
100
AcDbSymbolTableRecord
100
AcDbRegAppTableRecord
  2
ACAD
 70
     0
  0
ENDTAB
  0
TABLE
  2
DIMSTYLE
  5
A
330
0
100
AcDbSymbolTable
 70
     1
100
AcDbDimStyleTable
  0
DIMSTYLE
105
27
330
A
100
AcDbSymbolTableRecord
100
AcDbDimStyleTableRecord
  2
Standard
 70
     0
178
     0
340
11
  0
ENDTAB
  0
TABLE
  2
BLOCK_RECORD
  5
1
330
0
100
AcDbSymbolTable
 70
   191
  0
BLOCK_RECORD
  5
1F
330
1
100
AcDbSymbolTableRecord
100
AcDbBlockTableRecord
  2
*Model_Space
340
22
 70
     0
280
     1
281
     0
  0
BLOCK_RECORD
  5
1B
330
1
100
AcDbSymbolTableRecord
100
AcDbBlockTableRecord
  2
*Paper_Space
340
1E
 70
     0
280
     1
281
     0
  0
BLOCK_RECORD
  5
23
330
1
100
AcDbSymbolTableRecord
100
AcDbBlockTableRecord
  2
*Paper_Space0
340
26
 70
     0
280
     1
281
     0
  0
BLOCK_RECORD
  5
45
330
1
100
AcDbSymbolTableRecord
100
AcDbBlockTableRecord
  2
block 2
340
0
102
{BLKREFS
331
46
102
}
 70
     0
280
     1
281
     0
  0
BLOCK_RECORD
  5
4A
330
1
100
AcDbSymbolTableRecord
100
AcDbBlockTableRecord
  2
block 3
340
0
102
{BLKREFS
331
4B
102
}
 70
     0
280
     1
281
     0
  0
BLOCK_RECORD
  5
52
330
1
100
AcDbSymbolTableRecord
100
AcDbBlockTableRecord
  2
block 4
340
0
102
{BLKREFS
331
53
102
}
 70
     0
280
     1
281
     0
  0
BLOCK_RECORD
  5
5A
330
1
100
AcDbSymbolTableRecord
100
AcDbBlockTableRecord
  2
block 5
340
0
102
{BLKREFS
331
5B
102
}
 70
     0
280
     1
281
     0
  0
BLOCK_RECORD
  5
5F
330
1
100
AcDbSymbolTableRecord
100
AcDbBlockTableRecord
  2
block 6
340
0
102
{BLKREFS
331
60
102
}
 70
     0
280
     1
281
     0
  0
BLOCK_RECORD
  5
67
330
1
100
AcDbSymbolTableRecord
100
AcDbBlockTableRecord
  2
block 7
340
0
102
{BLKREFS
331
68
102
}
 70
     0
280
     1
281
     0
  0
BLOCK_RECORD
  5
6C
330
1
100
AcDbSymbolTableRecord
100
AcDbBlockTableRecord
  2
block 8
340
0
102
{BLKREFS
331
6D
102
}
 70
     0
280
     1
281
     0
  0
BLOCK_RECORD
  5
A5
330
1
100
AcDbSymbolTableRecord
100
AcDbBlockTableRecord
  2
block 9
340
0
102
{BLKREFS
331
A6
102
}
 70
     0
280
     1
281
     0
  0
BLOCK_RECORD
  5
AD
330
1
100
AcDbSymbolTableRecord
100
AcDbBlockTableRecord
  2
block 10
340
0
102
{BLKREFS
331
AE
102
}
 70
     0
280
     1
281
     0
  0
BLOCK_RECORD
  5
B5
330
1
100
AcDbSymbolTableRecord
100
AcDbBlockTableRecord
  2
block 11
340
0
102
{BLKREFS
331
B6
102
}
 70
     0
280
     1
281
     0
  0
BLOCK_RECORD
  5
BA
330
1
100
AcDbSymbolTableRecord
100
AcDbBlockTableRecord
  2
block 12
340
0
102
{BLKREFS
331
BB
102
}
 70
     0
280
     1
281
     0
  0
BLOCK_RECORD
  5
C2
330
1
100
AcDbSymbolTableRecord
100
AcDbBlockTableRecord
  2
block 13
340
0
102
{BLKREFS
331
C3
102
}
 70
     0
280
     1
281
     0
  0
BLOCK_RECORD
  5
C7
330
1
100
AcDbSymbolTableRecord
100
AcDbBlockTableRecord
  2
block 14
340
0
102
{BLKREFS
331
C8
102
}
 70
     0
280
     1
281
     0
  0
BLOCK_RECORD
  5
CF
330
1
100
AcDbSymbolTableRecord
100
AcDbBlockTableRecord
  2
block 15
340
0
102
{BLKREFS
331
D0
102
}
 70
     0
280
     1
281
     0
  0
BLOCK_RECORD
  5
D7
330
1
100
AcDbSymbolTableRecord
100
AcDbBlockTableRecord
  2
block 16
340
0
102
{BLKREFS
331
D8
102
}
 70
     0
280
     1
281
     0
  0
BLOCK_RECORD
  5
DF
330
1
100
AcDbSymbolTableRecord
100
AcDbBlockTableRecord
  2
block 17
340
0
102
{BLKREFS
331
E0
102
}
 70
     0
280
     1
281
     0
  0
BLOCK_RECORD
  5
E7
330
1
100
AcDbSymbolTableRecord
100
AcDbBlockTableRecord
  2
block 18
340
0
102
{BLKREFS
331
E8
102
}
 70
     0
280
     1
281
     0
  0
BLOCK_RECORD
  5
EF
330
1
100
AcDbSymbolTableRecord
100
AcDbBlockTableRecord
  2
block 19
340
0
102
{BLKREFS
331
F0
102
}
 70
     0
280
     1
281
     0
  0
BLOCK_RECORD
  5
F5
330
1
100
AcDbSymbolTableRecord
100
AcDbBlockTableRecord
  2
block 20
340
0
102
{BLKREFS
331
F6
102
}
 70
     0
280
     1
281
     0
  0
BLOCK_RECORD
  5
FD
330
1
100
AcDbSymbolTableRecord
100
AcDbBlockTableRecord
  2
block 21
340
0
102
{BLKREFS
331
FE
102
}
 70
     0
280
     1
281
     0
  0
BLOCK_RECORD
  5
105
330
1
100
AcDbSymbolTableRecord
100
AcDbBlockTableRecord
  2
block 22
340
0
102
{BLKREFS
331
106
102
}
 70
     0
280
     1
281
     0
  0
BLOCK_RECORD
  5
10D
330
1
100
AcDbSymbolTableRecord
100
AcDbBlockTableRecord
  2
block 23
340
0
102
{BLKREFS
331
10E
102
}
 70
     0
280
     1
281
     0
  0
BLOCK_RECORD
  5
115
330
1
100
AcDbSymbolTableRecord
100
AcDbBlockTableRecord
  2
block 24
340
0
102
{BLKREFS
331
116
102
}
 70
     0
280
     1
281
     0
  0
BLOCK_RECORD
  5
11D
330
1
100
AcDbSymbolTableRecord
100
AcDbBlockTableRecord
  2
block 25
340
0
102
{BLKREFS
331
11E
102
}
 70
     0
280
     1
281
     0
  0
BLOCK_RECORD
  5
125
330
1
100
AcDbSymbolTableRecord
100
AcDbBlockTableRecord
  2
block 26
340
0
102
{BLKREFS
331
126
102
}
 70
     0
280
     1
281
     0
  0
BLOCK_RECORD
  5
12A
330
1
100
AcDbSymbolTableRecord
100
AcDbBlockTableRecord
  2
block 27
340
0
102
{BLKREFS
331
12B
102
}
 70
     0
280
     1
281
     0
  0
BLOCK_RECORD
  5
12F
330
1
100
AcDbSymbolTableRecord
100
AcDbBlockTableRecord
  2
block 28
340
0
102
{BLKREFS
331
130
102
}
 70
     0
280
     1
281
     0
  0
BLOCK_RECORD
  5
137
330
1
100
AcDbSymbolTableRecord
100
AcDbBlockTableRecord
  2
block 29
340
0
102
{BLKREFS
331
138
102
}
 70
     0
280
     1
281
     0
  0
BLOCK_RECORD
  5
13C
330
1
100
AcDbSymbolTableRecord
100
AcDbBlockTableRecord
  2
block 30
340
0
102
{BLKREFS
331
13D
102
}
 70
     0
280
     1
281
     0
  0
BLOCK_RECORD
  5
144
330
1
100
AcDbSymbolTableRecord
100
AcDbBlockTableRecord
  2
block 31
340
0
102
{BLKREFS
331
145
102
}
 70
     0
280
     1
281
     0
  0
BLOCK_RECORD
  5
149
330
1
100
AcDbSymbolTableRecord
100
AcDbBlockTableRecord
  2
block 32
340
0
102
{BLKREFS
331
14A
102
}
 70
     0
280
     1
281
     0
  0
BLOCK_RECORD
  5
14E
330
1
100
AcDbSymbolTableRecord
100
AcDbBlockTableRecord
  2
block 33
340
0
102
{BLKREFS
331
14F
102
}
 70
     0
280
     1
281
     0
  0
BLOCK_RECORD
  5
153
330
1
100
AcDbSymbolTableRecord
100
AcDbBlockTableRecord
  2
block 34
340
0
102
{BLKREFS
331
154
102
}
 70
     0
280
     1
281
     0
  0
BLOCK_RECORD
  5
15B
330
1
100
AcDbSymbolTableRecord
100
AcDbBlockTableRecord
  2
block 35
340
0
102
{BLKREFS
331
15C
102
}
 70
     0
280
     1
281
     0
  0
BLOCK_RECORD
  5
19F
330
1
100
AcDbSymbolTableRecord
100
AcDbBlockTableRecord
  2
block 36
340
0
102
{BLKREFS
331
1A0
102
}
 70
     0
280
     1
281
     0
  0
BLOCK_RECORD
  5
1A7
330
1
100
AcDbSymbolTableRecord
100
AcDbBlockTableRecord
  2
block 37
340
0
102
{BLKREFS
331
1A8
102
}
 70
     0
280
     1
281
     0
  0
BLOCK_RECORD
  5
1AC
330
1
100
AcDbSymbolTableRecord
100
AcDbBlockTableRecord
  2
block 38
340
0
102
{BLKREFS
331
1AD
102
}
 70
     0
280
     1
281
     0
  0
BLOCK_RECORD
  5
1B4
330
1
100
AcDbSymbolTableRecord
100
AcDbBlockTableRecord
  2
block 39
340
0
102
{BLKREFS
331
1B5
102
}
 70
     0
280
     1
281
     0
  0
BLOCK_RECORD
  5
1B9
330
1
100
AcDbSymbolTableRecord
100
AcDbBlockTableRecord
  2
block 40
340
0
102
{BLKREFS
331
1BA
102
}
 70
     0
280
     1
281
     0
  0
BLOCK_RECORD
  5
1C1
330
1
100
AcDbSymbolTableRecord
100
AcDbBlockTableRecord
  2
block 41
340
0
102
{BLKREFS
331
1C2
102
}
 70
     0
280
     1
281
     0
  0
BLOCK_RECORD
  5
1C6
330
1
100
AcDbSymbolTableRecord
100
AcDbBlockTableRecord
  2
block 42
340
0
102
{BLKREFS
331
1C7
102
}
 70
     0
280
     1
281
     0
  0
BLOCK_RECORD
  5
1CE
330
1
100
AcDbSymbolTableRecord
100
AcDbBlockTableRecord
  2
block 43
340
0
102
{BLKREFS
331
1CF
102
}
 70
     0
280
     1
281
     0
  0
BLOCK_RECORD
  5
1D6
330
1
100
AcDbSymbolTableRecord
100
AcDbBlockTableRecord
  2
block 44
340
0
102
{BLKREFS
331
1D7
102
}
 70
     0
280
     1
281
     0
  0
BLOCK_RECORD
  5
1DE
330
1
100
AcDbSymbolTableRecord
100
AcDbBlockTableRecord
  2
block 45
340
0
102
{BLKREFS
331
1DF
102
}
 70
     0
280
     1
281
     0
  0
BLOCK_RECORD
  5
1E3
330
1
100
AcDbSymbolTableRecord
100
AcDbBlockTableRecord
  2
block 46
340
0
102
{BLKREFS
331
1E4
102
}
 70
     0
280
     1
281
     0
  0
BLOCK_RECORD
  5
1EB
330
1
100
AcDbSymbolTableRecord
100
AcDbBlockTableRecord
  2
block 47
340
0
102
{BLKREFS
331
1EC
102
}
 70
     0
280
     1
281
     0
  0
BLOCK_RECORD
  5
1F3
330
1
100
AcDbSymbolTableRecord
100
AcDbBlockTableRecord
  2
block 48
340
0
102
{BLKREFS
331
1F4
102
}
 70
     0
280
     1
281
     0
  0
BLOCK_RECORD
  5
1FB
330
1
100
AcDbSymbolTableRecord
100
AcDbBlockTableRecord
  2
block 49
340
0
102
{BLKREFS
331
1FC
102
}
 70
     0
280
     1
281
     0
  0
BLOCK_RECORD
  5
200
330
1
100
AcDbSymbolTableRecord
100
AcDbBlockTableRecord
  2
block 50
340
0
102
{BLKREFS
331
201
102
}
 70
     0
280
     1
281
     0
  0
BLOCK_RECORD
  5
208
330
1
100
AcDbSymbolTableRecord
100
AcDbBlockTableRecord
  2
block 51
340
0
102
{BLKREFS
331
209
102
}
 70
     0
280
     1
281
     0
  0
BLOCK_RECORD
  5
20D
330
1
100
AcDbSymbolTableRecord
100
AcDbBlockTableRecord
  2
block 52
340
0
102
{BLKREFS
331
20E
102
}
 70
     0
280
     1
281
     0
  0
BLOCK_RECORD
  5
215
330
1
100
AcDbSymbolTableRecord
100
AcDbBlockTableRecord
  2
block 53
340
0
102
{BLKREFS
331
216
102
}
 70
     0
280
     1
281
     0
  0
BLOCK_RECORD
  5
21D
330
1
100
AcDbSymbolTableRecord
100
AcDbBlockTableRecord
  2
block 54
340
0
102
{BLKREFS
331
21E
102
}
 70
     0
280
     1
281
     0
  0
BLOCK_RECORD
  5
225
330
1
100
AcDbSymbolTableRecord
100
AcDbBlockTableRecord
  2
block 55
340
0
102
{BLKREFS
331
226
102
}
 70
     0
280
     1
281
     0
  0
BLOCK_RECORD
  5
22D
330
1
100
AcDbSymbolTableRecord
100
AcDbBlockTableRecord
  2
block 56
340
0
102
{BLKREFS
331
22E
102
}
 70
     0
280
     1
281
     0
  0
BLOCK_RECORD
  5
248
330
1
100
AcDbSymbolTableRecord
100
AcDbBlockTableRecord
  2
block 57
340
0
102
{BLKREFS
331
249
102
}
 70
     0
280
     1
281
     0
  0
BLOCK_RECORD
  5
263
330
1
100
AcDbSymbolTableRecord
100
AcDbBlockTableRecord
  2
block 58
340
0
102
{BLKREFS
331
264
102
}
 70
     0
280
     1
281
     0
  0
BLOCK_RECORD
  5
26B
330
1
100
AcDbSymbolTableRecord
100
AcDbBlockTableRecord
  2
block 59
340
0
102
{BLKREFS
331
26C
102
}
 70
     0
280
     1
281
     0
  0
BLOCK_RECORD
  5
273
330
1
100
AcDbSymbolTableRecord
100
AcDbBlockTableRecord
  2
block 60
340
0
102
{BLKREFS
331
274
102
}
 70
     0
280
     1
281
     0
  0
BLOCK_RECORD
  5
278
330
1
100
AcDbSymbolTableRecord
100
AcDbBlockTableRecord
  2
block 61
340
0
102
{BLKREFS
331
279
102
}
 70
     0
280
     1
281
     0
  0
BLOCK_RECORD
  5
27F
330
1
100
AcDbSymbolTableRecord
100
AcDbBlockTableRecord
  2
block 62
340
0
102
{BLKREFS
331
280
102
}
 70
     0
280
     1
281
     0
  0
BLOCK_RECORD
  5
284
330
1
100
AcDbSymbolTableRecord
100
AcDbBlockTableRecord
  2
block 63
340
0
102
{BLKREFS
331
285
102
}
 70
     0
280
     1
281
     0
  0
BLOCK_RECORD
  5
28C
330
1
100
AcDbSymbolTableRecord
100
AcDbBlockTableRecord
  2
block 64
340
0
102
{BLKREFS
331
28D
102
}
 70
     0
280
     1
281
     0
  0
BLOCK_RECORD
  5
291
330
1
100
AcDbSymbolTableRecord
100
AcDbBlockTableRecord
  2
block 65
340
0
102
{BLKREFS
331
292
102
}
 70
     0
280
     1
281
     0
  0
BLOCK_RECORD
  5
296
330
1
100
AcDbSymbolTableRecord
100
AcDbBlockTableRecord
  2
block 66
340
0
102
{BLKREFS
331
297
102
}
 70
     0
280
     1
281
     0
  0
BLOCK_RECORD
  5
29E
330
1
100
AcDbSymbolTableRecord
100
AcDbBlockTableRecord
  2
block 67
340
0
102
{BLKREFS
331
29F
102
}
 70
     0
280
     1
281
     0
  0
BLOCK_RECORD
  5
2A6
330
1
100
AcDbSymbolTableRecord
100
AcDbBlockTableRecord
  2
block 68
340
0
102
{BLKREFS
331
2A7
102
}
 70
     0
280
     1
281
     0
  0
BLOCK_RECORD
  5
2AE
330
1
100
AcDbSymbolTableRecord
100
AcDbBlockTableRecord
  2
block 69
340
0
102
{BLKREFS
331
2AF
102
}
 70
     0
280
     1
281
     0
  0
BLOCK_RECORD
  5
2B4
330
1
100
AcDbSymbolTableRecord
100
AcDbBlockTableRecord
  2
block 70
340
0
102
{BLKREFS
331
2B5
102
}
 70
     0
280
     1
281
     0
  0
BLOCK_RECORD
  5
2BA
330
1
100
AcDbSymbolTableRecord
100
AcDbBlockTableRecord
  2
block 71
340
0
102
{BLKREFS
331
2BB
102
}
 70
     0
280
     1
281
     0
  0
BLOCK_RECORD
  5
2C2
330
1
100
AcDbSymbolTableRecord
100
AcDbBlockTableRecord
  2
block 72
340
0
102
{BLKREFS
331
2C3
102
}
 70
     0
280
     1
281
     0
  0
BLOCK_RECORD
  5
2C7
330
1
100
AcDbSymbolTableRecord
100
AcDbBlockTableRecord
  2
block 73
340
0
102
{BLKREFS
331
2C8
102
}
 70
     0
280
     1
281
     0
  0
BLOCK_RECORD
  5
2CF
330
1
100
AcDbSymbolTableRecord
100
AcDbBlockTableRecord
  2
block 74
340
0
102
{BLKREFS
331
2D0
102
}
 70
     0
280
     1
281
     0
  0
BLOCK_RECORD
  5
2D7
330
1
100
AcDbSymbolTableRecord
100
AcDbBlockTableRecord
  2
block 75
340
0
102
{BLKREFS
331
2D8
102
}
 70
     0
280
     1
281
     0
  0
BLOCK_RECORD
  5
2DC
330
1
100
AcDbSymbolTableRecord
100
AcDbBlockTableRecord
  2
block 76
340
0
102
{BLKREFS
331
2DD
102
}
 70
     0
280
     1
281
     0
  0
BLOCK_RECORD
  5
2E4
330
1
100
AcDbSymbolTableRecord
100
AcDbBlockTableRecord
  2
block 77
340
0
102
{BLKREFS
331
2E5
102
}
 70
     0
280
     1
281
     0
  0
BLOCK_RECORD
  5
2EC
330
1
100
AcDbSymbolTableRecord
100
AcDbBlockTableRecord
  2
block 78
340
0
102
{BLKREFS
331
2ED
102
}
 70
     0
280
     1
281
     0
  0
BLOCK_RECORD
  5
2F1
330
1
100
AcDbSymbolTableRecord
100
AcDbBlockTableRecord
  2
block 79
340
0
102
{BLKREFS
331
2F2
102
}
 70
     0
280
     1
281
     0
  0
BLOCK_RECORD
  5
2F9
330
1
100
AcDbSymbolTableRecord
100
AcDbBlockTableRecord
  2
block 80
340
0
102
{BLKREFS
331
2FA
102
}
 70
     0
280
     1
281
     0
  0
BLOCK_RECORD
  5
30D
330
1
100
AcDbSymbolTableRecord
100
AcDbBlockTableRecord
  2
block 81
340
0
102
{BLKREFS
331
30E
102
}
 70
     0
280
     1
281
     0
  0
BLOCK_RECORD
  5
312
330
1
100
AcDbSymbolTableRecord
100
AcDbBlockTableRecord
  2
block 82
340
0
102
{BLKREFS
331
313
102
}
 70
     0
280
     1
281
     0
  0
BLOCK_RECORD
  5
317
330
1
100
AcDbSymbolTableRecord
100
AcDbBlockTableRecord
  2
block 83
340
0
102
{BLKREFS
331
318
102
}
 70
     0
280
     1
281
     0
  0
BLOCK_RECORD
  5
31C
330
1
100
AcDbSymbolTableRecord
100
AcDbBlockTableRecord
  2
block 84
340
0
102
{BLKREFS
331
31D
102
}
 70
     0
280
     1
281
     0
  0
BLOCK_RECORD
  5
330
330
1
100
AcDbSymbolTableRecord
100
AcDbBlockTableRecord
  2
block 85
340
0
102
{BLKREFS
331
331
102
}
 70
     0
280
     1
281
     0
  0
BLOCK_RECORD
  5
335
330
1
100
AcDbSymbolTableRecord
100
AcDbBlockTableRecord
  2
block 86
340
0
102
{BLKREFS
331
336
102
}
 70
     0
280
     1
281
     0
  0
BLOCK_RECORD
  5
33A
330
1
100
AcDbSymbolTableRecord
100
AcDbBlockTableRecord
  2
block 87
340
0
102
{BLKREFS
331
33B
102
}
 70
     0
280
     1
281
     0
  0
BLOCK_RECORD
  5
33F
330
1
100
AcDbSymbolTableRecord
100
AcDbBlockTableRecord
  2
block 88
340
0
102
{BLKREFS
331
340
102
}
 70
     0
280
     1
281
     0
  0
BLOCK_RECORD
  5
353
330
1
100
AcDbSymbolTableRecord
100
AcDbBlockTableRecord
  2
block 89
340
0
102
{BLKREFS
331
354
102
}
 70
     0
280
     1
281
     0
  0
BLOCK_RECORD
  5
358
330
1
100
AcDbSymbolTableRecord
100
AcDbBlockTableRecord
  2
block 90
340
0
102
{BLKREFS
331
359
102
}
 70
     0
280
     1
281
     0
  0
BLOCK_RECORD
  5
35D
330
1
100
AcDbSymbolTableRecord
100
AcDbBlockTableRecord
  2
block 91
340
0
102
{BLKREFS
331
35E
102
}
 70
     0
280
     1
281
     0
  0
BLOCK_RECORD
  5
362
330
1
100
AcDbSymbolTableRecord
100
AcDbBlockTableRecord
  2
block 92
340
0
102
{BLKREFS
331
363
102
}
 70
     0
280
     1
281
     0
  0
BLOCK_RECORD
  5
376
330
1
100
AcDbSymbolTableRecord
100
AcDbBlockTableRecord
  2
block 93
340
0
102
{BLKREFS
331
377
102
}
 70
     0
280
     1
281
     0
  0
BLOCK_RECORD
  5
37B
330
1
100
AcDbSymbolTableRecord
100
AcDbBlockTableRecord
  2
block 94
340
0
102
{BLKREFS
331
37C
102
}
 70
     0
280
     1
281
     0
  0
BLOCK_RECORD
  5
380
330
1
100
AcDbSymbolTableRecord
100
AcDbBlockTableRecord
  2
block 95
340
0
102
{BLKREFS
331
381
102
}
 70
     0
280
     1
281
     0
  0
BLOCK_RECORD
  5
385
330
1
100
AcDbSymbolTableRecord
100
AcDbBlockTableRecord
  2
block 96
340
0
102
{BLKREFS
331
386
102
}
 70
     0
280
     1
281
     0
  0
BLOCK_RECORD
  5
38A
330
1
100
AcDbSymbolTableRecord
100
AcDbBlockTableRecord
  2
block 97
340
0
102
{BLKREFS
331
38B
102
}
 70
     0
280
     1
281
     0
  0
BLOCK_RECORD
  5
392
330
1
100
AcDbSymbolTableRecord
100
AcDbBlockTableRecord
  2
block 98
340
0
102
{BLKREFS
331
393
102
}
 70
     0
280
     1
281
     0
  0
BLOCK_RECORD
  5
39A
330
1
100
AcDbSymbolTableRecord
100
AcDbBlockTableRecord
  2
block 99
340
0
102
{BLKREFS
331
39B
102
}
 70
     0
280
     1
281
     0
  0
BLOCK_RECORD
  5
39F
330
1
100
AcDbSymbolTableRecord
100
AcDbBlockTableRecord
  2
block 100
340
0
102
{BLKREFS
331
3A0
102
}
 70
     0
280
     1
281
     0
  0
BLOCK_RECORD
  5
3A7
330
1
100
AcDbSymbolTableRecord
100
AcDbBlockTableRecord
  2
block 101
340
0
102
{BLKREFS
331
3A8
102
}
 70
     0
280
     1
281
     0
  0
BLOCK_RECORD
  5
3AF
330
1
100
AcDbSymbolTableRecord
100
AcDbBlockTableRecord
  2
block 102
340
0
102
{BLKREFS
331
3B0
102
}
 70
     0
280
     1
281
     0
  0
BLOCK_RECORD
  5
3B4
330
1
100
AcDbSymbolTableRecord
100
AcDbBlockTableRecord
  2
block 103
340
0
102
{BLKREFS
331
3B5
102
}
 70
     0
280
     1
281
     0
  0
BLOCK_RECORD
  5
3BC
330
1
100
AcDbSymbolTableRecord
100
AcDbBlockTableRecord
  2
block 104
340
0
102
{BLKREFS
331
3BD
102
}
 70
     0
280
     1
281
     0
  0
BLOCK_RECORD
  5
3C4
330
1
100
AcDbSymbolTableRecord
100
AcDbBlockTableRecord
  2
block 105
340
0
102
{BLKREFS
331
3C5
102
}
 70
     0
280
     1
281
     0
  0
BLOCK_RECORD
  5
3CC
330
1
100
AcDbSymbolTableRecord
100
AcDbBlockTableRecord
  2
block 106
340
0
102
{BLKREFS
331
3CD
102
}
 70
     0
280
     1
281
     0
  0
BLOCK_RECORD
  5
3D4
330
1
100
AcDbSymbolTableRecord
100
AcDbBlockTableRecord
  2
block 107
340
0
102
{BLKREFS
331
3D5
102
}
 70
     0
280
     1
281
     0
  0
BLOCK_RECORD
  5
3DC
330
1
100
AcDbSymbolTableRecord
100
AcDbBlockTableRecord
  2
block 108
340
0
102
{BLKREFS
331
3DD
102
}
 70
     0
280
     1
281
     0
  0
BLOCK_RECORD
  5
3E4
330
1
100
AcDbSymbolTableRecord
100
AcDbBlockTableRecord
  2
block 109
340
0
102
{BLKREFS
331
3E5
102
}
 70
     0
280
     1
281
     0
  0
BLOCK_RECORD
  5
3E9
330
1
100
AcDbSymbolTableRecord
100
AcDbBlockTableRecord
  2
block 110
340
0
102
{BLKREFS
331
3EA
102
}
 70
     0
280
     1
281
     0
  0
BLOCK_RECORD
  5
3F1
330
1
100
AcDbSymbolTableRecord
100
AcDbBlockTableRecord
  2
block 111
340
0
102
{BLKREFS
331
3F2
102
}
 70
     0
280
     1
281
     0
  0
BLOCK_RECORD
  5
3F9
330
1
100
AcDbSymbolTableRecord
100
AcDbBlockTableRecord
  2
block 112
340
0
102
{BLKREFS
331
3FA
102
}
 70
     0
280
     1
281
     0
  0
BLOCK_RECORD
  5
3FE
330
1
100
AcDbSymbolTableRecord
100
AcDbBlockTableRecord
  2
block 113
340
0
102
{BLKREFS
331
3FF
102
}
 70
     0
280
     1
281
     0
  0
BLOCK_RECORD
  5
406
330
1
100
AcDbSymbolTableRecord
100
AcDbBlockTableRecord
  2
block 114
340
0
102
{BLKREFS
331
407
102
}
 70
     0
280
     1
281
     0
  0
BLOCK_RECORD
  5
40E
330
1
100
AcDbSymbolTableRecord
100
AcDbBlockTableRecord
  2
block 115
340
0
102
{BLKREFS
331
40F
102
}
 70
     0
280
     1
281
     0
  0
BLOCK_RECORD
  5
416
330
1
100
AcDbSymbolTableRecord
100
AcDbBlockTableRecord
  2
block 116
340
0
102
{BLKREFS
331
417
102
}
 70
     0
280
     1
281
     0
  0
BLOCK_RECORD
  5
41E
330
1
100
AcDbSymbolTableRecord
100
AcDbBlockTableRecord
  2
block 117
340
0
102
{BLKREFS
331
41F
102
}
 70
     0
280
     1
281
     0
  0
BLOCK_RECORD
  5
426
330
1
100
AcDbSymbolTableRecord
100
AcDbBlockTableRecord
  2
block 118
340
0
102
{BLKREFS
331
427
102
}
 70
     0
280
     1
281
     0
  0
BLOCK_RECORD
  5
42B
330
1
100
AcDbSymbolTableRecord
100
AcDbBlockTableRecord
  2
block 119
340
0
102
{BLKREFS
331
42C
102
}
 70
     0
280
     1
281
     0
  0
BLOCK_RECORD
  5
430
330
1
100
AcDbSymbolTableRecord
100
AcDbBlockTableRecord
  2
block 120
340
0
102
{BLKREFS
331
431
102
}
 70
     0
280
     1
281
     0
  0
BLOCK_RECORD
  5
435
330
1
100
AcDbSymbolTableRecord
100
AcDbBlockTableRecord
  2
block 121
340
0
102
{BLKREFS
331
436
102
}
 70
     0
280
     1
281
     0
  0
BLOCK_RECORD
  5
43A
330
1
100
AcDbSymbolTableRecord
100
AcDbBlockTableRecord
  2
block 122
340
0
102
{BLKREFS
331
43B
102
}
 70
     0
280
     1
281
     0
  0
BLOCK_RECORD
  5
43F
330
1
100
AcDbSymbolTableRecord
100
AcDbBlockTableRecord
  2
block 123
340
0
102
{BLKREFS
331
440
102
}
 70
     0
280
     1
281
     0
  0
BLOCK_RECORD
  5
444
330
1
100
AcDbSymbolTableRecord
100
AcDbBlockTableRecord
  2
block 124
340
0
102
{BLKREFS
331
445
102
}
 70
     0
280
     1
281
     0
  0
BLOCK_RECORD
  5
449
330
1
100
AcDbSymbolTableRecord
100
AcDbBlockTableRecord
  2
block 125
340
0
102
{BLKREFS
331
44A
102
}
 70
     0
280
     1
281
     0
  0
BLOCK_RECORD
  5
44E
330
1
100
AcDbSymbolTableRecord
100
AcDbBlockTableRecord
  2
block 126
340
0
102
{BLKREFS
331
44F
102
}
 70
     0
280
     1
281
     0
  0
BLOCK_RECORD
  5
453
330
1
100
AcDbSymbolTableRecord
100
AcDbBlockTableRecord
  2
block 127
340
0
102
{BLKREFS
331
454
102
}
 70
     0
280
     1
281
     0
  0
BLOCK_RECORD
  5
458
330
1
100
AcDbSymbolTableRecord
100
AcDbBlockTableRecord
  2
block 128
340
0
102
{BLKREFS
331
459
102
}
 70
     0
280
     1
281
     0
  0
BLOCK_RECORD
  5
45D
330
1
100
AcDbSymbolTableRecord
100
AcDbBlockTableRecord
  2
block 129
340
0
102
{BLKREFS
331
45E
102
}
 70
     0
280
     1
281
     0
  0
BLOCK_RECORD
  5
462
330
1
100
AcDbSymbolTableRecord
100
AcDbBlockTableRecord
  2
block 130
340
0
102
{BLKREFS
331
463
102
}
 70
     0
280
     1
281
     0
  0
BLOCK_RECORD
  5
467
330
1
100
AcDbSymbolTableRecord
100
AcDbBlockTableRecord
  2
block 131
340
0
102
{BLKREFS
331
468
102
}
 70
     0
280
     1
281
     0
  0
BLOCK_RECORD
  5
46C
330
1
100
AcDbSymbolTableRecord
100
AcDbBlockTableRecord
  2
block 132
340
0
102
{BLKREFS
331
46D
102
}
 70
     0
280
     1
281
     0
  0
BLOCK_RECORD
  5
471
330
1
100
AcDbSymbolTableRecord
100
AcDbBlockTableRecord
  2
block 133
340
0
102
{BLKREFS
331
472
102
}
 70
     0
280
     1
281
     0
  0
BLOCK_RECORD
  5
476
330
1
100
AcDbSymbolTableRecord
100
AcDbBlockTableRecord
  2
block 134
340
0
102
{BLKREFS
331
477
102
}
 70
     0
280
     1
281
     0
  0
BLOCK_RECORD
  5
47B
330
1
100
AcDbSymbolTableRecord
100
AcDbBlockTableRecord
  2
block 135
340
0
102
{BLKREFS
331
47C
102
}
 70
     0
280
     1
281
     0
  0
BLOCK_RECORD
  5
480
330
1
100
AcDbSymbolTableRecord
100
AcDbBlockTableRecord
  2
block 136
340
0
102
{BLKREFS
331
481
102
}
 70
     0
280
     1
281
     0
  0
BLOCK_RECORD
  5
485
330
1
100
AcDbSymbolTableRecord
100
AcDbBlockTableRecord
  2
block 137
340
0
102
{BLKREFS
331
486
102
}
 70
     0
280
     1
281
     0
  0
BLOCK_RECORD
  5
48D
330
1
100
AcDbSymbolTableRecord
100
AcDbBlockTableRecord
  2
block 138
340
0
102
{BLKREFS
331
48E
102
}
 70
     0
280
     1
281
     0
  0
BLOCK_RECORD
  5
492
330
1
100
AcDbSymbolTableRecord
100
AcDbBlockTableRecord
  2
block 139
340
0
102
{BLKREFS
331
493
102
}
 70
     0
280
     1
281
     0
  0
BLOCK_RECORD
  5
497
330
1
100
AcDbSymbolTableRecord
100
AcDbBlockTableRecord
  2
block 140
340
0
102
{BLKREFS
331
498
102
}
 70
     0
280
     1
281
     0
  0
BLOCK_RECORD
  5
49F
330
1
100
AcDbSymbolTableRecord
100
AcDbBlockTableRecord
  2
block 141
340
0
102
{BLKREFS
331
4A0
102
}
 70
     0
280
     1
281
     0
  0
BLOCK_RECORD
  5
4A4
330
1
100
AcDbSymbolTableRecord
100
AcDbBlockTableRecord
  2
block 142
340
0
102
{BLKREFS
331
4A5
102
}
 70
     0
280
     1
281
     0
  0
BLOCK_RECORD
  5
4AC
330
1
100
AcDbSymbolTableRecord
100
AcDbBlockTableRecord
  2
block 143
340
0
102
{BLKREFS
331
4AD
102
}
 70
     0
280
     1
281
     0
  0
BLOCK_RECORD
  5
4B5
330
1
100
AcDbSymbolTableRecord
100
AcDbBlockTableRecord
  2
block 144
340
0
102
{BLKREFS
331
4B6
102
}
 70
     0
280
     1
281
     0
  0
BLOCK_RECORD
  5
4BE
330
1
100
AcDbSymbolTableRecord
100
AcDbBlockTableRecord
  2
block 145
340
0
102
{BLKREFS
331
4BF
102
}
 70
     0
280
     1
281
     0
  0
BLOCK_RECORD
  5
4C7
330
1
100
AcDbSymbolTableRecord
100
AcDbBlockTableRecord
  2
block 146
340
0
102
{BLKREFS
331
4C8
102
}
 70
     0
280
     1
281
     0
  0
BLOCK_RECORD
  5
4D3
330
1
100
AcDbSymbolTableRecord
100
AcDbBlockTableRecord
  2
block 147
340
0
102
{BLKREFS
331
4D4
102
}
 70
     0
280
     1
281
     0
  0
BLOCK_RECORD
  5
4DB
330
1
100
AcDbSymbolTableRecord
100
AcDbBlockTableRecord
  2
block 148
340
0
102
{BLKREFS
331
4DC
102
}
 70
     0
280
     1
281
     0
  0
BLOCK_RECORD
  5
4E3
330
1
100
AcDbSymbolTableRecord
100
AcDbBlockTableRecord
  2
block 149
340
0
102
{BLKREFS
331
4E4
102
}
 70
     0
280
     1
281
     0
  0
BLOCK_RECORD
  5
4EB
330
1
100
AcDbSymbolTableRecord
100
AcDbBlockTableRecord
  2
block 150
340
0
102
{BLKREFS
331
4EC
102
}
 70
     0
280
     1
281
     0
  0
BLOCK_RECORD
  5
4F6
330
1
100
AcDbSymbolTableRecord
100
AcDbBlockTableRecord
  2
block 151
340
0
102
{BLKREFS
331
4F7
102
}
 70
     0
280
     1
281
     0
  0
BLOCK_RECORD
  5
501
330
1
100
AcDbSymbolTableRecord
100
AcDbBlockTableRecord
  2
block 152
340
0
102
{BLKREFS
331
502
102
}
 70
     0
280
     1
281
     0
  0
BLOCK_RECORD
  5
506
330
1
100
AcDbSymbolTableRecord
100
AcDbBlockTableRecord
  2
block 153
340
0
102
{BLKREFS
331
507
102
}
 70
     0
280
     1
281
     0
  0
BLOCK_RECORD
  5
50E
330
1
100
AcDbSymbolTableRecord
100
AcDbBlockTableRecord
  2
block 154
340
0
102
{BLKREFS
331
50F
102
}
 70
     0
280
     1
281
     0
  0
BLOCK_RECORD
  5
516
330
1
100
AcDbSymbolTableRecord
100
AcDbBlockTableRecord
  2
block 155
340
0
102
{BLKREFS
331
517
102
}
 70
     0
280
     1
281
     0
  0
BLOCK_RECORD
  5
51E
330
1
100
AcDbSymbolTableRecord
100
AcDbBlockTableRecord
  2
block 156
340
0
102
{BLKREFS
331
51F
102
}
 70
     0
280
     1
281
     0
  0
BLOCK_RECORD
  5
529
330
1
100
AcDbSymbolTableRecord
100
AcDbBlockTableRecord
  2
block 157
340
0
102
{BLKREFS
331
52A
102
}
 70
     0
280
     1
281
     0
  0
BLOCK_RECORD
  5
534
330
1
100
AcDbSymbolTableRecord
100
AcDbBlockTableRecord
  2
block 158
340
0
102
{BLKREFS
331
535
102
}
 70
     0
280
     1
281
     0
  0
BLOCK_RECORD
  5
539
330
1
100
AcDbSymbolTableRecord
100
AcDbBlockTableRecord
  2
block 159
340
0
102
{BLKREFS
331
53A
102
}
 70
     0
280
     1
281
     0
  0
BLOCK_RECORD
  5
541
330
1
100
AcDbSymbolTableRecord
100
AcDbBlockTableRecord
  2
block 160
340
0
102
{BLKREFS
331
542
102
}
 70
     0
280
     1
281
     0
  0
BLOCK_RECORD
  5
549
330
1
100
AcDbSymbolTableRecord
100
AcDbBlockTableRecord
  2
block 161
340
0
102
{BLKREFS
331
54A
102
}
 70
     0
280
     1
281
     0
  0
BLOCK_RECORD
  5
551
330
1
100
AcDbSymbolTableRecord
100
AcDbBlockTableRecord
  2
block 162
340
0
102
{BLKREFS
331
552
102
}
 70
     0
280
     1
281
     0
  0
BLOCK_RECORD
  5
55C
330
1
100
AcDbSymbolTableRecord
100
AcDbBlockTableRecord
  2
block 163
340
0
102
{BLKREFS
331
55D
102
}
 70
     0
280
     1
281
     0
  0
BLOCK_RECORD
  5
567
330
1
100
AcDbSymbolTableRecord
100
AcDbBlockTableRecord
  2
block 164
340
0
102
{BLKREFS
331
568
102
}
 70
     0
280
     1
281
     0
  0
BLOCK_RECORD
  5
56C
330
1
100
AcDbSymbolTableRecord
100
AcDbBlockTableRecord
  2
block 165
340
0
102
{BLKREFS
331
56D
102
}
 70
     0
280
     1
281
     0
  0
BLOCK_RECORD
  5
574
330
1
100
AcDbSymbolTableRecord
100
AcDbBlockTableRecord
  2
block 166
340
0
102
{BLKREFS
331
575
102
}
 70
     0
280
     1
281
     0
  0
BLOCK_RECORD
  5
57C
330
1
100
AcDbSymbolTableRecord
100
AcDbBlockTableRecord
  2
block 167
340
0
102
{BLKREFS
331
57D
102
}
 70
     0
280
     1
281
     0
  0
BLOCK_RECORD
  5
584
330
1
100
AcDbSymbolTableRecord
100
AcDbBlockTableRecord
  2
block 168
340
0
102
{BLKREFS
331
585
102
}
 70
     0
280
     1
281
     0
  0
BLOCK_RECORD
  5
58F
330
1
100
AcDbSymbolTableRecord
100
AcDbBlockTableRecord
  2
block 169
340
0
102
{BLKREFS
331
590
102
}
 70
     0
280
     1
281
     0
  0
BLOCK_RECORD
  5
59A
330
1
100
AcDbSymbolTableRecord
100
AcDbBlockTableRecord
  2
block 170
340
0
102
{BLKREFS
331
59B
102
}
 70
     0
280
     1
281
     0
  0
BLOCK_RECORD
  5
59F
330
1
100
AcDbSymbolTableRecord
100
AcDbBlockTableRecord
  2
block 171
340
0
102
{BLKREFS
331
5A0
102
}
 70
     0
280
     1
281
     0
  0
BLOCK_RECORD
  5
5A7
330
1
100
AcDbSymbolTableRecord
100
AcDbBlockTableRecord
  2
block 172
340
0
102
{BLKREFS
331
5A8
102
}
 70
     0
280
     1
281
     0
  0
BLOCK_RECORD
  5
5AF
330
1
100
AcDbSymbolTableRecord
100
AcDbBlockTableRecord
  2
block 173
340
0
102
{BLKREFS
331
5B0
102
}
 70
     0
280
     1
281
     0
  0
BLOCK_RECORD
  5
5B7
330
1
100
AcDbSymbolTableRecord
100
AcDbBlockTableRecord
  2
block 174
340
0
102
{BLKREFS
331
5B8
102
}
 70
     0
280
     1
281
     0
  0
BLOCK_RECORD
  5
5C2
330
1
100
AcDbSymbolTableRecord
100
AcDbBlockTableRecord
  2
block 175
340
0
102
{BLKREFS
331
5C3
102
}
 70
     0
280
     1
281
     0
  0
BLOCK_RECORD
  5
5CD
330
1
100
AcDbSymbolTableRecord
100
AcDbBlockTableRecord
  2
block 176
340
0
102
{BLKREFS
331
5CE
102
}
 70
     0
280
     1
281
     0
  0
BLOCK_RECORD
  5
5D3
330
1
100
AcDbSymbolTableRecord
100
AcDbBlockTableRecord
  2
block 177
340
0
102
{BLKREFS
331
5D4
102
}
 70
     0
280
     1
281
     0
  0
BLOCK_RECORD
  5
5DB
330
1
100
AcDbSymbolTableRecord
100
AcDbBlockTableRecord
  2
block 178
340
0
102
{BLKREFS
331
5DC
102
}
 70
     0
280
     1
281
     0
  0
BLOCK_RECORD
  5
5E3
330
1
100
AcDbSymbolTableRecord
100
AcDbBlockTableRecord
  2
block 179
340
0
102
{BLKREFS
331
5E4
102
}
 70
     0
280
     1
281
     0
  0
BLOCK_RECORD
  5
5EB
330
1
100
AcDbSymbolTableRecord
100
AcDbBlockTableRecord
  2
block 180
340
0
102
{BLKREFS
331
5EC
102
}
 70
     0
280
     1
281
     0
  0
BLOCK_RECORD
  5
5F3
330
1
100
AcDbSymbolTableRecord
100
AcDbBlockTableRecord
  2
block 181
340
0
102
{BLKREFS
331
5F4
102
}
 70
     0
280
     1
281
     0
  0
BLOCK_RECORD
  5
5FB
330
1
100
AcDbSymbolTableRecord
100
AcDbBlockTableRecord
  2
block 182
340
0
102
{BLKREFS
331
5FC
102
}
 70
     0
280
     1
281
     0
  0
BLOCK_RECORD
  5
603
330
1
100
AcDbSymbolTableRecord
100
AcDbBlockTableRecord
  2
block 183
340
0
102
{BLKREFS
331
604
102
}
 70
     0
280
     1
281
     0
  0
BLOCK_RECORD
  5
60B
330
1
100
AcDbSymbolTableRecord
100
AcDbBlockTableRecord
  2
block 184
340
0
102
{BLKREFS
331
60C
102
}
 70
     0
280
     1
281
     0
  0
BLOCK_RECORD
  5
613
330
1
100
AcDbSymbolTableRecord
100
AcDbBlockTableRecord
  2
block 185
340
0
102
{BLKREFS
331
614
102
}
 70
     0
280
     1
281
     0
  0
BLOCK_RECORD
  5
61B
330
1
100
AcDbSymbolTableRecord
100
AcDbBlockTableRecord
  2
block 186
340
0
102
{BLKREFS
331
61C
102
}
 70
     0
280
     1
281
     0
  0
BLOCK_RECORD
  5
623
330
1
100
AcDbSymbolTableRecord
100
AcDbBlockTableRecord
  2
block 187
340
0
102
{BLKREFS
331
624
102
}
 70
     0
280
     1
281
     0
  0
BLOCK_RECORD
  5
62B
330
1
100
AcDbSymbolTableRecord
100
AcDbBlockTableRecord
  2
block 188
340
0
102
{BLKREFS
331
62C
102
}
 70
     0
280
     1
281
     0
  0
BLOCK_RECORD
  5
633
330
1
100
AcDbSymbolTableRecord
100
AcDbBlockTableRecord
  2
block 189
340
0
102
{BLKREFS
331
634
102
}
 70
     0
280
     1
281
     0
  0
BLOCK_RECORD
  5
63B
330
1
100
AcDbSymbolTableRecord
100
AcDbBlockTableRecord
  2
block 190
340
0
102
{BLKREFS
331
63C
102
}
 70
     0
280
     1
281
     0
  0
BLOCK_RECORD
  5
643
330
1
100
AcDbSymbolTableRecord
100
AcDbBlockTableRecord
  2
block 191
340
0
102
{BLKREFS
331
644
102
}
 70
     0
280
     1
281
     0
  0
ENDTAB
  0
ENDSEC
  0
SECTION
  2
BLOCKS
  0
BLOCK
  5
20
330
1F
100
AcDbEntity
  8
0
100
AcDbBlockBegin
  2
*Model_Space
 70
     0
 10
0.0
 20
0.0
 30
0.0
  3
*Model_Space
  1

  0
ENDBLK
  5
21
330
1F
100
AcDbEntity
  8
0
100
AcDbBlockEnd
  0
BLOCK
  5
1C
330
1B
100
AcDbEntity
 67
     1
  8
0
100
AcDbBlockBegin
  2
*Paper_Space
 70
     0
 10
0.0
 20
0.0
 30
0.0
  3
*Paper_Space
  1

  0
ENDBLK
  5
1D
330
1B
100
AcDbEntity
 67
     1
  8
0
100
AcDbBlockEnd
  0
BLOCK
  5
24
330
23
100
AcDbEntity
  8
0
100
AcDbBlockBegin
  2
*Paper_Space0
 70
     0
 10
0.0
 20
0.0
 30
0.0
  3
*Paper_Space0
  1

  0
ENDBLK
  5
25
330
23
100
AcDbEntity
  8
0
100
AcDbBlockEnd
  0
BLOCK
  5
47
330
45
100
AcDbEntity
  8
0
100
AcDbBlockBegin
  2
block 2
 70
     0
 10
0.0
 20
0.0
 30
0.0
  3
block 2
  1

  0
SPLINE
  5
49
330
45
100
AcDbEntity
  8
PIEZA
 62
     7
420
 16777215
370
     9
100
AcDbSpline
210
0.0
220
0.0
230
1.0
 70
     8
 71
     3
 72
    11
 73
     7
 74
     0
 42
0.0000000001
 43
0.0000000001
 12
1.0
 22
0.0
 32
0.0
 13
1.0
 23
0.0
 33
0.0
 40
0.0
 40
0.0
 40
0.0
 40
0.0
 40
1.0
 40
1.0
 40
1.0
 40
2.0
 40
2.0
 40
2.0
 40
2.0
 10
145.8374273153105
 20
185.6240816029441
 30
0.0
 10
145.9080108871066
 20
185.5476845774977
 30
0.0
 10
145.9785944589065
 20
185.4712875520518
 30
0.0
 10
146.0595466913909
 20
185.3930412715064
 30
0.0
 10
146.0715221655896
 20
185.381466095812
 30
0.0
 10
146.0837245481192
 20
185.3698504509194
 30
0.0
 10
146.0959269306481
 20
185.3582348060262
 30
0.0
  0
ENDBLK
  5
48
330
45
100
AcDbEntity
  8
0
100
AcDbBlockEnd
  0
BLOCK
  5
4C
330
4A
100
AcDbEntity
  8
0
100
AcDbBlockBegin
  2
block 3
 70
     0
 10
0.0
 20
0.0
 30
0.0
  3
block 3
  1

  0
POLYLINE
  5
4E
330
4A
100
AcDbEntity
  8
PIEZA
 62
     7
420
 16777215
370
     9
100
AcDb2dPolyline
 66
     1
 10
0.0
 20
0.0
 30
0.0
  0
VERTEX
  5
4F
330
4E
100
AcDbEntity
  8
PIEZA
 62
     7
420
 16777215
370
     9
100
AcDbVertex
100
AcDb2dVertex
 10
150.683556156132
 20
183.0302564369962
 30
0.0
  0
VERTEX
  5
50
330
4E
100
AcDbEntity
  8
PIEZA
 62
     7
420
 16777215
370
     9
100
AcDbVertex
100
AcDb2dVertex
 10
151.247206413184
 20
182.9431209823566
 30
0.0
  0
SEQEND
  5
51
330
4E
100
AcDbEntity
  8
PIEZA
 62
     7
420
 16777215
370
     9
  0
ENDBLK
  5
4D
330
4A
100
AcDbEntity
  8
0
100
AcDbBlockEnd
  0
BLOCK
  5
54
330
52
100
AcDbEntity
  8
0
100
AcDbBlockBegin
  2
block 4
 70
     0
 10
0.0
 20
0.0
 30
0.0
  3
block 4
  1

  0
POLYLINE
  5
56
330
52
100
AcDbEntity
  8
PIEZA
 62
     7
420
 16777215
370
     9
100
AcDb2dPolyline
 66
     1
 10
0.0
 20
0.0
 30
0.0
  0
VERTEX
  5
57
330
56
100
AcDbEntity
  8
PIEZA
 62
     7
420
 16777215
370
     9
100
AcDbVertex
100
AcDb2dVertex
 10
153.884440087715
 20
181.8791010068079
 30
0.0
  0
VERTEX
  5
58
330
56
100
AcDbEntity
  8
PIEZA
 62
     7
420
 16777215
370
     9
100
AcDbVertex
100
AcDb2dVertex
 10
153.0354117430126
 20
182.5914119132554
 30
0.0
  0
SEQEND
  5
59
330
56
100
AcDbEntity
  8
PIEZA
 62
     7
420
 16777215
370
     9
  0
ENDBLK
  5
55
330
52
100
AcDbEntity
  8
0
100
AcDbBlockEnd
  0
BLOCK
  5
5C
330
5A
100
AcDbEntity
  8
0
100
AcDbBlockBegin
  2
block 5
 70
     0
 10
0.0
 20
0.0
 30
0.0
  3
block 5
  1

  0
SPLINE
  5
5E
330
5A
100
AcDbEntity
  8
PIEZA
 62
     7
420
 16777215
370
     9
100
AcDbSpline
210
0.0
220
0.0
230
1.0
 70
     8
 71
     3
 72
     8
 73
     4
 74
     0
 42
0.0000000001
 43
0.0000000001
 12
1.0
 22
0.0
 32
0.0
 13
1.0
 23
0.0
 33
0.0
 40
0.0
 40
0.0
 40
0.0
 40
0.0
 40
1.0
 40
1.0
 40
1.0
 40
1.0
 10
153.0354114400164
 20
182.5914119334756
 30
0.0
 10
152.8875675411028
 20
182.7154488002325
 30
0.0
 10
152.7057976856572
 20
182.7921060341553
 30
0.0
 10
152.5137685894435
 20
182.8114027450577
 30
0.0
  0
ENDBLK
  5
5D
330
5A
100
AcDbEntity
  8
0
100
AcDbBlockEnd
  0
BLOCK
  5
61
330
5F
100
AcDbEntity
  8
0
100
AcDbBlockBegin
  2
block 6
 70
     0
 10
0.0
 20
0.0
 30
0.0
  3
block 6
  1

  0
POLYLINE
  5
63
330
5F
100
AcDbEntity
  8
PIEZA
 62
     7
420
 16777215
370
     9
100
AcDb2dPolyline
 66
     1
 10
0.0
 20
0.0
 30
0.0
  0
VERTEX
  5
64
330
63
100
AcDbEntity
  8
PIEZA
 62
     7
420
 16777215
370
     9
100
AcDbVertex
100
AcDb2dVertex
 10
152.5137683178835
 20
182.8114027535144
 30
0.0
  0
VERTEX
  5
65
330
63
100
AcDbEntity
  8
PIEZA
 62
     7
420
 16777215
370
     9
100
AcDbVertex
100
AcDb2dVertex
 10
151.2443279577868
 20
182.9389668297169
 30
0.0
  0
SEQEND
  5
66
330
63
100
AcDbEntity
  8
PIEZA
 62
     7
420
 16777215
370
     9
  0
ENDBLK
  5
62
330
5F
100
AcDbEntity
  8
0
100
AcDbBlockEnd
  0
BLOCK
  5
69
330
67
100
AcDbEntity
  8
0
100
AcDbBlockBegin
  2
block 7
 70
     0
 10
0.0
 20
0.0
 30
0.0
  3
block 7
  1

  0
SPLINE
  5
6B
330
67
100
AcDbEntity
  8
PIEZA
 62
     7
420
 16777215
370
     9
100
AcDbSpline
210
0.0
220
0.0
230
1.0
 70
     8
 71
     3
 72
    29
 73
    25
 74
     0
 42
0.0000000001
 43
0.0000000001
 12
1.0
 22
0.0
 32
0.0
 13
1.0
 23
0.0
 33
0.0
 40
0.0
 40
0.0
 40
0.0
 40
0.0
 40
1.0
 40
1.0
 40
1.0
 40
2.0
 40
2.0
 40
2.0
 40
3.0
 40
3.0
 40
3.0
 40
4.0
 40
4.0
 40
4.0
 40
5.0
 40
5.0
 40
5.0
 40
6.0
 40
6.0
 40
6.0
 40
7.0
 40
7.0
 40
7.0
 40
8.0
 40
8.0
 40
8.0
 40
8.0
 10
145.5621337697824
 20
185.9335331976937
 30
0.0
 10
145.7401985245961
 20
185.7225011643869
 30
0.0
 10
145.9276436956737
 20
185.5210388314499
 30
0.0
 10
146.1243438947309
 20
185.3290182804291
 30
0.0
 10
146.2226939942592
 20
185.2330080049184
 30
0.0
 10
146.3233619581895
 20
185.1393623651777
 30
0.0
 10
146.4263565311087
 20
185.0480902822442
 30
0.0
 10
146.5293511040284
 20
184.9568181993103
 30
0.0
 10
146.6347683558194
 20
184.8678427637129
 30
0.0
 10
146.7423323723034
 20
184.7814306747841
 30
0.0
 10
147.1725884382394
 20
184.4357823190699
 30
0.0
 10
147.6291279627934
 20
184.1368973551737
 30
0.0
 10
148.1109232519756
 20
183.8829473153354
 30
0.0
 10
148.351820896567
 20
183.7559722954163
 30
0.0
 10
148.5990772563828
 20
183.6403106682953
 30
0.0
 10
148.8528307238664
 20
183.5362086610901
 30
0.0
 10
148.9797074576083
 20
183.4841576574872
 30
0.0
 10
149.1082892871614
 20
183.4349739181616
 30
0.0
 10
149.2383716108881
 20
183.3888048840997
 30
0.0
 10
149.3684539346149
 20
183.3426358500374
 30
0.0
 10
149.4992759303355
 20
183.2997473271338
 30
0.0
 10
149.6308274312392
 20
183.2600942246853
 30
0.0
 10
150.157033434854
 20
183.1014818148919
 30
0.0
 10
150.6948102765908
 20
182.9941871025728
 30
0.0
 10
151.2443285870644
 20
182.9389668497251
 30
0.0
  0
ENDBLK
  5
6A
330
67
100
AcDbEntity
  8
0
100
AcDbBlockEnd
  0
BLOCK
  5
6E
330
6C
100
AcDbEntity
  8
0
100
AcDbBlockBegin
  2
block 8
 70
     0
 10
0.0
 20
0.0
 30
0.0
  3
block 8
  1

  0
POLYLINE
  5
70
330
6C
100
AcDbEntity
  8
PIEZA
370
     0
100
AcDb2dPolyline
 66
     1
 10
0.0
 20
0.0
 30
0.0
  0
VERTEX
  5
71
330
70
100
AcDbEntity
  8
PIEZA
370
     0
100
AcDbVertex
100
AcDb2dVertex
 10
138.9550225598855
 20
192.3528864098548
 30
0.0
  0
VERTEX
  5
72
330
70
100
AcDbEntity
  8
PIEZA
370
     0
100
AcDbVertex
100
AcDb2dVertex
 10
138.9550225598855
 20
193.4098739472978
 30
0.0
  0
VERTEX
  5
73
330
70
100
AcDbEntity
  8
PIEZA
370
     0
100
AcDbVertex
100
AcDb2dVertex
 10
135.591367703863
 20
193.4098739472978
 30
0.0
  0
VERTEX
  5
74
330
70
100
AcDbEntity
  8
PIEZA
370
     0
100
AcDbVertex
100
AcDb2dVertex
 10
135.591367703863
 20
192.3528864098548
 30
0.0
  0
VERTEX
  5
75
330
70
100
AcDbEntity
  8
PIEZA
370
     0
100
AcDbVertex
100
AcDb2dVertex
 10
138.9550225598855
 20
192.3528864098548
 30
0.0
  0
SEQEND
  5
76
330
70
100
AcDbEntity
  8
PIEZA
370
     0
  0
POLYLINE
  5
77
330
6C
100
AcDbEntity
  8
PIEZA
370
     0
100
AcDb2dPolyline
 66
     1
 10
0.0
 20
0.0
 30
0.0
  0
VERTEX
  5
78
330
77
100
AcDbEntity
  8
PIEZA
370
     0
100
AcDbVertex
100
AcDb2dVertex
 10
143.0646627856623
 20
190.5325707296994
 30
0.0
  0
VERTEX
  5
79
330
77
100
AcDbEntity
  8
PIEZA
370
     0
100
AcDbVertex
100
AcDb2dVertex
 10
142.9192470855798
 20
190.7049088214709
 30
0.0
  0
VERTEX
  5
7A
330
77
100
AcDbEntity
  8
PIEZA
370
     0
100
AcDbVertex
100
AcDb2dVertex
 10
142.7774122699363
 20
190.8730036279871
 30
0.0
  0
VERTEX
  5
7B
330
77
100
AcDbEntity
  8
PIEZA
370
     0
100
AcDbVertex
100
AcDb2dVertex
 10
142.6426504349917
 20
191.0327149571388
 30
0.0
  0
VERTEX
  5
7C
330
77
100
AcDbEntity
  8
PIEZA
370
     0
100
AcDbVertex
100
AcDb2dVertex
 10
142.5182796808245
 20
191.1801116668074
 30
0.0
  0
VERTEX
  5
7D
330
77
100
AcDbEntity
  8
PIEZA
370
     0
100
AcDbVertex
100
AcDb2dVertex
 10
142.4073631995208
 20
191.3115640191419
 30
0.0
  0
VERTEX
  5
7E
330
77
100
AcDbEntity
  8
PIEZA
370
     0
100
AcDbVertex
100
AcDb2dVertex
 10
142.3126312275068
 20
191.4238346029861
 30
0.0
  0
VERTEX
  5
7F
330
77
100
AcDbEntity
  8
PIEZA
370
     0
100
AcDbVertex
100
AcDb2dVertex
 10
142.2364173185469
 20
191.5141592333603
 30
0.0
  0
VERTEX
  5
80
330
77
100
AcDbEntity
  8
PIEZA
370
     0
100
AcDbVertex
100
AcDb2dVertex
 10
142.1805967648527
 20
191.5803142483783
 30
0.0
  0
VERTEX
  5
81
330
77
100
AcDbEntity
  8
PIEZA
370
     0
100
AcDbVertex
100
AcDb2dVertex
 10
142.1465457831586
 20
191.6206694876676
 30
0.0
  0
VERTEX
  5
82
330
77
100
AcDbEntity
  8
PIEZA
370
     0
100
AcDbVertex
100
AcDb2dVertex
 10
142.1351014168367
 20
191.634233395622
 30
0.0
  0
VERTEX
  5
83
330
77
100
AcDbEntity
  8
PIEZA
370
     0
100
AcDbVertex
100
AcDb2dVertex
 10
141.3270924936112
 20
190.9526588336676
 30
0.0
  0
VERTEX
  5
84
330
77
100
AcDbEntity
  8
PIEZA
370
     0
100
AcDbVertex
100
AcDb2dVertex
 10
141.3385368599324
 20
190.9390956416378
 30
0.0
  0
VERTEX
  5
85
330
77
100
AcDbEntity
  8
PIEZA
370
     0
100
AcDbVertex
100
AcDb2dVertex
 10
141.3725885576606
 20
190.8987396864239
 30
0.0
  0
VERTEX
  5
86
330
77
100
AcDbEntity
  8
PIEZA
370
     0
100
AcDbVertex
100
AcDb2dVertex
 10
141.4284083953214
 20
190.8325846714061
 30
0.0
  0
VERTEX
  5
87
330
77
100
AcDbEntity
  8
PIEZA
370
     0
100
AcDbVertex
100
AcDb2dVertex
 10
141.5046230203141
 20
190.7422600410316
 30
0.0
  0
VERTEX
  5
88
330
77
100
AcDbEntity
  8
PIEZA
370
     0
100
AcDbVertex
100
AcDb2dVertex
 10
141.5993549923288
 20
190.6299894571877
 30
0.0
  0
VERTEX
  5
89
330
77
100
AcDbEntity
  8
PIEZA
370
     0
100
AcDbVertex
100
AcDb2dVertex
 10
141.7102714736325
 20
190.4985371048532
 30
0.0
  0
VERTEX
  5
8A
330
77
100
AcDbEntity
  8
PIEZA
370
     0
100
AcDbVertex
100
AcDb2dVertex
 10
141.8346415117662
 20
190.351141111109
 30
0.0
  0
VERTEX
  5
8B
330
77
100
AcDbEntity
  8
PIEZA
370
     0
100
AcDbVertex
100
AcDb2dVertex
 10
141.9694033467102
 20
190.1914290660327
 30
0.0
  0
VERTEX
  5
8C
330
77
100
AcDbEntity
  8
PIEZA
370
     0
100
AcDbVertex
100
AcDb2dVertex
 10
142.1112381623543
 20
190.0233342595168
 30
0.0
  0
VERTEX
  5
8D
330
77
100
AcDbEntity
  8
PIEZA
370
     0
100
AcDbVertex
100
AcDb2dVertex
 10
142.2566538624362
 20
189.8509968836697
 30
0.0
  0
VERTEX
  5
8E
330
77
100
AcDbEntity
  8
PIEZA
370
     0
100
AcDbVertex
100
AcDb2dVertex
 10
142.4020688464846
 20
189.6786587918988
 30
0.0
  0
VERTEX
  5
8F
330
77
100
AcDbEntity
  8
PIEZA
370
     0
100
AcDbVertex
100
AcDb2dVertex
 10
142.5439036621287
 20
189.510564701307
 30
0.0
  0
VERTEX
  5
90
330
77
100
AcDbEntity
  8
PIEZA
370
     0
100
AcDbVertex
100
AcDb2dVertex
 10
142.6786654970727
 20
189.3508526562306
 30
0.0
  0
VERTEX
  5
91
330
77
100
AcDbEntity
  8
PIEZA
370
     0
100
AcDbVertex
100
AcDb2dVertex
 10
142.8030362512399
 20
189.2034559465617
 30
0.0
  0
VERTEX
  5
92
330
77
100
AcDbEntity
  8
PIEZA
370
     0
100
AcDbVertex
100
AcDb2dVertex
 10
142.9139527325436
 20
189.0720035942275
 30
0.0
  0
VERTEX
  5
93
330
77
100
AcDbEntity
  8
PIEZA
370
     0
100
AcDbVertex
100
AcDb2dVertex
 10
143.0086847045583
 20
188.9597330103833
 30
0.0
  0
VERTEX
  5
94
330
77
100
AcDbEntity
  8
PIEZA
370
     0
100
AcDbVertex
100
AcDb2dVertex
 10
143.0848993295516
 20
188.8694083800092
 30
0.0
  0
VERTEX
  5
95
330
77
100
AcDbEntity
  8
PIEZA
370
     0
100
AcDbVertex
100
AcDb2dVertex
 10
143.1407184511783
 20
188.8032540809157
 30
0.0
  0
VERTEX
  5
96
330
77
100
AcDbEntity
  8
PIEZA
370
     0
100
AcDbVertex
100
AcDb2dVertex
 10
143.1747701489065
 20
188.7628981257019
 30
0.0
  0
VERTEX
  5
97
330
77
100
AcDbEntity
  8
PIEZA
370
     0
100
AcDbVertex
100
AcDb2dVertex
 10
143.1862152312612
 20
188.7493342177474
 30
0.0
  0
VERTEX
  5
98
330
77
100
AcDbEntity
  8
PIEZA
370
     0
100
AcDbVertex
100
AcDb2dVertex
 10
143.9942234384539
 20
189.4309087797015
 30
0.0
  0
VERTEX
  5
99
330
77
100
AcDbEntity
  8
PIEZA
370
     0
100
AcDbVertex
100
AcDb2dVertex
 10
143.9827797881661
 20
189.444471971731
 30
0.0
  0
VERTEX
  5
9A
330
77
100
AcDbEntity
  8
PIEZA
370
     0
100
AcDbVertex
100
AcDb2dVertex
 10
143.9487280904379
 20
189.4848279269452
 30
0.0
  0
VERTEX
  5
9B
330
77
100
AcDbEntity
  8
PIEZA
370
     0
100
AcDbVertex
100
AcDb2dVertex
 10
143.8929075367436
 20
189.5509829419633
 30
0.0
  0
VERTEX
  5
9C
330
77
100
AcDbEntity
  8
PIEZA
370
     0
100
AcDbVertex
100
AcDb2dVertex
 10
143.8166929117503
 20
189.6413075723374
 30
0.0
  0
VERTEX
  5
9D
330
77
100
AcDbEntity
  8
PIEZA
370
     0
100
AcDbVertex
100
AcDb2dVertex
 10
143.7219616557697
 20
189.7535781561816
 30
0.0
  0
VERTEX
  5
9E
330
77
100
AcDbEntity
  8
PIEZA
370
     0
100
AcDbVertex
100
AcDb2dVertex
 10
143.611045174466
 20
189.8850305085162
 30
0.0
  0
VERTEX
  5
9F
330
77
100
AcDbEntity
  8
PIEZA
370
     0
100
AcDbVertex
100
AcDb2dVertex
 10
143.4866744202988
 20
190.0324272181851
 30
0.0
  0
VERTEX
  5
A0
330
77
100
AcDbEntity
  8
PIEZA
370
     0
100
AcDbVertex
100
AcDb2dVertex
 10
143.3519125853549
 20
190.1921385473367
 30
0.0
  0
VERTEX
  5
A1
330
77
100
AcDbEntity
  8
PIEZA
370
     0
100
AcDbVertex
100
AcDb2dVertex
 10
143.2100777697108
 20
190.3602333538527
 30
0.0
  0
VERTEX
  5
A2
330
77
100
AcDbEntity
  8
PIEZA
370
     0
100
AcDbVertex
100
AcDb2dVertex
 10
143.0646627856623
 20
190.5325707296994
 30
0.0
  0
SEQEND
  5
A3
330
77
100
AcDbEntity
  8
PIEZA
370
     0
  0
HATCH
  5
A4
330
6C
100
AcDbEntity
  8
PIEZA
 62
     7
420
 16777215
100
AcDbHatch
 10
0.0
 20
0.0
 30
0.0
210
0.0
220
0.0
230
1.0
  2
SOLID
 70
     1
 71
     0
 91
        2
 92
        1
 93
        4
 72
     1
 10
138.9550225598855
 20
192.3528864098548
 11
138.9550225598855
 21
193.4098739472978
 72
     1
 10
138.9550225598855
 20
193.4098739472978
 11
135.591367703863
 21
193.4098739472978
 72
     1
 10
135.591367703863
 20
193.4098739472978
 11
135.591367703863
 21
192.3528864098548
 72
     1
 10
135.591367703863
 20
192.3528864098548
 11
138.9550225598855
 21
192.3528864098548
 97
        0
 92
        1
 93
       42
 72
     1
 10
143.0646627856623
 20
190.5325707296994
 11
142.9192470855798
 21
190.7049088214709
 72
     1
 10
142.9192470855798
 20
190.7049088214709
 11
142.7774122699363
 21
190.8730036279871
 72
     1
 10
142.7774122699363
 20
190.8730036279871
 11
142.6426504349917
 21
191.0327149571388
 72
     1
 10
142.6426504349917
 20
191.0327149571388
 11
142.5182796808245
 21
191.1801116668074
 72
     1
 10
142.5182796808245
 20
191.1801116668074
 11
142.4073631995208
 21
191.3115640191419
 72
     1
 10
142.4073631995208
 20
191.3115640191419
 11
142.3126312275068
 21
191.4238346029861
 72
     1
 10
142.3126312275068
 20
191.4238346029861
 11
142.2364173185469
 21
191.5141592333603
 72
     1
 10
142.2364173185469
 20
191.5141592333603
 11
142.1805967648527
 21
191.5803142483783
 72
     1
 10
142.1805967648527
 20
191.5803142483783
 11
142.1465457831586
 21
191.6206694876676
 72
     1
 10
142.1465457831586
 20
191.6206694876676
 11
142.1351014168367
 21
191.634233395622
 72
     1
 10
142.1351014168367
 20
191.634233395622
 11
141.3270924936112
 21
190.9526588336676
 72
     1
 10
141.3270924936112
 20
190.9526588336676
 11
141.3385368599324
 21
190.9390956416378
 72
     1
 10
141.3385368599324
 20
190.9390956416378
 11
141.3725885576606
 21
190.8987396864239
 72
     1
 10
141.3725885576606
 20
190.8987396864239
 11
141.4284083953214
 21
190.8325846714061
 72
     1
 10
141.4284083953214
 20
190.8325846714061
 11
141.5046230203141
 21
190.7422600410316
 72
     1
 10
141.5046230203141
 20
190.7422600410316
 11
141.5993549923288
 21
190.6299894571877
 72
     1
 10
141.5993549923288
 20
190.6299894571877
 11
141.7102714736325
 21
190.4985371048532
 72
     1
 10
141.7102714736325
 20
190.4985371048532
 11
141.8346415117662
 21
190.351141111109
 72
     1
 10
141.8346415117662
 20
190.351141111109
 11
141.9694033467102
 21
190.1914290660327
 72
     1
 10
141.9694033467102
 20
190.1914290660327
 11
142.1112381623543
 21
190.0233342595168
 72
     1
 10
142.1112381623543
 20
190.0233342595168
 11
142.2566538624362
 21
189.8509968836697
 72
     1
 10
142.2566538624362
 20
189.8509968836697
 11
142.4020688464846
 21
189.6786587918988
 72
     1
 10
142.4020688464846
 20
189.6786587918988
 11
142.5439036621287
 21
189.510564701307
 72
     1
 10
142.5439036621287
 20
189.510564701307
 11
142.6786654970727
 21
189.3508526562306
 72
     1
 10
142.6786654970727
 20
189.3508526562306
 11
142.8030362512399
 21
189.2034559465617
 72
     1
 10
142.8030362512399
 20
189.2034559465617
 11
142.9139527325436
 21
189.0720035942275
 72
     1
 10
142.9139527325436
 20
189.0720035942275
 11
143.0086847045583
 21
188.9597330103833
 72
     1
 10
143.0086847045583
 20
188.9597330103833
 11
143.0848993295516
 21
188.8694083800092
 72
     1
 10
143.0848993295516
 20
188.8694083800092
 11
143.1407184511783
 21
188.8032540809157
 72
     1
 10
143.1407184511783
 20
188.8032540809157
 11
143.1747701489065
 21
188.7628981257019
 72
     1
 10
143.1747701489065
 20
188.7628981257019
 11
143.1862152312612
 21
188.7493342177474
 72
     1
 10
143.1862152312612
 20
188.7493342177474
 11
143.9942234384539
 21
189.4309087797015
 72
     1
 10
143.9942234384539
 20
189.4309087797015
 11
143.9827797881661
 21
189.444471971731
 72
     1
 10
143.9827797881661
 20
189.444471971731
 11
143.9487280904379
 21
189.4848279269452
 72
     1
 10
143.9487280904379
 20
189.4848279269452
 11
143.8929075367436
 21
189.5509829419633
 72
     1
 10
143.8929075367436
 20
189.5509829419633
 11
143.8166929117503
 21
189.6413075723374
 72
     1
 10
143.8166929117503
 20
189.6413075723374
 11
143.7219616557697
 21
189.7535781561816
 72
     1
 10
143.7219616557697
 20
189.7535781561816
 11
143.611045174466
 21
189.8850305085162
 72
     1
 10
143.611045174466
 20
189.8850305085162
 11
143.4866744202988
 21
190.0324272181851
 72
     1
 10
143.4866744202988
 20
190.0324272181851
 11
143.3519125853549
 21
190.1921385473367
 72
     1
 10
143.3519125853549
 20
190.1921385473367
 11
143.2100777697108
 21
190.3602333538527
 72
     1
 10
143.2100777697108
 20
190.3602333538527
 11
143.0646627856623
 21
190.5325707296994
 97
        0
 75
     0
 76
     1
 98
        0
  0
ENDBLK
  5
6F
330
6C
100
AcDbEntity
  8
0
100
AcDbBlockEnd
  0
BLOCK
  5
A7
330
A5
100
AcDbEntity
  8
0
100
AcDbBlockBegin
  2
block 9
 70
     0
 10
0.0
 20
0.0
 30
0.0
  3
block 9
  1

  0
POLYLINE
  5
A9
330
A5
100
AcDbEntity
  8
PIEZA
 62
     7
420
 16777215
370
     9
100
AcDb2dPolyline
 66
     1
 10
0.0
 20
0.0
 30
0.0
  0
VERTEX
  5
AA
330
A9
100
AcDbEntity
  8
PIEZA
 62
     7
420
 16777215
370
     9
100
AcDbVertex
100
AcDb2dVertex
 10
143.9942234384539
 20
189.4309087797015
 30
0.0
  0
VERTEX
  5
AB
330
A9
100
AcDbEntity
  8
PIEZA
 62
     7
420
 16777215
370
     9
100
AcDbVertex
100
AcDb2dVertex
 10
143.1862152312612
 20
188.7493342177474
 30
0.0
  0
SEQEND
  5
AC
330
A9
100
AcDbEntity
  8
PIEZA
 62
     7
420
 16777215
370
     9
  0
ENDBLK
  5
A8
330
A5
100
AcDbEntity
  8
0
100
AcDbBlockEnd
  0
BLOCK
  5
AF
330
AD
100
AcDbEntity
  8
0
100
AcDbBlockBegin
  2
block 10
 70
     0
 10
0.0
 20
0.0
 30
0.0
  3
block 10
  1

  0
POLYLINE
  5
B1
330
AD
100
AcDbEntity
  8
PIEZA
 62
     7
420
 16777215
370
     9
100
AcDb2dPolyline
 66
     1
 10
0.0
 20
0.0
 30
0.0
  0
VERTEX
  5
B2
330
B1
100
AcDbEntity
  8
PIEZA
 62
     7
420
 16777215
370
     9
100
AcDbVertex
100
AcDb2dVertex
 10
143.9942234384539
 20
189.4309087797015
 30
0.0
  0
VERTEX
  5
B3
330
B1
100
AcDbEntity
  8
PIEZA
 62
     7
420
 16777215
370
     9
100
AcDbVertex
100
AcDb2dVertex
 10
146.370142053214
 20
186.6151077829807
 30
0.0
  0
SEQEND
  5
B4
330
B1
100
AcDbEntity
  8
PIEZA
 62
     7
420
 16777215
370
     9
  0
ENDBLK
  5
B0
330
AD
100
AcDbEntity
  8
0
100
AcDbBlockEnd
  0
BLOCK
  5
B7
330
B5
100
AcDbEntity
  8
0
100
AcDbBlockBegin
  2
block 11
 70
     0
 10
0.0
 20
0.0
 30
0.0
  3
block 11
  1

  0
SPLINE
  5
B9
330
B5
100
AcDbEntity
  8
PIEZA
 62
     7
420
 16777215
370
     9
100
AcDbSpline
210
0.0
220
0.0
230
1.0
 70
     8
 71
     3
 72
    17
 73
    13
 74
     0
 42
0.0000000001
 43
0.0000000001
 12
1.0
 22
0.0
 32
0.0
 13
1.0
 23
0.0
 33
0.0
 40
0.0
 40
0.0
 40
0.0
 40
0.0
 40
1.0
 40
1.0
 40
1.0
 40
2.0
 40
2.0
 40
2.0
 40
3.0
 40
3.0
 40
3.0
 40
4.0
 40
4.0
 40
4.0
 40
4.0
 10
146.3701423601644
 20
186.6151075825318
 30
0.0
 10
146.6726373481131
 20
186.256608044321
 30
0.0
 10
147.0147245731552
 20
185.9200719491488
 30
0.0
 10
147.3899830373995
 20
185.6170705355626
 30
0.0
 10
147.7652415016431
 20
185.3140691219764
 30
0.0
 10
148.1735899275225
 20
185.0447488597411
 30
0.0
 10
148.6043406913312
 20
184.8177394411878
 30
0.0
 10
149.0350914551398
 20
184.5907300226345
 30
0.0
 10
149.4880921734508
 20
184.4061117551631
 30
0.0
 10
149.9501821989186
 20
184.2678231937894
 30
0.0
 10
150.4122722243865
 20
184.1295346324153
 30
0.0
 10
150.8832847690027
 20
184.0375600401008
 30
0.0
 10
151.350043435127
 20
183.9906561770808
 30
0.0
  0
ENDBLK
  5
B8
330
B5
100
AcDbEntity
  8
0
100
AcDbBlockEnd
  0
BLOCK
  5
BC
330
BA
100
AcDbEntity
  8
0
100
AcDbBlockBegin
  2
block 12
 70
     0
 10
0.0
 20
0.0
 30
0.0
  3
block 12
  1

  0
POLYLINE
  5
BE
330
BA
100
AcDbEntity
  8
PIEZA
 62
     7
420
 16777215
370
     9
100
AcDb2dPolyline
 66
     1
 10
0.0
 20
0.0
 30
0.0
  0
VERTEX
  5
BF
330
BE
100
AcDbEntity
  8
PIEZA
 62
     7
420
 16777215
370
     9
100
AcDbVertex
100
AcDb2dVertex
 10
153.1794691272021
 20
183.8068198782598
 30
0.0
  0
VERTEX
  5
C0
330
BE
100
AcDbEntity
  8
PIEZA
 62
     7
420
 16777215
370
     9
100
AcDbVertex
100
AcDb2dVertex
 10
151.3500431704325
 20
183.9906560774788
 30
0.0
  0
SEQEND
  5
C1
330
BE
100
AcDbEntity
  8
PIEZA
 62
     7
420
 16777215
370
     9
  0
ENDBLK
  5
BD
330
BA
100
AcDbEntity
  8
0
100
AcDbBlockEnd
  0
BLOCK
  5
C4
330
C2
100
AcDbEntity
  8
0
100
AcDbBlockBegin
  2
block 13
 70
     0
 10
0.0
 20
0.0
 30
0.0
  3
block 13
  1

  0
SPLINE
  5
C6
330
C2
100
AcDbEntity
  8
PIEZA
 62
     7
420
 16777215
370
     9
100
AcDbSpline
210
0.0
220
0.0
230
1.0
 70
     8
 71
     3
 72
     8
 73
     4
 74
     0
 42
0.0000000001
 43
0.0000000001
 12
1.0
 22
0.0
 32
0.0
 13
1.0
 23
0.0
 33
0.0
 40
0.0
 40
0.0
 40
0.0
 40
0.0
 40
1.0
 40
1.0
 40
1.0
 40
1.0
 10
153.2837981051479
 20
183.7628217615142
 30
0.0
 10
153.2542293253654
 20
183.7876291348657
 30
0.0
 10
153.2178753542766
 20
183.8029605816504
 30
0.0
 10
153.1794695350333
 20
183.8068199238307
 30
0.0
  0
ENDBLK
  5
C5
330
C2
100
AcDbEntity
  8
0
100
AcDbBlockEnd
  0
BLOCK
  5
C9
330
C7
100
AcDbEntity
  8
0
100
AcDbBlockBegin
  2
block 14
 70
     0
 10
0.0
 20
0.0
 30
0.0
  3
block 14
  1

  0
POLYLINE
  5
CB
330
C7
100
AcDbEntity
  8
PIEZA
 62
     7
420
 16777215
370
     9
100
AcDb2dPolyline
 66
     1
 10
0.0
 20
0.0
 30
0.0
  0
VERTEX
  5
CC
330
CB
100
AcDbEntity
  8
PIEZA
 62
     7
420
 16777215
370
     9
100
AcDbVertex
100
AcDb2dVertex
 10
154.9564069510284
 20
182.3595498793286
 30
0.0
  0
VERTEX
  5
CD
330
CB
100
AcDbEntity
  8
PIEZA
 62
     7
420
 16777215
370
     9
100
AcDbVertex
100
AcDb2dVertex
 10
153.2837980986411
 20
183.7628218354951
 30
0.0
  0
SEQEND
  5
CE
330
CB
100
AcDbEntity
  8
PIEZA
 62
     7
420
 16777215
370
     9
  0
ENDBLK
  5
CA
330
C7
100
AcDbEntity
  8
0
100
AcDbBlockEnd
  0
BLOCK
  5
D1
330
CF
100
AcDbEntity
  8
0
100
AcDbBlockBegin
  2
block 15
 70
     0
 10
0.0
 20
0.0
 30
0.0
  3
block 15
  1

  0
POLYLINE
  5
D3
330
CF
100
AcDbEntity
  8
PIEZA
 62
     7
420
 16777215
370
     9
100
AcDb2dPolyline
 66
     1
 10
0.0
 20
0.0
 30
0.0
  0
VERTEX
  5
D4
330
D3
100
AcDbEntity
  8
PIEZA
 62
     7
420
 16777215
370
     9
100
AcDbVertex
100
AcDb2dVertex
 10
154.9564069510284
 20
181.8791010068079
 30
0.0
  0
VERTEX
  5
D5
330
D3
100
AcDbEntity
  8
PIEZA
 62
     7
420
 16777215
370
     9
100
AcDbVertex
100
AcDb2dVertex
 10
154.9564069510284
 20
182.3595498793286
 30
0.0
  0
SEQEND
  5
D6
330
D3
100
AcDbEntity
  8
PIEZA
 62
     7
420
 16777215
370
     9
  0
ENDBLK
  5
D2
330
CF
100
AcDbEntity
  8
0
100
AcDbBlockEnd
  0
BLOCK
  5
D9
330
D7
100
AcDbEntity
  8
0
100
AcDbBlockBegin
  2
block 16
 70
     0
 10
0.0
 20
0.0
 30
0.0
  3
block 16
  1

  0
POLYLINE
  5
DB
330
D7
100
AcDbEntity
  8
PIEZA
 62
     7
420
 16777215
370
     9
100
AcDb2dPolyline
 66
     1
 10
0.0
 20
0.0
 30
0.0
  0
VERTEX
  5
DC
330
DB
100
AcDbEntity
  8
PIEZA
 62
     7
420
 16777215
370
     9
100
AcDbVertex
100
AcDb2dVertex
 10
154.9564069510284
 20
181.8791010068079
 30
0.0
  0
VERTEX
  5
DD
330
DB
100
AcDbEntity
  8
PIEZA
 62
     7
420
 16777215
370
     9
100
AcDbVertex
100
AcDb2dVertex
 10
153.884440087715
 20
181.8791010068079
 30
0.0
  0
SEQEND
  5
DE
330
DB
100
AcDbEntity
  8
PIEZA
 62
     7
420
 16777215
370
     9
  0
ENDBLK
  5
DA
330
D7
100
AcDbEntity
  8
0
100
AcDbBlockEnd
  0
BLOCK
  5
E1
330
DF
100
AcDbEntity
  8
0
100
AcDbBlockBegin
  2
block 17
 70
     0
 10
0.0
 20
0.0
 30
0.0
  3
block 17
  1

  0
POLYLINE
  5
E3
330
DF
100
AcDbEntity
  8
PIEZA
 62
     7
420
 16777215
370
     9
100
AcDb2dPolyline
 66
     1
 10
0.0
 20
0.0
 30
0.0
  0
VERTEX
  5
E4
330
E3
100
AcDbEntity
  8
PIEZA
 62
     7
420
 16777215
370
     9
100
AcDbVertex
100
AcDb2dVertex
 10
143.1862152312612
 20
188.7493342177474
 30
0.0
  0
VERTEX
  5
E5
330
E3
100
AcDbEntity
  8
PIEZA
 62
     7
420
 16777215
370
     9
100
AcDbVertex
100
AcDb2dVertex
 10
145.562133846022
 20
185.9335335789884
 30
0.0
  0
SEQEND
  5
E6
330
E3
100
AcDbEntity
  8
PIEZA
 62
     7
420
 16777215
370
     9
  0
ENDBLK
  5
E2
330
DF
100
AcDbEntity
  8
0
100
AcDbBlockEnd
  0
BLOCK
  5
E9
330
E7
100
AcDbEntity
  8
0
100
AcDbBlockBegin
  2
block 18
 70
     0
 10
0.0
 20
0.0
 30
0.0
  3
block 18
  1

  0
POLYLINE
  5
EB
330
E7
100
AcDbEntity
  8
PIEZA
 62
     7
420
 16777215
370
     9
100
AcDb2dPolyline
 66
     1
 10
0.0
 20
0.0
 30
0.0
  0
VERTEX
  5
EC
330
EB
100
AcDbEntity
  8
PIEZA
 62
     7
420
 16777215
370
     9
100
AcDbVertex
100
AcDb2dVertex
 10
151.2443279577868
 20
182.9389668297169
 30
0.0
  0
VERTEX
  5
ED
330
EB
100
AcDbEntity
  8
PIEZA
 62
     7
420
 16777215
370
     9
100
AcDbVertex
100
AcDb2dVertex
 10
151.2506032769665
 20
182.9454560600132
 30
0.0
  0
SEQEND
  5
EE
330
EB
100
AcDbEntity
  8
PIEZA
 62
     7
420
 16777215
370
     9
  0
ENDBLK
  5
EA
330
E7
100
AcDbEntity
  8
0
100
AcDbBlockEnd
  0
BLOCK
  5
F1
330
EF
100
AcDbEntity
  8
0
100
AcDbBlockBegin
  2
block 19
 70
     0
 10
0.0
 20
0.0
 30
0.0
  3
block 19
  1

  0
SPLINE
  5
F3
330
EF
100
AcDbEntity
  8
PIEZA
370
     0
100
AcDbSpline
210
0.0
220
0.0
230
1.0
 70
    11
 71
     3
 72
    11
 73
     7
 74
     0
 42
0.0000000001
 43
0.0000000001
 12
1.0
 22
0.0
 32
0.0
 13
1.0
 23
0.0
 33
0.0
 40
0.0
 40
0.0
 40
0.0
 40
0.0
 40
1.0
 40
1.0
 40
1.0
 40
2.0
 40
2.0
 40
2.0
 40
2.0
 10
163.095876249874
 20
182.9396288382348
 30
0.0
 10
163.3249876160374
 20
182.9626518866406
 30
0.0
 10
163.5513691376653
 20
182.9947184706217
 30
0.0
 10
163.7751130495468
 20
183.0355230311667
 30
0.0
 10
163.7751130495468
 20
183.0355230311667
 30
0.0
 10
163.095876249874
 20
182.9396288382348
 30
0.0
 10
163.095876249874
 20
182.9396288382348
 30
0.0
  0
HATCH
  5
F4
330
EF
100
AcDbEntity
  8
PIEZA
 62
     7
420
 16777215
100
AcDbHatch
 10
0.0
 20
0.0
 30
0.0
210
0.0
220
0.0
230
1.0
  2
SOLID
 70
     1
 71
     0
 91
        1
 92
        1
 93
        1
 72
     4
 94
        3
 73
     0
 74
     1
 95
       11
 96
        7
 40
0.0
 40
0.0
 40
0.0
 40
0.0
 40
1.0
 40
1.0
 40
1.0
 40
2.0
 40
2.0
 40
2.0
 40
2.0
 10
163.095876249874
 20
182.9396288382348
 10
163.3249876160374
 20
182.9626518866406
 10
163.5513691376653
 20
182.9947184706217
 10
163.7751130495468
 20
183.0355230311667
 10
163.7751130495468
 20
183.0355230311667
 10
163.095876249874
 20
182.9396288382348
 10
163.095876249874
 20
182.9396288382348
 97
        0
 97
        0
 75
     0
 76
     1
 98
        0
  0
ENDBLK
  5
F2
330
EF
100
AcDbEntity
  8
0
100
AcDbBlockEnd
  0
BLOCK
  5
F7
330
F5
100
AcDbEntity
  8
0
100
AcDbBlockBegin
  2
block 20
 70
     0
 10
0.0
 20
0.0
 30
0.0
  3
block 20
  1

  0
POLYLINE
  5
F9
330
F5
100
AcDbEntity
  8
PIEZA
 62
     7
420
 16777215
370
     9
100
AcDb2dPolyline
 66
     1
 10
0.0
 20
0.0
 30
0.0
  0
VERTEX
  5
FA
330
F9
100
AcDbEntity
  8
PIEZA
 62
     7
420
 16777215
370
     9
100
AcDbVertex
100
AcDb2dVertex
 10
163.0958754243756
 20
182.9396287020335
 30
0.0
  0
VERTEX
  5
FB
330
F9
100
AcDbEntity
  8
PIEZA
 62
     7
420
 16777215
370
     9
100
AcDbVertex
100
AcDb2dVertex
 10
161.819848986483
 20
182.8114027535144
 30
0.0
  0
SEQEND
  5
FC
330
F9
100
AcDbEntity
  8
PIEZA
 62
     7
420
 16777215
370
     9
  0
ENDBLK
  5
F8
330
F5
100
AcDbEntity
  8
0
100
AcDbBlockEnd
  0
BLOCK
  5
FF
330
FD
100
AcDbEntity
  8
0
100
AcDbBlockBegin
  2
block 21
 70
     0
 10
0.0
 20
0.0
 30
0.0
  3
block 21
  1

  0
POLYLINE
  5
101
330
FD
100
AcDbEntity
  8
PIEZA
 62
     7
420
 16777215
370
     9
100
AcDb2dPolyline
 66
     1
 10
0.0
 20
0.0
 30
0.0
  0
VERTEX
  5
102
330
101
100
AcDbEntity
  8
PIEZA
 62
     7
420
 16777215
370
     9
100
AcDbVertex
100
AcDb2dVertex
 10
162.9901602117298
 20
183.9913181287762
 30
0.0
  0
VERTEX
  5
103
330
101
100
AcDbEntity
  8
PIEZA
 62
     7
420
 16777215
370
     9
100
AcDbVertex
100
AcDb2dVertex
 10
161.1541467450961
 20
183.8068198782598
 30
0.0
  0
SEQEND
  5
104
330
101
100
AcDbEntity
  8
PIEZA
 62
     7
420
 16777215
370
     9
  0
ENDBLK
  5
100
330
FD
100
AcDbEntity
  8
0
100
AcDbBlockEnd
  0
BLOCK
  5
107
330
105
100
AcDbEntity
  8
0
100
AcDbBlockBegin
  2
block 22
 70
     0
 10
0.0
 20
0.0
 30
0.0
  3
block 22
  1

  0
POLYLINE
  5
109
330
105
100
AcDbEntity
  8
PIEZA
 62
     7
420
 16777215
370
     9
100
AcDb2dPolyline
 66
     1
 10
0.0
 20
0.0
 30
0.0
  0
VERTEX
  5
10A
330
109
100
AcDbEntity
  8
PIEZA
 62
     7
420
 16777215
370
     9
100
AcDbVertex
100
AcDb2dVertex
 10
153.1794691272021
 20
183.8068198782598
 30
0.0
  0
VERTEX
  5
10B
330
109
100
AcDbEntity
  8
PIEZA
 62
     7
420
 16777215
370
     9
100
AcDbVertex
100
AcDb2dVertex
 10
161.1541467450961
 20
183.8068198782598
 30
0.0
  0
SEQEND
  5
10C
330
109
100
AcDbEntity
  8
PIEZA
 62
     7
420
 16777215
370
     9
  0
ENDBLK
  5
108
330
105
100
AcDbEntity
  8
0
100
AcDbBlockEnd
  0
BLOCK
  5
10F
330
10D
100
AcDbEntity
  8
0
100
AcDbBlockBegin
  2
block 23
 70
     0
 10
0.0
 20
0.0
 30
0.0
  3
block 23
  1

  0
POLYLINE
  5
111
330
10D
100
AcDbEntity
  8
PIEZA
 62
     7
420
 16777215
370
     9
100
AcDb2dPolyline
 66
     1
 10
0.0
 20
0.0
 30
0.0
  0
VERTEX
  5
112
330
111
100
AcDbEntity
  8
PIEZA
 62
     7
420
 16777215
370
     9
100
AcDbVertex
100
AcDb2dVertex
 10
160.4491772166508
 20
181.8791010068079
 30
0.0
  0
VERTEX
  5
113
330
111
100
AcDbEntity
  8
PIEZA
 62
     7
420
 16777215
370
     9
100
AcDbVertex
100
AcDb2dVertex
 10
159.3772089212706
 20
181.8791010068079
 30
0.0
  0
SEQEND
  5
114
330
111
100
AcDbEntity
  8
PIEZA
 62
     7
420
 16777215
370
     9
  0
ENDBLK
  5
110
330
10D
100
AcDbEntity
  8
0
100
AcDbBlockEnd
  0
BLOCK
  5
117
330
115
100
AcDbEntity
  8
0
100
AcDbBlockBegin
  2
block 24
 70
     0
 10
0.0
 20
0.0
 30
0.0
  3
block 24
  1

  0
POLYLINE
  5
119
330
115
100
AcDbEntity
  8
PIEZA
 62
     7
420
 16777215
370
     9
100
AcDb2dPolyline
 66
     1
 10
0.0
 20
0.0
 30
0.0
  0
VERTEX
  5
11A
330
119
100
AcDbEntity
  8
PIEZA
 62
     7
420
 16777215
370
     9
100
AcDbVertex
100
AcDb2dVertex
 10
159.3772089212706
 20
182.3595498793286
 30
0.0
  0
VERTEX
  5
11B
330
119
100
AcDbEntity
  8
PIEZA
 62
     7
420
 16777215
370
     9
100
AcDbVertex
100
AcDb2dVertex
 10
159.3772089212706
 20
181.8791010068079
 30
0.0
  0
SEQEND
  5
11C
330
119
100
AcDbEntity
  8
PIEZA
 62
     7
420
 16777215
370
     9
  0
ENDBLK
  5
118
330
115
100
AcDbEntity
  8
0
100
AcDbBlockEnd
  0
BLOCK
  5
11F
330
11D
100
AcDbEntity
  8
0
100
AcDbBlockBegin
  2
block 25
 70
     0
 10
0.0
 20
0.0
 30
0.0
  3
block 25
  1

  0
POLYLINE
  5
121
330
11D
100
AcDbEntity
  8
PIEZA
 62
     7
420
 16777215
370
     9
100
AcDb2dPolyline
 66
     1
 10
0.0
 20
0.0
 30
0.0
  0
VERTEX
  5
122
330
121
100
AcDbEntity
  8
PIEZA
 62
     7
420
 16777215
370
     9
100
AcDbVertex
100
AcDb2dVertex
 10
161.0498206377916
 20
183.7628218354951
 30
0.0
  0
VERTEX
  5
123
330
121
100
AcDbEntity
  8
PIEZA
 62
     7
420
 16777215
370
     9
100
AcDbVertex
100
AcDb2dVertex
 10
159.3772089212706
 20
182.3595498793286
 30
0.0
  0
SEQEND
  5
124
330
121
100
AcDbEntity
  8
PIEZA
 62
     7
420
 16777215
370
     9
  0
ENDBLK
  5
120
330
11D
100
AcDbEntity
  8
0
100
AcDbBlockEnd
  0
BLOCK
  5
127
330
125
100
AcDbEntity
  8
0
100
AcDbBlockBegin
  2
block 26
 70
     0
 10
0.0
 20
0.0
 30
0.0
  3
block 26
  1

  0
SPLINE
  5
129
330
125
100
AcDbEntity
  8
PIEZA
 62
     7
420
 16777215
370
     9
100
AcDbSpline
210
0.0
220
0.0
230
1.0
 70
     8
 71
     3
 72
     8
 73
     4
 74
     0
 42
0.0000000001
 43
0.0000000001
 12
1.0
 22
0.0
 32
0.0
 13
1.0
 23
0.0
 33
0.0
 40
0.0
 40
0.0
 40
0.0
 40
0.0
 40
1.0
 40
1.0
 40
1.0
 40
1.0
 10
161.1541477922431
 20
183.8068199238307
 30
0.0
 10
161.1157419730004
 20
183.8029605816504
 30
0.0
 10
161.0793880019116
 20
183.7876291348657
 30
0.0
 10
161.0498192221291
 20
183.7628217615145
 30
0.0
  0
ENDBLK
  5
128
330
125
100
AcDbEntity
  8
0
100
AcDbBlockEnd
  0
BLOCK
  5
12C
330
12A
100
AcDbEntity
  8
0
100
AcDbBlockBegin
  2
block 27
 70
     0
 10
0.0
 20
0.0
 30
0.0
  3
block 27
  1

  0
SPLINE
  5
12E
330
12A
100
AcDbEntity
  8
PIEZA
 62
     7
420
 16777215
370
     9
100
AcDbSpline
210
0.0
220
0.0
230
1.0
 70
     8
 71
     3
 72
     8
 73
     4
 74
     0
 42
0.0000000001
 43
0.0000000001
 12
1.0
 22
0.0
 32
0.0
 13
1.0
 23
0.0
 33
0.0
 40
0.0
 40
0.0
 40
0.0
 40
0.0
 40
1.0
 40
1.0
 40
1.0
 40
1.0
 10
162.9901602117298
 20
183.9913181287762
 30
0.0
 10
163.0754108664939
 20
184.0026585271519
 30
0.0
 10
163.1606615212612
 20
184.0139989255267
 30
0.0
 10
163.2458043718053
 20
184.0259096078203
 30
0.0
  0
ENDBLK
  5
12D
330
12A
100
AcDbEntity
  8
0
100
AcDbBlockEnd
  0
BLOCK
  5
131
330
12F
100
AcDbEntity
  8
0
100
AcDbBlockBegin
  2
block 28
 70
     0
 10
0.0
 20
0.0
 30
0.0
  3
block 28
  1

  0
POLYLINE
  5
133
330
12F
100
AcDbEntity
  8
PIEZA
 62
     7
420
 16777215
370
     9
100
AcDb2dPolyline
 66
     1
 10
0.0
 20
0.0
 30
0.0
  0
VERTEX
  5
134
330
133
100
AcDbEntity
  8
PIEZA
 62
     7
420
 16777215
370
     9
100
AcDbVertex
100
AcDb2dVertex
 10
173.5926943270709
 20
193.4098739472978
 30
0.0
  0
VERTEX
  5
135
330
133
100
AcDbEntity
  8
PIEZA
 62
     7
420
 16777215
370
     9
100
AcDbVertex
100
AcDb2dVertex
 10
173.8788242500864
 20
193.4098739472978
 30
0.0
  0
SEQEND
  5
136
330
133
100
AcDbEntity
  8
PIEZA
 62
     7
420
 16777215
370
     9
  0
ENDBLK
  5
132
330
12F
100
AcDbEntity
  8
0
100
AcDbBlockEnd
  0
BLOCK
  5
139
330
137
100
AcDbEntity
  8
0
100
AcDbBlockBegin
  2
block 29
 70
     0
 10
0.0
 20
0.0
 30
0.0
  3
block 29
  1

  0
SPLINE
  5
13B
330
137
100
AcDbEntity
  8
PIEZA
 62
     7
420
 16777215
370
     9
100
AcDbSpline
210
0.0
220
0.0
230
1.0
 70
     8
 71
     3
 72
    11
 73
     7
 74
     0
 42
0.0000000001
 43
0.0000000001
 12
1.0
 22
0.0
 32
0.0
 13
1.0
 23
0.0
 33
0.0
 40
0.0
 40
0.0
 40
0.0
 40
0.0
 40
1.0
 40
1.0
 40
1.0
 40
2.0
 40
2.0
 40
2.0
 40
2.0
 10
174.455362439072
 20
192.8232735581002
 30
0.0
 10
174.4609203675559
 20
193.1416385717371
 30
0.0
 10
174.207300808461
 20
193.404229313417
 30
0.0
 10
173.8888872989036
 20
193.4097863954004
 30
0.0
 10
173.8855331116571
 20
193.4098449340397
 30
0.0
 10
173.8821784773447
 20
193.4098742050311
 30
0.0
 10
173.8788237791614
 20
193.4098742050311
 30
0.0
  0
ENDBLK
  5
13A
330
137
100
AcDbEntity
  8
0
100
AcDbBlockEnd
  0
BLOCK
  5
13E
330
13C
100
AcDbEntity
  8
0
100
AcDbBlockBegin
  2
block 30
 70
     0
 10
0.0
 20
0.0
 30
0.0
  3
block 30
  1

  0
POLYLINE
  5
140
330
13C
100
AcDbEntity
  8
PIEZA
 62
     7
420
 16777215
370
     9
100
AcDb2dPolyline
 66
     1
 10
0.0
 20
0.0
 30
0.0
  0
VERTEX
  5
141
330
140
100
AcDbEntity
  8
PIEZA
 62
     7
420
 16777215
370
     9
100
AcDbVertex
100
AcDb2dVertex
 10
174.4553631133944
 20
192.8232732302356
 30
0.0
  0
VERTEX
  5
142
330
140
100
AcDbEntity
  8
PIEZA
 62
     7
420
 16777215
370
     9
100
AcDbVertex
100
AcDb2dVertex
 10
174.2692459107896
 20
181.2083873033321
 30
0.0
  0
SEQEND
  5
143
330
140
100
AcDbEntity
  8
PIEZA
 62
     7
420
 16777215
370
     9
  0
ENDBLK
  5
13F
330
13C
100
AcDbEntity
  8
0
100
AcDbBlockEnd
  0
BLOCK
  5
146
330
144
100
AcDbEntity
  8
0
100
AcDbBlockBegin
  2
block 31
 70
     0
 10
0.0
 20
0.0
 30
0.0
  3
block 31
  1

  0
SPLINE
  5
148
330
144
100
AcDbEntity
  8
PIEZA
 62
     7
420
 16777215
370
     9
100
AcDbSpline
210
0.0
220
0.0
230
1.0
 70
     8
 71
     3
 72
     8
 73
     4
 74
     0
 42
0.0000000001
 43
0.0000000001
 12
1.0
 22
0.0
 32
0.0
 13
1.0
 23
0.0
 33
0.0
 40
0.0
 40
0.0
 40
0.0
 40
0.0
 40
1.0
 40
1.0
 40
1.0
 40
1.0
 10
173.9809774638885
 20
180.918203240289
 30
0.0
 10
174.138175351517
 20
180.9246827363828
 30
0.0
 10
174.2638310733409
 20
181.0511730878686
 30
0.0
 10
174.2692467938451
 20
181.2083873110136
 30
0.0
  0
ENDBLK
  5
147
330
144
100
AcDbEntity
  8
0
100
AcDbBlockEnd
  0
BLOCK
  5
14B
330
149
100
AcDbEntity
  8
0
100
AcDbBlockBegin
  2
block 32
 70
     0
 10
0.0
 20
0.0
 30
0.0
  3
block 32
  1

  0
SPLINE
  5
14D
330
149
100
AcDbEntity
  8
PIEZA
 62
     7
420
 16777215
370
     9
100
AcDbSpline
210
0.0
220
0.0
230
1.0
 70
     8
 71
     3
 72
     8
 73
     4
 74
     0
 42
0.0000000001
 43
0.0000000001
 12
1.0
 22
0.0
 32
0.0
 13
1.0
 23
0.0
 33
0.0
 40
0.0
 40
0.0
 40
0.0
 40
0.0
 40
1.0
 40
1.0
 40
1.0
 40
1.0
 10
163.095876249874
 20
182.9396288382351
 30
0.0
 10
163.3249876160374
 20
182.9626518866406
 30
0.0
 10
163.5513691376646
 20
182.9947184706217
 30
0.0
 10
163.7751130495468
 20
183.0355230311667
 30
0.0
  0
ENDBLK
  5
14C
330
149
100
AcDbEntity
  8
0
100
AcDbBlockEnd
  0
BLOCK
  5
150
330
14E
100
AcDbEntity
  8
0
100
AcDbBlockBegin
  2
block 33
 70
     0
 10
0.0
 20
0.0
 30
0.0
  3
block 33
  1

  0
SPLINE
  5
152
330
14E
100
AcDbEntity
  8
PIEZA
 62
     7
420
 16777215
370
     9
100
AcDbSpline
210
0.0
220
0.0
230
1.0
 70
     8
 71
     3
 72
     8
 73
     4
 74
     0
 42
0.0000000001
 43
0.0000000001
 12
1.0
 22
0.0
 32
0.0
 13
1.0
 23
0.0
 33
0.0
 40
0.0
 40
0.0
 40
0.0
 40
0.0
 40
1.0
 40
1.0
 40
1.0
 40
1.0
 10
161.8198487378342
 20
182.8114027450581
 30
0.0
 10
161.6278196416198
 20
182.7921060341556
 30
0.0
 10
161.4460497861742
 20
182.7154488002328
 30
0.0
 10
161.2982058872606
 20
182.5914119334756
 30
0.0
  0
ENDBLK
  5
151
330
14E
100
AcDbEntity
  8
0
100
AcDbBlockEnd
  0
BLOCK
  5
155
330
153
100
AcDbEntity
  8
0
100
AcDbBlockBegin
  2
block 34
 70
     0
 10
0.0
 20
0.0
 30
0.0
  3
block 34
  1

  0
POLYLINE
  5
157
330
153
100
AcDbEntity
  8
PIEZA
 62
     7
420
 16777215
370
     9
100
AcDb2dPolyline
 66
     1
 10
0.0
 20
0.0
 30
0.0
  0
VERTEX
  5
158
330
157
100
AcDbEntity
  8
PIEZA
 62
     7
420
 16777215
370
     9
100
AcDbVertex
100
AcDb2dVertex
 10
161.2982069934207
 20
182.5914119132554
 30
0.0
  0
VERTEX
  5
159
330
157
100
AcDbEntity
  8
PIEZA
 62
     7
420
 16777215
370
     9
100
AcDbVertex
100
AcDb2dVertex
 10
160.4491772166508
 20
181.8791010068079
 30
0.0
  0
SEQEND
  5
15A
330
157
100
AcDbEntity
  8
PIEZA
 62
     7
420
 16777215
370
     9
  0
ENDBLK
  5
156
330
153
100
AcDbEntity
  8
0
100
AcDbBlockEnd
  0
BLOCK
  5
15D
330
15B
100
AcDbEntity
  8
0
100
AcDbBlockBegin
  2
block 35
 70
     0
 10
0.0
 20
0.0
 30
0.0
  3
block 35
  1

  0
SPLINE
  5
15F
330
15B
100
AcDbEntity
  8
PIEZA
370
     0
100
AcDbSpline
210
0.0
220
0.0
230
1.0
 70
    11
 71
     3
 72
    26
 73
    22
 74
     0
 42
0.0000000001
 43
0.0000000001
 12
1.0
 22
0.0
 32
0.0
 13
1.0
 23
0.0
 33
0.0
 40
0.0
 40
0.0
 40
0.0
 40
0.0
 40
1.0
 40
1.0
 40
1.0
 40
2.0
 40
2.0
 40
2.0
 40
3.0
 40
3.0
 40
3.0
 40
4.0
 40
4.0
 40
4.0
 40
5.0
 40
5.0
 40
5.0
 40
6.0
 40
6.0
 40
6.0
 40
7.0
 40
7.0
 40
7.0
 40
7.0
 10
133.9411119788006
 20
191.6263405796583
 30
0.0
 10
133.9402893975891
 20
191.625710748852
 30
0.0
 10
133.9398605160173
 20
191.6250637069997
 30
0.0
 10
133.9398257300039
 20
191.6244000514159
 30
0.0
 10
133.9432811114955
 20
191.6903226161133
 30
0.0
 10
133.9552148172445
 20
191.7555255915719
 30
0.0
 10
133.9753322789415
 20
191.818399525486
 30
0.0
 10
133.9753322789415
 20
191.818399525486
 30
0.0
 10
132.893989067235
 20
191.818399525486
 30
0.0
 10
132.893989067235
 20
191.818399525486
 30
0.0
 10
132.893989067235
 20
191.818399525486
 30
0.0
 10
132.810996200473
 20
190.0734754349656
 30
0.0
 10
132.810996200473
 20
190.0734754349656
 30
0.0
 10
132.810996200473
 20
190.0734754349656
 30
0.0
 10
133.866020115512
 20
190.0734754349656
 30
0.0
 10
133.866020115512
 20
190.0734754349656
 30
0.0
 10
133.866020115512
 20
190.0734754349656
 30
0.0
 10
133.9398258221359
 20
191.62440031187
 30
0.0
 10
133.9398258221359
 20
191.62440031187
 30
0.0
 10
133.9398258221359
 20
191.62440031187
 30
0.0
 10
133.9411119788006
 20
191.6263405796583
 30
0.0
 10
133.9411119788006
 20
191.6263405796583
 30
0.0
  0
POLYLINE
  5
160
330
15B
100
AcDbEntity
  8
PIEZA
370
     0
100
AcDb2dPolyline
 66
     1
 10
0.0
 20
0.0
 30
0.0
  0
VERTEX
  5
161
330
160
100
AcDbEntity
  8
PIEZA
370
     0
100
AcDbVertex
100
AcDb2dVertex
 10
132.0835566567297
 20
191.818399525486
 30
0.0
  0
VERTEX
  5
162
330
160
100
AcDbEntity
  8
PIEZA
370
     0
100
AcDbVertex
100
AcDb2dVertex
 10
131.026408104716
 20
191.818399525486
 30
0.0
  0
VERTEX
  5
163
330
160
100
AcDbEntity
  8
PIEZA
370
     0
100
AcDbVertex
100
AcDb2dVertex
 10
131.026408104716
 20
190.0734754349656
 30
0.0
  0
VERTEX
  5
164
330
160
100
AcDbEntity
  8
PIEZA
370
     0
100
AcDbVertex
100
AcDb2dVertex
 10
132.0835566567297
 20
190.0734754349656
 30
0.0
  0
VERTEX
  5
165
330
160
100
AcDbEntity
  8
PIEZA
370
     0
100
AcDbVertex
100
AcDb2dVertex
 10
132.0835566567297
 20
191.818399525486
 30
0.0
  0
SEQEND
  5
166
330
160
100
AcDbEntity
  8
PIEZA
370
     0
  0
POLYLINE
  5
167
330
15B
100
AcDbEntity
  8
PIEZA
370
     0
100
AcDb2dPolyline
 66
     1
 10
0.0
 20
0.0
 30
0.0
  0
VERTEX
  5
168
330
167
100
AcDbEntity
  8
PIEZA
370
     0
100
AcDbVertex
100
AcDb2dVertex
 10
132.0835566567297
 20
190.0734754349656
 30
0.0
  0
VERTEX
  5
169
330
167
100
AcDbEntity
  8
PIEZA
370
     0
100
AcDbVertex
100
AcDb2dVertex
 10
131.026408104716
 20
190.0734754349656
 30
0.0
  0
VERTEX
  5
16A
330
167
100
AcDbEntity
  8
PIEZA
370
     0
100
AcDbVertex
100
AcDb2dVertex
 10
131.026408104716
 20
187.5504097826422
 30
0.0
  0
VERTEX
  5
16B
330
167
100
AcDbEntity
  8
PIEZA
370
     0
100
AcDbVertex
100
AcDb2dVertex
 10
132.0835566567297
 20
187.5504097826422
 30
0.0
  0
VERTEX
  5
16C
330
167
100
AcDbEntity
  8
PIEZA
370
     0
100
AcDbVertex
100
AcDb2dVertex
 10
132.0835566567297
 20
190.0734754349656
 30
0.0
  0
SEQEND
  5
16D
330
167
100
AcDbEntity
  8
PIEZA
370
     0
  0
POLYLINE
  5
16E
330
15B
100
AcDbEntity
  8
PIEZA
370
     0
100
AcDb2dPolyline
 66
     1
 10
0.0
 20
0.0
 30
0.0
  0
VERTEX
  5
16F
330
16E
100
AcDbEntity
  8
PIEZA
370
     0
100
AcDbVertex
100
AcDb2dVertex
 10
133.8660201155126
 20
190.0734754349656
 30
0.0
  0
VERTEX
  5
170
330
16E
100
AcDbEntity
  8
PIEZA
370
     0
100
AcDbVertex
100
AcDb2dVertex
 10
132.810996200473
 20
190.0734754349656
 30
0.0
  0
VERTEX
  5
171
330
16E
100
AcDbEntity
  8
PIEZA
370
     0
100
AcDbVertex
100
AcDb2dVertex
 10
132.6909930137143
 20
187.5504097826422
 30
0.0
  0
VERTEX
  5
172
330
16E
100
AcDbEntity
  8
PIEZA
370
     0
100
AcDbVertex
100
AcDb2dVertex
 10
133.7459519896479
 20
187.5504097826422
 30
0.0
  0
VERTEX
  5
173
330
16E
100
AcDbEntity
  8
PIEZA
370
     0
100
AcDbVertex
100
AcDb2dVertex
 10
133.8660201155126
 20
190.0734754349656
 30
0.0
  0
SEQEND
  5
174
330
16E
100
AcDbEntity
  8
PIEZA
370
     0
  0
POLYLINE
  5
175
330
15B
100
AcDbEntity
  8
PIEZA
370
     0
100
AcDb2dPolyline
 66
     1
 10
0.0
 20
0.0
 30
0.0
  0
VERTEX
  5
176
330
175
100
AcDbEntity
  8
PIEZA
370
     0
100
AcDbVertex
100
AcDb2dVertex
 10
133.7459519896479
 20
187.5504097826422
 30
0.0
  0
VERTEX
  5
177
330
175
100
AcDbEntity
  8
PIEZA
370
     0
100
AcDbVertex
100
AcDb2dVertex
 10
132.6909930137143
 20
187.5504097826422
 30
0.0
  0
VERTEX
  5
178
330
175
100
AcDbEntity
  8
PIEZA
370
     0
100
AcDbVertex
100
AcDb2dVertex
 10
132.5530454371001
 20
184.6500635353704
 30
0.0
  0
VERTEX
  5
179
330
175
100
AcDbEntity
  8
PIEZA
370
     0
100
AcDbVertex
100
AcDb2dVertex
 10
133.6079297634138
 20
184.6500635353704
 30
0.0
  0
VERTEX
  5
17A
330
175
100
AcDbEntity
  8
PIEZA
370
     0
100
AcDbVertex
100
AcDb2dVertex
 10
133.7459519896479
 20
187.5504097826422
 30
0.0
  0
SEQEND
  5
17B
330
175
100
AcDbEntity
  8
PIEZA
370
     0
  0
POLYLINE
  5
17C
330
15B
100
AcDbEntity
  8
PIEZA
370
     0
100
AcDb2dPolyline
 66
     1
 10
0.0
 20
0.0
 30
0.0
  0
VERTEX
  5
17D
330
17C
100
AcDbEntity
  8
PIEZA
370
     0
100
AcDbVertex
100
AcDb2dVertex
 10
132.0835566567297
 20
187.5504097826422
 30
0.0
  0
VERTEX
  5
17E
330
17C
100
AcDbEntity
  8
PIEZA
370
     0
100
AcDbVertex
100
AcDb2dVertex
 10
131.026408104716
 20
187.5504097826422
 30
0.0
  0
VERTEX
  5
17F
330
17C
100
AcDbEntity
  8
PIEZA
370
     0
100
AcDbVertex
100
AcDb2dVertex
 10
131.026408104716
 20
184.6500635353704
 30
0.0
  0
VERTEX
  5
180
330
17C
100
AcDbEntity
  8
PIEZA
370
     0
100
AcDbVertex
100
AcDb2dVertex
 10
132.0835566567297
 20
184.6500635353704
 30
0.0
  0
VERTEX
  5
181
330
17C
100
AcDbEntity
  8
PIEZA
370
     0
100
AcDbVertex
100
AcDb2dVertex
 10
132.0835566567297
 20
187.5504097826422
 30
0.0
  0
SEQEND
  5
182
330
17C
100
AcDbEntity
  8
PIEZA
370
     0
  0
POLYLINE
  5
183
330
15B
100
AcDbEntity
  8
PIEZA
370
     0
100
AcDb2dPolyline
 66
     1
 10
0.0
 20
0.0
 30
0.0
  0
VERTEX
  5
184
330
183
100
AcDbEntity
  8
PIEZA
370
     0
100
AcDbVertex
100
AcDb2dVertex
 10
132.0835566567297
 20
184.6500635353704
 30
0.0
  0
VERTEX
  5
185
330
183
100
AcDbEntity
  8
PIEZA
370
     0
100
AcDbVertex
100
AcDb2dVertex
 10
131.026408104716
 20
184.6500635353704
 30
0.0
  0
VERTEX
  5
186
330
183
100
AcDbEntity
  8
PIEZA
370
     0
100
AcDbVertex
100
AcDb2dVertex
 10
131.0264081047153
 20
181.206472570245
 30
0.0
  0
VERTEX
  5
187
330
183
100
AcDbEntity
  8
PIEZA
370
     0
100
AcDbVertex
100
AcDb2dVertex
 10
131.3147213461737
 20
180.9182032402894
 30
0.0
  0
VERTEX
  5
188
330
183
100
AcDbEntity
  8
PIEZA
370
     0
100
AcDbVertex
100
AcDb2dVertex
 10
133.1554193999455
 20
180.918203240289
 30
0.0
  0
VERTEX
  5
189
330
183
100
AcDbEntity
  8
PIEZA
370
     0
100
AcDbVertex
100
AcDb2dVertex
 10
133.4434691966748
 20
181.1941521174655
 30
0.0
  0
VERTEX
  5
18A
330
183
100
AcDbEntity
  8
PIEZA
370
     0
100
AcDbVertex
100
AcDb2dVertex
 10
133.6079297634138
 20
184.6500635353704
 30
0.0
  0
VERTEX
  5
18B
330
183
100
AcDbEntity
  8
PIEZA
370
     0
100
AcDbVertex
100
AcDb2dVertex
 10
132.5530454371001
 20
184.6500635353704
 30
0.0
  0
VERTEX
  5
18C
330
183
100
AcDbEntity
  8
PIEZA
370
     0
100
AcDbVertex
100
AcDb2dVertex
 10
132.4258219325881
 20
181.9751907834599
 30
0.0
  0
VERTEX
  5
18D
330
183
100
AcDbEntity
  8
PIEZA
370
     0
100
AcDbVertex
100
AcDb2dVertex
 10
132.0835566567297
 20
181.9751907834599
 30
0.0
  0
VERTEX
  5
18E
330
183
100
AcDbEntity
  8
PIEZA
370
     0
100
AcDbVertex
100
AcDb2dVertex
 10
132.0835566567297
 20
184.6500635353704
 30
0.0
  0
SEQEND
  5
18F
330
183
100
AcDbEntity
  8
PIEZA
370
     0
  0
POLYLINE
  5
190
330
15B
100
AcDbEntity
  8
PIEZA
370
     0
100
AcDb2dPolyline
 66
     1
 10
0.0
 20
0.0
 30
0.0
  0
VERTEX
  5
191
330
190
100
AcDbEntity
  8
PIEZA
370
     0
100
AcDbVertex
100
AcDb2dVertex
 10
135.591367703863
 20
193.4098739472978
 30
0.0
  0
VERTEX
  5
192
330
190
100
AcDbEntity
  8
PIEZA
370
     0
100
AcDbVertex
100
AcDb2dVertex
 10
131.6024893564587
 20
193.4098739472978
 30
0.0
  0
VERTEX
  5
193
330
190
100
AcDbEntity
  8
PIEZA
370
     0
100
AcDbVertex
100
AcDb2dVertex
 10
131.0264081047147
 20
192.8333355451201
 30
0.0
  0
VERTEX
  5
194
330
190
100
AcDbEntity
  8
PIEZA
370
     0
100
AcDbVertex
100
AcDb2dVertex
 10
131.0264081047147
 20
191.818399525486
 30
0.0
  0
VERTEX
  5
195
330
190
100
AcDbEntity
  8
PIEZA
370
     0
100
AcDbVertex
100
AcDb2dVertex
 10
132.0835566567297
 20
191.818399525486
 30
0.0
  0
VERTEX
  5
196
330
190
100
AcDbEntity
  8
PIEZA
370
     0
100
AcDbVertex
100
AcDb2dVertex
 10
132.0835566567297
 20
192.3528866618609
 30
0.0
  0
VERTEX
  5
197
330
190
100
AcDbEntity
  8
PIEZA
370
     0
100
AcDbVertex
100
AcDb2dVertex
 10
132.9194105855324
 20
192.3528866618609
 30
0.0
  0
VERTEX
  5
198
330
190
100
AcDbEntity
  8
PIEZA
370
     0
100
AcDbVertex
100
AcDb2dVertex
 10
132.8939890672343
 20
191.818399525486
 30
0.0
  0
VERTEX
  5
199
330
190
100
AcDbEntity
  8
PIEZA
370
     0
100
AcDbVertex
100
AcDb2dVertex
 10
133.9753322789415
 20
191.818399525486
 30
0.0
  0
VERTEX
  5
19A
330
190
100
AcDbEntity
  8
PIEZA
370
     0
100
AcDbVertex
100
AcDb2dVertex
 10
134.7069848346433
 20
192.3528864098548
 30
0.0
  0
VERTEX
  5
19B
330
190
100
AcDbEntity
  8
PIEZA
370
     0
100
AcDbVertex
100
AcDb2dVertex
 10
135.591367703863
 20
192.3528864098548
 30
0.0
  0
VERTEX
  5
19C
330
190
100
AcDbEntity
  8
PIEZA
370
     0
100
AcDbVertex
100
AcDb2dVertex
 10
135.591367703863
 20
193.4098739472978
 30
0.0
  0
SEQEND
  5
19D
330
190
100
AcDbEntity
  8
PIEZA
370
     0
  0
HATCH
  5
19E
330
15B
100
AcDbEntity
  8
PIEZA
 62
     7
420
 16777215
100
AcDbHatch
 10
0.0
 20
0.0
 30
0.0
210
0.0
220
0.0
230
1.0
  2
SOLID
 70
     1
 71
     0
 91
        8
 92
        1
 93
        1
 72
     4
 94
        3
 73
     0
 74
     1
 95
       26
 96
       22
 40
0.0
 40
0.0
 40
0.0
 40
0.0
 40
1.0
 40
1.0
 40
1.0
 40
2.0
 40
2.0
 40
2.0
 40
3.0
 40
3.0
 40
3.0
 40
4.0
 40
4.0
 40
4.0
 40
5.0
 40
5.0
 40
5.0
 40
6.0
 40
6.0
 40
6.0
 40
7.0
 40
7.0
 40
7.0
 40
7.0
 10
133.9411119788006
 20
191.6263405796583
 10
133.9402893975891
 20
191.625710748852
 10
133.9398605160173
 20
191.6250637069997
 10
133.9398257300039
 20
191.6244000514159
 10
133.9432811114955
 20
191.6903226161133
 10
133.9552148172445
 20
191.7555255915719
 10
133.9753322789415
 20
191.818399525486
 10
133.9753322789415
 20
191.818399525486
 10
132.893989067235
 20
191.818399525486
 10
132.893989067235
 20
191.818399525486
 10
132.893989067235
 20
191.818399525486
 10
132.810996200473
 20
190.0734754349656
 10
132.810996200473
 20
190.0734754349656
 10
132.810996200473
 20
190.0734754349656
 10
133.866020115512
 20
190.0734754349656
 10
133.866020115512
 20
190.0734754349656
 10
133.866020115512
 20
190.0734754349656
 10
133.9398258221359
 20
191.62440031187
 10
133.9398258221359
 20
191.62440031187
 10
133.9398258221359
 20
191.62440031187
 10
133.9411119788006
 20
191.6263405796583
 10
133.9411119788006
 20
191.6263405796583
 97
        0
 97
        0
 92
        1
 93
        4
 72
     1
 10
132.0835566567297
 20
191.818399525486
 11
131.026408104716
 21
191.818399525486
 72
     1
 10
131.026408104716
 20
191.818399525486
 11
131.026408104716
 21
190.0734754349656
 72
     1
 10
131.026408104716
 20
190.0734754349656
 11
132.0835566567297
 21
190.0734754349656
 72
     1
 10
132.0835566567297
 20
190.0734754349656
 11
132.0835566567297
 21
191.818399525486
 97
        0
 92
        1
 93
        4
 72
     1
 10
132.0835566567297
 20
190.0734754349656
 11
131.026408104716
 21
190.0734754349656
 72
     1
 10
131.026408104716
 20
190.0734754349656
 11
131.026408104716
 21
187.5504097826422
 72
     1
 10
131.026408104716
 20
187.5504097826422
 11
132.0835566567297
 21
187.5504097826422
 72
     1
 10
132.0835566567297
 20
187.5504097826422
 11
132.0835566567297
 21
190.0734754349656
 97
        0
 92
        1
 93
        4
 72
     1
 10
133.8660201155126
 20
190.0734754349656
 11
132.810996200473
 21
190.0734754349656
 72
     1
 10
132.810996200473
 20
190.0734754349656
 11
132.6909930137143
 21
187.5504097826422
 72
     1
 10
132.6909930137143
 20
187.5504097826422
 11
133.7459519896479
 21
187.5504097826422
 72
     1
 10
133.7459519896479
 20
187.5504097826422
 11
133.8660201155126
 21
190.0734754349656
 97
        0
 92
        1
 93
        4
 72
     1
 10
133.7459519896479
 20
187.5504097826422
 11
132.6909930137143
 21
187.5504097826422
 72
     1
 10
132.6909930137143
 20
187.5504097826422
 11
132.5530454371001
 21
184.6500635353704
 72
     1
 10
132.5530454371001
 20
184.6500635353704
 11
133.6079297634138
 21
184.6500635353704
 72
     1
 10
133.6079297634138
 20
184.6500635353704
 11
133.7459519896479
 21
187.5504097826422
 97
        0
 92
        1
 93
        4
 72
     1
 10
132.0835566567297
 20
187.5504097826422
 11
131.026408104716
 21
187.5504097826422
 72
     1
 10
131.026408104716
 20
187.5504097826422
 11
131.026408104716
 21
184.6500635353704
 72
     1
 10
131.026408104716
 20
184.6500635353704
 11
132.0835566567297
 21
184.6500635353704
 72
     1
 10
132.0835566567297
 20
184.6500635353704
 11
132.0835566567297
 21
187.5504097826422
 97
        0
 92
        1
 93
       10
 72
     1
 10
132.0835566567297
 20
184.6500635353704
 11
131.026408104716
 21
184.6500635353704
 72
     1
 10
131.026408104716
 20
184.6500635353704
 11
131.0264081047153
 21
181.206472570245
 72
     1
 10
131.0264081047153
 20
181.206472570245
 11
131.3147213461737
 21
180.9182032402894
 72
     1
 10
131.3147213461737
 20
180.9182032402894
 11
133.1554193999455
 21
180.918203240289
 72
     1
 10
133.1554193999455
 20
180.918203240289
 11
133.4434691966748
 21
181.1941521174655
 72
     1
 10
133.4434691966748
 20
181.1941521174655
 11
133.6079297634138
 21
184.6500635353704
 72
     1
 10
133.6079297634138
 20
184.6500635353704
 11
132.5530454371001
 21
184.6500635353704
 72
     1
 10
132.5530454371001
 20
184.6500635353704
 11
132.4258219325881
 21
181.9751907834599
 72
     1
 10
132.4258219325881
 20
181.9751907834599
 11
132.0835566567297
 21
181.9751907834599
 72
     1
 10
132.0835566567297
 20
181.9751907834599
 11
132.0835566567297
 21
184.6500635353704
 97
        0
 92
        1
 93
       11
 72
     1
 10
135.591367703863
 20
193.4098739472978
 11
131.6024893564587
 21
193.4098739472978
 72
     1
 10
131.6024893564587
 20
193.4098739472978
 11
131.0264081047147
 21
192.8333355451201
 72
     1
 10
131.0264081047147
 20
192.8333355451201
 11
131.0264081047147
 21
191.818399525486
 72
     1
 10
131.0264081047147
 20
191.818399525486
 11
132.0835566567297
 21
191.818399525486
 72
     1
 10
132.0835566567297
 20
191.818399525486
 11
132.0835566567297
 21
192.3528866618609
 72
     1
 10
132.0835566567297
 20
192.3528866618609
 11
132.9194105855324
 21
192.3528866618609
 72
     1
 10
132.9194105855324
 20
192.3528866618609
 11
132.8939890672343
 21
191.818399525486
 72
     1
 10
132.8939890672343
 20
191.818399525486
 11
133.9753322789415
 21
191.818399525486
 72
     1
 10
133.9753322789415
 20
191.818399525486
 11
134.7069848346433
 21
192.3528864098548
 72
     1
 10
134.7069848346433
 20
192.3528864098548
 11
135.591367703863
 21
192.3528864098548
 72
     1
 10
135.591367703863
 20
192.3528864098548
 11
135.591367703863
 21
193.4098739472978
 97
        0
 75
     0
 76
     1
 98
        0
  0
ENDBLK
  5
15E
330
15B
100
AcDbEntity
  8
0
100
AcDbBlockEnd
  0
BLOCK
  5
1A1
330
19F
100
AcDbEntity
  8
0
100
AcDbBlockBegin
  2
block 36
 70
     0
 10
0.0
 20
0.0
 30
0.0
  3
block 36
  1

  0
POLYLINE
  5
1A3
330
19F
100
AcDbEntity
  8
PIEZA
 62
     7
420
 16777215
370
     9
100
AcDb2dPolyline
 66
     1
 10
0.0
 20
0.0
 30
0.0
  0
VERTEX
  5
1A4
330
1A3
100
AcDbEntity
  8
PIEZA
 62
     7
420
 16777215
370
     9
100
AcDbVertex
100
AcDb2dVertex
 10
133.443337548549
 20
181.1913857141363
 30
0.0
  0
VERTEX
  5
1A5
330
1A3
100
AcDbEntity
  8
PIEZA
 62
     7
420
 16777215
370
     9
100
AcDbVertex
100
AcDb2dVertex
 10
133.9398258154269
 20
191.6244001708909
 30
0.0
  0
SEQEND
  5
1A6
330
1A3
100
AcDbEntity
  8
PIEZA
 62
     7
420
 16777215
370
     9
  0
ENDBLK
  5
1A2
330
19F
100
AcDbEntity
  8
0
100
AcDbBlockEnd
  0
BLOCK
  5
1A9
330
1A7
100
AcDbEntity
  8
0
100
AcDbBlockBegin
  2
block 37
 70
     0
 10
0.0
 20
0.0
 30
0.0
  3
block 37
  1

  0
SPLINE
  5
1AB
330
1A7
100
AcDbEntity
  8
PIEZA
 62
     7
420
 16777215
370
     9
100
AcDbSpline
210
0.0
220
0.0
230
1.0
 70
     8
 71
     3
 72
     8
 73
     4
 74
     0
 42
0.0000000001
 43
0.0000000001
 12
1.0
 22
0.0
 32
0.0
 13
1.0
 23
0.0
 33
0.0
 40
0.0
 40
0.0
 40
0.0
 40
0.0
 40
1.0
 40
1.0
 40
1.0
 40
1.0
 10
133.1554193999455
 20
180.9182032402894
 30
0.0
 10
133.3087864931597
 20
180.9182032402894
 30
0.0
 10
133.4353109046474
 20
181.038252136802
 30
0.0
 10
133.4433375181267
 20
181.1913857192061
 30
0.0
  0
ENDBLK
  5
1AA
330
1A7
100
AcDbEntity
  8
0
100
AcDbBlockEnd
  0
BLOCK
  5
1AE
330
1AC
100
AcDbEntity
  8
0
100
AcDbBlockBegin
  2
block 38
 70
     0
 10
0.0
 20
0.0
 30
0.0
  3
block 38
  1

  0
POLYLINE
  5
1B0
330
1AC
100
AcDbEntity
  8
PIEZA
 62
     7
420
 16777215
370
     9
100
AcDb2dPolyline
 66
     1
 10
0.0
 20
0.0
 30
0.0
  0
VERTEX
  5
1B1
330
1B0
100
AcDbEntity
  8
PIEZA
 62
     7
420
 16777215
370
     9
100
AcDbVertex
100
AcDb2dVertex
 10
131.3147213486808
 20
180.918203240289
 30
0.0
  0
VERTEX
  5
1B2
330
1B0
100
AcDbEntity
  8
PIEZA
 62
     7
420
 16777215
370
     9
100
AcDbVertex
100
AcDb2dVertex
 10
133.1554193314153
 20
180.918203240289
 30
0.0
  0
SEQEND
  5
1B3
330
1B0
100
AcDbEntity
  8
PIEZA
 62
     7
420
 16777215
370
     9
  0
ENDBLK
  5
1AF
330
1AC
100
AcDbEntity
  8
0
100
AcDbBlockEnd
  0
BLOCK
  5
1B6
330
1B4
100
AcDbEntity
  8
0
100
AcDbBlockBegin
  2
block 39
 70
     0
 10
0.0
 20
0.0
 30
0.0
  3
block 39
  1

  0
SPLINE
  5
1B8
330
1B4
100
AcDbEntity
  8
PIEZA
 62
     7
420
 16777215
370
     9
100
AcDbSpline
210
0.0
220
0.0
230
1.0
 70
     8
 71
     3
 72
     8
 73
     4
 74
     0
 42
0.0000000001
 43
0.0000000001
 12
1.0
 22
0.0
 32
0.0
 13
1.0
 23
0.0
 33
0.0
 40
0.0
 40
0.0
 40
0.0
 40
0.0
 40
1.0
 40
1.0
 40
1.0
 40
1.0
 10
131.0264081047153
 20
181.2064725702447
 30
0.0
 10
131.0264081047153
 20
181.0472658154666
 30
0.0
 10
131.1554903397422
 20
180.9182032402894
 30
0.0
 10
131.3147213461737
 20
180.9182032402894
 30
0.0
  0
ENDBLK
  5
1B7
330
1B4
100
AcDbEntity
  8
0
100
AcDbBlockEnd
  0
BLOCK
  5
1BB
330
1B9
100
AcDbEntity
  8
0
100
AcDbBlockBegin
  2
block 40
 70
     0
 10
0.0
 20
0.0
 30
0.0
  3
block 40
  1

  0
POLYLINE
  5
1BD
330
1B9
100
AcDbEntity
  8
PIEZA
 62
     7
420
 16777215
370
     9
100
AcDb2dPolyline
 66
     1
 10
0.0
 20
0.0
 30
0.0
  0
VERTEX
  5
1BE
330
1BD
100
AcDbEntity
  8
PIEZA
 62
     7
420
 16777215
370
     9
100
AcDbVertex
100
AcDb2dVertex
 10
131.026408104716
 20
181.2064725727505
 30
0.0
  0
VERTEX
  5
1BF
330
1BD
100
AcDbEntity
  8
PIEZA
 62
     7
420
 16777215
370
     9
100
AcDbVertex
100
AcDb2dVertex
 10
131.026408104716
 20
192.8333355508473
 30
0.0
  0
SEQEND
  5
1C0
330
1BD
100
AcDbEntity
  8
PIEZA
 62
     7
420
 16777215
370
     9
  0
ENDBLK
  5
1BC
330
1B9
100
AcDbEntity
  8
0
100
AcDbBlockEnd
  0
BLOCK
  5
1C3
330
1C1
100
AcDbEntity
  8
0
100
AcDbBlockBegin
  2
block 41
 70
     0
 10
0.0
 20
0.0
 30
0.0
  3
block 41
  1

  0
SPLINE
  5
1C5
330
1C1
100
AcDbEntity
  8
PIEZA
 62
     7
420
 16777215
370
     9
100
AcDbSpline
210
0.0
220
0.0
230
1.0
 70
     8
 71
     3
 72
     8
 73
     4
 74
     0
 42
0.0000000001
 43
0.0000000001
 12
1.0
 22
0.0
 32
0.0
 13
1.0
 23
0.0
 33
0.0
 40
0.0
 40
0.0
 40
0.0
 40
0.0
 40
1.0
 40
1.0
 40
1.0
 40
1.0
 10
131.6030345876322
 20
193.4098742050311
 30
0.0
 10
131.2845725747678
 20
193.4098742050311
 30
0.0
 10
131.0264081047147
 20
193.1517490546769
 30
0.0
 10
131.0264081047147
 20
192.8333355451201
 30
0.0
  0
ENDBLK
  5
1C4
330
1C1
100
AcDbEntity
  8
0
100
AcDbBlockEnd
  0
BLOCK
  5
1C8
330
1C6
100
AcDbEntity
  8
0
100
AcDbBlockBegin
  2
block 42
 70
     0
 10
0.0
 20
0.0
 30
0.0
  3
block 42
  1

  0
POLYLINE
  5
1CA
330
1C6
100
AcDbEntity
  8
PIEZA
 62
     7
420
 16777215
370
     9
100
AcDb2dPolyline
 66
     1
 10
0.0
 20
0.0
 30
0.0
  0
VERTEX
  5
1CB
330
1CA
100
AcDbEntity
  8
PIEZA
 62
     7
420
 16777215
370
     9
100
AcDbVertex
100
AcDb2dVertex
 10
131.6030345926458
 20
193.4098739472978
 30
0.0
  0
VERTEX
  5
1CC
330
1CA
100
AcDbEntity
  8
PIEZA
 62
     7
420
 16777215
370
     9
100
AcDbVertex
100
AcDb2dVertex
 10
135.591367703863
 20
193.4098739472978
 30
0.0
  0
SEQEND
  5
1CD
330
1CA
100
AcDbEntity
  8
PIEZA
 62
     7
420
 16777215
370
     9
  0
ENDBLK
  5
1C9
330
1C6
100
AcDbEntity
  8
0
100
AcDbBlockEnd
  0
BLOCK
  5
1D0
330
1CE
100
AcDbEntity
  8
0
100
AcDbBlockBegin
  2
block 43
 70
     0
 10
0.0
 20
0.0
 30
0.0
  3
block 43
  1

  0
POLYLINE
  5
1D2
330
1CE
100
AcDbEntity
  8
PIEZA
 62
     7
420
 16777215
370
     9
100
AcDb2dPolyline
 66
     1
 10
0.0
 20
0.0
 30
0.0
  0
VERTEX
  5
1D3
330
1D2
100
AcDbEntity
  8
PIEZA
 62
     7
420
 16777215
370
     9
100
AcDbVertex
100
AcDb2dVertex
 10
135.591367703863
 20
193.4098739472978
 30
0.0
  0
VERTEX
  5
1D4
330
1D2
100
AcDbEntity
  8
PIEZA
 62
     7
420
 16777215
370
     9
100
AcDbVertex
100
AcDb2dVertex
 10
135.591367703863
 20
192.3528864098548
 30
0.0
  0
SEQEND
  5
1D5
330
1D2
100
AcDbEntity
  8
PIEZA
 62
     7
420
 16777215
370
     9
  0
ENDBLK
  5
1D1
330
1CE
100
AcDbEntity
  8
0
100
AcDbBlockEnd
  0
BLOCK
  5
1D8
330
1D6
100
AcDbEntity
  8
0
100
AcDbBlockBegin
  2
block 44
 70
     0
 10
0.0
 20
0.0
 30
0.0
  3
block 44
  1

  0
POLYLINE
  5
1DA
330
1D6
100
AcDbEntity
  8
PIEZA
 62
     7
420
 16777215
370
     9
100
AcDb2dPolyline
 66
     1
 10
0.0
 20
0.0
 30
0.0
  0
VERTEX
  5
1DB
330
1DA
100
AcDbEntity
  8
PIEZA
 62
     7
420
 16777215
370
     9
100
AcDbVertex
100
AcDb2dVertex
 10
134.7076074294354
 20
192.3528864098548
 30
0.0
  0
VERTEX
  5
1DC
330
1DA
100
AcDbEntity
  8
PIEZA
 62
     7
420
 16777215
370
     9
100
AcDbVertex
100
AcDb2dVertex
 10
135.591367703863
 20
192.3528864098548
 30
0.0
  0
SEQEND
  5
1DD
330
1DA
100
AcDbEntity
  8
PIEZA
 62
     7
420
 16777215
370
     9
  0
ENDBLK
  5
1D9
330
1D6
100
AcDbEntity
  8
0
100
AcDbBlockEnd
  0
BLOCK
  5
1E0
330
1DE
100
AcDbEntity
  8
0
100
AcDbBlockBegin
  2
block 45
 70
     0
 10
0.0
 20
0.0
 30
0.0
  3
block 45
  1

  0
SPLINE
  5
1E2
330
1DE
100
AcDbEntity
  8
PIEZA
 62
     7
420
 16777215
370
     9
100
AcDbSpline
210
0.0
220
0.0
230
1.0
 70
     8
 71
     3
 72
     8
 73
     4
 74
     0
 42
0.0000000001
 43
0.0000000001
 12
1.0
 22
0.0
 32
0.0
 13
1.0
 23
0.0
 33
0.0
 40
0.0
 40
0.0
 40
0.0
 40
0.0
 40
1.0
 40
1.0
 40
1.0
 40
1.0
 10
134.7076073784877
 20
192.3528866618606
 30
0.0
 10
134.2986284632502
 20
192.3528866618606
 30
0.0
 10
133.9612300326158
 20
192.0327562711597
 30
0.0
 10
133.9398257300039
 20
191.6244000514159
 30
0.0
  0
ENDBLK
  5
1E1
330
1DE
100
AcDbEntity
  8
0
100
AcDbBlockEnd
  0
BLOCK
  5
1E5
330
1E3
100
AcDbEntity
  8
0
100
AcDbBlockBegin
  2
block 46
 70
     0
 10
0.0
 20
0.0
 30
0.0
  3
block 46
  1

  0
POLYLINE
  5
1E7
330
1E3
100
AcDbEntity
  8
PIEZA
 62
     7
420
 16777215
370
     9
100
AcDb2dPolyline
 66
     1
 10
0.0
 20
0.0
 30
0.0
  0
VERTEX
  5
1E8
330
1E7
100
AcDbEntity
  8
PIEZA
 62
     7
420
 16777215
370
     9
100
AcDbVertex
100
AcDb2dVertex
 10
138.9550225598855
 20
192.3528864098548
 30
0.0
  0
VERTEX
  5
1E9
330
1E7
100
AcDbEntity
  8
PIEZA
 62
     7
420
 16777215
370
     9
100
AcDbVertex
100
AcDb2dVertex
 10
138.9550225598855
 20
193.4098739472978
 30
0.0
  0
SEQEND
  5
1EA
330
1E7
100
AcDbEntity
  8
PIEZA
 62
     7
420
 16777215
370
     9
  0
ENDBLK
  5
1E6
330
1E3
100
AcDbEntity
  8
0
100
AcDbBlockEnd
  0
BLOCK
  5
1ED
330
1EB
100
AcDbEntity
  8
0
100
AcDbBlockBegin
  2
block 47
 70
     0
 10
0.0
 20
0.0
 30
0.0
  3
block 47
  1

  0
POLYLINE
  5
1EF
330
1EB
100
AcDbEntity
  8
PIEZA
 62
     7
420
 16777215
370
     9
100
AcDb2dPolyline
 66
     1
 10
0.0
 20
0.0
 30
0.0
  0
VERTEX
  5
1F0
330
1EF
100
AcDbEntity
  8
PIEZA
 62
     7
420
 16777215
370
     9
100
AcDbVertex
100
AcDb2dVertex
 10
138.9550225598855
 20
192.3528864098548
 30
0.0
  0
VERTEX
  5
1F1
330
1EF
100
AcDbEntity
  8
PIEZA
 62
     7
420
 16777215
370
     9
100
AcDbVertex
100
AcDb2dVertex
 10
135.591367703863
 20
192.3528864098548
 30
0.0
  0
SEQEND
  5
1F2
330
1EF
100
AcDbEntity
  8
PIEZA
 62
     7
420
 16777215
370
     9
  0
ENDBLK
  5
1EE
330
1EB
100
AcDbEntity
  8
0
100
AcDbBlockEnd
  0
BLOCK
  5
1F5
330
1F3
100
AcDbEntity
  8
0
100
AcDbBlockBegin
  2
block 48
 70
     0
 10
0.0
 20
0.0
 30
0.0
  3
block 48
  1

  0
POLYLINE
  5
1F7
330
1F3
100
AcDbEntity
  8
PIEZA
 62
     7
420
 16777215
370
     9
100
AcDb2dPolyline
 66
     1
 10
0.0
 20
0.0
 30
0.0
  0
VERTEX
  5
1F8
330
1F7
100
AcDbEntity
  8
PIEZA
 62
     7
420
 16777215
370
     9
100
AcDbVertex
100
AcDb2dVertex
 10
138.9550225598855
 20
193.4098739472978
 30
0.0
  0
VERTEX
  5
1F9
330
1F7
100
AcDbEntity
  8
PIEZA
 62
     7
420
 16777215
370
     9
100
AcDbVertex
100
AcDb2dVertex
 10
135.591367703863
 20
193.4098739472978
 30
0.0
  0
SEQEND
  5
1FA
330
1F7
100
AcDbEntity
  8
PIEZA
 62
     7
420
 16777215
370
     9
  0
ENDBLK
  5
1F6
330
1F3
100
AcDbEntity
  8
0
100
AcDbBlockEnd
  0
BLOCK
  5
1FD
330
1FB
100
AcDbEntity
  8
0
100
AcDbBlockBegin
  2
block 49
 70
     0
 10
0.0
 20
0.0
 30
0.0
  3
block 49
  1

  0
SPLINE
  5
1FF
330
1FB
100
AcDbEntity
  8
PIEZA
 62
     7
420
 16777215
370
     9
100
AcDbSpline
210
0.0
220
0.0
230
1.0
 70
     8
 71
     3
 72
     8
 73
     4
 74
     0
 42
0.0000000001
 43
0.0000000001
 12
1.0
 22
0.0
 32
0.0
 13
1.0
 23
0.0
 33
0.0
 40
0.0
 40
0.0
 40
0.0
 40
0.0
 40
1.0
 40
1.0
 40
1.0
 40
1.0
 10
140.8096311452246
 20
193.2051033913957
 30
0.0
 10
140.700069036001
 20
193.3349500570504
 30
0.0
 10
140.5388084252525
 20
193.4098742050311
 30
0.0
 10
140.3688991868343
 20
193.4098742050311
 30
0.0
  0
ENDBLK
  5
1FE
330
1FB
100
AcDbEntity
  8
0
100
AcDbBlockEnd
  0
BLOCK
  5
202
330
200
100
AcDbEntity
  8
0
100
AcDbBlockBegin
  2
block 50
 70
     0
 10
0.0
 20
0.0
 30
0.0
  3
block 50
  1

  0
POLYLINE
  5
204
330
200
100
AcDbEntity
  8
PIEZA
 62
     7
420
 16777215
370
     9
100
AcDb2dPolyline
 66
     1
 10
0.0
 20
0.0
 30
0.0
  0
VERTEX
  5
205
330
204
100
AcDbEntity
  8
PIEZA
 62
     7
420
 16777215
370
     9
100
AcDbVertex
100
AcDb2dVertex
 10
141.3270924936112
 20
190.9526588336676
 30
0.0
  0
VERTEX
  5
206
330
204
100
AcDbEntity
  8
PIEZA
 62
     7
420
 16777215
370
     9
100
AcDbVertex
100
AcDb2dVertex
 10
142.1351014168367
 20
191.634233395622
 30
0.0
  0
SEQEND
  5
207
330
204
100
AcDbEntity
  8
PIEZA
 62
     7
420
 16777215
370
     9
  0
ENDBLK
  5
203
330
200
100
AcDbEntity
  8
0
100
AcDbBlockEnd
  0
BLOCK
  5
20A
330
208
100
AcDbEntity
  8
0
100
AcDbBlockBegin
  2
block 51
 70
     0
 10
0.0
 20
0.0
 30
0.0
  3
block 51
  1

  0
SPLINE
  5
20C
330
208
100
AcDbEntity
  8
PIEZA
 62
     7
420
 16777215
370
     9
100
AcDbSpline
210
0.0
220
0.0
230
1.0
 70
     8
 71
     3
 72
     8
 73
     4
 74
     0
 42
0.0000000001
 43
0.0000000001
 12
1.0
 22
0.0
 32
0.0
 13
1.0
 23
0.0
 33
0.0
 40
0.0
 40
0.0
 40
0.0
 40
0.0
 40
1.0
 40
1.0
 40
1.0
 40
1.0
 10
140.2895919857637
 20
192.1822443171642
 30
0.0
 10
140.198290228077
 20
192.2904498718766
 30
0.0
 10
140.063906385786
 20
192.3528866618609
 30
0.0
 10
139.9223153537708
 20
192.3528866618609
 30
0.0
  0
ENDBLK
  5
20B
330
208
100
AcDbEntity
  8
0
100
AcDbBlockEnd
  0
BLOCK
  5
20F
330
20D
100
AcDbEntity
  8
0
100
AcDbBlockBegin
  2
block 52
 70
     0
 10
0.0
 20
0.0
 30
0.0
  3
block 52
  1

  0
POLYLINE
  5
211
330
20D
100
AcDbEntity
  8
PIEZA
 62
     7
420
 16777215
370
     9
100
AcDb2dPolyline
 66
     1
 10
0.0
 20
0.0
 30
0.0
  0
VERTEX
  5
212
330
211
100
AcDbEntity
  8
PIEZA
 62
     7
420
 16777215
370
     9
100
AcDbVertex
100
AcDb2dVertex
 10
138.9550225598855
 20
192.3528864098548
 30
0.0
  0
VERTEX
  5
213
330
211
100
AcDbEntity
  8
PIEZA
 62
     7
420
 16777215
370
     9
100
AcDbVertex
100
AcDb2dVertex
 10
139.9223153235249
 20
192.3528864098548
 30
0.0
  0
SEQEND
  5
214
330
211
100
AcDbEntity
  8
PIEZA
 62
     7
420
 16777215
370
     9
  0
ENDBLK
  5
210
330
20D
100
AcDbEntity
  8
0
100
AcDbBlockEnd
  0
BLOCK
  5
217
330
215
100
AcDbEntity
  8
0
100
AcDbBlockBegin
  2
block 53
 70
     0
 10
0.0
 20
0.0
 30
0.0
  3
block 53
  1

  0
POLYLINE
  5
219
330
215
100
AcDbEntity
  8
PIEZA
 62
     7
420
 16777215
370
     9
100
AcDb2dPolyline
 66
     1
 10
0.0
 20
0.0
 30
0.0
  0
VERTEX
  5
21A
330
219
100
AcDbEntity
  8
PIEZA
 62
     7
420
 16777215
370
     9
100
AcDbVertex
100
AcDb2dVertex
 10
138.9550225598855
 20
193.4098739472978
 30
0.0
  0
VERTEX
  5
21B
330
219
100
AcDbEntity
  8
PIEZA
 62
     7
420
 16777215
370
     9
100
AcDbVertex
100
AcDb2dVertex
 10
140.3688990859881
 20
193.4098739472978
 30
0.0
  0
SEQEND
  5
21C
330
219
100
AcDbEntity
  8
PIEZA
 62
     7
420
 16777215
370
     9
  0
ENDBLK
  5
218
330
215
100
AcDbEntity
  8
0
100
AcDbBlockEnd
  0
BLOCK
  5
21F
330
21D
100
AcDbEntity
  8
0
100
AcDbBlockBegin
  2
block 54
 70
     0
 10
0.0
 20
0.0
 30
0.0
  3
block 54
  1

  0
POLYLINE
  5
221
330
21D
100
AcDbEntity
  8
PIEZA
 62
     7
420
 16777215
370
     9
100
AcDb2dPolyline
 66
     1
 10
0.0
 20
0.0
 30
0.0
  0
VERTEX
  5
222
330
221
100
AcDbEntity
  8
PIEZA
 62
     7
420
 16777215
370
     9
100
AcDbVertex
100
AcDb2dVertex
 10
140.8096314212117
 20
193.2051030381427
 30
0.0
  0
VERTEX
  5
223
330
221
100
AcDbEntity
  8
PIEZA
 62
     7
420
 16777215
370
     9
100
AcDbVertex
100
AcDb2dVertex
 10
142.1351014168367
 20
191.634233395622
 30
0.0
  0
SEQEND
  5
224
330
221
100
AcDbEntity
  8
PIEZA
 62
     7
420
 16777215
370
     9
  0
ENDBLK
  5
220
330
21D
100
AcDbEntity
  8
0
100
AcDbBlockEnd
  0
BLOCK
  5
227
330
225
100
AcDbEntity
  8
0
100
AcDbBlockBegin
  2
block 55
 70
     0
 10
0.0
 20
0.0
 30
0.0
  3
block 55
  1

  0
POLYLINE
  5
229
330
225
100
AcDbEntity
  8
PIEZA
 62
     7
420
 16777215
370
     9
100
AcDb2dPolyline
 66
     1
 10
0.0
 20
0.0
 30
0.0
  0
VERTEX
  5
22A
330
229
100
AcDbEntity
  8
PIEZA
 62
     7
420
 16777215
370
     9
100
AcDbVertex
100
AcDb2dVertex
 10
140.2895919115274
 20
192.1822443435213
 30
0.0
  0
VERTEX
  5
22B
330
229
100
AcDbEntity
  8
PIEZA
 62
     7
420
 16777215
370
     9
100
AcDbVertex
100
AcDb2dVertex
 10
141.3270924936112
 20
190.9526588336676
 30
0.0
  0
SEQEND
  5
22C
330
229
100
AcDbEntity
  8
PIEZA
 62
     7
420
 16777215
370
     9
  0
ENDBLK
  5
228
330
225
100
AcDbEntity
  8
0
100
AcDbBlockEnd
  0
BLOCK
  5
22F
330
22D
100
AcDbEntity
  8
0
100
AcDbBlockBegin
  2
block 56
 70
     0
 10
0.0
 20
0.0
 30
0.0
  3
block 56
  1

  0
POLYLINE
  5
231
330
22D
100
AcDbEntity
  8
PIEZA
 62
     7
420
 16777215
370
     9
100
AcDb2dPolyline
 66
     1
 10
0.0
 20
0.0
 30
0.0
  0
VERTEX
  5
232
330
231
100
AcDbEntity
  8
PIEZA
 62
     7
420
 16777215
370
     9
100
AcDbVertex
100
AcDb2dVertex
 10
142.1351014168367
 20
191.634233395622
 30
0.0
  0
VERTEX
  5
233
330
231
100
AcDbEntity
  8
PIEZA
 62
     7
420
 16777215
370
     9
100
AcDbVertex
100
AcDb2dVertex
 10
142.1465457831586
 20
191.6206694876676
 30
0.0
  0
VERTEX
  5
234
330
231
100
AcDbEntity
  8
PIEZA
 62
     7
420
 16777215
370
     9
100
AcDbVertex
100
AcDb2dVertex
 10
142.1805967648527
 20
191.5803142483783
 30
0.0
  0
VERTEX
  5
235
330
231
100
AcDbEntity
  8
PIEZA
 62
     7
420
 16777215
370
     9
100
AcDbVertex
100
AcDb2dVertex
 10
142.2364173185469
 20
191.5141592333603
 30
0.0
  0
VERTEX
  5
236
330
231
100
AcDbEntity
  8
PIEZA
 62
     7
420
 16777215
370
     9
100
AcDbVertex
100
AcDb2dVertex
 10
142.3126312275068
 20
191.4238346029861
 30
0.0
  0
VERTEX
  5
237
330
231
100
AcDbEntity
  8
PIEZA
 62
     7
420
 16777215
370
     9
100
AcDbVertex
100
AcDb2dVertex
 10
142.4073631995208
 20
191.3115640191419
 30
0.0
  0
VERTEX
  5
238
330
231
100
AcDbEntity
  8
PIEZA
 62
     7
420
 16777215
370
     9
100
AcDbVertex
100
AcDb2dVertex
 10
142.5182796808245
 20
191.1801116668074
 30
0.0
  0
VERTEX
  5
239
330
231
100
AcDbEntity
  8
PIEZA
 62
     7
420
 16777215
370
     9
100
AcDbVertex
100
AcDb2dVertex
 10
142.6426504349917
 20
191.0327149571388
 30
0.0
  0
VERTEX
  5
23A
330
231
100
AcDbEntity
  8
PIEZA
 62
     7
420
 16777215
370
     9
100
AcDbVertex
100
AcDb2dVertex
 10
142.7774122699363
 20
190.8730036279871
 30
0.0
  0
VERTEX
  5
23B
330
231
100
AcDbEntity
  8
PIEZA
 62
     7
420
 16777215
370
     9
100
AcDbVertex
100
AcDb2dVertex
 10
142.9192470855798
 20
190.7049088214709
 30
0.0
  0
VERTEX
  5
23C
330
231
100
AcDbEntity
  8
PIEZA
 62
     7
420
 16777215
370
     9
100
AcDbVertex
100
AcDb2dVertex
 10
143.0646627856623
 20
190.5325707296994
 30
0.0
  0
VERTEX
  5
23D
330
231
100
AcDbEntity
  8
PIEZA
 62
     7
420
 16777215
370
     9
100
AcDbVertex
100
AcDb2dVertex
 10
143.2100777697108
 20
190.3602333538527
 30
0.0
  0
VERTEX
  5
23E
330
231
100
AcDbEntity
  8
PIEZA
 62
     7
420
 16777215
370
     9
100
AcDbVertex
100
AcDb2dVertex
 10
143.3519125853542
 20
190.1921385473367
 30
0.0
  0
VERTEX
  5
23F
330
231
100
AcDbEntity
  8
PIEZA
 62
     7
420
 16777215
370
     9
100
AcDbVertex
100
AcDb2dVertex
 10
143.4866744202988
 20
190.0324272181851
 30
0.0
  0
VERTEX
  5
240
330
231
100
AcDbEntity
  8
PIEZA
 62
     7
420
 16777215
370
     9
100
AcDbVertex
100
AcDb2dVertex
 10
143.611045174466
 20
189.8850305085162
 30
0.0
  0
VERTEX
  5
241
330
231
100
AcDbEntity
  8
PIEZA
 62
     7
420
 16777215
370
     9
100
AcDbVertex
100
AcDb2dVertex
 10
143.7219616557697
 20
189.7535781561816
 30
0.0
  0
VERTEX
  5
242
330
231
100
AcDbEntity
  8
PIEZA
 62
     7
420
 16777215
370
     9
100
AcDbVertex
100
AcDb2dVertex
 10
143.8166929117503
 20
189.6413075723374
 30
0.0
  0
VERTEX
  5
243
330
231
100
AcDbEntity
  8
PIEZA
 62
     7
420
 16777215
370
     9
100
AcDbVertex
100
AcDb2dVertex
 10
143.8929075367436
 20
189.5509829419633
 30
0.0
  0
VERTEX
  5
244
330
231
100
AcDbEntity
  8
PIEZA
 62
     7
420
 16777215
370
     9
100
AcDbVertex
100
AcDb2dVertex
 10
143.9487280904379
 20
189.4848279269455
 30
0.0
  0
VERTEX
  5
245
330
231
100
AcDbEntity
  8
PIEZA
 62
     7
420
 16777215
370
     9
100
AcDbVertex
100
AcDb2dVertex
 10
143.9827797881661
 20
189.444471971731
 30
0.0
  0
VERTEX
  5
246
330
231
100
AcDbEntity
  8
PIEZA
 62
     7
420
 16777215
370
     9
100
AcDbVertex
100
AcDb2dVertex
 10
143.9942234384539
 20
189.4309087797015
 30
0.0
  0
SEQEND
  5
247
330
231
100
AcDbEntity
  8
PIEZA
 62
     7
420
 16777215
370
     9
  0
ENDBLK
  5
230
330
22D
100
AcDbEntity
  8
0
100
AcDbBlockEnd
  0
BLOCK
  5
24A
330
248
100
AcDbEntity
  8
0
100
AcDbBlockBegin
  2
block 57
 70
     0
 10
0.0
 20
0.0
 30
0.0
  3
block 57
  1

  0
POLYLINE
  5
24C
330
248
100
AcDbEntity
  8
PIEZA
 62
     7
420
 16777215
370
     9
100
AcDb2dPolyline
 66
     1
 10
0.0
 20
0.0
 30
0.0
  0
VERTEX
  5
24D
330
24C
100
AcDbEntity
  8
PIEZA
 62
     7
420
 16777215
370
     9
100
AcDbVertex
100
AcDb2dVertex
 10
141.3270924936112
 20
190.9526588336676
 30
0.0
  0
VERTEX
  5
24E
330
24C
100
AcDbEntity
  8
PIEZA
 62
     7
420
 16777215
370
     9
100
AcDbVertex
100
AcDb2dVertex
 10
141.3385368599324
 20
190.9390956416378
 30
0.0
  0
VERTEX
  5
24F
330
24C
100
AcDbEntity
  8
PIEZA
 62
     7
420
 16777215
370
     9
100
AcDbVertex
100
AcDb2dVertex
 10
141.3725885576606
 20
190.8987396864239
 30
0.0
  0
VERTEX
  5
250
330
24C
100
AcDbEntity
  8
PIEZA
 62
     7
420
 16777215
370
     9
100
AcDbVertex
100
AcDb2dVertex
 10
141.4284083953214
 20
190.8325846714061
 30
0.0
  0
VERTEX
  5
251
330
24C
100
AcDbEntity
  8
PIEZA
 62
     7
420
 16777215
370
     9
100
AcDbVertex
100
AcDb2dVertex
 10
141.5046230203141
 20
190.7422600410316
 30
0.0
  0
VERTEX
  5
252
330
24C
100
AcDbEntity
  8
PIEZA
 62
     7
420
 16777215
370
     9
100
AcDbVertex
100
AcDb2dVertex
 10
141.5993549923288
 20
190.6299894571877
 30
0.0
  0
VERTEX
  5
253
330
24C
100
AcDbEntity
  8
PIEZA
 62
     7
420
 16777215
370
     9
100
AcDbVertex
100
AcDb2dVertex
 10
141.7102714736325
 20
190.4985371048532
 30
0.0
  0
VERTEX
  5
254
330
24C
100
AcDbEntity
  8
PIEZA
 62
     7
420
 16777215
370
     9
100
AcDbVertex
100
AcDb2dVertex
 10
141.8346415117656
 20
190.351141111109
 30
0.0
  0
VERTEX
  5
255
330
24C
100
AcDbEntity
  8
PIEZA
 62
     7
420
 16777215
370
     9
100
AcDbVertex
100
AcDb2dVertex
 10
141.9694033467102
 20
190.1914290660327
 30
0.0
  0
VERTEX
  5
256
330
24C
100
AcDbEntity
  8
PIEZA
 62
     7
420
 16777215
370
     9
100
AcDbVertex
100
AcDb2dVertex
 10
142.1112381623543
 20
190.0233342595168
 30
0.0
  0
VERTEX
  5
257
330
24C
100
AcDbEntity
  8
PIEZA
 62
     7
420
 16777215
370
     9
100
AcDbVertex
100
AcDb2dVertex
 10
142.2566538624362
 20
189.8509968836703
 30
0.0
  0
VERTEX
  5
258
330
24C
100
AcDbEntity
  8
PIEZA
 62
     7
420
 16777215
370
     9
100
AcDbVertex
100
AcDb2dVertex
 10
142.4020688464846
 20
189.6786587918988
 30
0.0
  0
VERTEX
  5
259
330
24C
100
AcDbEntity
  8
PIEZA
 62
     7
420
 16777215
370
     9
100
AcDbVertex
100
AcDb2dVertex
 10
142.5439036621287
 20
189.510564701307
 30
0.0
  0
VERTEX
  5
25A
330
24C
100
AcDbEntity
  8
PIEZA
 62
     7
420
 16777215
370
     9
100
AcDbVertex
100
AcDb2dVertex
 10
142.6786654970727
 20
189.3508526562306
 30
0.0
  0
VERTEX
  5
25B
330
24C
100
AcDbEntity
  8
PIEZA
 62
     7
420
 16777215
370
     9
100
AcDbVertex
100
AcDb2dVertex
 10
142.8030362512399
 20
189.2034559465617
 30
0.0
  0
VERTEX
  5
25C
330
24C
100
AcDbEntity
  8
PIEZA
 62
     7
420
 16777215
370
     9
100
AcDbVertex
100
AcDb2dVertex
 10
142.9139527325436
 20
189.0720035942275
 30
0.0
  0
VERTEX
  5
25D
330
24C
100
AcDbEntity
  8
PIEZA
 62
     7
420
 16777215
370
     9
100
AcDbVertex
100
AcDb2dVertex
 10
143.0086847045583
 20
188.9597330103833
 30
0.0
  0
VERTEX
  5
25E
330
24C
100
AcDbEntity
  8
PIEZA
 62
     7
420
 16777215
370
     9
100
AcDbVertex
100
AcDb2dVertex
 10
143.084899329551
 20
188.8694083800092
 30
0.0
  0
VERTEX
  5
25F
330
24C
100
AcDbEntity
  8
PIEZA
 62
     7
420
 16777215
370
     9
100
AcDbVertex
100
AcDb2dVertex
 10
143.1407184511783
 20
188.8032540809157
 30
0.0
  0
VERTEX
  5
260
330
24C
100
AcDbEntity
  8
PIEZA
 62
     7
420
 16777215
370
     9
100
AcDbVertex
100
AcDb2dVertex
 10
143.1747701489065
 20
188.7628981257019
 30
0.0
  0
VERTEX
  5
261
330
24C
100
AcDbEntity
  8
PIEZA
 62
     7
420
 16777215
370
     9
100
AcDbVertex
100
AcDb2dVertex
 10
143.1862152312612
 20
188.7493342177474
 30
0.0
  0
SEQEND
  5
262
330
24C
100
AcDbEntity
  8
PIEZA
 62
     7
420
 16777215
370
     9
  0
ENDBLK
  5
24B
330
248
100
AcDbEntity
  8
0
100
AcDbBlockEnd
  0
BLOCK
  5
265
330
263
100
AcDbEntity
  8
0
100
AcDbBlockBegin
  2
block 58
 70
     0
 10
0.0
 20
0.0
 30
0.0
  3
block 58
  1

  0
POLYLINE
  5
267
330
263
100
AcDbEntity
  8
PIEZA
 62
     7
420
 16777215
370
     9
100
AcDb2dPolyline
 66
     1
 10
0.0
 20
0.0
 30
0.0
  0
VERTEX
  5
268
330
267
100
AcDbEntity
  8
PIEZA
 62
     7
420
 16777215
370
     9
100
AcDbVertex
100
AcDb2dVertex
 10
154.9564069510284
 20
182.3595498793286
 30
0.0
  0
VERTEX
  5
269
330
267
100
AcDbEntity
  8
PIEZA
 62
     7
420
 16777215
370
     9
100
AcDbVertex
100
AcDb2dVertex
 10
159.3772089212706
 20
182.3595498793286
 30
0.0
  0
SEQEND
  5
26A
330
267
100
AcDbEntity
  8
PIEZA
 62
     7
420
 16777215
370
     9
  0
ENDBLK
  5
266
330
263
100
AcDbEntity
  8
0
100
AcDbBlockEnd
  0
BLOCK
  5
26D
330
26B
100
AcDbEntity
  8
0
100
AcDbBlockBegin
  2
block 59
 70
     0
 10
0.0
 20
0.0
 30
0.0
  3
block 59
  1

  0
POLYLINE
  5
26F
330
26B
100
AcDbEntity
  8
PIEZA
 62
     7
420
 16777215
370
     9
100
AcDb2dPolyline
 66
     1
 10
0.0
 20
0.0
 30
0.0
  0
VERTEX
  5
270
330
26F
100
AcDbEntity
  8
PIEZA
 62
     7
420
 16777215
370
     9
100
AcDbVertex
100
AcDb2dVertex
 10
154.9564069510284
 20
181.8791010068079
 30
0.0
  0
VERTEX
  5
271
330
26F
100
AcDbEntity
  8
PIEZA
 62
     7
420
 16777215
370
     9
100
AcDbVertex
100
AcDb2dVertex
 10
159.3772089212706
 20
181.8791010068079
 30
0.0
  0
SEQEND
  5
272
330
26F
100
AcDbEntity
  8
PIEZA
 62
     7
420
 16777215
370
     9
  0
ENDBLK
  5
26E
330
26B
100
AcDbEntity
  8
0
100
AcDbBlockEnd
  0
BLOCK
  5
275
330
273
100
AcDbEntity
  8
0
100
AcDbBlockBegin
  2
block 60
 70
     0
 10
0.0
 20
0.0
 30
0.0
  3
block 60
  1

  0
SPLINE
  5
277
330
273
100
AcDbEntity
  8
PIEZA
 62
     7
420
 16777215
370
     9
100
AcDbSpline
210
0.0
220
0.0
230
1.0
 70
     8
 71
     3
 72
     8
 73
     4
 74
     0
 42
0.0000000001
 43
0.0000000001
 12
1.0
 22
0.0
 32
0.0
 13
1.0
 23
0.0
 33
0.0
 40
0.0
 40
0.0
 40
0.0
 40
0.0
 40
1.0
 40
1.0
 40
1.0
 40
1.0
 10
133.9411119788
 20
191.6263405796583
 30
0.0
 10
133.9402893975891
 20
191.625710748852
 30
0.0
 10
133.9398605160173
 20
191.6250637069997
 30
0.0
 10
133.9398257300039
 20
191.6244000514159
 30
0.0
  0
ENDBLK
  5
276
330
273
100
AcDbEntity
  8
0
100
AcDbBlockEnd
  0
BLOCK
  5
27A
330
278
100
AcDbEntity
  8
0
100
AcDbBlockBegin
  2
block 61
 70
     0
 10
0.0
 20
0.0
 30
0.0
  3
block 61
  1

  0
POLYLINE
  5
27C
330
278
100
AcDbEntity
  8
PIEZA
 62
     7
420
 16777215
370
     9
100
AcDb2dPolyline
 66
     1
 10
0.0
 20
0.0
 30
0.0
  0
VERTEX
  5
27D
330
27C
100
AcDbEntity
  8
PIEZA
 62
     7
420
 16777215
370
     9
100
AcDbVertex
100
AcDb2dVertex
 10
140.2895919857637
 20
192.1822443171648
 30
0.0
  0
VERTEX
  5
64B
330
27C
100
AcDbEntity
  8
0
100
AcDbVertex
100
AcDb2dVertex
 10
140.2895919857637
 20
192.1822443171648
 30
0.0
  0
SEQEND
  5
27E
330
27C
100
AcDbEntity
  8
PIEZA
 62
     7
420
 16777215
370
     9
  0
ENDBLK
  5
27B
330
278
100
AcDbEntity
  8
0
100
AcDbBlockEnd
  0
BLOCK
  5
281
330
27F
100
AcDbEntity
  8
0
100
AcDbBlockBegin
  2
block 62
 70
     0
 10
0.0
 20
0.0
 30
0.0
  3
block 62
  1

  0
SPLINE
  5
283
330
27F
100
AcDbEntity
  8
PIEZA
 62
     7
420
 16777215
370
     9
100
AcDbSpline
210
0.0
220
0.0
230
1.0
 70
     8
 71
     3
 72
     8
 73
     4
 74
     0
 42
0.0000000001
 43
0.0000000001
 12
1.0
 22
0.0
 32
0.0
 13
1.0
 23
0.0
 33
0.0
 40
0.0
 40
0.0
 40
0.0
 40
0.0
 40
1.0
 40
1.0
 40
1.0
 40
1.0
 10
140.2891887845633
 20
192.1824641323814
 30
0.0
 10
140.1979288982394
 20
192.2905316564628
 30
0.0
 10
140.0636650132584
 20
192.3528822307975
 30
0.0
 10
139.9222064864036
 20
192.3528864098551
 30
0.0
  0
ENDBLK
  5
282
330
27F
100
AcDbEntity
  8
0
100
AcDbBlockEnd
  0
BLOCK
  5
286
330
284
100
AcDbEntity
  8
0
100
AcDbBlockBegin
  2
block 63
 70
     0
 10
0.0
 20
0.0
 30
0.0
  3
block 63
  1

  0
POLYLINE
  5
288
330
284
100
AcDbEntity
  8
PIEZA
 62
     7
420
 16777215
370
     9
100
AcDb2dPolyline
 66
     1
 10
0.0
 20
0.0
 30
0.0
  0
VERTEX
  5
289
330
288
100
AcDbEntity
  8
PIEZA
 62
     7
420
 16777215
370
     9
100
AcDbVertex
100
AcDb2dVertex
 10
173.9809774638859
 20
180.918203240289
 30
0.0
  0
VERTEX
  5
28A
330
288
100
AcDbEntity
  8
PIEZA
 62
     7
420
 16777215
370
     9
100
AcDbVertex
100
AcDb2dVertex
 10
133.1554193314153
 20
180.918203240289
 30
0.0
  0
SEQEND
  5
28B
330
288
100
AcDbEntity
  8
PIEZA
 62
     7
420
 16777215
370
     9
  0
ENDBLK
  5
287
330
284
100
AcDbEntity
  8
0
100
AcDbBlockEnd
  0
BLOCK
  5
28E
330
28C
100
AcDbEntity
  8
0
100
AcDbBlockBegin
  2
block 64
 70
     0
 10
0.0
 20
0.0
 30
0.0
  3
block 64
  1

  0
SPLINE
  5
290
330
28C
100
AcDbEntity
  8
PIEZA
 62
     7
420
 16777215
370
     9
100
AcDbSpline
210
0.0
220
0.0
230
1.0
 70
    24
 71
     3
 72
    50
 73
    46
 74
     0
 42
0.0000000001
 43
0.0000000001
 12
1.0
 22
0.0
 32
0.0
 13
1.0
 23
0.0
 33
0.0
 40
0.0
 40
0.0
 40
0.0
 40
0.0
 40
1.0
 40
1.0
 40
1.0
 40
2.0
 40
2.0
 40
2.0
 40
3.0
 40
3.0
 40
3.0
 40
4.0
 40
4.0
 40
4.0
 40
5.0
 40
5.0
 40
5.0
 40
6.0
 40
6.0
 40
6.0
 40
7.0
 40
7.0
 40
7.0
 40
8.0
 40
8.0
 40
8.0
 40
9.0
 40
9.0
 40
9.0
 40
10.0
 40
10.0
 40
10.0
 40
11.0
 40
11.0
 40
11.0
 40
12.0
 40
12.0
 40
12.0
 40
13.0
 40
13.0
 40
13.0
 40
14.0
 40
14.0
 40
14.0
 40
15.0
 40
15.0
 40
15.0
 40
15.0
 10
140.3688991868343
 20
193.4098742050307
 30
0.0
 10
140.3688991868343
 20
193.4098742050307
 30
0.0
 10
140.3739764425461
 20
193.4098742050307
 30
0.0
 10
140.3860580882778
 20
193.4098742050307
 30
0.0
 10
140.3981397340102
 20
193.4098742050307
 30
0.0
 10
140.4171885992101
 20
193.4098742050307
 30
0.0
 10
140.4460171212764
 20
193.4098742050307
 30
0.0
 10
140.4604313823095
 20
193.4098742050307
 30
0.0
 10
140.4773574887306
 20
193.4098742050307
 30
0.0
 10
140.4971376360784
 20
193.4098742050307
 30
0.0
 10
140.5169177834262
 20
193.4098742050307
 30
0.0
 10
140.5393778752604
 20
193.4098742050307
 30
0.0
 10
140.5648440338553
 20
193.4098742050307
 30
0.0
 10
140.5903101924501
 20
193.4098742050307
 30
0.0
 10
140.6187799541329
 20
193.4098742050307
 30
0.0
 10
140.6506558033315
 20
193.4098742050307
 30
0.0
 10
140.6665937279304
 20
193.4098742050307
 30
0.0
 10
140.6833845764427
 20
193.4098742050307
 30
0.0
 10
140.7010894271203
 20
193.4098742050307
 30
0.0
 10
140.7187942777985
 20
193.4098742050307
 30
0.0
 10
140.7374784863473
 20
193.4098742050307
 30
0.0
 10
140.7568714243939
 20
193.4098742050307
 30
0.0
 10
140.8344431765802
 20
193.4098742050307
 30
0.0
 10
140.9238912291019
 20
193.4098742050307
 30
0.0
 10
141.025984980716
 20
193.4098742050307
 30
0.0
 10
141.0515084186191
 20
193.4098742050307
 30
0.0
 10
141.0778258655897
 20
193.4098742050307
 30
0.0
 10
141.1049573061216
 20
193.4098742050307
 30
0.0
 10
141.1320887466541
 20
193.4098742050307
 30
0.0
 10
141.1600557761035
 20
193.4098742050307
 30
0.0
 10
141.1883675803106
 20
193.4098742050307
 30
0.0
 10
141.2449911887252
 20
193.4098742050307
 30
0.0
 10
141.3034424271051
 20
193.4098742050307
 30
0.0
 10
141.3635778032914
 20
193.4098742050307
 30
0.0
 10
141.4237131794777
 20
193.4098742050307
 30
0.0
 10
141.4855337194444
 20
193.4098742050307
 30
0.0
 10
141.5489253428747
 20
193.4098742050307
 30
0.0
 10
141.5806211545901
 20
193.4098742050307
 30
0.0
 10
141.6127364578915
 20
193.4098742050307
 30
0.0
 10
141.6448741649058
 20
193.4098742050307
 30
0.0
 10
141.6770118719202
 20
193.4098742050307
 30
0.0
 10
141.7092604327182
 20
193.4098742050307
 30
0.0
 10
141.741611441726
 20
193.4098742050307
 30
0.0
 10
141.8710154777582
 20
193.4098742050307
 30
0.0
 10
142.0020460549294
 20
193.4098742050307
 30
0.0
 10
142.1342895566515
 20
193.4098742050307
 30
0.0
  0
ENDBLK
  5
28F
330
28C
100
AcDbEntity
  8
0
100
AcDbBlockEnd
  0
BLOCK
  5
293
330
291
100
AcDbEntity
  8
0
100
AcDbBlockBegin
  2
block 65
 70
     0
 10
0.0
 20
0.0
 30
0.0
  3
block 65
  1

  0
SPLINE
  5
295
330
291
100
AcDbEntity
  8
PIEZA
 62
     7
420
 16777215
370
     9
100
AcDbSpline
210
0.0
220
0.0
230
1.0
 70
    24
 71
     3
 72
    35
 73
    31
 74
     0
 42
0.0000000001
 43
0.0000000001
 12
1.0
 22
0.0
 32
0.0
 13
1.0
 23
0.0
 33
0.0
 40
0.0
 40
0.0
 40
0.0
 40
0.0
 40
1.0
 40
1.0
 40
1.0
 40
2.0
 40
2.0
 40
2.0
 40
3.0
 40
3.0
 40
3.0
 40
4.0
 40
4.0
 40
4.0
 40
5.0
 40
5.0
 40
5.0
 40
6.0
 40
6.0
 40
6.0
 40
7.0
 40
7.0
 40
7.0
 40
8.0
 40
8.0
 40
8.0
 40
9.0
 40
9.0
 40
9.0
 40
10.0
 40
10.0
 40
10.0
 40
10.0
 10
172.1444875661377
 20
193.4098739472978
 30
0.0
 10
172.2216093684612
 20
193.4098739472978
 30
0.0
 10
172.2987311707879
 20
193.4098739472978
 30
0.0
 10
172.3752623573511
 20
193.4098739472978
 30
0.0
 10
172.4532004448598
 20
193.4098739472978
 30
0.0
 10
172.5305260019938
 20
193.4098739472978
 30
0.0
 10
172.6060371485639
 20
193.4098739472978
 30
0.0
 10
172.680343833403
 20
193.4098739472978
 30
0.0
 10
172.7528935285716
 20
193.4098739472978
 30
0.0
 10
172.8221876678813
 20
193.4098739472978
 30
0.0
 10
172.8940328466804
 20
193.4098739472978
 30
0.0
 10
172.9623783530058
 20
193.4098739472978
 30
0.0
 10
173.0255727387338
 20
193.4098739472978
 30
0.0
 10
173.0795119847913
 20
193.4098739472978
 30
0.0
 10
173.129698439077
 20
193.4098739472978
 30
0.0
 10
173.1755789307438
 20
193.4098739472978
 30
0.0
 10
173.2228332227222
 20
193.4098739472978
 30
0.0
 10
173.2655198244057
 20
193.4098739472978
 30
0.0
 10
173.3035570625944
 20
193.4098739472978
 30
0.0
 10
173.3508283909687
 20
193.4098739472978
 30
0.0
 10
173.3909189469296
 20
193.4098739472978
 30
0.0
 10
173.4244865588907
 20
193.4098739472978
 30
0.0
 10
173.4590028891782
 20
193.4098739472978
 30
0.0
 10
173.4866223502583
 20
193.4098739472978
 30
0.0
 10
173.5089355712151
 20
193.4098739472978
 30
0.0
 10
173.5412786521621
 20
193.4098739472978
 30
0.0
 10
173.5624730096628
 20
193.4098739472978
 30
0.0
 10
173.5745758108084
 20
193.4098739472978
 30
0.0
 10
173.5868937686772
 20
193.4098739472978
 30
0.0
 10
173.5897940478724
 20
193.4098739472978
 30
0.0
 10
173.5926943270709
 20
193.4098739472978
 30
0.0
  0
ENDBLK
  5
294
330
291
100
AcDbEntity
  8
0
100
AcDbBlockEnd
  0
BLOCK
  5
298
330
296
100
AcDbEntity
  8
0
100
AcDbBlockBegin
  2
block 66
 70
     0
 10
0.0
 20
0.0
 30
0.0
  3
block 66
  1

  0
POLYLINE
  5
29A
330
296
100
AcDbEntity
  8
PIEZA
 62
     7
420
 16777215
370
     9
100
AcDb2dPolyline
 66
     1
 10
0.0
 20
0.0
 30
0.0
  0
VERTEX
  5
29B
330
29A
100
AcDbEntity
  8
PIEZA
 62
     7
420
 16777215
370
     9
100
AcDbVertex
100
AcDb2dVertex
 10
142.1342894346427
 20
193.4098739472978
 30
0.0
  0
VERTEX
  5
29C
330
29A
100
AcDbEntity
  8
PIEZA
 62
     7
420
 16777215
370
     9
100
AcDbVertex
100
AcDb2dVertex
 10
172.1444875661377
 20
193.4098739472978
 30
0.0
  0
SEQEND
  5
29D
330
29A
100
AcDbEntity
  8
PIEZA
 62
     7
420
 16777215
370
     9
  0
ENDBLK
  5
299
330
296
100
AcDbEntity
  8
0
100
AcDbBlockEnd
  0
BLOCK
  5
2A0
330
29E
100
AcDbEntity
  8
0
100
AcDbBlockBegin
  2
block 67
 70
     0
 10
0.0
 20
0.0
 30
0.0
  3
block 67
  1

  0
POLYLINE
  5
2A2
330
29E
100
AcDbEntity
  8
PIEZA
 62
     7
420
 16777215
370
     9
100
AcDb2dPolyline
 66
     1
 10
0.0
 20
0.0
 30
0.0
  0
VERTEX
  5
2A3
330
2A2
100
AcDbEntity
  8
PIEZA
 62
     7
420
 16777215
370
     9
100
AcDbVertex
100
AcDb2dVertex
 10
132.0835566567297
 20
192.3528866618609
 30
0.0
  0
VERTEX
  5
2A4
330
2A2
100
AcDbEntity
  8
PIEZA
 62
     7
420
 16777215
370
     9
100
AcDbVertex
100
AcDb2dVertex
 10
132.9194105855324
 20
192.3528866618609
 30
0.0
  0
SEQEND
  5
2A5
330
2A2
100
AcDbEntity
  8
PIEZA
 62
     7
420
 16777215
370
     9
  0
ENDBLK
  5
2A1
330
29E
100
AcDbEntity
  8
0
100
AcDbBlockEnd
  0
BLOCK
  5
2A8
330
2A6
100
AcDbEntity
  8
0
100
AcDbBlockBegin
  2
block 68
 70
     0
 10
0.0
 20
0.0
 30
0.0
  3
block 68
  1

  0
POLYLINE
  5
2AA
330
2A6
100
AcDbEntity
  8
PIEZA
 62
     7
420
 16777215
370
     9
100
AcDb2dPolyline
 66
     1
 10
0.0
 20
0.0
 30
0.0
  0
VERTEX
  5
2AB
330
2AA
100
AcDbEntity
  8
PIEZA
 62
     7
420
 16777215
370
     9
100
AcDbVertex
100
AcDb2dVertex
 10
132.0835566567297
 20
181.9751907834599
 30
0.0
  0
VERTEX
  5
2AC
330
2AA
100
AcDbEntity
  8
PIEZA
 62
     7
420
 16777215
370
     9
100
AcDbVertex
100
AcDb2dVertex
 10
132.0835566567297
 20
192.3528866618609
 30
0.0
  0
SEQEND
  5
2AD
330
2AA
100
AcDbEntity
  8
PIEZA
 62
     7
420
 16777215
370
     9
  0
ENDBLK
  5
2A9
330
2A6
100
AcDbEntity
  8
0
100
AcDbBlockEnd
  0
BLOCK
  5
2B0
330
2AE
100
AcDbEntity
  8
0
100
AcDbBlockBegin
  2
block 69
 70
     0
 10
0.0
 20
0.0
 30
0.0
  3
block 69
  1

  0
SPLINE
  5
2B2
330
2AE
100
AcDbEntity
  8
PIEZA
370
     0
100
AcDbSpline
210
0.0
220
0.0
230
1.0
 70
    11
 71
     3
 72
    32
 73
    28
 74
     0
 42
0.0000000001
 43
0.0000000001
 12
1.0
 22
0.0
 32
0.0
 13
1.0
 23
0.0
 33
0.0
 40
0.0
 40
0.0
 40
0.0
 40
0.0
 40
1.0
 40
1.0
 40
1.0
 40
2.0
 40
2.0
 40
2.0
 40
3.0
 40
3.0
 40
3.0
 40
4.0
 40
4.0
 40
4.0
 40
5.0
 40
5.0
 40
5.0
 40
6.0
 40
6.0
 40
6.0
 40
7.0
 40
7.0
 40
7.0
 40
8.0
 40
8.0
 40
8.0
 40
9.0
 40
9.0
 40
9.0
 40
9.0
 10
139.9223153537708
 20
192.3528866618609
 30
0.0
 10
140.063906385786
 20
192.3528866618609
 30
0.0
 10
140.1982902280763
 20
192.2904498718769
 30
0.0
 10
140.289591985763
 20
192.1822443171642
 30
0.0
 10
140.289591985763
 20
192.1822443171642
 30
0.0
 10
141.3270925565086
 20
190.9526587361598
 30
0.0
 10
141.3270925565086
 20
190.9526587361598
 30
0.0
 10
141.3270925565086
 20
190.9526587361598
 30
0.0
 10
142.1351011468906
 20
191.6342331209979
 30
0.0
 10
142.1351011468906
 20
191.6342331209979
 30
0.0
 10
142.1351011468906
 20
191.6342331209979
 30
0.0
 10
140.809631145224
 20
193.2051033913954
 30
0.0
 10
140.809631145224
 20
193.2051033913954
 30
0.0
 10
140.700069036001
 20
193.3349500570504
 30
0.0
 10
140.5388084252525
 20
193.4098742050311
 30
0.0
 10
140.3688991868343
 20
193.4098742050311
 30
0.0
 10
140.3688991868343
 20
193.4098742050311
 30
0.0
 10
138.9550222448286
 20
193.4098742050307
 30
0.0
 10
138.9550222448286
 20
193.4098742050307
 30
0.0
 10
138.9550222448286
 20
193.4098742050307
 30
0.0
 10
138.9550222448305
 20
192.3528866618599
 30
0.0
 10
138.9550222448305
 20
192.3528866618599
 30
0.0
 10
138.9550222448305
 20
192.3528866618599
 30
0.0
 10
139.9223153537727
 20
192.3528866618609
 30
0.0
 10
139.9223153537727
 20
192.3528866618609
 30
0.0
 10
139.9223153537727
 20
192.3528866618609
 30
0.0
 10
139.9223153537708
 20
192.3528866618609
 30
0.0
 10
139.9223153537708
 20
192.3528866618609
 30
0.0
  0
HATCH
  5
2B3
330
2AE
100
AcDbEntity
  8
PIEZA
 62
     7
420
 16777215
100
AcDbHatch
 10
0.0
 20
0.0
 30
0.0
210
0.0
220
0.0
230
1.0
  2
SOLID
 70
     1
 71
     0
 91
        1
 92
        1
 93
        1
 72
     4
 94
        3
 73
     0
 74
     1
 95
       32
 96
       28
 40
0.0
 40
0.0
 40
0.0
 40
0.0
 40
1.0
 40
1.0
 40
1.0
 40
2.0
 40
2.0
 40
2.0
 40
3.0
 40
3.0
 40
3.0
 40
4.0
 40
4.0
 40
4.0
 40
5.0
 40
5.0
 40
5.0
 40
6.0
 40
6.0
 40
6.0
 40
7.0
 40
7.0
 40
7.0
 40
8.0
 40
8.0
 40
8.0
 40
9.0
 40
9.0
 40
9.0
 40
9.0
 10
139.9223153537708
 20
192.3528866618609
 10
140.063906385786
 20
192.3528866618609
 10
140.1982902280763
 20
192.2904498718769
 10
140.289591985763
 20
192.1822443171642
 10
140.289591985763
 20
192.1822443171642
 10
141.3270925565086
 20
190.9526587361598
 10
141.3270925565086
 20
190.9526587361598
 10
141.3270925565086
 20
190.9526587361598
 10
142.1351011468906
 20
191.6342331209979
 10
142.1351011468906
 20
191.6342331209979
 10
142.1351011468906
 20
191.6342331209979
 10
140.809631145224
 20
193.2051033913954
 10
140.809631145224
 20
193.2051033913954
 10
140.700069036001
 20
193.3349500570504
 10
140.5388084252525
 20
193.4098742050311
 10
140.3688991868343
 20
193.4098742050311
 10
140.3688991868343
 20
193.4098742050311
 10
138.9550222448286
 20
193.4098742050307
 10
138.9550222448286
 20
193.4098742050307
 10
138.9550222448286
 20
193.4098742050307
 10
138.9550222448305
 20
192.3528866618599
 10
138.9550222448305
 20
192.3528866618599
 10
138.9550222448305
 20
192.3528866618599
 10
139.9223153537727
 20
192.3528866618609
 10
139.9223153537727
 20
192.3528866618609
 10
139.9223153537727
 20
192.3528866618609
 10
139.9223153537708
 20
192.3528866618609
 10
139.9223153537708
 20
192.3528866618609
 97
        0
 97
        0
 75
     0
 76
     1
 98
        0
  0
ENDBLK
  5
2B1
330
2AE
100
AcDbEntity
  8
0
100
AcDbBlockEnd
  0
BLOCK
  5
2B6
330
2B4
100
AcDbEntity
  8
0
100
AcDbBlockBegin
  2
block 70
 70
     0
 10
0.0
 20
0.0
 30
0.0
  3
block 70
  1

  0
SPLINE
  5
2B8
330
2B4
100
AcDbEntity
  8
PIEZA
370
     0
100
AcDbSpline
210
0.0
220
0.0
230
1.0
 70
    11
 71
     3
 72
    47
 73
    43
 74
     0
 42
0.0000000001
 43
0.0000000001
 12
1.0
 22
0.0
 32
0.0
 13
1.0
 23
0.0
 33
0.0
 40
0.0
 40
0.0
 40
0.0
 40
0.0
 40
1.0
 40
1.0
 40
1.0
 40
2.0
 40
2.0
 40
2.0
 40
3.0
 40
3.0
 40
3.0
 40
4.0
 40
4.0
 40
4.0
 40
5.0
 40
5.0
 40
5.0
 40
6.0
 40
6.0
 40
6.0
 40
7.0
 40
7.0
 40
7.0
 40
8.0
 40
8.0
 40
8.0
 40
9.0
 40
9.0
 40
9.0
 40
10.0
 40
10.0
 40
10.0
 40
11.0
 40
11.0
 40
11.0
 40
12.0
 40
12.0
 40
12.0
 40
13.0
 40
13.0
 40
13.0
 40
14.0
 40
14.0
 40
14.0
 40
14.0
 10
143.1862149412293
 20
188.7493345722662
 30
0.0
 10
143.1862149412293
 20
188.7493345722662
 30
0.0
 10
145.5621336812991
 20
185.9335333025586
 30
0.0
 10
145.5621336812991
 20
185.9335333025586
 30
0.0
 10
146.9951797944736
 20
184.2351699952521
 30
0.0
 10
149.0330962246987
 20
183.1611701976148
 30
0.0
 10
151.2443285828863
 20
182.9389668462458
 30
0.0
 10
151.2443285828863
 20
182.9389668462458
 30
0.0
 10
152.5137685894428
 20
182.8114027450581
 30
0.0
 10
152.5137685894428
 20
182.8114027450581
 30
0.0
 10
152.7057976856572
 20
182.7921060341556
 30
0.0
 10
152.8875675411028
 20
182.7154488002325
 30
0.0
 10
153.0354114400171
 20
182.5914119334753
 30
0.0
 10
153.0354114400171
 20
182.5914119334753
 30
0.0
 10
153.8844398570569
 20
181.8791010068079
 30
0.0
 10
153.8844398570569
 20
181.8791010068079
 30
0.0
 10
153.8844398570569
 20
181.8791010068079
 30
0.0
 10
154.9564071457891
 20
181.8791010068079
 30
0.0
 10
154.9564071457891
 20
181.8791010068079
 30
0.0
 10
154.9564071457891
 20
181.8791010068079
 30
0.0
 10
154.9564071457872
 20
182.3595498900677
 30
0.0
 10
154.9564071457872
 20
182.3595498900677
 30
0.0
 10
154.9564071457872
 20
182.3595498900677
 30
0.0
 10
153.283798105146
 20
183.7628217615139
 30
0.0
 10
153.283798105146
 20
183.7628217615139
 30
0.0
 10
153.2542293253654
 20
183.7876291348657
 30
0.0
 10
153.2178753542759
 20
183.8029605816504
 30
0.0
 10
153.1794695350333
 20
183.806819923831
 30
0.0
 10
153.1794695350333
 20
183.806819923831
 30
0.0
 10
151.3500434341323
 20
183.9906561693804
 30
0.0
 10
151.3500434341323
 20
183.9906561693804
 30
0.0
 10
149.4121094532605
 20
184.1853961886142
 30
0.0
 10
147.6260703307716
 20
185.1266544412745
 30
0.0
 10
146.3701422731044
 20
186.6151076796995
 30
0.0
 10
146.3701422731044
 20
186.6151076796995
 30
0.0
 10
143.9942235316151
 20
189.4309089571053
 30
0.0
 10
143.9942235316151
 20
189.4309089571053
 30
0.0
 10
143.9942235316151
 20
189.4309089571053
 30
0.0
 10
143.1862149412312
 20
188.7493345722672
 30
0.0
 10
143.1862149412312
 20
188.7493345722672
 30
0.0
 10
143.1862149412312
 20
188.7493345722672
 30
0.0
 10
143.1862149412293
 20
188.7493345722662
 30
0.0
 10
143.1862149412293
 20
188.7493345722662
 30
0.0
  0
HATCH
  5
2B9
330
2B4
100
AcDbEntity
  8
PIEZA
 62
     7
420
 16777215
100
AcDbHatch
 10
0.0
 20
0.0
 30
0.0
210
0.0
220
0.0
230
1.0
  2
SOLID
 70
     1
 71
     0
 91
        1
 92
        1
 93
        1
 72
     4
 94
        3
 73
     0
 74
     1
 95
       47
 96
       43
 40
0.0
 40
0.0
 40
0.0
 40
0.0
 40
1.0
 40
1.0
 40
1.0
 40
2.0
 40
2.0
 40
2.0
 40
3.0
 40
3.0
 40
3.0
 40
4.0
 40
4.0
 40
4.0
 40
5.0
 40
5.0
 40
5.0
 40
6.0
 40
6.0
 40
6.0
 40
7.0
 40
7.0
 40
7.0
 40
8.0
 40
8.0
 40
8.0
 40
9.0
 40
9.0
 40
9.0
 40
10.0
 40
10.0
 40
10.0
 40
11.0
 40
11.0
 40
11.0
 40
12.0
 40
12.0
 40
12.0
 40
13.0
 40
13.0
 40
13.0
 40
14.0
 40
14.0
 40
14.0
 40
14.0
 10
143.1862149412293
 20
188.7493345722662
 10
143.1862149412293
 20
188.7493345722662
 10
145.5621336812991
 20
185.9335333025586
 10
145.5621336812991
 20
185.9335333025586
 10
146.9951797944736
 20
184.2351699952521
 10
149.0330962246987
 20
183.1611701976148
 10
151.2443285828863
 20
182.9389668462458
 10
151.2443285828863
 20
182.9389668462458
 10
152.5137685894428
 20
182.8114027450581
 10
152.5137685894428
 20
182.8114027450581
 10
152.7057976856572
 20
182.7921060341556
 10
152.8875675411028
 20
182.7154488002325
 10
153.0354114400171
 20
182.5914119334753
 10
153.0354114400171
 20
182.5914119334753
 10
153.8844398570569
 20
181.8791010068079
 10
153.8844398570569
 20
181.8791010068079
 10
153.8844398570569
 20
181.8791010068079
 10
154.9564071457891
 20
181.8791010068079
 10
154.9564071457891
 20
181.8791010068079
 10
154.9564071457891
 20
181.8791010068079
 10
154.9564071457872
 20
182.3595498900677
 10
154.9564071457872
 20
182.3595498900677
 10
154.9564071457872
 20
182.3595498900677
 10
153.283798105146
 20
183.7628217615139
 10
153.283798105146
 20
183.7628217615139
 10
153.2542293253654
 20
183.7876291348657
 10
153.2178753542759
 20
183.8029605816504
 10
153.1794695350333
 20
183.806819923831
 10
153.1794695350333
 20
183.806819923831
 10
151.3500434341323
 20
183.9906561693804
 10
151.3500434341323
 20
183.9906561693804
 10
149.4121094532605
 20
184.1853961886142
 10
147.6260703307716
 20
185.1266544412745
 10
146.3701422731044
 20
186.6151076796995
 10
146.3701422731044
 20
186.6151076796995
 10
143.9942235316151
 20
189.4309089571053
 10
143.9942235316151
 20
189.4309089571053
 10
143.9942235316151
 20
189.4309089571053
 10
143.1862149412312
 20
188.7493345722672
 10
143.1862149412312
 20
188.7493345722672
 10
143.1862149412312
 20
188.7493345722672
 10
143.1862149412293
 20
188.7493345722662
 10
143.1862149412293
 20
188.7493345722662
 97
        0
 97
        0
 75
     0
 76
     1
 98
        0
  0
ENDBLK
  5
2B7
330
2B4
100
AcDbEntity
  8
0
100
AcDbBlockEnd
  0
BLOCK
  5
2BC
330
2BA
100
AcDbEntity
  8
0
100
AcDbBlockBegin
  2
block 71
 70
     0
 10
0.0
 20
0.0
 30
0.0
  3
block 71
  1

  0
POLYLINE
  5
2BE
330
2BA
100
AcDbEntity
  8
PIEZA
 62
     7
420
 16777215
370
     9
100
AcDb2dPolyline
 66
     1
 10
0.0
 20
0.0
 30
0.0
  0
VERTEX
  5
2BF
330
2BE
100
AcDbEntity
  8
PIEZA
 62
     7
420
 16777215
370
     9
100
AcDbVertex
100
AcDb2dVertex
 10
143.0646623392528
 20
190.5325710390519
 30
0.0
  0
VERTEX
  5
2C0
330
2BE
100
AcDbEntity
  8
PIEZA
 62
     7
420
 16777215
370
     9
100
AcDbVertex
100
AcDb2dVertex
 10
143.0646623392528
 20
190.5325710390519
 30
0.0
  0
SEQEND
  5
2C1
330
2BE
100
AcDbEntity
  8
PIEZA
 62
     7
420
 16777215
370
     9
  0
ENDBLK
  5
2BD
330
2BA
100
AcDbEntity
  8
0
100
AcDbBlockEnd
  0
BLOCK
  5
2C4
330
2C2
100
AcDbEntity
  8
0
100
AcDbBlockBegin
  2
block 72
 70
     0
 10
0.0
 20
0.0
 30
0.0
  3
block 72
  1

  0
SPLINE
  5
2C6
330
2C2
100
AcDbEntity
  8
PIEZA
 62
     7
420
 16777215
370
     9
100
AcDbSpline
210
0.0
220
0.0
230
1.0
 70
     8
 71
     3
 72
    29
 73
    25
 74
     0
 42
0.0000000001
 43
0.0000000001
 12
1.0
 22
0.0
 32
0.0
 13
1.0
 23
0.0
 33
0.0
 40
0.0
 40
0.0
 40
0.0
 40
0.0
 40
1.0
 40
1.0
 40
1.0
 40
2.0
 40
2.0
 40
2.0
 40
3.0
 40
3.0
 40
3.0
 40
4.0
 40
4.0
 40
4.0
 40
5.0
 40
5.0
 40
5.0
 40
6.0
 40
6.0
 40
6.0
 40
7.0
 40
7.0
 40
7.0
 40
8.0
 40
8.0
 40
8.0
 40
8.0
 10
164.7596875421845
 20
180.9182032402887
 30
0.0
 10
164.6163101288565
 20
181.2329894077454
 30
0.0
 10
164.4729327155284
 20
181.547775575202
 30
0.0
 10
164.3295553021997
 20
181.8625617426586
 30
0.0
 10
164.3270441191479
 20
181.8680750635538
 30
0.0
 10
164.3245329360954
 20
181.8735883844489
 30
0.0
 10
164.3220212684491
 20
181.8791010068079
 30
0.0
 10
163.4696601376894
 20
183.7498680388697
 30
0.0
 10
162.5614904422391
 20
185.540187740292
 30
0.0
 10
161.0774595119399
 20
186.5004108531683
 30
0.0
 10
159.6729020797047
 20
187.4092116620052
 30
0.0
 10
157.752509484682
 20
187.5744426957476
 30
0.0
 10
155.8400136219113
 20
187.7504589951159
 30
0.0
 10
155.0000483577206
 20
187.8277650851728
 30
0.0
 10
154.1616063360615
 20
187.9071516022721
 30
0.0
 10
153.5625540501386
 20
188.3875211537669
 30
0.0
 10
152.9633957144502
 20
188.8679757447142
 30
0.0
 10
152.6037118799624
 20
189.7495553540599
 30
0.0
 10
152.6350056562655
 20
190.5630638984682
 30
0.0
 10
152.660350177839
 20
191.2219164656262
 30
0.0
 10
152.9421455452314
 20
191.8361197186104
 30
0.0
 10
153.0258623366857
 20
192.4381361113891
 30
0.0
 10
153.0713723723078
 20
192.7654036404498
 30
0.0
 10
153.0583459141286
 20
193.0890696893226
 30
0.0
 10
152.9988054682488
 20
193.4098739472978
 30
0.0
  0
ENDBLK
  5
2C5
330
2C2
100
AcDbEntity
  8
0
100
AcDbBlockEnd
  0
BLOCK
  5
2C9
330
2C7
100
AcDbEntity
  8
0
100
AcDbBlockBegin
  2
block 73
 70
     0
 10
0.0
 20
0.0
 30
0.0
  3
block 73
  1

  0
POLYLINE
  5
2CB
330
2C7
100
AcDbEntity
  8
PIEZA
 62
     7
420
 16777215
370
     9
100
AcDb2dPolyline
 66
     1
 10
0.0
 20
0.0
 30
0.0
  0
VERTEX
  5
2CC
330
2CB
100
AcDbEntity
  8
PIEZA
 62
     7
420
 16777215
370
     9
100
AcDbVertex
100
AcDb2dVertex
 10
132.0835566567297
 20
181.9751907834599
 30
0.0
  0
VERTEX
  5
2CD
330
2CB
100
AcDbEntity
  8
PIEZA
 62
     7
420
 16777215
370
     9
100
AcDbVertex
100
AcDb2dVertex
 10
132.4258219325881
 20
181.9751907834599
 30
0.0
  0
SEQEND
  5
2CE
330
2CB
100
AcDbEntity
  8
PIEZA
 62
     7
420
 16777215
370
     9
  0
ENDBLK
  5
2CA
330
2C7
100
AcDbEntity
  8
0
100
AcDbBlockEnd
  0
BLOCK
  5
2D1
330
2CF
100
AcDbEntity
  8
0
100
AcDbBlockBegin
  2
block 74
 70
     0
 10
0.0
 20
0.0
 30
0.0
  3
block 74
  1

  0
POLYLINE
  5
2D3
330
2CF
100
AcDbEntity
  8
PIEZA
 62
     7
420
 16777215
370
     9
100
AcDb2dPolyline
 66
     1
 10
0.0
 20
0.0
 30
0.0
  0
VERTEX
  5
2D4
330
2D3
100
AcDbEntity
  8
PIEZA
 62
     7
420
 16777215
370
     9
100
AcDbVertex
100
AcDb2dVertex
 10
132.9194105855324
 20
192.3528866618609
 30
0.0
  0
VERTEX
  5
2D5
330
2D3
100
AcDbEntity
  8
PIEZA
 62
     7
420
 16777215
370
     9
100
AcDbVertex
100
AcDb2dVertex
 10
132.4258219325881
 20
181.9751907834599
 30
0.0
  0
SEQEND
  5
2D6
330
2D3
100
AcDbEntity
  8
PIEZA
 62
     7
420
 16777215
370
     9
  0
ENDBLK
  5
2D2
330
2CF
100
AcDbEntity
  8
0
100
AcDbBlockEnd
  0
BLOCK
  5
2D9
330
2D7
100
AcDbEntity
  8
0
100
AcDbBlockBegin
  2
block 75
 70
     0
 10
0.0
 20
0.0
 30
0.0
  3
block 75
  1

  0
SPLINE
  5
2DB
330
2D7
100
AcDbEntity
  8
PIEZA
 62
     7
420
 16777215
370
     9
100
AcDbSpline
210
0.0
220
0.0
230
1.0
 70
     8
 71
     3
 72
     8
 73
     4
 74
     0
 42
0.0000000001
 43
0.0000000001
 12
1.0
 22
0.0
 32
0.0
 13
1.0
 23
0.0
 33
0.0
 40
0.0
 40
0.0
 40
0.0
 40
0.0
 40
1.0
 40
1.0
 40
1.0
 40
1.0
 10
59.97210667493873
 20
89.94599301961472
 30
0.0
 10
59.97210667493873
 20
89.62757951005801
 30
0.0
 10
60.23027114499249
 20
89.36945435970348
 30
0.0
 10
60.54873315785652
 20
89.36945435970348
 30
0.0
  0
ENDBLK
  5
2DA
330
2D7
100
AcDbEntity
  8
0
100
AcDbBlockEnd
  0
BLOCK
  5
2DE
330
2DC
100
AcDbEntity
  8
0
100
AcDbBlockBegin
  2
block 76
 70
     0
 10
0.0
 20
0.0
 30
0.0
  3
block 76
  1

  0
POLYLINE
  5
2E0
330
2DC
100
AcDbEntity
  8
PIEZA
 62
     7
420
 16777215
370
     9
100
AcDb2dPolyline
 66
     1
 10
0.0
 20
0.0
 30
0.0
  0
VERTEX
  5
2E1
330
2E0
100
AcDbEntity
  8
PIEZA
 62
     7
420
 16777215
370
     9
100
AcDbVertex
100
AcDb2dVertex
 10
59.972107326758
 20
132.2153433986708
 30
0.0
  0
VERTEX
  5
2E2
330
2E0
100
AcDbEntity
  8
PIEZA
 62
     7
420
 16777215
370
     9
100
AcDbVertex
100
AcDb2dVertex
 10
59.972107326758
 20
89.94599254876226
 30
0.0
  0
SEQEND
  5
2E3
330
2E0
100
AcDbEntity
  8
PIEZA
 62
     7
420
 16777215
370
     9
  0
ENDBLK
  5
2DF
330
2DC
100
AcDbEntity
  8
0
100
AcDbBlockEnd
  0
BLOCK
  5
2E6
330
2E4
100
AcDbEntity
  8
0
100
AcDbBlockBegin
  2
block 77
 70
     0
 10
0.0
 20
0.0
 30
0.0
  3
block 77
  1

  0
POLYLINE
  5
2E8
330
2E4
100
AcDbEntity
  8
PIEZA
 62
     7
420
 16777215
370
     9
100
AcDb2dPolyline
 66
     1
 10
0.0
 20
0.0
 30
0.0
  0
VERTEX
  5
2E9
330
2E8
100
AcDbEntity
  8
PIEZA
 62
     7
420
 16777215
370
     9
100
AcDbVertex
100
AcDb2dVertex
 10
60.54873354617524
 20
89.36945558416087
 30
0.0
  0
VERTEX
  5
2EA
330
2E8
100
AcDbEntity
  8
PIEZA
 62
     7
420
 16777215
370
     9
100
AcDbVertex
100
AcDb2dVertex
 10
103.0065778996277
 20
89.36945558416087
 30
0.0
  0
SEQEND
  5
2EB
330
2E8
100
AcDbEntity
  8
PIEZA
 62
     7
420
 16777215
370
     9
  0
ENDBLK
  5
2E7
330
2E4
100
AcDbEntity
  8
0
100
AcDbBlockEnd
  0
BLOCK
  5
2EE
330
2EC
100
AcDbEntity
  8
0
100
AcDbBlockBegin
  2
block 78
 70
     0
 10
0.0
 20
0.0
 30
0.0
  3
block 78
  1

  0
SPLINE
  5
2F0
330
2EC
100
AcDbEntity
  8
PIEZA
 62
     7
420
 16777215
370
     9
100
AcDbSpline
210
0.0
220
0.0
230
1.0
 70
     8
 71
     3
 72
     8
 73
     4
 74
     0
 42
0.0000000001
 43
0.0000000001
 12
1.0
 22
0.0
 32
0.0
 13
1.0
 23
0.0
 33
0.0
 40
0.0
 40
0.0
 40
0.0
 40
0.0
 40
1.0
 40
1.0
 40
1.0
 40
1.0
 10
103.0065782879429
 20
89.36945435970348
 30
0.0
 10
103.3250403008069
 20
89.36945435970348
 30
0.0
 10
103.5832047708603
 20
89.62757951005801
 30
0.0
 10
103.5832047708603
 20
89.94599301961472
 30
0.0
  0
ENDBLK
  5
2EF
330
2EC
100
AcDbEntity
  8
0
100
AcDbBlockEnd
  0
BLOCK
  5
2F3
330
2F1
100
AcDbEntity
  8
0
100
AcDbBlockBegin
  2
block 79
 70
     0
 10
0.0
 20
0.0
 30
0.0
  3
block 79
  1

  0
POLYLINE
  5
2F5
330
2F1
100
AcDbEntity
  8
PIEZA
 62
     7
420
 16777215
370
     9
100
AcDb2dPolyline
 66
     1
 10
0.0
 20
0.0
 30
0.0
  0
VERTEX
  5
2F6
330
2F5
100
AcDbEntity
  8
PIEZA
 62
     7
420
 16777215
370
     9
100
AcDbVertex
100
AcDb2dVertex
 10
103.5832041190446
 20
89.94599254876226
 30
0.0
  0
VERTEX
  5
2F7
330
2F5
100
AcDbEntity
  8
PIEZA
 62
     7
420
 16777215
370
     9
100
AcDbVertex
100
AcDb2dVertex
 10
103.5832041190446
 20
132.2153433986708
 30
0.0
  0
SEQEND
  5
2F8
330
2F5
100
AcDbEntity
  8
PIEZA
 62
     7
420
 16777215
370
     9
  0
ENDBLK
  5
2F4
330
2F1
100
AcDbEntity
  8
0
100
AcDbBlockEnd
  0
BLOCK
  5
2FB
330
2F9
100
AcDbEntity
  8
0
100
AcDbBlockBegin
  2
block 80
 70
     0
 10
0.0
 20
0.0
 30
0.0
  3
block 80
  1

  0
POLYLINE
  5
2FD
330
2F9
100
AcDbEntity
  8
PIEZA
 62
     7
420
 16777215
370
     9
100
AcDb2dPolyline
 66
     1
 10
0.0
 20
0.0
 30
0.0
  0
VERTEX
  5
2FE
330
2FD
100
AcDbEntity
  8
PIEZA
 62
     7
420
 16777215
370
     9
100
AcDbVertex
100
AcDb2dVertex
 10
70.40870063655424
 20
94.02932019678904
 30
0.0
  0
VERTEX
  5
2FF
330
2FD
100
AcDbEntity
  8
PIEZA
 62
     7
420
 16777215
370
     9
100
AcDbVertex
100
AcDb2dVertex
 10
70.0758065538403
 20
94.22496807844213
 30
0.0
  0
VERTEX
  5
300
330
2FD
100
AcDbEntity
  8
PIEZA
 62
     7
420
 16777215
370
     9
100
AcDbVertex
100
AcDb2dVertex
 10
69.74525962953196
 20
94.44855133898055
 30
0.0
  0
VERTEX
  5
301
330
2FD
100
AcDbEntity
  8
PIEZA
 62
     7
420
 16777215
370
     9
100
AcDbVertex
100
AcDb2dVertex
 10
69.4193927013622
 20
94.6984920805315
 30
0.0
  0
VERTEX
  5
302
330
2FD
100
AcDbEntity
  8
PIEZA
 62
     7
420
 16777215
370
     9
100
AcDbVertex
100
AcDb2dVertex
 10
69.10050423744651
 20
94.9730319922142
 30
0.0
  0
VERTEX
  5
303
330
2FD
100
AcDbEntity
  8
PIEZA
 62
     7
420
 16777215
370
     9
100
AcDbVertex
100
AcDb2dVertex
 10
68.79084258354246
 20
95.27022948644375
 30
0.0
  0
VERTEX
  5
304
330
2FD
100
AcDbEntity
  8
PIEZA
 62
     7
420
 16777215
370
     9
100
AcDbVertex
100
AcDb2dVertex
 10
68.49259164237695
 20
95.58799406331492
 30
0.0
  0
VERTEX
  5
305
330
2FD
100
AcDbEntity
  8
PIEZA
 62
     7
420
 16777215
370
     9
100
AcDbVertex
100
AcDb2dVertex
 10
68.20785512090445
 20
95.92407771950256
 30
0.0
  0
VERTEX
  5
306
330
2FD
100
AcDbEntity
  8
PIEZA
 62
     7
420
 16777215
370
     9
100
AcDbVertex
100
AcDb2dVertex
 10
67.93864220963371
 20
96.27611504004489
 30
0.0
  0
VERTEX
  5
307
330
2FD
100
AcDbEntity
  8
PIEZA
 62
     7
420
 16777215
370
     9
100
AcDbVertex
100
AcDb2dVertex
 10
67.68685182988564
 20
96.64162319833963
 30
0.0
  0
VERTEX
  5
308
330
2FD
100
AcDbEntity
  8
PIEZA
 62
     7
420
 16777215
370
     9
100
AcDbVertex
100
AcDb2dVertex
 10
67.45425831312252
 20
97.01801913833903
 30
0.0
  0
VERTEX
  5
309
330
2FD
100
AcDbEntity
  8
PIEZA
 62
     7
420
 16777215
370
     9
100
AcDbVertex
100
AcDb2dVertex
 10
67.24250424060773
 20
97.40265393892855
 30
0.0
  0
VERTEX
  5
30A
330
2FD
100
AcDbEntity
  8
PIEZA
 62
     7
420
 16777215
370
     9
100
AcDbVertex
100
AcDb2dVertex
 10
67.05308182653263
 20
97.79280995022998
 30
0.0
  0
VERTEX
  5
30B
330
2FD
100
AcDbEntity
  8
PIEZA
 62
     7
420
 16777215
370
     9
100
AcDbVertex
100
AcDb2dVertex
 10
66.88732718974481
 20
98.18573802168143
 30
0.0
  0
SEQEND
  5
30C
330
2FD
100
AcDbEntity
  8
PIEZA
 62
     7
420
 16777215
370
     9
  0
ENDBLK
  5
2FC
330
2F9
100
AcDbEntity
  8
0
100
AcDbBlockEnd
  0
BLOCK
  5
30F
330
30D
100
AcDbEntity
  8
0
100
AcDbBlockBegin
  2
block 81
 70
     0
 10
0.0
 20
0.0
 30
0.0
  3
block 81
  1

  0
SPLINE
  5
311
330
30D
100
AcDbEntity
  8
PIEZA
 62
     7
420
 16777215
370
     9
100
AcDbSpline
210
0.0
220
0.0
230
1.0
 70
     8
 71
     3
 72
    23
 73
    19
 74
     0
 42
0.0000000001
 43
0.0000000001
 12
1.0
 22
0.0
 32
0.0
 13
1.0
 23
0.0
 33
0.0
 40
0.0
 40
0.0
 40
0.0
 40
0.0
 40
1.0
 40
1.0
 40
1.0
 40
2.0
 40
2.0
 40
2.0
 40
3.0
 40
3.0
 40
3.0
 40
4.0
 40
4.0
 40
4.0
 40
5.0
 40
5.0
 40
5.0
 40
6.0
 40
6.0
 40
6.0
 40
6.0
 10
63.14045829020957
 20
90.68550507555815
 30
0.0
 10
63.73856706557426
 20
90.96827643349461
 30
0.0
 10
64.39461957694819
 20
91.21954485594603
 30
0.0
 10
65.04945615185537
 20
91.4714743605217
 30
0.0
 10
65.37687443930895
 20
91.59743911280923
 30
0.0
 10
65.70398874264586
 20
91.72356913562764
 30
0.0
 10
66.02340410280779
 20
91.85388493117811
 30
0.0
 10
66.10325794284843
 20
91.88646388006525
 30
0.0
 10
66.1826305989402
 20
91.9193044397487
 30
0.0
 10
66.26140652484851
 20
91.95246943057452
 30
0.0
 10
66.34018245075748
 20
91.98563442140099
 30
0.0
 10
66.41854222810859
 20
92.01902566448392
 30
0.0
 10
66.49703682378441
 20
92.05234360934394
 30
0.0
 10
66.65402601513605
 20
92.11897949906266
 30
0.0
 10
66.81085782163875
 20
92.18570095600825
 30
0.0
 10
66.96713608477084
 20
92.25272336422633
 30
0.0
 10
68.21736218982433
 20
92.78890262997155
 30
0.0
 10
69.4321615191273
 20
93.3443427771801
 30
0.0
 10
70.40870090991258
 20
94.02932043764821
 30
0.0
  0
ENDBLK
  5
310
330
30D
100
AcDbEntity
  8
0
100
AcDbBlockEnd
  0
BLOCK
  5
314
330
312
100
AcDbEntity
  8
0
100
AcDbBlockBegin
  2
block 82
 70
     0
 10
0.0
 20
0.0
 30
0.0
  3
block 82
  1

  0
SPLINE
  5
316
330
312
100
AcDbEntity
  8
PIEZA
 62
     7
420
 16777215
370
     9
100
AcDbSpline
210
0.0
220
0.0
230
1.0
 70
     8
 71
     3
 72
    59
 73
    55
 74
     0
 42
0.0000000001
 43
0.0000000001
 12
1.0
 22
0.0
 32
0.0
 13
1.0
 23
0.0
 33
0.0
 40
0.0
 40
0.0
 40
0.0
 40
0.0
 40
1.0
 40
1.0
 40
1.0
 40
2.0
 40
2.0
 40
2.0
 40
3.0
 40
3.0
 40
3.0
 40
4.0
 40
4.0
 40
4.0
 40
5.0
 40
5.0
 40
5.0
 40
6.0
 40
6.0
 40
6.0
 40
7.0
 40
7.0
 40
7.0
 40
8.0
 40
8.0
 40
8.0
 40
9.0
 40
9.0
 40
9.0
 40
10.0
 40
10.0
 40
10.0
 40
11.0
 40
11.0
 40
11.0
 40
12.0
 40
12.0
 40
12.0
 40
13.0
 40
13.0
 40
13.0
 40
14.0
 40
14.0
 40
14.0
 40
15.0
 40
15.0
 40
15.0
 40
16.0
 40
16.0
 40
16.0
 40
17.0
 40
17.0
 40
17.0
 40
18.0
 40
18.0
 40
18.0
 40
18.0
 10
61.2793106592117
 20
92.01198158809672
 30
0.0
 10
61.27801608166202
 20
91.99801590695098
 30
0.0
 10
61.27684305453584
 20
91.98381811821635
 30
0.0
 10
61.27583198138292
 20
91.96974294114902
 30
0.0
 10
61.27482090823001
 20
91.9556677640817
 30
0.0
 10
61.27396082175314
 20
91.94159704779614
 30
0.0
 10
61.27325966433449
 20
91.927531025344
 30
0.0
 10
61.27185734949559
 20
91.89939898044096
 30
0.0
 10
61.27109019897416
 20
91.87128569261904
 30
0.0
 10
61.27102777327494
 20
91.84319322633056
 30
0.0
 10
61.27090292187555
 20
91.78700829375293
 30
0.0
 10
61.27358388962462
 20
91.73090622352201
 30
0.0
 10
61.27975491194377
 20
91.67490771170237
 30
0.0
 10
61.28284042310334
 20
91.64690845579223
 30
0.0
 10
61.2868013414667
 20
91.61893518387274
 30
0.0
 10
61.29174652106291
 20
91.59099123162193
 30
0.0
 10
61.29669170065976
 20
91.56304727937176
 30
0.0
 10
61.30262055449592
 20
91.53519479933296
 30
0.0
 10
61.30951753434291
 20
91.50783625642877
 30
0.0
 10
61.3233114940372
 20
91.45311917062106
 30
0.0
 10
61.34104073836374
 20
91.39994924365816
 30
0.0
 10
61.36314496693233
 20
91.34849990238722
 30
0.0
 10
61.3852491955006
 20
91.2970505611163
 30
0.0
 10
61.41173510480937
 20
91.24730070988998
 30
0.0
 10
61.4431444027139
 20
91.19953534341866
 30
0.0
 10
61.47455370061842
 20
91.15176997694797
 30
0.0
 10
61.50985743204183
 20
91.10755943193067
 30
0.0
 10
61.54884833159927
 20
91.06671437313108
 30
0.0
 10
61.56834378137799
 20
91.04629184373096
 30
0.0
 10
61.58876243134806
 20
91.0267119729789
 30
0.0
 10
61.61008596611593
 20
91.00795803344036
 30
0.0
 10
61.63140950088412
 20
90.98920409390182
 30
0.0
 10
61.65369923589416
 20
90.97123772165621
 30
0.0
 10
61.67659286695589
 20
90.95428288392492
 30
0.0
 10
61.72238012907936
 20
90.92037320846168
 30
0.0
 10
61.7710764872229
 20
90.89014996818253
 30
0.0
 10
61.82122067281944
 20
90.86369928398769
 30
0.0
 10
61.92150904401252
 20
90.81079791559797
 30
0.0
 10
62.02709029393434
 20
90.7726969184328
 30
0.0
 10
62.13620964469756
 20
90.74448428740571
 30
0.0
 10
62.19076932007949
 20
90.73037797189185
 30
0.0
 10
62.24644203164245
 20
90.7187692918104
 30
0.0
 10
62.30205109573208
 20
90.70939252500894
 30
0.0
 10
62.35766015982171
 20
90.70001575820747
 30
0.0
 10
62.413346540111
 20
90.69281610698326
 30
0.0
 10
62.46909515574622
 20
90.68734067417023
 30
0.0
 10
62.58059238701665
 20
90.6763898085442
 30
0.0
 10
62.69233629602484
 20
90.67227108076906
 30
0.0
 10
62.8042499620679
 20
90.6725940991571
 30
0.0
 10
62.86020679508863
 20
90.67275560835111
 30
0.0
 10
62.91620676239848
 20
90.67404728991623
 30
0.0
 10
62.97224340160268
 20
90.67626129152086
 30
0.0
 10
63.02828004080656
 20
90.6784752931255
 30
0.0
 10
63.08450926736079
 20
90.68162316907615
 30
0.0
 10
63.14045829020957
 20
90.68550507555815
 30
0.0
  0
ENDBLK
  5
315
330
312
100
AcDbEntity
  8
0
100
AcDbBlockEnd
  0
BLOCK
  5
319
330
317
100
AcDbEntity
  8
0
100
AcDbBlockBegin
  2
block 83
 70
     0
 10
0.0
 20
0.0
 30
0.0
  3
block 83
  1

  0
SPLINE
  5
31B
330
317
100
AcDbEntity
  8
PIEZA
 62
     7
420
 16777215
370
     9
100
AcDbSpline
210
0.0
220
0.0
230
1.0
 70
     8
 71
     3
 72
    35
 73
    31
 74
     0
 42
0.0000000001
 43
0.0000000001
 12
1.0
 22
0.0
 32
0.0
 13
1.0
 23
0.0
 33
0.0
 40
0.0
 40
0.0
 40
0.0
 40
0.0
 40
1.0
 40
1.0
 40
1.0
 40
2.0
 40
2.0
 40
2.0
 40
3.0
 40
3.0
 40
3.0
 40
4.0
 40
4.0
 40
4.0
 40
5.0
 40
5.0
 40
5.0
 40
6.0
 40
6.0
 40
6.0
 40
7.0
 40
7.0
 40
7.0
 40
8.0
 40
8.0
 40
8.0
 40
9.0
 40
9.0
 40
9.0
 40
10.0
 40
10.0
 40
10.0
 40
10.0
 10
66.88732718974481
 20
98.18573802168143
 30
0.0
 10
66.65569886083935
 20
98.0112285382195
 30
0.0
 10
66.42407053193453
 20
97.83671905475758
 30
0.0
 10
66.20012532105451
 20
97.64573612256815
 30
0.0
 10
65.97454646814998
 20
97.45336000254174
 30
0.0
 10
65.75676323618873
 20
97.24426921517697
 30
0.0
 10
65.54324031841436
 20
97.02804208309611
 30
0.0
 10
65.32766626352887
 20
96.80973783676714
 30
0.0
 10
65.11643476655662
 20
96.5841594813324
 30
0.0
 10
64.90886311850092
 20
96.3526731557958
 30
0.0
 10
64.69961215231675
 20
96.11931403507394
 30
0.0
 10
64.49408049319219
 20
95.87995096298526
 30
0.0
 10
64.28918179385276
 20
95.63964372949637
 30
0.0
 10
64.08338832015939
 20
95.39828709574086
 30
0.0
 10
63.87823334647949
 20
95.15597803644353
 30
0.0
 10
63.67656199336461
 20
94.90851859236264
 30
0.0
 10
63.51694597832045
 20
94.71266286104937
 30
0.0
 10
63.35951216728564
 20
94.51358083395712
 30
0.0
 10
63.20375349733853
 20
94.31219060741424
 30
0.0
 10
63.04720091211097
 20
94.10977387763863
 30
0.0
 10
62.8923405881662
 20
93.9050253582633
 30
0.0
 10
62.73646562099227
 20
93.70171881556432
 30
0.0
 10
62.58107201025432
 20
93.49904010243091
 30
0.0
 10
62.42467001323755
 20
93.29779447380781
 30
0.0
 10
62.26585534836671
 20
93.09975793566292
 30
0.0
 10
62.10868933861906
 20
92.90377721492816
 30
0.0
 10
61.94916049282908
 20
92.71093930335965
 30
0.0
 10
61.78308395970507
 20
92.52895982285939
 30
0.0
 10
61.61939999981258
 20
92.34960202060233
 30
0.0
 10
61.44935565149827
 20
92.18079204015146
 30
0.0
 10
61.27931130318395
 20
92.0119820597006
 30
0.0
  0
ENDBLK
  5
31A
330
317
100
AcDbEntity
  8
0
100
AcDbBlockEnd
  0
BLOCK
  5
31E
330
31C
100
AcDbEntity
  8
0
100
AcDbBlockBegin
  2
block 84
 70
     0
 10
0.0
 20
0.0
 30
0.0
  3
block 84
  1

  0
POLYLINE
  5
320
330
31C
100
AcDbEntity
  8
PIEZA
 62
     7
420
 16777215
370
     9
100
AcDb2dPolyline
 66
     1
 10
0.0
 20
0.0
 30
0.0
  0
VERTEX
  5
321
330
320
100
AcDbEntity
  8
PIEZA
 62
     7
420
 16777215
370
     9
100
AcDbVertex
100
AcDb2dVertex
 10
93.1598996783321
 20
119.2935528048481
 30
0.0
  0
VERTEX
  5
322
330
320
100
AcDbEntity
  8
PIEZA
 62
     7
420
 16777215
370
     9
100
AcDbVertex
100
AcDb2dVertex
 10
93.4898250854051
 20
119.0978991957981
 30
0.0
  0
VERTEX
  5
323
330
320
100
AcDbEntity
  8
PIEZA
 62
     7
420
 16777215
370
     9
100
AcDbVertex
100
AcDb2dVertex
 10
93.81752147962965
 20
118.8762632502408
 30
0.0
  0
VERTEX
  5
324
330
320
100
AcDbEntity
  8
PIEZA
 62
     7
420
 16777215
370
     9
100
AcDbVertex
100
AcDb2dVertex
 10
94.14077202072926
 20
118.630144114341
 30
0.0
  0
VERTEX
  5
325
330
320
100
AcDbEntity
  8
PIEZA
 62
     7
420
 16777215
370
     9
100
AcDbVertex
100
AcDb2dVertex
 10
94.45739208994421
 20
118.3612027332294
 30
0.0
  0
VERTEX
  5
326
330
320
100
AcDbEntity
  8
PIEZA
 62
     7
420
 16777215
370
     9
100
AcDbVertex
100
AcDb2dVertex
 10
94.7652407465681
 20
118.0712589873051
 30
0.0
  0
VERTEX
  5
327
330
320
100
AcDbEntity
  8
PIEZA
 62
     7
420
 16777215
370
     9
100
AcDbVertex
100
AcDb2dVertex
 10
95.06224006085955
 20
117.762273078192
 30
0.0
  0
VERTEX
  5
328
330
320
100
AcDbEntity
  8
PIEZA
 62
     7
420
 16777215
370
     9
100
AcDbVertex
100
AcDb2dVertex
 10
95.34637797817469
 20
117.4363326420982
 30
0.0
  0
VERTEX
  5
329
330
320
100
AcDbEntity
  8
PIEZA
 62
     7
420
 16777215
370
     9
100
AcDbVertex
100
AcDb2dVertex
 10
95.61573696031667
 20
117.0956412950205
 30
0.0
  0
VERTEX
  5
32A
330
320
100
AcDbEntity
  8
PIEZA
 62
     7
420
 16777215
370
     9
100
AcDbVertex
100
AcDb2dVertex
 10
95.86849541760067
 20
116.7425014505553
 30
0.0
  0
VERTEX
  5
32B
330
320
100
AcDbEntity
  8
PIEZA
 62
     7
420
 16777215
370
     9
100
AcDbVertex
100
AcDb2dVertex
 10
96.10294489366511
 20
116.3793000014037
 30
0.0
  0
VERTEX
  5
32C
330
320
100
AcDbEntity
  8
PIEZA
 62
     7
420
 16777215
370
     9
100
AcDbVertex
100
AcDb2dVertex
 10
96.3175000899395
 20
116.0084940008799
 30
0.0
  0
VERTEX
  5
32D
330
320
100
AcDbEntity
  8
PIEZA
 62
     7
420
 16777215
370
     9
100
AcDbVertex
100
AcDb2dVertex
 10
96.51071175425425
 20
115.6325891851735
 30
0.0
  0
VERTEX
  5
32E
330
320
100
AcDbEntity
  8
PIEZA
 62
     7
420
 16777215
370
     9
100
AcDbVertex
100
AcDb2dVertex
 10
96.68127240910775
 20
115.2541256548557
 30
0.0
  0
SEQEND
  5
32F
330
320
100
AcDbEntity
  8
PIEZA
 62
     7
420
 16777215
370
     9
  0
ENDBLK
  5
31F
330
31C
100
AcDbEntity
  8
0
100
AcDbBlockEnd
  0
BLOCK
  5
332
330
330
100
AcDbEntity
  8
0
100
AcDbBlockBegin
  2
block 85
 70
     0
 10
0.0
 20
0.0
 30
0.0
  3
block 85
  1

  0
SPLINE
  5
334
330
330
100
AcDbEntity
  8
PIEZA
 62
     7
420
 16777215
370
     9
100
AcDbSpline
210
0.0
220
0.0
230
1.0
 70
     8
 71
     3
 72
    23
 73
    19
 74
     0
 42
0.0000000001
 43
0.0000000001
 12
1.0
 22
0.0
 32
0.0
 13
1.0
 23
0.0
 33
0.0
 40
0.0
 40
0.0
 40
0.0
 40
0.0
 40
1.0
 40
1.0
 40
1.0
 40
2.0
 40
2.0
 40
2.0
 40
3.0
 40
3.0
 40
3.0
 40
4.0
 40
4.0
 40
4.0
 40
5.0
 40
5.0
 40
5.0
 40
6.0
 40
6.0
 40
6.0
 40
6.0
 10
100.5316613917689
 20
123.0101490553389
 30
0.0
 10
99.93187516356589
 20
122.6924188741465
 30
0.0
 10
99.26965523932789
 20
122.4091296932116
 30
0.0
 10
98.60599131386783
 20
122.1266370828727
 30
0.0
 10
98.27415935113747
 20
121.985390777704
 30
0.0
 10
97.94196638810193
 20
121.8443436151833
 30
0.0
 10
97.61703613661189
 20
121.6992900416044
 30
0.0
 10
97.53580357373882
 20
121.66302664821
 30
0.0
 10
97.45502493033793
 20
121.6265128541235
 30
0.0
 10
97.37481932690741
 20
121.5896829475698
 30
0.0
 10
97.29461372347595
 20
121.5528530410155
 30
0.0
 10
97.21513465542068
 20
121.5156223475995
 30
0.0
 10
97.13552120687038
 20
121.4784657840054
 30
0.0
 10
96.97629430977008
 20
121.4041526568159
 30
0.0
 10
96.8171734670205
 20
121.3297810256741
 30
0.0
 10
96.65856709176002
 20
121.2551255930594
 30
0.0
 10
95.38971608967225
 20
120.6578821321427
 30
0.0
 10
94.15379100679961
 20
120.0424753769769
 30
0.0
 10
93.15989936821757
 20
119.2935529972936
 30
0.0
  0
ENDBLK
  5
333
330
330
100
AcDbEntity
  8
0
100
AcDbBlockEnd
  0
BLOCK
  5
337
330
335
100
AcDbEntity
  8
0
100
AcDbBlockBegin
  2
block 86
 70
     0
 10
0.0
 20
0.0
 30
0.0
  3
block 86
  1

  0
SPLINE
  5
339
330
335
100
AcDbEntity
  8
PIEZA
 62
     7
420
 16777215
370
     9
100
AcDbSpline
210
0.0
220
0.0
230
1.0
 70
     8
 71
     3
 72
    59
 73
    55
 74
     0
 42
0.0000000001
 43
0.0000000001
 12
1.0
 22
0.0
 32
0.0
 13
1.0
 23
0.0
 33
0.0
 40
0.0
 40
0.0
 40
0.0
 40
0.0
 40
1.0
 40
1.0
 40
1.0
 40
2.0
 40
2.0
 40
2.0
 40
3.0
 40
3.0
 40
3.0
 40
4.0
 40
4.0
 40
4.0
 40
5.0
 40
5.0
 40
5.0
 40
6.0
 40
6.0
 40
6.0
 40
7.0
 40
7.0
 40
7.0
 40
8.0
 40
8.0
 40
8.0
 40
9.0
 40
9.0
 40
9.0
 40
10.0
 40
10.0
 40
10.0
 40
11.0
 40
11.0
 40
11.0
 40
12.0
 40
12.0
 40
12.0
 40
13.0
 40
13.0
 40
13.0
 40
14.0
 40
14.0
 40
14.0
 40
15.0
 40
15.0
 40
15.0
 40
16.0
 40
16.0
 40
16.0
 40
17.0
 40
17.0
 40
17.0
 40
18.0
 40
18.0
 40
18.0
 40
18.0
 10
102.2760007865877
 20
121.685692395806
 30
0.0
 10
102.2772579459095
 20
121.6991328693584
 30
0.0
 10
102.2784110236797
 20
121.7127913786313
 30
0.0
 10
102.2794225005983
 20
121.7263355883808
 30
0.0
 10
102.2804339775166
 20
121.7398797981304
 30
0.0
 10
102.2813142218201
 20
121.7534204145225
 30
0.0
 10
102.2820564422729
 20
121.7669572563415
 30
0.0
 10
102.2835408831798
 20
121.7940309399793
 30
0.0
 10
102.2844736954667
 20
121.8210895394545
 30
0.0
 10
102.2847954300601
 20
121.8481314496796
 30
0.0
 10
102.2854388992469
 20
121.9022152701295
 30
0.0
 10
102.2836488542133
 20
121.9562326553779
 30
0.0
 10
102.2788429957395
 20
122.0101675603247
 30
0.0
 10
102.2764400665029
 20
122.0371350127984
 30
0.0
 10
102.2732807735568
 20
122.064081772964
 30
0.0
 10
102.2692733158661
 20
122.0910052728364
 30
0.0
 10
102.2652658581753
 20
122.1179287727087
 30
0.0
 10
102.2603859659493
 20
122.144931367342
 30
0.0
 10
102.254620216133
 20
122.1715979198657
 30
0.0
 10
102.2430887165004
 20
122.2249310249124
 30
0.0
 10
102.2280526178653
 20
122.2769259666783
 30
0.0
 10
102.2090802642665
 20
122.3274174882314
 30
0.0
 10
102.190107910667
 20
122.3779090097844
 30
0.0
 10
102.1672042953583
 20
122.4268990126188
 30
0.0
 10
102.1398134502184
 20
122.4741746786021
 30
0.0
 10
102.1261180276484
 20
122.4978125115934
 30
0.0
 10
102.1112331546414
 20
122.5210926353075
 30
0.0
 10
102.0954977641126
 20
122.5434372802503
 30
0.0
 10
102.0797623735838
 20
122.5657819251923
 30
0.0
 10
102.0631190388133
 20
122.5873070667637
 30
0.0
 10
102.0455854582421
 20
122.6080286890887
 30
0.0
 10
102.0105182970993
 20
122.6494719337388
 30
0.0
 10
101.9718939035998
 20
122.6877044895968
 30
0.0
 10
101.929805309966
 20
122.7228103669263
 30
0.0
 10
101.8877167163319
 20
122.7579162442564
 30
0.0
 10
101.8424860937294
 20
122.7895599385183
 30
0.0
 10
101.7952719446234
 20
122.817546919877
 30
0.0
 10
101.7008436464109
 20
122.8735208825944
 30
0.0
 10
101.6007109435087
 20
122.9141255146006
 30
0.0
 10
101.496740214332
 20
122.9443911947296
 30
0.0
 10
101.4447548497439
 20
122.9595240347941
 30
0.0
 10
101.3915670926431
 20
122.9720576188888
 30
0.0
 10
101.3381079631529
 20
122.9822637967119
 30
0.0
 10
101.2846488336626
 20
122.992469974535
 30
0.0
 10
101.2311064505779
 20
123.0003418225909
 30
0.0
 10
101.1774975366191
 20
123.0063681716009
 30
0.0
 10
101.070279708701
 20
123.0184208696209
 30
0.0
 10
100.962798253663
 20
123.0231609925548
 30
0.0
 10
100.8551373182753
 20
123.02312630988
 30
0.0
 10
100.8013068505816
 20
123.0231089685423
 30
0.0
 10
100.7474307355228
 20
123.0218763747422
 30
0.0
 10
100.6935159979633
 20
123.0196478725604
 30
0.0
 10
100.6396012604045
 20
123.0174193703792
 30
0.0
 10
100.5854903189742
 20
123.0141823380904
 30
0.0
 10
100.5316613917689
 20
123.0101490553389
 30
0.0
  0
ENDBLK
  5
338
330
335
100
AcDbEntity
  8
0
100
AcDbBlockEnd
  0
BLOCK
  5
33C
330
33A
100
AcDbEntity
  8
0
100
AcDbBlockBegin
  2
block 87
 70
     0
 10
0.0
 20
0.0
 30
0.0
  3
block 87
  1

  0
SPLINE
  5
33E
330
33A
100
AcDbEntity
  8
PIEZA
 62
     7
420
 16777215
370
     9
100
AcDbSpline
210
0.0
220
0.0
230
1.0
 70
     8
 71
     3
 72
    23
 73
    19
 74
     0
 42
0.0000000001
 43
0.0000000001
 12
1.0
 22
0.0
 32
0.0
 13
1.0
 23
0.0
 33
0.0
 40
0.0
 40
0.0
 40
0.0
 40
0.0
 40
1.0
 40
1.0
 40
1.0
 40
2.0
 40
2.0
 40
2.0
 40
3.0
 40
3.0
 40
3.0
 40
4.0
 40
4.0
 40
4.0
 40
5.0
 40
5.0
 40
5.0
 40
6.0
 40
6.0
 40
6.0
 40
6.0
 10
102.2760007865877
 20
121.685692395806
 30
0.0
 10
101.7872599207999
 20
121.203431973572
 30
0.0
 10
101.3394428720124
 20
120.6235524286088
 30
0.0
 10
100.8979565978723
 20
120.0285715389343
 30
0.0
 10
100.6772134608018
 20
119.7310810940974
 30
0.0
 10
100.4580530173939
 20
119.4298153130825
 30
0.0
 10
100.2361511373555
 20
119.1350889181415
 30
0.0
 10
100.125200197336
 20
118.9877257206717
 30
0.0
 10
100.0135638981596
 20
118.8419973697199
 30
0.0
 10
99.9007017235358
 20
118.6991932055686
 30
0.0
 10
99.84427063622407
 20
118.6277911234933
 30
0.0
 10
99.7874536618872
 20
118.5573095311438
 30
0.0
 10
99.730710114329
 20
118.4866527875395
 30
0.0
 10
99.67396656677113
 20
118.4159960439358
 30
0.0
 10
99.61720773161437
 20
118.3453757671626
 30
0.0
 10
99.56040465263011
 20
118.2748610290216
 30
0.0
 10
98.65155538888247
 20
117.1466252187603
 30
0.0
 10
97.73137970523132
 20
116.0454072982271
 30
0.0
 10
96.68127288503956
 20
115.2541253634897
 30
0.0
  0
ENDBLK
  5
33D
330
33A
100
AcDbEntity
  8
0
100
AcDbBlockEnd
  0
BLOCK
  5
341
330
33F
100
AcDbEntity
  8
0
100
AcDbBlockBegin
  2
block 88
 70
     0
 10
0.0
 20
0.0
 30
0.0
  3
block 88
  1

  0
POLYLINE
  5
343
330
33F
100
AcDbEntity
  8
PIEZA
 62
     7
420
 16777215
370
     9
100
AcDb2dPolyline
 66
     1
 10
0.0
 20
0.0
 30
0.0
  0
VERTEX
  5
344
330
343
100
AcDbEntity
  8
PIEZA
 62
     7
420
 16777215
370
     9
100
AcDbVertex
100
AcDb2dVertex
 10
70.39541176747049
 20
119.2935528048481
 30
0.0
  0
VERTEX
  5
345
330
343
100
AcDbEntity
  8
PIEZA
 62
     7
420
 16777215
370
     9
100
AcDbVertex
100
AcDb2dVertex
 10
70.0654863603975
 20
119.0978991957981
 30
0.0
  0
VERTEX
  5
346
330
343
100
AcDbEntity
  8
PIEZA
 62
     7
420
 16777215
370
     9
100
AcDbVertex
100
AcDb2dVertex
 10
69.7377899661736
 20
118.8762632502408
 30
0.0
  0
VERTEX
  5
347
330
343
100
AcDbEntity
  8
PIEZA
 62
     7
420
 16777215
370
     9
100
AcDbVertex
100
AcDb2dVertex
 10
69.41453942507333
 20
118.630144114341
 30
0.0
  0
VERTEX
  5
348
330
343
100
AcDbEntity
  8
PIEZA
 62
     7
420
 16777215
370
     9
100
AcDbVertex
100
AcDb2dVertex
 10
69.09791935585838
 20
118.3612027332294
 30
0.0
  0
VERTEX
  5
349
330
343
100
AcDbEntity
  8
PIEZA
 62
     7
420
 16777215
370
     9
100
AcDbVertex
100
AcDb2dVertex
 10
68.79007069923449
 20
118.0712589873051
 30
0.0
  0
VERTEX
  5
34A
330
343
100
AcDbEntity
  8
PIEZA
 62
     7
420
 16777215
370
     9
100
AcDbVertex
100
AcDb2dVertex
 10
68.49307138494305
 20
117.762273078192
 30
0.0
  0
VERTEX
  5
34B
330
343
100
AcDbEntity
  8
PIEZA
 62
     7
420
 16777215
370
     9
100
AcDbVertex
100
AcDb2dVertex
 10
68.20893346762823
 20
117.4363326420982
 30
0.0
  0
VERTEX
  5
34C
330
343
100
AcDbEntity
  8
PIEZA
 62
     7
420
 16777215
370
     9
100
AcDbVertex
100
AcDb2dVertex
 10
67.93957448548592
 20
117.0956412950205
 30
0.0
  0
VERTEX
  5
34D
330
343
100
AcDbEntity
  8
PIEZA
 62
     7
420
 16777215
370
     9
100
AcDbVertex
100
AcDb2dVertex
 10
67.6868160282016
 20
116.7425014505553
 30
0.0
  0
VERTEX
  5
34E
330
343
100
AcDbEntity
  8
PIEZA
 62
     7
420
 16777215
370
     9
100
AcDbVertex
100
AcDb2dVertex
 10
67.45236655213748
 20
116.3793000014037
 30
0.0
  0
VERTEX
  5
34F
330
343
100
AcDbEntity
  8
PIEZA
 62
     7
420
 16777215
370
     9
100
AcDbVertex
100
AcDb2dVertex
 10
67.23781135586309
 20
116.0084940008799
 30
0.0
  0
VERTEX
  5
350
330
343
100
AcDbEntity
  8
PIEZA
 62
     7
420
 16777215
370
     9
100
AcDbVertex
100
AcDb2dVertex
 10
67.04459969154834
 20
115.6325891851735
 30
0.0
  0
VERTEX
  5
351
330
343
100
AcDbEntity
  8
PIEZA
 62
     7
420
 16777215
370
     9
100
AcDbVertex
100
AcDb2dVertex
 10
66.87403903669485
 20
115.2541256548557
 30
0.0
  0
SEQEND
  5
352
330
343
100
AcDbEntity
  8
PIEZA
 62
     7
420
 16777215
370
     9
  0
ENDBLK
  5
342
330
33F
100
AcDbEntity
  8
0
100
AcDbBlockEnd
  0
BLOCK
  5
355
330
353
100
AcDbEntity
  8
0
100
AcDbBlockBegin
  2
block 89
 70
     0
 10
0.0
 20
0.0
 30
0.0
  3
block 89
  1

  0
SPLINE
  5
357
330
353
100
AcDbEntity
  8
PIEZA
 62
     7
420
 16777215
370
     9
100
AcDbSpline
210
0.0
220
0.0
230
1.0
 70
     8
 71
     3
 72
    23
 73
    19
 74
     0
 42
0.0000000001
 43
0.0000000001
 12
1.0
 22
0.0
 32
0.0
 13
1.0
 23
0.0
 33
0.0
 40
0.0
 40
0.0
 40
0.0
 40
0.0
 40
1.0
 40
1.0
 40
1.0
 40
2.0
 40
2.0
 40
2.0
 40
3.0
 40
3.0
 40
3.0
 40
4.0
 40
4.0
 40
4.0
 40
5.0
 40
5.0
 40
5.0
 40
6.0
 40
6.0
 40
6.0
 40
6.0
 10
61.2793106592117
 20
121.685692395806
 30
0.0
 10
61.76805152499916
 20
121.203431973572
 30
0.0
 10
62.21586857378921
 20
120.6235524286088
 30
0.0
 10
62.65735484792834
 20
120.0285715389343
 30
0.0
 10
62.87809798499854
 20
119.7310810940974
 30
0.0
 10
63.09725842840553
 20
119.4298153130825
 30
0.0
 10
63.31916030844548
 20
119.1350889181415
 30
0.0
 10
63.43011124846528
 20
118.9877257206717
 30
0.0
 10
63.54174754764365
 20
118.8419973697199
 30
0.0
 10
63.65460972226455
 20
118.6991932055686
 30
0.0
 10
63.71104080957532
 20
118.6277911234933
 30
0.0
 10
63.76785778391572
 20
118.5573095311438
 30
0.0
 10
63.82460133147359
 20
118.4866527875395
 30
0.0
 10
63.88134487903179
 20
118.4159960439358
 30
0.0
 10
63.9381037141879
 20
118.3453757671626
 30
0.0
 10
63.99490679317217
 20
118.274861029021
 30
0.0
 10
64.90375605691692
 20
117.1466252187603
 30
0.0
 10
65.82393174057127
 20
116.0454072982271
 30
0.0
 10
66.8740385607595
 20
115.2541253634897
 30
0.0
  0
ENDBLK
  5
356
330
353
100
AcDbEntity
  8
0
100
AcDbBlockEnd
  0
BLOCK
  5
35A
330
358
100
AcDbEntity
  8
0
100
AcDbBlockBegin
  2
block 90
 70
     0
 10
0.0
 20
0.0
 30
0.0
  3
block 90
  1

  0
SPLINE
  5
35C
330
358
100
AcDbEntity
  8
PIEZA
 62
     7
420
 16777215
370
     9
100
AcDbSpline
210
0.0
220
0.0
230
1.0
 70
     8
 71
     3
 72
    62
 73
    58
 74
     0
 42
0.0000000001
 43
0.0000000001
 12
1.0
 22
0.0
 32
0.0
 13
1.0
 23
0.0
 33
0.0
 40
0.0
 40
0.0
 40
0.0
 40
0.0
 40
1.0
 40
1.0
 40
1.0
 40
2.0
 40
2.0
 40
2.0
 40
3.0
 40
3.0
 40
3.0
 40
4.0
 40
4.0
 40
4.0
 40
5.0
 40
5.0
 40
5.0
 40
6.0
 40
6.0
 40
6.0
 40
7.0
 40
7.0
 40
7.0
 40
8.0
 40
8.0
 40
8.0
 40
9.0
 40
9.0
 40
9.0
 40
10.0
 40
10.0
 40
10.0
 40
11.0
 40
11.0
 40
11.0
 40
12.0
 40
12.0
 40
12.0
 40
13.0
 40
13.0
 40
13.0
 40
14.0
 40
14.0
 40
14.0
 40
15.0
 40
15.0
 40
15.0
 40
16.0
 40
16.0
 40
16.0
 40
17.0
 40
17.0
 40
17.0
 40
18.0
 40
18.0
 40
18.0
 40
19.0
 40
19.0
 40
19.0
 40
19.0
 10
63.02365005403014
 20
123.0101490553389
 30
0.0
 10
62.99674834000512
 20
123.0121647414186
 30
0.0
 10
62.96960421519346
 20
123.0139932063318
 30
0.0
 10
62.94258768836507
 20
123.0155854892182
 30
0.0
 10
62.91557116153636
 20
123.0171777721046
 30
0.0
 10
62.88855898147813
 20
123.0185431357974
 30
0.0
 10
62.86155141122504
 20
123.019657952709
 30
0.0
 10
62.80753627071758
 20
123.0218875865315
 30
0.0
 10
62.75353952105241
 20
123.0231183124529
 30
0.0
 10
62.69956376583032
 20
123.0231264542341
 30
0.0
 10
62.59161225538551
 20
123.0231427377964
 30
0.0
 10
62.48374329103083
 20
123.0183604708981
 30
0.0
 10
62.37599031421935
 20
123.0061624551735
 30
0.0
 10
62.3221138258136
 20
123.0000634473109
 30
0.0
 10
62.26808365364347
 20
122.9920449847916
 30
0.0
 10
62.21486122875627
 20
122.9818151091763
 30
0.0
 10
62.16163880386939
 20
122.971585233561
 30
0.0
 10
62.10910770411522
 20
122.9591453909629
 30
0.0
 10
62.05740637139828
 20
122.9440516150121
 30
0.0
 10
62.00570503868134
 20
122.9289578390607
 30
0.0
 10
61.95483189067576
 20
122.9112151951871
 30
0.0
 10
61.90497164387672
 20
122.8902322404258
 30
0.0
 10
61.88004152047719
 20
122.8797407630455
 30
0.0
 10
61.85536546904961
 20
122.868436508023
 30
0.0
 10
61.83097344021867
 20
122.8562236378146
 30
0.0
 10
61.80658141138774
 20
122.8440107676068
 30
0.0
 10
61.78238163759817
 20
122.8308275347128
 30
0.0
 10
61.75891393293938
 20
122.8168788133018
 30
0.0
 10
61.66504311430419
 20
122.7610839276564
 30
0.0
 10
61.58155418597342
 20
122.6926709742309
 30
0.0
 10
61.510584348406
 20
122.6090416409122
 30
0.0
 10
61.49284188901414
 20
122.5881343075829
 30
0.0
 10
61.4759231266265
 20
122.5662774495221
 30
0.0
 10
61.46020863404081
 20
122.5439976798273
 30
0.0
 10
61.4444941414548
 20
122.5217179101319
 30
0.0
 10
61.4298692131444
 20
122.4988866137335
 30
0.0
 10
61.41628416060401
 20
122.4755289737739
 30
0.0
 10
61.3891140555226
 20
122.4288136938541
 30
0.0
 10
61.36609862161126
 20
122.3799954848205
 30
0.0
 10
61.34691686553364
 20
122.3292371106967
 30
0.0
 10
61.32773510945636
 20
122.2784787365735
 30
0.0
 10
61.31234651265997
 20
122.2253732287408
 30
0.0
 10
61.30081915583927
 20
122.1721888577787
 30
0.0
 10
61.2892917990189
 20
122.119004486816
 30
0.0
 10
61.28144622504629
 20
122.0654375112964
 30
0.0
 10
61.27659319606342
 20
122.0115599729385
 30
0.0
 10
61.27174016708056
 20
121.9576824345807
 30
0.0
 10
61.26988541658301
 20
121.9034937344835
 30
0.0
 10
61.27050534153619
 20
121.8490483236906
 30
0.0
 10
61.27081530401213
 20
121.8218256182944
 30
0.0
 10
61.27174826491817
 20
121.7945195917682
 30
0.0
 10
61.27323709817826
 20
121.7672843087865
 30
0.0
 10
61.27398151480848
 20
121.7536666672957
 30
0.0
 10
61.27486490644047
 20
121.740058876996
 30
0.0
 10
61.27587962870449
 20
121.7264603908478
 30
0.0
 10
61.27689435096851
 20
121.7128619046996
 30
0.0
 10
61.27805409541131
 20
121.6991265025078
 30
0.0
 10
61.2793106592117
 20
121.685692395806
 30
0.0
  0
ENDBLK
  5
35B
330
358
100
AcDbEntity
  8
0
100
AcDbBlockEnd
  0
BLOCK
  5
35F
330
35D
100
AcDbEntity
  8
0
100
AcDbBlockBegin
  2
block 91
 70
     0
 10
0.0
 20
0.0
 30
0.0
  3
block 91
  1

  0
SPLINE
  5
361
330
35D
100
AcDbEntity
  8
PIEZA
 62
     7
420
 16777215
370
     9
100
AcDbSpline
210
0.0
220
0.0
230
1.0
 70
     8
 71
     3
 72
    23
 73
    19
 74
     0
 42
0.0000000001
 43
0.0000000001
 12
1.0
 22
0.0
 32
0.0
 13
1.0
 23
0.0
 33
0.0
 40
0.0
 40
0.0
 40
0.0
 40
0.0
 40
1.0
 40
1.0
 40
1.0
 40
2.0
 40
2.0
 40
2.0
 40
3.0
 40
3.0
 40
3.0
 40
4.0
 40
4.0
 40
4.0
 40
5.0
 40
5.0
 40
5.0
 40
6.0
 40
6.0
 40
6.0
 40
6.0
 10
63.02365005403014
 20
123.0101490553389
 30
0.0
 10
63.62343628223317
 20
122.6924188741465
 30
0.0
 10
64.28565620647375
 20
122.4091296932116
 30
0.0
 10
64.94932013193444
 20
122.1266370828727
 30
0.0
 10
65.28115209466512
 20
121.985390777704
 30
0.0
 10
65.61334505770066
 20
121.8443436151833
 30
0.0
 10
65.93827530919103
 20
121.6992900416044
 30
0.0
 10
66.0195078720641
 20
121.66302664821
 30
0.0
 10
66.10028651546467
 20
121.6265128541235
 30
0.0
 10
66.18049211889583
 20
121.5896829475698
 30
0.0
 10
66.26069772232665
 20
121.5528530410155
 30
0.0
 10
66.34017679037838
 20
121.5156223475995
 30
0.0
 10
66.41979023892996
 20
121.4784657840054
 30
0.0
 10
66.57901713603316
 20
121.4041526568159
 30
0.0
 10
66.73813797878178
 20
121.3297810256741
 30
0.0
 10
66.89674435404258
 20
121.2551255930594
 30
0.0
 10
68.16559535613067
 20
120.6578821321427
 30
0.0
 10
69.40152043900298
 20
120.0424753769769
 30
0.0
 10
70.39541207758535
 20
119.2935529972936
 30
0.0
  0
ENDBLK
  5
360
330
35D
100
AcDbEntity
  8
0
100
AcDbBlockEnd
  0
BLOCK
  5
364
330
362
100
AcDbEntity
  8
0
100
AcDbBlockBegin
  2
block 92
 70
     0
 10
0.0
 20
0.0
 30
0.0
  3
block 92
  1

  0
POLYLINE
  5
366
330
362
100
AcDbEntity
  8
PIEZA
 62
     7
420
 16777215
370
     9
100
AcDb2dPolyline
 66
     1
 10
0.0
 20
0.0
 30
0.0
  0
VERTEX
  5
367
330
366
100
AcDbEntity
  8
PIEZA
 62
     7
420
 16777215
370
     9
100
AcDbVertex
100
AcDb2dVertex
 10
93.14661080924867
 20
94.02932019678904
 30
0.0
  0
VERTEX
  5
368
330
366
100
AcDbEntity
  8
PIEZA
 62
     7
420
 16777215
370
     9
100
AcDbVertex
100
AcDb2dVertex
 10
93.47950489196262
 20
94.22496807844213
 30
0.0
  0
VERTEX
  5
369
330
366
100
AcDbEntity
  8
PIEZA
 62
     7
420
 16777215
370
     9
100
AcDbVertex
100
AcDb2dVertex
 10
93.81005181627063
 20
94.44855133898055
 30
0.0
  0
VERTEX
  5
36A
330
366
100
AcDbEntity
  8
PIEZA
 62
     7
420
 16777215
370
     9
100
AcDbVertex
100
AcDb2dVertex
 10
94.1359187444404
 20
94.6984920805315
 30
0.0
  0
VERTEX
  5
36B
330
366
100
AcDbEntity
  8
PIEZA
 62
     7
420
 16777215
370
     9
100
AcDbVertex
100
AcDb2dVertex
 10
94.45480720835607
 20
94.9730319922142
 30
0.0
  0
VERTEX
  5
36C
330
366
100
AcDbEntity
  8
PIEZA
 62
     7
420
 16777215
370
     9
100
AcDbVertex
100
AcDb2dVertex
 10
94.76446886226046
 20
95.27022948644375
 30
0.0
  0
VERTEX
  5
36D
330
366
100
AcDbEntity
  8
PIEZA
 62
     7
420
 16777215
370
     9
100
AcDbVertex
100
AcDb2dVertex
 10
95.06271980342565
 20
95.58799406331492
 30
0.0
  0
VERTEX
  5
36E
330
366
100
AcDbEntity
  8
PIEZA
 62
     7
420
 16777215
370
     9
100
AcDbVertex
100
AcDb2dVertex
 10
95.34745632489815
 20
95.92407771950256
 30
0.0
  0
VERTEX
  5
36F
330
366
100
AcDbEntity
  8
PIEZA
 62
     7
420
 16777215
370
     9
100
AcDbVertex
100
AcDb2dVertex
 10
95.6166692361692
 20
96.27611504004489
 30
0.0
  0
VERTEX
  5
370
330
366
100
AcDbEntity
  8
PIEZA
 62
     7
420
 16777215
370
     9
100
AcDbVertex
100
AcDb2dVertex
 10
95.86845961591695
 20
96.64162319833963
 30
0.0
  0
VERTEX
  5
371
330
366
100
AcDbEntity
  8
PIEZA
 62
     7
420
 16777215
370
     9
100
AcDbVertex
100
AcDb2dVertex
 10
96.10105313268039
 20
97.01801913833903
 30
0.0
  0
VERTEX
  5
372
330
366
100
AcDbEntity
  8
PIEZA
 62
     7
420
 16777215
370
     9
100
AcDbVertex
100
AcDb2dVertex
 10
96.31280720519518
 20
97.40265393892855
 30
0.0
  0
VERTEX
  5
373
330
366
100
AcDbEntity
  8
PIEZA
 62
     7
420
 16777215
370
     9
100
AcDbVertex
100
AcDb2dVertex
 10
96.50222961927061
 20
97.79280995022998
 30
0.0
  0
VERTEX
  5
374
330
366
100
AcDbEntity
  8
PIEZA
 62
     7
420
 16777215
370
     9
100
AcDbVertex
100
AcDb2dVertex
 10
96.6679842560581
 20
98.18573802168143
 30
0.0
  0
SEQEND
  5
375
330
366
100
AcDbEntity
  8
PIEZA
 62
     7
420
 16777215
370
     9
  0
ENDBLK
  5
365
330
362
100
AcDbEntity
  8
0
100
AcDbBlockEnd
  0
BLOCK
  5
378
330
376
100
AcDbEntity
  8
0
100
AcDbBlockBegin
  2
block 93
 70
     0
 10
0.0
 20
0.0
 30
0.0
  3
block 93
  1

  0
SPLINE
  5
37A
330
376
100
AcDbEntity
  8
PIEZA
 62
     7
420
 16777215
370
     9
100
AcDbSpline
210
0.0
220
0.0
230
1.0
 70
     8
 71
     3
 72
    38
 73
    34
 74
     0
 42
0.0000000001
 43
0.0000000001
 12
1.0
 22
0.0
 32
0.0
 13
1.0
 23
0.0
 33
0.0
 40
0.0
 40
0.0
 40
0.0
 40
0.0
 40
1.0
 40
1.0
 40
1.0
 40
2.0
 40
2.0
 40
2.0
 40
3.0
 40
3.0
 40
3.0
 40
4.0
 40
4.0
 40
4.0
 40
5.0
 40
5.0
 40
5.0
 40
6.0
 40
6.0
 40
6.0
 40
7.0
 40
7.0
 40
7.0
 40
8.0
 40
8.0
 40
8.0
 40
9.0
 40
9.0
 40
9.0
 40
10.0
 40
10.0
 40
10.0
 40
11.0
 40
11.0
 40
11.0
 40
11.0
 10
102.2760001426186
 20
91.68006508483295
 30
0.0
 10
102.1214480218196
 20
91.84350339368464
 30
0.0
 10
101.9668959010209
 20
92.0069417025357
 30
0.0
 10
101.820340653249
 20
92.18253535138071
 30
0.0
 10
101.6703888449933
 20
92.36219855391235
 30
0.0
 10
101.5288088757194
 20
92.5545870490502
 30
0.0
 10
101.3901862835926
 20
92.7503580814414
 30
0.0
 10
101.2492941076435
 20
92.94933435448749
 30
0.0
 10
101.1114569402757
 20
93.15180483196589
 30
0.0
 10
100.9745845824673
 20
93.35547762079105
 30
0.0
 10
100.8371170035574
 20
93.56003612783941
 30
0.0
 10
100.7006226438478
 20
93.7658074260301
 30
0.0
 10
100.5625845307583
 20
93.96982686041197
 30
0.0
 10
100.4257452989889
 20
94.1720743559908
 30
0.0
 10
100.287389012842
 20
94.3726002860045
 30
0.0
 10
100.1432336772794
 20
94.56534155498585
 30
0.0
 10
100.0017468348875
 20
94.754514945207
 30
0.0
 10
99.85467365106739
 20
94.93618921422566
 30
0.0
 10
99.7062798517891
 20
95.11574154336007
 30
0.0
 10
99.55898802044577
 20
95.29396052224587
 30
0.0
 10
99.41039511452034
 20
95.47008895915789
 30
0.0
 10
99.26123484570672
 20
95.64541408197795
 30
0.0
 10
99.0569708704696
 20
95.88550889295534
 30
0.0
 10
98.85164290370635
 20
96.12409722650139
 30
0.0
 10
98.64271349562073
 20
96.35683410971892
 30
0.0
 10
98.4354605139877
 20
96.58770353793852
 30
0.0
 10
98.2246636542949
 20
96.81281504187703
 30
0.0
 10
98.0095062947404
 20
97.03062800284388
 30
0.0
 10
97.79639276547091
 20
97.2463719073441
 30
0.0
 10
97.57900118569148
 20
97.45495527143281
 30
0.0
 10
97.35385143796454
 20
97.64689305676283
 30
0.0
 10
97.13032676344821
 20
97.83744548431955
 30
0.0
 10
96.89915550975412
 20
98.01159175300049
 30
0.0
 10
96.6679842560581
 20
98.18573802168143
 30
0.0
  0
ENDBLK
  5
379
330
376
100
AcDbEntity
  8
0
100
AcDbBlockEnd
  0
BLOCK
  5
37D
330
37B
100
AcDbEntity
  8
0
100
AcDbBlockBegin
  2
block 94
 70
     0
 10
0.0
 20
0.0
 30
0.0
  3
block 94
  1

  0
SPLINE
  5
37F
330
37B
100
AcDbEntity
  8
PIEZA
 62
     7
420
 16777215
370
     9
100
AcDbSpline
210
0.0
220
0.0
230
1.0
 70
     8
 71
     3
 72
    53
 73
    49
 74
     0
 42
0.0000000001
 43
0.0000000001
 12
1.0
 22
0.0
 32
0.0
 13
1.0
 23
0.0
 33
0.0
 40
0.0
 40
0.0
 40
0.0
 40
0.0
 40
1.0
 40
1.0
 40
1.0
 40
2.0
 40
2.0
 40
2.0
 40
3.0
 40
3.0
 40
3.0
 40
4.0
 40
4.0
 40
4.0
 40
5.0
 40
5.0
 40
5.0
 40
6.0
 40
6.0
 40
6.0
 40
7.0
 40
7.0
 40
7.0
 40
8.0
 40
8.0
 40
8.0
 40
9.0
 40
9.0
 40
9.0
 40
10.0
 40
10.0
 40
10.0
 40
11.0
 40
11.0
 40
11.0
 40
12.0
 40
12.0
 40
12.0
 40
13.0
 40
13.0
 40
13.0
 40
14.0
 40
14.0
 40
14.0
 40
15.0
 40
15.0
 40
15.0
 40
16.0
 40
16.0
 40
16.0
 40
16.0
 10
100.8084427977587
 20
90.68550507555815
 30
0.0
 10
100.8522807474103
 20
90.68182553987401
 30
0.0
 10
100.8964540585445
 20
90.67859068331586
 30
0.0
 10
100.9404523813185
 20
90.67596850499915
 30
0.0
 10
100.9844507040934
 20
90.67334632668309
 30
0.0
 10
101.02844458219
 20
90.67132188596757
 30
0.0
 10
101.0724355967476
 20
90.67005342098194
 30
0.0
 10
101.1604176258625
 20
90.66751649101002
 30
0.0
 10
101.2483878695679
 20
90.66793794469726
 30
0.0
 10
101.3363626329222
 20
90.67318572907774
 30
0.0
 10
101.3803500145992
 20
90.67580962126799
 30
0.0
 10
101.4243386022071
 20
90.67965349623785
 30
0.0
 10
101.4683309948012
 20
90.68507893069801
 30
0.0
 10
101.5123233873957
 20
90.69050436515883
 30
0.0
 10
101.5562024933803
 20
90.69751114370573
 30
0.0
 10
101.5993894149453
 20
90.70640816005749
 30
0.0
 10
101.6857632580755
 20
90.7242021927604
 30
0.0
 10
101.7699725546819
 20
90.74941361113619
 30
0.0
 10
101.850694936114
 20
90.78660146551553
 30
0.0
 10
101.89105612683
 20
90.8051953927052
 30
0.0
 10
101.9306220538188
 20
90.82697948074424
 30
0.0
 10
101.9675770192489
 20
90.85168457343232
 30
0.0
 10
102.0045319846787
 20
90.87638966611975
 30
0.0
 10
102.0392383766777
 20
90.9041481181459
 30
0.0
 10
102.0713378718679
 20
90.93544693045244
 30
0.0
 10
102.1034373670575
 20
90.96674574275963
 30
0.0
 10
102.1327737128377
 20
91.00165077014043
 30
0.0
 10
102.1578726216807
 20
91.03853157540847
 30
0.0
 10
102.1829715305237
 20
91.07541238067653
 30
0.0
 10
102.2041052020002
 20
91.11440478916487
 30
0.0
 10
102.2215571408887
 20
91.15535740269127
 30
0.0
 10
102.2390090797772
 20
91.1963100162183
 30
0.0
 10
102.2527582513048
 20
91.239379588376
 30
0.0
 10
102.2628689852624
 20
91.28305653382799
 30
0.0
 10
102.2729797192201
 20
91.3267334792806
 30
0.0
 10
102.2795199905346
 20
91.37108380167697
 30
0.0
 10
102.2831732667384
 20
91.41519662262029
 30
0.0
 10
102.2868265429421
 20
91.45930944356424
 30
0.0
 10
102.2876479294345
 20
91.50344101405575
 30
0.0
 10
102.2862706384768
 20
91.54758683208195
 30
0.0
 10
102.2855819929981
 20
91.56965974109471
 30
0.0
 10
102.2843403893716
 20
91.59173624690312
 30
0.0
 10
102.2826090234717
 20
91.61381596135624
 30
0.0
 10
102.2817433405219
 20
91.62485581858279
 30
0.0
 10
102.280755080013
 20
91.63589647951686
 30
0.0
 10
102.2796513950342
 20
91.64693790413696
 30
0.0
 10
102.2785477100551
 20
91.65797932875641
 30
0.0
 10
102.2773135279433
 20
91.66914674702427
 30
0.0
 10
102.2760007865877
 20
91.68006436877126
 30
0.0
  0
ENDBLK
  5
37E
330
37B
100
AcDbEntity
  8
0
100
AcDbBlockEnd
  0
BLOCK
  5
382
330
380
100
AcDbEntity
  8
0
100
AcDbBlockBegin
  2
block 95
 70
     0
 10
0.0
 20
0.0
 30
0.0
  3
block 95
  1

  0
SPLINE
  5
384
330
380
100
AcDbEntity
  8
PIEZA
 62
     7
420
 16777215
370
     9
100
AcDbSpline
210
0.0
220
0.0
230
1.0
 70
     8
 71
     3
 72
    26
 73
    22
 74
     0
 42
0.0000000001
 43
0.0000000001
 12
1.0
 22
0.0
 32
0.0
 13
1.0
 23
0.0
 33
0.0
 40
0.0
 40
0.0
 40
0.0
 40
0.0
 40
1.0
 40
1.0
 40
1.0
 40
2.0
 40
2.0
 40
2.0
 40
3.0
 40
3.0
 40
3.0
 40
4.0
 40
4.0
 40
4.0
 40
5.0
 40
5.0
 40
5.0
 40
6.0
 40
6.0
 40
6.0
 40
7.0
 40
7.0
 40
7.0
 40
7.0
 10
100.8084427977587
 20
90.68550507555815
 30
0.0
 10
100.1718610511918
 20
90.96519167489977
 30
0.0
 10
99.44527996752664
 20
91.19594730248363
 30
0.0
 10
98.73008753001712
 20
91.43289472593318
 30
0.0
 10
98.37249131126202
 20
91.55136843765827
 30
0.0
 10
98.01774225404617
 20
91.67139009834963
 30
0.0
 10
97.67851385627561
 20
91.79985005396026
 30
0.0
 10
97.5937067568329
 20
91.83196504286308
 30
0.0
 10
97.50986969860568
 20
91.86460742519863
 30
0.0
 10
97.42720070499927
 20
91.89788486262195
 30
0.0
 10
97.38586620819605
 20
91.91452358133297
 30
0.0
 10
97.3448237275481
 20
91.93132106381658
 30
0.0
 10
97.3040980159792
 20
91.94829076777927
 30
0.0
 10
97.26337230441096
 20
91.96526047174194
 30
0.0
 10
97.22304163838872
 20
91.98244495464601
 30
0.0
 10
97.18262887086726
 20
91.99958480048748
 30
0.0
 10
97.02097780078208
 20
92.0681441838527
 30
0.0
 10
96.85938267856108
 20
92.13673398503514
 30
0.0
 10
96.69827555526912
 20
92.2055891021912
 30
0.0
 10
95.40941856893252
 20
92.75643003944421
 30
0.0
 10
94.15179351404724
 20
93.32425119905238
 30
0.0
 10
93.14661053589002
 20
94.02932043764821
 30
0.0
  0
ENDBLK
  5
383
330
380
100
AcDbEntity
  8
0
100
AcDbBlockEnd
  0
BLOCK
  5
387
330
385
100
AcDbEntity
  8
0
100
AcDbBlockBegin
  2
block 96
 70
     0
 10
0.0
 20
0.0
 30
0.0
  3
block 96
  1

  0
SPLINE
  5
389
330
385
100
AcDbEntity
  8
PIEZA
 62
     7
420
 16777215
370
     9
100
AcDbSpline
210
0.0
220
0.0
230
1.0
 70
     8
 71
     3
 72
    35
 73
    31
 74
     0
 42
0.0000000001
 43
0.0000000001
 12
1.0
 22
0.0
 32
0.0
 13
1.0
 23
0.0
 33
0.0
 40
0.0
 40
0.0
 40
0.0
 40
0.0
 40
1.0
 40
1.0
 40
1.0
 40
2.0
 40
2.0
 40
2.0
 40
3.0
 40
3.0
 40
3.0
 40
4.0
 40
4.0
 40
4.0
 40
5.0
 40
5.0
 40
5.0
 40
6.0
 40
6.0
 40
6.0
 40
7.0
 40
7.0
 40
7.0
 40
8.0
 40
8.0
 40
8.0
 40
9.0
 40
9.0
 40
9.0
 40
10.0
 40
10.0
 40
10.0
 40
10.0
 10
63.1404589840842
 20
90.23207889280435
 30
0.0
 10
62.96865016552935
 20
90.23630633162871
 30
0.0
 10
62.79684134697802
 20
90.24053377045244
 30
0.0
 10
62.62602888225464
 20
90.25887451968752
 30
0.0
 10
62.45571424995648
 20
90.27716181486322
 30
0.0
 10
62.28639017220884
 20
90.30948027393039
 30
0.0
 10
62.12216170928683
 20
90.35850831796724
 30
0.0
 10
62.02818720688637
 20
90.38656305318193
 30
0.0
 10
61.9358811798777
 20
90.42008906758288
 30
0.0
 10
61.8464486442612
 20
90.46029275382155
 30
0.0
 10
61.75714013991872
 20
90.50044068278577
 30
0.0
 10
61.67069716217877
 20
90.54724777431024
 30
0.0
 10
61.5891906313267
 20
90.60155040982688
 30
0.0
 10
61.50670969175182
 20
90.65650223211557
 30
0.0
 10
61.42928393480928
 20
90.71912988778745
 30
0.0
 10
61.35854472617424
 20
90.78864728775277
 30
0.0
 10
61.28786507298599
 20
90.85810616091355
 30
0.0
 10
61.22386071401443
 20
90.93444318227962
 30
0.0
 10
61.16863540919688
 20
91.01664637138148
 30
0.0
 10
61.12120459784587
 20
91.08724741138691
 30
0.0
 10
61.08024957404076
 20
91.16217557539612
 30
0.0
 10
61.04567953758183
 20
91.23986594221104
 30
0.0
 10
61.01108332822149
 20
91.31761512823797
 30
0.0
 10
60.98288177798765
 20
91.3981307011704
 30
0.0
 10
60.96062476076451
 20
91.4802963410367
 30
0.0
 10
60.93721163008072
 20
91.56672997428723
 30
0.0
 10
60.92037663463457
 20
91.65498954801524
 30
0.0
 10
60.91056254993325
 20
91.74385969636111
 30
0.0
 10
60.90073785906495
 20
91.83282588744991
 30
0.0
 10
60.89794926226076
 20
91.92240397357493
 30
0.0
 10
60.89516066545784
 20
92.0119820597006
 30
0.0
  0
ENDBLK
  5
388
330
385
100
AcDbEntity
  8
0
100
AcDbBlockEnd
  0
BLOCK
  5
38C
330
38A
100
AcDbEntity
  8
0
100
AcDbBlockBegin
  2
block 97
 70
     0
 10
0.0
 20
0.0
 30
0.0
  3
block 97
  1

  0
POLYLINE
  5
38E
330
38A
100
AcDbEntity
  8
PIEZA
 62
     7
420
 16777215
370
     9
100
AcDb2dPolyline
 66
     1
 10
0.0
 20
0.0
 30
0.0
  0
VERTEX
  5
38F
330
38E
100
AcDbEntity
  8
PIEZA
 62
     7
420
 16777215
370
     9
100
AcDbVertex
100
AcDb2dVertex
 10
60.89516066545784
 20
92.0119820597006
 30
0.0
  0
VERTEX
  5
390
330
38E
100
AcDbEntity
  8
PIEZA
 62
     7
420
 16777215
370
     9
100
AcDbVertex
100
AcDb2dVertex
 10
61.27931130318395
 20
92.0119820597006
 30
0.0
  0
SEQEND
  5
391
330
38E
100
AcDbEntity
  8
PIEZA
 62
     7
420
 16777215
370
     9
  0
ENDBLK
  5
38D
330
38A
100
AcDbEntity
  8
0
100
AcDbBlockEnd
  0
BLOCK
  5
394
330
392
100
AcDbEntity
  8
0
100
AcDbBlockBegin
  2
block 98
 70
     0
 10
0.0
 20
0.0
 30
0.0
  3
block 98
  1

  0
POLYLINE
  5
396
330
392
100
AcDbEntity
  8
PIEZA
 62
     7
420
 16777215
370
     9
100
AcDb2dPolyline
 66
     1
 10
0.0
 20
0.0
 30
0.0
  0
VERTEX
  5
397
330
396
100
AcDbEntity
  8
PIEZA
 62
     7
420
 16777215
370
     9
100
AcDbVertex
100
AcDb2dVertex
 10
63.1404589840842
 20
90.68550545880777
 30
0.0
  0
VERTEX
  5
398
330
396
100
AcDbEntity
  8
PIEZA
 62
     7
420
 16777215
370
     9
100
AcDbVertex
100
AcDb2dVertex
 10
63.1404589840842
 20
90.23207889280435
 30
0.0
  0
SEQEND
  5
399
330
396
100
AcDbEntity
  8
PIEZA
 62
     7
420
 16777215
370
     9
  0
ENDBLK
  5
395
330
392
100
AcDbEntity
  8
0
100
AcDbBlockEnd
  0
BLOCK
  5
39C
330
39A
100
AcDbEntity
  8
0
100
AcDbBlockBegin
  2
block 99
 70
     0
 10
0.0
 20
0.0
 30
0.0
  3
block 99
  1

  0
SPLINE
  5
39E
330
39A
100
AcDbEntity
  8
PIEZA
 62
     7
420
 16777215
370
     9
100
AcDbSpline
210
0.0
220
0.0
230
1.0
 70
     8
 71
     3
 72
    50
 73
    46
 74
     0
 42
0.0000000001
 43
0.0000000001
 12
1.0
 22
0.0
 32
0.0
 13
1.0
 23
0.0
 33
0.0
 40
0.0
 40
0.0
 40
0.0
 40
0.0
 40
1.0
 40
1.0
 40
1.0
 40
2.0
 40
2.0
 40
2.0
 40
3.0
 40
3.0
 40
3.0
 40
4.0
 40
4.0
 40
4.0
 40
5.0
 40
5.0
 40
5.0
 40
6.0
 40
6.0
 40
6.0
 40
7.0
 40
7.0
 40
7.0
 40
8.0
 40
8.0
 40
8.0
 40
9.0
 40
9.0
 40
9.0
 40
10.0
 40
10.0
 40
10.0
 40
11.0
 40
11.0
 40
11.0
 40
12.0
 40
12.0
 40
12.0
 40
13.0
 40
13.0
 40
13.0
 40
14.0
 40
14.0
 40
14.0
 40
15.0
 40
15.0
 40
15.0
 40
15.0
 10
100.5316613917689
 20
123.4508138881172
 30
0.0
 10
100.6631430908569
 20
123.4508138881172
 30
0.0
 10
100.7939727695984
 20
123.4457374056963
 30
0.0
 10
100.9239029457318
 20
123.4336576000578
 30
0.0
 10
101.0538331218652
 20
123.4215777944193
 30
0.0
 10
101.1828685688248
 20
123.402531830453
 30
0.0
 10
101.3106481138581
 20
123.3737076991104
 30
0.0
 10
101.3745378863747
 20
123.3592956334394
 30
0.0
 10
101.438270461089
 20
123.3423721049454
 30
0.0
 10
101.5012735328279
 20
123.3225949702109
 30
0.0
 10
101.5642766045669
 20
123.3028178354765
 30
0.0
 10
101.6260250297112
 20
123.2803611644211
 30
0.0
 10
101.6863661304022
 20
123.2548988844459
 30
0.0
 10
101.7467072310926
 20
123.2294366044706
 30
0.0
 10
101.8056421607195
 20
123.2009711788688
 30
0.0
 10
101.8629824916128
 20
123.1691001845175
 30
0.0
 10
101.8916526570594
 20
123.1531646873422
 30
0.0
 10
101.9199235164409
 20
123.1363763961559
 30
0.0
 10
101.9477664752824
 20
123.1186742420132
 30
0.0
 10
101.9756094341229
 20
123.1009720878698
 30
0.0
 10
102.0031057601098
 20
123.0822907250176
 30
0.0
 10
102.0297792625633
 20
123.0629007406096
 30
0.0
 10
102.1364732723765
 20
122.9853408029779
 30
0.0
 10
102.2311751575194
 20
122.895906373825
 30
0.0
 10
102.3131080156454
 20
122.7938281715854
 30
0.0
 10
102.3335912301769
 20
122.7683086210252
 30
0.0
 10
102.3532726920196
 20
122.74199518233
 30
0.0
 10
102.3721322217792
 20
122.7148678740467
 30
0.0
 10
102.3909917515384
 20
122.6877405657634
 30
0.0
 10
102.4090283615075
 20
122.6597777958281
 30
0.0
 10
102.4259524117676
 20
122.6314703036462
 30
0.0
 10
102.4598005122875
 20
122.5748553192828
 30
0.0
 10
102.4895346048446
 20
122.5164129833086
 30
0.0
 10
102.5154776913047
 20
122.4562867660305
 30
0.0
 10
102.5414207777647
 20
122.396160548753
 30
0.0
 10
102.5635705486533
 20
122.3343494243547
 30
0.0
 10
102.5821837995668
 20
122.2709674557768
 30
0.0
 10
102.5914904250232
 20
122.2392764714875
 30
0.0
 10
102.5999123512976
 20
122.2071660595011
 30
0.0
 10
102.6074060529596
 20
122.1750332472163
 30
0.0
 10
102.6148997546216
 20
122.1429004349314
 30
0.0
 10
102.6214936148303
 20
122.1106567857421
 30
0.0
 10
102.6272558648123
 20
122.0783107039505
 30
0.0
 10
102.6503048647401
 20
121.9489263767821
 30
0.0
 10
102.660150624786
 20
121.8179157562021
 30
0.0
 10
102.660150624786
 20
121.685692395806
 30
0.0
  0
ENDBLK
  5
39D
330
39A
100
AcDbEntity
  8
0
100
AcDbBlockEnd
  0
BLOCK
  5
3A1
330
39F
100
AcDbEntity
  8
0
100
AcDbBlockBegin
  2
block 100
 70
     0
 10
0.0
 20
0.0
 30
0.0
  3
block 100
  1

  0
POLYLINE
  5
3A3
330
39F
100
AcDbEntity
  8
PIEZA
 62
     7
420
 16777215
370
     9
100
AcDb2dPolyline
 66
     1
 10
0.0
 20
0.0
 30
0.0
  0
VERTEX
  5
3A4
330
3A3
100
AcDbEntity
  8
PIEZA
 62
     7
420
 16777215
370
     9
100
AcDbVertex
100
AcDb2dVertex
 10
102.2760001426186
 20
121.6856925177949
 30
0.0
  0
VERTEX
  5
3A5
330
3A3
100
AcDbEntity
  8
PIEZA
 62
     7
420
 16777215
370
     9
100
AcDbVertex
100
AcDb2dVertex
 10
102.6601507803448
 20
121.6856925177949
 30
0.0
  0
SEQEND
  5
3A6
330
3A3
100
AcDbEntity
  8
PIEZA
 62
     7
420
 16777215
370
     9
  0
ENDBLK
  5
3A2
330
39F
100
AcDbEntity
  8
0
100
AcDbBlockEnd
  0
BLOCK
  5
3A9
330
3A7
100
AcDbEntity
  8
0
100
AcDbBlockBegin
  2
block 101
 70
     0
 10
0.0
 20
0.0
 30
0.0
  3
block 101
  1

  0
POLYLINE
  5
3AB
330
3A7
100
AcDbEntity
  8
PIEZA
 62
     7
420
 16777215
370
     9
100
AcDb2dPolyline
 66
     1
 10
0.0
 20
0.0
 30
0.0
  0
VERTEX
  5
3AC
330
3AB
100
AcDbEntity
  8
PIEZA
 62
     7
420
 16777215
370
     9
100
AcDbVertex
100
AcDb2dVertex
 10
100.5316619002156
 20
123.4508139889487
 30
0.0
  0
VERTEX
  5
3AD
330
3AB
100
AcDbEntity
  8
PIEZA
 62
     7
420
 16777215
370
     9
100
AcDbVertex
100
AcDb2dVertex
 10
100.5316619002156
 20
123.0101487793949
 30
0.0
  0
SEQEND
  5
3AE
330
3AB
100
AcDbEntity
  8
PIEZA
 62
     7
420
 16777215
370
     9
  0
ENDBLK
  5
3AA
330
3A7
100
AcDbEntity
  8
0
100
AcDbBlockEnd
  0
BLOCK
  5
3B1
330
3AF
100
AcDbEntity
  8
0
100
AcDbBlockBegin
  2
block 102
 70
     0
 10
0.0
 20
0.0
 30
0.0
  3
block 102
  1

  0
SPLINE
  5
3B3
330
3AF
100
AcDbEntity
  8
PIEZA
 62
     7
420
 16777215
370
     9
100
AcDbSpline
210
0.0
220
0.0
230
1.0
 70
     8
 71
     3
 72
    38
 73
    34
 74
     0
 42
0.0000000001
 43
0.0000000001
 12
1.0
 22
0.0
 32
0.0
 13
1.0
 23
0.0
 33
0.0
 40
0.0
 40
0.0
 40
0.0
 40
0.0
 40
1.0
 40
1.0
 40
1.0
 40
2.0
 40
2.0
 40
2.0
 40
3.0
 40
3.0
 40
3.0
 40
4.0
 40
4.0
 40
4.0
 40
5.0
 40
5.0
 40
5.0
 40
6.0
 40
6.0
 40
6.0
 40
7.0
 40
7.0
 40
7.0
 40
8.0
 40
8.0
 40
8.0
 40
9.0
 40
9.0
 40
9.0
 40
10.0
 40
10.0
 40
10.0
 40
11.0
 40
11.0
 40
11.0
 40
11.0
 10
60.89516082101339
 20
121.685692395806
 30
0.0
 10
60.89516082101339
 20
121.8176426962654
 30
0.0
 10
60.90498265257696
 20
121.9480421207215
 30
0.0
 10
60.92771666800261
 20
122.0764026997759
 30
0.0
 10
60.93908367571527
 20
122.1405829893035
 30
0.0
 10
60.95369194147784
 20
122.2042514812812
 30
0.0
 10
60.97206263092446
 20
122.2673258831875
 30
0.0
 10
60.99043332037172
 20
122.3304002850937
 30
0.0
 10
61.01274741757081
 20
122.3931891893386
 30
0.0
 10
61.03867232259617
 20
122.4535879729746
 30
0.0
 10
61.09052213264689
 20
122.5743855402459
 30
0.0
 10
61.15700686338823
 20
122.6871053683968
 30
0.0
 10
61.23979902549245
 20
122.7908243157707
 30
0.0
 10
61.32259118759666
 20
122.8945432631438
 30
0.0
 10
61.41783467984283
 20
122.9844195449349
 30
0.0
 10
61.52405494174069
 20
123.0618255538808
 30
0.0
 10
61.57716507268962
 20
123.1005285583534
 30
0.0
 10
61.63338954503202
 20
123.1362647456091
 30
0.0
 10
61.69084095098606
 20
123.1682721535614
 30
0.0
 10
61.74829235694042
 20
123.2002795615144
 30
0.0
 10
61.80718810677096
 20
123.2287742794228
 30
0.0
 10
61.86733768219412
 20
123.2542196538016
 30
0.0
 10
61.92748725761665
 20
123.2796650281803
 30
0.0
 10
61.98889192337504
 20
123.3020579831298
 30
0.0
 10
62.05140083693328
 20
123.3217653724607
 30
0.0
 10
62.11390975049153
 20
123.3414727617915
 30
0.0
 10
62.17773597766668
 20
123.3585380336822
 30
0.0
 10
62.24201063652788
 20
123.3731078489917
 30
0.0
 10
62.37055995425061
 20
123.4022474796107
 30
0.0
 10
62.50017027071074
 20
123.4214236986915
 30
0.0
 10
62.63052859426634
 20
123.4335756846317
 30
0.0
 10
62.76088691782164
 20
123.445727670572
 30
0.0
 10
62.89199767153575
 20
123.4508138881172
 30
0.0
 10
63.02365005403014
 20
123.4508138881172
 30
0.0
  0
ENDBLK
  5
3B2
330
3AF
100
AcDbEntity
  8
0
100
AcDbBlockEnd
  0
BLOCK
  5
3B6
330
3B4
100
AcDbEntity
  8
0
100
AcDbBlockBegin
  2
block 103
 70
     0
 10
0.0
 20
0.0
 30
0.0
  3
block 103
  1

  0
POLYLINE
  5
3B8
330
3B4
100
AcDbEntity
  8
PIEZA
 62
     7
420
 16777215
370
     9
100
AcDb2dPolyline
 66
     1
 10
0.0
 20
0.0
 30
0.0
  0
VERTEX
  5
3B9
330
3B8
100
AcDbEntity
  8
PIEZA
 62
     7
420
 16777215
370
     9
100
AcDbVertex
100
AcDb2dVertex
 10
63.02364954558697
 20
123.4508139889487
 30
0.0
  0
VERTEX
  5
3BA
330
3B8
100
AcDbEntity
  8
PIEZA
 62
     7
420
 16777215
370
     9
100
AcDbVertex
100
AcDb2dVertex
 10
63.02364954558697
 20
123.0101487793949
 30
0.0
  0
SEQEND
  5
3BB
330
3B8
100
AcDbEntity
  8
PIEZA
 62
     7
420
 16777215
370
     9
  0
ENDBLK
  5
3B7
330
3B4
100
AcDbEntity
  8
0
100
AcDbBlockEnd
  0
BLOCK
  5
3BE
330
3BC
100
AcDbEntity
  8
0
100
AcDbBlockBegin
  2
block 104
 70
     0
 10
0.0
 20
0.0
 30
0.0
  3
block 104
  1

  0
POLYLINE
  5
3C0
330
3BC
100
AcDbEntity
  8
PIEZA
 62
     7
420
 16777215
370
     9
100
AcDb2dPolyline
 66
     1
 10
0.0
 20
0.0
 30
0.0
  0
VERTEX
  5
3C1
330
3C0
100
AcDbEntity
  8
PIEZA
 62
     7
420
 16777215
370
     9
100
AcDbVertex
100
AcDb2dVertex
 10
60.89516066545784
 20
121.6856925177949
 30
0.0
  0
VERTEX
  5
3C2
330
3C0
100
AcDbEntity
  8
PIEZA
 62
     7
420
 16777215
370
     9
100
AcDbVertex
100
AcDb2dVertex
 10
61.27931130318395
 20
121.6856925177949
 30
0.0
  0
SEQEND
  5
3C3
330
3C0
100
AcDbEntity
  8
PIEZA
 62
     7
420
 16777215
370
     9
  0
ENDBLK
  5
3BF
330
3BC
100
AcDbEntity
  8
0
100
AcDbBlockEnd
  0
BLOCK
  5
3C6
330
3C4
100
AcDbEntity
  8
0
100
AcDbBlockBegin
  2
block 105
 70
     0
 10
0.0
 20
0.0
 30
0.0
  3
block 105
  1

  0
POLYLINE
  5
3C8
330
3C4
100
AcDbEntity
  8
PIEZA
 62
     7
420
 16777215
370
     9
100
AcDb2dPolyline
 66
     1
 10
0.0
 20
0.0
 30
0.0
  0
VERTEX
  5
3C9
330
3C8
100
AcDbEntity
  8
PIEZA
 62
     7
420
 16777215
370
     9
100
AcDbVertex
100
AcDb2dVertex
 10
63.1404589840842
 20
90.68550545880777
 30
0.0
  0
VERTEX
  5
3CA
330
3C8
100
AcDbEntity
  8
PIEZA
 62
     7
420
 16777215
370
     9
100
AcDbVertex
100
AcDb2dVertex
 10
100.8084432874938
 20
90.68550545880777
 30
0.0
  0
SEQEND
  5
3CB
330
3C8
100
AcDbEntity
  8
PIEZA
 62
     7
420
 16777215
370
     9
  0
ENDBLK
  5
3C7
330
3C4
100
AcDbEntity
  8
0
100
AcDbBlockEnd
  0
BLOCK
  5
3CE
330
3CC
100
AcDbEntity
  8
0
100
AcDbBlockBegin
  2
block 106
 70
     0
 10
0.0
 20
0.0
 30
0.0
  3
block 106
  1

  0
POLYLINE
  5
3D0
330
3CC
100
AcDbEntity
  8
PIEZA
 62
     7
420
 16777215
370
     9
100
AcDb2dPolyline
 66
     1
 10
0.0
 20
0.0
 30
0.0
  0
VERTEX
  5
3D1
330
3D0
100
AcDbEntity
  8
PIEZA
 62
     7
420
 16777215
370
     9
100
AcDbVertex
100
AcDb2dVertex
 10
100.8084432874938
 20
90.68550545880777
 30
0.0
  0
VERTEX
  5
3D2
330
3D0
100
AcDbEntity
  8
PIEZA
 62
     7
420
 16777215
370
     9
100
AcDbVertex
100
AcDb2dVertex
 10
100.8084432874938
 20
90.23207889280435
 30
0.0
  0
SEQEND
  5
3D3
330
3D0
100
AcDbEntity
  8
PIEZA
 62
     7
420
 16777215
370
     9
  0
ENDBLK
  5
3CF
330
3CC
100
AcDbEntity
  8
0
100
AcDbBlockEnd
  0
BLOCK
  5
3D6
330
3D4
100
AcDbEntity
  8
0
100
AcDbBlockBegin
  2
block 107
 70
     0
 10
0.0
 20
0.0
 30
0.0
  3
block 107
  1

  0
POLYLINE
  5
3D8
330
3D4
100
AcDbEntity
  8
PIEZA
 62
     7
420
 16777215
370
     9
100
AcDb2dPolyline
 66
     1
 10
0.0
 20
0.0
 30
0.0
  0
VERTEX
  5
3D9
330
3D8
100
AcDbEntity
  8
PIEZA
 62
     7
420
 16777215
370
     9
100
AcDbVertex
100
AcDb2dVertex
 10
100.8084432874938
 20
90.23207889280435
 30
0.0
  0
VERTEX
  5
3DA
330
3D8
100
AcDbEntity
  8
PIEZA
 62
     7
420
 16777215
370
     9
100
AcDbVertex
100
AcDb2dVertex
 10
63.1404589840842
 20
90.23207889280435
 30
0.0
  0
SEQEND
  5
3DB
330
3D8
100
AcDbEntity
  8
PIEZA
 62
     7
420
 16777215
370
     9
  0
ENDBLK
  5
3D7
330
3D4
100
AcDbEntity
  8
0
100
AcDbBlockEnd
  0
BLOCK
  5
3DE
330
3DC
100
AcDbEntity
  8
0
100
AcDbBlockBegin
  2
block 108
 70
     0
 10
0.0
 20
0.0
 30
0.0
  3
block 108
  1

  0
POLYLINE
  5
3E0
330
3DC
100
AcDbEntity
  8
PIEZA
 62
     7
420
 16777215
370
     9
100
AcDb2dPolyline
 66
     1
 10
0.0
 20
0.0
 30
0.0
  0
VERTEX
  5
3E1
330
3E0
100
AcDbEntity
  8
PIEZA
 62
     7
420
 16777215
370
     9
100
AcDbVertex
100
AcDb2dVertex
 10
102.2760001426186
 20
91.68006508483295
 30
0.0
  0
VERTEX
  5
3E2
330
3E0
100
AcDbEntity
  8
PIEZA
 62
     7
420
 16777215
370
     9
100
AcDbVertex
100
AcDb2dVertex
 10
102.6601507803448
 20
91.68006508483295
 30
0.0
  0
SEQEND
  5
3E3
330
3E0
100
AcDbEntity
  8
PIEZA
 62
     7
420
 16777215
370
     9
  0
ENDBLK
  5
3DF
330
3DC
100
AcDbEntity
  8
0
100
AcDbBlockEnd
  0
BLOCK
  5
3E6
330
3E4
100
AcDbEntity
  8
0
100
AcDbBlockBegin
  2
block 109
 70
     0
 10
0.0
 20
0.0
 30
0.0
  3
block 109
  1

  0
SPLINE
  5
3E8
330
3E4
100
AcDbEntity
  8
PIEZA
 62
     7
420
 16777215
370
     9
100
AcDbSpline
210
0.0
220
0.0
230
1.0
 70
     8
 71
     3
 72
    35
 73
    31
 74
     0
 42
0.0000000001
 43
0.0000000001
 12
1.0
 22
0.0
 32
0.0
 13
1.0
 23
0.0
 33
0.0
 40
0.0
 40
0.0
 40
0.0
 40
0.0
 40
1.0
 40
1.0
 40
1.0
 40
2.0
 40
2.0
 40
2.0
 40
3.0
 40
3.0
 40
3.0
 40
4.0
 40
4.0
 40
4.0
 40
5.0
 40
5.0
 40
5.0
 40
6.0
 40
6.0
 40
6.0
 40
7.0
 40
7.0
 40
7.0
 40
8.0
 40
8.0
 40
8.0
 40
9.0
 40
9.0
 40
9.0
 40
10.0
 40
10.0
 40
10.0
 40
10.0
 10
102.6601507803448
 20
91.68006508483295
 30
0.0
 10
102.6576182811728
 20
91.60220017767156
 30
0.0
 10
102.6550857820022
 20
91.52433527050952
 30
0.0
 10
102.6460663978403
 20
91.44706025622287
 30
0.0
 10
102.637059637173
 20
91.36989339573462
 30
0.0
 10
102.6215841368436
 20
91.29331477805363
 30
0.0
 10
102.5998363992683
 20
91.21858579864292
 30
0.0
 10
102.577819504729
 20
91.14293194945354
 30
0.0
 10
102.5493741577715
 20
91.0691738052794
 30
0.0
 10
102.5141686976193
 20
90.9986909817745
 30
0.0
 10
102.4789977806168
 20
90.92827731511836
 30
0.0
 10
102.4370800097856
 20
90.86113254487896
 30
0.0
 10
102.3886494254285
 20
90.79911410577736
 30
0.0
 10
102.345926129967
 20
90.74440421257718
 30
0.0
 10
102.2981345765065
 20
90.69368361965412
 30
0.0
 10
102.2465138756398
 20
90.64726935641072
 30
0.0
 10
102.1948571296429
 20
90.6008226835304
 30
0.0
 10
102.1393658868236
 20
90.55868835638209
 30
0.0
 10
102.0809196303971
 20
90.52117212027426
 30
0.0
 10
102.0062665502408
 20
90.47325283933908
 30
0.0
 10
101.9267924210437
 20
90.43286788695103
 30
0.0
 10
101.8447602659013
 20
90.39906115245306
 30
0.0
 10
101.7625706705853
 20
90.36518953439645
 30
0.0
 10
101.6778132209213
 20
90.33792140894293
 30
0.0
 10
101.5917225554822
 20
90.31582489179554
 30
0.0
 10
101.4643248052448
 20
90.28312626461876
 30
0.0
 10
101.3340075324723
 20
90.26175260619188
 30
0.0
 10
101.2031210523947
 20
90.2496820474962
 30
0.0
 10
101.0719429617467
 20
90.23758459601194
 30
0.0
 10
100.9401931246195
 20
90.23483174440847
 30
0.0
 10
100.8084432874938
 20
90.23207889280435
 30
0.0
  0
ENDBLK
  5
3E7
330
3E4
100
AcDbEntity
  8
0
100
AcDbBlockEnd
  0
BLOCK
  5
3EB
330
3E9
100
AcDbEntity
  8
0
100
AcDbBlockBegin
  2
block 110
 70
     0
 10
0.0
 20
0.0
 30
0.0
  3
block 110
  1

  0
POLYLINE
  5
3ED
330
3E9
100
AcDbEntity
  8
PIEZA
 62
     7
420
 16777215
370
     9
100
AcDb2dPolyline
 66
     1
 10
0.0
 20
0.0
 30
0.0
  0
VERTEX
  5
3EE
330
3ED
100
AcDbEntity
  8
PIEZA
 62
     7
420
 16777215
370
     9
100
AcDbVertex
100
AcDb2dVertex
 10
102.2760001426186
 20
91.68006508483295
 30
0.0
  0
VERTEX
  5
3EF
330
3ED
100
AcDbEntity
  8
PIEZA
 62
     7
420
 16777215
370
     9
100
AcDbVertex
100
AcDb2dVertex
 10
102.2760001426186
 20
121.6856925177949
 30
0.0
  0
SEQEND
  5
3F0
330
3ED
100
AcDbEntity
  8
PIEZA
 62
     7
420
 16777215
370
     9
  0
ENDBLK
  5
3EC
330
3E9
100
AcDbEntity
  8
0
100
AcDbBlockEnd
  0
BLOCK
  5
3F3
330
3F1
100
AcDbEntity
  8
0
100
AcDbBlockBegin
  2
block 111
 70
     0
 10
0.0
 20
0.0
 30
0.0
  3
block 111
  1

  0
POLYLINE
  5
3F5
330
3F1
100
AcDbEntity
  8
PIEZA
 62
     7
420
 16777215
370
     9
100
AcDb2dPolyline
 66
     1
 10
0.0
 20
0.0
 30
0.0
  0
VERTEX
  5
3F6
330
3F5
100
AcDbEntity
  8
PIEZA
 62
     7
420
 16777215
370
     9
100
AcDbVertex
100
AcDb2dVertex
 10
102.6601507803448
 20
121.6856925177949
 30
0.0
  0
VERTEX
  5
3F7
330
3F5
100
AcDbEntity
  8
PIEZA
 62
     7
420
 16777215
370
     9
100
AcDbVertex
100
AcDb2dVertex
 10
102.6601507803448
 20
91.68006508483295
 30
0.0
  0
SEQEND
  5
3F8
330
3F5
100
AcDbEntity
  8
PIEZA
 62
     7
420
 16777215
370
     9
  0
ENDBLK
  5
3F4
330
3F1
100
AcDbEntity
  8
0
100
AcDbBlockEnd
  0
BLOCK
  5
3FB
330
3F9
100
AcDbEntity
  8
0
100
AcDbBlockBegin
  2
block 112
 70
     0
 10
0.0
 20
0.0
 30
0.0
  3
block 112
  1

  0
SPLINE
  5
3FD
330
3F9
100
AcDbEntity
  8
PIEZA
 62
     7
420
 16777215
370
     9
100
AcDbSpline
210
0.0
220
0.0
230
1.0
 70
     8
 71
     3
 72
     8
 73
     4
 74
     0
 42
0.0000000001
 43
0.0000000001
 12
1.0
 22
0.0
 32
0.0
 13
1.0
 23
0.0
 33
0.0
 40
0.0
 40
0.0
 40
0.0
 40
0.0
 40
1.0
 40
1.0
 40
1.0
 40
1.0
 10
103.5831167629353
 20
132.2153433986715
 30
0.0
 10
103.5831417914746
 20
132.5337318861424
 30
0.0
 10
103.3250178985592
 20
132.7918570386377
 30
0.0
 10
103.0065809115932
 20
132.7918820633646
 30
0.0
  0
ENDBLK
  5
3FC
330
3F9
100
AcDbEntity
  8
0
100
AcDbBlockEnd
  0
BLOCK
  5
400
330
3FE
100
AcDbEntity
  8
0
100
AcDbBlockBegin
  2
block 113
 70
     0
 10
0.0
 20
0.0
 30
0.0
  3
block 113
  1

  0
POLYLINE
  5
402
330
3FE
100
AcDbEntity
  8
PIEZA
 62
     7
420
 16777215
370
     9
100
AcDb2dPolyline
 66
     1
 10
0.0
 20
0.0
 30
0.0
  0
VERTEX
  5
403
330
402
100
AcDbEntity
  8
PIEZA
 62
     7
420
 16777215
370
     9
100
AcDbVertex
100
AcDb2dVertex
 10
63.02364954558697
 20
123.4508139889487
 30
0.0
  0
VERTEX
  5
404
330
402
100
AcDbEntity
  8
PIEZA
 62
     7
420
 16777215
370
     9
100
AcDbVertex
100
AcDb2dVertex
 10
100.5316619002156
 20
123.4508139889487
 30
0.0
  0
SEQEND
  5
405
330
402
100
AcDbEntity
  8
PIEZA
 62
     7
420
 16777215
370
     9
  0
ENDBLK
  5
401
330
3FE
100
AcDbEntity
  8
0
100
AcDbBlockEnd
  0
BLOCK
  5
408
330
406
100
AcDbEntity
  8
0
100
AcDbBlockBegin
  2
block 114
 70
     0
 10
0.0
 20
0.0
 30
0.0
  3
block 114
  1

  0
POLYLINE
  5
40A
330
406
100
AcDbEntity
  8
PIEZA
 62
     7
420
 16777215
370
     9
100
AcDb2dPolyline
 66
     1
 10
0.0
 20
0.0
 30
0.0
  0
VERTEX
  5
40B
330
40A
100
AcDbEntity
  8
PIEZA
 62
     7
420
 16777215
370
     9
100
AcDbVertex
100
AcDb2dVertex
 10
100.5316619002156
 20
123.0101487793949
 30
0.0
  0
VERTEX
  5
40C
330
40A
100
AcDbEntity
  8
PIEZA
 62
     7
420
 16777215
370
     9
100
AcDbVertex
100
AcDb2dVertex
 10
63.02364954558697
 20
123.0101487793949
 30
0.0
  0
SEQEND
  5
40D
330
40A
100
AcDbEntity
  8
PIEZA
 62
     7
420
 16777215
370
     9
  0
ENDBLK
  5
409
330
406
100
AcDbEntity
  8
0
100
AcDbBlockEnd
  0
BLOCK
  5
410
330
40E
100
AcDbEntity
  8
0
100
AcDbBlockBegin
  2
block 115
 70
     0
 10
0.0
 20
0.0
 30
0.0
  3
block 115
  1

  0
POLYLINE
  5
412
330
40E
100
AcDbEntity
  8
PIEZA
 62
     7
420
 16777215
370
     9
100
AcDb2dPolyline
 66
     1
 10
0.0
 20
0.0
 30
0.0
  0
VERTEX
  5
413
330
412
100
AcDbEntity
  8
PIEZA
 62
     7
420
 16777215
370
     9
100
AcDbVertex
100
AcDb2dVertex
 10
60.89516066545784
 20
92.0119820597006
 30
0.0
  0
VERTEX
  5
414
330
412
100
AcDbEntity
  8
PIEZA
 62
     7
420
 16777215
370
     9
100
AcDbVertex
100
AcDb2dVertex
 10
60.89516066545784
 20
121.6856925177949
 30
0.0
  0
SEQEND
  5
415
330
412
100
AcDbEntity
  8
PIEZA
 62
     7
420
 16777215
370
     9
  0
ENDBLK
  5
411
330
40E
100
AcDbEntity
  8
0
100
AcDbBlockEnd
  0
BLOCK
  5
418
330
416
100
AcDbEntity
  8
0
100
AcDbBlockBegin
  2
block 116
 70
     0
 10
0.0
 20
0.0
 30
0.0
  3
block 116
  1

  0
POLYLINE
  5
41A
330
416
100
AcDbEntity
  8
PIEZA
 62
     7
420
 16777215
370
     9
100
AcDb2dPolyline
 66
     1
 10
0.0
 20
0.0
 30
0.0
  0
VERTEX
  5
41B
330
41A
100
AcDbEntity
  8
PIEZA
 62
     7
420
 16777215
370
     9
100
AcDbVertex
100
AcDb2dVertex
 10
61.27931130318395
 20
121.6856925177949
 30
0.0
  0
VERTEX
  5
41C
330
41A
100
AcDbEntity
  8
PIEZA
 62
     7
420
 16777215
370
     9
100
AcDbVertex
100
AcDb2dVertex
 10
61.27931130318395
 20
92.0119820597006
 30
0.0
  0
SEQEND
  5
41D
330
41A
100
AcDbEntity
  8
PIEZA
 62
     7
420
 16777215
370
     9
  0
ENDBLK
  5
419
330
416
100
AcDbEntity
  8
0
100
AcDbBlockEnd
  0
BLOCK
  5
420
330
41E
100
AcDbEntity
  8
0
100
AcDbBlockBegin
  2
block 117
 70
     0
 10
0.0
 20
0.0
 30
0.0
  3
block 117
  1

  0
POLYLINE
  5
422
330
41E
100
AcDbEntity
  8
PIEZA
 62
     7
420
 16777215
370
     9
100
AcDb2dPolyline
 66
     1
 10
0.0
 20
0.0
 30
0.0
  0
VERTEX
  5
423
330
422
100
AcDbEntity
  8
PIEZA
 62
     7
420
 16777215
370
     9
100
AcDbVertex
100
AcDb2dVertex
 10
60.54873354617524
 20
132.7918820635931
 30
0.0
  0
VERTEX
  5
424
330
422
100
AcDbEntity
  8
PIEZA
 62
     7
420
 16777215
370
     9
100
AcDbVertex
100
AcDb2dVertex
 10
103.0065778996277
 20
132.7918820635931
 30
0.0
  0
SEQEND
  5
425
330
422
100
AcDbEntity
  8
PIEZA
 62
     7
420
 16777215
370
     9
  0
ENDBLK
  5
421
330
41E
100
AcDbEntity
  8
0
100
AcDbBlockEnd
  0
BLOCK
  5
428
330
426
100
AcDbEntity
  8
0
100
AcDbBlockBegin
  2
block 118
 70
     0
 10
0.0
 20
0.0
 30
0.0
  3
block 118
  1

  0
SPLINE
  5
42A
330
426
100
AcDbEntity
  8
PIEZA
 62
     7
420
 16777215
370
     9
100
AcDbSpline
210
0.0
220
0.0
230
1.0
 70
     8
 71
     3
 72
     8
 73
     4
 74
     0
 42
0.0000000001
 43
0.0000000001
 12
1.0
 22
0.0
 32
0.0
 13
1.0
 23
0.0
 33
0.0
 40
0.0
 40
0.0
 40
0.0
 40
0.0
 40
1.0
 40
1.0
 40
1.0
 40
1.0
 10
60.54873354617557
 20
132.7918820635937
 30
0.0
 10
60.23029655908285
 20
132.7918587020756
 30
0.0
 10
59.97217131756214
 20
132.5337348977753
 30
0.0
 10
59.97219468263848
 20
132.2153464101785
 30
0.0
  0
ENDBLK
  5
429
330
426
100
AcDbEntity
  8
0
100
AcDbBlockEnd
  0
BLOCK
  5
42D
330
42B
100
AcDbEntity
  8
0
100
AcDbBlockBegin
  2
block 119
 70
     0
 10
0.0
 20
0.0
 30
0.0
  3
block 119
  1

  0
SPLINE
  5
42F
330
42B
100
AcDbEntity
  8
PIEZA
 62
     7
420
 16777215
370
     9
100
AcDbSpline
210
0.0
220
0.0
230
1.0
 70
     8
 71
     3
 72
    35
 73
    31
 74
     0
 42
0.0000000001
 43
0.0000000001
 12
1.0
 22
0.0
 32
0.0
 13
1.0
 23
0.0
 33
0.0
 40
0.0
 40
0.0
 40
0.0
 40
0.0
 40
1.0
 40
1.0
 40
1.0
 40
2.0
 40
2.0
 40
2.0
 40
3.0
 40
3.0
 40
3.0
 40
4.0
 40
4.0
 40
4.0
 40
5.0
 40
5.0
 40
5.0
 40
6.0
 40
6.0
 40
6.0
 40
7.0
 40
7.0
 40
7.0
 40
8.0
 40
8.0
 40
8.0
 40
9.0
 40
9.0
 40
9.0
 40
10.0
 40
10.0
 40
10.0
 40
10.0
 10
66.87403903669485
 20
115.2541256548557
 30
0.0
 10
66.94692235129604
 20
114.5424564537074
 30
0.0
 10
67.01980566589884
 20
113.8307872525578
 30
0.0
 10
67.08912839409469
 20
113.1184795415565
 30
0.0
 10
67.15844849184488
 20
112.406198859024
 30
0.0
 10
67.22420827339603
 20
111.6932797150952
 30
0.0
 10
67.28425759660628
 20
110.979472878065
 30
0.0
 10
67.32441268633082
 20
110.502148970738
 30
0.0
 10
67.36201427562808
 20
110.0244281207179
 30
0.0
 10
67.39429335648141
 20
109.5460285470293
 30
0.0
 10
67.42657480062535
 20
109.0675939476404
 30
0.0
 10
67.45353295692925
 20
108.5884805251946
 30
0.0
 10
67.47248566650175
 20
108.1087253822618
 30
0.0
 10
67.49142456693906
 20
107.629319793764
 30
0.0
 10
67.50236968209305
 20
107.1492734195667
 30
0.0
 10
67.5025533528283
 20
106.669218601498
 30
0.0
 10
67.50273921239898
 20
106.1834428891165
 30
0.0
 10
67.49190560732221
 20
105.6976585304109
 30
0.0
 10
67.47286516435192
 20
105.2125296297225
 30
0.0
 10
67.45381049338731
 20
104.7270382158752
 30
0.0
 10
67.42653671480717
 20
104.2422032399947
 30
0.0
 10
67.3938279345899
 20
103.7580628879839
 30
0.0
 10
67.36112148037859
 20
103.2739569644382
 30
0.0
 10
67.32298079749674
 20
102.7905455659732
 30
0.0
 10
67.28224124576137
 20
102.3075394590825
 30
0.0
 10
67.22419081459498
 20
101.6192964233376
 30
0.0
 10
67.16086367895578
 20
100.9318762855469
 30
0.0
 10
67.0941664070733
 20
100.2450579788088
 30
0.0
 10
67.02746690879098
 20
99.55821674561167
 30
0.0
 10
66.95739704926646
 20
98.87197738364655
 30
0.0
 10
66.88732718974481
 20
98.18573802168143
 30
0.0
  0
ENDBLK
  5
42E
330
42B
100
AcDbEntity
  8
0
100
AcDbBlockEnd
  0
BLOCK
  5
432
330
430
100
AcDbEntity
  8
0
100
AcDbBlockBegin
  2
block 120
 70
     0
 10
0.0
 20
0.0
 30
0.0
  3
block 120
  1

  0
SPLINE
  5
434
330
430
100
AcDbEntity
  8
PIEZA
 62
     7
420
 16777215
370
     9
100
AcDbSpline
210
0.0
220
0.0
230
1.0
 70
     8
 71
     3
 72
    35
 73
    31
 74
     0
 42
0.0000000001
 43
0.0000000001
 12
1.0
 22
0.0
 32
0.0
 13
1.0
 23
0.0
 33
0.0
 40
0.0
 40
0.0
 40
0.0
 40
0.0
 40
1.0
 40
1.0
 40
1.0
 40
2.0
 40
2.0
 40
2.0
 40
3.0
 40
3.0
 40
3.0
 40
4.0
 40
4.0
 40
4.0
 40
5.0
 40
5.0
 40
5.0
 40
6.0
 40
6.0
 40
6.0
 40
7.0
 40
7.0
 40
7.0
 40
8.0
 40
8.0
 40
8.0
 40
9.0
 40
9.0
 40
9.0
 40
10.0
 40
10.0
 40
10.0
 40
10.0
 10
96.6679842560581
 20
98.18573802168143
 30
0.0
 10
96.59798306973603
 20
98.87130682881177
 30
0.0
 10
96.5279818834146
 20
99.55687563594212
 30
0.0
 10
96.46134266402383
 20
100.2430447987621
 30
0.0
 10
96.39470575124528
 20
100.929190210903
 30
0.0
 10
96.33143057266311
 20
101.615935937174
 30
0.0
 10
96.27341103207225
 20
102.3035016441942
 30
0.0
 10
96.23265356359595
 20
102.7865016359896
 30
0.0
 10
96.19448962511194
 20
103.2699062684145
 30
0.0
 10
96.16175273987467
 20
103.7540050272062
 30
0.0
 10
96.1290135606073
 20
104.2381377091104
 30
0.0
 10
96.10170219521213
 20
104.7229646146668
 30
0.0
 10
96.08260094472246
 20
105.2084488593567
 30
0.0
 10
96.06351391755038
 20
105.6935715990818
 30
0.0
 10
96.05262478287976
 20
106.1793506993596
 30
0.0
 10
96.05275666090513
 20
106.6651235126398
 30
0.0
 10
96.05288650975045
 20
107.143421841248
 30
0.0
 10
96.06370082451924
 20
107.6217140748429
 30
0.0
 10
96.08246776245983
 20
108.0993725429545
 30
0.0
 10
96.10124828452994
 20
108.5773767560412
 30
0.0
 10
96.12799294668109
 20
109.0547462858322
 30
0.0
 10
96.16004857971579
 20
109.5314408668602
 30
0.0
 10
96.19210186259801
 20
110.0081004991187
 30
0.0
 10
96.22946533764693
 20
110.4840852815783
 30
0.0
 10
96.26938692278613
 20
110.959673266623
 30
0.0
 10
96.32958359393344
 20
111.6767994387811
 30
0.0
 10
96.39559658956907
 20
112.3930234204768
 30
0.0
 10
96.46521211003625
 20
113.1086012135742
 30
0.0
 10
96.53483033957997
 20
113.8242068532625
 30
0.0
 10
96.60805137434338
 20
114.5391662540594
 30
0.0
 10
96.68127240910775
 20
115.2541256548557
 30
0.0
  0
ENDBLK
  5
433
330
430
100
AcDbEntity
  8
0
100
AcDbBlockEnd
  0
BLOCK
  5
437
330
435
100
AcDbEntity
  8
0
100
AcDbBlockBegin
  2
block 121
 70
     0
 10
0.0
 20
0.0
 30
0.0
  3
block 121
  1

  0
SPLINE
  5
439
330
435
100
AcDbEntity
  8
PIEZA
 62
     7
420
 16777215
370
     9
100
AcDbSpline
210
0.0
220
0.0
230
1.0
 70
     8
 71
     3
 72
    17
 73
    13
 74
     0
 42
0.0000000001
 43
0.0000000001
 12
1.0
 22
0.0
 32
0.0
 13
1.0
 23
0.0
 33
0.0
 40
0.0
 40
0.0
 40
0.0
 40
0.0
 40
1.0
 40
1.0
 40
1.0
 40
2.0
 40
2.0
 40
2.0
 40
3.0
 40
3.0
 40
3.0
 40
4.0
 40
4.0
 40
4.0
 40
4.0
 10
86.89815731193241
 20
117.6432330634718
 30
0.0
 10
87.42856128011438
 20
117.6766280141506
 30
0.0
 10
87.9566321919221
 20
117.7226425035281
 30
0.0
 10
88.49598231752283
 20
117.790593594718
 30
0.0
 10
89.03533244312358
 20
117.858544685908
 30
0.0
 10
89.58000421591926
 20
117.9465919471708
 30
0.0
 10
90.12479930296023
 20
118.0660117892629
 30
0.0
 10
90.66959439000152
 20
118.1854316313558
 30
0.0
 10
91.21712260040663
 20
118.3374793457034
 30
0.0
 10
91.74039156628575
 20
118.539281089188
 30
0.0
 10
92.26366053216486
 20
118.7410828326719
 30
0.0
 10
92.75292653646652
 20
118.9868887195202
 30
0.0
 10
93.15989936821757
 20
119.2935529972936
 30
0.0
  0
ENDBLK
  5
438
330
435
100
AcDbEntity
  8
0
100
AcDbBlockEnd
  0
BLOCK
  5
43C
330
43A
100
AcDbEntity
  8
0
100
AcDbBlockBegin
  2
block 122
 70
     0
 10
0.0
 20
0.0
 30
0.0
  3
block 122
  1

  0
SPLINE
  5
43E
330
43A
100
AcDbEntity
  8
PIEZA
 62
     7
420
 16777215
370
     9
100
AcDbSpline
210
0.0
220
0.0
230
1.0
 70
     8
 71
     3
 72
    35
 73
    31
 74
     0
 42
0.0000000001
 43
0.0000000001
 12
1.0
 22
0.0
 32
0.0
 13
1.0
 23
0.0
 33
0.0
 40
0.0
 40
0.0
 40
0.0
 40
0.0
 40
1.0
 40
1.0
 40
1.0
 40
2.0
 40
2.0
 40
2.0
 40
3.0
 40
3.0
 40
3.0
 40
4.0
 40
4.0
 40
4.0
 40
5.0
 40
5.0
 40
5.0
 40
6.0
 40
6.0
 40
6.0
 40
7.0
 40
7.0
 40
7.0
 40
8.0
 40
8.0
 40
8.0
 40
9.0
 40
9.0
 40
9.0
 40
10.0
 40
10.0
 40
10.0
 40
10.0
 10
76.65715413386665
 20
117.6432330634718
 30
0.0
 10
77.10715687466579
 20
117.6149002827437
 30
0.0
 10
77.50561722066003
 20
117.591239416462
 30
0.0
 10
77.94381183556246
 20
117.5675348143757
 30
0.0
 10
78.16290914301368
 20
117.5556825133329
 30
0.0
 10
78.37848835011391
 20
117.5446261314359
 30
0.0
 10
78.59053185477939
 20
117.5344326955328
 30
0.0
 10
78.80257535944422
 20
117.5242392596298
 30
0.0
 10
79.00630147450296
 20
117.5150872066595
 30
0.0
 10
79.2230408014149
 20
117.5062141033873
 30
0.0
 10
79.65651945523847
 20
117.4884678968443
 30
0.0
 10
80.06946214694496
 20
117.474852423027
 30
0.0
 10
80.49705548279739
 20
117.4652009607225
 30
0.0
 10
80.92464881865014
 20
117.455549498418
 30
0.0
 10
81.34824762585708
 20
117.4505470220982
 30
0.0
 10
81.76964469673632
 20
117.4504853094511
 30
0.0
 10
82.19104176761525
 20
117.450423596804
 30
0.0
 10
82.61580396307981
 20
117.4553176316786
 30
0.0
 10
83.04375655563175
 20
117.4648754097537
 30
0.0
 10
83.47170914818366
 20
117.4744331878281
 30
0.0
 10
83.88669283514272
 20
117.4880305560178
 30
0.0
 10
84.32159067170058
 20
117.5057775784318
 30
0.0
 10
84.5390395899795
 20
117.5146510896384
 30
0.0
 10
84.74312944437932
 20
117.5237964758241
 30
0.0
 10
84.95626527935511
 20
117.5340237648193
 30
0.0
 10
85.1694011143309
 20
117.5442510538137
 30
0.0
 10
85.38608583646146
 20
117.555350561017
 30
0.0
 10
85.60630183663193
 20
117.5672537489214
 30
0.0
 10
86.04673383697252
 20
117.5910601247307
 30
0.0
 10
86.4446869079235
 20
117.6146819539598
 30
0.0
 10
86.89815731193241
 20
117.6432330634718
 30
0.0
  0
ENDBLK
  5
43D
330
43A
100
AcDbEntity
  8
0
100
AcDbBlockEnd
  0
BLOCK
  5
441
330
43F
100
AcDbEntity
  8
0
100
AcDbBlockBegin
  2
block 123
 70
     0
 10
0.0
 20
0.0
 30
0.0
  3
block 123
  1

  0
SPLINE
  5
443
330
43F
100
AcDbEntity
  8
PIEZA
 62
     7
420
 16777215
370
     9
100
AcDbSpline
210
0.0
220
0.0
230
1.0
 70
     8
 71
     3
 72
    17
 73
    13
 74
     0
 42
0.0000000001
 43
0.0000000001
 12
1.0
 22
0.0
 32
0.0
 13
1.0
 23
0.0
 33
0.0
 40
0.0
 40
0.0
 40
0.0
 40
0.0
 40
1.0
 40
1.0
 40
1.0
 40
2.0
 40
2.0
 40
2.0
 40
3.0
 40
3.0
 40
3.0
 40
4.0
 40
4.0
 40
4.0
 40
4.0
 10
70.39541207758535
 20
119.2935529972936
 30
0.0
 10
70.80563546810288
 20
118.9844393416209
 30
0.0
 10
71.29515217226341
 20
118.7391581470842
 30
0.0
 10
71.8137352286886
 20
118.5399544183039
 30
0.0
 10
72.33231828511346
 20
118.3407506895243
 30
0.0
 10
72.88044062660175
 20
118.1874737668395
 30
0.0
 10
73.43272502160073
 20
118.0651063580144
 30
0.0
 10
73.98500941660036
 20
117.9427389491901
 30
0.0
 10
74.52836131082017
 20
117.8563148732902
 30
0.0
 10
75.06233855260221
 20
117.7898550529937
 30
0.0
 10
75.59631579438393
 20
117.7233952326965
 30
0.0
 10
76.123664719792
 20
117.6768222779718
 30
0.0
 10
76.65715413386665
 20
117.6432330634718
 30
0.0
  0
ENDBLK
  5
442
330
43F
100
AcDbEntity
  8
0
100
AcDbBlockEnd
  0
BLOCK
  5
446
330
444
100
AcDbEntity
  8
0
100
AcDbBlockBegin
  2
block 124
 70
     0
 10
0.0
 20
0.0
 30
0.0
  3
block 124
  1

  0
SPLINE
  5
448
330
444
100
AcDbEntity
  8
PIEZA
 62
     7
420
 16777215
370
     9
100
AcDbSpline
210
0.0
220
0.0
230
1.0
 70
     8
 71
     3
 72
    17
 73
    13
 74
     0
 42
0.0000000001
 43
0.0000000001
 12
1.0
 22
0.0
 32
0.0
 13
1.0
 23
0.0
 33
0.0
 40
0.0
 40
0.0
 40
0.0
 40
0.0
 40
1.0
 40
1.0
 40
1.0
 40
2.0
 40
2.0
 40
2.0
 40
3.0
 40
3.0
 40
3.0
 40
4.0
 40
4.0
 40
4.0
 40
4.0
 10
76.65742168001589
 20
95.5094863600019
 30
0.0
 10
76.13280816986905
 20
95.47885530594732
 30
0.0
 10
75.60660449291701
 20
95.4399367983958
 30
0.0
 10
75.07031287573696
 20
95.38252469060431
 30
0.0
 10
74.53402125855722
 20
95.32511258281217
 30
0.0
 10
73.99407241303116
 20
95.25159424400047
 30
0.0
 10
73.44978556102228
 20
95.14756982450356
 30
0.0
 10
72.90549870901373
 20
95.0435454050073
 30
0.0
 10
72.35436788454082
 20
94.90726333833801
 30
0.0
 10
71.83084645571994
 20
94.72442577066248
 30
0.0
 10
71.30732502689939
 20
94.54158820298693
 30
0.0
 10
70.81678218590473
 20
94.31556240631674
 30
0.0
 10
70.40870090990904
 20
94.02932043764821
 30
0.0
  0
ENDBLK
  5
447
330
444
100
AcDbEntity
  8
0
100
AcDbBlockEnd
  0
BLOCK
  5
44B
330
449
100
AcDbEntity
  8
0
100
AcDbBlockBegin
  2
block 125
 70
     0
 10
0.0
 20
0.0
 30
0.0
  3
block 125
  1

  0
SPLINE
  5
44D
330
449
100
AcDbEntity
  8
PIEZA
 62
     7
420
 16777215
370
     9
100
AcDbSpline
210
0.0
220
0.0
230
1.0
 70
     8
 71
     3
 72
    17
 73
    13
 74
     0
 42
0.0000000001
 43
0.0000000001
 12
1.0
 22
0.0
 32
0.0
 13
1.0
 23
0.0
 33
0.0
 40
0.0
 40
0.0
 40
0.0
 40
0.0
 40
1.0
 40
1.0
 40
1.0
 40
2.0
 40
2.0
 40
2.0
 40
3.0
 40
3.0
 40
3.0
 40
4.0
 40
4.0
 40
4.0
 40
4.0
 10
86.8978897657867
 20
95.5094863600019
 30
0.0
 10
86.03972240188521
 20
95.55959290593499
 30
0.0
 10
85.18742493356422
 20
95.60399828224334
 30
0.0
 10
84.3346071507824
 20
95.63632578122905
 30
0.0
 10
83.48178936800059
 20
95.6686532802154
 30
0.0
 10
82.63417304805168
 20
95.68782935048947
 30
0.0
 10
81.78530707780354
 20
95.6879390296572
 30
0.0
 10
80.93644110755507
 20
95.6880487088243
 30
0.0
 10
80.08729631978403
 20
95.6690731474333
 30
0.0
 10
79.2310806698726
 20
95.63671849957618
 30
0.0
 10
78.37486501996116
 20
95.60436385171842
 30
0.0
 10
77.51892183802674
 20
95.55978750052957
 30
0.0
 10
76.65742168001589
 20
95.5094863600019
 30
0.0
  0
ENDBLK
  5
44C
330
449
100
AcDbEntity
  8
0
100
AcDbBlockEnd
  0
BLOCK
  5
450
330
44E
100
AcDbEntity
  8
0
100
AcDbBlockBegin
  2
block 126
 70
     0
 10
0.0
 20
0.0
 30
0.0
  3
block 126
  1

  0
SPLINE
  5
452
330
44E
100
AcDbEntity
  8
PIEZA
 62
     7
420
 16777215
370
     9
100
AcDbSpline
210
0.0
220
0.0
230
1.0
 70
     8
 71
     3
 72
    17
 73
    13
 74
     0
 42
0.0000000001
 43
0.0000000001
 12
1.0
 22
0.0
 32
0.0
 13
1.0
 23
0.0
 33
0.0
 40
0.0
 40
0.0
 40
0.0
 40
0.0
 40
1.0
 40
1.0
 40
1.0
 40
2.0
 40
2.0
 40
2.0
 40
3.0
 40
3.0
 40
3.0
 40
4.0
 40
4.0
 40
4.0
 40
4.0
 10
93.14661053589002
 20
94.02932043764821
 30
0.0
 10
92.73547537577352
 20
94.31770450352266
 30
0.0
 10
92.24441882821102
 20
94.54346605743135
 30
0.0
 10
91.72451701091558
 20
94.7243983494758
 30
0.0
 10
91.20461519362046
 20
94.90533064152027
 30
0.0
 10
90.65389165678977
 20
95.04211806818054
 30
0.0
 10
90.1031872262974
 20
95.14845399441478
 30
0.0
 10
89.5524827958047
 20
95.25478992064902
 30
0.0
 10
89.0114317139903
 20
95.3275718402066
 30
0.0
 10
88.48073234503971
 20
95.38349108663624
 30
0.0
 10
87.9500329760891
 20
95.43941033306588
 30
0.0
 10
87.42754038599317
 20
95.47856119997752
 30
0.0
 10
86.8978897657867
 20
95.5094863600019
 30
0.0
  0
ENDBLK
  5
451
330
44E
100
AcDbEntity
  8
0
100
AcDbBlockEnd
  0
BLOCK
  5
455
330
453
100
AcDbEntity
  8
0
100
AcDbBlockBegin
  2
block 127
 70
     0
 10
0.0
 20
0.0
 30
0.0
  3
block 127
  1

  0
SPLINE
  5
457
330
453
100
AcDbEntity
  8
PIEZA
 62
     7
420
 16777215
370
     9
100
AcDbSpline
210
0.0
220
0.0
230
1.0
 70
     8
 71
     3
 72
    17
 73
    13
 74
     0
 42
0.0000000001
 43
0.0000000001
 12
1.0
 22
0.0
 32
0.0
 13
1.0
 23
0.0
 33
0.0
 40
0.0
 40
0.0
 40
0.0
 40
0.0
 40
1.0
 40
1.0
 40
1.0
 40
2.0
 40
2.0
 40
2.0
 40
3.0
 40
3.0
 40
3.0
 40
4.0
 40
4.0
 40
4.0
 40
4.0
 10
87.42116011313541
 20
100.8673670408904
 30
0.0
 10
88.48559390874044
 20
100.8819898840909
 30
0.0
 10
89.4831984547779
 20
100.7870832919929
 30
0.0
 10
90.37704965290607
 20
100.6199626494317
 30
0.0
 10
91.27090085103455
 20
100.4528420068705
 30
0.0
 10
92.06575059125659
 20
100.2136499842534
 30
0.0
 10
92.79999443442237
 20
99.93691700519852
 30
0.0
 10
93.5342382775872
 20
99.66018402614301
 30
0.0
 10
94.19382522294492
 20
99.34807066822263
 30
0.0
 10
94.82236446805388
 20
99.04223144993647
 30
0.0
 10
95.45090371316283
 20
98.73639223164966
 30
0.0
 10
96.05225927380718
 20
98.43551138876347
 30
0.0
 10
96.66798405271587
 20
98.18573930023018
 30
0.0
  0
ENDBLK
  5
456
330
453
100
AcDbEntity
  8
0
100
AcDbBlockEnd
  0
BLOCK
  5
45A
330
458
100
AcDbEntity
  8
0
100
AcDbBlockBegin
  2
block 128
 70
     0
 10
0.0
 20
0.0
 30
0.0
  3
block 128
  1

  0
SPLINE
  5
45C
330
458
100
AcDbEntity
  8
PIEZA
 62
     7
420
 16777215
370
     9
100
AcDbSpline
210
0.0
220
0.0
230
1.0
 70
     8
 71
     3
 72
    17
 73
    13
 74
     0
 42
0.0000000001
 43
0.0000000001
 12
1.0
 22
0.0
 32
0.0
 13
1.0
 23
0.0
 33
0.0
 40
0.0
 40
0.0
 40
0.0
 40
0.0
 40
1.0
 40
1.0
 40
1.0
 40
2.0
 40
2.0
 40
2.0
 40
3.0
 40
3.0
 40
3.0
 40
4.0
 40
4.0
 40
4.0
 40
4.0
 10
96.68127288504309
 20
115.2541253634897
 30
0.0
 10
96.07291667829911
 20
114.9855484000561
 30
0.0
 10
95.47571543894229
 20
114.6674663056509
 30
0.0
 10
94.84312457517602
 20
114.3455618972449
 30
0.0
 10
94.21053371140975
 20
114.0236574888388
 30
0.0
 10
93.55689380771713
 20
113.7020621068582
 30
0.0
 10
92.8344844408575
 20
113.4177598323645
 30
0.0
 10
92.11207507399754
 20
113.1334575578702
 30
0.0
 10
91.31358387292975
 20
112.885402065217
 30
0.0
 10
90.40450637760848
 20
112.7115943951618
 30
0.0
 10
89.49542888228689
 20
112.5377867251066
 30
0.0
 10
88.48673457071773
 20
112.4395197994192
 30
0.0
 10
87.42104801275892
 20
112.4516370043808
 30
0.0
  0
ENDBLK
  5
45B
330
458
100
AcDbEntity
  8
0
100
AcDbBlockEnd
  0
BLOCK
  5
45F
330
45D
100
AcDbEntity
  8
0
100
AcDbBlockBegin
  2
block 129
 70
     0
 10
0.0
 20
0.0
 30
0.0
  3
block 129
  1

  0
SPLINE
  5
461
330
45D
100
AcDbEntity
  8
PIEZA
 62
     7
420
 16777215
370
     9
100
AcDbSpline
210
0.0
220
0.0
230
1.0
 70
     8
 71
     3
 72
    17
 73
    13
 74
     0
 42
0.0000000001
 43
0.0000000001
 12
1.0
 22
0.0
 32
0.0
 13
1.0
 23
0.0
 33
0.0
 40
0.0
 40
0.0
 40
0.0
 40
0.0
 40
1.0
 40
1.0
 40
1.0
 40
2.0
 40
2.0
 40
2.0
 40
3.0
 40
3.0
 40
3.0
 40
4.0
 40
4.0
 40
4.0
 40
4.0
 10
66.88732739308705
 20
98.18573930023018
 30
0.0
 10
67.4985248773016
 20
98.43367486732336
 30
0.0
 10
68.09881548942582
 20
98.73482716113466
 30
0.0
 10
68.73302849250722
 20
99.04225431066047
 30
0.0
 10
69.36724149558862
 20
99.34968146018693
 30
0.0
 10
70.0282079643198
 20
99.66123607017053
 30
0.0
 10
70.75130516138785
 20
99.93624630304697
 30
0.0
 10
71.4744023584562
 20
100.2112565359234
 30
0.0
 10
72.26595711242709
 20
100.451297786148
 30
0.0
 10
73.17017384630459
 20
100.6193907342381
 30
0.0
 10
74.07439058018208
 20
100.7874836823282
 30
0.0
 10
75.07981513302738
 20
100.8818511665144
 30
0.0
 10
76.13415133266398
 20
100.8673670408904
 30
0.0
  0
ENDBLK
  5
460
330
45D
100
AcDbEntity
  8
0
100
AcDbBlockEnd
  0
BLOCK
  5
464
330
462
100
AcDbEntity
  8
0
100
AcDbBlockBegin
  2
block 130
 70
     0
 10
0.0
 20
0.0
 30
0.0
  3
block 130
  1

  0
SPLINE
  5
466
330
462
100
AcDbEntity
  8
PIEZA
 62
     7
420
 16777215
370
     9
100
AcDbSpline
210
0.0
220
0.0
230
1.0
 70
     8
 71
     3
 72
    17
 73
    13
 74
     0
 42
0.0000000001
 43
0.0000000001
 12
1.0
 22
0.0
 32
0.0
 13
1.0
 23
0.0
 33
0.0
 40
0.0
 40
0.0
 40
0.0
 40
0.0
 40
1.0
 40
1.0
 40
1.0
 40
2.0
 40
2.0
 40
2.0
 40
3.0
 40
3.0
 40
3.0
 40
4.0
 40
4.0
 40
4.0
 40
4.0
 10
76.13426343304432
 20
112.4516370043808
 30
0.0
 10
75.06228580148658
 20
112.4394482588773
 30
0.0
 10
74.05557333040392
 20
112.5383191506271
 30
0.0
 10
73.15650555545406
 20
112.711133141257
 30
0.0
 10
72.2574377805042
 20
112.8839471318869
 30
0.0
 10
71.45998819282092
 20
113.1304911964572
 30
0.0
 10
70.72461799345248
 20
113.4170560011005
 30
0.0
 10
69.98924779408405
 20
113.7036208057439
 30
0.0
 10
69.33554928455878
 20
114.0264146022493
 30
0.0
 10
68.71033363554879
 20
114.3461315869312
 30
0.0
 10
68.08511798653879
 20
114.6658485716138
 30
0.0
 10
67.48719831999782
 20
114.9834277251409
 30
0.0
 10
66.8740385607595
 20
115.2541253634897
 30
0.0
  0
ENDBLK
  5
465
330
462
100
AcDbEntity
  8
0
100
AcDbBlockEnd
  0
BLOCK
  5
469
330
467
100
AcDbEntity
  8
0
100
AcDbBlockBegin
  2
block 131
 70
     0
 10
0.0
 20
0.0
 30
0.0
  3
block 131
  1

  0
SPLINE
  5
46B
330
467
100
AcDbEntity
  8
PIEZA
 62
     7
420
 16777215
370
     9
100
AcDbSpline
210
0.0
220
0.0
230
1.0
 70
     8
 71
     3
 72
    17
 73
    13
 74
     0
 42
0.0000000001
 43
0.0000000001
 12
1.0
 22
0.0
 32
0.0
 13
1.0
 23
0.0
 33
0.0
 40
0.0
 40
0.0
 40
0.0
 40
0.0
 40
1.0
 40
1.0
 40
1.0
 40
2.0
 40
2.0
 40
2.0
 40
3.0
 40
3.0
 40
3.0
 40
4.0
 40
4.0
 40
4.0
 40
4.0
 10
76.13415133266398
 20
100.8673670408904
 30
0.0
 10
77.03808692577253
 20
100.8761715331013
 30
0.0
 10
77.95303893518121
 20
100.87156434052
 30
0.0
 10
78.89751100075208
 20
100.8600714189674
 30
0.0
 10
79.84198306632295
 20
100.8485784974142
 30
0.0
 10
80.81215715460233
 20
100.8329178628749
 30
0.0
 10
81.78643751822356
 20
100.8329972836729
 30
0.0
 10
82.7607178818448
 20
100.8330767044702
 30
0.0
 10
83.72874853671186
 20
100.8488032728215
 30
0.0
 10
84.66924500480616
 20
100.8602104568082
 30
0.0
 10
85.60974147290045
 20
100.8716176407956
 30
0.0
 10
86.52071105455268
 20
100.876137573774
 30
0.0
 10
87.42116011313541
 20
100.8673670408904
 30
0.0
  0
ENDBLK
  5
46A
330
467
100
AcDbEntity
  8
0
100
AcDbBlockEnd
  0
BLOCK
  5
46E
330
46C
100
AcDbEntity
  8
0
100
AcDbBlockBegin
  2
block 132
 70
     0
 10
0.0
 20
0.0
 30
0.0
  3
block 132
  1

  0
SPLINE
  5
470
330
46C
100
AcDbEntity
  8
PIEZA
 62
     7
420
 16777215
370
     9
100
AcDbSpline
210
0.0
220
0.0
230
1.0
 70
     8
 71
     3
 72
    35
 73
    31
 74
     0
 42
0.0000000001
 43
0.0000000001
 12
1.0
 22
0.0
 32
0.0
 13
1.0
 23
0.0
 33
0.0
 40
0.0
 40
0.0
 40
0.0
 40
0.0
 40
1.0
 40
1.0
 40
1.0
 40
2.0
 40
2.0
 40
2.0
 40
3.0
 40
3.0
 40
3.0
 40
4.0
 40
4.0
 40
4.0
 40
5.0
 40
5.0
 40
5.0
 40
6.0
 40
6.0
 40
6.0
 40
7.0
 40
7.0
 40
7.0
 40
8.0
 40
8.0
 40
8.0
 40
9.0
 40
9.0
 40
9.0
 40
10.0
 40
10.0
 40
10.0
 40
10.0
 10
87.42104801275892
 20
112.4516370043808
 30
0.0
 10
86.94496125508792
 20
112.4448046482008
 30
0.0
 10
86.52390041136503
 20
112.4418108476528
 30
0.0
 10
86.0516432635088
 20
112.4415056552412
 30
0.0
 10
85.81551468958068
 20
112.4413530590357
 30
0.0
 10
85.58162600862342
 20
112.4419851624196
 30
0.0
 10
85.34993963381007
 20
112.4432040676851
 30
0.0
 10
85.11825325899642
 20
112.4444229729513
 30
0.0
 10
84.89486138836713
 20
112.4461637553338
 30
0.0
 10
84.6550141877777
 20
112.4484120845297
 30
0.0
 10
84.17531978659883
 20
112.4529087429229
 30
0.0
 10
83.71029600312231
 20
112.4587680304803
 30
0.0
 10
83.22498741029524
 20
112.4634987095545
 30
0.0
 10
82.73967881746816
 20
112.4682293886288
 30
0.0
 10
82.25219622455023
 20
112.4713786340178
 30
0.0
 10
81.76845957855288
 20
112.4713418045375
 30
0.0
 10
81.28472293255523
 20
112.4713049750573
 30
0.0
 10
80.79865902515107
 20
112.4680938445915
 30
0.0
 10
80.31388348436346
 20
112.4633379327778
 30
0.0
 10
79.82910794357585
 20
112.4585820209648
 30
0.0
 10
79.36652814303078
 20
112.4527584280499
 30
0.0
 10
78.88851866986963
 20
112.4483019719886
 30
0.0
 10
78.64951393328938
 20
112.446073743958
 30
0.0
 10
78.42657267608406
 20
112.4443524036684
 30
0.0
 10
78.19611732264994
 20
112.4431556950935
 30
0.0
 10
77.96566196921582
 20
112.4419589865179
 30
0.0
 10
77.73300007095281
 20
112.4413454281901
 30
0.0
 10
77.49809510883055
 20
112.4415094011029
 30
0.0
 10
77.02828518458603
 20
112.4418373469297
 30
0.0
 10
76.606687923906
 20
112.4448572057091
 30
0.0
 10
76.13426343304432
 20
112.4516370043808
 30
0.0
  0
ENDBLK
  5
46F
330
46C
100
AcDbEntity
  8
0
100
AcDbBlockEnd
  0
BLOCK
  5
473
330
471
100
AcDbEntity
  8
0
100
AcDbBlockBegin
  2
block 133
 70
     0
 10
0.0
 20
0.0
 30
0.0
  3
block 133
  1

  0
SPLINE
  5
475
330
471
100
AcDbEntity
  8
PIEZA
 62
     7
420
 16777215
370
     9
100
AcDbSpline
210
0.0
220
0.0
230
1.0
 70
    11
 71
     3
 72
    20
 73
    16
 74
     0
 42
0.0000000001
 43
0.0000000001
 12
1.0
 22
0.0
 32
0.0
 13
1.0
 23
0.0
 33
0.0
 40
0.0
 40
0.0
 40
0.0
 40
0.0
 40
1.0
 40
1.0
 40
1.0
 40
2.0
 40
2.0
 40
2.0
 40
3.0
 40
3.0
 40
3.0
 40
4.0
 40
4.0
 40
4.0
 40
5.0
 40
5.0
 40
5.0
 40
5.0
 10
85.76499485150747
 20
106.6554628142892
 30
0.0
 10
85.76499485150747
 20
104.4536516187484
 30
0.0
 10
83.9798023160343
 20
102.6687309767452
 30
0.0
 10
81.7776557229013
 20
102.6687309767452
 30
0.0
 10
79.57550912976863
 20
102.6687309767452
 30
0.0
 10
77.79031659429513
 20
104.4536516187484
 30
0.0
 10
77.79031659429513
 20
106.6554628142892
 30
0.0
 10
77.79031659429513
 20
108.8572740098293
 30
0.0
 10
79.57550912976863
 20
110.6421946518325
 30
0.0
 10
81.7776557229013
 20
110.6421946518325
 30
0.0
 10
83.9798023160343
 20
110.6421946518325
 30
0.0
 10
85.76499485150747
 20
108.8572740098293
 30
0.0
 10
85.76499485150747
 20
106.6554628142892
 30
0.0
 10
85.76499485150747
 20
106.6554628142892
 30
0.0
 10
85.76499485150747
 20
106.6554628142892
 30
0.0
 10
85.76499485150747
 20
106.6554628142892
 30
0.0
  0
ENDBLK
  5
474
330
471
100
AcDbEntity
  8
0
100
AcDbBlockEnd
  0
BLOCK
  5
478
330
476
100
AcDbEntity
  8
0
100
AcDbBlockBegin
  2
block 134
 70
     0
 10
0.0
 20
0.0
 30
0.0
  3
block 134
  1

  0
SPLINE
  5
47A
330
476
100
AcDbEntity
  8
PIEZA
 62
     7
420
 16777215
370
     9
100
AcDbSpline
210
0.0
220
0.0
230
1.0
 70
    11
 71
     3
 72
    20
 73
    16
 74
     0
 42
0.0000000001
 43
0.0000000001
 12
1.0
 22
0.0
 32
0.0
 13
1.0
 23
0.0
 33
0.0
 40
0.0
 40
0.0
 40
0.0
 40
0.0
 40
1.0
 40
1.0
 40
1.0
 40
2.0
 40
2.0
 40
2.0
 40
3.0
 40
3.0
 40
3.0
 40
4.0
 40
4.0
 40
4.0
 40
5.0
 40
5.0
 40
5.0
 40
5.0
 10
85.66066628139254
 20
106.6554628142892
 30
0.0
 10
85.66066628139254
 20
104.5112619213298
 30
0.0
 10
83.92218323778792
 20
102.7730436571133
 30
0.0
 10
81.7776557229013
 20
102.7730436571133
 30
0.0
 10
79.63312820801467
 20
102.7730436571133
 30
0.0
 10
77.89464516441005
 20
104.5112619213298
 30
0.0
 10
77.89464516441005
 20
106.6554628142892
 30
0.0
 10
77.89464516441005
 20
108.7996637072479
 30
0.0
 10
79.63312820801467
 20
110.5378819714644
 30
0.0
 10
81.7776557229013
 20
110.5378819714644
 30
0.0
 10
83.92218323778792
 20
110.5378819714644
 30
0.0
 10
85.66066628139254
 20
108.7996637072479
 30
0.0
 10
85.66066628139254
 20
106.6554628142892
 30
0.0
 10
85.66066628139254
 20
106.6554628142892
 30
0.0
 10
85.66066628139254
 20
106.6554628142892
 30
0.0
 10
85.66066628139254
 20
106.6554628142892
 30
0.0
  0
ENDBLK
  5
479
330
476
100
AcDbEntity
  8
0
100
AcDbBlockEnd
  0
BLOCK
  5
47D
330
47B
100
AcDbEntity
  8
0
100
AcDbBlockBegin
  2
block 135
 70
     0
 10
0.0
 20
0.0
 30
0.0
  3
block 135
  1

  0
SPLINE
  5
47F
330
47B
100
AcDbEntity
  8
PIEZA
 62
     7
420
 16777215
370
     9
100
AcDbSpline
210
0.0
220
0.0
230
1.0
 70
    11
 71
     3
 72
    20
 73
    16
 74
     0
 42
0.0000000001
 43
0.0000000001
 12
1.0
 22
0.0
 32
0.0
 13
1.0
 23
0.0
 33
0.0
 40
0.0
 40
0.0
 40
0.0
 40
0.0
 40
1.0
 40
1.0
 40
1.0
 40
2.0
 40
2.0
 40
2.0
 40
3.0
 40
3.0
 40
3.0
 40
4.0
 40
4.0
 40
4.0
 40
5.0
 40
5.0
 40
5.0
 40
5.0
 10
83.98805724075164
 20
106.6554628142892
 30
0.0
 10
83.98805724075164
 20
105.4348776943211
 30
0.0
 10
82.99842677221262
 20
104.4453979512963
 30
0.0
 10
81.7776557229013
 20
104.4453979512963
 30
0.0
 10
80.55688467358998
 20
104.4453979512963
 30
0.0
 10
79.56725420505128
 20
105.4348776943211
 30
0.0
 10
79.56725420505128
 20
106.6554628142892
 30
0.0
 10
79.56725420505128
 20
107.8760479342566
 30
0.0
 10
80.55688467358998
 20
108.8655276772814
 30
0.0
 10
81.7776557229013
 20
108.8655276772814
 30
0.0
 10
82.99842677221262
 20
108.8655276772814
 30
0.0
 10
83.98805724075164
 20
107.8760479342566
 30
0.0
 10
83.98805724075164
 20
106.6554628142892
 30
0.0
 10
83.98805724075164
 20
106.6554628142892
 30
0.0
 10
83.98805724075164
 20
106.6554628142892
 30
0.0
 10
83.98805724075164
 20
106.6554628142892
 30
0.0
  0
ENDBLK
  5
47E
330
47B
100
AcDbEntity
  8
0
100
AcDbBlockEnd
  0
BLOCK
  5
482
330
480
100
AcDbEntity
  8
0
100
AcDbBlockBegin
  2
block 136
 70
     0
 10
0.0
 20
0.0
 30
0.0
  3
block 136
  1

  0
SPLINE
  5
484
330
480
100
AcDbEntity
  8
PIEZA
 62
     7
420
 16777215
370
     9
100
AcDbSpline
210
0.0
220
0.0
230
1.0
 70
     8
 71
     3
 72
    11
 73
     7
 74
     0
 42
0.0000000001
 43
0.0000000001
 12
1.0
 22
0.0
 32
0.0
 13
1.0
 23
0.0
 33
0.0
 40
0.0
 40
0.0
 40
0.0
 40
0.0
 40
1.0
 40
1.0
 40
1.0
 40
2.0
 40
2.0
 40
2.0
 40
2.0
 10
103.5831169478541
 20
192.8232735580992
 30
0.0
 10
103.5886748763377
 20
193.1416385717361
 30
0.0
 10
103.3350553172424
 20
193.4042293134157
 30
0.0
 10
103.0166418076857
 20
193.4097863953997
 30
0.0
 10
103.0132876204389
 20
193.4098449340385
 30
0.0
 10
103.0099329861265
 20
193.4098742050301
 30
0.0
 10
103.0065782879429
 20
193.4098742050301
 30
0.0
  0
ENDBLK
  5
483
330
480
100
AcDbEntity
  8
0
100
AcDbBlockEnd
  0
BLOCK
  5
487
330
485
100
AcDbEntity
  8
0
100
AcDbBlockBegin
  2
block 137
 70
     0
 10
0.0
 20
0.0
 30
0.0
  3
block 137
  1

  0
POLYLINE
  5
489
330
485
100
AcDbEntity
  8
PIEZA
 62
     7
420
 16777215
370
     9
100
AcDb2dPolyline
 66
     1
 10
0.0
 20
0.0
 30
0.0
  0
VERTEX
  5
48A
330
489
100
AcDbEntity
  8
PIEZA
 62
     7
420
 16777215
370
     9
100
AcDbVertex
100
AcDb2dVertex
 10
103.3970009923984
 20
181.2014415690534
 30
0.0
  0
VERTEX
  5
48B
330
489
100
AcDbEntity
  8
PIEZA
 62
     7
420
 16777215
370
     9
100
AcDbVertex
100
AcDb2dVertex
 10
103.5831167629357
 20
192.8232732302356
 30
0.0
  0
SEQEND
  5
48C
330
489
100
AcDbEntity
  8
PIEZA
 62
     7
420
 16777215
370
     9
  0
ENDBLK
  5
488
330
485
100
AcDbEntity
  8
0
100
AcDbBlockEnd
  0
BLOCK
  5
48F
330
48D
100
AcDbEntity
  8
0
100
AcDbBlockBegin
  2
block 138
 70
     0
 10
0.0
 20
0.0
 30
0.0
  3
block 138
  1

  0
SPLINE
  5
491
330
48D
100
AcDbEntity
  8
PIEZA
 62
     7
420
 16777215
370
     9
100
AcDbSpline
210
0.0
220
0.0
230
1.0
 70
     8
 71
     3
 72
     8
 73
     4
 74
     0
 42
0.0000000001
 43
0.0000000001
 12
1.0
 22
0.0
 32
0.0
 13
1.0
 23
0.0
 33
0.0
 40
0.0
 40
0.0
 40
0.0
 40
0.0
 40
1.0
 40
1.0
 40
1.0
 40
1.0
 10
103.1087319726699
 20
180.9182032402894
 30
0.0
 10
103.2660013877034
 20
180.9182032402894
 30
0.0
 10
103.3942565728743
 20
181.0442200638403
 30
0.0
 10
103.3970013026255
 20
181.2014415767348
 30
0.0
  0
ENDBLK
  5
490
330
48D
100
AcDbEntity
  8
0
100
AcDbBlockEnd
  0
BLOCK
  5
494
330
492
100
AcDbEntity
  8
0
100
AcDbBlockBegin
  2
block 139
 70
     0
 10
0.0
 20
0.0
 30
0.0
  3
block 139
  1

  0
SPLINE
  5
496
330
492
100
AcDbEntity
  8
PIEZA
 62
     7
420
 16777215
370
     9
100
AcDbSpline
210
0.0
220
0.0
230
1.0
 70
     8
 71
     3
 72
     8
 73
     4
 74
     0
 42
0.0000000001
 43
0.0000000001
 12
1.0
 22
0.0
 32
0.0
 13
1.0
 23
0.0
 33
0.0
 40
0.0
 40
0.0
 40
0.0
 40
0.0
 40
1.0
 40
1.0
 40
1.0
 40
1.0
 10
60.15831014317705
 20
181.2014415767351
 30
0.0
 10
60.16105487292829
 20
181.0442200638403
 30
0.0
 10
60.28931005809883
 20
180.918203240289
 30
0.0
 10
60.44657947313266
 20
180.918203240289
 30
0.0
  0
ENDBLK
  5
495
330
492
100
AcDbEntity
  8
0
100
AcDbBlockEnd
  0
BLOCK
  5
499
330
497
100
AcDbEntity
  8
0
100
AcDbBlockBegin
  2
block 140
 70
     0
 10
0.0
 20
0.0
 30
0.0
  3
block 140
  1

  0
POLYLINE
  5
49B
330
497
100
AcDbEntity
  8
PIEZA
 62
     7
420
 16777215
370
     9
100
AcDb2dPolyline
 66
     1
 10
0.0
 20
0.0
 30
0.0
  0
VERTEX
  5
49C
330
49B
100
AcDbEntity
  8
PIEZA
 62
     7
420
 16777215
370
     9
100
AcDbVertex
100
AcDb2dVertex
 10
60.15831045340421
 20
181.2014415690534
 30
0.0
  0
VERTEX
  5
49D
330
49B
100
AcDbEntity
  8
PIEZA
 62
     7
420
 16777215
370
     9
100
AcDbVertex
100
AcDb2dVertex
 10
59.97219468286725
 20
192.8232732302356
 30
0.0
  0
SEQEND
  5
49E
330
49B
100
AcDbEntity
  8
PIEZA
 62
     7
420
 16777215
370
     9
  0
ENDBLK
  5
49A
330
497
100
AcDbEntity
  8
0
100
AcDbBlockEnd
  0
BLOCK
  5
4A1
330
49F
100
AcDbEntity
  8
0
100
AcDbBlockBegin
  2
block 141
 70
     0
 10
0.0
 20
0.0
 30
0.0
  3
block 141
  1

  0
SPLINE
  5
4A3
330
49F
100
AcDbEntity
  8
PIEZA
 62
     7
420
 16777215
370
     9
100
AcDbSpline
210
0.0
220
0.0
230
1.0
 70
     8
 71
     3
 72
    11
 73
     7
 74
     0
 42
0.0000000001
 43
0.0000000001
 12
1.0
 22
0.0
 32
0.0
 13
1.0
 23
0.0
 33
0.0
 40
0.0
 40
0.0
 40
0.0
 40
0.0
 40
1.0
 40
1.0
 40
1.0
 40
2.0
 40
2.0
 40
2.0
 40
2.0
 10
60.54873315785652
 20
193.4098742050301
 30
0.0
 10
60.23027114499249
 20
193.4098742050301
 30
0.0
 10
59.97210667493873
 20
193.1517490546759
 30
0.0
 10
59.97210667493873
 20
192.8333355451192
 30
0.0
 10
59.97210667493873
 20
192.8299813578727
 30
0.0
 10
59.97213595038888
 20
192.8266272344871
 30
0.0
 10
59.9721944979453
 20
192.8232735580999
 30
0.0
  0
ENDBLK
  5
4A2
330
49F
100
AcDbEntity
  8
0
100
AcDbBlockEnd
  0
BLOCK
  5
4A6
330
4A4
100
AcDbEntity
  8
0
100
AcDbBlockBegin
  2
block 142
 70
     0
 10
0.0
 20
0.0
 30
0.0
  3
block 142
  1

  0
POLYLINE
  5
4A8
330
4A4
100
AcDbEntity
  8
PIEZA
 62
     7
420
 16777215
370
     9
100
AcDb2dPolyline
 66
     1
 10
0.0
 20
0.0
 30
0.0
  0
VERTEX
  5
4A9
330
4A8
100
AcDbEntity
  8
PIEZA
 62
     7
420
 16777215
370
     9
100
AcDbVertex
100
AcDb2dVertex
 10
103.1087319726699
 20
180.918203240289
 30
0.0
  0
VERTEX
  5
4AA
330
4A8
100
AcDbEntity
  8
PIEZA
 62
     7
420
 16777215
370
     9
100
AcDbVertex
100
AcDb2dVertex
 10
60.44657947313266
 20
180.918203240289
 30
0.0
  0
SEQEND
  5
4AB
330
4A8
100
AcDbEntity
  8
PIEZA
 62
     7
420
 16777215
370
     9
  0
ENDBLK
  5
4A7
330
4A4
100
AcDbEntity
  8
0
100
AcDbBlockEnd
  0
BLOCK
  5
4AE
330
4AC
100
AcDbEntity
  8
0
100
AcDbBlockBegin
  2
block 143
 70
     0
 10
0.0
 20
0.0
 30
0.0
  3
block 143
  1

  0
POLYLINE
  5
4B0
330
4AC
100
AcDbEntity
  8
PIEZA
 62
     7
420
 16777215
370
     9
100
AcDb2dPolyline
 66
     1
 10
0.0
 20
0.0
 30
0.0
  0
VERTEX
  5
4B1
330
4B0
100
AcDbEntity
  8
PIEZA
 62
     7
420
 16777215
370
     9
100
AcDbVertex
100
AcDb2dVertex
 10
60.54873315785652
 20
193.4098742050304
 30
0.0
  0
VERTEX
  5
4B2
330
4B0
100
AcDbEntity
  8
PIEZA
 62
     7
420
 16777215
370
     9
100
AcDbVertex
100
AcDb2dVertex
 10
103.0065782879429
 20
193.4098742050304
 30
0.0
  0
SEQEND
  5
4B3
330
4B0
100
AcDbEntity
  8
PIEZA
 62
     7
420
 16777215
370
     9
  0
ENDBLK
  5
4AF
330
4AC
100
AcDbEntity
  8
0
100
AcDbBlockEnd
  0
BLOCK
  5
4B7
330
4B5
100
AcDbEntity
  8
0
100
AcDbBlockBegin
  2
block 144
 70
     0
 10
0.0
 20
0.0
 30
0.0
  3
block 144
  1

  0
POLYLINE
  5
4B9
330
4B5
100
AcDbEntity
  8
Eixos
  6
AI-Linetype-1
 62
     7
420
 16777215
370
     9
100
AcDb2dPolyline
 66
     1
 10
0.0
 20
0.0
 30
0.0
  0
VERTEX
  5
4BA
330
4B9
100
AcDbEntity
  8
Eixos
  6
AI-Linetype-1
 62
     7
420
 16777215
370
     9
100
AcDbVertex
100
AcDb2dVertex
 10
157.1668086636404
 20
185.0912860360463
 30
0.0
  0
VERTEX
  5
4BB
330
4B9
100
AcDbEntity
  8
Eixos
  6
AI-Linetype-1
 62
     7
420
 16777215
370
     9
100
AcDbVertex
100
AcDb2dVertex
 10
157.1668086636404
 20
179.8270638211548
 30
0.0
  0
SEQEND
  5
4BD
330
4B9
100
AcDbEntity
  8
Eixos
  6
AI-Linetype-1
 62
     7
420
 16777215
370
     9
  0
ENDBLK
  5
4B8
330
4B5
100
AcDbEntity
  8
0
100
AcDbBlockEnd
  0
BLOCK
  5
4C0
330
4BE
100
AcDbEntity
  8
0
100
AcDbBlockBegin
  2
block 145
 70
     0
 10
0.0
 20
0.0
 30
0.0
  3
block 145
  1

  0
POLYLINE
  5
4C2
330
4BE
100
AcDbEntity
  8
Eixos
  6
AI-Linetype-2
 62
     7
420
 16777215
370
     9
100
AcDb2dPolyline
 66
     1
 10
0.0
 20
0.0
 30
0.0
  0
VERTEX
  5
4C3
330
4C2
100
AcDbEntity
  8
Eixos
  6
AI-Linetype-2
 62
     7
420
 16777215
370
     9
100
AcDbVertex
100
AcDb2dVertex
 10
88.39218708226724
 20
106.6554628142892
 30
0.0
  0
VERTEX
  5
4C4
330
4C2
100
AcDbEntity
  8
Eixos
  6
AI-Linetype-2
 62
     7
420
 16777215
370
     9
100
AcDbVertex
100
AcDb2dVertex
 10
75.16312436353182
 20
106.6554628142892
 30
0.0
  0
SEQEND
  5
4C6
330
4C2
100
AcDbEntity
  8
Eixos
  6
AI-Linetype-2
 62
     7
420
 16777215
370
     9
  0
ENDBLK
  5
4C1
330
4BE
100
AcDbEntity
  8
0
100
AcDbBlockEnd
  0
BLOCK
  5
4C9
330
4C7
100
AcDbEntity
  8
0
100
AcDbBlockBegin
  2
block 146
 70
     0
 10
0.0
 20
0.0
 30
0.0
  3
block 146
  1

  0
POLYLINE
  5
4CB
330
4C7
100
AcDbEntity
  8
Eixos
  6
AI-Linetype-3
 62
     7
420
 16777215
370
     9
100
AcDb2dPolyline
 66
     1
 10
0.0
 20
0.0
 30
0.0
  0
VERTEX
  5
4CC
330
4CB
100
AcDbEntity
  8
Eixos
  6
AI-Linetype-3
 62
     7
420
 16777215
370
     9
100
AcDbVertex
100
AcDb2dVertex
 10
81.7776557229013
 20
114.0335546989
 30
0.0
  0
VERTEX
  5
4CD
330
4CB
100
AcDbEntity
  8
Eixos
  6
AI-Linetype-3
 62
     7
420
 16777215
370
     9
100
AcDbVertex
100
AcDb2dVertex
 10
81.7776557229013
 20
100.0419388800851
 30
0.0
  0
SEQEND
  5
4CF
330
4CB
100
AcDbEntity
  8
Eixos
  6
AI-Linetype-3
 62
     7
420
 16777215
370
     9
  0
ENDBLK
  5
4CA
330
4C7
100
AcDbEntity
  8
0
100
AcDbBlockEnd
  0
BLOCK
  5
4D5
330
4D3
100
AcDbEntity
  8
0
100
AcDbBlockBegin
  2
block 147
 70
     0
 10
0.0
 20
0.0
 30
0.0
  3
block 147
  1

  0
POLYLINE
  5
4D7
330
4D3
100
AcDbEntity
  8
COTAS
 62
     7
420
 16777215
370
     9
100
AcDb2dPolyline
 66
     1
 10
0.0
 20
0.0
 30
0.0
  0
VERTEX
  5
4D8
330
4D7
100
AcDbEntity
  8
COTAS
 62
     7
420
 16777215
370
     9
100
AcDbVertex
100
AcDb2dVertex
 10
60.54873354617524
 20
132.7918820635931
 30
0.0
  0
VERTEX
  5
4D9
330
4D7
100
AcDbEntity
  8
COTAS
 62
     7
420
 16777215
370
     9
100
AcDbVertex
100
AcDb2dVertex
 10
47.68357677122336
 20
132.7918820635931
 30
0.0
  0
SEQEND
  5
4DA
330
4D7
100
AcDbEntity
  8
COTAS
 62
     7
420
 16777215
370
     9
  0
ENDBLK
  5
4D6
330
4D3
100
AcDbEntity
  8
0
100
AcDbBlockEnd
  0
BLOCK
  5
4DD
330
4DB
100
AcDbEntity
  8
0
100
AcDbBlockBegin
  2
block 148
 70
     0
 10
0.0
 20
0.0
 30
0.0
  3
block 148
  1

  0
POLYLINE
  5
4DF
330
4DB
100
AcDbEntity
  8
COTAS
 62
     7
420
 16777215
370
     9
100
AcDb2dPolyline
 66
     1
 10
0.0
 20
0.0
 30
0.0
  0
VERTEX
  5
4E0
330
4DF
100
AcDbEntity
  8
COTAS
 62
     7
420
 16777215
370
     9
100
AcDbVertex
100
AcDb2dVertex
 10
60.54873354617524
 20
89.36945435970414
 30
0.0
  0
VERTEX
  5
4E1
330
4DF
100
AcDbEntity
  8
COTAS
 62
     7
420
 16777215
370
     9
100
AcDbVertex
100
AcDb2dVertex
 10
47.68357677122336
 20
89.36945435970414
 30
0.0
  0
SEQEND
  5
4E2
330
4DF
100
AcDbEntity
  8
COTAS
 62
     7
420
 16777215
370
     9
  0
ENDBLK
  5
4DE
330
4DB
100
AcDbEntity
  8
0
100
AcDbBlockEnd
  0
BLOCK
  5
4E5
330
4E3
100
AcDbEntity
  8
0
100
AcDbBlockBegin
  2
block 149
 70
     0
 10
0.0
 20
0.0
 30
0.0
  3
block 149
  1

  0
POLYLINE
  5
4E7
330
4E3
100
AcDbEntity
  8
COTAS
 62
     7
420
 16777215
370
     9
100
AcDb2dPolyline
 66
     1
 10
0.0
 20
0.0
 30
0.0
  0
VERTEX
  5
4E8
330
4E7
100
AcDbEntity
  8
COTAS
 62
     7
420
 16777215
370
     9
100
AcDbVertex
100
AcDb2dVertex
 10
49.12514297851706
 20
129.4287398807784
 30
0.0
  0
VERTEX
  5
4E9
330
4E7
100
AcDbEntity
  8
COTAS
 62
     7
420
 16777215
370
     9
100
AcDbVertex
100
AcDb2dVertex
 10
49.12514297851706
 20
92.73259654251885
 30
0.0
  0
SEQEND
  5
4EA
330
4E7
100
AcDbEntity
  8
COTAS
 62
     7
420
 16777215
370
     9
  0
ENDBLK
  5
4E6
330
4E3
100
AcDbEntity
  8
0
100
AcDbBlockEnd
  0
BLOCK
  5
4ED
330
4EB
100
AcDbEntity
  8
0
100
AcDbBlockBegin
  2
block 150
 70
     0
 10
0.0
 20
0.0
 30
0.0
  3
block 150
  1

  0
POLYLINE
  5
4EF
330
4EB
100
AcDbEntity
  8
COTAS
370
     0
100
AcDb2dPolyline
 66
     1
 10
0.0
 20
0.0
 30
0.0
  0
VERTEX
  5
4F0
330
4EF
100
AcDbEntity
  8
COTAS
370
     0
100
AcDbVertex
100
AcDb2dVertex
 10
49.68575205913111
 20
129.4287398807784
 30
0.0
  0
VERTEX
  5
4F1
330
4EF
100
AcDbEntity
  8
COTAS
370
     0
100
AcDbVertex
100
AcDb2dVertex
 10
49.12514297851706
 20
132.7918820635931
 30
0.0
  0
VERTEX
  5
4F2
330
4EF
100
AcDbEntity
  8
COTAS
370
     0
100
AcDbVertex
100
AcDb2dVertex
 10
48.56453389790268
 20
129.4287398807784
 30
0.0
  0
VERTEX
  5
4F3
330
4EF
100
AcDbEntity
  8
COTAS
370
     0
100
AcDbVertex
100
AcDb2dVertex
 10
49.68575205913111
 20
129.4287398807784
 30
0.0
  0
SEQEND
  5
4F5
330
4EF
100
AcDbEntity
  8
COTAS
370
     0
  0
HATCH
  5
4F4
330
4EB
100
AcDbEntity
  8
COTAS
 62
     7
420
 16777215
100
AcDbHatch
 10
0.0
 20
0.0
 30
0.0
210
0.0
220
0.0
230
1.0
  2
SOLID
 70
     1
 71
     0
 91
        1
 92
        1
 93
        3
 72
     1
 10
49.68575205913111
 20
129.4287398807784
 11
49.12514297851706
 21
132.7918820635931
 72
     1
 10
49.12514297851706
 20
132.7918820635931
 11
48.56453389790268
 21
129.4287398807784
 72
     1
 10
48.56453389790268
 20
129.4287398807784
 11
49.68575205913111
 21
129.4287398807784
 97
        0
 75
     2
 76
     1
 98
        0
  0
ENDBLK
  5
4EE
330
4EB
100
AcDbEntity
  8
0
100
AcDbBlockEnd
  0
BLOCK
  5
4F8
330
4F6
100
AcDbEntity
  8
0
100
AcDbBlockBegin
  2
block 151
 70
     0
 10
0.0
 20
0.0
 30
0.0
  3
block 151
  1

  0
POLYLINE
  5
4FA
330
4F6
100
AcDbEntity
  8
COTAS
370
     0
100
AcDb2dPolyline
 66
     1
 10
0.0
 20
0.0
 30
0.0
  0
VERTEX
  5
4FB
330
4FA
100
AcDbEntity
  8
COTAS
370
     0
100
AcDbVertex
100
AcDb2dVertex
 10
48.56453389790268
 20
92.73259654251885
 30
0.0
  0
VERTEX
  5
4FC
330
4FA
100
AcDbEntity
  8
COTAS
370
     0
100
AcDbVertex
100
AcDb2dVertex
 10
49.12514297851706
 20
89.36945435970414
 30
0.0
  0
VERTEX
  5
4FD
330
4FA
100
AcDbEntity
  8
COTAS
370
     0
100
AcDbVertex
100
AcDb2dVertex
 10
49.68575205913111
 20
92.73259654251885
 30
0.0
  0
VERTEX
  5
4FE
330
4FA
100
AcDbEntity
  8
COTAS
370
     0
100
AcDbVertex
100
AcDb2dVertex
 10
48.56453389790268
 20
92.73259654251885
 30
0.0
  0
SEQEND
  5
500
330
4FA
100
AcDbEntity
  8
COTAS
370
     0
  0
HATCH
  5
4FF
330
4F6
100
AcDbEntity
  8
COTAS
 62
     7
420
 16777215
100
AcDbHatch
 10
0.0
 20
0.0
 30
0.0
210
0.0
220
0.0
230
1.0
  2
SOLID
 70
     1
 71
     0
 91
        1
 92
        1
 93
        3
 72
     1
 10
48.56453389790268
 20
92.73259654251885
 11
49.12514297851706
 21
89.36945435970414
 72
     1
 10
49.12514297851706
 20
89.36945435970414
 11
49.68575205913111
 21
92.73259654251885
 72
     1
 10
49.68575205913111
 20
92.73259654251885
 11
48.56453389790268
 21
92.73259654251885
 97
        0
 75
     2
 76
     1
 98
        0
  0
ENDBLK
  5
4F9
330
4F6
100
AcDbEntity
  8
0
100
AcDbBlockEnd
  0
BLOCK
  5
503
330
501
100
AcDbEntity
  8
0
100
AcDbBlockBegin
  2
block 152
 70
     0
 10
0.0
 20
0.0
 30
0.0
  3
block 152
  1

  0
MTEXT
  5
505
330
501
100
AcDbEntity
  8
COTAS
 62
     7
420
 16777215
100
AcDbMText
 10
48.11844532081544
 20
108.3516981065926
 30
0.0
 40
2.49766666604225
 41
0.0
 46
0.0
 71
     7
 72
     1
  1
\fArial|b1|i0|c0|p34;\W0.99985;452
 11
6.123233995736766E-17
 21
1.0
 31
0.0
 73
     1
 44
1.0
  0
ENDBLK
  5
504
330
501
100
AcDbEntity
  8
0
100
AcDbBlockEnd
  0
BLOCK
  5
508
330
506
100
AcDbEntity
  8
0
100
AcDbBlockBegin
  2
block 153
 70
     0
 10
0.0
 20
0.0
 30
0.0
  3
block 153
  1

  0
POLYLINE
  5
50A
330
506
100
AcDbEntity
  8
COTAS
 62
     7
420
 16777215
370
     9
100
AcDb2dPolyline
 66
     1
 10
0.0
 20
0.0
 30
0.0
  0
VERTEX
  5
50B
330
50A
100
AcDbEntity
  8
COTAS
 62
     7
420
 16777215
370
     9
100
AcDbVertex
100
AcDb2dVertex
 10
59.972107326758
 20
89.94599254876226
 30
0.0
  0
VERTEX
  5
50C
330
50A
100
AcDbEntity
  8
COTAS
 62
     7
420
 16777215
370
     9
100
AcDbVertex
100
AcDb2dVertex
 10
59.972107326758
 20
77.28741538630979
 30
0.0
  0
SEQEND
  5
50D
330
50A
100
AcDbEntity
  8
COTAS
 62
     7
420
 16777215
370
     9
  0
ENDBLK
  5
509
330
506
100
AcDbEntity
  8
0
100
AcDbBlockEnd
  0
BLOCK
  5
510
330
50E
100
AcDbEntity
  8
0
100
AcDbBlockBegin
  2
block 154
 70
     0
 10
0.0
 20
0.0
 30
0.0
  3
block 154
  1

  0
POLYLINE
  5
512
330
50E
100
AcDbEntity
  8
COTAS
 62
     7
420
 16777215
370
     9
100
AcDb2dPolyline
 66
     1
 10
0.0
 20
0.0
 30
0.0
  0
VERTEX
  5
513
330
512
100
AcDbEntity
  8
COTAS
 62
     7
420
 16777215
370
     9
100
AcDbVertex
100
AcDb2dVertex
 10
103.5832041190446
 20
89.94599254876226
 30
0.0
  0
VERTEX
  5
514
330
512
100
AcDbEntity
  8
COTAS
 62
     7
420
 16777215
370
     9
100
AcDbVertex
100
AcDb2dVertex
 10
103.5832041190446
 20
77.28741538630979
 30
0.0
  0
SEQEND
  5
515
330
512
100
AcDbEntity
  8
COTAS
 62
     7
420
 16777215
370
     9
  0
ENDBLK
  5
511
330
50E
100
AcDbEntity
  8
0
100
AcDbBlockEnd
  0
BLOCK
  5
518
330
516
100
AcDbEntity
  8
0
100
AcDbBlockBegin
  2
block 155
 70
     0
 10
0.0
 20
0.0
 30
0.0
  3
block 155
  1

  0
POLYLINE
  5
51A
330
516
100
AcDbEntity
  8
COTAS
 62
     7
420
 16777215
370
     9
100
AcDb2dPolyline
 66
     1
 10
0.0
 20
0.0
 30
0.0
  0
VERTEX
  5
51B
330
51A
100
AcDbEntity
  8
COTAS
 62
     7
420
 16777215
370
     9
100
AcDbVertex
100
AcDb2dVertex
 10
63.3357618104433
 20
78.72876203608753
 30
0.0
  0
VERTEX
  5
51C
330
51A
100
AcDbEntity
  8
COTAS
 62
     7
420
 16777215
370
     9
100
AcDbVertex
100
AcDb2dVertex
 10
100.2195496353596
 20
78.72876203608753
 30
0.0
  0
SEQEND
  5
51D
330
51A
100
AcDbEntity
  8
COTAS
 62
     7
420
 16777215
370
     9
  0
ENDBLK
  5
519
330
516
100
AcDbEntity
  8
0
100
AcDbBlockEnd
  0
BLOCK
  5
520
330
51E
100
AcDbEntity
  8
0
100
AcDbBlockBegin
  2
block 156
 70
     0
 10
0.0
 20
0.0
 30
0.0
  3
block 156
  1

  0
POLYLINE
  5
522
330
51E
100
AcDbEntity
  8
COTAS
370
     0
100
AcDb2dPolyline
 66
     1
 10
0.0
 20
0.0
 30
0.0
  0
VERTEX
  5
523
330
522
100
AcDbEntity
  8
COTAS
370
     0
100
AcDbVertex
100
AcDb2dVertex
 10
63.3357618104433
 20
79.28928573322332
 30
0.0
  0
VERTEX
  5
524
330
522
100
AcDbEntity
  8
COTAS
370
     0
100
AcDbVertex
100
AcDb2dVertex
 10
59.972107326758
 20
78.72876203608753
 30
0.0
  0
VERTEX
  5
525
330
522
100
AcDbEntity
  8
COTAS
370
     0
100
AcDbVertex
100
AcDb2dVertex
 10
63.3357618104433
 20
78.16823833895175
 30
0.0
  0
VERTEX
  5
526
330
522
100
AcDbEntity
  8
COTAS
370
     0
100
AcDbVertex
100
AcDb2dVertex
 10
63.3357618104433
 20
79.28928573322332
 30
0.0
  0
SEQEND
  5
528
330
522
100
AcDbEntity
  8
COTAS
370
     0
  0
HATCH
  5
527
330
51E
100
AcDbEntity
  8
COTAS
 62
     7
420
 16777215
100
AcDbHatch
 10
0.0
 20
0.0
 30
0.0
210
0.0
220
0.0
230
1.0
  2
SOLID
 70
     1
 71
     0
 91
        1
 92
        1
 93
        3
 72
     1
 10
63.3357618104433
 20
79.28928573322332
 11
59.972107326758
 21
78.72876203608753
 72
     1
 10
59.972107326758
 20
78.72876203608753
 11
63.3357618104433
 21
78.16823833895175
 72
     1
 10
63.3357618104433
 20
78.16823833895175
 11
63.3357618104433
 21
79.28928573322332
 97
        0
 75
     2
 76
     1
 98
        0
  0
ENDBLK
  5
521
330
51E
100
AcDbEntity
  8
0
100
AcDbBlockEnd
  0
BLOCK
  5
52B
330
529
100
AcDbEntity
  8
0
100
AcDbBlockBegin
  2
block 157
 70
     0
 10
0.0
 20
0.0
 30
0.0
  3
block 157
  1

  0
POLYLINE
  5
52D
330
529
100
AcDbEntity
  8
COTAS
370
     0
100
AcDb2dPolyline
 66
     1
 10
0.0
 20
0.0
 30
0.0
  0
VERTEX
  5
52E
330
52D
100
AcDbEntity
  8
COTAS
370
     0
100
AcDbVertex
100
AcDb2dVertex
 10
100.2195496353596
 20
78.16823833895175
 30
0.0
  0
VERTEX
  5
52F
330
52D
100
AcDbEntity
  8
COTAS
370
     0
100
AcDbVertex
100
AcDb2dVertex
 10
103.5832041190446
 20
78.72876203608753
 30
0.0
  0
VERTEX
  5
530
330
52D
100
AcDbEntity
  8
COTAS
370
     0
100
AcDbVertex
100
AcDb2dVertex
 10
100.2195496353596
 20
79.28928573322332
 30
0.0
  0
VERTEX
  5
531
330
52D
100
AcDbEntity
  8
COTAS
370
     0
100
AcDbVertex
100
AcDb2dVertex
 10
100.2195496353596
 20
78.16823833895175
 30
0.0
  0
SEQEND
  5
533
330
52D
100
AcDbEntity
  8
COTAS
370
     0
  0
HATCH
  5
532
330
529
100
AcDbEntity
  8
COTAS
 62
     7
420
 16777215
100
AcDbHatch
 10
0.0
 20
0.0
 30
0.0
210
0.0
220
0.0
230
1.0
  2
SOLID
 70
     1
 71
     0
 91
        1
 92
        1
 93
        3
 72
     1
 10
100.2195496353596
 20
78.16823833895175
 11
103.5832041190446
 21
78.72876203608753
 72
     1
 10
103.5832041190446
 20
78.72876203608753
 11
100.2195496353596
 21
79.28928573322332
 72
     1
 10
100.2195496353596
 20
79.28928573322332
 11
100.2195496353596
 21
78.16823833895175
 97
        0
 75
     2
 76
     1
 98
        0
  0
ENDBLK
  5
52C
330
529
100
AcDbEntity
  8
0
100
AcDbBlockEnd
  0
BLOCK
  5
536
330
534
100
AcDbEntity
  8
0
100
AcDbBlockBegin
  2
block 158
 70
     0
 10
0.0
 20
0.0
 30
0.0
  3
block 158
  1

  0
MTEXT
  5
538
330
534
100
AcDbEntity
  8
COTAS
 62
     7
420
 16777215
100
AcDbMText
 10
78.02944795988988
 20
79.73049615350217
 30
0.0
 40
2.49766666604225
 41
0.0
 46
0.0
 71
     7
 72
     1
  1
\fArial|b1|i0|c0|p34;\W1.00015;455
 73
     1
 44
1.0
  0
ENDBLK
  5
537
330
534
100
AcDbEntity
  8
0
100
AcDbBlockEnd
  0
BLOCK
  5
53B
330
539
100
AcDbEntity
  8
0
100
AcDbBlockBegin
  2
block 159
 70
     0
 10
0.0
 20
0.0
 30
0.0
  3
block 159
  1

  0
POLYLINE
  5
53D
330
539
100
AcDbEntity
  8
COTAS
 62
     7
420
 16777215
370
     9
100
AcDb2dPolyline
 66
     1
 10
0.0
 20
0.0
 30
0.0
  0
VERTEX
  5
53E
330
53D
100
AcDbEntity
  8
COTAS
 62
     7
420
 16777215
370
     9
100
AcDbVertex
100
AcDb2dVertex
 10
60.44657947313266
 20
180.918203240289
 30
0.0
  0
VERTEX
  5
53F
330
53D
100
AcDbEntity
  8
COTAS
 62
     7
420
 16777215
370
     9
100
AcDbVertex
100
AcDb2dVertex
 10
47.68357677122785
 20
180.918203240289
 30
0.0
  0
SEQEND
  5
540
330
53D
100
AcDbEntity
  8
COTAS
 62
     7
420
 16777215
370
     9
  0
ENDBLK
  5
53C
330
539
100
AcDbEntity
  8
0
100
AcDbBlockEnd
  0
BLOCK
  5
543
330
541
100
AcDbEntity
  8
0
100
AcDbBlockBegin
  2
block 160
 70
     0
 10
0.0
 20
0.0
 30
0.0
  3
block 160
  1

  0
POLYLINE
  5
545
330
541
100
AcDbEntity
  8
COTAS
 62
     7
420
 16777215
370
     9
100
AcDb2dPolyline
 66
     1
 10
0.0
 20
0.0
 30
0.0
  0
VERTEX
  5
546
330
545
100
AcDbEntity
  8
COTAS
 62
     7
420
 16777215
370
     9
100
AcDbVertex
100
AcDb2dVertex
 10
60.54873315785652
 20
193.4098742050304
 30
0.0
  0
VERTEX
  5
547
330
545
100
AcDbEntity
  8
COTAS
 62
     7
420
 16777215
370
     9
100
AcDbVertex
100
AcDb2dVertex
 10
47.68357677122785
 20
193.4098742050304
 30
0.0
  0
SEQEND
  5
548
330
545
100
AcDbEntity
  8
COTAS
 62
     7
420
 16777215
370
     9
  0
ENDBLK
  5
544
330
541
100
AcDbEntity
  8
0
100
AcDbBlockEnd
  0
BLOCK
  5
54B
330
549
100
AcDbEntity
  8
0
100
AcDbBlockBegin
  2
block 161
 70
     0
 10
0.0
 20
0.0
 30
0.0
  3
block 161
  1

  0
POLYLINE
  5
54D
330
549
100
AcDbEntity
  8
COTAS
 62
     7
420
 16777215
370
     9
100
AcDb2dPolyline
 66
     1
 10
0.0
 20
0.0
 30
0.0
  0
VERTEX
  5
54E
330
54D
100
AcDbEntity
  8
COTAS
 62
     7
420
 16777215
370
     9
100
AcDbVertex
100
AcDb2dVertex
 10
49.12514297852155
 20
184.2813454231041
 30
0.0
  0
VERTEX
  5
54F
330
54D
100
AcDbEntity
  8
COTAS
 62
     7
420
 16777215
370
     9
100
AcDbVertex
100
AcDb2dVertex
 10
49.12514297852155
 20
190.0467320222157
 30
0.0
  0
SEQEND
  5
550
330
54D
100
AcDbEntity
  8
COTAS
 62
     7
420
 16777215
370
     9
  0
ENDBLK
  5
54C
330
549
100
AcDbEntity
  8
0
100
AcDbBlockEnd
  0
BLOCK
  5
553
330
551
100
AcDbEntity
  8
0
100
AcDbBlockBegin
  2
block 162
 70
     0
 10
0.0
 20
0.0
 30
0.0
  3
block 162
  1

  0
POLYLINE
  5
555
330
551
100
AcDbEntity
  8
COTAS
370
     0
100
AcDb2dPolyline
 66
     1
 10
0.0
 20
0.0
 30
0.0
  0
VERTEX
  5
556
330
555
100
AcDbEntity
  8
COTAS
370
     0
100
AcDbVertex
100
AcDb2dVertex
 10
48.56453389790749
 20
184.2813454231041
 30
0.0
  0
VERTEX
  5
557
330
555
100
AcDbEntity
  8
COTAS
370
     0
100
AcDbVertex
100
AcDb2dVertex
 10
49.12514297852155
 20
180.918203240289
 30
0.0
  0
VERTEX
  5
558
330
555
100
AcDbEntity
  8
COTAS
370
     0
100
AcDbVertex
100
AcDb2dVertex
 10
49.68575205913561
 20
184.2813454231041
 30
0.0
  0
VERTEX
  5
559
330
555
100
AcDbEntity
  8
COTAS
370
     0
100
AcDbVertex
100
AcDb2dVertex
 10
48.56453389790749
 20
184.2813454231041
 30
0.0
  0
SEQEND
  5
55B
330
555
100
AcDbEntity
  8
COTAS
370
     0
  0
HATCH
  5
55A
330
551
100
AcDbEntity
  8
COTAS
 62
     7
420
 16777215
100
AcDbHatch
 10
0.0
 20
0.0
 30
0.0
210
0.0
220
0.0
230
1.0
  2
SOLID
 70
     1
 71
     0
 91
        1
 92
        1
 93
        3
 72
     1
 10
48.56453389790749
 20
184.2813454231041
 11
49.12514297852155
 21
180.918203240289
 72
     1
 10
49.12514297852155
 20
180.918203240289
 11
49.68575205913561
 21
184.2813454231041
 72
     1
 10
49.68575205913561
 20
184.2813454231041
 11
48.56453389790749
 21
184.2813454231041
 97
        0
 75
     2
 76
     1
 98
        0
  0
ENDBLK
  5
554
330
551
100
AcDbEntity
  8
0
100
AcDbBlockEnd
  0
BLOCK
  5
55E
330
55C
100
AcDbEntity
  8
0
100
AcDbBlockBegin
  2
block 163
 70
     0
 10
0.0
 20
0.0
 30
0.0
  3
block 163
  1

  0
POLYLINE
  5
560
330
55C
100
AcDbEntity
  8
COTAS
370
     0
100
AcDb2dPolyline
 66
     1
 10
0.0
 20
0.0
 30
0.0
  0
VERTEX
  5
561
330
560
100
AcDbEntity
  8
COTAS
370
     0
100
AcDbVertex
100
AcDb2dVertex
 10
49.68575205913561
 20
190.0467320222157
 30
0.0
  0
VERTEX
  5
562
330
560
100
AcDbEntity
  8
COTAS
370
     0
100
AcDbVertex
100
AcDb2dVertex
 10
49.12514297852155
 20
193.4098742050304
 30
0.0
  0
VERTEX
  5
563
330
560
100
AcDbEntity
  8
COTAS
370
     0
100
AcDbVertex
100
AcDb2dVertex
 10
48.56453389790749
 20
190.0467320222157
 30
0.0
  0
VERTEX
  5
564
330
560
100
AcDbEntity
  8
COTAS
370
     0
100
AcDbVertex
100
AcDb2dVertex
 10
49.68575205913561
 20
190.0467320222157
 30
0.0
  0
SEQEND
  5
566
330
560
100
AcDbEntity
  8
COTAS
370
     0
  0
HATCH
  5
565
330
55C
100
AcDbEntity
  8
COTAS
 62
     7
420
 16777215
100
AcDbHatch
 10
0.0
 20
0.0
 30
0.0
210
0.0
220
0.0
230
1.0
  2
SOLID
 70
     1
 71
     0
 91
        1
 92
        1
 93
        3
 72
     1
 10
49.68575205913561
 20
190.0467320222157
 11
49.12514297852155
 21
193.4098742050304
 72
     1
 10
49.12514297852155
 20
193.4098742050304
 11
48.56453389790749
 21
190.0467320222157
 72
     1
 10
48.56453389790749
 20
190.0467320222157
 11
49.68575205913561
 21
190.0467320222157
 97
        0
 75
     2
 76
     1
 98
        0
  0
ENDBLK
  5
55F
330
55C
100
AcDbEntity
  8
0
100
AcDbBlockEnd
  0
BLOCK
  5
569
330
567
100
AcDbEntity
  8
0
100
AcDbBlockBegin
  2
block 164
 70
     0
 10
0.0
 20
0.0
 30
0.0
  3
block 164
  1

  0
MTEXT
  5
56B
330
567
100
AcDbEntity
  8
COTAS
 62
     7
420
 16777215
100
AcDbMText
 10
48.11844532081544
 20
184.2657551622669
 30
0.0
 40
2.49766666604225
 41
0.0
 46
0.0
 71
     7
 72
     1
  1
\fArial|b1|i0|c0|p34;\W0.99985;130
 11
6.123233995736766E-17
 21
1.0
 31
0.0
 73
     1
 44
1.0
  0
ENDBLK
  5
56A
330
567
100
AcDbEntity
  8
0
100
AcDbBlockEnd
  0
BLOCK
  5
56E
330
56C
100
AcDbEntity
  8
0
100
AcDbBlockBegin
  2
block 165
 70
     0
 10
0.0
 20
0.0
 30
0.0
  3
block 165
  1

  0
POLYLINE
  5
570
330
56C
100
AcDbEntity
  8
COTAS
 62
     7
420
 16777215
370
     9
100
AcDb2dPolyline
 66
     1
 10
0.0
 20
0.0
 30
0.0
  0
VERTEX
  5
571
330
570
100
AcDbEntity
  8
COTAS
 62
     7
420
 16777215
370
     9
100
AcDbVertex
100
AcDb2dVertex
 10
131.026408104716
 20
181.2064725727505
 30
0.0
  0
VERTEX
  5
572
330
570
100
AcDbEntity
  8
COTAS
 62
     7
420
 16777215
370
     9
100
AcDbVertex
100
AcDb2dVertex
 10
131.026408104716
 20
173.1354839984971
 30
0.0
  0
SEQEND
  5
573
330
570
100
AcDbEntity
  8
COTAS
 62
     7
420
 16777215
370
     9
  0
ENDBLK
  5
56F
330
56C
100
AcDbEntity
  8
0
100
AcDbBlockEnd
  0
BLOCK
  5
576
330
574
100
AcDbEntity
  8
0
100
AcDbBlockBegin
  2
block 166
 70
     0
 10
0.0
 20
0.0
 30
0.0
  3
block 166
  1

  0
POLYLINE
  5
578
330
574
100
AcDbEntity
  8
COTAS
 62
     7
420
 16777215
370
     9
100
AcDb2dPolyline
 66
     1
 10
0.0
 20
0.0
 30
0.0
  0
VERTEX
  5
579
330
578
100
AcDbEntity
  8
COTAS
 62
     7
420
 16777215
370
     9
100
AcDbVertex
100
AcDb2dVertex
 10
157.1668086636404
 20
179.8270638211545
 30
0.0
  0
VERTEX
  5
57A
330
578
100
AcDbEntity
  8
COTAS
 62
     7
420
 16777215
370
     9
100
AcDbVertex
100
AcDb2dVertex
 10
157.1668086636404
 20
173.1354839984971
 30
0.0
  0
SEQEND
  5
57B
330
578
100
AcDbEntity
  8
COTAS
 62
     7
420
 16777215
370
     9
  0
ENDBLK
  5
577
330
574
100
AcDbEntity
  8
0
100
AcDbBlockEnd
  0
BLOCK
  5
57E
330
57C
100
AcDbEntity
  8
0
100
AcDbBlockBegin
  2
block 167
 70
     0
 10
0.0
 20
0.0
 30
0.0
  3
block 167
  1

  0
POLYLINE
  5
580
330
57C
100
AcDbEntity
  8
COTAS
 62
     7
420
 16777215
370
     9
100
AcDb2dPolyline
 66
     1
 10
0.0
 20
0.0
 30
0.0
  0
VERTEX
  5
581
330
580
100
AcDbEntity
  8
COTAS
 62
     7
420
 16777215
370
     9
100
AcDbVertex
100
AcDb2dVertex
 10
134.390062588401
 20
174.5768306482752
 30
0.0
  0
VERTEX
  5
582
330
580
100
AcDbEntity
  8
COTAS
 62
     7
420
 16777215
370
     9
100
AcDbVertex
100
AcDb2dVertex
 10
153.8031541799548
 20
174.5768306482752
 30
0.0
  0
SEQEND
  5
583
330
580
100
AcDbEntity
  8
COTAS
 62
     7
420
 16777215
370
     9
  0
ENDBLK
  5
57F
330
57C
100
AcDbEntity
  8
0
100
AcDbBlockEnd
  0
BLOCK
  5
586
330
584
100
AcDbEntity
  8
0
100
AcDbBlockBegin
  2
block 168
 70
     0
 10
0.0
 20
0.0
 30
0.0
  3
block 168
  1

  0
POLYLINE
  5
588
330
584
100
AcDbEntity
  8
COTAS
370
     0
100
AcDb2dPolyline
 66
     1
 10
0.0
 20
0.0
 30
0.0
  0
VERTEX
  5
589
330
588
100
AcDbEntity
  8
COTAS
370
     0
100
AcDbVertex
100
AcDb2dVertex
 10
134.390062588401
 20
175.137354345411
 30
0.0
  0
VERTEX
  5
58A
330
588
100
AcDbEntity
  8
COTAS
370
     0
100
AcDbVertex
100
AcDb2dVertex
 10
131.026408104716
 20
174.5768306482752
 30
0.0
  0
VERTEX
  5
58B
330
588
100
AcDbEntity
  8
COTAS
370
     0
100
AcDbVertex
100
AcDb2dVertex
 10
134.390062588401
 20
174.0163069511391
 30
0.0
  0
VERTEX
  5
58C
330
588
100
AcDbEntity
  8
COTAS
370
     0
100
AcDbVertex
100
AcDb2dVertex
 10
134.390062588401
 20
175.137354345411
 30
0.0
  0
SEQEND
  5
58E
330
588
100
AcDbEntity
  8
COTAS
370
     0
  0
HATCH
  5
58D
330
584
100
AcDbEntity
  8
COTAS
 62
     7
420
 16777215
100
AcDbHatch
 10
0.0
 20
0.0
 30
0.0
210
0.0
220
0.0
230
1.0
  2
SOLID
 70
     1
 71
     0
 91
        1
 92
        1
 93
        3
 72
     1
 10
134.390062588401
 20
175.137354345411
 11
131.026408104716
 21
174.5768306482752
 72
     1
 10
131.026408104716
 20
174.5768306482752
 11
134.390062588401
 21
174.0163069511391
 72
     1
 10
134.390062588401
 20
174.0163069511391
 11
134.390062588401
 21
175.137354345411
 97
        0
 75
     2
 76
     1
 98
        0
  0
ENDBLK
  5
587
330
584
100
AcDbEntity
  8
0
100
AcDbBlockEnd
  0
BLOCK
  5
591
330
58F
100
AcDbEntity
  8
0
100
AcDbBlockBegin
  2
block 169
 70
     0
 10
0.0
 20
0.0
 30
0.0
  3
block 169
  1

  0
POLYLINE
  5
593
330
58F
100
AcDbEntity
  8
COTAS
370
     0
100
AcDb2dPolyline
 66
     1
 10
0.0
 20
0.0
 30
0.0
  0
VERTEX
  5
594
330
593
100
AcDbEntity
  8
COTAS
370
     0
100
AcDbVertex
100
AcDb2dVertex
 10
153.8031541799548
 20
174.0163069511391
 30
0.0
  0
VERTEX
  5
595
330
593
100
AcDbEntity
  8
COTAS
370
     0
100
AcDbVertex
100
AcDb2dVertex
 10
157.1668086636404
 20
174.5768306482752
 30
0.0
  0
VERTEX
  5
596
330
593
100
AcDbEntity
  8
COTAS
370
     0
100
AcDbVertex
100
AcDb2dVertex
 10
153.8031541799548
 20
175.137354345411
 30
0.0
  0
VERTEX
  5
597
330
593
100
AcDbEntity
  8
COTAS
370
     0
100
AcDbVertex
100
AcDb2dVertex
 10
153.8031541799548
 20
174.0163069511391
 30
0.0
  0
SEQEND
  5
599
330
593
100
AcDbEntity
  8
COTAS
370
     0
  0
HATCH
  5
598
330
58F
100
AcDbEntity
  8
COTAS
 62
     7
420
 16777215
100
AcDbHatch
 10
0.0
 20
0.0
 30
0.0
210
0.0
220
0.0
230
1.0
  2
SOLID
 70
     1
 71
     0
 91
        1
 92
        1
 93
        3
 72
     1
 10
153.8031541799548
 20
174.0163069511391
 11
157.1668086636404
 21
174.5768306482752
 72
     1
 10
157.1668086636404
 20
174.5768306482752
 11
153.8031541799548
 21
175.137354345411
 72
     1
 10
153.8031541799548
 20
175.137354345411
 11
153.8031541799548
 21
174.0163069511391
 97
        0
 75
     2
 76
     1
 98
        0
  0
ENDBLK
  5
592
330
58F
100
AcDbEntity
  8
0
100
AcDbBlockEnd
  0
BLOCK
  5
59C
330
59A
100
AcDbEntity
  8
0
100
AcDbBlockBegin
  2
block 170
 70
     0
 10
0.0
 20
0.0
 30
0.0
  3
block 170
  1

  0
MTEXT
  5
59E
330
59A
100
AcDbEntity
  8
COTAS
 62
     7
420
 16777215
100
AcDbMText
 10
141.3396177998159
 20
175.5425365432997
 30
0.0
 40
2.49766666604225
 41
0.0
 46
0.0
 71
     7
 72
     1
  1
\fArial|b1|i0|c0|p34;\W1.00015;272
 73
     1
 44
1.0
  0
ENDBLK
  5
59D
330
59A
100
AcDbEntity
  8
0
100
AcDbBlockEnd
  0
BLOCK
  5
5A1
330
59F
100
AcDbEntity
  8
0
100
AcDbBlockBegin
  2
block 171
 70
     0
 10
0.0
 20
0.0
 30
0.0
  3
block 171
  1

  0
POLYLINE
  5
5A3
330
59F
100
AcDbEntity
  8
COTAS
 62
     7
420
 16777215
370
     9
100
AcDb2dPolyline
 66
     1
 10
0.0
 20
0.0
 30
0.0
  0
VERTEX
  5
5A4
330
5A3
100
AcDbEntity
  8
COTAS
 62
     7
420
 16777215
370
     9
100
AcDbVertex
100
AcDb2dVertex
 10
60.16284632359585
 20
180.918203240289
 30
0.0
  0
VERTEX
  5
5A5
330
5A3
100
AcDbEntity
  8
COTAS
 62
     7
420
 16777215
370
     9
100
AcDbVertex
100
AcDb2dVertex
 10
60.16284632359585
 20
170.2140326353878
 30
0.0
  0
SEQEND
  5
5A6
330
5A3
100
AcDbEntity
  8
COTAS
 62
     7
420
 16777215
370
     9
  0
ENDBLK
  5
5A2
330
59F
100
AcDbEntity
  8
0
100
AcDbBlockEnd
  0
BLOCK
  5
5A9
330
5A7
100
AcDbEntity
  8
0
100
AcDbBlockBegin
  2
block 172
 70
     0
 10
0.0
 20
0.0
 30
0.0
  3
block 172
  1

  0
POLYLINE
  5
5AB
330
5A7
100
AcDbEntity
  8
COTAS
 62
     7
420
 16777215
370
     9
100
AcDb2dPolyline
 66
     1
 10
0.0
 20
0.0
 30
0.0
  0
VERTEX
  5
5AC
330
5AB
100
AcDbEntity
  8
COTAS
 62
     7
420
 16777215
370
     9
100
AcDbVertex
100
AcDb2dVertex
 10
103.3924651222067
 20
180.918203240289
 30
0.0
  0
VERTEX
  5
5AD
330
5AB
100
AcDbEntity
  8
COTAS
 62
     7
420
 16777215
370
     9
100
AcDbVertex
100
AcDb2dVertex
 10
103.3924651222067
 20
170.2140326353878
 30
0.0
  0
SEQEND
  5
5AE
330
5AB
100
AcDbEntity
  8
COTAS
 62
     7
420
 16777215
370
     9
  0
ENDBLK
  5
5AA
330
5A7
100
AcDbEntity
  8
0
100
AcDbBlockEnd
  0
BLOCK
  5
5B1
330
5AF
100
AcDbEntity
  8
0
100
AcDbBlockBegin
  2
block 173
 70
     0
 10
0.0
 20
0.0
 30
0.0
  3
block 173
  1

  0
POLYLINE
  5
5B3
330
5AF
100
AcDbEntity
  8
COTAS
 62
     7
420
 16777215
370
     9
100
AcDb2dPolyline
 66
     1
 10
0.0
 20
0.0
 30
0.0
  0
VERTEX
  5
5B4
330
5B3
100
AcDbEntity
  8
COTAS
 62
     7
420
 16777215
370
     9
100
AcDbVertex
100
AcDb2dVertex
 10
63.52650080728083
 20
171.6553792851656
 30
0.0
  0
VERTEX
  5
5B5
330
5B3
100
AcDbEntity
  8
COTAS
 62
     7
420
 16777215
370
     9
100
AcDbVertex
100
AcDb2dVertex
 10
100.0288106385218
 20
171.6553792851656
 30
0.0
  0
SEQEND
  5
5B6
330
5B3
100
AcDbEntity
  8
COTAS
 62
     7
420
 16777215
370
     9
  0
ENDBLK
  5
5B2
330
5AF
100
AcDbEntity
  8
0
100
AcDbBlockEnd
  0
BLOCK
  5
5B9
330
5B7
100
AcDbEntity
  8
0
100
AcDbBlockBegin
  2
block 174
 70
     0
 10
0.0
 20
0.0
 30
0.0
  3
block 174
  1

  0
POLYLINE
  5
5BB
330
5B7
100
AcDbEntity
  8
COTAS
370
     0
100
AcDb2dPolyline
 66
     1
 10
0.0
 20
0.0
 30
0.0
  0
VERTEX
  5
5BC
330
5BB
100
AcDbEntity
  8
COTAS
370
     0
100
AcDbVertex
100
AcDb2dVertex
 10
63.52650080728083
 20
172.215902982302
 30
0.0
  0
VERTEX
  5
5BD
330
5BB
100
AcDbEntity
  8
COTAS
370
     0
100
AcDbVertex
100
AcDb2dVertex
 10
60.16284632359585
 20
171.6553792851656
 30
0.0
  0
VERTEX
  5
5BE
330
5BB
100
AcDbEntity
  8
COTAS
370
     0
100
AcDbVertex
100
AcDb2dVertex
 10
63.52650080728083
 20
171.0948555880298
 30
0.0
  0
VERTEX
  5
5BF
330
5BB
100
AcDbEntity
  8
COTAS
370
     0
100
AcDbVertex
100
AcDb2dVertex
 10
63.52650080728083
 20
172.215902982302
 30
0.0
  0
SEQEND
  5
5C1
330
5BB
100
AcDbEntity
  8
COTAS
370
     0
  0
HATCH
  5
5C0
330
5B7
100
AcDbEntity
  8
COTAS
 62
     7
420
 16777215
100
AcDbHatch
 10
0.0
 20
0.0
 30
0.0
210
0.0
220
0.0
230
1.0
  2
SOLID
 70
     1
 71
     0
 91
        1
 92
        1
 93
        3
 72
     1
 10
63.52650080728083
 20
172.215902982302
 11
60.16284632359585
 21
171.6553792851656
 72
     1
 10
60.16284632359585
 20
171.6553792851656
 11
63.52650080728083
 21
171.0948555880298
 72
     1
 10
63.52650080728083
 20
171.0948555880298
 11
63.52650080728083
 21
172.215902982302
 97
        0
 75
     2
 76
     1
 98
        0
  0
ENDBLK
  5
5BA
330
5B7
100
AcDbEntity
  8
0
100
AcDbBlockEnd
  0
BLOCK
  5
5C4
330
5C2
100
AcDbEntity
  8
0
100
AcDbBlockBegin
  2
block 175
 70
     0
 10
0.0
 20
0.0
 30
0.0
  3
block 175
  1

  0
POLYLINE
  5
5C6
330
5C2
100
AcDbEntity
  8
COTAS
370
     0
100
AcDb2dPolyline
 66
     1
 10
0.0
 20
0.0
 30
0.0
  0
VERTEX
  5
5C7
330
5C6
100
AcDbEntity
  8
COTAS
370
     0
100
AcDbVertex
100
AcDb2dVertex
 10
100.0288106385218
 20
171.0948555880298
 30
0.0
  0
VERTEX
  5
5C8
330
5C6
100
AcDbEntity
  8
COTAS
370
     0
100
AcDbVertex
100
AcDb2dVertex
 10
103.3924651222067
 20
171.6553792851656
 30
0.0
  0
VERTEX
  5
5C9
330
5C6
100
AcDbEntity
  8
COTAS
370
     0
100
AcDbVertex
100
AcDb2dVertex
 10
100.0288106385218
 20
172.215902982302
 30
0.0
  0
VERTEX
  5
5CA
330
5C6
100
AcDbEntity
  8
COTAS
370
     0
100
AcDbVertex
100
AcDb2dVertex
 10
100.0288106385218
 20
171.0948555880298
 30
0.0
  0
SEQEND
  5
5CC
330
5C6
100
AcDbEntity
  8
COTAS
370
     0
  0
HATCH
  5
5CB
330
5C2
100
AcDbEntity
  8
COTAS
 62
     7
420
 16777215
100
AcDbHatch
 10
0.0
 20
0.0
 30
0.0
210
0.0
220
0.0
230
1.0
  2
SOLID
 70
     1
 71
     0
 91
        1
 92
        1
 93
        3
 72
     1
 10
100.0288106385218
 20
171.0948555880298
 11
103.3924651222067
 21
171.6553792851656
 72
     1
 10
103.3924651222067
 20
171.6553792851656
 11
100.0288106385218
 21
172.215902982302
 72
     1
 10
100.0288106385218
 20
172.215902982302
 11
100.0288106385218
 21
171.0948555880298
 97
        0
 75
     2
 76
     1
 98
        0
  0
ENDBLK
  5
5C5
330
5C2
100
AcDbEntity
  8
0
100
AcDbBlockEnd
  0
BLOCK
  5
5CF
330
5CD
100
AcDbEntity
  8
0
100
AcDbBlockBegin
  2
block 176
 70
     0
 10
0.0
 20
0.0
 30
0.0
  3
block 176
  1

  0
MTEXT
  5
5D1
330
5CD
100
AcDbEntity
  8
COTAS
 62
     7
420
 16777215
100
AcDbMText
 10
79.34277757144578
 20
172.6619199533081
 30
0.0
 40
2.49766666604225
 41
0.0
 46
0.0
 71
     7
 72
     1
  1
\fArial|b1|i0|c0|p34;\W1.00015;450
 73
     1
 44
1.0
  0
ENDBLK
  5
5D0
330
5CD
100
AcDbEntity
  8
0
100
AcDbBlockEnd
  0
BLOCK
  5
5D5
330
5D3
100
AcDbEntity
  8
0
100
AcDbBlockBegin
  2
block 177
 70
     0
 10
0.0
 20
0.0
 30
0.0
  3
block 177
  1

  0
POLYLINE
  5
5D7
330
5D3
100
AcDbEntity
  8
DEFPOINTS
 62
     7
420
 16777215
370
     9
100
AcDb2dPolyline
 66
     1
 10
0.0
 20
0.0
 30
0.0
  0
VERTEX
  5
5D8
330
5D7
100
AcDbEntity
  8
DEFPOINTS
 62
     7
420
 16777215
370
     9
100
AcDbVertex
100
AcDb2dVertex
 10
60.54873354617524
 20
132.7918820635931
 30
0.0
  0
VERTEX
  5
5D9
330
5D7
100
AcDbEntity
  8
DEFPOINTS
 62
     7
420
 16777215
370
     9
100
AcDbVertex
100
AcDb2dVertex
 10
60.54873354617524
 20
132.7918820635931
 30
0.0
  0
SEQEND
  5
5DA
330
5D7
100
AcDbEntity
  8
DEFPOINTS
 62
     7
420
 16777215
370
     9
  0
ENDBLK
  5
5D6
330
5D3
100
AcDbEntity
  8
0
100
AcDbBlockEnd
  0
BLOCK
  5
5DD
330
5DB
100
AcDbEntity
  8
0
100
AcDbBlockBegin
  2
block 178
 70
     0
 10
0.0
 20
0.0
 30
0.0
  3
block 178
  1

  0
POLYLINE
  5
5DF
330
5DB
100
AcDbEntity
  8
DEFPOINTS
 62
     7
420
 16777215
370
     9
100
AcDb2dPolyline
 66
     1
 10
0.0
 20
0.0
 30
0.0
  0
VERTEX
  5
5E0
330
5DF
100
AcDbEntity
  8
DEFPOINTS
 62
     7
420
 16777215
370
     9
100
AcDbVertex
100
AcDb2dVertex
 10
60.54873354617524
 20
89.36945435970414
 30
0.0
  0
VERTEX
  5
5E1
330
5DF
100
AcDbEntity
  8
DEFPOINTS
 62
     7
420
 16777215
370
     9
100
AcDbVertex
100
AcDb2dVertex
 10
60.54873354617524
 20
89.36945435970414
 30
0.0
  0
SEQEND
  5
5E2
330
5DF
100
AcDbEntity
  8
DEFPOINTS
 62
     7
420
 16777215
370
     9
  0
ENDBLK
  5
5DE
330
5DB
100
AcDbEntity
  8
0
100
AcDbBlockEnd
  0
BLOCK
  5
5E5
330
5E3
100
AcDbEntity
  8
0
100
AcDbBlockBegin
  2
block 179
 70
     0
 10
0.0
 20
0.0
 30
0.0
  3
block 179
  1

  0
POLYLINE
  5
5E7
330
5E3
100
AcDbEntity
  8
DEFPOINTS
 62
     7
420
 16777215
370
     9
100
AcDb2dPolyline
 66
     1
 10
0.0
 20
0.0
 30
0.0
  0
VERTEX
  5
5E8
330
5E7
100
AcDbEntity
  8
DEFPOINTS
 62
     7
420
 16777215
370
     9
100
AcDbVertex
100
AcDb2dVertex
 10
49.12514297851706
 20
89.36945435970414
 30
0.0
  0
VERTEX
  5
5E9
330
5E7
100
AcDbEntity
  8
DEFPOINTS
 62
     7
420
 16777215
370
     9
100
AcDbVertex
100
AcDb2dVertex
 10
49.12514297851706
 20
89.36945435970414
 30
0.0
  0
SEQEND
  5
5EA
330
5E7
100
AcDbEntity
  8
DEFPOINTS
 62
     7
420
 16777215
370
     9
  0
ENDBLK
  5
5E6
330
5E3
100
AcDbEntity
  8
0
100
AcDbBlockEnd
  0
BLOCK
  5
5ED
330
5EB
100
AcDbEntity
  8
0
100
AcDbBlockBegin
  2
block 180
 70
     0
 10
0.0
 20
0.0
 30
0.0
  3
block 180
  1

  0
POLYLINE
  5
5EF
330
5EB
100
AcDbEntity
  8
DEFPOINTS
 62
     7
420
 16777215
370
     9
100
AcDb2dPolyline
 66
     1
 10
0.0
 20
0.0
 30
0.0
  0
VERTEX
  5
5F0
330
5EF
100
AcDbEntity
  8
DEFPOINTS
 62
     7
420
 16777215
370
     9
100
AcDbVertex
100
AcDb2dVertex
 10
59.972107326758
 20
89.94599254876226
 30
0.0
  0
VERTEX
  5
5F1
330
5EF
100
AcDbEntity
  8
DEFPOINTS
 62
     7
420
 16777215
370
     9
100
AcDbVertex
100
AcDb2dVertex
 10
59.972107326758
 20
89.94599254876226
 30
0.0
  0
SEQEND
  5
5F2
330
5EF
100
AcDbEntity
  8
DEFPOINTS
 62
     7
420
 16777215
370
     9
  0
ENDBLK
  5
5EE
330
5EB
100
AcDbEntity
  8
0
100
AcDbBlockEnd
  0
BLOCK
  5
5F5
330
5F3
100
AcDbEntity
  8
0
100
AcDbBlockBegin
  2
block 181
 70
     0
 10
0.0
 20
0.0
 30
0.0
  3
block 181
  1

  0
POLYLINE
  5
5F7
330
5F3
100
AcDbEntity
  8
DEFPOINTS
 62
     7
420
 16777215
370
     9
100
AcDb2dPolyline
 66
     1
 10
0.0
 20
0.0
 30
0.0
  0
VERTEX
  5
5F8
330
5F7
100
AcDbEntity
  8
DEFPOINTS
 62
     7
420
 16777215
370
     9
100
AcDbVertex
100
AcDb2dVertex
 10
103.5832041190446
 20
89.94599254876226
 30
0.0
  0
VERTEX
  5
5F9
330
5F7
100
AcDbEntity
  8
DEFPOINTS
 62
     7
420
 16777215
370
     9
100
AcDbVertex
100
AcDb2dVertex
 10
103.5832041190446
 20
89.94599254876226
 30
0.0
  0
SEQEND
  5
5FA
330
5F7
100
AcDbEntity
  8
DEFPOINTS
 62
     7
420
 16777215
370
     9
  0
ENDBLK
  5
5F6
330
5F3
100
AcDbEntity
  8
0
100
AcDbBlockEnd
  0
BLOCK
  5
5FD
330
5FB
100
AcDbEntity
  8
0
100
AcDbBlockBegin
  2
block 182
 70
     0
 10
0.0
 20
0.0
 30
0.0
  3
block 182
  1

  0
POLYLINE
  5
5FF
330
5FB
100
AcDbEntity
  8
DEFPOINTS
 62
     7
420
 16777215
370
     9
100
AcDb2dPolyline
 66
     1
 10
0.0
 20
0.0
 30
0.0
  0
VERTEX
  5
600
330
5FF
100
AcDbEntity
  8
DEFPOINTS
 62
     7
420
 16777215
370
     9
100
AcDbVertex
100
AcDb2dVertex
 10
103.5832041190446
 20
78.72876203608753
 30
0.0
  0
VERTEX
  5
601
330
5FF
100
AcDbEntity
  8
DEFPOINTS
 62
     7
420
 16777215
370
     9
100
AcDbVertex
100
AcDb2dVertex
 10
103.5832041190446
 20
78.72876203608753
 30
0.0
  0
SEQEND
  5
602
330
5FF
100
AcDbEntity
  8
DEFPOINTS
 62
     7
420
 16777215
370
     9
  0
ENDBLK
  5
5FE
330
5FB
100
AcDbEntity
  8
0
100
AcDbBlockEnd
  0
BLOCK
  5
605
330
603
100
AcDbEntity
  8
0
100
AcDbBlockBegin
  2
block 183
 70
     0
 10
0.0
 20
0.0
 30
0.0
  3
block 183
  1

  0
POLYLINE
  5
607
330
603
100
AcDbEntity
  8
DEFPOINTS
 62
     7
420
 16777215
370
     9
100
AcDb2dPolyline
 66
     1
 10
0.0
 20
0.0
 30
0.0
  0
VERTEX
  5
608
330
607
100
AcDbEntity
  8
DEFPOINTS
 62
     7
420
 16777215
370
     9
100
AcDbVertex
100
AcDb2dVertex
 10
60.44657947313266
 20
180.918203240289
 30
0.0
  0
VERTEX
  5
609
330
607
100
AcDbEntity
  8
DEFPOINTS
 62
     7
420
 16777215
370
     9
100
AcDbVertex
100
AcDb2dVertex
 10
60.44657947313266
 20
180.918203240289
 30
0.0
  0
SEQEND
  5
60A
330
607
100
AcDbEntity
  8
DEFPOINTS
 62
     7
420
 16777215
370
     9
  0
ENDBLK
  5
606
330
603
100
AcDbEntity
  8
0
100
AcDbBlockEnd
  0
BLOCK
  5
60D
330
60B
100
AcDbEntity
  8
0
100
AcDbBlockBegin
  2
block 184
 70
     0
 10
0.0
 20
0.0
 30
0.0
  3
block 184
  1

  0
POLYLINE
  5
60F
330
60B
100
AcDbEntity
  8
DEFPOINTS
 62
     7
420
 16777215
370
     9
100
AcDb2dPolyline
 66
     1
 10
0.0
 20
0.0
 30
0.0
  0
VERTEX
  5
610
330
60F
100
AcDbEntity
  8
DEFPOINTS
 62
     7
420
 16777215
370
     9
100
AcDbVertex
100
AcDb2dVertex
 10
60.54873315785652
 20
193.4098742050304
 30
0.0
  0
VERTEX
  5
611
330
60F
100
AcDbEntity
  8
DEFPOINTS
 62
     7
420
 16777215
370
     9
100
AcDbVertex
100
AcDb2dVertex
 10
60.54873315785652
 20
193.4098742050304
 30
0.0
  0
SEQEND
  5
612
330
60F
100
AcDbEntity
  8
DEFPOINTS
 62
     7
420
 16777215
370
     9
  0
ENDBLK
  5
60E
330
60B
100
AcDbEntity
  8
0
100
AcDbBlockEnd
  0
BLOCK
  5
615
330
613
100
AcDbEntity
  8
0
100
AcDbBlockBegin
  2
block 185
 70
     0
 10
0.0
 20
0.0
 30
0.0
  3
block 185
  1

  0
POLYLINE
  5
617
330
613
100
AcDbEntity
  8
DEFPOINTS
 62
     7
420
 16777215
370
     9
100
AcDb2dPolyline
 66
     1
 10
0.0
 20
0.0
 30
0.0
  0
VERTEX
  5
618
330
617
100
AcDbEntity
  8
DEFPOINTS
 62
     7
420
 16777215
370
     9
100
AcDbVertex
100
AcDb2dVertex
 10
49.12514297852155
 20
193.4098742050304
 30
0.0
  0
VERTEX
  5
619
330
617
100
AcDbEntity
  8
DEFPOINTS
 62
     7
420
 16777215
370
     9
100
AcDbVertex
100
AcDb2dVertex
 10
49.12514297852155
 20
193.4098742050304
 30
0.0
  0
SEQEND
  5
61A
330
617
100
AcDbEntity
  8
DEFPOINTS
 62
     7
420
 16777215
370
     9
  0
ENDBLK
  5
616
330
613
100
AcDbEntity
  8
0
100
AcDbBlockEnd
  0
BLOCK
  5
61D
330
61B
100
AcDbEntity
  8
0
100
AcDbBlockBegin
  2
block 186
 70
     0
 10
0.0
 20
0.0
 30
0.0
  3
block 186
  1

  0
POLYLINE
  5
61F
330
61B
100
AcDbEntity
  8
DEFPOINTS
 62
     7
420
 16777215
370
     9
100
AcDb2dPolyline
 66
     1
 10
0.0
 20
0.0
 30
0.0
  0
VERTEX
  5
620
330
61F
100
AcDbEntity
  8
DEFPOINTS
 62
     7
420
 16777215
370
     9
100
AcDbVertex
100
AcDb2dVertex
 10
131.026408104716
 20
181.2064725727505
 30
0.0
  0
VERTEX
  5
621
330
61F
100
AcDbEntity
  8
DEFPOINTS
 62
     7
420
 16777215
370
     9
100
AcDbVertex
100
AcDb2dVertex
 10
131.026408104716
 20
181.2064725727505
 30
0.0
  0
SEQEND
  5
622
330
61F
100
AcDbEntity
  8
DEFPOINTS
 62
     7
420
 16777215
370
     9
  0
ENDBLK
  5
61E
330
61B
100
AcDbEntity
  8
0
100
AcDbBlockEnd
  0
BLOCK
  5
625
330
623
100
AcDbEntity
  8
0
100
AcDbBlockBegin
  2
block 187
 70
     0
 10
0.0
 20
0.0
 30
0.0
  3
block 187
  1

  0
POLYLINE
  5
627
330
623
100
AcDbEntity
  8
DEFPOINTS
 62
     7
420
 16777215
370
     9
100
AcDb2dPolyline
 66
     1
 10
0.0
 20
0.0
 30
0.0
  0
VERTEX
  5
628
330
627
100
AcDbEntity
  8
DEFPOINTS
 62
     7
420
 16777215
370
     9
100
AcDbVertex
100
AcDb2dVertex
 10
157.1668086636404
 20
179.8270638211545
 30
0.0
  0
VERTEX
  5
629
330
627
100
AcDbEntity
  8
DEFPOINTS
 62
     7
420
 16777215
370
     9
100
AcDbVertex
100
AcDb2dVertex
 10
157.1668086636404
 20
179.8270638211545
 30
0.0
  0
SEQEND
  5
62A
330
627
100
AcDbEntity
  8
DEFPOINTS
 62
     7
420
 16777215
370
     9
  0
ENDBLK
  5
626
330
623
100
AcDbEntity
  8
0
100
AcDbBlockEnd
  0
BLOCK
  5
62D
330
62B
100
AcDbEntity
  8
0
100
AcDbBlockBegin
  2
block 188
 70
     0
 10
0.0
 20
0.0
 30
0.0
  3
block 188
  1

  0
POLYLINE
  5
62F
330
62B
100
AcDbEntity
  8
DEFPOINTS
 62
     7
420
 16777215
370
     9
100
AcDb2dPolyline
 66
     1
 10
0.0
 20
0.0
 30
0.0
  0
VERTEX
  5
630
330
62F
100
AcDbEntity
  8
DEFPOINTS
 62
     7
420
 16777215
370
     9
100
AcDbVertex
100
AcDb2dVertex
 10
157.1668086636404
 20
174.5768306482752
 30
0.0
  0
VERTEX
  5
631
330
62F
100
AcDbEntity
  8
DEFPOINTS
 62
     7
420
 16777215
370
     9
100
AcDbVertex
100
AcDb2dVertex
 10
157.1668086636404
 20
174.5768306482752
 30
0.0
  0
SEQEND
  5
632
330
62F
100
AcDbEntity
  8
DEFPOINTS
 62
     7
420
 16777215
370
     9
  0
ENDBLK
  5
62E
330
62B
100
AcDbEntity
  8
0
100
AcDbBlockEnd
  0
BLOCK
  5
635
330
633
100
AcDbEntity
  8
0
100
AcDbBlockBegin
  2
block 189
 70
     0
 10
0.0
 20
0.0
 30
0.0
  3
block 189
  1

  0
POLYLINE
  5
637
330
633
100
AcDbEntity
  8
DEFPOINTS
 62
     7
420
 16777215
370
     9
100
AcDb2dPolyline
 66
     1
 10
0.0
 20
0.0
 30
0.0
  0
VERTEX
  5
638
330
637
100
AcDbEntity
  8
DEFPOINTS
 62
     7
420
 16777215
370
     9
100
AcDbVertex
100
AcDb2dVertex
 10
60.16284632359585
 20
180.918203240289
 30
0.0
  0
VERTEX
  5
639
330
637
100
AcDbEntity
  8
DEFPOINTS
 62
     7
420
 16777215
370
     9
100
AcDbVertex
100
AcDb2dVertex
 10
60.16284632359585
 20
180.918203240289
 30
0.0
  0
SEQEND
  5
63A
330
637
100
AcDbEntity
  8
DEFPOINTS
 62
     7
420
 16777215
370
     9
  0
ENDBLK
  5
636
330
633
100
AcDbEntity
  8
0
100
AcDbBlockEnd
  0
BLOCK
  5
63D
330
63B
100
AcDbEntity
  8
0
100
AcDbBlockBegin
  2
block 190
 70
     0
 10
0.0
 20
0.0
 30
0.0
  3
block 190
  1

  0
POLYLINE
  5
63F
330
63B
100
AcDbEntity
  8
DEFPOINTS
 62
     7
420
 16777215
370
     9
100
AcDb2dPolyline
 66
     1
 10
0.0
 20
0.0
 30
0.0
  0
VERTEX
  5
640
330
63F
100
AcDbEntity
  8
DEFPOINTS
 62
     7
420
 16777215
370
     9
100
AcDbVertex
100
AcDb2dVertex
 10
103.3924651222067
 20
180.918203240289
 30
0.0
  0
VERTEX
  5
641
330
63F
100
AcDbEntity
  8
DEFPOINTS
 62
     7
420
 16777215
370
     9
100
AcDbVertex
100
AcDb2dVertex
 10
103.3924651222067
 20
180.918203240289
 30
0.0
  0
SEQEND
  5
642
330
63F
100
AcDbEntity
  8
DEFPOINTS
 62
     7
420
 16777215
370
     9
  0
ENDBLK
  5
63E
330
63B
100
AcDbEntity
  8
0
100
AcDbBlockEnd
  0
BLOCK
  5
645
330
643
100
AcDbEntity
  8
0
100
AcDbBlockBegin
  2
block 191
 70
     0
 10
0.0
 20
0.0
 30
0.0
  3
block 191
  1

  0
POLYLINE
  5
647
330
643
100
AcDbEntity
  8
DEFPOINTS
 62
     7
420
 16777215
370
     9
100
AcDb2dPolyline
 66
     1
 10
0.0
 20
0.0
 30
0.0
  0
VERTEX
  5
648
330
647
100
AcDbEntity
  8
DEFPOINTS
 62
     7
420
 16777215
370
     9
100
AcDbVertex
100
AcDb2dVertex
 10
103.3924651222067
 20
171.6553792851656
 30
0.0
  0
VERTEX
  5
649
330
647
100
AcDbEntity
  8
DEFPOINTS
 62
     7
420
 16777215
370
     9
100
AcDbVertex
100
AcDb2dVertex
 10
103.3924651222067
 20
171.6553792851656
 30
0.0
  0
SEQEND
  5
64A
330
647
100
AcDbEntity
  8
DEFPOINTS
 62
     7
420
 16777215
370
     9
  0
ENDBLK
  5
646
330
643
100
AcDbEntity
  8
0
100
AcDbBlockEnd
  0
ENDSEC
  0
SECTION
  2
ENTITIES
  0
INSERT
  5
46
330
1F
100
AcDbEntity
  8
PIEZA
100
AcDbBlockReference
  2
block 2
 10
0.0
 20
0.0
 30
0.0
  0
INSERT
  5
4B
330
1F
100
AcDbEntity
  8
PIEZA
100
AcDbBlockReference
  2
block 3
 10
0.0
 20
0.0
 30
0.0
  0
INSERT
  5
53
330
1F
100
AcDbEntity
  8
PIEZA
100
AcDbBlockReference
  2
block 4
 10
0.0
 20
0.0
 30
0.0
  0
INSERT
  5
5B
330
1F
100
AcDbEntity
  8
PIEZA
100
AcDbBlockReference
  2
block 5
 10
0.0
 20
0.0
 30
0.0
  0
INSERT
  5
60
330
1F
100
AcDbEntity
  8
PIEZA
100
AcDbBlockReference
  2
block 6
 10
0.0
 20
0.0
 30
0.0
  0
INSERT
  5
68
330
1F
100
AcDbEntity
  8
PIEZA
100
AcDbBlockReference
  2
block 7
 10
0.0
 20
0.0
 30
0.0
  0
INSERT
  5
6D
330
1F
100
AcDbEntity
  8
PIEZA
100
AcDbBlockReference
  2
block 8
 10
0.0
 20
0.0
 30
0.0
  0
INSERT
  5
A6
330
1F
100
AcDbEntity
  8
PIEZA
100
AcDbBlockReference
  2
block 9
 10
0.0
 20
0.0
 30
0.0
  0
INSERT
  5
AE
330
1F
100
AcDbEntity
  8
PIEZA
100
AcDbBlockReference
  2
block 10
 10
0.0
 20
0.0
 30
0.0
  0
INSERT
  5
B6
330
1F
100
AcDbEntity
  8
PIEZA
100
AcDbBlockReference
  2
block 11
 10
0.0
 20
0.0
 30
0.0
  0
INSERT
  5
BB
330
1F
100
AcDbEntity
  8
PIEZA
100
AcDbBlockReference
  2
block 12
 10
0.0
 20
0.0
 30
0.0
  0
INSERT
  5
C3
330
1F
100
AcDbEntity
  8
PIEZA
100
AcDbBlockReference
  2
block 13
 10
0.0
 20
0.0
 30
0.0
  0
INSERT
  5
C8
330
1F
100
AcDbEntity
  8
PIEZA
100
AcDbBlockReference
  2
block 14
 10
0.0
 20
0.0
 30
0.0
  0
INSERT
  5
D0
330
1F
100
AcDbEntity
  8
PIEZA
100
AcDbBlockReference
  2
block 15
 10
0.0
 20
0.0
 30
0.0
  0
INSERT
  5
D8
330
1F
100
AcDbEntity
  8
PIEZA
100
AcDbBlockReference
  2
block 16
 10
0.0
 20
0.0
 30
0.0
  0
INSERT
  5
E0
330
1F
100
AcDbEntity
  8
PIEZA
100
AcDbBlockReference
  2
block 17
 10
0.0
 20
0.0
 30
0.0
  0
INSERT
  5
E8
330
1F
100
AcDbEntity
  8
PIEZA
100
AcDbBlockReference
  2
block 18
 10
0.0
 20
0.0
 30
0.0
  0
INSERT
  5
F0
330
1F
100
AcDbEntity
  8
PIEZA
100
AcDbBlockReference
  2
block 19
 10
0.0
 20
0.0
 30
0.0
  0
INSERT
  5
F6
330
1F
100
AcDbEntity
  8
PIEZA
100
AcDbBlockReference
  2
block 20
 10
0.0
 20
0.0
 30
0.0
  0
INSERT
  5
FE
330
1F
100
AcDbEntity
  8
PIEZA
100
AcDbBlockReference
  2
block 21
 10
0.0
 20
0.0
 30
0.0
  0
INSERT
  5
106
330
1F
100
AcDbEntity
  8
PIEZA
100
AcDbBlockReference
  2
block 22
 10
0.0
 20
0.0
 30
0.0
  0
INSERT
  5
10E
330
1F
100
AcDbEntity
  8
PIEZA
100
AcDbBlockReference
  2
block 23
 10
0.0
 20
0.0
 30
0.0
  0
INSERT
  5
116
330
1F
100
AcDbEntity
  8
PIEZA
100
AcDbBlockReference
  2
block 24
 10
0.0
 20
0.0
 30
0.0
  0
INSERT
  5
11E
330
1F
100
AcDbEntity
  8
PIEZA
100
AcDbBlockReference
  2
block 25
 10
0.0
 20
0.0
 30
0.0
  0
INSERT
  5
126
330
1F
100
AcDbEntity
  8
PIEZA
100
AcDbBlockReference
  2
block 26
 10
0.0
 20
0.0
 30
0.0
  0
INSERT
  5
12B
330
1F
100
AcDbEntity
  8
PIEZA
100
AcDbBlockReference
  2
block 27
 10
0.0
 20
0.0
 30
0.0
  0
INSERT
  5
130
330
1F
100
AcDbEntity
  8
PIEZA
100
AcDbBlockReference
  2
block 28
 10
0.0
 20
0.0
 30
0.0
  0
INSERT
  5
138
330
1F
100
AcDbEntity
  8
PIEZA
100
AcDbBlockReference
  2
block 29
 10
0.0
 20
0.0
 30
0.0
  0
INSERT
  5
13D
330
1F
100
AcDbEntity
  8
PIEZA
100
AcDbBlockReference
  2
block 30
 10
0.0
 20
0.0
 30
0.0
  0
INSERT
  5
145
330
1F
100
AcDbEntity
  8
PIEZA
100
AcDbBlockReference
  2
block 31
 10
0.0
 20
0.0
 30
0.0
  0
INSERT
  5
14A
330
1F
100
AcDbEntity
  8
PIEZA
100
AcDbBlockReference
  2
block 32
 10
0.0
 20
0.0
 30
0.0
  0
INSERT
  5
14F
330
1F
100
AcDbEntity
  8
PIEZA
100
AcDbBlockReference
  2
block 33
 10
0.0
 20
0.0
 30
0.0
  0
INSERT
  5
154
330
1F
100
AcDbEntity
  8
PIEZA
100
AcDbBlockReference
  2
block 34
 10
0.0
 20
0.0
 30
0.0
  0
INSERT
  5
15C
330
1F
100
AcDbEntity
  8
PIEZA
100
AcDbBlockReference
  2
block 35
 10
0.0
 20
0.0
 30
0.0
  0
INSERT
  5
1A0
330
1F
100
AcDbEntity
  8
PIEZA
100
AcDbBlockReference
  2
block 36
 10
0.0
 20
0.0
 30
0.0
  0
INSERT
  5
1A8
330
1F
100
AcDbEntity
  8
PIEZA
100
AcDbBlockReference
  2
block 37
 10
0.0
 20
0.0
 30
0.0
  0
INSERT
  5
1AD
330
1F
100
AcDbEntity
  8
PIEZA
100
AcDbBlockReference
  2
block 38
 10
0.0
 20
0.0
 30
0.0
  0
INSERT
  5
1B5
330
1F
100
AcDbEntity
  8
PIEZA
100
AcDbBlockReference
  2
block 39
 10
0.0
 20
0.0
 30
0.0
  0
INSERT
  5
1BA
330
1F
100
AcDbEntity
  8
PIEZA
100
AcDbBlockReference
  2
block 40
 10
0.0
 20
0.0
 30
0.0
  0
INSERT
  5
1C2
330
1F
100
AcDbEntity
  8
PIEZA
100
AcDbBlockReference
  2
block 41
 10
0.0
 20
0.0
 30
0.0
  0
INSERT
  5
1C7
330
1F
100
AcDbEntity
  8
PIEZA
100
AcDbBlockReference
  2
block 42
 10
0.0
 20
0.0
 30
0.0
  0
INSERT
  5
1CF
330
1F
100
AcDbEntity
  8
PIEZA
100
AcDbBlockReference
  2
block 43
 10
0.0
 20
0.0
 30
0.0
  0
INSERT
  5
1D7
330
1F
100
AcDbEntity
  8
PIEZA
100
AcDbBlockReference
  2
block 44
 10
0.0
 20
0.0
 30
0.0
  0
INSERT
  5
1DF
330
1F
100
AcDbEntity
  8
PIEZA
100
AcDbBlockReference
  2
block 45
 10
0.0
 20
0.0
 30
0.0
  0
INSERT
  5
1E4
330
1F
100
AcDbEntity
  8
PIEZA
100
AcDbBlockReference
  2
block 46
 10
0.0
 20
0.0
 30
0.0
  0
INSERT
  5
1EC
330
1F
100
AcDbEntity
  8
PIEZA
100
AcDbBlockReference
  2
block 47
 10
0.0
 20
0.0
 30
0.0
  0
INSERT
  5
1F4
330
1F
100
AcDbEntity
  8
PIEZA
100
AcDbBlockReference
  2
block 48
 10
0.0
 20
0.0
 30
0.0
  0
INSERT
  5
1FC
330
1F
100
AcDbEntity
  8
PIEZA
100
AcDbBlockReference
  2
block 49
 10
0.0
 20
0.0
 30
0.0
  0
INSERT
  5
201
330
1F
100
AcDbEntity
  8
PIEZA
100
AcDbBlockReference
  2
block 50
 10
0.0
 20
0.0
 30
0.0
  0
INSERT
  5
209
330
1F
100
AcDbEntity
  8
PIEZA
100
AcDbBlockReference
  2
block 51
 10
0.0
 20
0.0
 30
0.0
  0
INSERT
  5
20E
330
1F
100
AcDbEntity
  8
PIEZA
100
AcDbBlockReference
  2
block 52
 10
0.0
 20
0.0
 30
0.0
  0
INSERT
  5
216
330
1F
100
AcDbEntity
  8
PIEZA
100
AcDbBlockReference
  2
block 53
 10
0.0
 20
0.0
 30
0.0
  0
INSERT
  5
21E
330
1F
100
AcDbEntity
  8
PIEZA
100
AcDbBlockReference
  2
block 54
 10
0.0
 20
0.0
 30
0.0
  0
INSERT
  5
226
330
1F
100
AcDbEntity
  8
PIEZA
100
AcDbBlockReference
  2
block 55
 10
0.0
 20
0.0
 30
0.0
  0
INSERT
  5
22E
330
1F
100
AcDbEntity
  8
PIEZA
100
AcDbBlockReference
  2
block 56
 10
0.0
 20
0.0
 30
0.0
  0
INSERT
  5
249
330
1F
100
AcDbEntity
  8
PIEZA
100
AcDbBlockReference
  2
block 57
 10
0.0
 20
0.0
 30
0.0
  0
INSERT
  5
264
330
1F
100
AcDbEntity
  8
PIEZA
100
AcDbBlockReference
  2
block 58
 10
0.0
 20
0.0
 30
0.0
  0
INSERT
  5
26C
330
1F
100
AcDbEntity
  8
PIEZA
100
AcDbBlockReference
  2
block 59
 10
0.0
 20
0.0
 30
0.0
  0
INSERT
  5
274
330
1F
100
AcDbEntity
  8
PIEZA
100
AcDbBlockReference
  2
block 60
 10
0.0
 20
0.0
 30
0.0
  0
INSERT
  5
279
330
1F
100
AcDbEntity
  8
PIEZA
100
AcDbBlockReference
  2
block 61
 10
0.0
 20
0.0
 30
0.0
  0
INSERT
  5
280
330
1F
100
AcDbEntity
  8
PIEZA
100
AcDbBlockReference
  2
block 62
 10
0.0
 20
0.0
 30
0.0
  0
INSERT
  5
285
330
1F
100
AcDbEntity
  8
PIEZA
100
AcDbBlockReference
  2
block 63
 10
0.0
 20
0.0
 30
0.0
  0
INSERT
  5
28D
330
1F
100
AcDbEntity
  8
PIEZA
100
AcDbBlockReference
  2
block 64
 10
0.0
 20
0.0
 30
0.0
  0
INSERT
  5
292
330
1F
100
AcDbEntity
  8
PIEZA
100
AcDbBlockReference
  2
block 65
 10
0.0
 20
0.0
 30
0.0
  0
INSERT
  5
297
330
1F
100
AcDbEntity
  8
PIEZA
100
AcDbBlockReference
  2
block 66
 10
0.0
 20
0.0
 30
0.0
  0
INSERT
  5
29F
330
1F
100
AcDbEntity
  8
PIEZA
100
AcDbBlockReference
  2
block 67
 10
0.0
 20
0.0
 30
0.0
  0
INSERT
  5
2A7
330
1F
100
AcDbEntity
  8
PIEZA
100
AcDbBlockReference
  2
block 68
 10
0.0
 20
0.0
 30
0.0
  0
INSERT
  5
2AF
330
1F
100
AcDbEntity
  8
PIEZA
100
AcDbBlockReference
  2
block 69
 10
0.0
 20
0.0
 30
0.0
  0
INSERT
  5
2B5
330
1F
100
AcDbEntity
  8
PIEZA
100
AcDbBlockReference
  2
block 70
 10
0.0
 20
0.0
 30
0.0
  0
INSERT
  5
2BB
330
1F
100
AcDbEntity
  8
PIEZA
100
AcDbBlockReference
  2
block 71
 10
0.0
 20
0.0
 30
0.0
  0
INSERT
  5
2C3
330
1F
100
AcDbEntity
  8
PIEZA
100
AcDbBlockReference
  2
block 72
 10
0.0
 20
0.0
 30
0.0
  0
INSERT
  5
2C8
330
1F
100
AcDbEntity
  8
PIEZA
100
AcDbBlockReference
  2
block 73
 10
0.0
 20
0.0
 30
0.0
  0
INSERT
  5
2D0
330
1F
100
AcDbEntity
  8
PIEZA
100
AcDbBlockReference
  2
block 74
 10
0.0
 20
0.0
 30
0.0
  0
INSERT
  5
2D8
330
1F
100
AcDbEntity
  8
PIEZA
100
AcDbBlockReference
  2
block 75
 10
0.0
 20
0.0
 30
0.0
  0
INSERT
  5
2DD
330
1F
100
AcDbEntity
  8
PIEZA
100
AcDbBlockReference
  2
block 76
 10
0.0
 20
0.0
 30
0.0
  0
INSERT
  5
2E5
330
1F
100
AcDbEntity
  8
PIEZA
100
AcDbBlockReference
  2
block 77
 10
0.0
 20
0.0
 30
0.0
  0
INSERT
  5
2ED
330
1F
100
AcDbEntity
  8
PIEZA
100
AcDbBlockReference
  2
block 78
 10
0.0
 20
0.0
 30
0.0
  0
INSERT
  5
2F2
330
1F
100
AcDbEntity
  8
PIEZA
100
AcDbBlockReference
  2
block 79
 10
0.0
 20
0.0
 30
0.0
  0
INSERT
  5
2FA
330
1F
100
AcDbEntity
  8
PIEZA
100
AcDbBlockReference
  2
block 80
 10
0.0
 20
0.0
 30
0.0
  0
INSERT
  5
30E
330
1F
100
AcDbEntity
  8
PIEZA
100
AcDbBlockReference
  2
block 81
 10
0.0
 20
0.0
 30
0.0
  0
INSERT
  5
313
330
1F
100
AcDbEntity
  8
PIEZA
100
AcDbBlockReference
  2
block 82
 10
0.0
 20
0.0
 30
0.0
  0
INSERT
  5
318
330
1F
100
AcDbEntity
  8
PIEZA
100
AcDbBlockReference
  2
block 83
 10
0.0
 20
0.0
 30
0.0
  0
INSERT
  5
31D
330
1F
100
AcDbEntity
  8
PIEZA
100
AcDbBlockReference
  2
block 84
 10
0.0
 20
0.0
 30
0.0
  0
INSERT
  5
331
330
1F
100
AcDbEntity
  8
PIEZA
100
AcDbBlockReference
  2
block 85
 10
0.0
 20
0.0
 30
0.0
  0
INSERT
  5
336
330
1F
100
AcDbEntity
  8
PIEZA
100
AcDbBlockReference
  2
block 86
 10
0.0
 20
0.0
 30
0.0
  0
INSERT
  5
33B
330
1F
100
AcDbEntity
  8
PIEZA
100
AcDbBlockReference
  2
block 87
 10
0.0
 20
0.0
 30
0.0
  0
INSERT
  5
340
330
1F
100
AcDbEntity
  8
PIEZA
100
AcDbBlockReference
  2
block 88
 10
0.0
 20
0.0
 30
0.0
  0
INSERT
  5
354
330
1F
100
AcDbEntity
  8
PIEZA
100
AcDbBlockReference
  2
block 89
 10
0.0
 20
0.0
 30
0.0
  0
INSERT
  5
359
330
1F
100
AcDbEntity
  8
PIEZA
100
AcDbBlockReference
  2
block 90
 10
0.0
 20
0.0
 30
0.0
  0
INSERT
  5
35E
330
1F
100
AcDbEntity
  8
PIEZA
100
AcDbBlockReference
  2
block 91
 10
0.0
 20
0.0
 30
0.0
  0
INSERT
  5
363
330
1F
100
AcDbEntity
  8
PIEZA
100
AcDbBlockReference
  2
block 92
 10
0.0
 20
0.0
 30
0.0
  0
INSERT
  5
377
330
1F
100
AcDbEntity
  8
PIEZA
100
AcDbBlockReference
  2
block 93
 10
0.0
 20
0.0
 30
0.0
  0
INSERT
  5
37C
330
1F
100
AcDbEntity
  8
PIEZA
100
AcDbBlockReference
  2
block 94
 10
0.0
 20
0.0
 30
0.0
  0
INSERT
  5
381
330
1F
100
AcDbEntity
  8
PIEZA
100
AcDbBlockReference
  2
block 95
 10
0.0
 20
0.0
 30
0.0
  0
INSERT
  5
386
330
1F
100
AcDbEntity
  8
PIEZA
100
AcDbBlockReference
  2
block 96
 10
0.0
 20
0.0
 30
0.0
  0
INSERT
  5
38B
330
1F
100
AcDbEntity
  8
PIEZA
100
AcDbBlockReference
  2
block 97
 10
0.0
 20
0.0
 30
0.0
  0
INSERT
  5
393
330
1F
100
AcDbEntity
  8
PIEZA
100
AcDbBlockReference
  2
block 98
 10
0.0
 20
0.0
 30
0.0
  0
INSERT
  5
39B
330
1F
100
AcDbEntity
  8
PIEZA
100
AcDbBlockReference
  2
block 99
 10
0.0
 20
0.0
 30
0.0
  0
INSERT
  5
3A0
330
1F
100
AcDbEntity
  8
PIEZA
100
AcDbBlockReference
  2
block 100
 10
0.0
 20
0.0
 30
0.0
  0
INSERT
  5
3A8
330
1F
100
AcDbEntity
  8
PIEZA
100
AcDbBlockReference
  2
block 101
 10
0.0
 20
0.0
 30
0.0
  0
INSERT
  5
3B0
330
1F
100
AcDbEntity
  8
PIEZA
100
AcDbBlockReference
  2
block 102
 10
0.0
 20
0.0
 30
0.0
  0
INSERT
  5
3B5
330
1F
100
AcDbEntity
  8
PIEZA
100
AcDbBlockReference
  2
block 103
 10
0.0
 20
0.0
 30
0.0
  0
INSERT
  5
3BD
330
1F
100
AcDbEntity
  8
PIEZA
100
AcDbBlockReference
  2
block 104
 10
0.0
 20
0.0
 30
0.0
  0
INSERT
  5
3C5
330
1F
100
AcDbEntity
  8
PIEZA
100
AcDbBlockReference
  2
block 105
 10
0.0
 20
0.0
 30
0.0
  0
INSERT
  5
3CD
330
1F
100
AcDbEntity
  8
PIEZA
100
AcDbBlockReference
  2
block 106
 10
0.0
 20
0.0
 30
0.0
  0
INSERT
  5
3D5
330
1F
100
AcDbEntity
  8
PIEZA
100
AcDbBlockReference
  2
block 107
 10
0.0
 20
0.0
 30
0.0
  0
INSERT
  5
3DD
330
1F
100
AcDbEntity
  8
PIEZA
100
AcDbBlockReference
  2
block 108
 10
0.0
 20
0.0
 30
0.0
  0
INSERT
  5
3E5
330
1F
100
AcDbEntity
  8
PIEZA
100
AcDbBlockReference
  2
block 109
 10
0.0
 20
0.0
 30
0.0
  0
INSERT
  5
3EA
330
1F
100
AcDbEntity
  8
PIEZA
100
AcDbBlockReference
  2
block 110
 10
0.0
 20
0.0
 30
0.0
  0
INSERT
  5
3F2
330
1F
100
AcDbEntity
  8
PIEZA
100
AcDbBlockReference
  2
block 111
 10
0.0
 20
0.0
 30
0.0
  0
INSERT
  5
3FA
330
1F
100
AcDbEntity
  8
PIEZA
100
AcDbBlockReference
  2
block 112
 10
0.0
 20
0.0
 30
0.0
  0
INSERT
  5
3FF
330
1F
100
AcDbEntity
  8
PIEZA
100
AcDbBlockReference
  2
block 113
 10
0.0
 20
0.0
 30
0.0
  0
INSERT
  5
407
330
1F
100
AcDbEntity
  8
PIEZA
100
AcDbBlockReference
  2
block 114
 10
0.0
 20
0.0
 30
0.0
  0
INSERT
  5
40F
330
1F
100
AcDbEntity
  8
PIEZA
100
AcDbBlockReference
  2
block 115
 10
0.0
 20
0.0
 30
0.0
  0
INSERT
  5
417
330
1F
100
AcDbEntity
  8
PIEZA
100
AcDbBlockReference
  2
block 116
 10
0.0
 20
0.0
 30
0.0
  0
INSERT
  5
41F
330
1F
100
AcDbEntity
  8
PIEZA
100
AcDbBlockReference
  2
block 117
 10
0.0
 20
0.0
 30
0.0
  0
INSERT
  5
427
330
1F
100
AcDbEntity
  8
PIEZA
100
AcDbBlockReference
  2
block 118
 10
0.0
 20
0.0
 30
0.0
  0
INSERT
  5
42C
330
1F
100
AcDbEntity
  8
PIEZA
100
AcDbBlockReference
  2
block 119
 10
0.0
 20
0.0
 30
0.0
  0
INSERT
  5
431
330
1F
100
AcDbEntity
  8
PIEZA
100
AcDbBlockReference
  2
block 120
 10
0.0
 20
0.0
 30
0.0
  0
INSERT
  5
436
330
1F
100
AcDbEntity
  8
PIEZA
100
AcDbBlockReference
  2
block 121
 10
0.0
 20
0.0
 30
0.0
  0
INSERT
  5
43B
330
1F
100
AcDbEntity
  8
PIEZA
100
AcDbBlockReference
  2
block 122
 10
0.0
 20
0.0
 30
0.0
  0
INSERT
  5
440
330
1F
100
AcDbEntity
  8
PIEZA
100
AcDbBlockReference
  2
block 123
 10
0.0
 20
0.0
 30
0.0
  0
INSERT
  5
445
330
1F
100
AcDbEntity
  8
PIEZA
100
AcDbBlockReference
  2
block 124
 10
0.0
 20
0.0
 30
0.0
  0
INSERT
  5
44A
330
1F
100
AcDbEntity
  8
PIEZA
100
AcDbBlockReference
  2
block 125
 10
0.0
 20
0.0
 30
0.0
  0
INSERT
  5
44F
330
1F
100
AcDbEntity
  8
PIEZA
100
AcDbBlockReference
  2
block 126
 10
0.0
 20
0.0
 30
0.0
  0
INSERT
  5
454
330
1F
100
AcDbEntity
  8
PIEZA
100
AcDbBlockReference
  2
block 127
 10
0.0
 20
0.0
 30
0.0
  0
INSERT
  5
459
330
1F
100
AcDbEntity
  8
PIEZA
100
AcDbBlockReference
  2
block 128
 10
0.0
 20
0.0
 30
0.0
  0
INSERT
  5
45E
330
1F
100
AcDbEntity
  8
PIEZA
100
AcDbBlockReference
  2
block 129
 10
0.0
 20
0.0
 30
0.0
  0
INSERT
  5
463
330
1F
100
AcDbEntity
  8
PIEZA
100
AcDbBlockReference
  2
block 130
 10
0.0
 20
0.0
 30
0.0
  0
INSERT
  5
468
330
1F
100
AcDbEntity
  8
PIEZA
100
AcDbBlockReference
  2
block 131
 10
0.0
 20
0.0
 30
0.0
  0
INSERT
  5
46D
330
1F
100
AcDbEntity
  8
PIEZA
100
AcDbBlockReference
  2
block 132
 10
0.0
 20
0.0
 30
0.0
  0
INSERT
  5
472
330
1F
100
AcDbEntity
  8
PIEZA
100
AcDbBlockReference
  2
block 133
 10
0.0
 20
0.0
 30
0.0
  0
INSERT
  5
477
330
1F
100
AcDbEntity
  8
PIEZA
100
AcDbBlockReference
  2
block 134
 10
0.0
 20
0.0
 30
0.0
  0
INSERT
  5
47C
330
1F
100
AcDbEntity
  8
PIEZA
100
AcDbBlockReference
  2
block 135
 10
0.0
 20
0.0
 30
0.0
  0
INSERT
  5
481
330
1F
100
AcDbEntity
  8
PIEZA
100
AcDbBlockReference
  2
block 136
 10
0.0
 20
0.0
 30
0.0
  0
INSERT
  5
486
330
1F
100
AcDbEntity
  8
PIEZA
100
AcDbBlockReference
  2
block 137
 10
0.0
 20
0.0
 30
0.0
  0
INSERT
  5
48E
330
1F
100
AcDbEntity
  8
PIEZA
100
AcDbBlockReference
  2
block 138
 10
0.0
 20
0.0
 30
0.0
  0
INSERT
  5
493
330
1F
100
AcDbEntity
  8
PIEZA
100
AcDbBlockReference
  2
block 139
 10
0.0
 20
0.0
 30
0.0
  0
INSERT
  5
498
330
1F
100
AcDbEntity
  8
PIEZA
100
AcDbBlockReference
  2
block 140
 10
0.0
 20
0.0
 30
0.0
  0
INSERT
  5
4A0
330
1F
100
AcDbEntity
  8
PIEZA
100
AcDbBlockReference
  2
block 141
 10
0.0
 20
0.0
 30
0.0
  0
INSERT
  5
4A5
330
1F
100
AcDbEntity
  8
PIEZA
100
AcDbBlockReference
  2
block 142
 10
0.0
 20
0.0
 30
0.0
  0
INSERT
  5
4AD
330
1F
100
AcDbEntity
  8
PIEZA
100
AcDbBlockReference
  2
block 143
 10
0.0
 20
0.0
 30
0.0
  0
INSERT
  5
4B6
330
1F
100
AcDbEntity
  8
Eixos
100
AcDbBlockReference
  2
block 144
 10
0.0
 20
0.0
 30
0.0
  0
INSERT
  5
4BF
330
1F
100
AcDbEntity
  8
Eixos
100
AcDbBlockReference
  2
block 145
 10
0.0
 20
0.0
 30
0.0
  0
INSERT
  5
4C8
330
1F
100
AcDbEntity
  8
Eixos
100
AcDbBlockReference
  2
block 146
 10
0.0
 20
0.0
 30
0.0
  0
INSERT
  5
4D4
330
1F
100
AcDbEntity
  8
COTAS
100
AcDbBlockReference
  2
block 147
 10
0.0
 20
0.0
 30
0.0
  0
INSERT
  5
4DC
330
1F
100
AcDbEntity
  8
COTAS
100
AcDbBlockReference
  2
block 148
 10
0.0
 20
0.0
 30
0.0
  0
INSERT
  5
4E4
330
1F
100
AcDbEntity
  8
COTAS
100
AcDbBlockReference
  2
block 149
 10
0.0
 20
0.0
 30
0.0
  0
INSERT
  5
4EC
330
1F
100
AcDbEntity
  8
COTAS
100
AcDbBlockReference
  2
block 150
 10
0.0
 20
0.0
 30
0.0
  0
INSERT
  5
4F7
330
1F
100
AcDbEntity
  8
COTAS
100
AcDbBlockReference
  2
block 151
 10
0.0
 20
0.0
 30
0.0
  0
INSERT
  5
502
330
1F
100
AcDbEntity
  8
COTAS
100
AcDbBlockReference
  2
block 152
 10
0.0
 20
0.0
 30
0.0
  0
INSERT
  5
507
330
1F
100
AcDbEntity
  8
COTAS
100
AcDbBlockReference
  2
block 153
 10
0.0
 20
0.0
 30
0.0
  0
INSERT
  5
50F
330
1F
100
AcDbEntity
  8
COTAS
100
AcDbBlockReference
  2
block 154
 10
0.0
 20
0.0
 30
0.0
  0
INSERT
  5
517
330
1F
100
AcDbEntity
  8
COTAS
100
AcDbBlockReference
  2
block 155
 10
0.0
 20
0.0
 30
0.0
  0
INSERT
  5
51F
330
1F
100
AcDbEntity
  8
COTAS
100
AcDbBlockReference
  2
block 156
 10
0.0
 20
0.0
 30
0.0
  0
INSERT
  5
52A
330
1F
100
AcDbEntity
  8
COTAS
100
AcDbBlockReference
  2
block 157
 10
0.0
 20
0.0
 30
0.0
  0
INSERT
  5
535
330
1F
100
AcDbEntity
  8
COTAS
100
AcDbBlockReference
  2
block 158
 10
0.0
 20
0.0
 30
0.0
  0
INSERT
  5
53A
330
1F
100
AcDbEntity
  8
COTAS
100
AcDbBlockReference
  2
block 159
 10
0.0
 20
0.0
 30
0.0
  0
INSERT
  5
542
330
1F
100
AcDbEntity
  8
COTAS
100
AcDbBlockReference
  2
block 160
 10
0.0
 20
0.0
 30
0.0
  0
INSERT
  5
54A
330
1F
100
AcDbEntity
  8
COTAS
100
AcDbBlockReference
  2
block 161
 10
0.0
 20
0.0
 30
0.0
  0
INSERT
  5
552
330
1F
100
AcDbEntity
  8
COTAS
100
AcDbBlockReference
  2
block 162
 10
0.0
 20
0.0
 30
0.0
  0
INSERT
  5
55D
330
1F
100
AcDbEntity
  8
COTAS
100
AcDbBlockReference
  2
block 163
 10
0.0
 20
0.0
 30
0.0
  0
INSERT
  5
568
330
1F
100
AcDbEntity
  8
COTAS
100
AcDbBlockReference
  2
block 164
 10
0.0
 20
0.0
 30
0.0
  0
INSERT
  5
56D
330
1F
100
AcDbEntity
  8
COTAS
100
AcDbBlockReference
  2
block 165
 10
0.0
 20
0.0
 30
0.0
  0
INSERT
  5
575
330
1F
100
AcDbEntity
  8
COTAS
100
AcDbBlockReference
  2
block 166
 10
0.0
 20
0.0
 30
0.0
  0
INSERT
  5
57D
330
1F
100
AcDbEntity
  8
COTAS
100
AcDbBlockReference
  2
block 167
 10
0.0
 20
0.0
 30
0.0
  0
INSERT
  5
585
330
1F
100
AcDbEntity
  8
COTAS
100
AcDbBlockReference
  2
block 168
 10
0.0
 20
0.0
 30
0.0
  0
INSERT
  5
590
330
1F
100
AcDbEntity
  8
COTAS
100
AcDbBlockReference
  2
block 169
 10
0.0
 20
0.0
 30
0.0
  0
INSERT
  5
59B
330
1F
100
AcDbEntity
  8
COTAS
100
AcDbBlockReference
  2
block 170
 10
0.0
 20
0.0
 30
0.0
  0
INSERT
  5
5A0
330
1F
100
AcDbEntity
  8
COTAS
100
AcDbBlockReference
  2
block 171
 10
0.0
 20
0.0
 30
0.0
  0
INSERT
  5
5A8
330
1F
100
AcDbEntity
  8
COTAS
100
AcDbBlockReference
  2
block 172
 10
0.0
 20
0.0
 30
0.0
  0
INSERT
  5
5B0
330
1F
100
AcDbEntity
  8
COTAS
100
AcDbBlockReference
  2
block 173
 10
0.0
 20
0.0
 30
0.0
  0
INSERT
  5
5B8
330
1F
100
AcDbEntity
  8
COTAS
100
AcDbBlockReference
  2
block 174
 10
0.0
 20
0.0
 30
0.0
  0
INSERT
  5
5C3
330
1F
100
AcDbEntity
  8
COTAS
100
AcDbBlockReference
  2
block 175
 10
0.0
 20
0.0
 30
0.0
  0
INSERT
  5
5CE
330
1F
100
AcDbEntity
  8
COTAS
100
AcDbBlockReference
  2
block 176
 10
0.0
 20
0.0
 30
0.0
  0
INSERT
  5
5D4
330
1F
100
AcDbEntity
  8
DEFPOINTS
100
AcDbBlockReference
  2
block 177
 10
0.0
 20
0.0
 30
0.0
  0
INSERT
  5
5DC
330
1F
100
AcDbEntity
  8
DEFPOINTS
100
AcDbBlockReference
  2
block 178
 10
0.0
 20
0.0
 30
0.0
  0
INSERT
  5
5E4
330
1F
100
AcDbEntity
  8
DEFPOINTS
100
AcDbBlockReference
  2
block 179
 10
0.0
 20
0.0
 30
0.0
  0
INSERT
  5
5EC
330
1F
100
AcDbEntity
  8
DEFPOINTS
100
AcDbBlockReference
  2
block 180
 10
0.0
 20
0.0
 30
0.0
  0
INSERT
  5
5F4
330
1F
100
AcDbEntity
  8
DEFPOINTS
100
AcDbBlockReference
  2
block 181
 10
0.0
 20
0.0
 30
0.0
  0
INSERT
  5
5FC
330
1F
100
AcDbEntity
  8
DEFPOINTS
100
AcDbBlockReference
  2
block 182
 10
0.0
 20
0.0
 30
0.0
  0
INSERT
  5
604
330
1F
100
AcDbEntity
  8
DEFPOINTS
100
AcDbBlockReference
  2
block 183
 10
0.0
 20
0.0
 30
0.0
  0
INSERT
  5
60C
330
1F
100
AcDbEntity
  8
DEFPOINTS
100
AcDbBlockReference
  2
block 184
 10
0.0
 20
0.0
 30
0.0
  0
INSERT
  5
614
330
1F
100
AcDbEntity
  8
DEFPOINTS
100
AcDbBlockReference
  2
block 185
 10
0.0
 20
0.0
 30
0.0
  0
INSERT
  5
61C
330
1F
100
AcDbEntity
  8
DEFPOINTS
100
AcDbBlockReference
  2
block 186
 10
0.0
 20
0.0
 30
0.0
  0
INSERT
  5
624
330
1F
100
AcDbEntity
  8
DEFPOINTS
100
AcDbBlockReference
  2
block 187
 10
0.0
 20
0.0
 30
0.0
  0
INSERT
  5
62C
330
1F
100
AcDbEntity
  8
DEFPOINTS
100
AcDbBlockReference
  2
block 188
 10
0.0
 20
0.0
 30
0.0
  0
INSERT
  5
634
330
1F
100
AcDbEntity
  8
DEFPOINTS
100
AcDbBlockReference
  2
block 189
 10
0.0
 20
0.0
 30
0.0
  0
INSERT
  5
63C
330
1F
100
AcDbEntity
  8
DEFPOINTS
100
AcDbBlockReference
  2
block 190
 10
0.0
 20
0.0
 30
0.0
  0
INSERT
  5
644
330
1F
100
AcDbEntity
  8
DEFPOINTS
100
AcDbBlockReference
  2
block 191
 10
0.0
 20
0.0
 30
0.0
  0
ENDSEC
  0
SECTION
  2
OBJECTS
  0
DICTIONARY
  5
C
330
0
100
AcDbDictionary
281
     1
  3
ACAD_GROUP
350
D
  3
ACAD_LAYOUT
350
1A
  3
ACAD_MATERIAL
350
3B
  3
ACAD_MLEADERSTYLE
350
64D
  3
ACAD_MLINESTYLE
350
17
  3
ACAD_PLOTSETTINGS
350
19
  3
ACAD_PLOTSTYLENAME
350
E
  3
ACAD_TABLESTYLE
350
64C
  3
ACAD_VISUALSTYLE
350
2A
  0
SUN
  5
3F
330
29
100
AcDbSun
 90
        1
290
     0
 63
     7
421
 16777215
 40
1.0
291
     1
 91
  2455826
 92
 54000000
292
     0
 70
     2
 71
   256
280
     1
  0
DICTIONARY
  5
D
102
{ACAD_REACTORS
330
C
102
}
330
C
100
AcDbDictionary
281
     1
  0
DICTIONARY
  5
1A
102
{ACAD_REACTORS
330
C
102
}
330
C
100
AcDbDictionary
281
     1
  3
Layout1
350
1E
  3
Layout2
350
26
  3
Model
350
22
  0
DICTIONARY
  5
3B
102
{ACAD_REACTORS
330
C
102
}
330
C
100
AcDbDictionary
281
     1
  3
ByBlock
350
3D
  3
ByLayer
350
3C
  3
Global
350
3E
  0
DICTIONARY
  5
64D
102
{ACAD_REACTORS
330
C
102
}
330
C
100
AcDbDictionary
281
     1
  0
DICTIONARY
  5
17
102
{ACAD_REACTORS
330
C
102
}
330
C
100
AcDbDictionary
281
     1
  3
Standard
350
18
  0
DICTIONARY
  5
19
102
{ACAD_REACTORS
330
C
102
}
330
C
100
AcDbDictionary
281
     1
  0
ACDBDICTIONARYWDFLT
  5
E
102
{ACAD_REACTORS
330
C
102
}
330
C
100
AcDbDictionary
281
     1
  3
Normal
350
F
100
AcDbDictionaryWithDefault
340
F
  0
DICTIONARY
  5
64C
102
{ACAD_REACTORS
330
C
102
}
330
C
100
AcDbDictionary
281
     1
  0
DICTIONARY
  5
2A
102
{ACAD_REACTORS
330
C
102
}
330
C
100
AcDbDictionary
281
     1
  3
2dWireframe
350
2F
  3
3D Hidden
350
31
  3
3dWireframe
350
30
  3
Basic
350
32
  3
Brighten
350
36
  3
ColorChange
350
3A
  3
Conceptual
350
34
  3
Dim
350
35
  3
Facepattern
350
39
  3
Flat
350
2B
  3
FlatWithEdges
350
2C
  3
Gouraud
350
2D
  3
GouraudWithEdges
350
2E
  3
Linepattern
350
38
  3
Realistic
350
33
  3
Thicken
350
37
  0
LAYOUT
  5
1E
102
{ACAD_REACTORS
330
1A
102
}
330
1A
100
AcDbPlotSettings
  1

  2
none_device
  4

  6

 40
0.0
 41
0.0
 42
0.0
 43
0.0
 44
0.0
 45
0.0
 46
0.0
 47
0.0
 48
0.0
 49
0.0
140
0.0
141
0.0
142
1.0
143
1.0
 70
   688
 72
     0
 73
     0
 74
     5
  7

 75
    16
 76
     0
 77
     2
 78
   300
147
1.0
148
0.0
149
0.0
100
AcDbLayout
  1
Layout1
 70
     1
 71
     1
 10
0.0
 20
0.0
 11
12.0
 21
9.0
 12
0.0
 22
0.0
 32
0.0
 14
1.000000000000000E+20
 24
1.000000000000000E+20
 34
1.000000000000000E+20
 15
-1.000000000000000E+20
 25
-1.000000000000000E+20
 35
-1.000000000000000E+20
146
0.0
 13
0.0
 23
0.0
 33
0.0
 16
1.0
 26
0.0
 36
0.0
 17
0.0
 27
1.0
 37
0.0
 76
     0
330
1B
  0
LAYOUT
  5
26
102
{ACAD_REACTORS
330
1A
102
}
330
1A
100
AcDbPlotSettings
  1

  2
none_device
  4

  6

 40
0.0
 41
0.0
 42
0.0
 43
0.0
 44
0.0
 45
0.0
 46
0.0
 47
0.0
 48
0.0
 49
0.0
140
0.0
141
0.0
142
1.0
143
1.0
 70
   688
 72
     0
 73
     0
 74
     5
  7

 75
    16
 76
     0
 77
     2
 78
   300
147
1.0
148
0.0
149
0.0
100
AcDbLayout
  1
Layout2
 70
     1
 71
     2
 10
0.0
 20
0.0
 11
0.0
 21
0.0
 12
0.0
 22
0.0
 32
0.0
 14
0.0
 24
0.0
 34
0.0
 15
0.0
 25
0.0
 35
0.0
146
0.0
 13
0.0
 23
0.0
 33
0.0
 16
1.0
 26
0.0
 36
0.0
 17
0.0
 27
1.0
 37
0.0
 76
     0
330
23
  0
LAYOUT
  5
22
102
{ACAD_REACTORS
330
1A
102
}
330
1A
100
AcDbPlotSettings
  1

  2
none_device
  4

  6

 40
0.0
 41
0.0
 42
0.0
 43
0.0
 44
0.0
 45
0.0
 46
0.0
 47
0.0
 48
0.0
 49
0.0
140
0.0
141
0.0
142
1.0
143
1.0
 70
  1712
 72
     0
 73
     0
 74
     0
  7

 75
     0
 76
     0
 77
     2
 78
   300
147
1.0
148
0.0
149
0.0
100
AcDbLayout
  1
Model
 70
     1
 71
     0
 10
0.0
 20
0.0
 11
12.0
 21
9.0
 12
0.0
 22
0.0
 32
0.0
 14
1.000000000000000E+20
 24
1.000000000000000E+20
 34
1.000000000000000E+20
 15
-1.000000000000000E+20
 25
-1.000000000000000E+20
 35
-1.000000000000000E+20
146
0.0
 13
0.0
 23
0.0
 33
0.0
 16
1.0
 26
0.0
 36
0.0
 17
0.0
 27
1.0
 37
0.0
 76
     0
330
1F
331
29
  0
MATERIAL
  5
3D
102
{ACAD_REACTORS
330
3B
102
}
330
3B
100
AcDbMaterial
  1
ByBlock
 72
     1
 94
      127
  0
MATERIAL
  5
3C
102
{ACAD_REACTORS
330
3B
102
}
330
3B
100
AcDbMaterial
  1
ByLayer
 72
     1
 94
      127
  0
MATERIAL
  5
3E
102
{ACAD_REACTORS
330
3B
102
}
330
3B
100
AcDbMaterial
  1
Global
 72
     1
 94
      127
  0
MLINESTYLE
  5
18
102
{ACAD_REACTORS
330
17
102
}
330
17
100
AcDbMlineStyle
  2
Standard
 70
     0
  3

 62
   256
 51
90.0
 52
90.0
 71
     2
 49
0.5
 62
   256
  6
BYLAYER
 49
-0.5
 62
   256
  6
BYLAYER
  0
ACDBPLACEHOLDER
  5
F
102
{ACAD_REACTORS
330
E
102
}
330
E
  0
VISUALSTYLE
  5
2F
102
{ACAD_REACTORS
330
2A
102
}
330
2A
100
AcDbVisualStyle
  2
2dWireframe
 70
     4
177
     2
291
     0
 71
     0
176
     1
 72
     2
176
     1
 73
     0
176
     1
 90
        0
176
     1
 40
-0.6
176
     1
 41
-30.0
176
     1
 62
     5
 63
     7
421
 16777215
176
     1
 74
     1
176
     1
 91
        4
176
     1
 64
     7
176
     1
 65
   257
176
     1
 75
     1
176
     1
175
     1
176
     1
 42
1.0
176
     1
 92
        0
176
     1
 66
   257
176
     1
 43
1.0
176
     1
 76
     1
176
     1
 77
     6
176
     1
 78
     2
176
     1
 67
     7
176
     1
 79
     5
176
     1
170
     0
176
     1
171
     0
176
     1
290
     0
176
     1
 93
        1
176
     1
 44
0.0
176
     1
173
     0
176
     1
  0
VISUALSTYLE
  5
31
102
{ACAD_REACTORS
330
2A
102
}
330
2A
100
AcDbVisualStyle
  2
3D Hidden
 70
     6
177
     2
291
     0
 71
     1
176
     1
 72
     2
176
     1
 73
     2
176
     1
 90
        0
176
     1
 40
-0.6
176
     1
 41
-30.0
176
     1
 62
     5
 63
     7
421
 16777215
176
     1
 74
     2
176
     1
 91
        2
176
     1
 64
     7
176
     1
 65
   257
176
     1
 75
     2
176
     1
175
     1
176
     1
 42
40.0
176
     1
 92
        0
176
     1
 66
   257
176
     1
 43
1.0
176
     1
 76
     1
176
     1
 77
     6
176
     1
 78
     2
176
     1
 67
     7
176
     1
 79
     3
176
     1
170
     0
176
     1
171
     0
176
     1
290
     0
176
     1
 93
        1
176
     1
 44
0.0
176
     1
173
     0
176
     1
  0
VISUALSTYLE
  5
30
102
{ACAD_REACTORS
330
2A
102
}
330
2A
100
AcDbVisualStyle
  2
3dWireframe
 70
     5
177
     2
291
     0
 71
     0
176
     1
 72
     2
176
     1
 73
     0
176
     1
 90
        0
176
     1
 40
-0.6
176
     1
 41
-30.0
176
     1
 62
     5
 63
     7
421
 16777215
176
     1
 74
     1
176
     1
 91
        4
176
     1
 64
     7
176
     1
 65
   257
176
     1
 75
     1
176
     1
175
     1
176
     1
 42
1.0
176
     1
 92
        0
176
     1
 66
   257
176
     1
 43
1.0
176
     1
 76
     1
176
     1
 77
     6
176
     1
 78
     2
176
     1
 67
     7
176
     1
 79
     5
176
     1
170
     0
176
     1
171
     0
176
     1
290
     0
176
     1
 93
        1
176
     1
 44
0.0
176
     1
173
     0
176
     1
  0
VISUALSTYLE
  5
32
102
{ACAD_REACTORS
330
2A
102
}
330
2A
100
AcDbVisualStyle
  2
Basic
 70
     7
177
     2
291
     1
 71
     1
176
     1
 72
     0
176
     1
 73
     1
176
     1
 90
        0
176
     1
 40
-0.6
176
     1
 41
-30.0
176
     1
 62
     5
 63
     7
421
 16777215
176
     1
 74
     0
176
     1
 91
        4
176
     1
 64
     7
176
     1
 65
   257
176
     1
 75
     1
176
     1
175
     1
176
     1
 42
1.0
176
     1
 92
        8
176
     1
 66
     7
176
     1
 43
1.0
176
     1
 76
     1
176
     1
 77
     6
176
     1
 78
     2
176
     1
 67
     7
176
     1
 79
     5
176
     1
170
     0
176
     1
171
     0
176
     1
290
     0
176
     1
 93
        1
176
     1
 44
0.0
176
     1
173
     0
176
     1
  0
VISUALSTYLE
  5
36
102
{ACAD_REACTORS
330
2A
102
}
330
2A
100
AcDbVisualStyle
  2
Brighten
 70
    12
177
     2
291
     1
 71
     2
176
     1
 72
     2
176
     1
 73
     0
176
     1
 90
        0
176
     1
 40
-0.6
176
     1
 41
-30.0
176
     1
 62
     5
 63
     7
421
 16777215
176
     1
 74
     1
176
     1
 91
        4
176
     1
 64
     7
176
     1
 65
   257
176
     1
 75
     1
176
     1
175
     1
176
     1
 42
1.0
176
     1
 92
        8
176
     1
 66
     7
176
     1
 43
1.0
176
     1
 76
     1
176
     1
 77
     6
176
     1
 78
     2
176
     1
 67
     7
176
     1
 79
     5
176
     1
170
     0
176
     1
171
     0
176
     1
290
     0
176
     1
 93
        1
176
     1
 44
50.0
176
     1
173
     0
176
     1
  0
VISUALSTYLE
  5
3A
102
{ACAD_REACTORS
330
2A
102
}
330
2A
100
AcDbVisualStyle
  2
ColorChange
 70
    16
177
     2
291
     1
 71
     2
176
     1
 72
     2
176
     1
 73
     3
176
     1
 90
        0
176
     1
 40
-0.6
176
     1
 41
-30.0
176
     1
 62
     5
 63
     8
421
  8421504
176
     1
 74
     1
176
     1
 91
        4
176
     1
 64
     7
176
     1
 65
   257
176
     1
 75
     1
176
     1
175
     1
176
     1
 42
1.0
176
     1
 92
        8
176
     1
 66
     8
424
  8421504
176
     1
 43
1.0
176
     1
 76
     1
176
     1
 77
     6
176
     1
 78
     2
176
     1
 67
     7
176
     1
 79
     5
176
     1
170
     0
176
     1
171
     0
176
     1
290
     0
176
     1
 93
        1
176
     1
 44
0.0
176
     1
173
     0
176
     1
  0
VISUALSTYLE
  5
34
102
{ACAD_REACTORS
330
2A
102
}
330
2A
100
AcDbVisualStyle
  2
Conceptual
 70
     9
177
     2
291
     0
 71
     3
176
     1
 72
     2
176
     1
 73
     0
176
     1
 90
        0
176
     1
 40
-0.6
176
     1
 41
-30.0
176
     1
 62
     5
 63
     7
421
 16777215
176
     1
 74
     2
176
     1
 91
        2
176
     1
 64
     7
176
     1
 65
   257
176
     1
 75
     1
176
     1
175
     1
176
     1
 42
40.0
176
     1
 92
        8
176
     1
 66
     7
176
     1
 43
1.0
176
     1
 76
     1
176
     1
 77
     6
176
     1
 78
     2
176
     1
 67
     7
176
     1
 79
     3
176
     1
170
     0
176
     1
171
     0
176
     1
290
     0
176
     1
 93
        1
176
     1
 44
0.0
176
     1
173
     0
176
     1
  0
VISUALSTYLE
  5
35
102
{ACAD_REACTORS
330
2A
102
}
330
2A
100
AcDbVisualStyle
  2
Dim
 70
    11
177
     2
291
     1
 71
     2
176
     1
 72
     2
176
     1
 73
     0
176
     1
 90
        0
176
     1
 40
-0.6
176
     1
 41
-30.0
176
     1
 62
     5
 63
     7
421
 16777215
176
     1
 74
     1
176
     1
 91
        4
176
     1
 64
     7
176
     1
 65
   257
176
     1
 75
     1
176
     1
175
     1
176
     1
 42
1.0
176
     1
 92
        8
176
     1
 66
     7
176
     1
 43
1.0
176
     1
 76
     1
176
     1
 77
     6
176
     1
 78
     2
176
     1
 67
     7
176
     1
 79
     5
176
     1
170
     0
176
     1
171
     0
176
     1
290
     0
176
     1
 93
        1
176
     1
 44
-50.0
176
     1
173
     0
176
     1
  0
VISUALSTYLE
  5
39
102
{ACAD_REACTORS
330
2A
102
}
330
2A
100
AcDbVisualStyle
  2
Facepattern
 70
    15
177
     2
291
     1
 71
     2
176
     1
 72
     2
176
     1
 73
     0
176
     1
 90
        0
176
     1
 40
-0.6
176
     1
 41
-30.0
176
     1
 62
     5
 63
     7
421
 16777215
176
     1
 74
     1
176
     1
 91
        4
176
     1
 64
     7
176
     1
 65
   257
176
     1
 75
     1
176
     1
175
     1
176
     1
 42
1.0
176
     1
 92
        8
176
     1
 66
     7
176
     1
 43
1.0
176
     1
 76
     1
176
     1
 77
     6
176
     1
 78
     2
176
     1
 67
     7
176
     1
 79
     5
176
     1
170
     0
176
     1
171
     0
176
     1
290
     0
176
     1
 93
        1
176
     1
 44
0.0
176
     1
173
     0
176
     1
  0
VISUALSTYLE
  5
2B
102
{ACAD_REACTORS
330
2A
102
}
330
2A
100
AcDbVisualStyle
  2
Flat
 70
     0
177
     2
291
     1
 71
     2
176
     1
 72
     1
176
     1
 73
     1
176
     1
 90
        2
176
     1
 40
-0.6
176
     1
 41
30.0
176
     1
 62
     5
 63
     7
421
 16777215
176
     1
 74
     0
176
     1
 91
        4
176
     1
 64
     7
176
     1
 65
   257
176
     1
 75
     1
176
     1
175
     1
176
     1
 42
1.0
176
     1
 92
        8
176
     1
 66
     7
176
     1
 43
1.0
176
     1
 76
     1
176
     1
 77
     6
176
     1
 78
     2
176
     1
 67
     7
176
     1
 79
     5
176
     1
170
     0
176
     1
171
     0
176
     1
290
     0
176
     1
 93
       13
176
     1
 44
0.0
176
     1
173
     0
176
     1
  0
VISUALSTYLE
  5
2C
102
{ACAD_REACTORS
330
2A
102
}
330
2A
100
AcDbVisualStyle
  2
FlatWithEdges
 70
     1
177
     2
291
     1
 71
     2
176
     1
 72
     1
176
     1
 73
     1
176
     1
 90
        2
176
     1
 40
-0.6
176
     1
 41
30.0
176
     1
 62
     5
 63
     7
421
 16777215
176
     1
 74
     1
176
     1
 91
        4
176
     1
 64
     7
176
     1
 65
   257
176
     1
 75
     1
176
     1
175
     1
176
     1
 42
1.0
176
     1
 92
        0
176
     1
 66
   257
176
     1
 43
1.0
176
     1
 76
     1
176
     1
 77
     6
176
     1
 78
     2
176
     1
 67
     7
176
     1
 79
     5
176
     1
170
     0
176
     1
171
     0
176
     1
290
     0
176
     1
 93
       13
176
     1
 44
0.0
176
     1
173
     0
176
     1
  0
VISUALSTYLE
  5
2D
102
{ACAD_REACTORS
330
2A
102
}
330
2A
100
AcDbVisualStyle
  2
Gouraud
 70
     2
177
     2
291
     1
 71
     2
176
     1
 72
     2
176
     1
 73
     1
176
     1
 90
        2
176
     1
 40
-0.6
176
     1
 41
30.0
176
     1
 62
     5
 63
     7
421
 16777215
176
     1
 74
     0
176
     1
 91
        4
176
     1
 64
     7
176
     1
 65
   257
176
     1
 75
     1
176
     1
175
     1
176
     1
 42
1.0
176
     1
 92
        0
176
     1
 66
     7
176
     1
 43
1.0
176
     1
 76
     1
176
     1
 77
     6
176
     1
 78
     2
176
     1
 67
     7
176
     1
 79
     5
176
     1
170
     0
176
     1
171
     0
176
     1
290
     0
176
     1
 93
       13
176
     1
 44
0.0
176
     1
173
     0
176
     1
  0
VISUALSTYLE
  5
2E
102
{ACAD_REACTORS
330
2A
102
}
330
2A
100
AcDbVisualStyle
  2
GouraudWithEdges
 70
     3
177
     2
291
     1
 71
     2
176
     1
 72
     2
176
     1
 73
     1
176
     1
 90
        2
176
     1
 40
-0.6
176
     1
 41
30.0
176
     1
 62
     5
 63
     7
421
 16777215
176
     1
 74
     1
176
     1
 91
        4
176
     1
 64
     7
176
     1
 65
   257
176
     1
 75
     1
176
     1
175
     1
176
     1
 42
1.0
176
     1
 92
        0
176
     1
 66
   257
176
     1
 43
1.0
176
     1
 76
     1
176
     1
 77
     6
176
     1
 78
     2
176
     1
 67
     7
176
     1
 79
     5
176
     1
170
     0
176
     1
171
     0
176
     1
290
     0
176
     1
 93
       13
176
     1
 44
0.0
176
     1
173
     0
176
     1
  0
VISUALSTYLE
  5
38
102
{ACAD_REACTORS
330
2A
102
}
330
2A
100
AcDbVisualStyle
  2
Linepattern
 70
    14
177
     2
291
     1
 71
     2
176
     1
 72
     2
176
     1
 73
     0
176
     1
 90
        0
176
     1
 40
-0.6
176
     1
 41
-30.0
176
     1
 62
     5
 63
     7
421
 16777215
176
     1
 74
     1
176
     1
 91
        4
176
     1
 64
     7
176
     1
 65
   257
176
     1
 75
     7
176
     1
175
     7
176
     1
 42
1.0
176
     1
 92
        8
176
     1
 66
     7
176
     1
 43
1.0
176
     1
 76
     1
176
     1
 77
     6
176
     1
 78
     2
176
     1
 67
     7
176
     1
 79
     5
176
     1
170
     0
176
     1
171
     0
176
     1
290
     0
176
     1
 93
        1
176
     1
 44
0.0
176
     1
173
     0
176
     1
  0
VISUALSTYLE
  5
33
102
{ACAD_REACTORS
330
2A
102
}
330
2A
100
AcDbVisualStyle
  2
Realistic
 70
     8
177
     2
291
     0
 71
     2
176
     1
 72
     2
176
     1
 73
     0
176
     1
 90
        0
176
     1
 40
-0.6
176
     1
 41
-30.0
176
     1
 62
     5
 63
     7
421
 16777215
176
     1
 74
     1
176
     1
 91
        0
176
     1
 64
     7
176
     1
 65
   257
176
     1
 75
     1
176
     1
175
     1
176
     1
 42
1.0
176
     1
 92
        8
176
     1
 66
     8
424
  7895160
176
     1
 43
1.0
176
     1
 76
     1
176
     1
 77
     6
176
     1
 78
     2
176
     1
 67
     7
176
     1
 79
     5
176
     1
170
     0
176
     1
171
     0
176
     1
290
     0
176
     1
 93
       13
176
     1
 44
0.0
176
     1
173
     0
176
     1
  0
VISUALSTYLE
  5
37
102
{ACAD_REACTORS
330
2A
102
}
330
2A
100
AcDbVisualStyle
  2
Thicken
 70
    13
177
     2
291
     1
 71
     2
176
     1
 72
     2
176
     1
 73
     0
176
     1
 90
        0
176
     1
 40
-0.6
176
     1
 41
-30.0
176
     1
 62
     5
 63
     7
421
 16777215
176
     1
 74
     1
176
     1
 91
        4
176
     1
 64
     7
176
     1
 65
   257
176
     1
 75
     1
176
     1
175
     1
176
     1
 42
1.0
176
     1
 92
       12
176
     1
 66
     7
176
     1
 43
1.0
176
     1
 76
     1
176
     1
 77
     6
176
     1
 78
     2
176
     1
 67
     7
176
     1
 79
     5
176
     1
170
     0
176
     1
171
     0
176
     1
290
     0
176
     1
 93
        1
176
     1
 44
0.0
176
     1
173
     0
176
     1
  0
ENDSEC
  0
EOF
