  0
SECTION
  2
HEADER
  9
$ACADVER
  1
AC1015
  9
$ACADMAINTVER
 70
    20
  9
$DWGCODEPAGE
  3
ANSI_1252
  9
$INSBASE
 10
0.0
 20
0.0
 30
0.0
  9
$EXTMIN
 10
13.046399968179
 20
-33.3071140809991
 30
-0.0015258207003583
  9
$EXTMAX
 10
808.8387906470895
 20
491.3301982537855
 30
0.0000000349246037
  9
$LIMMIN
 10
0.0
 20
0.0
  9
$LIMMAX
 10
420.0
 20
297.0
  9
$ORTHOMODE
 70
     1
  9
$REGENMODE
 70
     1
  9
$FILLMODE
 70
     1
  9
$QTEXTMODE
 70
     0
  9
$MIRRTEXT
 70
     0
  9
$LTSCALE
 40
1.0
  9
$ATTMODE
 70
     1
  9
$TEXTSIZE
 40
2.5
  9
$TRACEWID
 40
1.0
  9
$TEXTSTYLE
  7
Standard
  9
$CLAYER
  8
0
  9
$CELTYPE
  6
ByLayer
  9
$CECOLOR
 62
   256
  9
$CELTSCALE
 40
1.0
  9
$DISPSILH
 70
     0
  9
$DIMSCALE
 40
1.0
  9
$DIMASZ
 40
0.18
  9
$DIMEXO
 40
0.0625
  9
$DIMDLI
 40
0.38
  9
$DIMRND
 40
0.0
  9
$DIMDLE
 40
0.0
  9
$DIMEXE
 40
0.18
  9
$DIMTP
 40
0.0
  9
$DIMTM
 40
0.0
  9
$DIMTXT
 40
0.18
  9
$DIMCEN
 40
0.09
  9
$DIMTSZ
 40
0.0
  9
$DIMTOL
 70
     0
  9
$DIMLIM
 70
     0
  9
$DIMTIH
 70
     1
  9
$DIMTOH
 70
     1
  9
$DIMSE1
 70
     0
  9
$DIMSE2
 70
     0
  9
$DIMTAD
 70
     0
  9
$DIMZIN
 70
     0
  9
$DIMBLK
  1

  9
$DIMASO
 70
     1
  9
$DIMSHO
 70
     1
  9
$DIMPOST
  1

  9
$DIMAPOST
  1

  9
$DIMALT
 70
     0
  9
$DIMALTD
 70
     2
  9
$DIMALTF
 40
25.4
  9
$DIMLFAC
 40
1.0
  9
$DIMTOFL
 70
     0
  9
$DIMTVP
 40
0.0
  9
$DIMTIX
 70
     0
  9
$DIMSOXD
 70
     0
  9
$DIMSAH
 70
     0
  9
$DIMBLK1
  1

  9
$DIMBLK2
  1

  9
$DIMSTYLE
  2
STANDARD
  9
$DIMCLRD
 70
     0
  9
$DIMCLRE
 70
     0
  9
$DIMCLRT
 70
     0
  9
$DIMTFAC
 40
1.0
  9
$DIMGAP
 40
0.09
  9
$DIMJUST
 70
     0
  9
$DIMSD1
 70
     0
  9
$DIMSD2
 70
     0
  9
$DIMTOLJ
 70
     1
  9
$DIMTZIN
 70
     0
  9
$DIMALTZ
 70
     0
  9
$DIMALTTZ
 70
     0
  9
$DIMUPT
 70
     0
  9
$DIMDEC
 70
     4
  9
$DIMTDEC
 70
     4
  9
$DIMALTU
 70
     2
  9
$DIMALTTD
 70
     2
  9
$DIMTXSTY
  7
Standard
  9
$DIMAUNIT
 70
     0
  9
$DIMADEC
 70
     0
  9
$DIMALTRND
 40
0.0
  9
$DIMAZIN
 70
     0
  9
$DIMDSEP
 70
    46
  9
$DIMATFIT
 70
     3
  9
$DIMFRAC
 70
     0
  9
$DIMLDRBLK
  1

  9
$DIMLUNIT
 70
     2
  9
$DIMLWD
 70
    -2
  9
$DIMLWE
 70
    -2
  9
$DIMTMOVE
 70
     0
  9
$LUNITS
 70
     2
  9
$LUPREC
 70
     4
  9
$SKETCHINC
 40
1.0
  9
$FILLETRAD
 40
0.0
  9
$AUNITS
 70
     0
  9
$AUPREC
 70
     0
  9
$MENU
  1
.
  9
$ELEVATION
 40
0.0
  9
$PELEVATION
 40
0.0
  9
$THICKNESS
 40
0.0
  9
$LIMCHECK
 70
     0
  9
$CHAMFERA
 40
0.0
  9
$CHAMFERB
 40
0.0
  9
$CHAMFERC
 40
0.0
  9
$CHAMFERD
 40
0.0
  9
$SKPOLY
 70
     0
  9
$TDCREATE
 40
2455019.583955972
  9
$TDUCREATE
 40
2455019.500622639
  9
$TDUPDATE
 40
2455026.531656354
  9
$TDUUPDATE
 40
2455026.448323021
  9
$TDINDWG
 40
0.1378041782
  9
$TDUSRTIMER
 40
0.1378040046
  9
$USRTIMER
 70
     1
  9
$ANGBASE
 50
0.0
  9
$ANGDIR
 70
     0
  9
$PDMODE
 70
     0
  9
$PDSIZE
 40
0.0
  9
$PLINEWID
 40
0.0
  9
$SPLFRAME
 70
     0
  9
$SPLINETYPE
 70
     6
  9
$SPLINESEGS
 70
     8
  9
$HANDSEED
  5
5F2
  9
$SURFTAB1
 70
     6
  9
$SURFTAB2
 70
     6
  9
$SURFTYPE
 70
     6
  9
$SURFU
 70
     6
  9
$SURFV
 70
     6
  9
$UCSBASE
  2

  9
$UCSNAME
  2

  9
$UCSORG
 10
0.0
 20
0.0
 30
0.0
  9
$UCSXDIR
 10
1.0
 20
0.0
 30
0.0
  9
$UCSYDIR
 10
0.0
 20
1.0
 30
0.0
  9
$UCSORTHOREF
  2

  9
$UCSORTHOVIEW
 70
     0
  9
$UCSORGTOP
 10
0.0
 20
0.0
 30
0.0
  9
$UCSORGBOTTOM
 10
0.0
 20
0.0
 30
0.0
  9
$UCSORGLEFT
 10
0.0
 20
0.0
 30
0.0
  9
$UCSORGRIGHT
 10
0.0
 20
0.0
 30
0.0
  9
$UCSORGFRONT
 10
0.0
 20
0.0
 30
0.0
  9
$UCSORGBACK
 10
0.0
 20
0.0
 30
0.0
  9
$PUCSBASE
  2

  9
$PUCSNAME
  2

  9
$PUCSORG
 10
0.0
 20
0.0
 30
0.0
  9
$PUCSXDIR
 10
1.0
 20
0.0
 30
0.0
  9
$PUCSYDIR
 10
0.0
 20
1.0
 30
0.0
  9
$PUCSORTHOREF
  2

  9
$PUCSORTHOVIEW
 70
     0
  9
$PUCSORGTOP
 10
0.0
 20
0.0
 30
0.0
  9
$PUCSORGBOTTOM
 10
0.0
 20
0.0
 30
0.0
  9
$PUCSORGLEFT
 10
0.0
 20
0.0
 30
0.0
  9
$PUCSORGRIGHT
 10
0.0
 20
0.0
 30
0.0
  9
$PUCSORGFRONT
 10
0.0
 20
0.0
 30
0.0
  9
$PUCSORGBACK
 10
0.0
 20
0.0
 30
0.0
  9
$USERI1
 70
     0
  9
$USERI2
 70
     0
  9
$USERI3
 70
     0
  9
$USERI4
 70
     0
  9
$USERI5
 70
     0
  9
$USERR1
 40
0.0
  9
$USERR2
 40
0.0
  9
$USERR3
 40
0.0
  9
$USERR4
 40
0.0
  9
$USERR5
 40
0.0
  9
$WORLDVIEW
 70
     1
  9
$SHADEDGE
 70
     3
  9
$SHADEDIF
 70
    70
  9
$TILEMODE
 70
     1
  9
$MAXACTVP
 70
    64
  9
$PINSBASE
 10
0.0
 20
0.0
 30
0.0
  9
$PLIMCHECK
 70
     0
  9
$PEXTMIN
 10
1.000000000000000E+20
 20
1.000000000000000E+20
 30
1.000000000000000E+20
  9
$PEXTMAX
 10
-1.000000000000000E+20
 20
-1.000000000000000E+20
 30
-1.000000000000000E+20
  9
$PLIMMIN
 10
0.0
 20
0.0
  9
$PLIMMAX
 10
420.0
 20
297.0
  9
$UNITMODE
 70
     0
  9
$VISRETAIN
 70
     1
  9
$PLINEGEN
 70
     0
  9
$PSLTSCALE
 70
     1
  9
$TREEDEPTH
 70
  3020
  9
$CMLSTYLE
  2
Standard
  9
$CMLJUST
 70
     0
  9
$CMLSCALE
 40
20.0
  9
$PROXYGRAPHICS
 70
     1
  9
$MEASUREMENT
 70
     1
  9
$CELWEIGHT
370
    -1
  9
$ENDCAPS
280
     0
  9
$JOINSTYLE
280
     0
  9
$LWDISPLAY
290
     0
  9
$INSUNITS
 70
     4
  9
$HYPERLINKBASE
  1

  9
$STYLESHEET
  1

  9
$XEDIT
290
     1
  9
$CEPSNTYPE
380
     0
  9
$PSTYLEMODE
290
     1
  9
$FINGERPRINTGUID
  2
{A6C950DD-243C-480B-8B88-1E8CBBE87BD7}
  9
$VERSIONGUID
  2
{883E468D-A6AD-4471-B0CD-B69BC360251F}
  9
$EXTNAMES
290
     1
  9
$PSVPSCALE
 40
0.0
  9
$OLESTARTUP
290
     0
  0
ENDSEC
  0
SECTION
  2
CLASSES
  0
CLASS
  1
ACDBDICTIONARYWDFLT
  2
AcDbDictionaryWithDefault
  3
ObjectDBX Classes
 90
        0
280
     0
281
     0
  0
CLASS
  1
TABLESTYLE
  2
AcDbTableStyle
  3
ObjectDBX Classes
 90
     2047
280
     0
281
     0
  0
CLASS
  1
SORTENTSTABLE
  2
AcDbSortentsTable
  3
ObjectDBX Classes
 90
        0
280
     0
281
     0
  0
CLASS
  1
DICTIONARYVAR
  2
AcDbDictionaryVar
  3
ObjectDBX Classes
 90
        0
280
     0
281
     0
  0
CLASS
  1
ACDBPLACEHOLDER
  2
AcDbPlaceHolder
  3
ObjectDBX Classes
 90
        0
280
     0
281
     0
  0
CLASS
  1
LAYOUT
  2
AcDbLayout
  3
ObjectDBX Classes
 90
        0
280
     0
281
     0
  0
CLASS
  1
DIMASSOC
  2
AcDbDimAssoc
  3
"AcDbDimAssoc|Product Desc:     AcDim ARX App For Dimension|Company:          Autodesk, Inc.|WEB Address:      www.autodesk.com"
 90
    32768
280
     0
281
     0
  0
ENDSEC
  0
SECTION
  2
TABLES
  0
TABLE
  2
VPORT
  5
8
330
0
100
AcDbSymbolTable
 70
     2
  0
VPORT
  5
5EA
330
8
100
AcDbSymbolTableRecord
100
AcDbViewportTableRecord
  2
*Active
 70
     0
 10
0.0
 20
0.0
 11
1.0
 21
1.0
 12
410.9425953076343
 22
229.0115420863932
 13
0.0
 23
0.0
 14
10.0
 24
10.0
 15
10.0
 25
10.0
 16
0.0
 26
0.0
 36
1.0
 17
0.0
 27
0.0
 37
0.0
 40
527.7788531272084
 41
1.525474525474525
 42
50.0
 43
0.0
 44
0.0
 50
0.0
 51
0.0
 71
     0
 72
  1000
 73
     1
 74
     3
 75
     0
 76
     0
 77
     0
 78
     0
281
     0
 65
     1
110
0.0
120
0.0
130
0.0
111
1.0
121
0.0
131
0.0
112
0.0
122
1.0
132
0.0
 79
     0
146
0.0
  0
ENDTAB
  0
TABLE
  2
LTYPE
  5
5
330
0
100
AcDbSymbolTable
 70
     1
  0
LTYPE
  5
14
330
5
100
AcDbSymbolTableRecord
100
AcDbLinetypeTableRecord
  2
ByBlock
 70
     0
  3

 72
    65
 73
     0
 40
0.0
  0
LTYPE
  5
15
330
5
100
AcDbSymbolTableRecord
100
AcDbLinetypeTableRecord
  2
ByLayer
 70
     0
  3

 72
    65
 73
     0
 40
0.0
  0
LTYPE
  5
16
330
5
100
AcDbSymbolTableRecord
100
AcDbLinetypeTableRecord
  2
Continuous
 70
     0
  3
Solid line
 72
    65
 73
     0
 40
0.0
  0
ENDTAB
  0
TABLE
  2
LAYER
  5
2
102
{ACAD_XDICTIONARY
360
35
102
}
330
0
100
AcDbSymbolTable
 70
     2
  0
LAYER
  5
10
330
2
100
AcDbSymbolTableRecord
100
AcDbLayerTableRecord
  2
0
 70
     0
 62
     7
  6
Continuous
370
    -3
390
F
  0
LAYER
  5
22A
330
2
100
AcDbSymbolTableRecord
100
AcDbLayerTableRecord
  2
Defpoints
 70
     0
 62
     7
  6
Continuous
290
     0
370
    -3
390
F
  0
ENDTAB
  0
TABLE
  2
STYLE
  5
3
330
0
100
AcDbSymbolTable
 70
     1
  0
STYLE
  5
11
330
3
100
AcDbSymbolTableRecord
100
AcDbTextStyleTableRecord
  2
Standard
 70
     0
 40
0.0
 41
1.0
 50
0.0
 71
     0
 42
2.5
  3
txt
  4

  0
ENDTAB
  0
TABLE
  2
VIEW
  5
6
330
0
100
AcDbSymbolTable
 70
     0
  0
ENDTAB
  0
TABLE
  2
UCS
  5
7
330
0
100
AcDbSymbolTable
 70
     0
  0
ENDTAB
  0
TABLE
  2
APPID
  5
9
330
0
100
AcDbSymbolTable
 70
     8
  0
APPID
  5
12
330
9
100
AcDbSymbolTableRecord
100
AcDbRegAppTableRecord
  2
ACAD
 70
     0
  0
APPID
  5
34
330
9
100
AcDbSymbolTableRecord
100
AcDbRegAppTableRecord
  2
ACAD_PSEXT
 70
     0
  0
APPID
  5
2E1
330
9
100
AcDbSymbolTableRecord
100
AcDbRegAppTableRecord
  2
ACAD_DSTYLE_DIMTEXT_FILL
 70
     0
  0
APPID
  5
2E2
330
9
100
AcDbSymbolTableRecord
100
AcDbRegAppTableRecord
  2
ACAD_DSTYLE_DIMEXT_LENGTH
 70
     0
  0
APPID
  5
2E3
330
9
100
AcDbSymbolTableRecord
100
AcDbRegAppTableRecord
  2
ACAD_DSTYLE_DIMEXT_ENABLED
 70
     0
  0
APPID
  5
2E4
330
9
100
AcDbSymbolTableRecord
100
AcDbRegAppTableRecord
  2
ACAD_DSTYLE_DIM_LINETYPE
 70
     0
  0
APPID
  5
2E5
330
9
100
AcDbSymbolTableRecord
100
AcDbRegAppTableRecord
  2
ACAD_DSTYLE_DIM_EXT1_LINETYPE
 70
     0
  0
APPID
  5
2E6
330
9
100
AcDbSymbolTableRecord
100
AcDbRegAppTableRecord
  2
ACAD_DSTYLE_DIM_EXT2_LINETYPE
 70
     0
  0
ENDTAB
  0
TABLE
  2
DIMSTYLE
  5
A
330
0
100
AcDbSymbolTable
 70
     1
100
AcDbDimStyleTable
 71
     1
340
33
  0
DIMSTYLE
105
33
330
A
100
AcDbSymbolTableRecord
100
AcDbDimStyleTableRecord
  2
STANDARD
 70
     0
340
11
  0
ENDTAB
  0
TABLE
  2
BLOCK_RECORD
  5
1
330
0
100
AcDbSymbolTable
 70
     2
  0
BLOCK_RECORD
  5
23
102
{ACAD_XDICTIONARY
360
19E
102
}
330
1
100
AcDbSymbolTableRecord
100
AcDbBlockTableRecord
  2
*Model_Space
340
26
  0
BLOCK_RECORD
  5
1F
330
1
100
AcDbSymbolTableRecord
100
AcDbBlockTableRecord
  2
*Paper_Space
340
22
  0
BLOCK_RECORD
  5
27
330
1
100
AcDbSymbolTableRecord
100
AcDbBlockTableRecord
  2
*Paper_Space0
340
2A
  0
BLOCK_RECORD
  5
5C3
102
{ACAD_XDICTIONARY
360
5C4
102
}
330
1
100
AcDbSymbolTableRecord
100
AcDbBlockTableRecord
  2
27005_27432_P
340
0
310
2800000020000000200000000100080000000000000400000000000000000000000000000000000000000000000080000080000000808000800000008000800080800000C0C0C000C0DCC000F0CAA6000020400000206000002080000020A0000020C0000020E00000400000004020000040400000406000004080000040A0
310
000040C0000040E00000600000006020000060400000606000006080000060A0000060C0000060E00000800000008020000080400000806000008080000080A0000080C0000080E00000A0000000A0200000A0400000A0600000A0800000A0A00000A0C00000A0E00000C0000000C0200000C0400000C0600000C0800000C0
310
A00000C0C00000C0E00000E0000000E0200000E0400000E0600000E0800000E0A00000E0C00000E0E00040000000400020004000400040006000400080004000A0004000C0004000E00040200000402020004020400040206000402080004020A0004020C0004020E000404000004040200040404000404060004040800040
310
40A0004040C0004040E00040600000406020004060400040606000406080004060A0004060C0004060E00040800000408020004080400040806000408080004080A0004080C0004080E00040A0000040A0200040A0400040A0600040A0800040A0A00040A0C00040A0E00040C0000040C0200040C0400040C0600040C08000
310
40C0A00040C0C00040C0E00040E0000040E0200040E0400040E0600040E0800040E0A00040E0C00040E0E00080000000800020008000400080006000800080008000A0008000C0008000E00080200000802020008020400080206000802080008020A0008020C0008020E00080400000804020008040400080406000804080
310
008040A0008040C0008040E00080600000806020008060400080606000806080008060A0008060C0008060E00080800000808020008080400080806000808080008080A0008080C0008080E00080A0000080A0200080A0400080A0600080A0800080A0A00080A0C00080A0E00080C0000080C0200080C0400080C0600080C0
310
800080C0A00080C0C00080C0E00080E0000080E0200080E0400080E0600080E0800080E0A00080E0C00080E0E000C0000000C0002000C0004000C0006000C0008000C000A000C000C000C000E000C0200000C0202000C0204000C0206000C0208000C020A000C020C000C020E000C0400000C0402000C0404000C0406000C0
310
408000C040A000C040C000C040E000C0600000C0602000C0604000C0606000C0608000C060A000C060C000C060E000C0800000C0802000C0804000C0806000C0808000C080A000C080C000C080E000C0A00000C0A02000C0A04000C0A06000C0A08000C0A0A000C0A0C000C0A0E000C0C00000C0C02000C0C04000C0C06000
310
C0C08000C0C0A000F0FBFF00A4A0A000808080000000FF0000FF000000FFFF00FF000000FF00FF00FFFF0000FFFFFF0000000000000000000000000000000000000000000000000000000000000000000000000000000000000000000000000000000000000000000000000000000000000000000000000000000000000000
310
00000000000000000000000000000000000000000000000000000000000000000000000000000000000000000000000000000000000000000000000000000000000000000000000000000000000000000000000000000000000000000000000000000000000000000000000000000000000000000000000000000000000000
310
0000000000000000000000000000000000000000FFFFFFFFFFFFFFFFFFFFFFFFFFFFFFFFFFFFFFFFFFFFFFFFFFFFFFFF00000000FFFF000000000000000000000000000000000000000000000000FFFF000000FFFF0000000000000000000000000000000000000000000000000000FFFF0000FFFF00000000000000000000
310
00000000000000000000000000000000FFFF0000FFFF0000000000000000000000000000000000000000000000000000FFFF0000FFFF0000000000000000000000000000000000000000000000000000FFFF0000FFFF0000000000000000000000FFFFFFFF0000000000000000000000FFFF0000FFFF000000000000000000
310
0000FFFFFFFF0000000000000000000000FFFF0000FFFF0000000000000000000000FF00FFFF0000000000000000000000FFFF0000FFFF00FF000000000000000000FFFFFFFF000000000000000000FF00FFFF0000FFFF00FFFFFFFFFFFFFFFFFFFFFFFFFFFFFFFFFFFFFFFFFFFFFFFF00FFFF0000FFFF0000FFFFFFFFFFFF
310
FFFFFFFFFFFFFFFFFFFFFFFFFFFFFFFF0000FFFF0000FF00FF0000000000000000FFFF0000000000000000000000000000FF00FF0000FF0000FFFFFFFFFFFFFFFFFFFFFFFFFFFFFFFFFFFFFFFFFFFFFFFF0000FF0000FF00000000000000000000000000FFFF00000000000000000000000000FF0000FF0000000000000000
310
0000000000FFFF00000000000000000000000000FF0000FF00000000000000000000000000000000000000000000000000000000FF0000FFFFFFFFFFFFFFFFFFFFFFFFFFFFFFFFFFFFFFFFFFFFFFFFFFFFFFFFFFFF000000000000000000000000000000000000000000000000000000000000000000000000000000000000
310
00000000000000000000000000000000000000000000000000000000000000000000000000000000000000000000000000000000000000000000000000000000000000000000000000000000000000000000000000000000000000000000000000000000000000000000000000000000000000000000000000000000000000
310
0000000000000000000000000000000000000000000000000000000000000000000000000000000000000000000000000000000000000000
102
{BLKREFS
331
5DD
102
}
1001
ACAD
1000
DesignCenter Data
1002
{
1070
     1
1070
     4
1002
}
  0
ENDTAB
  0
ENDSEC
  0
SECTION
  2
BLOCKS
  0
BLOCK
  5
24
330
23
100
AcDbEntity
  8
0
100
AcDbBlockBegin
  2
*Model_Space
 70
     0
 10
0.0
 20
0.0
 30
0.0
  3
*Model_Space
  1

  0
ENDBLK
  5
25
330
23
100
AcDbEntity
  8
0
100
AcDbBlockEnd
  0
BLOCK
  5
20
330
1F
100
AcDbEntity
 67
     1
  8
0
100
AcDbBlockBegin
  2
*Paper_Space
 70
     0
 10
0.0
 20
0.0
 30
0.0
  3
*Paper_Space
  1

  0
ENDBLK
  5
21
330
1F
100
AcDbEntity
 67
     1
  8
0
100
AcDbBlockEnd
  0
BLOCK
  5
28
330
27
100
AcDbEntity
 67
     1
  8
0
100
AcDbBlockBegin
  2
*Paper_Space0
 70
     0
 10
0.0
 20
0.0
 30
0.0
  3
*Paper_Space0
  1

  0
ENDBLK
  5
29
330
27
100
AcDbEntity
 67
     1
  8
0
100
AcDbBlockEnd
  0
BLOCK
  5
5C7
330
5C3
100
AcDbEntity
  8
0
100
AcDbBlockBegin
  2
27005_27432_P
 70
     0
 10
0.0
 20
0.0
 30
0.0
  3
27005_27432_P
  1

  0
CIRCLE
  5
5C9
330
5C3
100
AcDbEntity
  8
0
100
AcDbCircle
 10
426.5859083428538
 20
301.2771261240287
 30
0.0
 40
23.00000000000022
  0
ARC
  5
5CA
330
5C3
100
AcDbEntity
  8
0
100
AcDbCircle
 10
648.0859083428465
 20
356.2771261240587
 30
0.0
 40
40.0
100
AcDbArc
 50
0.0
 51
90.0
  0
ARC
  5
5CB
330
5C3
100
AcDbEntity
  8
0
100
AcDbCircle
 10
697.5859083428483
 20
487.2771261240286
 30
0.0
 40
4.0
100
AcDbArc
 50
0.0
 51
90.0
  0
ARC
  5
5CC
330
5C3
100
AcDbEntity
  8
0
100
AcDbCircle
 10
426.5859083428483
 20
301.2771261240287
 30
0.0
 40
36.00000000000008
100
AcDbArc
 50
270.0
 51
90.0
  0
LINE
  5
5CD
330
5C3
100
AcDbEntity
  8
0
100
AcDbLine
 10
648.0859083428465
 20
396.2771261240587
 30
0.0
 11
205.0859083428502
 21
396.2771261240514
 31
0.0
  0
CIRCLE
  5
5CE
330
5C3
100
AcDbEntity
  8
0
100
AcDbCircle
 10
426.5859083428483
 20
431.277126124025
 30
0.0
 40
17.5
  0
LINE
  5
5CF
330
5C3
100
AcDbEntity
  8
0
100
AcDbLine
 10
225.9599962107375
 20
364.1178272659699
 30
0.0
 11
627.2118204749593
 21
364.1178272659699
 31
0.0
  0
ARC
  5
5D0
330
5C3
100
AcDbEntity
  8
0
100
AcDbCircle
 10
627.2118204749593
 20
332.1178272659699
 30
0.0
 40
32.0
100
AcDbArc
 50
0.0
 51
90.0
  0
SPLINE
  5
5D1
330
5C3
100
AcDbEntity
  8
0
100
AcDbSpline
210
0.0
220
0.0
230
1.0
 70
     8
 71
     3
 72
    26
 73
    22
 74
     0
 42
0.0000000001
 43
0.0000000001
 40
7.853979450876906
 40
7.853979450876906
 40
7.853979450876906
 40
7.853979450876906
 40
7.919352950397192
 40
7.919352950397192
 40
8.35700805459029
 40
8.35700805459029
 40
8.794663158783388
 40
8.794663158783388
 40
9.124586633184637
 40
9.124586633184637
 40
9.454510107585889
 40
9.454510107585889
 40
9.784433581987139
 40
9.784433581987139
 40
10.11435705638839
 40
10.11435705638839
 40
10.44428053078964
 40
10.44428053078964
 40
10.88286040666045
 40
10.88286040666045
 40
10.99557777686171
 40
10.99557777686171
 40
10.99557777686171
 40
10.99557777686171
 10
366.5859083428429
 20
372.6359329793013
 30
0.0
 10
366.8192150229176
 20
372.6358624969471
 30
0.0
 10
367.0525256231729
 20
372.6411985036902
 30
0.0
 10
368.8443975655125
 20
372.7241450788861
 30
0.0
 10
370.3823851476889
 20
373.0401526370224
 30
0.0
 10
373.1562148514265
 20
374.1193873191623
 30
0.0
 10
374.3920540388487
 20
374.8823288591957
 30
0.0
 10
376.0925038495795
 20
376.5310538426347
 30
0.0
 10
376.6722235260938
 20
377.3410366211247
 30
0.0
 10
377.4373287743554
 20
379.0887939446038
 30
0.0
 10
377.6198282096654
 20
380.0265566223897
 30
0.0
 10
377.5413824217801
 20
381.8916490730153
 30
0.0
 10
377.2810490232576
 20
382.8149866800995
 30
0.0
 10
376.3769889283728
 20
384.5151209276955
 30
0.0
 10
375.7357057696452
 20
385.2926768180805
 30
0.0
 10
374.1682704615548
 20
386.6367291028182
 30
0.0
 10
373.2420058122104
 20
387.2041573934875
 30
0.0
 10
370.8673207117052
 20
388.2366480547935
 30
0.0
 10
369.3468038008002
 20
388.6053127067935
 30
0.0
 10
367.3904548554517
 20
388.7618988583963
 30
0.0
 10
366.9881810698305
 20
388.7777755434363
 30
0.0
 10
366.5859083428466
 20
388.7776467110234
 30
0.0
  0
LINE
  5
5D2
330
5C3
100
AcDbEntity
  8
0
100
AcDbLine
 10
697.5859083428483
 20
491.2771261240286
 30
0.0
 11
155.5859083428484
 21
491.2771261240359
 31
0.0
  0
ARC
  5
5D3
330
5C3
100
AcDbEntity
  8
0
100
AcDbCircle
 10
205.0859083428502
 20
356.2771261240587
 30
0.0
 40
40.0
100
AcDbArc
 50
90.0
 51
180.0
  0
ARC
  5
5D4
330
5C3
100
AcDbEntity
  8
0
100
AcDbCircle
 10
155.585908342852
 20
487.2771261240286
 30
0.0
 40
4.0
100
AcDbArc
 50
90.0
 51
180.0
  0
LWPOLYLINE
  5
5D5
330
5C3
100
AcDbEntity
  8
0
100
AcDbPolyline
 90
       46
 70
   128
 43
0.0
 10
426.5859378992161
 20
154.7771237250436
 10
403.2601673717206
 20
154.7910343766834
 10
377.9931514594089
 20
154.8502570506807
 10
353.9051166960224
 20
154.9470553821029
 10
331.0251568760512
 20
155.0757721696409
 10
309.3083228484891
 20
155.2309010262379
 10
313.6800023949624
 20
155.4073822866648
 10
294.082900457274
 20
155.6006892314344
 10
274.9838177290537
 20
155.8127819932761
 10
256.6358856585237
 20
156.0400826395143
 10
238.9139769436486
 20
156.2814576412002
 10
230.7852817503688
 20
156.3989300251469
 10
222.7922172957722
 20
156.5186893684822
 10
215.0349693177184
 20
156.6390959854088
 10
208.1633174436927
 20
156.8437501758071
 10
202.3383442154688
 20
157.6574902722441
 10
196.4521702305726
 20
159.2592406156564
 10
191.2717255190898
 20
161.3955346094171
 10
186.891596620954
 20
163.8171368882085
 10
184.2591631413022
 20
165.5907277146052
 10
181.978000536689
 20
167.3562374284283
 10
180.1141437684971
 20
168.9797896429609
 10
178.4113365458186
 20
170.6313020584111
 10
176.3294255066528
 20
172.9061401513736
 10
173.984857395623
 20
175.8744700014558
 10
172.0049296660625
 20
178.8225321189402
 10
170.5049095994334
 20
181.434282861077
 10
169.3915007678759
 20
183.6712730551644
 10
168.5794126485004
 20
185.5286082796283
 10
167.6792971168622
 20
187.9067323000363
 10
166.7187333955032
 20
191.0243598951329
 10
165.8475078528888
 20
194.9047633976315
 10
165.2412311527157
 20
199.6152822291678
 10
165.0848284008177
 20
205.7884463028113
 10
165.0850617049225
 20
213.5976013075579
 10
165.084286799424
 20
240.0018625947223
 10
165.0835715590444
 20
249.8256483738214
 10
165.0829159186039
 20
260.5713423566149
 10
165.0823496837099
 20
272.2389618541774
 10
165.0819622645729
 20
286.7021824021895
 10
165.0818430597362
 20
302.3696600275753
 10
165.0821112793226
 20
319.2414506808264
 10
165.0828861290072
 20
337.3175660427651
 10
165.0859083428502
 20
356.2771261240587
 10
165.0859083428502
 20
356.2771261240587
 10
165.0859083428502
 20
356.2771261240587
  0
ARC
  5
5D6
330
5C3
100
AcDbEntity
  8
0
100
AcDbCircle
 10
225.9599962107375
 20
332.1178272659699
 30
0.0
 40
32.0
100
AcDbArc
 50
90.0
 51
180.0
  0
LWPOLYLINE
  5
5D7
330
5C3
100
AcDbEntity
  8
0
100
AcDbPolyline
 90
       46
 70
   128
 43
0.0
 10
426.5859083428483
 20
141.2771261240323
 10
403.2403221844331
 20
141.2910438085873
 10
377.9502055166856
 20
141.3503206278164
 10
353.8400186716215
 20
141.4472079778988
 10
330.9389679251806
 20
141.5760434175808
 10
309.2023609696523
 20
141.7313135172207
 10
313.5556770979063
 20
141.9079518820126
 10
293.9413680254117
 20
142.1014285589535
 10
274.8252494751111
 20
142.3137105013211
 10
256.460343164076
 20
142.5412214304287
 10
238.7301220117704
 20
142.7827096487362
 10
230.5902136980192
 20
142.9003394152005
 10
222.5899739681379
 20
143.0202043558438
 10
214.7292538105146
 20
143.142215063699
 10
207.0251001535551
 20
143.3716631437619
 10
199.621160191168
 20
144.4059825445492
 10
192.0893384634153
 20
146.4555478597958
 10
185.413499039282
 20
149.2085075880368
 10
179.8404647527829
 20
152.2896206880887
 10
176.3476325689451
 20
154.6429014707882
 10
173.405875128378
 20
156.9196796919186
 10
170.9746016679899
 20
159.037492325433
 10
168.7238706766263
 20
161.2204230333645
 10
166.0394562898771
 20
164.1535974050839
 10
163.0681349455015
 20
167.9154253507931
 10
160.5340136705533
 20
171.6886675859768
 10
158.5982038198606
 20
175.0591910387356
 10
157.1564270673887
 20
177.9559171701748
 10
156.073887508978
 20
180.4318047071774
 10
154.9029542623655
 20
183.5254347826321
 10
153.662074965109
 20
187.5528610254605
 10
152.5380207716123
 20
192.5593531633694
 10
151.7631305872098
 20
198.5799289251645
 10
151.5848232923642
 20
205.6176579500516
 10
151.5850617109433
 20
213.5980046297391
 10
151.5842868505594
 20
240.0006875301979
 10
151.5835715948221
 20
249.824665477433
 10
151.5829159437296
 20
260.5705186630867
 10
151.5823496996042
 20
272.2383066918037
 10
151.5819622694132
 20
286.7018207813881
 10
151.5818430601236
 20
302.369557311692
 10
151.5821112810251
 20
319.2416652943275
 10
151.5828861414072
 20
337.3181447292946
 10
151.5841676412699
 20
356.5990552212379
 10
151.5860153852579
 20
377.08442657248
 10
151.585908342852
 20
487.2771261240286
  0
ARC
  5
5D8
330
5C3
100
AcDbEntity
  8
0
100
AcDbCircle
 10
426.5859083428483
 20
301.2771261240287
 30
0.0
 40
36.00000000000008
100
AcDbArc
 50
90.0
 51
270.0
  0
SPLINE
  5
5D9
330
5C3
100
AcDbEntity
  8
0
100
AcDbSpline
210
0.0
220
0.0
230
1.0
 70
     8
 71
     3
 72
    26
 73
    22
 74
     0
 42
0.0000000001
 43
0.0000000001
 40
7.853979450876906
 40
7.853979450876906
 40
7.853979450876906
 40
7.853979450876906
 40
7.919352950397192
 40
7.919352950397192
 40
8.35700805459029
 40
8.35700805459029
 40
8.794663158783388
 40
8.794663158783388
 40
9.124586633184637
 40
9.124586633184637
 40
9.454510107585889
 40
9.454510107585889
 40
9.784433581987139
 40
9.784433581987139
 40
10.11435705638839
 40
10.11435705638839
 40
10.44428053078964
 40
10.44428053078964
 40
10.88286040666045
 40
10.88286040666045
 40
10.99557777686171
 40
10.99557777686171
 40
10.99557777686171
 40
10.99557777686171
 10
366.5859083428429
 20
372.6359329793013
 30
0.0
 10
366.3526016627681
 20
372.6358624969471
 30
0.0
 10
366.119291062513
 20
372.6411985036902
 30
0.0
 10
364.3274191201733
 20
372.7241450788861
 30
0.0
 10
362.789431537997
 20
373.0401526370224
 30
0.0
 10
360.0156018342593
 20
374.1193873191623
 30
0.0
 10
358.7797626468371
 20
374.8823288591957
 30
0.0
 10
357.0793128361063
 20
376.5310538426347
 30
0.0
 10
356.499593159592
 20
377.3410366211247
 30
0.0
 10
355.7344879113305
 20
379.0887939446038
 30
0.0
 10
355.5519884760204
 20
380.0265566223897
 30
0.0
 10
355.6304342639057
 20
381.8916490730153
 30
0.0
 10
355.8907676624283
 20
382.8149866800995
 30
0.0
 10
356.794827757313
 20
384.5151209276955
 30
0.0
 10
357.4361109160407
 20
385.2926768180805
 30
0.0
 10
359.003546224131
 20
386.6367291028182
 30
0.0
 10
359.9298108734754
 20
387.2041573934875
 30
0.0
 10
362.3044959739807
 20
388.2366480547935
 30
0.0
 10
363.8250128848856
 20
388.6053127067935
 30
0.0
 10
365.7813618302341
 20
388.7618988583963
 30
0.0
 10
366.1836356158553
 20
388.7777755434363
 30
0.0
 10
366.5859083428393
 20
388.7776467110234
 30
0.0
  0
ARC
  5
5DA
330
5C3
100
AcDbEntity
  8
0
100
AcDbCircle
 10
426.5859083428447
 20
4620.110123181797
 30
0.0
 40
4271.155063369036
100
AcDbArc
 50
267.344186965373
 51
272.655813034627
  0
LWPOLYLINE
  5
5DB
330
5C3
100
AcDbEntity
  8
0
100
AcDbPolyline
 90
       46
 70
   128
 43
0.0
 10
426.5859378992161
 20
154.7771237250436
 10
449.9117084267115
 20
154.7910343766834
 10
475.1787243390233
 20
154.8502570506807
 10
499.2667591024098
 20
154.9470553821029
 10
522.146718922381
 20
155.0757721696409
 10
518.8635529499431
 20
155.2309010262379
 10
539.4918734034697
 20
155.4073822866648
 10
559.0889753411581
 20
155.6006892314344
 10
578.1880580693784
 20
155.8127819932761
 10
596.5359901399085
 20
156.0400826395143
 10
614.2578988547836
 20
156.2814576412002
 10
622.3865940480634
 20
156.3989300251469
 10
630.37965850266
 20
156.5186893684822
 10
638.1369064807138
 20
156.6390959854088
 10
645.0085583547395
 20
156.8437501758071
 10
650.8335315829633
 20
157.6574902722441
 10
656.7197055678596
 20
159.2592406156564
 10
661.9001502793423
 20
161.3955346094171
 10
666.2802791774781
 20
163.8171368882085
 10
668.91271265713
 20
165.5907277146052
 10
671.1938752617432
 20
167.3562374284283
 10
673.057732029935
 20
168.9797896429609
 10
674.7605392526136
 20
170.6313020584111
 10
676.8424502917794
 20
172.9061401513736
 10
679.1870184028091
 20
175.8744700014558
 10
681.1669461323697
 20
178.8225321189402
 10
682.6669661989988
 20
181.434282861077
 10
683.7803750305563
 20
183.6712730551644
 10
684.5924631499317
 20
185.5286082796283
 10
685.4925786815699
 20
187.9067323000363
 10
686.4531424029289
 20
191.0243598951329
 10
687.3243679455433
 20
194.9047633976315
 10
687.9306446457165
 20
199.6152822291678
 10
688.0870473976145
 20
205.7884463028113
 10
688.0868140935096
 20
213.5976013075579
 10
688.0875889990045
 20
240.0018625947223
 10
688.0883042393841
 20
249.8256483738214
 10
688.0889598798246
 20
260.5713423566149
 10
688.0895261147186
 20
272.2389618541774
 10
688.0899135338556
 20
286.7021824021895
 10
688.0900327386923
 20
302.3696600275753
 10
688.0897645191059
 20
319.2414506808264
 10
688.0889896694213
 20
337.3175660427651
 10
688.0859674555783
 20
356.2771261240587
 10
688.0859674555783
 20
356.2771261240587
 10
688.0859674555783
 20
356.2771261240587
  0
LWPOLYLINE
  5
5DC
330
5C3
100
AcDbEntity
  8
0
100
AcDbPolyline
 90
       46
 70
   128
 43
0.0
 10
426.5859674555838
 20
141.2771261240323
 10
449.9315536139991
 20
141.2910438085873
 10
475.2216702817466
 20
141.3503206278164
 10
499.3318571268107
 20
141.4472079778988
 10
522.2329078732516
 20
141.5760434175808
 10
518.9695148287799
 20
141.7313135172207
 10
539.6161987005259
 20
141.9079518820126
 10
559.2305077730205
 20
142.1014285589535
 10
578.3466263233211
 20
142.3137105013211
 10
596.7115326343562
 20
142.5412214304287
 10
614.4417537866618
 20
142.7827096487362
 10
622.581662100413
 20
142.9003394152005
 10
630.5819018302943
 20
143.0202043558438
 10
638.4426219879176
 20
143.142215063699
 10
646.1467756448771
 20
143.3716631437619
 10
653.5507156072642
 20
144.4059825445492
 10
661.0825373350169
 20
146.4555478597958
 10
667.7583767591502
 20
149.2085075880368
 10
673.3314110456492
 20
152.2896206880887
 10
676.8242432294871
 20
154.6429014707882
 10
679.7660006700541
 20
156.9196796919186
 10
682.1972741304423
 20
159.037492325433
 10
684.4480051218059
 20
161.2204230333645
 10
687.1324195085551
 20
164.1535974050839
 10
690.1037408529307
 20
167.9154253507931
 10
692.6378621278789
 20
171.6886675859768
 10
694.5736719785716
 20
175.0591910387356
 10
696.0154487310435
 20
177.9559171701748
 10
697.0979882894542
 20
180.4318047071774
 10
698.2689215360667
 20
183.5254347826321
 10
699.5098008333232
 20
187.5528610254605
 10
700.6338550268199
 20
192.5593531633694
 10
701.4087452112224
 20
198.5799289251645
 10
701.5870525060679
 20
205.6176579500516
 10
701.5868140874888
 20
213.5980046297391
 10
701.5875889478691
 20
240.0006875301979
 10
701.5883042036064
 20
249.824665477433
 10
701.5889598546989
 20
260.5705186630867
 10
701.5895260988243
 20
272.2383066918037
 10
701.5899135290153
 20
286.7018207813881
 10
701.5900327383048
 20
302.369557311692
 10
701.5897645174034
 20
319.2416652943275
 10
701.5889896570213
 20
337.3181447292946
 10
701.5877081571586
 20
356.5990552212379
 10
701.5858604131706
 20
377.08442657248
 10
701.5859674555802
 20
487.2771261240286
  0
ENDBLK
  5
5C8
330
5C3
100
AcDbEntity
  8
0
100
AcDbBlockEnd
  0
ENDSEC
  0
SECTION
  2
ENTITIES
  0
MTEXT
  5
6B
330
23
100
AcDbEntity
  8
0
100
AcDbMText
 10
13.67895064802198
 20
26.44333632592591
 30
0.0
 40
20.0
 41
853.3333333333334
 71
     1
 72
     5
  1
{\fTimes New Roman|b0|i0|c0|p18;\C0;LAVAMANOS  DE 55x35 CM CON SEMI-COLUMNA.  SERIE EMMA SQUARE }
 73
     1
 44
1.0
1001
ACAD
1000
ACAD_MTEXT_DEFINED_HEIGHT_BEGIN
1070
    46
1040
0.0
1000
ACAD_MTEXT_DEFINED_HEIGHT_END
1000
MTEXTBEGIN
1070
    73
1070
     1
1070
    44
1040
1.0
1070
    74
1070
     0
1000
MTEXTEND
  0
INSERT
  5
5DD
330
23
100
AcDbEntity
  8
0
100
AcDbBlockReference
  2
27005_27432_P
 10
0.0
 20
0.0
 30
0.0
  0
ENDSEC
  0
SECTION
  2
OBJECTS
  0
DICTIONARY
  5
C
330
0
100
AcDbDictionary
281
     1
  3
ACAD_COLOR
350
1C
  3
ACAD_GROUP
350
D
  3
ACAD_LAYOUT
350
1A
  3
ACAD_MATERIAL
350
1B
  3
ACAD_MLINESTYLE
350
17
  3
ACAD_PLOTSETTINGS
350
19
  3
ACAD_PLOTSTYLENAME
350
E
  3
ACAD_TABLESTYLE
350
1D
  3
ACDBHEADERROUNDTRIPXREC
350
5EB
  3
AcDbVariableDictionary
350
111
  0
DICTIONARY
  5
35
330
2
100
AcDbDictionary
280
     1
281
     1
  3
ACAD_LAYERSTATES
360
36
  0
DICTIONARY
  5
19E
330
23
100
AcDbDictionary
280
     1
281
     1
  3
ACAD_SORTENTS
360
19F
  0
DICTIONARY
  5
5C4
330
5C3
100
AcDbDictionary
280
     1
281
     1
  3
AcDbBlockTableRecordData
360
5C5
  0
DICTIONARY
  5
1C
102
{ACAD_REACTORS
330
C
102
}
330
C
100
AcDbDictionary
281
     1
  0
DICTIONARY
  5
D
102
{ACAD_REACTORS
330
C
102
}
330
C
100
AcDbDictionary
281
     1
  0
DICTIONARY
  5
1A
102
{ACAD_REACTORS
330
C
102
}
330
C
100
AcDbDictionary
281
     1
  3
Model
350
26
  3
Presentación1
350
22
  3
Presentación2
350
2A
  0
DICTIONARY
  5
1B
102
{ACAD_REACTORS
330
C
102
}
330
C
100
AcDbDictionary
281
     1
  0
DICTIONARY
  5
17
102
{ACAD_REACTORS
330
C
102
}
330
C
100
AcDbDictionary
281
     1
  3
Standard
350
18
  0
DICTIONARY
  5
19
102
{ACAD_REACTORS
330
C
102
}
330
C
100
AcDbDictionary
281
     1
  0
ACDBDICTIONARYWDFLT
  5
E
102
{ACAD_REACTORS
330
C
102
}
330
C
100
AcDbDictionary
281
     1
  3
Normal
350
F
100
AcDbDictionaryWithDefault
340
F
  0
DICTIONARY
  5
1D
102
{ACAD_REACTORS
330
C
102
}
330
C
100
AcDbDictionary
281
     1
  3
Standard
350
1E
  0
DICTIONARY
  5
5EB
102
{ACAD_REACTORS
330
C
102
}
330
C
100
AcDbDictionary
281
     1
  0
DICTIONARY
  5
111
102
{ACAD_REACTORS
330
C
102
}
330
C
100
AcDbDictionary
281
     1
  3
CTABLESTYLE
350
112
  3
DIMASSOC
350
114
  3
HIDETEXT
350
113
  3
PROJECTNAME
350
115
  0
DICTIONARY
  5
36
102
{ACAD_REACTORS
330
35
102
}
330
35
100
AcDbDictionary
281
     1
  0
SORTENTSTABLE
  5
19F
102
{ACAD_REACTORS
330
19E
102
}
330
19E
100
AcDbSortentsTable
330
23
331
6B
  5
6B
  0
DICTIONARY
  5
5C5
102
{ACAD_REACTORS
330
5C4
102
}
330
5C4
100
AcDbDictionary
280
     1
281
     1
  3
Edit
360
5C6
  0
LAYOUT
  5
26
102
{ACAD_XDICTIONARY
360
5EE
102
}
102
{ACAD_REACTORS
330
1A
102
}
330
1A
100
AcDbPlotSettings
  1

  2
\\CERAMICAS_GALA\PRT_BU_OT_01.ZPRINTERS.BURGOS
  4

  6

 40
0.0
 41
0.0
 42
0.0
 43
0.0
 44
0.0
 45
0.0
 46
0.0
 47
0.0
 48
0.0
 49
0.0
140
0.0
141
0.0
142
1.0
143
1.0
 70
  1712
 72
     0
 73
     0
 74
     0
  7
C:\Documents and Settings\G0810\Application Data\Autodesk\AutoCAD 2006\R16.2\esp\Plot Styles\jj.stb
 75
     0
147
1.0
148
0.0
149
0.0
100
AcDbLayout
  1
Model
 70
     1
 71
     0
 10
0.0
 20
0.0
 11
12.0
 21
9.0
 12
0.0
 22
0.0
 32
0.0
 14
0.0
 24
0.0
 34
0.0
 15
0.0
 25
0.0
 35
0.0
146
0.0
 13
0.0
 23
0.0
 33
0.0
 16
1.0
 26
0.0
 36
0.0
 17
0.0
 27
1.0
 37
0.0
 76
     0
330
23
  0
LAYOUT
  5
22
102
{ACAD_XDICTIONARY
360
5EC
102
}
102
{ACAD_REACTORS
330
1A
102
}
330
1A
100
AcDbPlotSettings
  1

  2
\\CERAMICAS_GALA\PRT_BU_OT_01.ZPRINTERS.BURGOS
  4

  6

 40
0.0
 41
0.0
 42
0.0
 43
0.0
 44
0.0
 45
0.0
 46
0.0
 47
0.0
 48
0.0
 49
0.0
140
0.0
141
0.0
142
1.0
143
1.0
 70
   688
 72
     0
 73
     0
 74
     5
  7
C:\Documents and Settings\G0810\Application Data\Autodesk\AutoCAD 2006\R16.2\esp\Plot Styles\jj.stb
 75
    16
147
1.0
148
0.0
149
0.0
100
AcDbLayout
  1
Presentación1
 70
     1
 71
     1
 10
0.0
 20
0.0
 11
420.0
 21
297.0
 12
0.0
 22
0.0
 32
0.0
 14
1.000000000000000E+20
 24
1.000000000000000E+20
 34
1.000000000000000E+20
 15
-1.000000000000000E+20
 25
-1.000000000000000E+20
 35
-1.000000000000000E+20
146
0.0
 13
0.0
 23
0.0
 33
0.0
 16
1.0
 26
0.0
 36
0.0
 17
0.0
 27
1.0
 37
0.0
 76
     0
330
1F
  0
LAYOUT
  5
2A
102
{ACAD_XDICTIONARY
360
5F0
102
}
102
{ACAD_REACTORS
330
1A
102
}
330
1A
100
AcDbPlotSettings
  1

  2
\\CERAMICAS_GALA\PRT_BU_OT_01.ZPRINTERS.BURGOS
  4

  6

 40
0.0
 41
0.0
 42
0.0
 43
0.0
 44
0.0
 45
0.0
 46
0.0
 47
0.0
 48
0.0
 49
0.0
140
0.0
141
0.0
142
1.0
143
1.0
 70
   688
 72
     0
 73
     0
 74
     5
  7
C:\Documents and Settings\G0810\Application Data\Autodesk\AutoCAD 2006\R16.2\esp\Plot Styles\jj.stb
 75
    16
147
1.0
148
0.0
149
0.0
100
AcDbLayout
  1
Presentación2
 70
     1
 71
     2
 10
0.0
 20
0.0
 11
12.0
 21
9.0
 12
0.0
 22
0.0
 32
0.0
 14
0.0
 24
0.0
 34
0.0
 15
0.0
 25
0.0
 35
0.0
146
0.0
 13
0.0
 23
0.0
 33
0.0
 16
1.0
 26
0.0
 36
0.0
 17
0.0
 27
1.0
 37
0.0
 76
     0
330
27
  0
MLINESTYLE
  5
18
102
{ACAD_REACTORS
330
17
102
}
330
17
100
AcDbMlineStyle
  2
STANDARD
 70
     0
  3

 62
   256
 51
90.0
 52
90.0
 71
     2
 49
0.5
 62
   256
  6
BYLAYER
 49
-0.5
 62
   256
  6
BYLAYER
  0
ACDBPLACEHOLDER
  5
F
102
{ACAD_REACTORS
330
E
102
}
330
E
  0
TABLESTYLE
  5
1E
102
{ACAD_REACTORS
330
1D
102
}
330
1D
100
AcDbTableStyle
  3
Standard
 70
     0
 71
     0
 40
1.5
 41
1.5
280
     0
281
     0
  7
Standard
140
4.5
170
     2
 62
     0
 63
     7
283
     0
274
    -2
284
     1
 64
     0
275
    -2
285
     1
 65
     0
276
    -2
286
     1
 66
     0
277
    -2
287
     1
 67
     0
278
    -2
288
     1
 68
     0
279
    -2
289
     1
 69
     0
  7
Standard
140
6.0
170
     5
 62
     0
 63
     7
283
     0
274
    -2
284
     1
 64
     0
275
    -2
285
     1
 65
     0
276
    -2
286
     1
 66
     0
277
    -2
287
     1
 67
     0
278
    -2
288
     1
 68
     0
279
    -2
289
     1
 69
     0
  7
Standard
140
4.5
170
     5
 62
     0
 63
     7
283
     0
274
    -2
284
     1
 64
     0
275
    -2
285
     1
 65
     0
276
    -2
286
     1
 66
     0
277
    -2
287
     1
 67
     0
278
    -2
288
     1
 68
     0
279
    -2
289
     1
 69
     0
  0
DICTIONARYVAR
  5
112
102
{ACAD_REACTORS
330
111
102
}
330
111
100
DictionaryVariables
280
     0
  1
STANDARD
  0
DICTIONARYVAR
  5
114
102
{ACAD_REACTORS
330
111
102
}
330
111
100
DictionaryVariables
280
     0
  1
2
  0
DICTIONARYVAR
  5
113
102
{ACAD_REACTORS
330
111
102
}
330
111
100
DictionaryVariables
280
     0
  1
1
  0
DICTIONARYVAR
  5
115
102
{ACAD_REACTORS
330
111
102
}
330
111
100
DictionaryVariables
280
     0
  1

  0
XRECORD
  5
5C6
102
{ACAD_REACTORS
330
5C5
102
}
330
5C5
100
AcDbXrecord
280
     1
1070
     0
1070
     0
1070
     0
  0
DICTIONARY
  5
5EE
330
26
100
AcDbDictionary
280
     1
281
     1
  3
ACAD_XREC_ROUNDTRIP
360
5EF
  0
DICTIONARY
  5
5EC
330
22
100
AcDbDictionary
280
     1
281
     1
  3
ACAD_XREC_ROUNDTRIP
360
5ED
  0
DICTIONARY
  5
5F0
330
2A
100
AcDbDictionary
280
     1
281
     1
  3
ACAD_XREC_ROUNDTRIP
360
5F1
  0
XRECORD
  5
5EF
102
{ACAD_REACTORS
330
5EE
102
}
330
5EE
100
AcDbXrecord
280
     1
102
SHADEPLOT
 70
     0
102
SHADEPLOTRESLEVEL
 70
     2
102
SHADEPLOTCUSTOMDPI
 70
   300
  0
XRECORD
  5
5ED
102
{ACAD_REACTORS
330
5EC
102
}
330
5EC
100
AcDbXrecord
280
     1
102
SHADEPLOT
 70
     0
102
SHADEPLOTRESLEVEL
 70
     2
102
SHADEPLOTCUSTOMDPI
 70
   300
  0
XRECORD
  5
5F1
102
{ACAD_REACTORS
330
5F0
102
}
330
5F0
100
AcDbXrecord
280
     1
102
SHADEPLOT
 70
     0
102
SHADEPLOTRESLEVEL
 70
     2
102
SHADEPLOTCUSTOMDPI
 70
   300
  0
ENDSEC
  0
EOF
