  0
SECTION
  2
HEADER
  9
$ACADVER
  1
AC1018
  9
$ACADMAINTVER
 70
     0
  9
$DWGCODEPAGE
  3
ASCII
  9
$INSBASE
 10
0.0
 20
0.0
 30
0.0
  9
$EXTMIN
 10
1.000000000000000E+20
 20
1.000000000000000E+20
 30
1.000000000000000E+20
  9
$EXTMAX
 10
-1.000000000000000E+20
 20
-1.000000000000000E+20
 30
-1.000000000000000E+20
  9
$LIMMIN
 10
0.0
 20
0.0
  9
$LIMMAX
 10
12.0
 20
9.0
  9
$ORTHOMODE
 70
     0
  9
$REGENMODE
 70
     1
  9
$FILLMODE
 70
     1
  9
$QTEXTMODE
 70
     0
  9
$MIRRTEXT
 70
     1
  9
$LTSCALE
 40
1.0
  9
$ATTMODE
 70
     1
  9
$TEXTSIZE
 40
0.2
  9
$TRACEWID
 40
0.05
  9
$TEXTSTYLE
  7
Standard
  9
$CLAYER
  8
0
  9
$CELTYPE
  6
ByLayer
  9
$CECOLOR
 62
   256
  9
$CELTSCALE
 40
1.0
  9
$DISPSILH
 70
     0
  9
$DIMSCALE
 40
1.0
  9
$DIMASZ
 40
0.18
  9
$DIMEXO
 40
0.0625
  9
$DIMDLI
 40
0.38
  9
$DIMRND
 40
0.0
  9
$DIMDLE
 40
0.0
  9
$DIMEXE
 40
0.18
  9
$DIMTP
 40
0.0
  9
$DIMTM
 40
0.0
  9
$DIMTXT
 40
0.18
  9
$DIMCEN
 40
0.09
  9
$DIMTSZ
 40
0.0
  9
$DIMTOL
 70
     0
  9
$DIMLIM
 70
     0
  9
$DIMTIH
 70
     1
  9
$DIMTOH
 70
     1
  9
$DIMSE1
 70
     0
  9
$DIMSE2
 70
     0
  9
$DIMTAD
 70
     0
  9
$DIMZIN
 70
     0
  9
$DIMBLK
  1

  9
$DIMASO
 70
     1
  9
$DIMSHO
 70
     1
  9
$DIMPOST
  1

  9
$DIMAPOST
  1

  9
$DIMALT
 70
     0
  9
$DIMALTD
 70
     2
  9
$DIMALTF
 40
25.4
  9
$DIMLFAC
 40
1.0
  9
$DIMTOFL
 70
     0
  9
$DIMTVP
 40
0.0
  9
$DIMTIX
 70
     0
  9
$DIMSOXD
 70
     0
  9
$DIMSAH
 70
     0
  9
$DIMBLK1
  1

  9
$DIMBLK2
  1

  9
$DIMSTYLE
  2
Standard
  9
$DIMCLRD
 70
     0
  9
$DIMCLRE
 70
     0
  9
$DIMCLRT
 70
     0
  9
$DIMTFAC
 40
1.0
  9
$DIMGAP
 40
0.09
  9
$DIMJUST
 70
     0
  9
$DIMSD1
 70
     0
  9
$DIMSD2
 70
     0
  9
$DIMTOLJ
 70
     1
  9
$DIMTZIN
 70
     0
  9
$DIMALTZ
 70
     0
  9
$DIMALTTZ
 70
     0
  9
$DIMUPT
 70
     0
  9
$DIMDEC
 70
     4
  9
$DIMTDEC
 70
     4
  9
$DIMALTU
 70
     2
  9
$DIMALTTD
 70
     2
  9
$DIMTXSTY
  7
Standard
  9
$DIMAUNIT
 70
     0
  9
$DIMADEC
 70
     0
  9
$DIMALTRND
 40
0.0
  9
$DIMAZIN
 70
     0
  9
$DIMDSEP
 70
    46
  9
$DIMATFIT
 70
     3
  9
$DIMFRAC
 70
     0
  9
$DIMLDRBLK
  1

  9
$DIMLUNIT
 70
     2
  9
$DIMLWD
 70
    -2
  9
$DIMLWE
 70
    -2
  9
$DIMTMOVE
 70
     0
  9
$LUNITS
 70
     2
  9
$LUPREC
 70
     4
  9
$SKETCHINC
 40
0.1
  9
$FILLETRAD
 40
0.5
  9
$AUNITS
 70
     0
  9
$AUPREC
 70
     0
  9
$MENU
  1
.
  9
$ELEVATION
 40
0.0
  9
$PELEVATION
 40
0.0
  9
$THICKNESS
 40
0.0
  9
$LIMCHECK
 70
     0
  9
$CHAMFERA
 40
0.5
  9
$CHAMFERB
 40
0.5
  9
$CHAMFERC
 40
1.0
  9
$CHAMFERD
 40
0.0
  9
$SKPOLY
 70
     0
  9
$TDCREATE
 40
2455768.668969907
  9
$TDUCREATE
 40
2455768.627303241
  9
$TDUPDATE
 40
2455768.668969919
  9
$TDUUPDATE
 40
2455768.627303252
  9
$TDINDWG
 40
0.0000000116
  9
$TDUSRTIMER
 40
0.0000000116
  9
$USRTIMER
 70
     1
  9
$ANGBASE
 50
0.0
  9
$ANGDIR
 70
     0
  9
$PDMODE
 70
     0
  9
$PDSIZE
 40
0.0
  9
$PLINEWID
 40
0.0
  9
$SPLFRAME
 70
     0
  9
$SPLINETYPE
 70
     6
  9
$SPLINESEGS
 70
     8
  9
$HANDSEED
  5
5FD
  9
$SURFTAB1
 70
     6
  9
$SURFTAB2
 70
     6
  9
$SURFTYPE
 70
     6
  9
$SURFU
 70
     6
  9
$SURFV
 70
     6
  9
$UCSBASE
  2

  9
$UCSNAME
  2

  9
$UCSORG
 10
0.0
 20
0.0
 30
0.0
  9
$UCSXDIR
 10
1.0
 20
0.0
 30
0.0
  9
$UCSYDIR
 10
0.0
 20
1.0
 30
0.0
  9
$UCSORTHOREF
  2

  9
$UCSORTHOVIEW
 70
     0
  9
$UCSORGTOP
 10
0.0
 20
0.0
 30
0.0
  9
$UCSORGBOTTOM
 10
0.0
 20
0.0
 30
0.0
  9
$UCSORGLEFT
 10
0.0
 20
0.0
 30
0.0
  9
$UCSORGRIGHT
 10
0.0
 20
0.0
 30
0.0
  9
$UCSORGFRONT
 10
0.0
 20
0.0
 30
0.0
  9
$UCSORGBACK
 10
0.0
 20
0.0
 30
0.0
  9
$PUCSBASE
  2

  9
$PUCSNAME
  2

  9
$PUCSORG
 10
0.0
 20
0.0
 30
0.0
  9
$PUCSXDIR
 10
1.0
 20
0.0
 30
0.0
  9
$PUCSYDIR
 10
0.0
 20
1.0
 30
0.0
  9
$PUCSORTHOREF
  2

  9
$PUCSORTHOVIEW
 70
     0
  9
$PUCSORGTOP
 10
0.0
 20
0.0
 30
0.0
  9
$PUCSORGBOTTOM
 10
0.0
 20
0.0
 30
0.0
  9
$PUCSORGLEFT
 10
0.0
 20
0.0
 30
0.0
  9
$PUCSORGRIGHT
 10
0.0
 20
0.0
 30
0.0
  9
$PUCSORGFRONT
 10
0.0
 20
0.0
 30
0.0
  9
$PUCSORGBACK
 10
0.0
 20
0.0
 30
0.0
  9
$USERI1
 70
     0
  9
$USERI2
 70
     0
  9
$USERI3
 70
     0
  9
$USERI4
 70
     0
  9
$USERI5
 70
     0
  9
$USERR1
 40
0.0
  9
$USERR2
 40
0.0
  9
$USERR3
 40
0.0
  9
$USERR4
 40
0.0
  9
$USERR5
 40
0.0
  9
$WORLDVIEW
 70
     1
  9
$SHADEDGE
 70
     3
  9
$SHADEDIF
 70
    70
  9
$TILEMODE
 70
     1
  9
$MAXACTVP
 70
    64
  9
$PINSBASE
 10
0.0
 20
0.0
 30
0.0
  9
$PLIMCHECK
 70
     0
  9
$PEXTMIN
 10
1.000000000000000E+20
 20
1.000000000000000E+20
 30
1.000000000000000E+20
  9
$PEXTMAX
 10
-1.000000000000000E+20
 20
-1.000000000000000E+20
 30
-1.000000000000000E+20
  9
$PLIMMIN
 10
0.0
 20
0.0
  9
$PLIMMAX
 10
12.0
 20
9.0
  9
$UNITMODE
 70
     0
  9
$VISRETAIN
 70
     1
  9
$PLINEGEN
 70
     0
  9
$PSLTSCALE
 70
     1
  9
$TREEDEPTH
 70
  3020
  9
$CMLSTYLE
  2
Standard
  9
$CMLJUST
 70
     0
  9
$CMLSCALE
 40
1.0
  9
$PROXYGRAPHICS
 70
     1
  9
$MEASUREMENT
 70
     0
  9
$CELWEIGHT
370
    -1
  9
$ENDCAPS
280
     0
  9
$JOINSTYLE
280
     0
  9
$LWDISPLAY
290
     1
  9
$INSUNITS
 70
     1
  9
$HYPERLINKBASE
  1

  9
$STYLESHEET
  1

  9
$XEDIT
290
     1
  9
$CEPSNTYPE
380
     0
  9
$PSTYLEMODE
290
     1
  9
$FINGERPRINTGUID
  2
{F374B897-3AB2-8E7E-2746-8451A7A12404}
  9
$VERSIONGUID
  2
{FAEB1C32-E019-11D5-929B-00C0DF256EC4}
  9
$EXTNAMES
290
     1
  9
$PSVPSCALE
 40
0.0
  9
$OLESTARTUP
290
     0
  9
$SORTENTS
280
   127
  9
$INDEXCTL
280
     0
  9
$HIDETEXT
280
     1
  9
$XCLIPFRAME
290
     0
  9
$HALOGAP
280
     0
  9
$OBSCOLOR
 70
   257
  9
$OBSLTYPE
280
     0
  9
$INTERSECTIONDISPLAY
280
     0
  9
$INTERSECTIONCOLOR
 70
   257
  9
$DIMASSOC
280
     2
  9
$PROJECTNAME
  1

  0
ENDSEC
  0
SECTION
  2
CLASSES
  0
CLASS
  1
ACDBDICTIONARYWDFLT
  2
AcDbDictionaryWithDefault
  3
ObjectDBX Classes
 90
        0
 91
        3
280
     0
281
     0
  0
CLASS
  1
VISUALSTYLE
  2
AcDbVisualStyle
  3
ObjectDBX Classes
 90
     4095
 91
        3
280
     0
281
     0
  0
ENDSEC
  0
SECTION
  2
TABLES
  0
TABLE
  2
VPORT
  5
8
330
0
100
AcDbSymbolTable
 70
     1
  0
VPORT
  5
29
330
8
100
AcDbSymbolTableRecord
100
AcDbViewportTableRecord
  2
*Active
 70
     0
 10
0.0
 20
0.0
 11
1.0
 21
1.0
 12
0.0
 22
0.0
 13
0.0
 23
0.0
 14
0.5
 24
0.5
 15
0.5
 25
0.5
 16
0.0
 26
0.0
 36
1.0
 17
10.50008091239277
 27
14.8500163709943
 37
0.0
 40
29.70003274198861
 41
0.70707537621992
 42
50.0
 43
0.0
 44
0.0
 50
0.0
 51
0.0
 71
     0
 72
   100
 73
     1
 74
     3
 75
     0
 76
     0
 77
     0
 78
     0
281
     0
 65
     1
110
0.0
120
0.0
130
0.0
111
1.0
121
0.0
131
0.0
112
0.0
122
1.0
132
0.0
 79
     0
146
0.0
  0
ENDTAB
  0
TABLE
  2
LTYPE
  5
5
330
0
100
AcDbSymbolTable
 70
     8
  0
LTYPE
  5
14
330
5
100
AcDbSymbolTableRecord
100
AcDbLinetypeTableRecord
  2
ByBlock
 70
     0
  3

 72
    65
 73
     0
 40
0.0
  0
LTYPE
  5
15
330
5
100
AcDbSymbolTableRecord
100
AcDbLinetypeTableRecord
  2
ByLayer
 70
     0
  3

 72
    65
 73
     0
 40
0.0
  0
LTYPE
  5
16
330
5
100
AcDbSymbolTableRecord
100
AcDbLinetypeTableRecord
  2
Continuous
 70
     0
  3
Solid line
 72
    65
 73
     0
 40
0.0
  0
LTYPE
  5
5B0
330
5
100
AcDbSymbolTableRecord
100
AcDbLinetypeTableRecord
  2
AI-Linetype-1
 70
     0
  3
Adobe Illustrator Linetype No. 1
 72
    65
 73
     2
 40
0.0510066719941032
 49
0.0340044479960688
 74
     0
 49
-0.0170022239980344
 74
     0
  0
LTYPE
  5
5B9
330
5
100
AcDbSymbolTableRecord
100
AcDbLinetypeTableRecord
  2
AI-Linetype-2
 70
     0
  3
Adobe Illustrator Linetype No. 2
 72
    65
 73
     2
 40
0.0510066719941032
 49
0.0340044479960688
 74
     0
 49
-0.0170022239980344
 74
     0
  0
LTYPE
  5
5C2
330
5
100
AcDbSymbolTableRecord
100
AcDbLinetypeTableRecord
  2
AI-Linetype-3
 70
     0
  3
Adobe Illustrator Linetype No. 3
 72
    65
 73
     2
 40
0.0510066719941032
 49
0.0340044479960688
 74
     0
 49
-0.0170022239980344
 74
     0
  0
LTYPE
  5
5CB
330
5
100
AcDbSymbolTableRecord
100
AcDbLinetypeTableRecord
  2
AI-Linetype-4
 70
     0
  3
Adobe Illustrator Linetype No. 4
 72
    65
 73
     2
 40
0.0510066719941032
 49
0.0340044479960688
 74
     0
 49
-0.0170022239980344
 74
     0
  0
LTYPE
  5
5D4
330
5
100
AcDbSymbolTableRecord
100
AcDbLinetypeTableRecord
  2
AI-Linetype-5
 70
     0
  3
Adobe Illustrator Linetype No. 5
 72
    65
 73
     2
 40
0.0510066719941032
 49
0.0340044479960688
 74
     0
 49
-0.0170022239980344
 74
     0
  0
LTYPE
  5
5DD
330
5
100
AcDbSymbolTableRecord
100
AcDbLinetypeTableRecord
  2
AI-Linetype-6
 70
     0
  3
Adobe Illustrator Linetype No. 6
 72
    65
 73
     2
 40
0.0510066719941032
 49
0.0340044479960688
 74
     0
 49
-0.0170022239980344
 74
     0
  0
LTYPE
  5
5F6
330
5
100
AcDbSymbolTableRecord
100
AcDbLinetypeTableRecord
  2
AI-Linetype-7
 70
     0
  3
Adobe Illustrator Linetype No. 7
 72
    65
 73
     4
 40
0.1363705699868051
 49
0.0680088959921375
 74
     0
 49
-0.0340044479960688
 74
     0
 49
0.0003527780025301
 74
     0
 49
-0.0340044479960688
 74
     0
  0
ENDTAB
  0
TABLE
  2
LAYER
  5
2
330
0
100
AcDbSymbolTable
 70
     8
  0
LAYER
  5
10
330
2
100
AcDbSymbolTableRecord
100
AcDbLayerTableRecord
  2
0
 70
     0
 62
     7
  6
Continuous
370
    -3
390
F
  0
LAYER
  5
3B
330
2
100
AcDbSymbolTableRecord
100
AcDbLayerTableRecord
  2
cotas
 70
     0
 62
     7
  6
Continuous
370
    -3
390
F
  0
LAYER
  5
4A
330
2
100
AcDbSymbolTableRecord
100
AcDbLayerTableRecord
  2
LINHAS_COTAGENS
 70
     0
 62
     7
  6
Continuous
370
    -3
390
F
  0
LAYER
  5
24B
330
2
100
AcDbSymbolTableRecord
100
AcDbLayerTableRecord
  2
SOMBREADO
 70
     0
 62
     7
  6
Continuous
370
    -3
390
F
  0
LAYER
  5
287
330
2
100
AcDbSymbolTableRecord
100
AcDbLayerTableRecord
  2
018
 70
     0
 62
     7
  6
Continuous
370
    -3
390
F
  0
LAYER
  5
474
330
2
100
AcDbSymbolTableRecord
100
AcDbLayerTableRecord
  2
035
 70
     0
 62
     7
  6
Continuous
370
    -3
390
F
  0
LAYER
  5
4FA
330
2
100
AcDbSymbolTableRecord
100
AcDbLayerTableRecord
  2
025
 70
     0
 62
     7
  6
Continuous
370
    -3
390
F
  0
LAYER
  5
597
330
2
100
AcDbSymbolTableRecord
100
AcDbLayerTableRecord
  2
010
 70
     0
 62
     7
  6
Continuous
370
    -3
390
F
  0
ENDTAB
  0
TABLE
  2
STYLE
  5
3
330
0
100
AcDbSymbolTable
 70
     1
  0
STYLE
  5
11
330
3
100
AcDbSymbolTableRecord
100
AcDbTextStyleTableRecord
  2
Standard
 70
     0
 40
0.0
 41
1.0
 50
0.0
 71
     0
 42
0.2
  3
txt
  4

  0
ENDTAB
  0
TABLE
  2
VIEW
  5
6
330
0
100
AcDbSymbolTable
 70
     0
  0
ENDTAB
  0
TABLE
  2
UCS
  5
7
330
0
100
AcDbSymbolTable
 70
     0
  0
ENDTAB
  0
TABLE
  2
APPID
  5
9
330
0
100
AcDbSymbolTable
 70
     1
  0
APPID
  5
12
330
9
100
AcDbSymbolTableRecord
100
AcDbRegAppTableRecord
  2
ACAD
 70
     0
  0
ENDTAB
  0
TABLE
  2
DIMSTYLE
  5
A
330
0
100
AcDbSymbolTable
 70
     1
100
AcDbDimStyleTable
  0
DIMSTYLE
105
27
330
A
100
AcDbSymbolTableRecord
100
AcDbDimStyleTableRecord
  2
Standard
 70
     0
340
11
  0
ENDTAB
  0
TABLE
  2
BLOCK_RECORD
  5
1
330
0
100
AcDbSymbolTable
 70
   191
  0
BLOCK_RECORD
  5
1F
330
1
100
AcDbSymbolTableRecord
100
AcDbBlockTableRecord
  2
*Model_Space
340
22
  0
BLOCK_RECORD
  5
1B
330
1
100
AcDbSymbolTableRecord
100
AcDbBlockTableRecord
  2
*Paper_Space
340
1E
  0
BLOCK_RECORD
  5
23
330
1
100
AcDbSymbolTableRecord
100
AcDbBlockTableRecord
  2
*Paper_Space0
340
26
  0
BLOCK_RECORD
  5
3C
330
1
100
AcDbSymbolTableRecord
100
AcDbBlockTableRecord
  2
block 2
340
0
102
{BLKREFS
331
3D
102
}
  0
BLOCK_RECORD
  5
40
330
1
100
AcDbSymbolTableRecord
100
AcDbBlockTableRecord
  2
block 3
340
0
102
{BLKREFS
331
41
102
}
  0
BLOCK_RECORD
  5
45
330
1
100
AcDbSymbolTableRecord
100
AcDbBlockTableRecord
  2
block 4
340
0
102
{BLKREFS
331
46
102
}
  0
BLOCK_RECORD
  5
4B
330
1
100
AcDbSymbolTableRecord
100
AcDbBlockTableRecord
  2
block 5
340
0
102
{BLKREFS
331
4C
102
}
  0
BLOCK_RECORD
  5
4F
330
1
100
AcDbSymbolTableRecord
100
AcDbBlockTableRecord
  2
block 6
340
0
102
{BLKREFS
331
50
102
}
  0
BLOCK_RECORD
  5
57
330
1
100
AcDbSymbolTableRecord
100
AcDbBlockTableRecord
  2
block 7
340
0
102
{BLKREFS
331
58
102
}
  0
BLOCK_RECORD
  5
5F
330
1
100
AcDbSymbolTableRecord
100
AcDbBlockTableRecord
  2
block 8
340
0
102
{BLKREFS
331
60
102
}
  0
BLOCK_RECORD
  5
67
330
1
100
AcDbSymbolTableRecord
100
AcDbBlockTableRecord
  2
block 9
340
0
102
{BLKREFS
331
68
102
}
  0
BLOCK_RECORD
  5
72
330
1
100
AcDbSymbolTableRecord
100
AcDbBlockTableRecord
  2
block 10
340
0
102
{BLKREFS
331
73
102
}
  0
BLOCK_RECORD
  5
7D
330
1
100
AcDbSymbolTableRecord
100
AcDbBlockTableRecord
  2
block 11
340
0
102
{BLKREFS
331
7E
102
}
  0
BLOCK_RECORD
  5
82
330
1
100
AcDbSymbolTableRecord
100
AcDbBlockTableRecord
  2
block 12
340
0
102
{BLKREFS
331
83
102
}
  0
BLOCK_RECORD
  5
8A
330
1
100
AcDbSymbolTableRecord
100
AcDbBlockTableRecord
  2
block 13
340
0
102
{BLKREFS
331
8B
102
}
  0
BLOCK_RECORD
  5
92
330
1
100
AcDbSymbolTableRecord
100
AcDbBlockTableRecord
  2
block 14
340
0
102
{BLKREFS
331
93
102
}
  0
BLOCK_RECORD
  5
9A
330
1
100
AcDbSymbolTableRecord
100
AcDbBlockTableRecord
  2
block 15
340
0
102
{BLKREFS
331
9B
102
}
  0
BLOCK_RECORD
  5
9E
330
1
100
AcDbSymbolTableRecord
100
AcDbBlockTableRecord
  2
block 16
340
0
102
{BLKREFS
331
9F
102
}
  0
BLOCK_RECORD
  5
A6
330
1
100
AcDbSymbolTableRecord
100
AcDbBlockTableRecord
  2
block 17
340
0
102
{BLKREFS
331
A7
102
}
  0
BLOCK_RECORD
  5
AE
330
1
100
AcDbSymbolTableRecord
100
AcDbBlockTableRecord
  2
block 18
340
0
102
{BLKREFS
331
AF
102
}
  0
BLOCK_RECORD
  5
B6
330
1
100
AcDbSymbolTableRecord
100
AcDbBlockTableRecord
  2
block 19
340
0
102
{BLKREFS
331
B7
102
}
  0
BLOCK_RECORD
  5
C1
330
1
100
AcDbSymbolTableRecord
100
AcDbBlockTableRecord
  2
block 20
340
0
102
{BLKREFS
331
C2
102
}
  0
BLOCK_RECORD
  5
CC
330
1
100
AcDbSymbolTableRecord
100
AcDbBlockTableRecord
  2
block 21
340
0
102
{BLKREFS
331
CD
102
}
  0
BLOCK_RECORD
  5
D1
330
1
100
AcDbSymbolTableRecord
100
AcDbBlockTableRecord
  2
block 22
340
0
102
{BLKREFS
331
D2
102
}
  0
BLOCK_RECORD
  5
D9
330
1
100
AcDbSymbolTableRecord
100
AcDbBlockTableRecord
  2
block 23
340
0
102
{BLKREFS
331
DA
102
}
  0
BLOCK_RECORD
  5
E1
330
1
100
AcDbSymbolTableRecord
100
AcDbBlockTableRecord
  2
block 24
340
0
102
{BLKREFS
331
E2
102
}
  0
BLOCK_RECORD
  5
E9
330
1
100
AcDbSymbolTableRecord
100
AcDbBlockTableRecord
  2
block 25
340
0
102
{BLKREFS
331
EA
102
}
  0
BLOCK_RECORD
  5
ED
330
1
100
AcDbSymbolTableRecord
100
AcDbBlockTableRecord
  2
block 26
340
0
102
{BLKREFS
331
EE
102
}
  0
BLOCK_RECORD
  5
F5
330
1
100
AcDbSymbolTableRecord
100
AcDbBlockTableRecord
  2
block 27
340
0
102
{BLKREFS
331
F6
102
}
  0
BLOCK_RECORD
  5
FD
330
1
100
AcDbSymbolTableRecord
100
AcDbBlockTableRecord
  2
block 28
340
0
102
{BLKREFS
331
FE
102
}
  0
BLOCK_RECORD
  5
105
330
1
100
AcDbSymbolTableRecord
100
AcDbBlockTableRecord
  2
block 29
340
0
102
{BLKREFS
331
106
102
}
  0
BLOCK_RECORD
  5
110
330
1
100
AcDbSymbolTableRecord
100
AcDbBlockTableRecord
  2
block 30
340
0
102
{BLKREFS
331
111
102
}
  0
BLOCK_RECORD
  5
11B
330
1
100
AcDbSymbolTableRecord
100
AcDbBlockTableRecord
  2
block 31
340
0
102
{BLKREFS
331
11C
102
}
  0
BLOCK_RECORD
  5
120
330
1
100
AcDbSymbolTableRecord
100
AcDbBlockTableRecord
  2
block 32
340
0
102
{BLKREFS
331
121
102
}
  0
BLOCK_RECORD
  5
128
330
1
100
AcDbSymbolTableRecord
100
AcDbBlockTableRecord
  2
block 33
340
0
102
{BLKREFS
331
129
102
}
  0
BLOCK_RECORD
  5
130
330
1
100
AcDbSymbolTableRecord
100
AcDbBlockTableRecord
  2
block 34
340
0
102
{BLKREFS
331
131
102
}
  0
BLOCK_RECORD
  5
138
330
1
100
AcDbSymbolTableRecord
100
AcDbBlockTableRecord
  2
block 35
340
0
102
{BLKREFS
331
139
102
}
  0
BLOCK_RECORD
  5
13C
330
1
100
AcDbSymbolTableRecord
100
AcDbBlockTableRecord
  2
block 36
340
0
102
{BLKREFS
331
13D
102
}
  0
BLOCK_RECORD
  5
144
330
1
100
AcDbSymbolTableRecord
100
AcDbBlockTableRecord
  2
block 37
340
0
102
{BLKREFS
331
145
102
}
  0
BLOCK_RECORD
  5
14C
330
1
100
AcDbSymbolTableRecord
100
AcDbBlockTableRecord
  2
block 38
340
0
102
{BLKREFS
331
14D
102
}
  0
BLOCK_RECORD
  5
154
330
1
100
AcDbSymbolTableRecord
100
AcDbBlockTableRecord
  2
block 39
340
0
102
{BLKREFS
331
155
102
}
  0
BLOCK_RECORD
  5
15F
330
1
100
AcDbSymbolTableRecord
100
AcDbBlockTableRecord
  2
block 40
340
0
102
{BLKREFS
331
160
102
}
  0
BLOCK_RECORD
  5
16A
330
1
100
AcDbSymbolTableRecord
100
AcDbBlockTableRecord
  2
block 41
340
0
102
{BLKREFS
331
16B
102
}
  0
BLOCK_RECORD
  5
16F
330
1
100
AcDbSymbolTableRecord
100
AcDbBlockTableRecord
  2
block 42
340
0
102
{BLKREFS
331
170
102
}
  0
BLOCK_RECORD
  5
177
330
1
100
AcDbSymbolTableRecord
100
AcDbBlockTableRecord
  2
block 43
340
0
102
{BLKREFS
331
178
102
}
  0
BLOCK_RECORD
  5
17F
330
1
100
AcDbSymbolTableRecord
100
AcDbBlockTableRecord
  2
block 44
340
0
102
{BLKREFS
331
180
102
}
  0
BLOCK_RECORD
  5
187
330
1
100
AcDbSymbolTableRecord
100
AcDbBlockTableRecord
  2
block 45
340
0
102
{BLKREFS
331
188
102
}
  0
BLOCK_RECORD
  5
18F
330
1
100
AcDbSymbolTableRecord
100
AcDbBlockTableRecord
  2
block 46
340
0
102
{BLKREFS
331
190
102
}
  0
BLOCK_RECORD
  5
19A
330
1
100
AcDbSymbolTableRecord
100
AcDbBlockTableRecord
  2
block 47
340
0
102
{BLKREFS
331
19B
102
}
  0
BLOCK_RECORD
  5
1A2
330
1
100
AcDbSymbolTableRecord
100
AcDbBlockTableRecord
  2
block 48
340
0
102
{BLKREFS
331
1A3
102
}
  0
BLOCK_RECORD
  5
1AD
330
1
100
AcDbSymbolTableRecord
100
AcDbBlockTableRecord
  2
block 49
340
0
102
{BLKREFS
331
1AE
102
}
  0
BLOCK_RECORD
  5
1B1
330
1
100
AcDbSymbolTableRecord
100
AcDbBlockTableRecord
  2
block 50
340
0
102
{BLKREFS
331
1B2
102
}
  0
BLOCK_RECORD
  5
1B9
330
1
100
AcDbSymbolTableRecord
100
AcDbBlockTableRecord
  2
block 51
340
0
102
{BLKREFS
331
1BA
102
}
  0
BLOCK_RECORD
  5
1C1
330
1
100
AcDbSymbolTableRecord
100
AcDbBlockTableRecord
  2
block 52
340
0
102
{BLKREFS
331
1C2
102
}
  0
BLOCK_RECORD
  5
1C9
330
1
100
AcDbSymbolTableRecord
100
AcDbBlockTableRecord
  2
block 53
340
0
102
{BLKREFS
331
1CA
102
}
  0
BLOCK_RECORD
  5
1D4
330
1
100
AcDbSymbolTableRecord
100
AcDbBlockTableRecord
  2
block 54
340
0
102
{BLKREFS
331
1D5
102
}
  0
BLOCK_RECORD
  5
1DF
330
1
100
AcDbSymbolTableRecord
100
AcDbBlockTableRecord
  2
block 55
340
0
102
{BLKREFS
331
1E0
102
}
  0
BLOCK_RECORD
  5
1E4
330
1
100
AcDbSymbolTableRecord
100
AcDbBlockTableRecord
  2
block 56
340
0
102
{BLKREFS
331
1E5
102
}
  0
BLOCK_RECORD
  5
1EC
330
1
100
AcDbSymbolTableRecord
100
AcDbBlockTableRecord
  2
block 57
340
0
102
{BLKREFS
331
1ED
102
}
  0
BLOCK_RECORD
  5
1F4
330
1
100
AcDbSymbolTableRecord
100
AcDbBlockTableRecord
  2
block 58
340
0
102
{BLKREFS
331
1F5
102
}
  0
BLOCK_RECORD
  5
1FC
330
1
100
AcDbSymbolTableRecord
100
AcDbBlockTableRecord
  2
block 59
340
0
102
{BLKREFS
331
1FD
102
}
  0
BLOCK_RECORD
  5
200
330
1
100
AcDbSymbolTableRecord
100
AcDbBlockTableRecord
  2
block 60
340
0
102
{BLKREFS
331
201
102
}
  0
BLOCK_RECORD
  5
208
330
1
100
AcDbSymbolTableRecord
100
AcDbBlockTableRecord
  2
block 61
340
0
102
{BLKREFS
331
209
102
}
  0
BLOCK_RECORD
  5
210
330
1
100
AcDbSymbolTableRecord
100
AcDbBlockTableRecord
  2
block 62
340
0
102
{BLKREFS
331
211
102
}
  0
BLOCK_RECORD
  5
218
330
1
100
AcDbSymbolTableRecord
100
AcDbBlockTableRecord
  2
block 63
340
0
102
{BLKREFS
331
219
102
}
  0
BLOCK_RECORD
  5
223
330
1
100
AcDbSymbolTableRecord
100
AcDbBlockTableRecord
  2
block 64
340
0
102
{BLKREFS
331
224
102
}
  0
BLOCK_RECORD
  5
22E
330
1
100
AcDbSymbolTableRecord
100
AcDbBlockTableRecord
  2
block 65
340
0
102
{BLKREFS
331
22F
102
}
  0
BLOCK_RECORD
  5
233
330
1
100
AcDbSymbolTableRecord
100
AcDbBlockTableRecord
  2
block 66
340
0
102
{BLKREFS
331
234
102
}
  0
BLOCK_RECORD
  5
23B
330
1
100
AcDbSymbolTableRecord
100
AcDbBlockTableRecord
  2
block 67
340
0
102
{BLKREFS
331
23C
102
}
  0
BLOCK_RECORD
  5
243
330
1
100
AcDbSymbolTableRecord
100
AcDbBlockTableRecord
  2
block 68
340
0
102
{BLKREFS
331
244
102
}
  0
BLOCK_RECORD
  5
24C
330
1
100
AcDbSymbolTableRecord
100
AcDbBlockTableRecord
  2
block 69
340
0
102
{BLKREFS
331
24D
102
}
  0
BLOCK_RECORD
  5
288
330
1
100
AcDbSymbolTableRecord
100
AcDbBlockTableRecord
  2
block 70
340
0
102
{BLKREFS
331
289
102
}
  0
BLOCK_RECORD
  5
290
330
1
100
AcDbSymbolTableRecord
100
AcDbBlockTableRecord
  2
block 71
340
0
102
{BLKREFS
331
291
102
}
  0
BLOCK_RECORD
  5
298
330
1
100
AcDbSymbolTableRecord
100
AcDbBlockTableRecord
  2
block 72
340
0
102
{BLKREFS
331
299
102
}
  0
BLOCK_RECORD
  5
2A3
330
1
100
AcDbSymbolTableRecord
100
AcDbBlockTableRecord
  2
block 73
340
0
102
{BLKREFS
331
2A4
102
}
  0
BLOCK_RECORD
  5
2AB
330
1
100
AcDbSymbolTableRecord
100
AcDbBlockTableRecord
  2
block 74
340
0
102
{BLKREFS
331
2AC
102
}
  0
BLOCK_RECORD
  5
2B6
330
1
100
AcDbSymbolTableRecord
100
AcDbBlockTableRecord
  2
block 75
340
0
102
{BLKREFS
331
2B7
102
}
  0
BLOCK_RECORD
  5
2BE
330
1
100
AcDbSymbolTableRecord
100
AcDbBlockTableRecord
  2
block 76
340
0
102
{BLKREFS
331
2BF
102
}
  0
BLOCK_RECORD
  5
2C6
330
1
100
AcDbSymbolTableRecord
100
AcDbBlockTableRecord
  2
block 77
340
0
102
{BLKREFS
331
2C7
102
}
  0
BLOCK_RECORD
  5
2CB
330
1
100
AcDbSymbolTableRecord
100
AcDbBlockTableRecord
  2
block 78
340
0
102
{BLKREFS
331
2CC
102
}
  0
BLOCK_RECORD
  5
2D0
330
1
100
AcDbSymbolTableRecord
100
AcDbBlockTableRecord
  2
block 79
340
0
102
{BLKREFS
331
2D1
102
}
  0
BLOCK_RECORD
  5
2D8
330
1
100
AcDbSymbolTableRecord
100
AcDbBlockTableRecord
  2
block 80
340
0
102
{BLKREFS
331
2D9
102
}
  0
BLOCK_RECORD
  5
2E0
330
1
100
AcDbSymbolTableRecord
100
AcDbBlockTableRecord
  2
block 81
340
0
102
{BLKREFS
331
2E1
102
}
  0
BLOCK_RECORD
  5
2E8
330
1
100
AcDbSymbolTableRecord
100
AcDbBlockTableRecord
  2
block 82
340
0
102
{BLKREFS
331
2E9
102
}
  0
BLOCK_RECORD
  5
2F0
330
1
100
AcDbSymbolTableRecord
100
AcDbBlockTableRecord
  2
block 83
340
0
102
{BLKREFS
331
2F1
102
}
  0
BLOCK_RECORD
  5
2F8
330
1
100
AcDbSymbolTableRecord
100
AcDbBlockTableRecord
  2
block 84
340
0
102
{BLKREFS
331
2F9
102
}
  0
BLOCK_RECORD
  5
2FD
330
1
100
AcDbSymbolTableRecord
100
AcDbBlockTableRecord
  2
block 85
340
0
102
{BLKREFS
331
2FE
102
}
  0
BLOCK_RECORD
  5
305
330
1
100
AcDbSymbolTableRecord
100
AcDbBlockTableRecord
  2
block 86
340
0
102
{BLKREFS
331
306
102
}
  0
BLOCK_RECORD
  5
30A
330
1
100
AcDbSymbolTableRecord
100
AcDbBlockTableRecord
  2
block 87
340
0
102
{BLKREFS
331
30B
102
}
  0
BLOCK_RECORD
  5
312
330
1
100
AcDbSymbolTableRecord
100
AcDbBlockTableRecord
  2
block 88
340
0
102
{BLKREFS
331
313
102
}
  0
BLOCK_RECORD
  5
317
330
1
100
AcDbSymbolTableRecord
100
AcDbBlockTableRecord
  2
block 89
340
0
102
{BLKREFS
331
318
102
}
  0
BLOCK_RECORD
  5
31F
330
1
100
AcDbSymbolTableRecord
100
AcDbBlockTableRecord
  2
block 90
340
0
102
{BLKREFS
331
320
102
}
  0
BLOCK_RECORD
  5
324
330
1
100
AcDbSymbolTableRecord
100
AcDbBlockTableRecord
  2
block 91
340
0
102
{BLKREFS
331
325
102
}
  0
BLOCK_RECORD
  5
32C
330
1
100
AcDbSymbolTableRecord
100
AcDbBlockTableRecord
  2
block 92
340
0
102
{BLKREFS
331
32D
102
}
  0
BLOCK_RECORD
  5
334
330
1
100
AcDbSymbolTableRecord
100
AcDbBlockTableRecord
  2
block 93
340
0
102
{BLKREFS
331
335
102
}
  0
BLOCK_RECORD
  5
339
330
1
100
AcDbSymbolTableRecord
100
AcDbBlockTableRecord
  2
block 94
340
0
102
{BLKREFS
331
33A
102
}
  0
BLOCK_RECORD
  5
341
330
1
100
AcDbSymbolTableRecord
100
AcDbBlockTableRecord
  2
block 95
340
0
102
{BLKREFS
331
342
102
}
  0
BLOCK_RECORD
  5
349
330
1
100
AcDbSymbolTableRecord
100
AcDbBlockTableRecord
  2
block 96
340
0
102
{BLKREFS
331
34A
102
}
  0
BLOCK_RECORD
  5
351
330
1
100
AcDbSymbolTableRecord
100
AcDbBlockTableRecord
  2
block 97
340
0
102
{BLKREFS
331
352
102
}
  0
BLOCK_RECORD
  5
359
330
1
100
AcDbSymbolTableRecord
100
AcDbBlockTableRecord
  2
block 98
340
0
102
{BLKREFS
331
35A
102
}
  0
BLOCK_RECORD
  5
361
330
1
100
AcDbSymbolTableRecord
100
AcDbBlockTableRecord
  2
block 99
340
0
102
{BLKREFS
331
362
102
}
  0
BLOCK_RECORD
  5
369
330
1
100
AcDbSymbolTableRecord
100
AcDbBlockTableRecord
  2
block 100
340
0
102
{BLKREFS
331
36A
102
}
  0
BLOCK_RECORD
  5
371
330
1
100
AcDbSymbolTableRecord
100
AcDbBlockTableRecord
  2
block 101
340
0
102
{BLKREFS
331
372
102
}
  0
BLOCK_RECORD
  5
379
330
1
100
AcDbSymbolTableRecord
100
AcDbBlockTableRecord
  2
block 102
340
0
102
{BLKREFS
331
37A
102
}
  0
BLOCK_RECORD
  5
37E
330
1
100
AcDbSymbolTableRecord
100
AcDbBlockTableRecord
  2
block 103
340
0
102
{BLKREFS
331
37F
102
}
  0
BLOCK_RECORD
  5
386
330
1
100
AcDbSymbolTableRecord
100
AcDbBlockTableRecord
  2
block 104
340
0
102
{BLKREFS
331
387
102
}
  0
BLOCK_RECORD
  5
38E
330
1
100
AcDbSymbolTableRecord
100
AcDbBlockTableRecord
  2
block 105
340
0
102
{BLKREFS
331
38F
102
}
  0
BLOCK_RECORD
  5
393
330
1
100
AcDbSymbolTableRecord
100
AcDbBlockTableRecord
  2
block 106
340
0
102
{BLKREFS
331
394
102
}
  0
BLOCK_RECORD
  5
39B
330
1
100
AcDbSymbolTableRecord
100
AcDbBlockTableRecord
  2
block 107
340
0
102
{BLKREFS
331
39C
102
}
  0
BLOCK_RECORD
  5
3A3
330
1
100
AcDbSymbolTableRecord
100
AcDbBlockTableRecord
  2
block 108
340
0
102
{BLKREFS
331
3A4
102
}
  0
BLOCK_RECORD
  5
3AB
330
1
100
AcDbSymbolTableRecord
100
AcDbBlockTableRecord
  2
block 109
340
0
102
{BLKREFS
331
3AC
102
}
  0
BLOCK_RECORD
  5
3B3
330
1
100
AcDbSymbolTableRecord
100
AcDbBlockTableRecord
  2
block 110
340
0
102
{BLKREFS
331
3B4
102
}
  0
BLOCK_RECORD
  5
3BB
330
1
100
AcDbSymbolTableRecord
100
AcDbBlockTableRecord
  2
block 111
340
0
102
{BLKREFS
331
3BC
102
}
  0
BLOCK_RECORD
  5
3C3
330
1
100
AcDbSymbolTableRecord
100
AcDbBlockTableRecord
  2
block 112
340
0
102
{BLKREFS
331
3C4
102
}
  0
BLOCK_RECORD
  5
3CB
330
1
100
AcDbSymbolTableRecord
100
AcDbBlockTableRecord
  2
block 113
340
0
102
{BLKREFS
331
3CC
102
}
  0
BLOCK_RECORD
  5
3D3
330
1
100
AcDbSymbolTableRecord
100
AcDbBlockTableRecord
  2
block 114
340
0
102
{BLKREFS
331
3D4
102
}
  0
BLOCK_RECORD
  5
3DB
330
1
100
AcDbSymbolTableRecord
100
AcDbBlockTableRecord
  2
block 115
340
0
102
{BLKREFS
331
3DC
102
}
  0
BLOCK_RECORD
  5
3E3
330
1
100
AcDbSymbolTableRecord
100
AcDbBlockTableRecord
  2
block 116
340
0
102
{BLKREFS
331
3E4
102
}
  0
BLOCK_RECORD
  5
3EB
330
1
100
AcDbSymbolTableRecord
100
AcDbBlockTableRecord
  2
block 117
340
0
102
{BLKREFS
331
3EC
102
}
  0
BLOCK_RECORD
  5
3F3
330
1
100
AcDbSymbolTableRecord
100
AcDbBlockTableRecord
  2
block 118
340
0
102
{BLKREFS
331
3F4
102
}
  0
BLOCK_RECORD
  5
3FB
330
1
100
AcDbSymbolTableRecord
100
AcDbBlockTableRecord
  2
block 119
340
0
102
{BLKREFS
331
3FC
102
}
  0
BLOCK_RECORD
  5
403
330
1
100
AcDbSymbolTableRecord
100
AcDbBlockTableRecord
  2
block 120
340
0
102
{BLKREFS
331
404
102
}
  0
BLOCK_RECORD
  5
40B
330
1
100
AcDbSymbolTableRecord
100
AcDbBlockTableRecord
  2
block 121
340
0
102
{BLKREFS
331
40C
102
}
  0
BLOCK_RECORD
  5
413
330
1
100
AcDbSymbolTableRecord
100
AcDbBlockTableRecord
  2
block 122
340
0
102
{BLKREFS
331
414
102
}
  0
BLOCK_RECORD
  5
41B
330
1
100
AcDbSymbolTableRecord
100
AcDbBlockTableRecord
  2
block 123
340
0
102
{BLKREFS
331
41C
102
}
  0
BLOCK_RECORD
  5
420
330
1
100
AcDbSymbolTableRecord
100
AcDbBlockTableRecord
  2
block 124
340
0
102
{BLKREFS
331
421
102
}
  0
BLOCK_RECORD
  5
425
330
1
100
AcDbSymbolTableRecord
100
AcDbBlockTableRecord
  2
block 125
340
0
102
{BLKREFS
331
426
102
}
  0
BLOCK_RECORD
  5
42A
330
1
100
AcDbSymbolTableRecord
100
AcDbBlockTableRecord
  2
block 126
340
0
102
{BLKREFS
331
42B
102
}
  0
BLOCK_RECORD
  5
432
330
1
100
AcDbSymbolTableRecord
100
AcDbBlockTableRecord
  2
block 127
340
0
102
{BLKREFS
331
433
102
}
  0
BLOCK_RECORD
  5
43A
330
1
100
AcDbSymbolTableRecord
100
AcDbBlockTableRecord
  2
block 128
340
0
102
{BLKREFS
331
43B
102
}
  0
BLOCK_RECORD
  5
442
330
1
100
AcDbSymbolTableRecord
100
AcDbBlockTableRecord
  2
block 129
340
0
102
{BLKREFS
331
443
102
}
  0
BLOCK_RECORD
  5
44A
330
1
100
AcDbSymbolTableRecord
100
AcDbBlockTableRecord
  2
block 130
340
0
102
{BLKREFS
331
44B
102
}
  0
BLOCK_RECORD
  5
44F
330
1
100
AcDbSymbolTableRecord
100
AcDbBlockTableRecord
  2
block 131
340
0
102
{BLKREFS
331
450
102
}
  0
BLOCK_RECORD
  5
457
330
1
100
AcDbSymbolTableRecord
100
AcDbBlockTableRecord
  2
block 132
340
0
102
{BLKREFS
331
458
102
}
  0
BLOCK_RECORD
  5
45C
330
1
100
AcDbSymbolTableRecord
100
AcDbBlockTableRecord
  2
block 133
340
0
102
{BLKREFS
331
45D
102
}
  0
BLOCK_RECORD
  5
464
330
1
100
AcDbSymbolTableRecord
100
AcDbBlockTableRecord
  2
block 134
340
0
102
{BLKREFS
331
465
102
}
  0
BLOCK_RECORD
  5
46C
330
1
100
AcDbSymbolTableRecord
100
AcDbBlockTableRecord
  2
block 135
340
0
102
{BLKREFS
331
46D
102
}
  0
BLOCK_RECORD
  5
475
330
1
100
AcDbSymbolTableRecord
100
AcDbBlockTableRecord
  2
block 136
340
0
102
{BLKREFS
331
476
102
}
  0
BLOCK_RECORD
  5
47D
330
1
100
AcDbSymbolTableRecord
100
AcDbBlockTableRecord
  2
block 137
340
0
102
{BLKREFS
331
47E
102
}
  0
BLOCK_RECORD
  5
485
330
1
100
AcDbSymbolTableRecord
100
AcDbBlockTableRecord
  2
block 138
340
0
102
{BLKREFS
331
486
102
}
  0
BLOCK_RECORD
  5
48D
330
1
100
AcDbSymbolTableRecord
100
AcDbBlockTableRecord
  2
block 139
340
0
102
{BLKREFS
331
48E
102
}
  0
BLOCK_RECORD
  5
492
330
1
100
AcDbSymbolTableRecord
100
AcDbBlockTableRecord
  2
block 140
340
0
102
{BLKREFS
331
493
102
}
  0
BLOCK_RECORD
  5
49A
330
1
100
AcDbSymbolTableRecord
100
AcDbBlockTableRecord
  2
block 141
340
0
102
{BLKREFS
331
49B
102
}
  0
BLOCK_RECORD
  5
49F
330
1
100
AcDbSymbolTableRecord
100
AcDbBlockTableRecord
  2
block 142
340
0
102
{BLKREFS
331
4A0
102
}
  0
BLOCK_RECORD
  5
4A4
330
1
100
AcDbSymbolTableRecord
100
AcDbBlockTableRecord
  2
block 143
340
0
102
{BLKREFS
331
4A5
102
}
  0
BLOCK_RECORD
  5
4AC
330
1
100
AcDbSymbolTableRecord
100
AcDbBlockTableRecord
  2
block 144
340
0
102
{BLKREFS
331
4AD
102
}
  0
BLOCK_RECORD
  5
4B4
330
1
100
AcDbSymbolTableRecord
100
AcDbBlockTableRecord
  2
block 145
340
0
102
{BLKREFS
331
4B5
102
}
  0
BLOCK_RECORD
  5
4BC
330
1
100
AcDbSymbolTableRecord
100
AcDbBlockTableRecord
  2
block 146
340
0
102
{BLKREFS
331
4BD
102
}
  0
BLOCK_RECORD
  5
4C1
330
1
100
AcDbSymbolTableRecord
100
AcDbBlockTableRecord
  2
block 147
340
0
102
{BLKREFS
331
4C2
102
}
  0
BLOCK_RECORD
  5
4C6
330
1
100
AcDbSymbolTableRecord
100
AcDbBlockTableRecord
  2
block 148
340
0
102
{BLKREFS
331
4C7
102
}
  0
BLOCK_RECORD
  5
4CE
330
1
100
AcDbSymbolTableRecord
100
AcDbBlockTableRecord
  2
block 149
340
0
102
{BLKREFS
331
4CF
102
}
  0
BLOCK_RECORD
  5
4D6
330
1
100
AcDbSymbolTableRecord
100
AcDbBlockTableRecord
  2
block 150
340
0
102
{BLKREFS
331
4D7
102
}
  0
BLOCK_RECORD
  5
4DB
330
1
100
AcDbSymbolTableRecord
100
AcDbBlockTableRecord
  2
block 151
340
0
102
{BLKREFS
331
4DC
102
}
  0
BLOCK_RECORD
  5
4E0
330
1
100
AcDbSymbolTableRecord
100
AcDbBlockTableRecord
  2
block 152
340
0
102
{BLKREFS
331
4E1
102
}
  0
BLOCK_RECORD
  5
4E8
330
1
100
AcDbSymbolTableRecord
100
AcDbBlockTableRecord
  2
block 153
340
0
102
{BLKREFS
331
4E9
102
}
  0
BLOCK_RECORD
  5
4ED
330
1
100
AcDbSymbolTableRecord
100
AcDbBlockTableRecord
  2
block 154
340
0
102
{BLKREFS
331
4EE
102
}
  0
BLOCK_RECORD
  5
4F2
330
1
100
AcDbSymbolTableRecord
100
AcDbBlockTableRecord
  2
block 155
340
0
102
{BLKREFS
331
4F3
102
}
  0
BLOCK_RECORD
  5
4FB
330
1
100
AcDbSymbolTableRecord
100
AcDbBlockTableRecord
  2
block 156
340
0
102
{BLKREFS
331
4FC
102
}
  0
BLOCK_RECORD
  5
500
330
1
100
AcDbSymbolTableRecord
100
AcDbBlockTableRecord
  2
block 157
340
0
102
{BLKREFS
331
501
102
}
  0
BLOCK_RECORD
  5
505
330
1
100
AcDbSymbolTableRecord
100
AcDbBlockTableRecord
  2
block 158
340
0
102
{BLKREFS
331
506
102
}
  0
BLOCK_RECORD
  5
50A
330
1
100
AcDbSymbolTableRecord
100
AcDbBlockTableRecord
  2
block 159
340
0
102
{BLKREFS
331
50B
102
}
  0
BLOCK_RECORD
  5
512
330
1
100
AcDbSymbolTableRecord
100
AcDbBlockTableRecord
  2
block 160
340
0
102
{BLKREFS
331
513
102
}
  0
BLOCK_RECORD
  5
51A
330
1
100
AcDbSymbolTableRecord
100
AcDbBlockTableRecord
  2
block 161
340
0
102
{BLKREFS
331
51B
102
}
  0
BLOCK_RECORD
  5
51F
330
1
100
AcDbSymbolTableRecord
100
AcDbBlockTableRecord
  2
block 162
340
0
102
{BLKREFS
331
520
102
}
  0
BLOCK_RECORD
  5
524
330
1
100
AcDbSymbolTableRecord
100
AcDbBlockTableRecord
  2
block 163
340
0
102
{BLKREFS
331
525
102
}
  0
BLOCK_RECORD
  5
529
330
1
100
AcDbSymbolTableRecord
100
AcDbBlockTableRecord
  2
block 164
340
0
102
{BLKREFS
331
52A
102
}
  0
BLOCK_RECORD
  5
531
330
1
100
AcDbSymbolTableRecord
100
AcDbBlockTableRecord
  2
block 165
340
0
102
{BLKREFS
331
532
102
}
  0
BLOCK_RECORD
  5
536
330
1
100
AcDbSymbolTableRecord
100
AcDbBlockTableRecord
  2
block 166
340
0
102
{BLKREFS
331
537
102
}
  0
BLOCK_RECORD
  5
53E
330
1
100
AcDbSymbolTableRecord
100
AcDbBlockTableRecord
  2
block 167
340
0
102
{BLKREFS
331
53F
102
}
  0
BLOCK_RECORD
  5
543
330
1
100
AcDbSymbolTableRecord
100
AcDbBlockTableRecord
  2
block 168
340
0
102
{BLKREFS
331
544
102
}
  0
BLOCK_RECORD
  5
548
330
1
100
AcDbSymbolTableRecord
100
AcDbBlockTableRecord
  2
block 169
340
0
102
{BLKREFS
331
549
102
}
  0
BLOCK_RECORD
  5
54D
330
1
100
AcDbSymbolTableRecord
100
AcDbBlockTableRecord
  2
block 170
340
0
102
{BLKREFS
331
54E
102
}
  0
BLOCK_RECORD
  5
552
330
1
100
AcDbSymbolTableRecord
100
AcDbBlockTableRecord
  2
block 171
340
0
102
{BLKREFS
331
553
102
}
  0
BLOCK_RECORD
  5
55A
330
1
100
AcDbSymbolTableRecord
100
AcDbBlockTableRecord
  2
block 172
340
0
102
{BLKREFS
331
55B
102
}
  0
BLOCK_RECORD
  5
562
330
1
100
AcDbSymbolTableRecord
100
AcDbBlockTableRecord
  2
block 173
340
0
102
{BLKREFS
331
563
102
}
  0
BLOCK_RECORD
  5
56A
330
1
100
AcDbSymbolTableRecord
100
AcDbBlockTableRecord
  2
block 174
340
0
102
{BLKREFS
331
56B
102
}
  0
BLOCK_RECORD
  5
572
330
1
100
AcDbSymbolTableRecord
100
AcDbBlockTableRecord
  2
block 175
340
0
102
{BLKREFS
331
573
102
}
  0
BLOCK_RECORD
  5
577
330
1
100
AcDbSymbolTableRecord
100
AcDbBlockTableRecord
  2
block 176
340
0
102
{BLKREFS
331
578
102
}
  0
BLOCK_RECORD
  5
57F
330
1
100
AcDbSymbolTableRecord
100
AcDbBlockTableRecord
  2
block 177
340
0
102
{BLKREFS
331
580
102
}
  0
BLOCK_RECORD
  5
587
330
1
100
AcDbSymbolTableRecord
100
AcDbBlockTableRecord
  2
block 178
340
0
102
{BLKREFS
331
588
102
}
  0
BLOCK_RECORD
  5
58F
330
1
100
AcDbSymbolTableRecord
100
AcDbBlockTableRecord
  2
block 179
340
0
102
{BLKREFS
331
590
102
}
  0
BLOCK_RECORD
  5
598
330
1
100
AcDbSymbolTableRecord
100
AcDbBlockTableRecord
  2
block 180
340
0
102
{BLKREFS
331
599
102
}
  0
BLOCK_RECORD
  5
5A0
330
1
100
AcDbSymbolTableRecord
100
AcDbBlockTableRecord
  2
block 181
340
0
102
{BLKREFS
331
5A1
102
}
  0
BLOCK_RECORD
  5
5A8
330
1
100
AcDbSymbolTableRecord
100
AcDbBlockTableRecord
  2
block 182
340
0
102
{BLKREFS
331
5A9
102
}
  0
BLOCK_RECORD
  5
5B1
330
1
100
AcDbSymbolTableRecord
100
AcDbBlockTableRecord
  2
block 183
340
0
102
{BLKREFS
331
5B2
102
}
  0
BLOCK_RECORD
  5
5BA
330
1
100
AcDbSymbolTableRecord
100
AcDbBlockTableRecord
  2
block 184
340
0
102
{BLKREFS
331
5BB
102
}
  0
BLOCK_RECORD
  5
5C3
330
1
100
AcDbSymbolTableRecord
100
AcDbBlockTableRecord
  2
block 185
340
0
102
{BLKREFS
331
5C4
102
}
  0
BLOCK_RECORD
  5
5CC
330
1
100
AcDbSymbolTableRecord
100
AcDbBlockTableRecord
  2
block 186
340
0
102
{BLKREFS
331
5CD
102
}
  0
BLOCK_RECORD
  5
5D5
330
1
100
AcDbSymbolTableRecord
100
AcDbBlockTableRecord
  2
block 187
340
0
102
{BLKREFS
331
5D6
102
}
  0
BLOCK_RECORD
  5
5DE
330
1
100
AcDbSymbolTableRecord
100
AcDbBlockTableRecord
  2
block 188
340
0
102
{BLKREFS
331
5DF
102
}
  0
BLOCK_RECORD
  5
5E6
330
1
100
AcDbSymbolTableRecord
100
AcDbBlockTableRecord
  2
block 189
340
0
102
{BLKREFS
331
5E7
102
}
  0
BLOCK_RECORD
  5
5EE
330
1
100
AcDbSymbolTableRecord
100
AcDbBlockTableRecord
  2
block 190
340
0
102
{BLKREFS
331
5EF
102
}
  0
BLOCK_RECORD
  5
5F7
330
1
100
AcDbSymbolTableRecord
100
AcDbBlockTableRecord
  2
block 191
340
0
102
{BLKREFS
331
5F8
102
}
  0
ENDTAB
  0
ENDSEC
  0
SECTION
  2
BLOCKS
  0
BLOCK
  5
20
330
1F
100
AcDbEntity
  8
0
100
AcDbBlockBegin
  2
*Model_Space
 70
     0
 71
     0
 10
0.0
 20
0.0
 30
0.0
  3
*Model_Space
  1

  0
ENDBLK
  5
21
330
1F
100
AcDbEntity
  8
0
100
AcDbBlockEnd
  0
BLOCK
  5
1C
330
1B
100
AcDbEntity
 67
     1
  8
0
100
AcDbBlockBegin
  2
*Paper_Space
 70
     0
 71
     0
 10
0.0
 20
0.0
 30
0.0
  3
*Paper_Space
  1

  0
ENDBLK
  5
1D
330
1B
100
AcDbEntity
 67
     1
  8
0
100
AcDbBlockEnd
  0
BLOCK
  5
24
330
23
100
AcDbEntity
  8
0
100
AcDbBlockBegin
  2
*Paper_Space0
 70
     0
 71
     0
 10
0.0
 20
0.0
 30
0.0
  3
*Paper_Space0
  1

  0
ENDBLK
  5
25
330
23
100
AcDbEntity
  8
0
100
AcDbBlockEnd
  0
BLOCK
  5
3E
330
3C
100
AcDbEntity
  8
0
100
AcDbBlockBegin
  2
block 2
 70
     0
 71
     0
 10
0.0
 20
0.0
 30
0.0
  3
block 2
  1

  0
ENDBLK
  5
3F
330
3C
100
AcDbEntity
  8
0
100
AcDbBlockEnd
  0
BLOCK
  5
42
330
40
100
AcDbEntity
  8
0
100
AcDbBlockBegin
  2
block 3
 70
     0
 71
     0
 10
0.0
 20
0.0
 30
0.0
  3
block 3
  1

  0
MTEXT
  5
44
330
40
100
AcDbEntity
  8
cotas
 62
     4
420
    65535
100
AcDbMText
 10
1.308585932384168
 20
10.00756112417017
 30
0.0
 40
0.285637365522025
 41
0.0
 71
     7
 72
     1
  1
\fMyriad Pro|b0|i0|c0|p34;\W1;60
 11
0.7071067657322373
 21
0.7071067966408575
 31
0.0
 73
     1
 44
1.0
  0
ENDBLK
  5
43
330
40
100
AcDbEntity
  8
0
100
AcDbBlockEnd
  0
BLOCK
  5
47
330
45
100
AcDbEntity
  8
0
100
AcDbBlockBegin
  2
block 4
 70
     0
 71
     0
 10
0.0
 20
0.0
 30
0.0
  3
block 4
  1

  0
MTEXT
  5
49
330
45
100
AcDbEntity
  8
cotas
 62
     4
420
    65535
100
AcDbMText
 10
0.9213224934116944
 20
10.68242132397728
 30
0.0
 40
0.285637365522025
 41
0.0
 71
     7
 72
     1
  1
\fMyriad Pro|b0|i0|c0|p34;\W1;110
 11
0.7071067657322373
 21
0.7071067966408575
 31
0.0
 73
     1
 44
1.0
  0
ENDBLK
  5
48
330
45
100
AcDbEntity
  8
0
100
AcDbBlockEnd
  0
BLOCK
  5
4D
330
4B
100
AcDbEntity
  8
0
100
AcDbBlockBegin
  2
block 5
 70
     0
 71
     0
 10
0.0
 20
0.0
 30
0.0
  3
block 5
  1

  0
INSERT
  5
50
330
4B
100
AcDbEntity
  8
LINHAS_COTAGENS
100
AcDbBlockReference
  2
block 6
 10
0.0
 20
0.0
 30
0.0
  0
INSERT
  5
58
330
4B
100
AcDbEntity
  8
LINHAS_COTAGENS
100
AcDbBlockReference
  2
block 7
 10
0.0
 20
0.0
 30
0.0
  0
INSERT
  5
60
330
4B
100
AcDbEntity
  8
LINHAS_COTAGENS
100
AcDbBlockReference
  2
block 8
 10
0.0
 20
0.0
 30
0.0
  0
INSERT
  5
68
330
4B
100
AcDbEntity
  8
LINHAS_COTAGENS
100
AcDbBlockReference
  2
block 9
 10
0.0
 20
0.0
 30
0.0
  0
INSERT
  5
73
330
4B
100
AcDbEntity
  8
LINHAS_COTAGENS
100
AcDbBlockReference
  2
block 10
 10
0.0
 20
0.0
 30
0.0
  0
INSERT
  5
7E
330
4B
100
AcDbEntity
  8
LINHAS_COTAGENS
100
AcDbBlockReference
  2
block 11
 10
0.0
 20
0.0
 30
0.0
  0
INSERT
  5
83
330
4B
100
AcDbEntity
  8
LINHAS_COTAGENS
100
AcDbBlockReference
  2
block 12
 10
0.0
 20
0.0
 30
0.0
  0
INSERT
  5
8B
330
4B
100
AcDbEntity
  8
LINHAS_COTAGENS
100
AcDbBlockReference
  2
block 13
 10
0.0
 20
0.0
 30
0.0
  0
INSERT
  5
93
330
4B
100
AcDbEntity
  8
LINHAS_COTAGENS
100
AcDbBlockReference
  2
block 14
 10
0.0
 20
0.0
 30
0.0
  0
ENDBLK
  5
4E
330
4B
100
AcDbEntity
  8
0
100
AcDbBlockEnd
  0
BLOCK
  5
51
330
4F
100
AcDbEntity
  8
0
100
AcDbBlockBegin
  2
block 6
 70
     0
 71
     0
 10
0.0
 20
0.0
 30
0.0
  3
block 6
  1

  0
POLYLINE
  5
53
330
4F
100
AcDbEntity
  8
LINHAS_COTAGENS
 62
     1
420
 16711680
370
    25
100
AcDb2dPolyline
 66
     1
 10
0.0
 20
0.0
 30
0.0
  0
VERTEX
  5
54
330
53
100
AcDbEntity
  8
LINHAS_COTAGENS
 62
     1
420
 16711680
370
    25
100
AcDbVertex
100
AcDb2dVertex
 10
1.833756634607848
 20
8.972826012566376
 30
0.0
  0
VERTEX
  5
55
330
53
100
AcDbEntity
  8
LINHAS_COTAGENS
 62
     1
420
 16711680
370
    25
100
AcDbVertex
100
AcDb2dVertex
 10
1.833756634607848
 20
4.55727866716446
 30
0.0
  0
SEQEND
  5
56
330
53
100
AcDbEntity
  8
LINHAS_COTAGENS
370
    25
  0
ENDBLK
  5
52
330
4F
100
AcDbEntity
  8
0
100
AcDbBlockEnd
  0
BLOCK
  5
59
330
57
100
AcDbEntity
  8
0
100
AcDbBlockBegin
  2
block 7
 70
     0
 71
     0
 10
0.0
 20
0.0
 30
0.0
  3
block 7
  1

  0
POLYLINE
  5
5B
330
57
100
AcDbEntity
  8
LINHAS_COTAGENS
 62
     1
420
 16711680
370
    25
100
AcDb2dPolyline
 66
     1
 10
0.0
 20
0.0
 30
0.0
  0
VERTEX
  5
5C
330
5B
100
AcDbEntity
  8
LINHAS_COTAGENS
 62
     1
420
 16711680
370
    25
100
AcDbVertex
100
AcDb2dVertex
 10
8.634655216644857
 20
8.972826012566376
 30
0.0
  0
VERTEX
  5
5D
330
5B
100
AcDbEntity
  8
LINHAS_COTAGENS
 62
     1
420
 16711680
370
    25
100
AcDbVertex
100
AcDb2dVertex
 10
8.634655216644857
 20
4.55727866716446
 30
0.0
  0
SEQEND
  5
5E
330
5B
100
AcDbEntity
  8
LINHAS_COTAGENS
370
    25
  0
ENDBLK
  5
5A
330
57
100
AcDbEntity
  8
0
100
AcDbBlockEnd
  0
BLOCK
  5
61
330
5F
100
AcDbEntity
  8
0
100
AcDbBlockBegin
  2
block 8
 70
     0
 71
     0
 10
0.0
 20
0.0
 30
0.0
  3
block 8
  1

  0
POLYLINE
  5
63
330
5F
100
AcDbEntity
  8
LINHAS_COTAGENS
 62
     1
420
 16711680
370
    25
100
AcDb2dPolyline
 66
     1
 10
0.0
 20
0.0
 30
0.0
  0
VERTEX
  5
64
330
63
100
AcDbEntity
  8
LINHAS_COTAGENS
 62
     1
420
 16711680
370
    25
100
AcDbVertex
100
AcDb2dVertex
 10
2.173805008807456
 20
4.72729424151987
 30
0.0
  0
VERTEX
  5
65
330
63
100
AcDbEntity
  8
LINHAS_COTAGENS
 62
     1
420
 16711680
370
    25
100
AcDbVertex
100
AcDb2dVertex
 10
8.29460684244525
 20
4.72729424151987
 30
0.0
  0
SEQEND
  5
66
330
63
100
AcDbEntity
  8
LINHAS_COTAGENS
370
    25
  0
ENDBLK
  5
62
330
5F
100
AcDbEntity
  8
0
100
AcDbBlockEnd
  0
BLOCK
  5
69
330
67
100
AcDbEntity
  8
0
100
AcDbBlockBegin
  2
block 9
 70
     0
 71
     0
 10
0.0
 20
0.0
 30
0.0
  3
block 9
  1

  0
POLYLINE
  5
6B
330
67
100
AcDbEntity
  8
LINHAS_COTAGENS
370
     0
100
AcDb2dPolyline
 66
     1
 10
0.0
 20
0.0
 30
0.0
  0
VERTEX
  5
6C
330
6B
100
AcDbEntity
  8
LINHAS_COTAGENS
370
     0
100
AcDbVertex
100
AcDb2dVertex
 10
2.173805008807456
 20
4.783966099638339
 30
0.0
  0
VERTEX
  5
6D
330
6B
100
AcDbEntity
  8
LINHAS_COTAGENS
370
     0
100
AcDbVertex
100
AcDb2dVertex
 10
2.173805008807456
 20
4.670622383401399
 30
0.0
  0
VERTEX
  5
6E
330
6B
100
AcDbEntity
  8
LINHAS_COTAGENS
370
     0
100
AcDbVertex
100
AcDb2dVertex
 10
1.833756634607848
 20
4.72729424151987
 30
0.0
  0
VERTEX
  5
6F
330
6B
100
AcDbEntity
  8
LINHAS_COTAGENS
370
     0
100
AcDbVertex
100
AcDb2dVertex
 10
2.173805008807456
 20
4.783966099638339
 30
0.0
  0
SEQEND
  5
70
330
6B
100
AcDbEntity
  8
LINHAS_COTAGENS
370
     0
  0
HATCH
  5
71
330
67
100
AcDbEntity
  8
LINHAS_COTAGENS
 62
     1
420
 16711680
100
AcDbHatch
 10
0.0
 20
0.0
 30
0.0
210
0.0
220
0.0
230
1.0
  2
SOLID
 70
     1
 71
     0
 91
        1
 92
        1
 93
        3
 72
     1
 10
2.173805008807456
 20
4.783966099638339
 11
2.173805008807456
 21
4.670622383401399
 72
     1
 10
2.173805008807456
 20
4.670622383401399
 11
1.833756634607848
 21
4.72729424151987
 72
     1
 10
1.833756634607848
 20
4.72729424151987
 11
2.173805008807456
 21
4.783966099638339
 97
        0
 75
     2
 76
     1
 98
        0
  0
ENDBLK
  5
6A
330
67
100
AcDbEntity
  8
0
100
AcDbBlockEnd
  0
BLOCK
  5
74
330
72
100
AcDbEntity
  8
0
100
AcDbBlockBegin
  2
block 10
 70
     0
 71
     0
 10
0.0
 20
0.0
 30
0.0
  3
block 10
  1

  0
POLYLINE
  5
76
330
72
100
AcDbEntity
  8
LINHAS_COTAGENS
370
     0
100
AcDb2dPolyline
 66
     1
 10
0.0
 20
0.0
 30
0.0
  0
VERTEX
  5
77
330
76
100
AcDbEntity
  8
LINHAS_COTAGENS
370
     0
100
AcDbVertex
100
AcDb2dVertex
 10
8.29460684244525
 20
4.783966099638339
 30
0.0
  0
VERTEX
  5
78
330
76
100
AcDbEntity
  8
LINHAS_COTAGENS
370
     0
100
AcDbVertex
100
AcDb2dVertex
 10
8.29460684244525
 20
4.670622383401399
 30
0.0
  0
VERTEX
  5
79
330
76
100
AcDbEntity
  8
LINHAS_COTAGENS
370
     0
100
AcDbVertex
100
AcDb2dVertex
 10
8.634655216644857
 20
4.72729424151987
 30
0.0
  0
VERTEX
  5
7A
330
76
100
AcDbEntity
  8
LINHAS_COTAGENS
370
     0
100
AcDbVertex
100
AcDb2dVertex
 10
8.29460684244525
 20
4.783966099638339
 30
0.0
  0
SEQEND
  5
7B
330
76
100
AcDbEntity
  8
LINHAS_COTAGENS
370
     0
  0
HATCH
  5
7C
330
72
100
AcDbEntity
  8
LINHAS_COTAGENS
 62
     1
420
 16711680
100
AcDbHatch
 10
0.0
 20
0.0
 30
0.0
210
0.0
220
0.0
230
1.0
  2
SOLID
 70
     1
 71
     0
 91
        1
 92
        1
 93
        3
 72
     1
 10
8.29460684244525
 20
4.783966099638339
 11
8.29460684244525
 21
4.670622383401399
 72
     1
 10
8.29460684244525
 20
4.670622383401399
 11
8.634655216644857
 21
4.72729424151987
 72
     1
 10
8.634655216644857
 20
4.72729424151987
 11
8.29460684244525
 21
4.783966099638339
 97
        0
 75
     2
 76
     1
 98
        0
  0
ENDBLK
  5
75
330
72
100
AcDbEntity
  8
0
100
AcDbBlockEnd
  0
BLOCK
  5
7F
330
7D
100
AcDbEntity
  8
0
100
AcDbBlockBegin
  2
block 11
 70
     0
 71
     0
 10
0.0
 20
0.0
 30
0.0
  3
block 11
  1

  0
MTEXT
  5
81
330
7D
100
AcDbEntity
  8
LINHAS_COTAGENS
 62
     4
420
    65535
100
AcDbMText
 10
4.748429916264964
 20
4.812319254186364
 30
0.0
 40
0.3400444675125806
 41
0.0
 71
     7
 72
     1
  1
\fMyriad Pro|b0|i0|c0|p34;\W1;505
 73
     1
 44
1.0
  0
ENDBLK
  5
80
330
7D
100
AcDbEntity
  8
0
100
AcDbBlockEnd
  0
BLOCK
  5
84
330
82
100
AcDbEntity
  8
0
100
AcDbBlockBegin
  2
block 12
 70
     0
 71
     0
 10
0.0
 20
0.0
 30
0.0
  3
block 12
  1

  0
POLYLINE
  5
86
330
82
100
AcDbEntity
  8
LINHAS_COTAGENS
370
     0
100
AcDb2dPolyline
 66
     1
 10
0.0
 20
0.0
 30
0.0
  0
VERTEX
  5
87
330
86
100
AcDbEntity
  8
LINHAS_COTAGENS
370
     0
100
AcDbVertex
100
AcDb2dVertex
 10
1.833756634607848
 20
9.312857161277195
 30
0.0
  0
VERTEX
  5
88
330
86
100
AcDbEntity
  8
LINHAS_COTAGENS
370
     0
100
AcDbVertex
100
AcDb2dVertex
 10
1.833756634607848
 20
9.312857161277195
 30
0.0
  0
SEQEND
  5
89
330
86
100
AcDbEntity
  8
LINHAS_COTAGENS
370
     0
  0
ENDBLK
  5
85
330
82
100
AcDbEntity
  8
0
100
AcDbBlockEnd
  0
BLOCK
  5
8C
330
8A
100
AcDbEntity
  8
0
100
AcDbBlockBegin
  2
block 13
 70
     0
 71
     0
 10
0.0
 20
0.0
 30
0.0
  3
block 13
  1

  0
POLYLINE
  5
8E
330
8A
100
AcDbEntity
  8
LINHAS_COTAGENS
370
     0
100
AcDb2dPolyline
 66
     1
 10
0.0
 20
0.0
 30
0.0
  0
VERTEX
  5
8F
330
8E
100
AcDbEntity
  8
LINHAS_COTAGENS
370
     0
100
AcDbVertex
100
AcDb2dVertex
 10
8.634655216644857
 20
9.312857161277195
 30
0.0
  0
VERTEX
  5
90
330
8E
100
AcDbEntity
  8
LINHAS_COTAGENS
370
     0
100
AcDbVertex
100
AcDb2dVertex
 10
8.634655216644857
 20
9.312857161277195
 30
0.0
  0
SEQEND
  5
91
330
8E
100
AcDbEntity
  8
LINHAS_COTAGENS
370
     0
  0
ENDBLK
  5
8D
330
8A
100
AcDbEntity
  8
0
100
AcDbBlockEnd
  0
BLOCK
  5
94
330
92
100
AcDbEntity
  8
0
100
AcDbBlockBegin
  2
block 14
 70
     0
 71
     0
 10
0.0
 20
0.0
 30
0.0
  3
block 14
  1

  0
POLYLINE
  5
96
330
92
100
AcDbEntity
  8
LINHAS_COTAGENS
370
     0
100
AcDb2dPolyline
 66
     1
 10
0.0
 20
0.0
 30
0.0
  0
VERTEX
  5
97
330
96
100
AcDbEntity
  8
LINHAS_COTAGENS
370
     0
100
AcDbVertex
100
AcDb2dVertex
 10
8.634655216644857
 20
4.72729424151987
 30
0.0
  0
VERTEX
  5
98
330
96
100
AcDbEntity
  8
LINHAS_COTAGENS
370
     0
100
AcDbVertex
100
AcDb2dVertex
 10
8.634655216644857
 20
4.72729424151987
 30
0.0
  0
SEQEND
  5
99
330
96
100
AcDbEntity
  8
LINHAS_COTAGENS
370
     0
  0
ENDBLK
  5
95
330
92
100
AcDbEntity
  8
0
100
AcDbBlockEnd
  0
BLOCK
  5
9C
330
9A
100
AcDbEntity
  8
0
100
AcDbBlockBegin
  2
block 15
 70
     0
 71
     0
 10
0.0
 20
0.0
 30
0.0
  3
block 15
  1

  0
INSERT
  5
9F
330
9A
100
AcDbEntity
  8
LINHAS_COTAGENS
100
AcDbBlockReference
  2
block 16
 10
0.0
 20
0.0
 30
0.0
  0
INSERT
  5
A7
330
9A
100
AcDbEntity
  8
LINHAS_COTAGENS
100
AcDbBlockReference
  2
block 17
 10
0.0
 20
0.0
 30
0.0
  0
INSERT
  5
AF
330
9A
100
AcDbEntity
  8
LINHAS_COTAGENS
100
AcDbBlockReference
  2
block 18
 10
0.0
 20
0.0
 30
0.0
  0
INSERT
  5
B7
330
9A
100
AcDbEntity
  8
LINHAS_COTAGENS
100
AcDbBlockReference
  2
block 19
 10
0.0
 20
0.0
 30
0.0
  0
INSERT
  5
C2
330
9A
100
AcDbEntity
  8
LINHAS_COTAGENS
100
AcDbBlockReference
  2
block 20
 10
0.0
 20
0.0
 30
0.0
  0
INSERT
  5
CD
330
9A
100
AcDbEntity
  8
LINHAS_COTAGENS
100
AcDbBlockReference
  2
block 21
 10
0.0
 20
0.0
 30
0.0
  0
INSERT
  5
D2
330
9A
100
AcDbEntity
  8
LINHAS_COTAGENS
100
AcDbBlockReference
  2
block 22
 10
0.0
 20
0.0
 30
0.0
  0
INSERT
  5
DA
330
9A
100
AcDbEntity
  8
LINHAS_COTAGENS
100
AcDbBlockReference
  2
block 23
 10
0.0
 20
0.0
 30
0.0
  0
INSERT
  5
E2
330
9A
100
AcDbEntity
  8
LINHAS_COTAGENS
100
AcDbBlockReference
  2
block 24
 10
0.0
 20
0.0
 30
0.0
  0
ENDBLK
  5
9D
330
9A
100
AcDbEntity
  8
0
100
AcDbBlockEnd
  0
BLOCK
  5
A0
330
9E
100
AcDbEntity
  8
0
100
AcDbBlockBegin
  2
block 16
 70
     0
 71
     0
 10
0.0
 20
0.0
 30
0.0
  3
block 16
  1

  0
POLYLINE
  5
A2
330
9E
100
AcDbEntity
  8
LINHAS_COTAGENS
 62
     1
420
 16711680
370
    25
100
AcDb2dPolyline
 66
     1
 10
0.0
 20
0.0
 30
0.0
  0
VERTEX
  5
A3
330
A2
100
AcDbEntity
  8
LINHAS_COTAGENS
 62
     1
420
 16711680
370
    25
100
AcDbVertex
100
AcDb2dVertex
 10
1.593306036590912
 20
9.553324984782922
 30
0.0
  0
VERTEX
  5
A4
330
A2
100
AcDbEntity
  8
LINHAS_COTAGENS
 62
     1
420
 16711680
370
    25
100
AcDbVertex
100
AcDb2dVertex
 10
-0.0017225488789808
 20
11.14833634476402
 30
0.0
  0
SEQEND
  5
A5
330
A2
100
AcDbEntity
  8
LINHAS_COTAGENS
370
    25
  0
ENDBLK
  5
A1
330
9E
100
AcDbEntity
  8
0
100
AcDbBlockEnd
  0
BLOCK
  5
A8
330
A6
100
AcDbEntity
  8
0
100
AcDbBlockBegin
  2
block 17
 70
     0
 71
     0
 10
0.0
 20
0.0
 30
0.0
  3
block 17
  1

  0
POLYLINE
  5
AA
330
A6
100
AcDbEntity
  8
LINHAS_COTAGENS
 62
     1
420
 16711680
370
    25
100
AcDb2dPolyline
 66
     1
 10
0.0
 20
0.0
 30
0.0
  0
VERTEX
  5
AB
330
AA
100
AcDbEntity
  8
LINHAS_COTAGENS
 62
     1
420
 16711680
370
    25
100
AcDbVertex
100
AcDb2dVertex
 10
4.190151824587272
 20
12.1501363218017
 30
0.0
  0
VERTEX
  5
AC
330
AA
100
AcDbEntity
  8
LINHAS_COTAGENS
 62
     1
420
 16711680
370
    25
100
AcDbVertex
100
AcDb2dVertex
 10
2.595106013628591
 20
13.74518213276039
 30
0.0
  0
SEQEND
  5
AD
330
AA
100
AcDbEntity
  8
LINHAS_COTAGENS
370
    25
  0
ENDBLK
  5
A9
330
A6
100
AcDbEntity
  8
0
100
AcDbBlockEnd
  0
BLOCK
  5
B0
330
AE
100
AcDbEntity
  8
0
100
AcDbBlockBegin
  2
block 18
 70
     0
 71
     0
 10
0.0
 20
0.0
 30
0.0
  3
block 18
  1

  0
POLYLINE
  5
B2
330
AE
100
AcDbEntity
  8
LINHAS_COTAGENS
 62
     1
420
 16711680
370
    25
100
AcDb2dPolyline
 66
     1
 10
0.0
 20
0.0
 30
0.0
  0
VERTEX
  5
B3
330
B2
100
AcDbEntity
  8
LINHAS_COTAGENS
 62
     1
420
 16711680
370
    25
100
AcDbVertex
100
AcDb2dVertex
 10
0.3589447354020283
 20
11.26857025651689
 30
0.0
  0
VERTEX
  5
B4
330
B2
100
AcDbEntity
  8
LINHAS_COTAGENS
 62
     1
420
 16711680
370
    25
100
AcDbVertex
100
AcDb2dVertex
 10
2.474889327364518
 20
13.38451484847938
 30
0.0
  0
SEQEND
  5
B5
330
B2
100
AcDbEntity
  8
LINHAS_COTAGENS
370
    25
  0
ENDBLK
  5
B1
330
AE
100
AcDbEntity
  8
0
100
AcDbBlockEnd
  0
BLOCK
  5
B8
330
B6
100
AcDbEntity
  8
0
100
AcDbBlockBegin
  2
block 19
 70
     0
 71
     0
 10
0.0
 20
0.0
 30
0.0
  3
block 19
  1

  0
POLYLINE
  5
BA
330
B6
100
AcDbEntity
  8
LINHAS_COTAGENS
370
     0
100
AcDb2dPolyline
 66
     1
 10
0.0
 20
0.0
 30
0.0
  0
VERTEX
  5
BB
330
BA
100
AcDbEntity
  8
LINHAS_COTAGENS
370
     0
100
AcDbVertex
100
AcDb2dVertex
 10
0.3188610229881441
 20
11.30863674344198
 30
0.0
  0
VERTEX
  5
BC
330
BA
100
AcDbEntity
  8
LINHAS_COTAGENS
370
     0
100
AcDbVertex
100
AcDb2dVertex
 10
0.3990112223271227
 20
11.22850376959179
 30
0.0
  0
VERTEX
  5
BD
330
BA
100
AcDbEntity
  8
LINHAS_COTAGENS
370
     0
100
AcDbVertex
100
AcDb2dVertex
 10
0.1184941373850923
 20
11.02813688398874
 30
0.0
  0
VERTEX
  5
BE
330
BA
100
AcDbEntity
  8
LINHAS_COTAGENS
370
     0
100
AcDbVertex
100
AcDb2dVertex
 10
0.3188610229881441
 20
11.30863674344198
 30
0.0
  0
SEQEND
  5
BF
330
BA
100
AcDbEntity
  8
LINHAS_COTAGENS
370
     0
  0
HATCH
  5
C0
330
B6
100
AcDbEntity
  8
LINHAS_COTAGENS
 62
     1
420
 16711680
100
AcDbHatch
 10
0.0
 20
0.0
 30
0.0
210
0.0
220
0.0
230
1.0
  2
SOLID
 70
     1
 71
     0
 91
        1
 92
        1
 93
        3
 72
     1
 10
0.3188610229881441
 20
11.30863674344198
 11
0.3990112223271227
 21
11.22850376959179
 72
     1
 10
0.3990112223271227
 20
11.22850376959179
 11
0.1184941373850923
 21
11.02813688398874
 72
     1
 10
0.1184941373850923
 20
11.02813688398874
 11
0.3188610229881441
 21
11.30863674344198
 97
        0
 75
     2
 76
     1
 98
        0
  0
ENDBLK
  5
B9
330
B6
100
AcDbEntity
  8
0
100
AcDbBlockEnd
  0
BLOCK
  5
C3
330
C1
100
AcDbEntity
  8
0
100
AcDbBlockBegin
  2
block 20
 70
     0
 71
     0
 10
0.0
 20
0.0
 30
0.0
  3
block 20
  1

  0
POLYLINE
  5
C5
330
C1
100
AcDbEntity
  8
LINHAS_COTAGENS
370
     0
100
AcDb2dPolyline
 66
     1
 10
0.0
 20
0.0
 30
0.0
  0
VERTEX
  5
C6
330
C5
100
AcDbEntity
  8
LINHAS_COTAGENS
370
     0
100
AcDbVertex
100
AcDb2dVertex
 10
2.434805614950633
 20
13.42458133540447
 30
0.0
  0
VERTEX
  5
C7
330
C5
100
AcDbEntity
  8
LINHAS_COTAGENS
370
     0
100
AcDbVertex
100
AcDb2dVertex
 10
2.514955814289612
 20
13.34444836155428
 30
0.0
  0
VERTEX
  5
C8
330
C5
100
AcDbEntity
  8
LINHAS_COTAGENS
370
     0
100
AcDbVertex
100
AcDb2dVertex
 10
2.715322699892664
 20
13.62494822100752
 30
0.0
  0
VERTEX
  5
C9
330
C5
100
AcDbEntity
  8
LINHAS_COTAGENS
370
     0
100
AcDbVertex
100
AcDb2dVertex
 10
2.434805614950633
 20
13.42458133540447
 30
0.0
  0
SEQEND
  5
CA
330
C5
100
AcDbEntity
  8
LINHAS_COTAGENS
370
     0
  0
HATCH
  5
CB
330
C1
100
AcDbEntity
  8
LINHAS_COTAGENS
 62
     1
420
 16711680
100
AcDbHatch
 10
0.0
 20
0.0
 30
0.0
210
0.0
220
0.0
230
1.0
  2
SOLID
 70
     1
 71
     0
 91
        1
 92
        1
 93
        3
 72
     1
 10
2.434805614950633
 20
13.42458133540447
 11
2.514955814289612
 21
13.34444836155428
 72
     1
 10
2.514955814289612
 20
13.34444836155428
 11
2.715322699892664
 21
13.62494822100752
 72
     1
 10
2.715322699892664
 20
13.62494822100752
 11
2.434805614950633
 21
13.42458133540447
 97
        0
 75
     2
 76
     1
 98
        0
  0
ENDBLK
  5
C4
330
C1
100
AcDbEntity
  8
0
100
AcDbBlockEnd
  0
BLOCK
  5
CE
330
CC
100
AcDbEntity
  8
0
100
AcDbBlockBegin
  2
block 21
 70
     0
 71
     0
 10
0.0
 20
0.0
 30
0.0
  3
block 21
  1

  0
MTEXT
  5
D0
330
CC
100
AcDbEntity
  8
LINHAS_COTAGENS
 62
     4
420
    65535
100
AcDbMText
 10
1.013306603549271
 20
12.04316603641699
 30
0.0
 40
0.3400444675125806
 41
0.0
 71
     7
 72
     1
  1
\fMyriad Pro|b0|i0|c0|p34;\W1;270
 11
0.7071067657322373
 21
0.7071067966408575
 31
0.0
 73
     1
 44
1.0
  0
ENDBLK
  5
CF
330
CC
100
AcDbEntity
  8
0
100
AcDbBlockEnd
  0
BLOCK
  5
D3
330
D1
100
AcDbEntity
  8
0
100
AcDbBlockBegin
  2
block 22
 70
     0
 71
     0
 10
0.0
 20
0.0
 30
0.0
  3
block 22
  1

  0
POLYLINE
  5
D5
330
D1
100
AcDbEntity
  8
LINHAS_COTAGENS
370
     0
100
AcDb2dPolyline
 66
     1
 10
0.0
 20
0.0
 30
0.0
  0
VERTEX
  5
D6
330
D5
100
AcDbEntity
  8
LINHAS_COTAGENS
370
     0
100
AcDbVertex
100
AcDb2dVertex
 10
1.833756634607848
 20
9.312857161277195
 30
0.0
  0
VERTEX
  5
D7
330
D5
100
AcDbEntity
  8
LINHAS_COTAGENS
370
     0
100
AcDbVertex
100
AcDb2dVertex
 10
1.833756634607848
 20
9.312857161277195
 30
0.0
  0
SEQEND
  5
D8
330
D5
100
AcDbEntity
  8
LINHAS_COTAGENS
370
     0
  0
ENDBLK
  5
D4
330
D1
100
AcDbEntity
  8
0
100
AcDbBlockEnd
  0
BLOCK
  5
DB
330
D9
100
AcDbEntity
  8
0
100
AcDbBlockBegin
  2
block 23
 70
     0
 71
     0
 10
0.0
 20
0.0
 30
0.0
  3
block 23
  1

  0
POLYLINE
  5
DD
330
D9
100
AcDbEntity
  8
LINHAS_COTAGENS
370
     0
100
AcDb2dPolyline
 66
     1
 10
0.0
 20
0.0
 30
0.0
  0
VERTEX
  5
DE
330
DD
100
AcDbEntity
  8
LINHAS_COTAGENS
370
     0
100
AcDbVertex
100
AcDb2dVertex
 10
4.430585197115419
 20
11.90970294927356
 30
0.0
  0
VERTEX
  5
DF
330
DD
100
AcDbEntity
  8
LINHAS_COTAGENS
370
     0
100
AcDbVertex
100
AcDb2dVertex
 10
4.430585197115419
 20
11.90970294927356
 30
0.0
  0
SEQEND
  5
E0
330
DD
100
AcDbEntity
  8
LINHAS_COTAGENS
370
     0
  0
ENDBLK
  5
DC
330
D9
100
AcDbEntity
  8
0
100
AcDbBlockEnd
  0
BLOCK
  5
E3
330
E1
100
AcDbEntity
  8
0
100
AcDbBlockBegin
  2
block 24
 70
     0
 71
     0
 10
0.0
 20
0.0
 30
0.0
  3
block 24
  1

  0
POLYLINE
  5
E5
330
E1
100
AcDbEntity
  8
LINHAS_COTAGENS
370
     0
100
AcDb2dPolyline
 66
     1
 10
0.0
 20
0.0
 30
0.0
  0
VERTEX
  5
E6
330
E5
100
AcDbEntity
  8
LINHAS_COTAGENS
370
     0
100
AcDbVertex
100
AcDb2dVertex
 10
2.715322699892664
 20
13.62494822100752
 30
0.0
  0
VERTEX
  5
E7
330
E5
100
AcDbEntity
  8
LINHAS_COTAGENS
370
     0
100
AcDbVertex
100
AcDb2dVertex
 10
2.715322699892664
 20
13.62494822100752
 30
0.0
  0
SEQEND
  5
E8
330
E5
100
AcDbEntity
  8
LINHAS_COTAGENS
370
     0
  0
ENDBLK
  5
E4
330
E1
100
AcDbEntity
  8
0
100
AcDbBlockEnd
  0
BLOCK
  5
EB
330
E9
100
AcDbEntity
  8
0
100
AcDbBlockBegin
  2
block 25
 70
     0
 71
     0
 10
0.0
 20
0.0
 30
0.0
  3
block 25
  1

  0
INSERT
  5
EE
330
E9
100
AcDbEntity
  8
LINHAS_COTAGENS
100
AcDbBlockReference
  2
block 26
 10
0.0
 20
0.0
 30
0.0
  0
INSERT
  5
F6
330
E9
100
AcDbEntity
  8
LINHAS_COTAGENS
100
AcDbBlockReference
  2
block 27
 10
0.0
 20
0.0
 30
0.0
  0
INSERT
  5
FE
330
E9
100
AcDbEntity
  8
LINHAS_COTAGENS
100
AcDbBlockReference
  2
block 28
 10
0.0
 20
0.0
 30
0.0
  0
INSERT
  5
106
330
E9
100
AcDbEntity
  8
LINHAS_COTAGENS
100
AcDbBlockReference
  2
block 29
 10
0.0
 20
0.0
 30
0.0
  0
INSERT
  5
111
330
E9
100
AcDbEntity
  8
LINHAS_COTAGENS
100
AcDbBlockReference
  2
block 30
 10
0.0
 20
0.0
 30
0.0
  0
INSERT
  5
11C
330
E9
100
AcDbEntity
  8
LINHAS_COTAGENS
100
AcDbBlockReference
  2
block 31
 10
0.0
 20
0.0
 30
0.0
  0
INSERT
  5
121
330
E9
100
AcDbEntity
  8
LINHAS_COTAGENS
100
AcDbBlockReference
  2
block 32
 10
0.0
 20
0.0
 30
0.0
  0
INSERT
  5
129
330
E9
100
AcDbEntity
  8
LINHAS_COTAGENS
100
AcDbBlockReference
  2
block 33
 10
0.0
 20
0.0
 30
0.0
  0
INSERT
  5
131
330
E9
100
AcDbEntity
  8
LINHAS_COTAGENS
100
AcDbBlockReference
  2
block 34
 10
0.0
 20
0.0
 30
0.0
  0
ENDBLK
  5
EC
330
E9
100
AcDbEntity
  8
0
100
AcDbBlockEnd
  0
BLOCK
  5
EF
330
ED
100
AcDbEntity
  8
0
100
AcDbBlockBegin
  2
block 26
 70
     0
 71
     0
 10
0.0
 20
0.0
 30
0.0
  3
block 26
  1

  0
POLYLINE
  5
F1
330
ED
100
AcDbEntity
  8
LINHAS_COTAGENS
 62
     1
420
 16711680
370
    25
100
AcDb2dPolyline
 66
     1
 10
0.0
 20
0.0
 30
0.0
  0
VERTEX
  5
F2
330
F1
100
AcDbEntity
  8
LINHAS_COTAGENS
 62
     1
420
 16711680
370
    25
100
AcDbVertex
100
AcDb2dVertex
 10
5.977899178637542
 20
20.64855514760796
 30
0.0
  0
VERTEX
  5
F3
330
F1
100
AcDbEntity
  8
LINHAS_COTAGENS
 62
     1
420
 16711680
370
    25
100
AcDbVertex
100
AcDb2dVertex
 10
5.977899178637542
 20
19.78872764917589
 30
0.0
  0
SEQEND
  5
F4
330
F1
100
AcDbEntity
  8
LINHAS_COTAGENS
370
    25
  0
ENDBLK
  5
F0
330
ED
100
AcDbEntity
  8
0
100
AcDbBlockEnd
  0
BLOCK
  5
F7
330
F5
100
AcDbEntity
  8
0
100
AcDbBlockBegin
  2
block 27
 70
     0
 71
     0
 10
0.0
 20
0.0
 30
0.0
  3
block 27
  1

  0
POLYLINE
  5
F9
330
F5
100
AcDbEntity
  8
LINHAS_COTAGENS
 62
     1
420
 16711680
370
    25
100
AcDb2dPolyline
 66
     1
 10
0.0
 20
0.0
 30
0.0
  0
VERTEX
  5
FA
330
F9
100
AcDbEntity
  8
LINHAS_COTAGENS
 62
     1
420
 16711680
370
    25
100
AcDbVertex
100
AcDb2dVertex
 10
1.866640092707592
 20
22.8622888394302
 30
0.0
  0
VERTEX
  5
FB
330
F9
100
AcDbEntity
  8
LINHAS_COTAGENS
 62
     1
420
 16711680
370
    25
100
AcDbVertex
100
AcDb2dVertex
 10
1.866640092707592
 20
19.78872764917589
 30
0.0
  0
SEQEND
  5
FC
330
F9
100
AcDbEntity
  8
LINHAS_COTAGENS
370
    25
  0
ENDBLK
  5
F8
330
F5
100
AcDbEntity
  8
0
100
AcDbBlockEnd
  0
BLOCK
  5
FF
330
FD
100
AcDbEntity
  8
0
100
AcDbBlockBegin
  2
block 28
 70
     0
 71
     0
 10
0.0
 20
0.0
 30
0.0
  3
block 28
  1

  0
POLYLINE
  5
101
330
FD
100
AcDbEntity
  8
LINHAS_COTAGENS
 62
     1
420
 16711680
370
    25
100
AcDb2dPolyline
 66
     1
 10
0.0
 20
0.0
 30
0.0
  0
VERTEX
  5
102
330
101
100
AcDbEntity
  8
LINHAS_COTAGENS
 62
     1
420
 16711680
370
    25
100
AcDbVertex
100
AcDb2dVertex
 10
5.637850804437933
 20
19.9587432235313
 30
0.0
  0
VERTEX
  5
103
330
101
100
AcDbEntity
  8
LINHAS_COTAGENS
 62
     1
420
 16711680
370
    25
100
AcDbVertex
100
AcDb2dVertex
 10
2.2066884669072
 20
19.9587432235313
 30
0.0
  0
SEQEND
  5
104
330
101
100
AcDbEntity
  8
LINHAS_COTAGENS
370
    25
  0
ENDBLK
  5
100
330
FD
100
AcDbEntity
  8
0
100
AcDbBlockEnd
  0
BLOCK
  5
107
330
105
100
AcDbEntity
  8
0
100
AcDbBlockBegin
  2
block 29
 70
     0
 71
     0
 10
0.0
 20
0.0
 30
0.0
  3
block 29
  1

  0
POLYLINE
  5
109
330
105
100
AcDbEntity
  8
LINHAS_COTAGENS
370
     0
100
AcDb2dPolyline
 66
     1
 10
0.0
 20
0.0
 30
0.0
  0
VERTEX
  5
10A
330
109
100
AcDbEntity
  8
LINHAS_COTAGENS
370
     0
100
AcDbVertex
100
AcDb2dVertex
 10
5.637850804437933
 20
20.01541508164977
 30
0.0
  0
VERTEX
  5
10B
330
109
100
AcDbEntity
  8
LINHAS_COTAGENS
370
     0
100
AcDbVertex
100
AcDb2dVertex
 10
5.637850804437933
 20
19.90207136541283
 30
0.0
  0
VERTEX
  5
10C
330
109
100
AcDbEntity
  8
LINHAS_COTAGENS
370
     0
100
AcDbVertex
100
AcDb2dVertex
 10
5.977899178637542
 20
19.9587432235313
 30
0.0
  0
VERTEX
  5
10D
330
109
100
AcDbEntity
  8
LINHAS_COTAGENS
370
     0
100
AcDbVertex
100
AcDb2dVertex
 10
5.637850804437933
 20
20.01541508164977
 30
0.0
  0
SEQEND
  5
10E
330
109
100
AcDbEntity
  8
LINHAS_COTAGENS
370
     0
  0
HATCH
  5
10F
330
105
100
AcDbEntity
  8
LINHAS_COTAGENS
 62
     1
420
 16711680
100
AcDbHatch
 10
0.0
 20
0.0
 30
0.0
210
0.0
220
0.0
230
1.0
  2
SOLID
 70
     1
 71
     0
 91
        1
 92
        1
 93
        3
 72
     1
 10
5.637850804437933
 20
20.01541508164977
 11
5.637850804437933
 21
19.90207136541283
 72
     1
 10
5.637850804437933
 20
19.90207136541283
 11
5.977899178637542
 21
19.9587432235313
 72
     1
 10
5.977899178637542
 20
19.9587432235313
 11
5.637850804437933
 21
20.01541508164977
 97
        0
 75
     2
 76
     1
 98
        0
  0
ENDBLK
  5
108
330
105
100
AcDbEntity
  8
0
100
AcDbBlockEnd
  0
BLOCK
  5
112
330
110
100
AcDbEntity
  8
0
100
AcDbBlockBegin
  2
block 30
 70
     0
 71
     0
 10
0.0
 20
0.0
 30
0.0
  3
block 30
  1

  0
POLYLINE
  5
114
330
110
100
AcDbEntity
  8
LINHAS_COTAGENS
370
     0
100
AcDb2dPolyline
 66
     1
 10
0.0
 20
0.0
 30
0.0
  0
VERTEX
  5
115
330
114
100
AcDbEntity
  8
LINHAS_COTAGENS
370
     0
100
AcDbVertex
100
AcDb2dVertex
 10
2.2066884669072
 20
20.01541508164977
 30
0.0
  0
VERTEX
  5
116
330
114
100
AcDbEntity
  8
LINHAS_COTAGENS
370
     0
100
AcDbVertex
100
AcDb2dVertex
 10
2.2066884669072
 20
19.90207136541283
 30
0.0
  0
VERTEX
  5
117
330
114
100
AcDbEntity
  8
LINHAS_COTAGENS
370
     0
100
AcDbVertex
100
AcDb2dVertex
 10
1.866640092707592
 20
19.9587432235313
 30
0.0
  0
VERTEX
  5
118
330
114
100
AcDbEntity
  8
LINHAS_COTAGENS
370
     0
100
AcDbVertex
100
AcDb2dVertex
 10
2.2066884669072
 20
20.01541508164977
 30
0.0
  0
SEQEND
  5
119
330
114
100
AcDbEntity
  8
LINHAS_COTAGENS
370
     0
  0
HATCH
  5
11A
330
110
100
AcDbEntity
  8
LINHAS_COTAGENS
 62
     1
420
 16711680
100
AcDbHatch
 10
0.0
 20
0.0
 30
0.0
210
0.0
220
0.0
230
1.0
  2
SOLID
 70
     1
 71
     0
 91
        1
 92
        1
 93
        3
 72
     1
 10
2.2066884669072
 20
20.01541508164977
 11
2.2066884669072
 21
19.90207136541283
 72
     1
 10
2.2066884669072
 20
19.90207136541283
 11
1.866640092707592
 21
19.9587432235313
 72
     1
 10
1.866640092707592
 20
19.9587432235313
 11
2.2066884669072
 21
20.01541508164977
 97
        0
 75
     2
 76
     1
 98
        0
  0
ENDBLK
  5
113
330
110
100
AcDbEntity
  8
0
100
AcDbBlockEnd
  0
BLOCK
  5
11D
330
11B
100
AcDbEntity
  8
0
100
AcDbBlockBegin
  2
block 31
 70
     0
 71
     0
 10
0.0
 20
0.0
 30
0.0
  3
block 31
  1

  0
MTEXT
  5
11F
330
11B
100
AcDbEntity
  8
LINHAS_COTAGENS
 62
     4
420
    65535
100
AcDbMText
 10
3.436502239055574
 20
20.043751010709
 30
0.0
 40
0.3400444675125806
 41
0.0
 71
     7
 72
     1
  1
\fMyriad Pro|b0|i0|c0|p34;\W1;310
 73
     1
 44
1.0
  0
ENDBLK
  5
11E
330
11B
100
AcDbEntity
  8
0
100
AcDbBlockEnd
  0
BLOCK
  5
122
330
120
100
AcDbEntity
  8
0
100
AcDbBlockBegin
  2
block 32
 70
     0
 71
     0
 10
0.0
 20
0.0
 30
0.0
  3
block 32
  1

  0
POLYLINE
  5
124
330
120
100
AcDbEntity
  8
LINHAS_COTAGENS
370
     0
100
AcDb2dPolyline
 66
     1
 10
0.0
 20
0.0
 30
0.0
  0
VERTEX
  5
125
330
124
100
AcDbEntity
  8
LINHAS_COTAGENS
370
     0
100
AcDbVertex
100
AcDb2dVertex
 10
5.977899178637542
 20
20.98860352180757
 30
0.0
  0
VERTEX
  5
126
330
124
100
AcDbEntity
  8
LINHAS_COTAGENS
370
     0
100
AcDbVertex
100
AcDb2dVertex
 10
5.977899178637542
 20
20.98860352180757
 30
0.0
  0
SEQEND
  5
127
330
124
100
AcDbEntity
  8
LINHAS_COTAGENS
370
     0
  0
ENDBLK
  5
123
330
120
100
AcDbEntity
  8
0
100
AcDbBlockEnd
  0
BLOCK
  5
12A
330
128
100
AcDbEntity
  8
0
100
AcDbBlockBegin
  2
block 33
 70
     0
 71
     0
 10
0.0
 20
0.0
 30
0.0
  3
block 33
  1

  0
POLYLINE
  5
12C
330
128
100
AcDbEntity
  8
LINHAS_COTAGENS
370
     0
100
AcDb2dPolyline
 66
     1
 10
0.0
 20
0.0
 30
0.0
  0
VERTEX
  5
12D
330
12C
100
AcDbEntity
  8
LINHAS_COTAGENS
370
     0
100
AcDbVertex
100
AcDb2dVertex
 10
1.866640092707592
 20
23.2023372136298
 30
0.0
  0
VERTEX
  5
12E
330
12C
100
AcDbEntity
  8
LINHAS_COTAGENS
370
     0
100
AcDbVertex
100
AcDb2dVertex
 10
1.866640092707592
 20
23.2023372136298
 30
0.0
  0
SEQEND
  5
12F
330
12C
100
AcDbEntity
  8
LINHAS_COTAGENS
370
     0
  0
ENDBLK
  5
12B
330
128
100
AcDbEntity
  8
0
100
AcDbBlockEnd
  0
BLOCK
  5
132
330
130
100
AcDbEntity
  8
0
100
AcDbBlockBegin
  2
block 34
 70
     0
 71
     0
 10
0.0
 20
0.0
 30
0.0
  3
block 34
  1

  0
POLYLINE
  5
134
330
130
100
AcDbEntity
  8
LINHAS_COTAGENS
370
     0
100
AcDb2dPolyline
 66
     1
 10
0.0
 20
0.0
 30
0.0
  0
VERTEX
  5
135
330
134
100
AcDbEntity
  8
LINHAS_COTAGENS
370
     0
100
AcDbVertex
100
AcDb2dVertex
 10
1.866640092707592
 20
19.9587432235313
 30
0.0
  0
VERTEX
  5
136
330
134
100
AcDbEntity
  8
LINHAS_COTAGENS
370
     0
100
AcDbVertex
100
AcDb2dVertex
 10
1.866640092707592
 20
19.9587432235313
 30
0.0
  0
SEQEND
  5
137
330
134
100
AcDbEntity
  8
LINHAS_COTAGENS
370
     0
  0
ENDBLK
  5
133
330
130
100
AcDbEntity
  8
0
100
AcDbBlockEnd
  0
BLOCK
  5
13A
330
138
100
AcDbEntity
  8
0
100
AcDbBlockBegin
  2
block 35
 70
     0
 71
     0
 10
0.0
 20
0.0
 30
0.0
  3
block 35
  1

  0
INSERT
  5
13D
330
138
100
AcDbEntity
  8
LINHAS_COTAGENS
100
AcDbBlockReference
  2
block 36
 10
0.0
 20
0.0
 30
0.0
  0
INSERT
  5
145
330
138
100
AcDbEntity
  8
LINHAS_COTAGENS
100
AcDbBlockReference
  2
block 37
 10
0.0
 20
0.0
 30
0.0
  0
INSERT
  5
14D
330
138
100
AcDbEntity
  8
LINHAS_COTAGENS
100
AcDbBlockReference
  2
block 38
 10
0.0
 20
0.0
 30
0.0
  0
INSERT
  5
155
330
138
100
AcDbEntity
  8
LINHAS_COTAGENS
100
AcDbBlockReference
  2
block 39
 10
0.0
 20
0.0
 30
0.0
  0
INSERT
  5
160
330
138
100
AcDbEntity
  8
LINHAS_COTAGENS
100
AcDbBlockReference
  2
block 40
 10
0.0
 20
0.0
 30
0.0
  0
INSERT
  5
16B
330
138
100
AcDbEntity
  8
LINHAS_COTAGENS
100
AcDbBlockReference
  2
block 41
 10
0.0
 20
0.0
 30
0.0
  0
INSERT
  5
170
330
138
100
AcDbEntity
  8
LINHAS_COTAGENS
100
AcDbBlockReference
  2
block 42
 10
0.0
 20
0.0
 30
0.0
  0
INSERT
  5
178
330
138
100
AcDbEntity
  8
LINHAS_COTAGENS
100
AcDbBlockReference
  2
block 43
 10
0.0
 20
0.0
 30
0.0
  0
INSERT
  5
180
330
138
100
AcDbEntity
  8
LINHAS_COTAGENS
100
AcDbBlockReference
  2
block 44
 10
0.0
 20
0.0
 30
0.0
  0
ENDBLK
  5
13B
330
138
100
AcDbEntity
  8
0
100
AcDbBlockEnd
  0
BLOCK
  5
13E
330
13C
100
AcDbEntity
  8
0
100
AcDbBlockBegin
  2
block 36
 70
     0
 71
     0
 10
0.0
 20
0.0
 30
0.0
  3
block 36
  1

  0
POLYLINE
  5
140
330
13C
100
AcDbEntity
  8
LINHAS_COTAGENS
 62
     1
420
 16711680
370
    25
100
AcDb2dPolyline
 66
     1
 10
0.0
 20
0.0
 30
0.0
  0
VERTEX
  5
141
330
140
100
AcDbEntity
  8
LINHAS_COTAGENS
 62
     1
420
 16711680
370
    25
100
AcDbVertex
100
AcDb2dVertex
 10
1.876975385981477
 20
24.15445888099768
 30
0.0
  0
VERTEX
  5
142
330
140
100
AcDbEntity
  8
LINHAS_COTAGENS
 62
     1
420
 16711680
370
    25
100
AcDbVertex
100
AcDb2dVertex
 10
1.876975385981477
 20
24.89160644826874
 30
0.0
  0
SEQEND
  5
143
330
140
100
AcDbEntity
  8
LINHAS_COTAGENS
370
    25
  0
ENDBLK
  5
13F
330
13C
100
AcDbEntity
  8
0
100
AcDbBlockEnd
  0
BLOCK
  5
146
330
144
100
AcDbEntity
  8
0
100
AcDbBlockBegin
  2
block 37
 70
     0
 71
     0
 10
0.0
 20
0.0
 30
0.0
  3
block 37
  1

  0
POLYLINE
  5
148
330
144
100
AcDbEntity
  8
LINHAS_COTAGENS
 62
     1
420
 16711680
370
    25
100
AcDb2dPolyline
 66
     1
 10
0.0
 20
0.0
 30
0.0
  0
VERTEX
  5
149
330
148
100
AcDbEntity
  8
LINHAS_COTAGENS
 62
     1
420
 16711680
370
    25
100
AcDbVertex
100
AcDb2dVertex
 10
2.948176857353294
 20
24.15445888099768
 30
0.0
  0
VERTEX
  5
14A
330
148
100
AcDbEntity
  8
LINHAS_COTAGENS
 62
     1
420
 16711680
370
    25
100
AcDbVertex
100
AcDb2dVertex
 10
2.948176857353294
 20
24.89160644826874
 30
0.0
  0
SEQEND
  5
14B
330
148
100
AcDbEntity
  8
LINHAS_COTAGENS
370
    25
  0
ENDBLK
  5
147
330
144
100
AcDbEntity
  8
0
100
AcDbBlockEnd
  0
BLOCK
  5
14E
330
14C
100
AcDbEntity
  8
0
100
AcDbBlockBegin
  2
block 38
 70
     0
 71
     0
 10
0.0
 20
0.0
 30
0.0
  3
block 38
  1

  0
POLYLINE
  5
150
330
14C
100
AcDbEntity
  8
LINHAS_COTAGENS
 62
     1
420
 16711680
370
    25
100
AcDb2dPolyline
 66
     1
 10
0.0
 20
0.0
 30
0.0
  0
VERTEX
  5
151
330
150
100
AcDbEntity
  8
LINHAS_COTAGENS
 62
     1
420
 16711680
370
    25
100
AcDbVertex
100
AcDb2dVertex
 10
2.217006534692295
 20
24.72157364842454
 30
0.0
  0
VERTEX
  5
152
330
150
100
AcDbEntity
  8
LINHAS_COTAGENS
 62
     1
420
 16711680
370
    25
100
AcDbVertex
100
AcDb2dVertex
 10
2.608128483153686
 20
24.72157364842454
 30
0.0
  0
SEQEND
  5
153
330
150
100
AcDbEntity
  8
LINHAS_COTAGENS
370
    25
  0
ENDBLK
  5
14F
330
14C
100
AcDbEntity
  8
0
100
AcDbBlockEnd
  0
BLOCK
  5
156
330
154
100
AcDbEntity
  8
0
100
AcDbBlockBegin
  2
block 39
 70
     0
 71
     0
 10
0.0
 20
0.0
 30
0.0
  3
block 39
  1

  0
POLYLINE
  5
158
330
154
100
AcDbEntity
  8
LINHAS_COTAGENS
370
     0
100
AcDb2dPolyline
 66
     1
 10
0.0
 20
0.0
 30
0.0
  0
VERTEX
  5
159
330
158
100
AcDbEntity
  8
LINHAS_COTAGENS
370
     0
100
AcDbVertex
100
AcDb2dVertex
 10
2.217006534692295
 20
24.7782627320318
 30
0.0
  0
VERTEX
  5
15A
330
158
100
AcDbEntity
  8
LINHAS_COTAGENS
370
     0
100
AcDbVertex
100
AcDb2dVertex
 10
2.217006534692295
 20
24.66490179030607
 30
0.0
  0
VERTEX
  5
15B
330
158
100
AcDbEntity
  8
LINHAS_COTAGENS
370
     0
100
AcDbVertex
100
AcDb2dVertex
 10
1.876975385981477
 20
24.72157364842454
 30
0.0
  0
VERTEX
  5
15C
330
158
100
AcDbEntity
  8
LINHAS_COTAGENS
370
     0
100
AcDbVertex
100
AcDb2dVertex
 10
2.217006534692295
 20
24.7782627320318
 30
0.0
  0
SEQEND
  5
15D
330
158
100
AcDbEntity
  8
LINHAS_COTAGENS
370
     0
  0
HATCH
  5
15E
330
154
100
AcDbEntity
  8
LINHAS_COTAGENS
 62
     1
420
 16711680
100
AcDbHatch
 10
0.0
 20
0.0
 30
0.0
210
0.0
220
0.0
230
1.0
  2
SOLID
 70
     1
 71
     0
 91
        1
 92
        1
 93
        3
 72
     1
 10
2.217006534692295
 20
24.7782627320318
 11
2.217006534692295
 21
24.66490179030607
 72
     1
 10
2.217006534692295
 20
24.66490179030607
 11
1.876975385981477
 21
24.72157364842454
 72
     1
 10
1.876975385981477
 20
24.72157364842454
 11
2.217006534692295
 21
24.7782627320318
 97
        0
 75
     2
 76
     1
 98
        0
  0
ENDBLK
  5
157
330
154
100
AcDbEntity
  8
0
100
AcDbBlockEnd
  0
BLOCK
  5
161
330
15F
100
AcDbEntity
  8
0
100
AcDbBlockBegin
  2
block 40
 70
     0
 71
     0
 10
0.0
 20
0.0
 30
0.0
  3
block 40
  1

  0
POLYLINE
  5
163
330
15F
100
AcDbEntity
  8
LINHAS_COTAGENS
370
     0
100
AcDb2dPolyline
 66
     1
 10
0.0
 20
0.0
 30
0.0
  0
VERTEX
  5
164
330
163
100
AcDbEntity
  8
LINHAS_COTAGENS
370
     0
100
AcDbVertex
100
AcDb2dVertex
 10
2.608128483153686
 20
24.7782627320318
 30
0.0
  0
VERTEX
  5
165
330
163
100
AcDbEntity
  8
LINHAS_COTAGENS
370
     0
100
AcDbVertex
100
AcDb2dVertex
 10
2.608128483153686
 20
24.66490179030607
 30
0.0
  0
VERTEX
  5
166
330
163
100
AcDbEntity
  8
LINHAS_COTAGENS
370
     0
100
AcDbVertex
100
AcDb2dVertex
 10
2.948176857353294
 20
24.72157364842454
 30
0.0
  0
VERTEX
  5
167
330
163
100
AcDbEntity
  8
LINHAS_COTAGENS
370
     0
100
AcDbVertex
100
AcDb2dVertex
 10
2.608128483153686
 20
24.7782627320318
 30
0.0
  0
SEQEND
  5
168
330
163
100
AcDbEntity
  8
LINHAS_COTAGENS
370
     0
  0
HATCH
  5
169
330
15F
100
AcDbEntity
  8
LINHAS_COTAGENS
 62
     1
420
 16711680
100
AcDbHatch
 10
0.0
 20
0.0
 30
0.0
210
0.0
220
0.0
230
1.0
  2
SOLID
 70
     1
 71
     0
 91
        1
 92
        1
 93
        3
 72
     1
 10
2.608128483153686
 20
24.7782627320318
 11
2.608128483153686
 21
24.66490179030607
 72
     1
 10
2.608128483153686
 20
24.66490179030607
 11
2.948176857353294
 21
24.72157364842454
 72
     1
 10
2.948176857353294
 20
24.72157364842454
 11
2.608128483153686
 21
24.7782627320318
 97
        0
 75
     2
 76
     1
 98
        0
  0
ENDBLK
  5
162
330
15F
100
AcDbEntity
  8
0
100
AcDbBlockEnd
  0
BLOCK
  5
16C
330
16A
100
AcDbEntity
  8
0
100
AcDbBlockBegin
  2
block 41
 70
     0
 71
     0
 10
0.0
 20
0.0
 30
0.0
  3
block 41
  1

  0
MTEXT
  5
16E
330
16A
100
AcDbEntity
  8
LINHAS_COTAGENS
 62
     4
420
    65535
100
AcDbMText
 10
2.088711094185802
 20
24.80659866109103
 30
0.0
 40
0.3400444675125806
 41
0.0
 71
     7
 72
     1
  1
\fMyriad Pro|b0|i0|c0|p34;\W1;80
 73
     1
 44
1.0
  0
ENDBLK
  5
16D
330
16A
100
AcDbEntity
  8
0
100
AcDbBlockEnd
  0
BLOCK
  5
171
330
16F
100
AcDbEntity
  8
0
100
AcDbBlockBegin
  2
block 42
 70
     0
 71
     0
 10
0.0
 20
0.0
 30
0.0
  3
block 42
  1

  0
POLYLINE
  5
173
330
16F
100
AcDbEntity
  8
LINHAS_COTAGENS
370
     0
100
AcDb2dPolyline
 66
     1
 10
0.0
 20
0.0
 30
0.0
  0
VERTEX
  5
174
330
173
100
AcDbEntity
  8
LINHAS_COTAGENS
370
     0
100
AcDbVertex
100
AcDb2dVertex
 10
1.876975385981477
 20
23.81441050679807
 30
0.0
  0
VERTEX
  5
175
330
173
100
AcDbEntity
  8
LINHAS_COTAGENS
370
     0
100
AcDbVertex
100
AcDb2dVertex
 10
1.876975385981477
 20
23.81441050679807
 30
0.0
  0
SEQEND
  5
176
330
173
100
AcDbEntity
  8
LINHAS_COTAGENS
370
     0
  0
ENDBLK
  5
172
330
16F
100
AcDbEntity
  8
0
100
AcDbBlockEnd
  0
BLOCK
  5
179
330
177
100
AcDbEntity
  8
0
100
AcDbBlockBegin
  2
block 43
 70
     0
 71
     0
 10
0.0
 20
0.0
 30
0.0
  3
block 43
  1

  0
POLYLINE
  5
17B
330
177
100
AcDbEntity
  8
LINHAS_COTAGENS
370
     0
100
AcDb2dPolyline
 66
     1
 10
0.0
 20
0.0
 30
0.0
  0
VERTEX
  5
17C
330
17B
100
AcDbEntity
  8
LINHAS_COTAGENS
370
     0
100
AcDbVertex
100
AcDb2dVertex
 10
2.948176857353294
 20
23.81441050679807
 30
0.0
  0
VERTEX
  5
17D
330
17B
100
AcDbEntity
  8
LINHAS_COTAGENS
370
     0
100
AcDbVertex
100
AcDb2dVertex
 10
2.948176857353294
 20
23.81441050679807
 30
0.0
  0
SEQEND
  5
17E
330
17B
100
AcDbEntity
  8
LINHAS_COTAGENS
370
     0
  0
ENDBLK
  5
17A
330
177
100
AcDbEntity
  8
0
100
AcDbBlockEnd
  0
BLOCK
  5
181
330
17F
100
AcDbEntity
  8
0
100
AcDbBlockBegin
  2
block 44
 70
     0
 71
     0
 10
0.0
 20
0.0
 30
0.0
  3
block 44
  1

  0
POLYLINE
  5
183
330
17F
100
AcDbEntity
  8
LINHAS_COTAGENS
370
     0
100
AcDb2dPolyline
 66
     1
 10
0.0
 20
0.0
 30
0.0
  0
VERTEX
  5
184
330
183
100
AcDbEntity
  8
LINHAS_COTAGENS
370
     0
100
AcDbVertex
100
AcDb2dVertex
 10
2.948176857353294
 20
24.72157364842454
 30
0.0
  0
VERTEX
  5
185
330
183
100
AcDbEntity
  8
LINHAS_COTAGENS
370
     0
100
AcDbVertex
100
AcDb2dVertex
 10
2.948176857353294
 20
24.72157364842454
 30
0.0
  0
SEQEND
  5
186
330
183
100
AcDbEntity
  8
LINHAS_COTAGENS
370
     0
  0
ENDBLK
  5
182
330
17F
100
AcDbEntity
  8
0
100
AcDbBlockEnd
  0
BLOCK
  5
189
330
187
100
AcDbEntity
  8
0
100
AcDbBlockBegin
  2
block 45
 70
     0
 71
     0
 10
0.0
 20
0.0
 30
0.0
  3
block 45
  1

  0
POLYLINE
  5
18B
330
187
100
AcDbEntity
  8
LINHAS_COTAGENS
 62
     1
420
 16711680
370
    25
100
AcDb2dPolyline
 66
     1
 10
0.0
 20
0.0
 30
0.0
  0
VERTEX
  5
18C
330
18B
100
AcDbEntity
  8
LINHAS_COTAGENS
 62
     1
420
 16711680
370
    25
100
AcDbVertex
100
AcDb2dVertex
 10
2.205189849382487
 20
10.10436837116889
 30
0.0
  0
VERTEX
  5
18D
330
18B
100
AcDbEntity
  8
LINHAS_COTAGENS
 62
     1
420
 16711680
370
    25
100
AcDbVertex
100
AcDb2dVertex
 10
1.799443460938549
 20
10.51013198510162
 30
0.0
  0
SEQEND
  5
18E
330
18B
100
AcDbEntity
  8
LINHAS_COTAGENS
370
    25
  0
ENDBLK
  5
18A
330
187
100
AcDbEntity
  8
0
100
AcDbBlockEnd
  0
BLOCK
  5
191
330
18F
100
AcDbEntity
  8
0
100
AcDbBlockBegin
  2
block 46
 70
     0
 71
     0
 10
0.0
 20
0.0
 30
0.0
  3
block 46
  1

  0
POLYLINE
  5
193
330
18F
100
AcDbEntity
  8
LINHAS_COTAGENS
370
     0
100
AcDb2dPolyline
 66
     1
 10
0.0
 20
0.0
 30
0.0
  0
VERTEX
  5
194
330
193
100
AcDbEntity
  8
LINHAS_COTAGENS
370
     0
100
AcDbVertex
100
AcDb2dVertex
 10
1.64382839521142
 20
10.18484585479488
 30
0.0
  0
VERTEX
  5
195
330
193
100
AcDbEntity
  8
LINHAS_COTAGENS
370
     0
100
AcDbVertex
100
AcDb2dVertex
 10
1.723978594550398
 20
10.10471288094469
 30
0.0
  0
VERTEX
  5
196
330
193
100
AcDbEntity
  8
LINHAS_COTAGENS
370
     0
100
AcDbVertex
100
AcDb2dVertex
 10
1.92434548015345
 20
10.38521274039793
 30
0.0
  0
VERTEX
  5
197
330
193
100
AcDbEntity
  8
LINHAS_COTAGENS
370
     0
100
AcDbVertex
100
AcDb2dVertex
 10
1.64382839521142
 20
10.18484585479488
 30
0.0
  0
SEQEND
  5
198
330
193
100
AcDbEntity
  8
LINHAS_COTAGENS
370
     0
  0
HATCH
  5
199
330
18F
100
AcDbEntity
  8
LINHAS_COTAGENS
 62
     1
420
 16711680
100
AcDbHatch
 10
0.0
 20
0.0
 30
0.0
210
0.0
220
0.0
230
1.0
  2
SOLID
 70
     1
 71
     0
 91
        1
 92
        1
 93
        3
 72
     1
 10
1.64382839521142
 20
10.18484585479488
 11
1.723978594550398
 21
10.10471288094469
 72
     1
 10
1.723978594550398
 20
10.10471288094469
 11
1.92434548015345
 21
10.38521274039793
 72
     1
 10
1.92434548015345
 20
10.38521274039793
 11
1.64382839521142
 21
10.18484585479488
 97
        0
 75
     2
 76
     1
 98
        0
  0
ENDBLK
  5
192
330
18F
100
AcDbEntity
  8
0
100
AcDbBlockEnd
  0
BLOCK
  5
19C
330
19A
100
AcDbEntity
  8
0
100
AcDbBlockBegin
  2
block 47
 70
     0
 71
     0
 10
0.0
 20
0.0
 30
0.0
  3
block 47
  1

  0
POLYLINE
  5
19E
330
19A
100
AcDbEntity
  8
LINHAS_COTAGENS
 62
     1
420
 16711680
370
    25
100
AcDb2dPolyline
 66
     1
 10
0.0
 20
0.0
 30
0.0
  0
VERTEX
  5
19F
330
19E
100
AcDbEntity
  8
LINHAS_COTAGENS
 62
     1
420
 16711680
370
    25
100
AcDbVertex
100
AcDb2dVertex
 10
1.92434548015345
 20
10.38521274039793
 30
0.0
  0
VERTEX
  5
1A0
330
19E
100
AcDbEntity
  8
LINHAS_COTAGENS
 62
     1
420
 16711680
370
    25
100
AcDbVertex
100
AcDb2dVertex
 10
1.342881880564676
 20
9.803749140809156
 30
0.0
  0
SEQEND
  5
1A1
330
19E
100
AcDbEntity
  8
LINHAS_COTAGENS
370
    25
  0
ENDBLK
  5
19D
330
19A
100
AcDbEntity
  8
0
100
AcDbBlockEnd
  0
BLOCK
  5
1A4
330
1A2
100
AcDbEntity
  8
0
100
AcDbBlockBegin
  2
block 48
 70
     0
 71
     0
 10
0.0
 20
0.0
 30
0.0
  3
block 48
  1

  0
POLYLINE
  5
1A6
330
1A2
100
AcDbEntity
  8
LINHAS_COTAGENS
370
     0
100
AcDb2dPolyline
 66
     1
 10
0.0
 20
0.0
 30
0.0
  0
VERTEX
  5
1A7
330
1A6
100
AcDbEntity
  8
LINHAS_COTAGENS
370
     0
100
AcDbVertex
100
AcDb2dVertex
 10
1.543248766167728
 20
10.08428345123998
 30
0.0
  0
VERTEX
  5
1A8
330
1A6
100
AcDbEntity
  8
LINHAS_COTAGENS
370
     0
100
AcDbVertex
100
AcDb2dVertex
 10
1.623398965506707
 20
10.00411602641221
 30
0.0
  0
VERTEX
  5
1A9
330
1A6
100
AcDbEntity
  8
LINHAS_COTAGENS
370
     0
100
AcDbVertex
100
AcDb2dVertex
 10
1.342881880564676
 20
9.803749140809156
 30
0.0
  0
VERTEX
  5
1AA
330
1A6
100
AcDbEntity
  8
LINHAS_COTAGENS
370
     0
100
AcDbVertex
100
AcDb2dVertex
 10
1.543248766167728
 20
10.08428345123998
 30
0.0
  0
SEQEND
  5
1AB
330
1A6
100
AcDbEntity
  8
LINHAS_COTAGENS
370
     0
  0
HATCH
  5
1AC
330
1A2
100
AcDbEntity
  8
LINHAS_COTAGENS
 62
     1
420
 16711680
100
AcDbHatch
 10
0.0
 20
0.0
 30
0.0
210
0.0
220
0.0
230
1.0
  2
SOLID
 70
     1
 71
     0
 91
        1
 92
        1
 93
        3
 72
     1
 10
1.543248766167728
 20
10.08428345123998
 11
1.623398965506707
 21
10.00411602641221
 72
     1
 10
1.623398965506707
 20
10.00411602641221
 11
1.342881880564676
 21
9.803749140809156
 72
     1
 10
1.342881880564676
 20
9.803749140809156
 11
1.543248766167728
 21
10.08428345123998
 97
        0
 75
     2
 76
     1
 98
        0
  0
ENDBLK
  5
1A5
330
1A2
100
AcDbEntity
  8
0
100
AcDbBlockEnd
  0
BLOCK
  5
1AF
330
1AD
100
AcDbEntity
  8
0
100
AcDbBlockBegin
  2
block 49
 70
     0
 71
     0
 10
0.0
 20
0.0
 30
0.0
  3
block 49
  1

  0
INSERT
  5
1B2
330
1AD
100
AcDbEntity
  8
LINHAS_COTAGENS
100
AcDbBlockReference
  2
block 50
 10
0.0
 20
0.0
 30
0.0
  0
INSERT
  5
1BA
330
1AD
100
AcDbEntity
  8
LINHAS_COTAGENS
100
AcDbBlockReference
  2
block 51
 10
0.0
 20
0.0
 30
0.0
  0
INSERT
  5
1C2
330
1AD
100
AcDbEntity
  8
LINHAS_COTAGENS
100
AcDbBlockReference
  2
block 52
 10
0.0
 20
0.0
 30
0.0
  0
INSERT
  5
1CA
330
1AD
100
AcDbEntity
  8
LINHAS_COTAGENS
100
AcDbBlockReference
  2
block 53
 10
0.0
 20
0.0
 30
0.0
  0
INSERT
  5
1D5
330
1AD
100
AcDbEntity
  8
LINHAS_COTAGENS
100
AcDbBlockReference
  2
block 54
 10
0.0
 20
0.0
 30
0.0
  0
INSERT
  5
1E0
330
1AD
100
AcDbEntity
  8
LINHAS_COTAGENS
100
AcDbBlockReference
  2
block 55
 10
0.0
 20
0.0
 30
0.0
  0
INSERT
  5
1E5
330
1AD
100
AcDbEntity
  8
LINHAS_COTAGENS
100
AcDbBlockReference
  2
block 56
 10
0.0
 20
0.0
 30
0.0
  0
INSERT
  5
1ED
330
1AD
100
AcDbEntity
  8
LINHAS_COTAGENS
100
AcDbBlockReference
  2
block 57
 10
0.0
 20
0.0
 30
0.0
  0
INSERT
  5
1F5
330
1AD
100
AcDbEntity
  8
LINHAS_COTAGENS
100
AcDbBlockReference
  2
block 58
 10
0.0
 20
0.0
 30
0.0
  0
ENDBLK
  5
1B0
330
1AD
100
AcDbEntity
  8
0
100
AcDbBlockEnd
  0
BLOCK
  5
1B3
330
1B1
100
AcDbEntity
  8
0
100
AcDbBlockBegin
  2
block 50
 70
     0
 71
     0
 10
0.0
 20
0.0
 30
0.0
  3
block 50
  1

  0
POLYLINE
  5
1B5
330
1B1
100
AcDbEntity
  8
LINHAS_COTAGENS
 62
     1
420
 16711680
370
    25
100
AcDb2dPolyline
 66
     1
 10
0.0
 20
0.0
 30
0.0
  0
VERTEX
  5
1B6
330
1B5
100
AcDbEntity
  8
LINHAS_COTAGENS
 62
     1
420
 16711680
370
    25
100
AcDbVertex
100
AcDb2dVertex
 10
6.274746026952311
 20
12.01281472516935
 30
0.0
  0
VERTEX
  5
1B7
330
1B5
100
AcDbEntity
  8
LINHAS_COTAGENS
 62
     1
420
 16711680
370
    25
100
AcDbVertex
100
AcDb2dVertex
 10
10.62304506411881
 20
12.01281472516935
 30
0.0
  0
SEQEND
  5
1B8
330
1B5
100
AcDbEntity
  8
LINHAS_COTAGENS
370
    25
  0
ENDBLK
  5
1B4
330
1B1
100
AcDbEntity
  8
0
100
AcDbBlockEnd
  0
BLOCK
  5
1BB
330
1B9
100
AcDbEntity
  8
0
100
AcDbBlockBegin
  2
block 51
 70
     0
 71
     0
 10
0.0
 20
0.0
 30
0.0
  3
block 51
  1

  0
POLYLINE
  5
1BD
330
1B9
100
AcDbEntity
  8
LINHAS_COTAGENS
 62
     1
420
 16711680
370
    25
100
AcDb2dPolyline
 66
     1
 10
0.0
 20
0.0
 30
0.0
  0
VERTEX
  5
1BE
330
1BD
100
AcDbEntity
  8
LINHAS_COTAGENS
 62
     1
420
 16711680
370
    25
100
AcDbVertex
100
AcDb2dVertex
 10
8.974686365355677
 20
6.598981402442875
 30
0.0
  0
VERTEX
  5
1BF
330
1BD
100
AcDbEntity
  8
LINHAS_COTAGENS
 62
     1
420
 16711680
370
    25
100
AcDbVertex
100
AcDb2dVertex
 10
10.62304506411881
 20
6.598981402442875
 30
0.0
  0
SEQEND
  5
1C0
330
1BD
100
AcDbEntity
  8
LINHAS_COTAGENS
370
    25
  0
ENDBLK
  5
1BC
330
1B9
100
AcDbEntity
  8
0
100
AcDbBlockEnd
  0
BLOCK
  5
1C3
330
1C1
100
AcDbEntity
  8
0
100
AcDbBlockBegin
  2
block 52
 70
     0
 71
     0
 10
0.0
 20
0.0
 30
0.0
  3
block 52
  1

  0
POLYLINE
  5
1C5
330
1C1
100
AcDbEntity
  8
LINHAS_COTAGENS
 62
     1
420
 16711680
370
    25
100
AcDb2dPolyline
 66
     1
 10
0.0
 20
0.0
 30
0.0
  0
VERTEX
  5
1C6
330
1C5
100
AcDbEntity
  8
LINHAS_COTAGENS
 62
     1
420
 16711680
370
    25
100
AcDbVertex
100
AcDb2dVertex
 10
10.4530467152522
 20
11.67278357645853
 30
0.0
  0
VERTEX
  5
1C7
330
1C5
100
AcDbEntity
  8
LINHAS_COTAGENS
 62
     1
420
 16711680
370
    25
100
AcDbVertex
100
AcDb2dVertex
 10
10.4530467152522
 20
6.939012551153694
 30
0.0
  0
SEQEND
  5
1C8
330
1C5
100
AcDbEntity
  8
LINHAS_COTAGENS
370
    25
  0
ENDBLK
  5
1C4
330
1C1
100
AcDbEntity
  8
0
100
AcDbBlockEnd
  0
BLOCK
  5
1CB
330
1C9
100
AcDbEntity
  8
0
100
AcDbBlockBegin
  2
block 53
 70
     0
 71
     0
 10
0.0
 20
0.0
 30
0.0
  3
block 53
  1

  0
POLYLINE
  5
1CD
330
1C9
100
AcDbEntity
  8
LINHAS_COTAGENS
370
     0
100
AcDb2dPolyline
 66
     1
 10
0.0
 20
0.0
 30
0.0
  0
VERTEX
  5
1CE
330
1CD
100
AcDbEntity
  8
LINHAS_COTAGENS
370
     0
100
AcDbVertex
100
AcDb2dVertex
 10
10.39635763164494
 20
11.67278357645853
 30
0.0
  0
VERTEX
  5
1CF
330
1CD
100
AcDbEntity
  8
LINHAS_COTAGENS
370
     0
100
AcDbVertex
100
AcDb2dVertex
 10
10.50971857337067
 20
11.67278357645853
 30
0.0
  0
VERTEX
  5
1D0
330
1CD
100
AcDbEntity
  8
LINHAS_COTAGENS
370
     0
100
AcDbVertex
100
AcDb2dVertex
 10
10.4530467152522
 20
12.01281472516935
 30
0.0
  0
VERTEX
  5
1D1
330
1CD
100
AcDbEntity
  8
LINHAS_COTAGENS
370
     0
100
AcDbVertex
100
AcDb2dVertex
 10
10.39635763164494
 20
11.67278357645853
 30
0.0
  0
SEQEND
  5
1D2
330
1CD
100
AcDbEntity
  8
LINHAS_COTAGENS
370
     0
  0
HATCH
  5
1D3
330
1C9
100
AcDbEntity
  8
LINHAS_COTAGENS
 62
     1
420
 16711680
100
AcDbHatch
 10
0.0
 20
0.0
 30
0.0
210
0.0
220
0.0
230
1.0
  2
SOLID
 70
     1
 71
     0
 91
        1
 92
        1
 93
        3
 72
     1
 10
10.39635763164494
 20
11.67278357645853
 11
10.50971857337067
 21
11.67278357645853
 72
     1
 10
10.50971857337067
 20
11.67278357645853
 11
10.4530467152522
 21
12.01281472516935
 72
     1
 10
10.4530467152522
 20
12.01281472516935
 11
10.39635763164494
 21
11.67278357645853
 97
        0
 75
     2
 76
     1
 98
        0
  0
ENDBLK
  5
1CC
330
1C9
100
AcDbEntity
  8
0
100
AcDbBlockEnd
  0
BLOCK
  5
1D6
330
1D4
100
AcDbEntity
  8
0
100
AcDbBlockBegin
  2
block 54
 70
     0
 71
     0
 10
0.0
 20
0.0
 30
0.0
  3
block 54
  1

  0
POLYLINE
  5
1D8
330
1D4
100
AcDbEntity
  8
LINHAS_COTAGENS
370
     0
100
AcDb2dPolyline
 66
     1
 10
0.0
 20
0.0
 30
0.0
  0
VERTEX
  5
1D9
330
1D8
100
AcDbEntity
  8
LINHAS_COTAGENS
370
     0
100
AcDbVertex
100
AcDb2dVertex
 10
10.39635763164494
 20
6.939012551153694
 30
0.0
  0
VERTEX
  5
1DA
330
1D8
100
AcDbEntity
  8
LINHAS_COTAGENS
370
     0
100
AcDbVertex
100
AcDb2dVertex
 10
10.50971857337067
 20
6.939012551153694
 30
0.0
  0
VERTEX
  5
1DB
330
1D8
100
AcDbEntity
  8
LINHAS_COTAGENS
370
     0
100
AcDbVertex
100
AcDb2dVertex
 10
10.4530467152522
 20
6.598981402442875
 30
0.0
  0
VERTEX
  5
1DC
330
1D8
100
AcDbEntity
  8
LINHAS_COTAGENS
370
     0
100
AcDbVertex
100
AcDb2dVertex
 10
10.39635763164494
 20
6.939012551153694
 30
0.0
  0
SEQEND
  5
1DD
330
1D8
100
AcDbEntity
  8
LINHAS_COTAGENS
370
     0
  0
HATCH
  5
1DE
330
1D4
100
AcDbEntity
  8
LINHAS_COTAGENS
 62
     1
420
 16711680
100
AcDbHatch
 10
0.0
 20
0.0
 30
0.0
210
0.0
220
0.0
230
1.0
  2
SOLID
 70
     1
 71
     0
 91
        1
 92
        1
 93
        3
 72
     1
 10
10.39635763164494
 20
6.939012551153694
 11
10.50971857337067
 21
6.939012551153694
 72
     1
 10
10.50971857337067
 20
6.939012551153694
 11
10.4530467152522
 21
6.598981402442875
 72
     1
 10
10.4530467152522
 20
6.598981402442875
 11
10.39635763164494
 21
6.939012551153694
 97
        0
 75
     2
 76
     1
 98
        0
  0
ENDBLK
  5
1D7
330
1D4
100
AcDbEntity
  8
0
100
AcDbBlockEnd
  0
BLOCK
  5
1E1
330
1DF
100
AcDbEntity
  8
0
100
AcDbBlockBegin
  2
block 55
 70
     0
 71
     0
 10
0.0
 20
0.0
 30
0.0
  3
block 55
  1

  0
MTEXT
  5
1E3
330
1DF
100
AcDbEntity
  8
LINHAS_COTAGENS
 62
     4
420
    65535
100
AcDbMText
 10
10.3680217025857
 20
8.820139279933514
 30
0.0
 40
0.3400444675125806
 41
0.0
 71
     7
 72
     1
  1
\fMyriad Pro|b0|i0|c0|p34;\W1;395
 11
-4.371139000186241E-8
 21
0.999999999999999
 31
0.0
 73
     1
 44
1.0
  0
ENDBLK
  5
1E2
330
1DF
100
AcDbEntity
  8
0
100
AcDbBlockEnd
  0
BLOCK
  5
1E6
330
1E4
100
AcDbEntity
  8
0
100
AcDbBlockBegin
  2
block 56
 70
     0
 71
     0
 10
0.0
 20
0.0
 30
0.0
  3
block 56
  1

  0
POLYLINE
  5
1E8
330
1E4
100
AcDbEntity
  8
LINHAS_COTAGENS
370
     0
100
AcDb2dPolyline
 66
     1
 10
0.0
 20
0.0
 30
0.0
  0
VERTEX
  5
1E9
330
1E8
100
AcDbEntity
  8
LINHAS_COTAGENS
370
     0
100
AcDbVertex
100
AcDb2dVertex
 10
5.934697652752702
 20
12.01281472516935
 30
0.0
  0
VERTEX
  5
1EA
330
1E8
100
AcDbEntity
  8
LINHAS_COTAGENS
370
     0
100
AcDbVertex
100
AcDb2dVertex
 10
5.934697652752702
 20
12.01281472516935
 30
0.0
  0
SEQEND
  5
1EB
330
1E8
100
AcDbEntity
  8
LINHAS_COTAGENS
370
     0
  0
ENDBLK
  5
1E7
330
1E4
100
AcDbEntity
  8
0
100
AcDbBlockEnd
  0
BLOCK
  5
1EE
330
1EC
100
AcDbEntity
  8
0
100
AcDbBlockBegin
  2
block 57
 70
     0
 71
     0
 10
0.0
 20
0.0
 30
0.0
  3
block 57
  1

  0
POLYLINE
  5
1F0
330
1EC
100
AcDbEntity
  8
LINHAS_COTAGENS
370
     0
100
AcDb2dPolyline
 66
     1
 10
0.0
 20
0.0
 30
0.0
  0
VERTEX
  5
1F1
330
1F0
100
AcDbEntity
  8
LINHAS_COTAGENS
370
     0
100
AcDbVertex
100
AcDb2dVertex
 10
8.634655216644857
 20
6.598981402442875
 30
0.0
  0
VERTEX
  5
1F2
330
1F0
100
AcDbEntity
  8
LINHAS_COTAGENS
370
     0
100
AcDbVertex
100
AcDb2dVertex
 10
8.634655216644857
 20
6.598981402442875
 30
0.0
  0
SEQEND
  5
1F3
330
1F0
100
AcDbEntity
  8
LINHAS_COTAGENS
370
     0
  0
ENDBLK
  5
1EF
330
1EC
100
AcDbEntity
  8
0
100
AcDbBlockEnd
  0
BLOCK
  5
1F6
330
1F4
100
AcDbEntity
  8
0
100
AcDbBlockBegin
  2
block 58
 70
     0
 71
     0
 10
0.0
 20
0.0
 30
0.0
  3
block 58
  1

  0
POLYLINE
  5
1F8
330
1F4
100
AcDbEntity
  8
LINHAS_COTAGENS
370
     0
100
AcDb2dPolyline
 66
     1
 10
0.0
 20
0.0
 30
0.0
  0
VERTEX
  5
1F9
330
1F8
100
AcDbEntity
  8
LINHAS_COTAGENS
370
     0
100
AcDbVertex
100
AcDb2dVertex
 10
10.4530467152522
 20
6.598981402442875
 30
0.0
  0
VERTEX
  5
1FA
330
1F8
100
AcDbEntity
  8
LINHAS_COTAGENS
370
     0
100
AcDbVertex
100
AcDb2dVertex
 10
10.4530467152522
 20
6.598981402442875
 30
0.0
  0
SEQEND
  5
1FB
330
1F8
100
AcDbEntity
  8
LINHAS_COTAGENS
370
     0
  0
ENDBLK
  5
1F7
330
1F4
100
AcDbEntity
  8
0
100
AcDbBlockEnd
  0
BLOCK
  5
1FE
330
1FC
100
AcDbEntity
  8
0
100
AcDbBlockBegin
  2
block 59
 70
     0
 71
     0
 10
0.0
 20
0.0
 30
0.0
  3
block 59
  1

  0
INSERT
  5
201
330
1FC
100
AcDbEntity
  8
LINHAS_COTAGENS
100
AcDbBlockReference
  2
block 60
 10
0.0
 20
0.0
 30
0.0
  0
INSERT
  5
209
330
1FC
100
AcDbEntity
  8
LINHAS_COTAGENS
100
AcDbBlockReference
  2
block 61
 10
0.0
 20
0.0
 30
0.0
  0
INSERT
  5
211
330
1FC
100
AcDbEntity
  8
LINHAS_COTAGENS
100
AcDbBlockReference
  2
block 62
 10
0.0
 20
0.0
 30
0.0
  0
INSERT
  5
219
330
1FC
100
AcDbEntity
  8
LINHAS_COTAGENS
100
AcDbBlockReference
  2
block 63
 10
0.0
 20
0.0
 30
0.0
  0
INSERT
  5
224
330
1FC
100
AcDbEntity
  8
LINHAS_COTAGENS
100
AcDbBlockReference
  2
block 64
 10
0.0
 20
0.0
 30
0.0
  0
INSERT
  5
22F
330
1FC
100
AcDbEntity
  8
LINHAS_COTAGENS
100
AcDbBlockReference
  2
block 65
 10
0.0
 20
0.0
 30
0.0
  0
INSERT
  5
234
330
1FC
100
AcDbEntity
  8
LINHAS_COTAGENS
100
AcDbBlockReference
  2
block 66
 10
0.0
 20
0.0
 30
0.0
  0
INSERT
  5
23C
330
1FC
100
AcDbEntity
  8
LINHAS_COTAGENS
100
AcDbBlockReference
  2
block 67
 10
0.0
 20
0.0
 30
0.0
  0
INSERT
  5
244
330
1FC
100
AcDbEntity
  8
LINHAS_COTAGENS
100
AcDbBlockReference
  2
block 68
 10
0.0
 20
0.0
 30
0.0
  0
ENDBLK
  5
1FF
330
1FC
100
AcDbEntity
  8
0
100
AcDbBlockEnd
  0
BLOCK
  5
202
330
200
100
AcDbEntity
  8
0
100
AcDbBlockBegin
  2
block 60
 70
     0
 71
     0
 10
0.0
 20
0.0
 30
0.0
  3
block 60
  1

  0
POLYLINE
  5
204
330
200
100
AcDbEntity
  8
LINHAS_COTAGENS
 62
     1
420
 16711680
370
    25
100
AcDb2dPolyline
 66
     1
 10
0.0
 20
0.0
 30
0.0
  0
VERTEX
  5
205
330
204
100
AcDbEntity
  8
LINHAS_COTAGENS
 62
     1
420
 16711680
370
    25
100
AcDbVertex
100
AcDb2dVertex
 10
15.25208511758162
 20
21.774154712578
 30
0.0
  0
VERTEX
  5
206
330
204
100
AcDbEntity
  8
LINHAS_COTAGENS
 62
     1
420
 16711680
370
    25
100
AcDbVertex
100
AcDb2dVertex
 10
14.01191882667057
 20
21.774154712578
 30
0.0
  0
SEQEND
  5
207
330
204
100
AcDbEntity
  8
LINHAS_COTAGENS
370
    25
  0
ENDBLK
  5
203
330
200
100
AcDbEntity
  8
0
100
AcDbBlockEnd
  0
BLOCK
  5
20A
330
208
100
AcDbEntity
  8
0
100
AcDbBlockBegin
  2
block 61
 70
     0
 71
     0
 10
0.0
 20
0.0
 30
0.0
  3
block 61
  1

  0
POLYLINE
  5
20C
330
208
100
AcDbEntity
  8
LINHAS_COTAGENS
 62
     1
420
 16711680
370
    25
100
AcDb2dPolyline
 66
     1
 10
0.0
 20
0.0
 30
0.0
  0
VERTEX
  5
20D
330
20C
100
AcDbEntity
  8
LINHAS_COTAGENS
 62
     1
420
 16711680
370
    25
100
AcDbVertex
100
AcDb2dVertex
 10
15.27926693889193
 20
23.81441050679807
 30
0.0
  0
VERTEX
  5
20E
330
20C
100
AcDbEntity
  8
LINHAS_COTAGENS
 62
     1
420
 16711680
370
    25
100
AcDbVertex
100
AcDb2dVertex
 10
14.01191882667057
 20
23.81441050679807
 30
0.0
  0
SEQEND
  5
20F
330
20C
100
AcDbEntity
  8
LINHAS_COTAGENS
370
    25
  0
ENDBLK
  5
20B
330
208
100
AcDbEntity
  8
0
100
AcDbBlockEnd
  0
BLOCK
  5
212
330
210
100
AcDbEntity
  8
0
100
AcDbBlockBegin
  2
block 62
 70
     0
 71
     0
 10
0.0
 20
0.0
 30
0.0
  3
block 62
  1

  0
POLYLINE
  5
214
330
210
100
AcDbEntity
  8
LINHAS_COTAGENS
 62
     1
420
 16711680
370
    25
100
AcDb2dPolyline
 66
     1
 10
0.0
 20
0.0
 30
0.0
  0
VERTEX
  5
215
330
214
100
AcDbEntity
  8
LINHAS_COTAGENS
 62
     1
420
 16711680
370
    25
100
AcDbVertex
100
AcDb2dVertex
 10
14.18193440102598
 20
22.11418586128882
 30
0.0
  0
VERTEX
  5
216
330
214
100
AcDbEntity
  8
LINHAS_COTAGENS
 62
     1
420
 16711680
370
    25
100
AcDbVertex
100
AcDb2dVertex
 10
14.18193440102598
 20
23.47437935808725
 30
0.0
  0
SEQEND
  5
217
330
214
100
AcDbEntity
  8
LINHAS_COTAGENS
370
    25
  0
ENDBLK
  5
213
330
210
100
AcDbEntity
  8
0
100
AcDbBlockEnd
  0
BLOCK
  5
21A
330
218
100
AcDbEntity
  8
0
100
AcDbBlockBegin
  2
block 63
 70
     0
 71
     0
 10
0.0
 20
0.0
 30
0.0
  3
block 63
  1

  0
POLYLINE
  5
21C
330
218
100
AcDbEntity
  8
LINHAS_COTAGENS
370
     0
100
AcDb2dPolyline
 66
     1
 10
0.0
 20
0.0
 30
0.0
  0
VERTEX
  5
21D
330
21C
100
AcDbEntity
  8
LINHAS_COTAGENS
370
     0
100
AcDbVertex
100
AcDb2dVertex
 10
14.12526254290751
 20
22.11418586128882
 30
0.0
  0
VERTEX
  5
21E
330
21C
100
AcDbEntity
  8
LINHAS_COTAGENS
370
     0
100
AcDbVertex
100
AcDb2dVertex
 10
14.23860625914445
 20
22.11418586128882
 30
0.0
  0
VERTEX
  5
21F
330
21C
100
AcDbEntity
  8
LINHAS_COTAGENS
370
     0
100
AcDbVertex
100
AcDb2dVertex
 10
14.18193440102598
 20
21.774154712578
 30
0.0
  0
VERTEX
  5
220
330
21C
100
AcDbEntity
  8
LINHAS_COTAGENS
370
     0
100
AcDbVertex
100
AcDb2dVertex
 10
14.12526254290751
 20
22.11418586128882
 30
0.0
  0
SEQEND
  5
221
330
21C
100
AcDbEntity
  8
LINHAS_COTAGENS
370
     0
  0
HATCH
  5
222
330
218
100
AcDbEntity
  8
LINHAS_COTAGENS
 62
     1
420
 16711680
100
AcDbHatch
 10
0.0
 20
0.0
 30
0.0
210
0.0
220
0.0
230
1.0
  2
SOLID
 70
     1
 71
     0
 91
        1
 92
        1
 93
        3
 72
     1
 10
14.12526254290751
 20
22.11418586128882
 11
14.23860625914445
 21
22.11418586128882
 72
     1
 10
14.23860625914445
 20
22.11418586128882
 11
14.18193440102598
 21
21.774154712578
 72
     1
 10
14.18193440102598
 20
21.774154712578
 11
14.12526254290751
 21
22.11418586128882
 97
        0
 75
     2
 76
     1
 98
        0
  0
ENDBLK
  5
21B
330
218
100
AcDbEntity
  8
0
100
AcDbBlockEnd
  0
BLOCK
  5
225
330
223
100
AcDbEntity
  8
0
100
AcDbBlockBegin
  2
block 64
 70
     0
 71
     0
 10
0.0
 20
0.0
 30
0.0
  3
block 64
  1

  0
POLYLINE
  5
227
330
223
100
AcDbEntity
  8
LINHAS_COTAGENS
370
     0
100
AcDb2dPolyline
 66
     1
 10
0.0
 20
0.0
 30
0.0
  0
VERTEX
  5
228
330
227
100
AcDbEntity
  8
LINHAS_COTAGENS
370
     0
100
AcDbVertex
100
AcDb2dVertex
 10
14.12526254290751
 20
23.47437935808725
 30
0.0
  0
VERTEX
  5
229
330
227
100
AcDbEntity
  8
LINHAS_COTAGENS
370
     0
100
AcDbVertex
100
AcDb2dVertex
 10
14.23860625914445
 20
23.47437935808725
 30
0.0
  0
VERTEX
  5
22A
330
227
100
AcDbEntity
  8
LINHAS_COTAGENS
370
     0
100
AcDbVertex
100
AcDb2dVertex
 10
14.18193440102598
 20
23.81441050679807
 30
0.0
  0
VERTEX
  5
22B
330
227
100
AcDbEntity
  8
LINHAS_COTAGENS
370
     0
100
AcDbVertex
100
AcDb2dVertex
 10
14.12526254290751
 20
23.47437935808725
 30
0.0
  0
SEQEND
  5
22C
330
227
100
AcDbEntity
  8
LINHAS_COTAGENS
370
     0
  0
HATCH
  5
22D
330
223
100
AcDbEntity
  8
LINHAS_COTAGENS
 62
     1
420
 16711680
100
AcDbHatch
 10
0.0
 20
0.0
 30
0.0
210
0.0
220
0.0
230
1.0
  2
SOLID
 70
     1
 71
     0
 91
        1
 92
        1
 93
        3
 72
     1
 10
14.12526254290751
 20
23.47437935808725
 11
14.23860625914445
 21
23.47437935808725
 72
     1
 10
14.23860625914445
 20
23.47437935808725
 11
14.18193440102598
 21
23.81441050679807
 72
     1
 10
14.18193440102598
 20
23.81441050679807
 11
14.12526254290751
 21
23.47437935808725
 97
        0
 75
     2
 76
     1
 98
        0
  0
ENDBLK
  5
226
330
223
100
AcDbEntity
  8
0
100
AcDbBlockEnd
  0
BLOCK
  5
230
330
22E
100
AcDbEntity
  8
0
100
AcDbBlockBegin
  2
block 65
 70
     0
 71
     0
 10
0.0
 20
0.0
 30
0.0
  3
block 65
  1

  0
MTEXT
  5
232
330
22E
100
AcDbEntity
  8
LINHAS_COTAGENS
 62
     4
420
    65535
100
AcDbMText
 10
14.09690938835948
 20
22.28421866113301
 30
0.0
 40
0.3400444675125806
 41
0.0
 71
     7
 72
     1
  1
\fMyriad Pro|b0|i0|c0|p34;\W1;155
 11
-4.371139000186241E-8
 21
0.999999999999999
 31
0.0
 73
     1
 44
1.0
  0
ENDBLK
  5
231
330
22E
100
AcDbEntity
  8
0
100
AcDbBlockEnd
  0
BLOCK
  5
235
330
233
100
AcDbEntity
  8
0
100
AcDbBlockBegin
  2
block 66
 70
     0
 71
     0
 10
0.0
 20
0.0
 30
0.0
  3
block 66
  1

  0
POLYLINE
  5
237
330
233
100
AcDbEntity
  8
LINHAS_COTAGENS
370
     0
100
AcDb2dPolyline
 66
     1
 10
0.0
 20
0.0
 30
0.0
  0
VERTEX
  5
238
330
237
100
AcDbEntity
  8
LINHAS_COTAGENS
370
     0
100
AcDbVertex
100
AcDb2dVertex
 10
15.59211626629244
 20
21.774154712578
 30
0.0
  0
VERTEX
  5
239
330
237
100
AcDbEntity
  8
LINHAS_COTAGENS
370
     0
100
AcDbVertex
100
AcDb2dVertex
 10
15.59211626629244
 20
21.774154712578
 30
0.0
  0
SEQEND
  5
23A
330
237
100
AcDbEntity
  8
LINHAS_COTAGENS
370
     0
  0
ENDBLK
  5
236
330
233
100
AcDbEntity
  8
0
100
AcDbBlockEnd
  0
BLOCK
  5
23D
330
23B
100
AcDbEntity
  8
0
100
AcDbBlockBegin
  2
block 67
 70
     0
 71
     0
 10
0.0
 20
0.0
 30
0.0
  3
block 67
  1

  0
POLYLINE
  5
23F
330
23B
100
AcDbEntity
  8
LINHAS_COTAGENS
370
     0
100
AcDb2dPolyline
 66
     1
 10
0.0
 20
0.0
 30
0.0
  0
VERTEX
  5
240
330
23F
100
AcDbEntity
  8
LINHAS_COTAGENS
370
     0
100
AcDbVertex
100
AcDb2dVertex
 10
15.61933253858033
 20
23.81441050679807
 30
0.0
  0
VERTEX
  5
241
330
23F
100
AcDbEntity
  8
LINHAS_COTAGENS
370
     0
100
AcDbVertex
100
AcDb2dVertex
 10
15.61933253858033
 20
23.81441050679807
 30
0.0
  0
SEQEND
  5
242
330
23F
100
AcDbEntity
  8
LINHAS_COTAGENS
370
     0
  0
ENDBLK
  5
23E
330
23B
100
AcDbEntity
  8
0
100
AcDbBlockEnd
  0
BLOCK
  5
245
330
243
100
AcDbEntity
  8
0
100
AcDbBlockBegin
  2
block 68
 70
     0
 71
     0
 10
0.0
 20
0.0
 30
0.0
  3
block 68
  1

  0
POLYLINE
  5
247
330
243
100
AcDbEntity
  8
LINHAS_COTAGENS
370
     0
100
AcDb2dPolyline
 66
     1
 10
0.0
 20
0.0
 30
0.0
  0
VERTEX
  5
248
330
247
100
AcDbEntity
  8
LINHAS_COTAGENS
370
     0
100
AcDbVertex
100
AcDb2dVertex
 10
14.18193440102598
 20
23.81441050679807
 30
0.0
  0
VERTEX
  5
249
330
247
100
AcDbEntity
  8
LINHAS_COTAGENS
370
     0
100
AcDbVertex
100
AcDb2dVertex
 10
14.18193440102598
 20
23.81441050679807
 30
0.0
  0
SEQEND
  5
24A
330
247
100
AcDbEntity
  8
LINHAS_COTAGENS
370
     0
  0
ENDBLK
  5
246
330
243
100
AcDbEntity
  8
0
100
AcDbBlockEnd
  0
BLOCK
  5
24E
330
24C
100
AcDbEntity
  8
0
100
AcDbBlockBegin
  2
block 69
 70
     0
 71
     0
 10
0.0
 20
0.0
 30
0.0
  3
block 69
  1

  0
POLYLINE
  5
250
330
24C
100
AcDbEntity
  8
SOMBREADO
370
     0
100
AcDb2dPolyline
 66
     1
 10
0.0
 20
0.0
 30
0.0
  0
VERTEX
  5
251
330
250
100
AcDbEntity
  8
SOMBREADO
370
     0
100
AcDbVertex
100
AcDb2dVertex
 10
2.711843151157122
 20
23.81439328130928
 30
0.0
  0
VERTEX
  5
252
330
250
100
AcDbEntity
  8
SOMBREADO
370
     0
100
AcDbVertex
100
AcDb2dVertex
 10
1.877009836959056
 20
23.81439328130928
 30
0.0
  0
VERTEX
  5
253
330
250
100
AcDbEntity
  8
SOMBREADO
370
     0
100
AcDbVertex
100
AcDb2dVertex
 10
1.877009836959056
 20
23.25504720932662
 30
0.0
  0
VERTEX
  5
254
330
250
100
AcDbEntity
  8
SOMBREADO
370
     0
100
AcDbVertex
100
AcDb2dVertex
 10
2.013022296443384
 20
23.24283433777465
 30
0.0
  0
VERTEX
  5
255
330
250
100
AcDbEntity
  8
SOMBREADO
370
     0
100
AcDbVertex
100
AcDb2dVertex
 10
2.013022296443384
 20
23.67838082182495
 30
0.0
  0
VERTEX
  5
256
330
250
100
AcDbEntity
  8
SOMBREADO
370
     0
100
AcDbVertex
100
AcDb2dVertex
 10
2.711843151157122
 20
23.67838082182495
 30
0.0
  0
VERTEX
  5
257
330
250
100
AcDbEntity
  8
SOMBREADO
370
     0
100
AcDbVertex
100
AcDb2dVertex
 10
2.711843151157122
 20
23.81439328130928
 30
0.0
  0
SEQEND
  5
258
330
250
100
AcDbEntity
  8
SOMBREADO
370
     0
  0
POLYLINE
  5
259
330
24C
100
AcDbEntity
  8
SOMBREADO
370
     0
100
AcDb2dPolyline
 66
     1
 10
0.0
 20
0.0
 30
0.0
  0
VERTEX
  5
25A
330
259
100
AcDbEntity
  8
SOMBREADO
370
     0
100
AcDbVertex
100
AcDb2dVertex
 10
3.74976497818703
 20
23.76099426606087
 30
0.0
  0
VERTEX
  5
25B
330
259
100
AcDbEntity
  8
SOMBREADO
370
     0
100
AcDbVertex
100
AcDb2dVertex
 10
3.683360718902319
 20
23.81439328130928
 30
0.0
  0
VERTEX
  5
25C
330
259
100
AcDbEntity
  8
SOMBREADO
370
     0
100
AcDbVertex
100
AcDb2dVertex
 10
3.187903984841058
 20
23.81439328130928
 30
0.0
  0
VERTEX
  5
25D
330
259
100
AcDbEntity
  8
SOMBREADO
370
     0
100
AcDbVertex
100
AcDb2dVertex
 10
3.187903984841058
 20
23.67838082182495
 30
0.0
  0
VERTEX
  5
25E
330
259
100
AcDbEntity
  8
SOMBREADO
370
     0
100
AcDbVertex
100
AcDb2dVertex
 10
3.436553915521944
 20
23.67838082182495
 30
0.0
  0
VERTEX
  5
25F
330
259
100
AcDbEntity
  8
SOMBREADO
370
     0
100
AcDbVertex
100
AcDb2dVertex
 10
3.693058669090981
 20
22.08255986387073
 30
0.0
  0
VERTEX
  5
260
330
259
100
AcDbEntity
  8
SOMBREADO
370
     0
100
AcDbVertex
100
AcDb2dVertex
 10
4.204982970435298
 20
21.60117635415074
 30
0.0
  0
VERTEX
  5
261
330
259
100
AcDbEntity
  8
SOMBREADO
370
     0
100
AcDbVertex
100
AcDb2dVertex
 10
5.20652456514113
 20
21.54912092702794
 30
0.0
  0
VERTEX
  5
262
330
259
100
AcDbEntity
  8
SOMBREADO
370
     0
100
AcDbVertex
100
AcDb2dVertex
 10
5.533412665905325
 20
21.43276275025278
 30
0.0
  0
VERTEX
  5
263
330
259
100
AcDbEntity
  8
SOMBREADO
370
     0
100
AcDbVertex
100
AcDb2dVertex
 10
5.555323487645961
 20
21.40924995805469
 30
0.0
  0
VERTEX
  5
264
330
259
100
AcDbEntity
  8
SOMBREADO
370
     0
100
AcDbVertex
100
AcDb2dVertex
 10
5.555323487645961
 20
21.25728669595101
 30
0.0
  0
VERTEX
  5
265
330
259
100
AcDbEntity
  8
SOMBREADO
370
     0
100
AcDbVertex
100
AcDb2dVertex
 10
5.656798842106723
 20
21.25728669595101
 30
0.0
  0
VERTEX
  5
266
330
259
100
AcDbEntity
  8
SOMBREADO
370
     0
100
AcDbVertex
100
AcDb2dVertex
 10
5.656798842106723
 20
21.38892388128272
 30
0.0
  0
VERTEX
  5
267
330
259
100
AcDbEntity
  8
SOMBREADO
370
     0
100
AcDbVertex
100
AcDb2dVertex
 10
5.636610569245067
 20
21.38892388128272
 30
0.0
  0
VERTEX
  5
268
330
259
100
AcDbEntity
  8
SOMBREADO
370
     0
100
AcDbVertex
100
AcDb2dVertex
 10
5.636610569245067
 20
21.49637648035355
 30
0.0
  0
VERTEX
  5
269
330
259
100
AcDbEntity
  8
SOMBREADO
370
     0
100
AcDbVertex
100
AcDb2dVertex
 10
5.229503367186735
 20
21.64182850769469
 30
0.0
  0
VERTEX
  5
26A
330
259
100
AcDbEntity
  8
SOMBREADO
370
     0
100
AcDbVertex
100
AcDb2dVertex
 10
4.263825240141284
 20
21.69204080751698
 30
0.0
  0
VERTEX
  5
26B
330
259
100
AcDbEntity
  8
SOMBREADO
370
     0
100
AcDbVertex
100
AcDb2dVertex
 10
3.785904053668048
 20
22.09702927445417
 30
0.0
  0
VERTEX
  5
26C
330
259
100
AcDbEntity
  8
SOMBREADO
370
     0
100
AcDbVertex
100
AcDb2dVertex
 10
3.532586015525125
 20
23.67838082182495
 30
0.0
  0
VERTEX
  5
26D
330
259
100
AcDbEntity
  8
SOMBREADO
370
     0
100
AcDbVertex
100
AcDb2dVertex
 10
3.671940219834676
 20
23.67838082182495
 30
0.0
  0
VERTEX
  5
26E
330
259
100
AcDbEntity
  8
SOMBREADO
370
     0
100
AcDbVertex
100
AcDb2dVertex
 10
3.702618815369325
 20
23.48471465136113
 30
0.0
  0
VERTEX
  5
26F
330
259
100
AcDbEntity
  8
SOMBREADO
370
     0
100
AcDbVertex
100
AcDb2dVertex
 10
3.79200187669964
 20
23.49866729728088
 30
0.0
  0
VERTEX
  5
270
330
259
100
AcDbEntity
  8
SOMBREADO
370
     0
100
AcDbVertex
100
AcDb2dVertex
 10
3.74976497818703
 20
23.76099426606087
 30
0.0
  0
SEQEND
  5
271
330
259
100
AcDbEntity
  8
SOMBREADO
370
     0
  0
POLYLINE
  5
272
330
24C
100
AcDbEntity
  8
SOMBREADO
370
     0
100
AcDb2dPolyline
 66
     1
 10
0.0
 20
0.0
 30
0.0
  0
VERTEX
  5
273
330
272
100
AcDbEntity
  8
SOMBREADO
370
     0
100
AcDbVertex
100
AcDb2dVertex
 10
5.472313857167874
 20
21.82088746366475
 30
0.0
  0
VERTEX
  5
274
330
272
100
AcDbEntity
  8
SOMBREADO
370
     0
100
AcDbVertex
100
AcDb2dVertex
 10
5.636231608491691
 20
21.69071444488016
 30
0.0
  0
VERTEX
  5
275
330
272
100
AcDbEntity
  8
SOMBREADO
370
     0
100
AcDbVertex
100
AcDb2dVertex
 10
5.662000939721245
 20
21.63745323354208
 30
0.0
  0
VERTEX
  5
276
330
272
100
AcDbEntity
  8
SOMBREADO
370
     0
100
AcDbVertex
100
AcDb2dVertex
 10
5.662000939721245
 20
21.62229480340705
 30
0.0
  0
VERTEX
  5
277
330
272
100
AcDbEntity
  8
SOMBREADO
370
     0
100
AcDbVertex
100
AcDb2dVertex
 10
5.591066376884814
 20
21.62229480340705
 30
0.0
  0
VERTEX
  5
278
330
272
100
AcDbEntity
  8
SOMBREADO
370
     0
100
AcDbVertex
100
AcDb2dVertex
 10
5.436450389507494
 20
21.74518144043354
 30
0.0
  0
VERTEX
  5
279
330
272
100
AcDbEntity
  8
SOMBREADO
370
     0
100
AcDbVertex
100
AcDb2dVertex
 10
5.391939726474628
 20
21.76257918411125
 30
0.0
  0
VERTEX
  5
27A
330
272
100
AcDbEntity
  8
SOMBREADO
370
     0
100
AcDbVertex
100
AcDb2dVertex
 10
5.241320052496543
 20
21.77412026160042
 30
0.0
  0
VERTEX
  5
27B
330
272
100
AcDbEntity
  8
SOMBREADO
370
     0
100
AcDbVertex
100
AcDb2dVertex
 10
4.280964601487143
 20
21.82407417909086
 30
0.0
  0
VERTEX
  5
27C
330
272
100
AcDbEntity
  8
SOMBREADO
370
     0
100
AcDbVertex
100
AcDb2dVertex
 10
3.917541238999764
 20
22.13197979120869
 30
0.0
  0
VERTEX
  5
27D
330
272
100
AcDbEntity
  8
SOMBREADO
370
     0
100
AcDbVertex
100
AcDb2dVertex
 10
3.732901224661808
 20
23.29409739241311
 30
0.0
  0
VERTEX
  5
27E
330
272
100
AcDbEntity
  8
SOMBREADO
370
     0
100
AcDbVertex
100
AcDb2dVertex
 10
3.822697697723079
 20
23.30818784224318
 30
0.0
  0
VERTEX
  5
27F
330
272
100
AcDbEntity
  8
SOMBREADO
370
     0
100
AcDbVertex
100
AcDb2dVertex
 10
4.009060260940017
 20
22.15216806407035
 30
0.0
  0
VERTEX
  5
280
330
272
100
AcDbEntity
  8
SOMBREADO
370
     0
100
AcDbVertex
100
AcDb2dVertex
 10
4.28573606188192
 20
21.91771193615226
 30
0.0
  0
VERTEX
  5
281
330
272
100
AcDbEntity
  8
SOMBREADO
370
     0
100
AcDbVertex
100
AcDb2dVertex
 10
5.281300411977688
 20
21.86605269527163
 30
0.0
  0
VERTEX
  5
282
330
272
100
AcDbEntity
  8
SOMBREADO
370
     0
100
AcDbVertex
100
AcDb2dVertex
 10
5.372423247675775
 20
21.85900747035659
 30
0.0
  0
VERTEX
  5
283
330
272
100
AcDbEntity
  8
SOMBREADO
370
     0
100
AcDbVertex
100
AcDb2dVertex
 10
5.472313857167874
 20
21.82088746366475
 30
0.0
  0
SEQEND
  5
284
330
272
100
AcDbEntity
  8
SOMBREADO
370
     0
  0
SPLINE
  5
285
330
24C
100
AcDbEntity
  8
SOMBREADO
370
     0
100
AcDbSpline
210
0.0
220
0.0
230
1.0
 70
    11
 71
     3
 72
    89
 73
    85
 74
     0
 42
0.0000000001
 43
0.0000000001
 40
0.0
 40
0.0
 40
0.0
 40
0.0
 40
1.0
 40
1.0
 40
1.0
 40
2.0
 40
2.0
 40
2.0
 40
3.0
 40
3.0
 40
3.0
 40
4.0
 40
4.0
 40
4.0
 40
5.0
 40
5.0
 40
5.0
 40
6.0
 40
6.0
 40
6.0
 40
7.0
 40
7.0
 40
7.0
 40
8.0
 40
8.0
 40
8.0
 40
9.0
 40
9.0
 40
9.0
 40
10.0
 40
10.0
 40
10.0
 40
11.0
 40
11.0
 40
11.0
 40
12.0
 40
12.0
 40
12.0
 40
13.0
 40
13.0
 40
13.0
 40
14.0
 40
14.0
 40
14.0
 40
15.0
 40
15.0
 40
15.0
 40
16.0
 40
16.0
 40
16.0
 40
17.0
 40
17.0
 40
17.0
 40
18.0
 40
18.0
 40
18.0
 40
19.0
 40
19.0
 40
19.0
 40
20.0
 40
20.0
 40
20.0
 40
21.0
 40
21.0
 40
21.0
 40
22.0
 40
22.0
 40
22.0
 40
23.0
 40
23.0
 40
23.0
 40
24.0
 40
24.0
 40
24.0
 40
25.0
 40
25.0
 40
25.0
 40
26.0
 40
26.0
 40
26.0
 40
27.0
 40
27.0
 40
27.0
 40
28.0
 40
28.0
 40
28.0
 40
28.0
 10
6.774698613587711
 20
21.77412026160042
 30
0.0
 10
6.75411415448389
 20
21.80481608262386
 30
0.0
 10
6.733529695380069
 20
21.83535687424819
 30
0.0
 10
6.713599804850261
 20
21.86617327369315
 30
0.0
 10
6.713599804850261
 20
21.86617327369315
 30
0.0
 10
6.713599804850261
 20
21.86617327369315
 30
0.0
 10
6.713599804850261
 20
21.86617327369315
 30
0.0
 10
6.713599804850261
 20
21.86617327369315
 30
0.0
 10
6.572936463392685
 20
21.85900747035659
 30
0.0
 10
6.572936463392685
 20
21.85900747035659
 30
0.0
 10
6.572936463392685
 20
21.85900747035659
 30
0.0
 10
6.572936463392685
 20
21.85900747035659
 30
0.0
 10
6.572936463392685
 20
21.85900747035659
 30
0.0
 10
6.542120063947717
 20
21.85900747035659
 30
0.0
 10
6.496162459856508
 20
21.84147192276857
 30
0.0
 10
6.473183657810904
 20
21.82088746366475
 30
0.0
 10
6.473183657810904
 20
21.82088746366475
 30
0.0
 10
6.473183657810904
 20
21.82088746366475
 30
0.0
 10
6.473183657810904
 20
21.82088746366475
 30
0.0
 10
6.473183657810904
 20
21.82088746366475
 30
0.0
 10
6.309265906487087
 20
21.69071444488016
 30
0.0
 10
6.309265906487087
 20
21.69071444488016
 30
0.0
 10
6.309265906487087
 20
21.69071444488016
 30
0.0
 10
6.309265906487087
 20
21.69071444488016
 30
0.0
 10
6.309265906487087
 20
21.69071444488016
 30
0.0
 10
6.294004123419317
 20
21.67994851438653
 30
0.0
 10
6.282428594952566
 20
21.65603953594628
 30
0.0
 10
6.283496575257534
 20
21.63745323354208
 30
0.0
 10
6.283496575257534
 20
21.63745323354208
 30
0.0
 10
6.283496575257534
 20
21.63745323354208
 30
0.0
 10
6.283496575257534
 20
21.63745323354208
 30
0.0
 10
6.283496575257534
 20
21.63745323354208
 30
0.0
 10
6.283496575257534
 20
21.62229480340705
 30
0.0
 10
6.283496575257534
 20
21.62229480340705
 30
0.0
 10
6.283496575257534
 20
21.62229480340705
 30
0.0
 10
6.283496575257534
 20
21.62229480340705
 30
0.0
 10
6.283496575257534
 20
21.62229480340705
 30
0.0
 10
6.283496575257534
 20
21.62229480340705
 30
0.0
 10
6.306079191060973
 20
21.62229480340705
 30
0.0
 10
6.306079191060973
 20
21.62229480340705
 30
0.0
 10
6.306079191060973
 20
21.62229480340705
 30
0.0
 10
6.306079191060973
 20
21.62229480340705
 30
0.0
 10
6.306079191060973
 20
21.62229480340705
 30
0.0
 10
6.306079191060973
 20
21.62229480340705
 30
0.0
 10
6.298103789751291
 20
21.38892388128272
 30
0.0
 10
6.298103789751291
 20
21.38892388128272
 30
0.0
 10
6.298103789751291
 20
21.38892388128272
 30
0.0
 10
6.298103789751291
 20
21.38892388128272
 30
0.0
 10
6.298103789751291
 20
21.38892388128272
 30
0.0
 10
6.298103789751291
 20
21.38892388128272
 30
0.0
 10
6.283496575257534
 20
21.38892388128272
 30
0.0
 10
6.283496575257534
 20
21.38892388128272
 30
0.0
 10
6.283496575257534
 20
21.38892388128272
 30
0.0
 10
6.283496575257534
 20
21.38892388128272
 30
0.0
 10
6.283496575257534
 20
21.38892388128272
 30
0.0
 10
6.283496575257534
 20
21.38892388128272
 30
0.0
 10
6.278328928620591
 20
21.38892388128272
 30
0.0
 10
6.278328928620591
 20
21.38892388128272
 30
0.0
 10
6.278328928620591
 20
21.38892388128272
 30
0.0
 10
6.278328928620591
 20
21.38892388128272
 30
0.0
 10
6.278328928620591
 20
21.38892388128272
 30
0.0
 10
6.278328928620591
 20
21.38892388128272
 30
0.0
 10
6.278328928620591
 20
21.25728669595101
 30
0.0
 10
6.278328928620591
 20
21.25728669595101
 30
0.0
 10
6.278328928620591
 20
21.25728669595101
 30
0.0
 10
6.278328928620591
 20
21.25728669595101
 30
0.0
 10
6.278328928620591
 20
21.25728669595101
 30
0.0
 10
6.278328928620591
 20
21.25728669595101
 30
0.0
 10
6.377685547960206
 20
21.25728669595101
 30
0.0
 10
6.377685547960206
 20
21.25728669595101
 30
0.0
 10
6.377685547960206
 20
21.25728669595101
 30
0.0
 10
6.377685547960206
 20
21.25728669595101
 30
0.0
 10
6.377685547960206
 20
21.25728669595101
 30
0.0
 10
6.377685547960206
 20
21.25728669595101
 30
0.0
 10
6.404247251674091
 20
21.59308037441953
 30
0.0
 10
6.404247251674091
 20
21.59308037441953
 30
0.0
 10
6.404247251674091
 20
21.59308037441953
 30
0.0
 10
6.404247251674091
 20
21.59308037441953
 30
0.0
 10
6.404247251674091
 20
21.59308037441953
 30
0.0
 10
6.405573614310906
 20
21.6747636422608
 30
0.0
 10
6.471185501111286
 20
21.75021128316016
 30
0.0
 10
6.551938592557908
 20
21.76269976253278
 30
0.0
 10
6.551938592557908
 20
21.76269976253278
 30
0.0
 10
6.774698613587711
 20
21.77412026160042
 30
0.0
 10
6.774698613587711
 20
21.77412026160042
 30
0.0
  0
HATCH
  5
286
330
24C
100
AcDbEntity
  8
SOMBREADO
 62
     8
420
  8421504
100
AcDbHatch
 10
0.0
 20
0.0
 30
0.0
210
0.0
220
0.0
230
1.0
  2
SOLID
 70
     1
 71
     0
 91
        4
 92
        1
 93
        6
 72
     1
 10
2.711843151157122
 20
23.81439328130928
 11
1.877009836959056
 21
23.81439328130928
 72
     1
 10
1.877009836959056
 20
23.81439328130928
 11
1.877009836959056
 21
23.25504720932662
 72
     1
 10
1.877009836959056
 20
23.25504720932662
 11
2.013022296443384
 21
23.24283433777465
 72
     1
 10
2.013022296443384
 20
23.24283433777465
 11
2.013022296443384
 21
23.67838082182495
 72
     1
 10
2.013022296443384
 20
23.67838082182495
 11
2.711843151157122
 21
23.67838082182495
 72
     1
 10
2.711843151157122
 20
23.67838082182495
 11
2.711843151157122
 21
23.81439328130928
 97
        0
 92
        1
 93
       22
 72
     1
 10
3.74976497818703
 20
23.76099426606087
 11
3.683360718902319
 21
23.81439328130928
 72
     1
 10
3.683360718902319
 20
23.81439328130928
 11
3.187903984841058
 21
23.81439328130928
 72
     1
 10
3.187903984841058
 20
23.81439328130928
 11
3.187903984841058
 21
23.67838082182495
 72
     1
 10
3.187903984841058
 20
23.67838082182495
 11
3.436553915521944
 21
23.67838082182495
 72
     1
 10
3.436553915521944
 20
23.67838082182495
 11
3.693058669090981
 21
22.08255986387073
 72
     1
 10
3.693058669090981
 20
22.08255986387073
 11
4.204982970435298
 21
21.60117635415074
 72
     1
 10
4.204982970435298
 20
21.60117635415074
 11
5.20652456514113
 21
21.54912092702794
 72
     1
 10
5.20652456514113
 20
21.54912092702794
 11
5.533412665905325
 21
21.43276275025278
 72
     1
 10
5.533412665905325
 20
21.43276275025278
 11
5.555323487645961
 21
21.40924995805469
 72
     1
 10
5.555323487645961
 20
21.40924995805469
 11
5.555323487645961
 21
21.25728669595101
 72
     1
 10
5.555323487645961
 20
21.25728669595101
 11
5.656798842106723
 21
21.25728669595101
 72
     1
 10
5.656798842106723
 20
21.25728669595101
 11
5.656798842106723
 21
21.38892388128272
 72
     1
 10
5.656798842106723
 20
21.38892388128272
 11
5.636610569245067
 21
21.38892388128272
 72
     1
 10
5.636610569245067
 20
21.38892388128272
 11
5.636610569245067
 21
21.49637648035355
 72
     1
 10
5.636610569245067
 20
21.49637648035355
 11
5.229503367186735
 21
21.64182850769469
 72
     1
 10
5.229503367186735
 20
21.64182850769469
 11
4.263825240141284
 21
21.69204080751698
 72
     1
 10
4.263825240141284
 20
21.69204080751698
 11
3.785904053668048
 21
22.09702927445417
 72
     1
 10
3.785904053668048
 20
22.09702927445417
 11
3.532586015525125
 21
23.67838082182495
 72
     1
 10
3.532586015525125
 20
23.67838082182495
 11
3.671940219834676
 21
23.67838082182495
 72
     1
 10
3.671940219834676
 20
23.67838082182495
 11
3.702618815369325
 21
23.48471465136113
 72
     1
 10
3.702618815369325
 20
23.48471465136113
 11
3.79200187669964
 21
23.49866729728088
 72
     1
 10
3.79200187669964
 20
23.49866729728088
 11
3.74976497818703
 21
23.76099426606087
 97
        0
 92
        1
 93
       16
 72
     1
 10
5.472313857167874
 20
21.82088746366475
 11
5.636231608491691
 21
21.69071444488016
 72
     1
 10
5.636231608491691
 20
21.69071444488016
 11
5.662000939721245
 21
21.63745323354208
 72
     1
 10
5.662000939721245
 20
21.63745323354208
 11
5.662000939721245
 21
21.62229480340705
 72
     1
 10
5.662000939721245
 20
21.62229480340705
 11
5.591066376884814
 21
21.62229480340705
 72
     1
 10
5.591066376884814
 20
21.62229480340705
 11
5.436450389507494
 21
21.74518144043354
 72
     1
 10
5.436450389507494
 20
21.74518144043354
 11
5.391939726474628
 21
21.76257918411125
 72
     1
 10
5.391939726474628
 20
21.76257918411125
 11
5.241320052496543
 21
21.77412026160042
 72
     1
 10
5.241320052496543
 20
21.77412026160042
 11
4.280964601487143
 21
21.82407417909086
 72
     1
 10
4.280964601487143
 20
21.82407417909086
 11
3.917541238999764
 21
22.13197979120869
 72
     1
 10
3.917541238999764
 20
22.13197979120869
 11
3.732901224661808
 21
23.29409739241311
 72
     1
 10
3.732901224661808
 20
23.29409739241311
 11
3.822697697723079
 21
23.30818784224318
 72
     1
 10
3.822697697723079
 20
23.30818784224318
 11
4.009060260940017
 21
22.15216806407035
 72
     1
 10
4.009060260940017
 20
22.15216806407035
 11
4.28573606188192
 21
21.91771193615226
 72
     1
 10
4.28573606188192
 20
21.91771193615226
 11
5.281300411977688
 21
21.86605269527163
 72
     1
 10
5.281300411977688
 20
21.86605269527163
 11
5.372423247675775
 21
21.85900747035659
 72
     1
 10
5.372423247675775
 20
21.85900747035659
 11
5.472313857167874
 21
21.82088746366475
 97
        0
 92
        1
 93
        1
 72
     4
 94
        3
 73
     0
 74
     1
 95
       89
 96
       85
 40
0.0
 40
0.0
 40
0.0
 40
0.0
 40
1.0
 40
1.0
 40
1.0
 40
2.0
 40
2.0
 40
2.0
 40
3.0
 40
3.0
 40
3.0
 40
4.0
 40
4.0
 40
4.0
 40
5.0
 40
5.0
 40
5.0
 40
6.0
 40
6.0
 40
6.0
 40
7.0
 40
7.0
 40
7.0
 40
8.0
 40
8.0
 40
8.0
 40
9.0
 40
9.0
 40
9.0
 40
10.0
 40
10.0
 40
10.0
 40
11.0
 40
11.0
 40
11.0
 40
12.0
 40
12.0
 40
12.0
 40
13.0
 40
13.0
 40
13.0
 40
14.0
 40
14.0
 40
14.0
 40
15.0
 40
15.0
 40
15.0
 40
16.0
 40
16.0
 40
16.0
 40
17.0
 40
17.0
 40
17.0
 40
18.0
 40
18.0
 40
18.0
 40
19.0
 40
19.0
 40
19.0
 40
20.0
 40
20.0
 40
20.0
 40
21.0
 40
21.0
 40
21.0
 40
22.0
 40
22.0
 40
22.0
 40
23.0
 40
23.0
 40
23.0
 40
24.0
 40
24.0
 40
24.0
 40
25.0
 40
25.0
 40
25.0
 40
26.0
 40
26.0
 40
26.0
 40
27.0
 40
27.0
 40
27.0
 40
28.0
 40
28.0
 40
28.0
 40
28.0
 10
6.774698613587711
 20
21.77412026160042
 10
6.75411415448389
 20
21.80481608262386
 10
6.733529695380069
 20
21.83535687424819
 10
6.713599804850261
 20
21.86617327369315
 10
6.713599804850261
 20
21.86617327369315
 10
6.713599804850261
 20
21.86617327369315
 10
6.713599804850261
 20
21.86617327369315
 10
6.713599804850261
 20
21.86617327369315
 10
6.572936463392685
 20
21.85900747035659
 10
6.572936463392685
 20
21.85900747035659
 10
6.572936463392685
 20
21.85900747035659
 10
6.572936463392685
 20
21.85900747035659
 10
6.572936463392685
 20
21.85900747035659
 10
6.542120063947717
 20
21.85900747035659
 10
6.496162459856508
 20
21.84147192276857
 10
6.473183657810904
 20
21.82088746366475
 10
6.473183657810904
 20
21.82088746366475
 10
6.473183657810904
 20
21.82088746366475
 10
6.473183657810904
 20
21.82088746366475
 10
6.473183657810904
 20
21.82088746366475
 10
6.309265906487087
 20
21.69071444488016
 10
6.309265906487087
 20
21.69071444488016
 10
6.309265906487087
 20
21.69071444488016
 10
6.309265906487087
 20
21.69071444488016
 10
6.309265906487087
 20
21.69071444488016
 10
6.294004123419317
 20
21.67994851438653
 10
6.282428594952566
 20
21.65603953594628
 10
6.283496575257534
 20
21.63745323354208
 10
6.283496575257534
 20
21.63745323354208
 10
6.283496575257534
 20
21.63745323354208
 10
6.283496575257534
 20
21.63745323354208
 10
6.283496575257534
 20
21.63745323354208
 10
6.283496575257534
 20
21.62229480340705
 10
6.283496575257534
 20
21.62229480340705
 10
6.283496575257534
 20
21.62229480340705
 10
6.283496575257534
 20
21.62229480340705
 10
6.283496575257534
 20
21.62229480340705
 10
6.283496575257534
 20
21.62229480340705
 10
6.306079191060973
 20
21.62229480340705
 10
6.306079191060973
 20
21.62229480340705
 10
6.306079191060973
 20
21.62229480340705
 10
6.306079191060973
 20
21.62229480340705
 10
6.306079191060973
 20
21.62229480340705
 10
6.306079191060973
 20
21.62229480340705
 10
6.298103789751291
 20
21.38892388128272
 10
6.298103789751291
 20
21.38892388128272
 10
6.298103789751291
 20
21.38892388128272
 10
6.298103789751291
 20
21.38892388128272
 10
6.298103789751291
 20
21.38892388128272
 10
6.298103789751291
 20
21.38892388128272
 10
6.283496575257534
 20
21.38892388128272
 10
6.283496575257534
 20
21.38892388128272
 10
6.283496575257534
 20
21.38892388128272
 10
6.283496575257534
 20
21.38892388128272
 10
6.283496575257534
 20
21.38892388128272
 10
6.283496575257534
 20
21.38892388128272
 10
6.278328928620591
 20
21.38892388128272
 10
6.278328928620591
 20
21.38892388128272
 10
6.278328928620591
 20
21.38892388128272
 10
6.278328928620591
 20
21.38892388128272
 10
6.278328928620591
 20
21.38892388128272
 10
6.278328928620591
 20
21.38892388128272
 10
6.278328928620591
 20
21.25728669595101
 10
6.278328928620591
 20
21.25728669595101
 10
6.278328928620591
 20
21.25728669595101
 10
6.278328928620591
 20
21.25728669595101
 10
6.278328928620591
 20
21.25728669595101
 10
6.278328928620591
 20
21.25728669595101
 10
6.377685547960206
 20
21.25728669595101
 10
6.377685547960206
 20
21.25728669595101
 10
6.377685547960206
 20
21.25728669595101
 10
6.377685547960206
 20
21.25728669595101
 10
6.377685547960206
 20
21.25728669595101
 10
6.377685547960206
 20
21.25728669595101
 10
6.404247251674091
 20
21.59308037441953
 10
6.404247251674091
 20
21.59308037441953
 10
6.404247251674091
 20
21.59308037441953
 10
6.404247251674091
 20
21.59308037441953
 10
6.404247251674091
 20
21.59308037441953
 10
6.405573614310906
 20
21.6747636422608
 10
6.471185501111286
 20
21.75021128316016
 10
6.551938592557908
 20
21.76269976253278
 10
6.551938592557908
 20
21.76269976253278
 10
6.774698613587711
 20
21.77412026160042
 10
6.774698613587711
 20
21.77412026160042
 97
        0
 75
     0
 76
     1
 98
        0
  0
ENDBLK
  5
24F
330
24C
100
AcDbEntity
  8
0
100
AcDbBlockEnd
  0
BLOCK
  5
28A
330
288
100
AcDbEntity
  8
0
100
AcDbBlockBegin
  2
block 70
 70
     0
 71
     0
 10
0.0
 20
0.0
 30
0.0
  3
block 70
  1

  0
POLYLINE
  5
28C
330
288
100
AcDbEntity
  8
018
 62
     2
420
 16776960
370
    25
100
AcDb2dPolyline
 66
     1
 10
0.0
 20
0.0
 30
0.0
  0
VERTEX
  5
28D
330
28C
100
AcDbEntity
  8
018
 62
     2
420
 16776960
370
    25
100
AcDbVertex
100
AcDb2dVertex
 10
1.876975385981477
 20
23.25509888579299
 30
0.0
  0
VERTEX
  5
28E
330
28C
100
AcDbEntity
  8
018
 62
     2
420
 16776960
370
    25
100
AcDbVertex
100
AcDb2dVertex
 10
1.876975385981477
 20
23.81441050679807
 30
0.0
  0
SEQEND
  5
28F
330
28C
100
AcDbEntity
  8
018
370
    25
  0
ENDBLK
  5
28B
330
288
100
AcDbEntity
  8
0
100
AcDbBlockEnd
  0
BLOCK
  5
292
330
290
100
AcDbEntity
  8
0
100
AcDbBlockBegin
  2
block 71
 70
     0
 71
     0
 10
0.0
 20
0.0
 30
0.0
  3
block 71
  1

  0
POLYLINE
  5
294
330
290
100
AcDbEntity
  8
018
 62
     2
420
 16776960
370
    25
100
AcDb2dPolyline
 66
     1
 10
0.0
 20
0.0
 30
0.0
  0
VERTEX
  5
295
330
294
100
AcDbEntity
  8
018
 62
     2
420
 16776960
370
    25
100
AcDbVertex
100
AcDb2dVertex
 10
2.012987845465804
 20
23.24288601424102
 30
0.0
  0
VERTEX
  5
296
330
294
100
AcDbEntity
  8
018
 62
     2
420
 16776960
370
    25
100
AcDbVertex
100
AcDb2dVertex
 10
2.012987845465804
 20
23.67839804731374
 30
0.0
  0
SEQEND
  5
297
330
294
100
AcDbEntity
  8
018
370
    25
  0
ENDBLK
  5
293
330
290
100
AcDbEntity
  8
0
100
AcDbBlockEnd
  0
BLOCK
  5
29A
330
298
100
AcDbEntity
  8
0
100
AcDbBlockBegin
  2
block 72
 70
     0
 71
     0
 10
0.0
 20
0.0
 30
0.0
  3
block 72
  1

  0
POLYLINE
  5
29C
330
298
100
AcDbEntity
  8
018
370
     0
100
AcDb2dPolyline
 66
     1
 10
0.0
 20
0.0
 30
0.0
  0
VERTEX
  5
29D
330
29C
100
AcDbEntity
  8
018
370
     0
100
AcDbVertex
100
AcDb2dVertex
 10
0.9310548945779361
 20
10.69647732282977
 30
0.0
  0
VERTEX
  5
29E
330
29C
100
AcDbEntity
  8
018
370
     0
100
AcDbVertex
100
AcDb2dVertex
 10
1.011205093916915
 20
10.616309898002
 30
0.0
  0
VERTEX
  5
29F
330
29C
100
AcDbEntity
  8
018
370
     0
100
AcDbVertex
100
AcDb2dVertex
 10
0.7306880089748843
 20
10.41594301239895
 30
0.0
  0
VERTEX
  5
2A0
330
29C
100
AcDbEntity
  8
018
370
     0
100
AcDbVertex
100
AcDb2dVertex
 10
0.9310548945779361
 20
10.69647732282977
 30
0.0
  0
SEQEND
  5
2A1
330
29C
100
AcDbEntity
  8
018
370
     0
  0
HATCH
  5
2A2
330
298
100
AcDbEntity
  8
018
 62
     1
420
 16711680
100
AcDbHatch
 10
0.0
 20
0.0
 30
0.0
210
0.0
220
0.0
230
1.0
  2
SOLID
 70
     1
 71
     0
 91
        1
 92
        1
 93
        3
 72
     1
 10
0.9310548945779361
 20
10.69647732282977
 11
1.011205093916915
 21
10.616309898002
 72
     1
 10
1.011205093916915
 20
10.616309898002
 11
0.7306880089748843
 21
10.41594301239895
 72
     1
 10
0.7306880089748843
 20
10.41594301239895
 11
0.9310548945779361
 21
10.69647732282977
 97
        0
 75
     2
 76
     1
 98
        0
  0
ENDBLK
  5
29B
330
298
100
AcDbEntity
  8
0
100
AcDbBlockEnd
  0
BLOCK
  5
2A5
330
2A3
100
AcDbEntity
  8
0
100
AcDbBlockBegin
  2
block 73
 70
     0
 71
     0
 10
0.0
 20
0.0
 30
0.0
  3
block 73
  1

  0
POLYLINE
  5
2A7
330
2A3
100
AcDbEntity
  8
018
 62
     1
420
 16711680
370
    25
100
AcDb2dPolyline
 66
     1
 10
0.0
 20
0.0
 30
0.0
  0
VERTEX
  5
2A8
330
2A7
100
AcDbEntity
  8
018
 62
     1
420
 16711680
370
    25
100
AcDbVertex
100
AcDb2dVertex
 10
1.641399601292057
 20
9.505231420081776
 30
0.0
  0
VERTEX
  5
2A9
330
2A7
100
AcDbEntity
  8
018
 62
     1
420
 16711680
370
    25
100
AcDbVertex
100
AcDb2dVertex
 10
0.6825944442737392
 20
10.46403657710009
 30
0.0
  0
SEQEND
  5
2AA
330
2A7
100
AcDbEntity
  8
018
370
    25
  0
ENDBLK
  5
2A6
330
2A3
100
AcDbEntity
  8
0
100
AcDbBlockEnd
  0
BLOCK
  5
2AD
330
2AB
100
AcDbEntity
  8
0
100
AcDbBlockBegin
  2
block 74
 70
     0
 71
     0
 10
0.0
 20
0.0
 30
0.0
  3
block 74
  1

  0
POLYLINE
  5
2AF
330
2AB
100
AcDbEntity
  8
018
370
     0
100
AcDb2dPolyline
 66
     1
 10
0.0
 20
0.0
 30
0.0
  0
VERTEX
  5
2B0
330
2AF
100
AcDbEntity
  8
018
370
     0
100
AcDbVertex
100
AcDb2dVertex
 10
1.519322562238684
 20
11.28472776500173
 30
0.0
  0
VERTEX
  5
2B1
330
2AF
100
AcDbEntity
  8
018
370
     0
100
AcDbVertex
100
AcDb2dVertex
 10
1.599472761577663
 20
11.20456034017396
 30
0.0
  0
VERTEX
  5
2B2
330
2AF
100
AcDbEntity
  8
018
370
     0
100
AcDbVertex
100
AcDb2dVertex
 10
1.799839647180715
 20
11.48509465060478
 30
0.0
  0
VERTEX
  5
2B3
330
2AF
100
AcDbEntity
  8
018
370
     0
100
AcDbVertex
100
AcDb2dVertex
 10
1.519322562238684
 20
11.28472776500173
 30
0.0
  0
SEQEND
  5
2B4
330
2AF
100
AcDbEntity
  8
018
370
     0
  0
HATCH
  5
2B5
330
2AB
100
AcDbEntity
  8
018
 62
     1
420
 16711680
100
AcDbHatch
 10
0.0
 20
0.0
 30
0.0
210
0.0
220
0.0
230
1.0
  2
SOLID
 70
     1
 71
     0
 91
        1
 92
        1
 93
        3
 72
     1
 10
1.519322562238684
 20
11.28472776500173
 11
1.599472761577663
 21
11.20456034017396
 72
     1
 10
1.599472761577663
 20
11.20456034017396
 11
1.799839647180715
 21
11.48509465060478
 72
     1
 10
1.799839647180715
 20
11.48509465060478
 11
1.519322562238684
 21
11.28472776500173
 97
        0
 75
     2
 76
     1
 98
        0
  0
ENDBLK
  5
2AE
330
2AB
100
AcDbEntity
  8
0
100
AcDbBlockEnd
  0
BLOCK
  5
2B8
330
2B6
100
AcDbEntity
  8
0
100
AcDbBlockBegin
  2
block 75
 70
     0
 71
     0
 10
0.0
 20
0.0
 30
0.0
  3
block 75
  1

  0
POLYLINE
  5
2BA
330
2B6
100
AcDbEntity
  8
018
 62
     1
420
 16711680
370
    25
100
AcDb2dPolyline
 66
     1
 10
0.0
 20
0.0
 30
0.0
  0
VERTEX
  5
2BB
330
2BA
100
AcDbEntity
  8
018
 62
     1
420
 16711680
370
    25
100
AcDbVertex
100
AcDb2dVertex
 10
0.9711386069918203
 20
10.65637638492709
 30
0.0
  0
VERTEX
  5
2BC
330
2BA
100
AcDbEntity
  8
018
 62
     1
420
 16711680
370
    25
100
AcDbVertex
100
AcDb2dVertex
 10
1.559389049163779
 20
11.24466127807663
 30
0.0
  0
SEQEND
  5
2BD
330
2BA
100
AcDbEntity
  8
018
370
    25
  0
ENDBLK
  5
2B9
330
2B6
100
AcDbEntity
  8
0
100
AcDbBlockEnd
  0
BLOCK
  5
2C0
330
2BE
100
AcDbEntity
  8
0
100
AcDbBlockBegin
  2
block 76
 70
     0
 71
     0
 10
0.0
 20
0.0
 30
0.0
  3
block 76
  1

  0
POLYLINE
  5
2C2
330
2BE
100
AcDbEntity
  8
018
 62
     1
420
 16711680
370
    25
100
AcDb2dPolyline
 66
     1
 10
0.0
 20
0.0
 30
0.0
  0
VERTEX
  5
2C3
330
2C2
100
AcDbEntity
  8
018
 62
     1
420
 16711680
370
    25
100
AcDbVertex
100
AcDb2dVertex
 10
2.710551239497887
 20
10.57438305828761
 30
0.0
  0
VERTEX
  5
2C4
330
2C2
100
AcDbEntity
  8
018
 62
     1
420
 16711680
370
    25
100
AcDbVertex
100
AcDb2dVertex
 10
1.751746082479569
 20
11.53318821530592
 30
0.0
  0
SEQEND
  5
2C5
330
2C2
100
AcDbEntity
  8
018
370
    25
  0
ENDBLK
  5
2C1
330
2BE
100
AcDbEntity
  8
0
100
AcDbBlockEnd
  0
BLOCK
  5
2C8
330
2C6
100
AcDbEntity
  8
0
100
AcDbBlockBegin
  2
block 77
 70
     0
 71
     0
 10
0.0
 20
0.0
 30
0.0
  3
block 77
  1

  0
SPLINE
  5
2CA
330
2C6
100
AcDbEntity
  8
018
 62
     2
420
 16776960
370
    25
100
AcDbSpline
210
0.0
220
0.0
230
1.0
 70
    11
 71
     3
 72
    20
 73
    16
 74
     0
 42
0.0000000001
 43
0.0000000001
 40
0.0
 40
0.0
 40
0.0
 40
0.0
 40
1.0
 40
1.0
 40
1.0
 40
2.0
 40
2.0
 40
2.0
 40
3.0
 40
3.0
 40
3.0
 40
4.0
 40
4.0
 40
4.0
 40
5.0
 40
5.0
 40
5.0
 40
5.0
 10
3.823576197651359
 20
9.183665995353632
 30
0.0
 10
3.843919499912123
 20
9.183665995353632
 30
0.0
 10
3.860421518172759
 20
9.24150918670981
 30
0.0
 10
3.860421518172759
 20
9.312857161277195
 30
0.0
 10
3.860421518172759
 20
9.384239586822162
 30
0.0
 10
3.843919499912123
 20
9.442082778178339
 30
0.0
 10
3.823576197651359
 20
9.442082778178339
 30
0.0
 10
3.803215669901806
 20
9.442082778178339
 30
0.0
 10
3.786713651641169
 20
9.384239586822162
 30
0.0
 10
3.786713651641169
 20
9.312857161277195
 30
0.0
 10
3.786713651641169
 20
9.24150918670981
 30
0.0
 10
3.803215669901806
 20
9.183665995353632
 30
0.0
 10
3.823576197651359
 20
9.183665995353632
 30
0.0
 10
3.823576197651359
 20
9.183665995353632
 30
0.0
 10
3.823576197651359
 20
9.183665995353632
 30
0.0
 10
3.823576197651359
 20
9.183665995353632
 30
0.0
  0
ENDBLK
  5
2C9
330
2C6
100
AcDbEntity
  8
0
100
AcDbBlockEnd
  0
BLOCK
  5
2CD
330
2CB
100
AcDbEntity
  8
0
100
AcDbBlockBegin
  2
block 78
 70
     0
 71
     0
 10
0.0
 20
0.0
 30
0.0
  3
block 78
  1

  0
SPLINE
  5
2CF
330
2CB
100
AcDbEntity
  8
018
 62
     2
420
 16776960
370
    25
100
AcDbSpline
210
0.0
220
0.0
230
1.0
 70
    11
 71
     3
 72
    23
 73
    19
 74
     0
 42
0.0000000001
 43
0.0000000001
 40
0.0
 40
0.0
 40
0.0
 40
0.0
 40
1.0
 40
1.0
 40
1.0
 40
2.0
 40
2.0
 40
2.0
 40
3.0
 40
3.0
 40
3.0
 40
4.0
 40
4.0
 40
4.0
 40
5.0
 40
5.0
 40
5.0
 40
6.0
 40
6.0
 40
6.0
 40
6.0
 10
6.410758486436638
 20
9.312857161277195
 30
0.0
 10
6.410758486436638
 20
9.575787022164832
 30
0.0
 10
6.197610288151549
 20
9.78893522044992
 30
0.0
 10
5.934697652752702
 20
9.78893522044992
 30
0.0
 10
5.671767791865066
 20
9.78893522044992
 30
0.0
 10
5.458636819068767
 20
9.575787022164832
 30
0.0
 10
5.458636819068767
 20
9.312857161277195
 30
0.0
 10
5.458636819068767
 20
9.049927300389559
 30
0.0
 10
5.671767791865066
 20
8.836813553082049
 30
0.0
 10
5.934697652752702
 20
8.836813553082049
 30
0.0
 10
6.197610288151549
 20
8.836813553082049
 30
0.0
 10
6.410758486436638
 20
9.049927300389559
 30
0.0
 10
6.410758486436638
 20
9.312857161277195
 30
0.0
 10
6.410758486436638
 20
9.312857161277195
 30
0.0
 10
6.410758486436638
 20
9.312857161277195
 30
0.0
 10
6.410758486436638
 20
9.312857161277195
 30
0.0
 10
6.410758486436638
 20
9.312857161277195
 30
0.0
 10
6.410758486436638
 20
9.312857161277195
 30
0.0
 10
6.410758486436638
 20
9.312857161277195
 30
0.0
  0
ENDBLK
  5
2CE
330
2CB
100
AcDbEntity
  8
0
100
AcDbBlockEnd
  0
BLOCK
  5
2D2
330
2D0
100
AcDbEntity
  8
0
100
AcDbBlockBegin
  2
block 79
 70
     0
 71
     0
 10
0.0
 20
0.0
 30
0.0
  3
block 79
  1

  0
POLYLINE
  5
2D4
330
2D0
100
AcDbEntity
  8
018
 62
     2
420
 16776960
370
    25
100
AcDb2dPolyline
 66
     1
 10
0.0
 20
0.0
 30
0.0
  0
VERTEX
  5
2D5
330
2D4
100
AcDbEntity
  8
018
 62
     2
420
 16776960
370
    25
100
AcDbVertex
100
AcDb2dVertex
 10
5.436502065973863
 20
21.74512976396717
 30
0.0
  0
VERTEX
  5
2D6
330
2D4
100
AcDbEntity
  8
018
 62
     2
420
 16776960
370
    25
100
AcDbVertex
100
AcDb2dVertex
 10
5.591031925907235
 20
21.6223637053622
 30
0.0
  0
SEQEND
  5
2D7
330
2D4
100
AcDbEntity
  8
018
370
    25
  0
ENDBLK
  5
2D3
330
2D0
100
AcDbEntity
  8
0
100
AcDbBlockEnd
  0
BLOCK
  5
2DA
330
2D8
100
AcDbEntity
  8
0
100
AcDbBlockBegin
  2
block 80
 70
     0
 71
     0
 10
0.0
 20
0.0
 30
0.0
  3
block 80
  1

  0
POLYLINE
  5
2DC
330
2D8
100
AcDbEntity
  8
018
 62
     2
420
 16776960
370
    25
100
AcDb2dPolyline
 66
     1
 10
0.0
 20
0.0
 30
0.0
  0
VERTEX
  5
2DD
330
2DC
100
AcDbEntity
  8
018
 62
     2
420
 16776960
370
    25
100
AcDbVertex
100
AcDb2dVertex
 10
5.533464342371694
 20
21.43281442671915
 30
0.0
  0
VERTEX
  5
2DE
330
2DC
100
AcDbEntity
  8
018
 62
     2
420
 16776960
370
    25
100
AcDbVertex
100
AcDb2dVertex
 10
5.20650733965234
 20
21.54912092702794
 30
0.0
  0
SEQEND
  5
2DF
330
2DC
100
AcDbEntity
  8
018
370
    25
  0
ENDBLK
  5
2DB
330
2D8
100
AcDbEntity
  8
0
100
AcDbBlockEnd
  0
BLOCK
  5
2E2
330
2E0
100
AcDbEntity
  8
0
100
AcDbBlockBegin
  2
block 81
 70
     0
 71
     0
 10
0.0
 20
0.0
 30
0.0
  3
block 81
  1

  0
POLYLINE
  5
2E4
330
2E0
100
AcDbEntity
  8
018
 62
     2
420
 16776960
370
    25
100
AcDb2dPolyline
 66
     1
 10
0.0
 20
0.0
 30
0.0
  0
VERTEX
  5
2E5
330
2E4
100
AcDbEntity
  8
018
 62
     2
420
 16776960
370
    25
100
AcDbVertex
100
AcDb2dVertex
 10
5.636576118267488
 20
21.49632480388718
 30
0.0
  0
VERTEX
  5
2E6
330
2E4
100
AcDbEntity
  8
018
 62
     2
420
 16776960
370
    25
100
AcDbVertex
100
AcDb2dVertex
 10
5.229520592675525
 20
21.64186295867227
 30
0.0
  0
SEQEND
  5
2E7
330
2E4
100
AcDbEntity
  8
018
370
    25
  0
ENDBLK
  5
2E3
330
2E0
100
AcDbEntity
  8
0
100
AcDbBlockEnd
  0
BLOCK
  5
2EA
330
2E8
100
AcDbEntity
  8
0
100
AcDbBlockBegin
  2
block 82
 70
     0
 71
     0
 10
0.0
 20
0.0
 30
0.0
  3
block 82
  1

  0
POLYLINE
  5
2EC
330
2E8
100
AcDbEntity
  8
018
 62
     2
420
 16776960
370
    25
100
AcDb2dPolyline
 66
     1
 10
0.0
 20
0.0
 30
0.0
  0
VERTEX
  5
2ED
330
2EC
100
AcDbEntity
  8
018
 62
     2
420
 16776960
370
    25
100
AcDbVertex
100
AcDb2dVertex
 10
5.472279406190295
 20
21.82093914013112
 30
0.0
  0
VERTEX
  5
2EE
330
2EC
100
AcDbEntity
  8
018
 62
     2
420
 16776960
370
    25
100
AcDbVertex
100
AcDb2dVertex
 10
5.636231608491691
 20
21.69067999390258
 30
0.0
  0
SEQEND
  5
2EF
330
2EC
100
AcDbEntity
  8
018
370
    25
  0
ENDBLK
  5
2EB
330
2E8
100
AcDbEntity
  8
0
100
AcDbBlockEnd
  0
BLOCK
  5
2F2
330
2F0
100
AcDbEntity
  8
0
100
AcDbBlockBegin
  2
block 83
 70
     0
 71
     0
 10
0.0
 20
0.0
 30
0.0
  3
block 83
  1

  0
POLYLINE
  5
2F4
330
2F0
100
AcDbEntity
  8
018
 62
     2
420
 16776960
370
    25
100
AcDb2dPolyline
 66
     1
 10
0.0
 20
0.0
 30
0.0
  0
VERTEX
  5
2F5
330
2F4
100
AcDbEntity
  8
018
 62
     2
420
 16776960
370
    25
100
AcDbVertex
100
AcDb2dVertex
 10
5.372474924142145
 20
21.85902469584538
 30
0.0
  0
VERTEX
  5
2F6
330
2F4
100
AcDbEntity
  8
018
 62
     2
420
 16776960
370
    25
100
AcDbVertex
100
AcDb2dVertex
 10
6.572970914370265
 20
21.85902469584538
 30
0.0
  0
SEQEND
  5
2F7
330
2F4
100
AcDbEntity
  8
018
370
    25
  0
ENDBLK
  5
2F3
330
2F0
100
AcDbEntity
  8
0
100
AcDbBlockEnd
  0
BLOCK
  5
2FA
330
2F8
100
AcDbEntity
  8
0
100
AcDbBlockBegin
  2
block 84
 70
     0
 71
     0
 10
0.0
 20
0.0
 30
0.0
  3
block 84
  1

  0
SPLINE
  5
2FC
330
2F8
100
AcDbEntity
  8
018
 62
     2
420
 16776960
370
    25
100
AcDbSpline
210
0.0
220
0.0
230
1.0
 70
     8
 71
     3
 72
     8
 73
     4
 74
     0
 42
0.0000000001
 43
0.0000000001
 40
0.0
 40
0.0
 40
0.0
 40
0.0
 40
1.0
 40
1.0
 40
1.0
 40
1.0
 10
5.472279406190295
 20
21.82093914013112
 30
0.0
 10
5.449283378655901
 20
21.84150637374615
 30
0.0
 10
5.403325774564691
 20
21.85904192133417
 30
0.0
 10
5.372474924142145
 20
21.85902469584538
 30
0.0
  0
ENDBLK
  5
2FB
330
2F8
100
AcDbEntity
  8
0
100
AcDbBlockEnd
  0
BLOCK
  5
2FF
330
2FD
100
AcDbEntity
  8
0
100
AcDbBlockBegin
  2
block 85
 70
     0
 71
     0
 10
0.0
 20
0.0
 30
0.0
  3
block 85
  1

  0
POLYLINE
  5
301
330
2FD
100
AcDbEntity
  8
018
 62
     2
420
 16776960
370
    25
100
AcDb2dPolyline
 66
     1
 10
0.0
 20
0.0
 30
0.0
  0
VERTEX
  5
302
330
301
100
AcDbEntity
  8
018
 62
     2
420
 16776960
370
    25
100
AcDbVertex
100
AcDb2dVertex
 10
5.281248735511319
 20
21.86600101880526
 30
0.0
  0
VERTEX
  5
303
330
301
100
AcDbEntity
  8
018
 62
     2
420
 16776960
370
    25
100
AcDbVertex
100
AcDb2dVertex
 10
5.372457698653355
 20
21.85902469584538
 30
0.0
  0
SEQEND
  5
304
330
301
100
AcDbEntity
  8
018
370
    25
  0
ENDBLK
  5
300
330
2FD
100
AcDbEntity
  8
0
100
AcDbBlockEnd
  0
BLOCK
  5
307
330
305
100
AcDbEntity
  8
0
100
AcDbBlockBegin
  2
block 86
 70
     0
 71
     0
 10
0.0
 20
0.0
 30
0.0
  3
block 86
  1

  0
SPLINE
  5
309
330
305
100
AcDbEntity
  8
018
 62
     2
420
 16776960
370
    25
100
AcDbSpline
210
0.0
220
0.0
230
1.0
 70
     8
 71
     3
 72
     8
 73
     4
 74
     0
 42
0.0000000001
 43
0.0000000001
 40
0.0
 40
0.0
 40
0.0
 40
0.0
 40
1.0
 40
1.0
 40
1.0
 40
1.0
 10
5.436502065973863
 20
21.74512976396717
 30
0.0
 10
5.425718909991443
 20
21.75477603768946
 30
0.0
 10
5.404204274492971
 20
21.76288924290946
 30
0.0
 10
5.389752089398322
 20
21.76275143899915
 30
0.0
  0
ENDBLK
  5
308
330
305
100
AcDbEntity
  8
0
100
AcDbBlockEnd
  0
BLOCK
  5
30C
330
30A
100
AcDbEntity
  8
0
100
AcDbBlockBegin
  2
block 87
 70
     0
 71
     0
 10
0.0
 20
0.0
 30
0.0
  3
block 87
  1

  0
POLYLINE
  5
30E
330
30A
100
AcDbEntity
  8
018
 62
     2
420
 16776960
370
    25
100
AcDb2dPolyline
 66
     1
 10
0.0
 20
0.0
 30
0.0
  0
VERTEX
  5
30F
330
30E
100
AcDbEntity
  8
018
 62
     2
420
 16776960
370
    25
100
AcDbVertex
100
AcDb2dVertex
 10
5.241165023097435
 20
21.774154712578
 30
0.0
  0
VERTEX
  5
310
330
30E
100
AcDbEntity
  8
018
 62
     2
420
 16776960
370
    25
100
AcDbVertex
100
AcDb2dVertex
 10
5.391956951963418
 20
21.76261363508883
 30
0.0
  0
SEQEND
  5
311
330
30E
100
AcDbEntity
  8
018
370
    25
  0
ENDBLK
  5
30D
330
30A
100
AcDbEntity
  8
0
100
AcDbBlockEnd
  0
BLOCK
  5
314
330
312
100
AcDbEntity
  8
0
100
AcDbBlockBegin
  2
block 88
 70
     0
 71
     0
 10
0.0
 20
0.0
 30
0.0
  3
block 88
  1

  0
SPLINE
  5
316
330
312
100
AcDbEntity
  8
018
 62
     2
420
 16776960
370
    25
100
AcDbSpline
210
0.0
220
0.0
230
1.0
 70
     8
 71
     3
 72
     8
 73
     4
 74
     0
 42
0.0000000001
 43
0.0000000001
 40
0.0
 40
0.0
 40
0.0
 40
0.0
 40
1.0
 40
1.0
 40
1.0
 40
1.0
 10
6.572970914370265
 20
21.85902469584538
 30
0.0
 10
6.542120063947717
 20
21.85904192133417
 30
0.0
 10
6.496162459856508
 20
21.84150637374615
 30
0.0
 10
6.473166432322114
 20
21.82093914013112
 30
0.0
  0
ENDBLK
  5
315
330
312
100
AcDbEntity
  8
0
100
AcDbBlockEnd
  0
BLOCK
  5
319
330
317
100
AcDbEntity
  8
0
100
AcDbBlockBegin
  2
block 89
 70
     0
 71
     0
 10
0.0
 20
0.0
 30
0.0
  3
block 89
  1

  0
POLYLINE
  5
31B
330
317
100
AcDbEntity
  8
018
 62
     2
420
 16776960
370
    25
100
AcDb2dPolyline
 66
     1
 10
0.0
 20
0.0
 30
0.0
  0
VERTEX
  5
31C
330
31B
100
AcDbEntity
  8
018
 62
     2
420
 16776960
370
    25
100
AcDbVertex
100
AcDb2dVertex
 10
6.71365148131663
 20
21.86622495015952
 30
0.0
  0
VERTEX
  5
31D
330
31B
100
AcDbEntity
  8
018
 62
     2
420
 16776960
370
    25
100
AcDbVertex
100
AcDb2dVertex
 10
6.572970914370265
 20
21.85902469584538
 30
0.0
  0
SEQEND
  5
31E
330
31B
100
AcDbEntity
  8
018
370
    25
  0
ENDBLK
  5
31A
330
317
100
AcDbEntity
  8
0
100
AcDbBlockEnd
  0
BLOCK
  5
321
330
31F
100
AcDbEntity
  8
0
100
AcDbBlockBegin
  2
block 90
 70
     0
 71
     0
 10
0.0
 20
0.0
 30
0.0
  3
block 90
  1

  0
SPLINE
  5
323
330
31F
100
AcDbEntity
  8
018
 62
     2
420
 16776960
370
    25
100
AcDbSpline
210
0.0
220
0.0
230
1.0
 70
     8
 71
     3
 72
     8
 73
     4
 74
     0
 42
0.0000000001
 43
0.0000000001
 40
0.0
 40
0.0
 40
0.0
 40
0.0
 40
1.0
 40
1.0
 40
1.0
 40
1.0
 10
6.552007494513068
 20
21.76275143899915
 30
0.0
 10
6.471202726600076
 20
21.75024573413774
 30
0.0
 10
6.405504712355746
 20
21.67478086774959
 30
0.0
 10
6.40426447716288
 20
21.59301147246437
 30
0.0
  0
ENDBLK
  5
322
330
31F
100
AcDbEntity
  8
0
100
AcDbBlockEnd
  0
BLOCK
  5
326
330
324
100
AcDbEntity
  8
0
100
AcDbBlockBegin
  2
block 91
 70
     0
 71
     0
 10
0.0
 20
0.0
 30
0.0
  3
block 91
  1

  0
POLYLINE
  5
328
330
324
100
AcDbEntity
  8
018
 62
     2
420
 16776960
370
    25
100
AcDb2dPolyline
 66
     1
 10
0.0
 20
0.0
 30
0.0
  0
VERTEX
  5
329
330
328
100
AcDbEntity
  8
018
 62
     2
420
 16776960
370
    25
100
AcDbVertex
100
AcDb2dVertex
 10
6.283513800746324
 20
21.63743600805329
 30
0.0
  0
VERTEX
  5
32A
330
328
100
AcDbEntity
  8
018
 62
     2
420
 16776960
370
    25
100
AcDbVertex
100
AcDb2dVertex
 10
6.283513800746324
 20
21.6223637053622
 30
0.0
  0
SEQEND
  5
32B
330
328
100
AcDbEntity
  8
018
370
    25
  0
ENDBLK
  5
327
330
324
100
AcDbEntity
  8
0
100
AcDbBlockEnd
  0
BLOCK
  5
32E
330
32C
100
AcDbEntity
  8
0
100
AcDbBlockBegin
  2
block 92
 70
     0
 71
     0
 10
0.0
 20
0.0
 30
0.0
  3
block 92
  1

  0
POLYLINE
  5
330
330
32C
100
AcDbEntity
  8
018
 62
     2
420
 16776960
370
    25
100
AcDb2dPolyline
 66
     1
 10
0.0
 20
0.0
 30
0.0
  0
VERTEX
  5
331
330
330
100
AcDbEntity
  8
018
 62
     2
420
 16776960
370
    25
100
AcDbVertex
100
AcDb2dVertex
 10
6.283513800746324
 20
21.6223637053622
 30
0.0
  0
VERTEX
  5
332
330
330
100
AcDbEntity
  8
018
 62
     2
420
 16776960
370
    25
100
AcDbVertex
100
AcDb2dVertex
 10
6.306096416549762
 20
21.6223637053622
 30
0.0
  0
SEQEND
  5
333
330
330
100
AcDbEntity
  8
018
370
    25
  0
ENDBLK
  5
32F
330
32C
100
AcDbEntity
  8
0
100
AcDbBlockEnd
  0
BLOCK
  5
336
330
334
100
AcDbEntity
  8
0
100
AcDbBlockBegin
  2
block 93
 70
     0
 71
     0
 10
0.0
 20
0.0
 30
0.0
  3
block 93
  1

  0
SPLINE
  5
338
330
334
100
AcDbEntity
  8
018
 62
     2
420
 16776960
370
    25
100
AcDbSpline
210
0.0
220
0.0
230
1.0
 70
     8
 71
     3
 72
     8
 73
     4
 74
     0
 42
0.0000000001
 43
0.0000000001
 40
0.0
 40
0.0
 40
0.0
 40
0.0
 40
1.0
 40
1.0
 40
1.0
 40
1.0
 10
6.309214230020718
 20
21.69067999390258
 30
0.0
 10
6.294021348908107
 20
21.67996573987532
 30
0.0
 10
6.282463045930145
 20
21.6560050849687
 30
0.0
 10
6.283513800746324
 20
21.63743600805329
 30
0.0
  0
ENDBLK
  5
337
330
334
100
AcDbEntity
  8
0
100
AcDbBlockEnd
  0
BLOCK
  5
33B
330
339
100
AcDbEntity
  8
0
100
AcDbBlockBegin
  2
block 94
 70
     0
 71
     0
 10
0.0
 20
0.0
 30
0.0
  3
block 94
  1

  0
POLYLINE
  5
33D
330
339
100
AcDbEntity
  8
018
 62
     2
420
 16776960
370
    25
100
AcDb2dPolyline
 66
     1
 10
0.0
 20
0.0
 30
0.0
  0
VERTEX
  5
33E
330
33D
100
AcDbEntity
  8
018
 62
     2
420
 16776960
370
    25
100
AcDbVertex
100
AcDb2dVertex
 10
6.283513800746324
 20
21.6223637053622
 30
0.0
  0
VERTEX
  5
33F
330
33D
100
AcDbEntity
  8
018
 62
     2
420
 16776960
370
    25
100
AcDbVertex
100
AcDb2dVertex
 10
5.97271430651181
 20
21.6223637053622
 30
0.0
  0
SEQEND
  5
340
330
33D
100
AcDbEntity
  8
018
370
    25
  0
ENDBLK
  5
33C
330
339
100
AcDbEntity
  8
0
100
AcDbBlockEnd
  0
BLOCK
  5
343
330
341
100
AcDbEntity
  8
0
100
AcDbBlockBegin
  2
block 95
 70
     0
 71
     0
 10
0.0
 20
0.0
 30
0.0
  3
block 95
  1

  0
POLYLINE
  5
345
330
341
100
AcDbEntity
  8
018
 62
     2
420
 16776960
370
    25
100
AcDb2dPolyline
 66
     1
 10
0.0
 20
0.0
 30
0.0
  0
VERTEX
  5
346
330
345
100
AcDbEntity
  8
018
 62
     2
420
 16776960
370
    25
100
AcDbVertex
100
AcDb2dVertex
 10
6.309214230020718
 20
21.69067999390258
 30
0.0
  0
VERTEX
  5
347
330
345
100
AcDbEntity
  8
018
 62
     2
420
 16776960
370
    25
100
AcDbVertex
100
AcDb2dVertex
 10
5.97271430651181
 20
21.69067999390258
 30
0.0
  0
SEQEND
  5
348
330
345
100
AcDbEntity
  8
018
370
    25
  0
ENDBLK
  5
344
330
341
100
AcDbEntity
  8
0
100
AcDbBlockEnd
  0
BLOCK
  5
34B
330
349
100
AcDbEntity
  8
0
100
AcDbBlockBegin
  2
block 96
 70
     0
 71
     0
 10
0.0
 20
0.0
 30
0.0
  3
block 96
  1

  0
POLYLINE
  5
34D
330
349
100
AcDbEntity
  8
018
 62
     2
420
 16776960
370
    25
100
AcDb2dPolyline
 66
     1
 10
0.0
 20
0.0
 30
0.0
  0
VERTEX
  5
34E
330
34D
100
AcDbEntity
  8
018
 62
     2
420
 16776960
370
    25
100
AcDbVertex
100
AcDb2dVertex
 10
6.283513800746324
 20
21.3889583322603
 30
0.0
  0
VERTEX
  5
34F
330
34D
100
AcDbEntity
  8
018
 62
     2
420
 16776960
370
    25
100
AcDbVertex
100
AcDb2dVertex
 10
6.298086564262501
 20
21.3889583322603
 30
0.0
  0
SEQEND
  5
350
330
34D
100
AcDbEntity
  8
018
370
    25
  0
ENDBLK
  5
34C
330
349
100
AcDbEntity
  8
0
100
AcDbBlockEnd
  0
BLOCK
  5
353
330
351
100
AcDbEntity
  8
0
100
AcDbBlockBegin
  2
block 97
 70
     0
 71
     0
 10
0.0
 20
0.0
 30
0.0
  3
block 97
  1

  0
POLYLINE
  5
355
330
351
100
AcDbEntity
  8
018
 62
     2
420
 16776960
370
    25
100
AcDb2dPolyline
 66
     1
 10
0.0
 20
0.0
 30
0.0
  0
VERTEX
  5
356
330
355
100
AcDbEntity
  8
018
 62
     2
420
 16776960
370
    25
100
AcDbVertex
100
AcDb2dVertex
 10
6.306096416549762
 20
21.6223637053622
 30
0.0
  0
VERTEX
  5
357
330
355
100
AcDbEntity
  8
018
 62
     2
420
 16776960
370
    25
100
AcDbVertex
100
AcDb2dVertex
 10
6.298086564262501
 20
21.3889583322603
 30
0.0
  0
SEQEND
  5
358
330
355
100
AcDbEntity
  8
018
370
    25
  0
ENDBLK
  5
354
330
351
100
AcDbEntity
  8
0
100
AcDbBlockEnd
  0
BLOCK
  5
35B
330
359
100
AcDbEntity
  8
0
100
AcDbBlockBegin
  2
block 98
 70
     0
 71
     0
 10
0.0
 20
0.0
 30
0.0
  3
block 98
  1

  0
POLYLINE
  5
35D
330
359
100
AcDbEntity
  8
018
 62
     2
420
 16776960
370
    25
100
AcDb2dPolyline
 66
     1
 10
0.0
 20
0.0
 30
0.0
  0
VERTEX
  5
35E
330
35D
100
AcDbEntity
  8
018
 62
     2
420
 16776960
370
    25
100
AcDbVertex
100
AcDb2dVertex
 10
6.774698613587711
 20
21.774154712578
 30
0.0
  0
VERTEX
  5
35F
330
35D
100
AcDbEntity
  8
018
 62
     2
420
 16776960
370
    25
100
AcDbVertex
100
AcDb2dVertex
 10
6.552007494513068
 20
21.76275143899915
 30
0.0
  0
SEQEND
  5
360
330
35D
100
AcDbEntity
  8
018
370
    25
  0
ENDBLK
  5
35C
330
359
100
AcDbEntity
  8
0
100
AcDbBlockEnd
  0
BLOCK
  5
363
330
361
100
AcDbEntity
  8
0
100
AcDbBlockBegin
  2
block 99
 70
     0
 71
     0
 10
0.0
 20
0.0
 30
0.0
  3
block 99
  1

  0
POLYLINE
  5
365
330
361
100
AcDbEntity
  8
018
 62
     2
420
 16776960
370
    25
100
AcDb2dPolyline
 66
     1
 10
0.0
 20
0.0
 30
0.0
  0
VERTEX
  5
366
330
365
100
AcDbEntity
  8
018
 62
     2
420
 16776960
370
    25
100
AcDbVertex
100
AcDb2dVertex
 10
6.473166432322114
 20
21.82093914013112
 30
0.0
  0
VERTEX
  5
367
330
365
100
AcDbEntity
  8
018
 62
     2
420
 16776960
370
    25
100
AcDbVertex
100
AcDb2dVertex
 10
6.309214230020718
 20
21.69067999390258
 30
0.0
  0
SEQEND
  5
368
330
365
100
AcDbEntity
  8
018
370
    25
  0
ENDBLK
  5
364
330
361
100
AcDbEntity
  8
0
100
AcDbBlockEnd
  0
BLOCK
  5
36B
330
369
100
AcDbEntity
  8
0
100
AcDbBlockBegin
  2
block 100
 70
     0
 71
     0
 10
0.0
 20
0.0
 30
0.0
  3
block 100
  1

  0
POLYLINE
  5
36D
330
369
100
AcDbEntity
  8
018
 62
     2
420
 16776960
370
    25
100
AcDb2dPolyline
 66
     1
 10
0.0
 20
0.0
 30
0.0
  0
VERTEX
  5
36E
330
36D
100
AcDbEntity
  8
018
 62
     2
420
 16776960
370
    25
100
AcDbVertex
100
AcDb2dVertex
 10
5.661932037766086
 20
21.63743600805329
 30
0.0
  0
VERTEX
  5
36F
330
36D
100
AcDbEntity
  8
018
 62
     2
420
 16776960
370
    25
100
AcDbVertex
100
AcDb2dVertex
 10
5.661932037766086
 20
21.6223637053622
 30
0.0
  0
SEQEND
  5
370
330
36D
100
AcDbEntity
  8
018
370
    25
  0
ENDBLK
  5
36C
330
369
100
AcDbEntity
  8
0
100
AcDbBlockEnd
  0
BLOCK
  5
373
330
371
100
AcDbEntity
  8
0
100
AcDbBlockBegin
  2
block 101
 70
     0
 71
     0
 10
0.0
 20
0.0
 30
0.0
  3
block 101
  1

  0
POLYLINE
  5
375
330
371
100
AcDbEntity
  8
018
 62
     2
420
 16776960
370
    25
100
AcDb2dPolyline
 66
     1
 10
0.0
 20
0.0
 30
0.0
  0
VERTEX
  5
376
330
375
100
AcDbEntity
  8
018
 62
     2
420
 16776960
370
    25
100
AcDbVertex
100
AcDb2dVertex
 10
5.661932037766086
 20
21.6223637053622
 30
0.0
  0
VERTEX
  5
377
330
375
100
AcDbEntity
  8
018
 62
     2
420
 16776960
370
    25
100
AcDbVertex
100
AcDb2dVertex
 10
5.591031925907235
 20
21.6223637053622
 30
0.0
  0
SEQEND
  5
378
330
375
100
AcDbEntity
  8
018
370
    25
  0
ENDBLK
  5
374
330
371
100
AcDbEntity
  8
0
100
AcDbBlockEnd
  0
BLOCK
  5
37B
330
379
100
AcDbEntity
  8
0
100
AcDbBlockBegin
  2
block 102
 70
     0
 71
     0
 10
0.0
 20
0.0
 30
0.0
  3
block 102
  1

  0
SPLINE
  5
37D
330
379
100
AcDbEntity
  8
018
 62
     2
420
 16776960
370
    25
100
AcDbSpline
210
0.0
220
0.0
230
1.0
 70
     8
 71
     3
 72
     8
 73
     4
 74
     0
 42
0.0000000001
 43
0.0000000001
 40
0.0
 40
0.0
 40
0.0
 40
0.0
 40
1.0
 40
1.0
 40
1.0
 40
1.0
 10
5.661932037766086
 20
21.63743600805329
 30
0.0
 10
5.662982792582264
 20
21.6560050849687
 30
0.0
 10
5.651424489604302
 20
21.67996573987532
 30
0.0
 10
5.636231608491691
 20
21.69067999390258
 30
0.0
  0
ENDBLK
  5
37C
330
379
100
AcDbEntity
  8
0
100
AcDbBlockEnd
  0
BLOCK
  5
380
330
37E
100
AcDbEntity
  8
0
100
AcDbBlockBegin
  2
block 103
 70
     0
 71
     0
 10
0.0
 20
0.0
 30
0.0
  3
block 103
  1

  0
POLYLINE
  5
382
330
37E
100
AcDbEntity
  8
018
 62
     2
420
 16776960
370
    25
100
AcDb2dPolyline
 66
     1
 10
0.0
 20
0.0
 30
0.0
  0
VERTEX
  5
383
330
382
100
AcDbEntity
  8
018
 62
     2
420
 16776960
370
    25
100
AcDbVertex
100
AcDb2dVertex
 10
5.636576118267488
 20
21.49632480388718
 30
0.0
  0
VERTEX
  5
384
330
382
100
AcDbEntity
  8
018
 62
     2
420
 16776960
370
    25
100
AcDbVertex
100
AcDb2dVertex
 10
5.636576118267488
 20
21.3889583322603
 30
0.0
  0
SEQEND
  5
385
330
382
100
AcDbEntity
  8
018
370
    25
  0
ENDBLK
  5
381
330
37E
100
AcDbEntity
  8
0
100
AcDbBlockEnd
  0
BLOCK
  5
388
330
386
100
AcDbEntity
  8
0
100
AcDbBlockBegin
  2
block 104
 70
     0
 71
     0
 10
0.0
 20
0.0
 30
0.0
  3
block 104
  1

  0
POLYLINE
  5
38A
330
386
100
AcDbEntity
  8
018
 62
     2
420
 16776960
370
    25
100
AcDb2dPolyline
 66
     1
 10
0.0
 20
0.0
 30
0.0
  0
VERTEX
  5
38B
330
38A
100
AcDbEntity
  8
018
 62
     2
420
 16776960
370
    25
100
AcDbVertex
100
AcDb2dVertex
 10
5.636576118267488
 20
21.3889583322603
 30
0.0
  0
VERTEX
  5
38C
330
38A
100
AcDbEntity
  8
018
 62
     2
420
 16776960
370
    25
100
AcDbVertex
100
AcDb2dVertex
 10
5.661932037766086
 20
21.3889583322603
 30
0.0
  0
SEQEND
  5
38D
330
38A
100
AcDbEntity
  8
018
370
    25
  0
ENDBLK
  5
389
330
386
100
AcDbEntity
  8
0
100
AcDbBlockEnd
  0
BLOCK
  5
390
330
38E
100
AcDbEntity
  8
0
100
AcDbBlockBegin
  2
block 105
 70
     0
 71
     0
 10
0.0
 20
0.0
 30
0.0
  3
block 105
  1

  0
SPLINE
  5
392
330
38E
100
AcDbEntity
  8
018
 62
     2
420
 16776960
370
    25
100
AcDbSpline
210
0.0
220
0.0
230
1.0
 70
     8
 71
     3
 72
     8
 73
     4
 74
     0
 42
0.0000000001
 43
0.0000000001
 40
0.0
 40
0.0
 40
0.0
 40
0.0
 40
1.0
 40
1.0
 40
1.0
 40
1.0
 10
5.555289036668381
 20
21.40928440903227
 30
0.0
 10
5.554341634784942
 20
21.42058432967839
 30
0.0
 10
5.54464368459628
 20
21.4310402013738
 30
0.0
 10
5.533464342371694
 20
21.43281442671915
 30
0.0
  0
ENDBLK
  5
391
330
38E
100
AcDbEntity
  8
0
100
AcDbBlockEnd
  0
BLOCK
  5
395
330
393
100
AcDbEntity
  8
0
100
AcDbBlockBegin
  2
block 106
 70
     0
 71
     0
 10
0.0
 20
0.0
 30
0.0
  3
block 106
  1

  0
POLYLINE
  5
397
330
393
100
AcDbEntity
  8
018
 62
     2
420
 16776960
370
    25
100
AcDb2dPolyline
 66
     1
 10
0.0
 20
0.0
 30
0.0
  0
VERTEX
  5
398
330
397
100
AcDbEntity
  8
018
 62
     2
420
 16776960
370
    25
100
AcDbVertex
100
AcDb2dVertex
 10
5.661932037766086
 20
21.3889583322603
 30
0.0
  0
VERTEX
  5
399
330
397
100
AcDbEntity
  8
018
 62
     2
420
 16776960
370
    25
100
AcDbVertex
100
AcDb2dVertex
 10
6.283513800746324
 20
21.3889583322603
 30
0.0
  0
SEQEND
  5
39A
330
397
100
AcDbEntity
  8
018
370
    25
  0
ENDBLK
  5
396
330
393
100
AcDbEntity
  8
0
100
AcDbBlockEnd
  0
BLOCK
  5
39D
330
39B
100
AcDbEntity
  8
0
100
AcDbBlockBegin
  2
block 107
 70
     0
 71
     0
 10
0.0
 20
0.0
 30
0.0
  3
block 107
  1

  0
POLYLINE
  5
39F
330
39B
100
AcDbEntity
  8
018
 62
     2
420
 16776960
370
    25
100
AcDb2dPolyline
 66
     1
 10
0.0
 20
0.0
 30
0.0
  0
VERTEX
  5
3A0
330
39F
100
AcDbEntity
  8
018
 62
     2
420
 16776960
370
    25
100
AcDbVertex
100
AcDb2dVertex
 10
5.661932037766086
 20
21.6223637053622
 30
0.0
  0
VERTEX
  5
3A1
330
39F
100
AcDbEntity
  8
018
 62
     2
420
 16776960
370
    25
100
AcDbVertex
100
AcDb2dVertex
 10
5.97271430651181
 20
21.6223637053622
 30
0.0
  0
SEQEND
  5
3A2
330
39F
100
AcDbEntity
  8
018
370
    25
  0
ENDBLK
  5
39E
330
39B
100
AcDbEntity
  8
0
100
AcDbBlockEnd
  0
BLOCK
  5
3A5
330
3A3
100
AcDbEntity
  8
0
100
AcDbBlockBegin
  2
block 108
 70
     0
 71
     0
 10
0.0
 20
0.0
 30
0.0
  3
block 108
  1

  0
POLYLINE
  5
3A7
330
3A3
100
AcDbEntity
  8
018
 62
     2
420
 16776960
370
    25
100
AcDb2dPolyline
 66
     1
 10
0.0
 20
0.0
 30
0.0
  0
VERTEX
  5
3A8
330
3A7
100
AcDbEntity
  8
018
 62
     2
420
 16776960
370
    25
100
AcDbVertex
100
AcDb2dVertex
 10
5.636231608491691
 20
21.69067999390258
 30
0.0
  0
VERTEX
  5
3A9
330
3A7
100
AcDbEntity
  8
018
 62
     2
420
 16776960
370
    25
100
AcDbVertex
100
AcDb2dVertex
 10
5.97271430651181
 20
21.69067999390258
 30
0.0
  0
SEQEND
  5
3AA
330
3A7
100
AcDbEntity
  8
018
370
    25
  0
ENDBLK
  5
3A6
330
3A3
100
AcDbEntity
  8
0
100
AcDbBlockEnd
  0
BLOCK
  5
3AD
330
3AB
100
AcDbEntity
  8
0
100
AcDbBlockBegin
  2
block 109
 70
     0
 71
     0
 10
0.0
 20
0.0
 30
0.0
  3
block 109
  1

  0
POLYLINE
  5
3AF
330
3AB
100
AcDbEntity
  8
018
 62
     2
420
 16776960
370
    25
100
AcDb2dPolyline
 66
     1
 10
0.0
 20
0.0
 30
0.0
  0
VERTEX
  5
3B0
330
3AF
100
AcDbEntity
  8
018
 62
     2
420
 16776960
370
    25
100
AcDbVertex
100
AcDb2dVertex
 10
6.377685547960206
 20
21.25728669595101
 30
0.0
  0
VERTEX
  5
3B1
330
3AF
100
AcDbEntity
  8
018
 62
     2
420
 16776960
370
    25
100
AcDbVertex
100
AcDb2dVertex
 10
6.27836337959817
 20
21.25728669595101
 30
0.0
  0
SEQEND
  5
3B2
330
3AF
100
AcDbEntity
  8
018
370
    25
  0
ENDBLK
  5
3AE
330
3AB
100
AcDbEntity
  8
0
100
AcDbBlockEnd
  0
BLOCK
  5
3B5
330
3B3
100
AcDbEntity
  8
0
100
AcDbBlockBegin
  2
block 110
 70
     0
 71
     0
 10
0.0
 20
0.0
 30
0.0
  3
block 110
  1

  0
POLYLINE
  5
3B7
330
3B3
100
AcDbEntity
  8
018
 62
     2
420
 16776960
370
    25
100
AcDb2dPolyline
 66
     1
 10
0.0
 20
0.0
 30
0.0
  0
VERTEX
  5
3B8
330
3B7
100
AcDbEntity
  8
018
 62
     2
420
 16776960
370
    25
100
AcDbVertex
100
AcDb2dVertex
 10
5.656798842106723
 20
21.25728669595101
 30
0.0
  0
VERTEX
  5
3B9
330
3B7
100
AcDbEntity
  8
018
 62
     2
420
 16776960
370
    25
100
AcDbVertex
100
AcDb2dVertex
 10
5.555289036668381
 20
21.25728669595101
 30
0.0
  0
SEQEND
  5
3BA
330
3B7
100
AcDbEntity
  8
018
370
    25
  0
ENDBLK
  5
3B6
330
3B3
100
AcDbEntity
  8
0
100
AcDbBlockEnd
  0
BLOCK
  5
3BD
330
3BB
100
AcDbEntity
  8
0
100
AcDbBlockBegin
  2
block 111
 70
     0
 71
     0
 10
0.0
 20
0.0
 30
0.0
  3
block 111
  1

  0
POLYLINE
  5
3BF
330
3BB
100
AcDbEntity
  8
018
 62
     2
420
 16776960
370
    25
100
AcDb2dPolyline
 66
     1
 10
0.0
 20
0.0
 30
0.0
  0
VERTEX
  5
3C0
330
3BF
100
AcDbEntity
  8
018
 62
     2
420
 16776960
370
    25
100
AcDbVertex
100
AcDb2dVertex
 10
5.656798842106723
 20
21.25728669595101
 30
0.0
  0
VERTEX
  5
3C1
330
3BF
100
AcDbEntity
  8
018
 62
     2
420
 16776960
370
    25
100
AcDbVertex
100
AcDb2dVertex
 10
6.27836337959817
 20
21.25728669595101
 30
0.0
  0
SEQEND
  5
3C2
330
3BF
100
AcDbEntity
  8
018
370
    25
  0
ENDBLK
  5
3BE
330
3BB
100
AcDbEntity
  8
0
100
AcDbBlockEnd
  0
BLOCK
  5
3C5
330
3C3
100
AcDbEntity
  8
0
100
AcDbBlockBegin
  2
block 112
 70
     0
 71
     0
 10
0.0
 20
0.0
 30
0.0
  3
block 112
  1

  0
POLYLINE
  5
3C7
330
3C3
100
AcDbEntity
  8
018
 62
     2
420
 16776960
370
    25
100
AcDb2dPolyline
 66
     1
 10
0.0
 20
0.0
 30
0.0
  0
VERTEX
  5
3C8
330
3C7
100
AcDbEntity
  8
018
 62
     2
420
 16776960
370
    25
100
AcDbVertex
100
AcDb2dVertex
 10
6.27836337959817
 20
21.3889583322603
 30
0.0
  0
VERTEX
  5
3C9
330
3C7
100
AcDbEntity
  8
018
 62
     2
420
 16776960
370
    25
100
AcDbVertex
100
AcDb2dVertex
 10
6.27836337959817
 20
21.25728669595101
 30
0.0
  0
SEQEND
  5
3CA
330
3C7
100
AcDbEntity
  8
018
370
    25
  0
ENDBLK
  5
3C6
330
3C3
100
AcDbEntity
  8
0
100
AcDbBlockEnd
  0
BLOCK
  5
3CD
330
3CB
100
AcDbEntity
  8
0
100
AcDbBlockBegin
  2
block 113
 70
     0
 71
     0
 10
0.0
 20
0.0
 30
0.0
  3
block 113
  1

  0
POLYLINE
  5
3CF
330
3CB
100
AcDbEntity
  8
018
 62
     2
420
 16776960
370
    25
100
AcDb2dPolyline
 66
     1
 10
0.0
 20
0.0
 30
0.0
  0
VERTEX
  5
3D0
330
3CF
100
AcDbEntity
  8
018
 62
     2
420
 16776960
370
    25
100
AcDbVertex
100
AcDb2dVertex
 10
6.40426447716288
 20
21.59301147246437
 30
0.0
  0
VERTEX
  5
3D1
330
3CF
100
AcDbEntity
  8
018
 62
     2
420
 16776960
370
    25
100
AcDbVertex
100
AcDb2dVertex
 10
6.377685547960206
 20
21.25728669595101
 30
0.0
  0
SEQEND
  5
3D2
330
3CF
100
AcDbEntity
  8
018
370
    25
  0
ENDBLK
  5
3CE
330
3CB
100
AcDbEntity
  8
0
100
AcDbBlockEnd
  0
BLOCK
  5
3D5
330
3D3
100
AcDbEntity
  8
0
100
AcDbBlockBegin
  2
block 114
 70
     0
 71
     0
 10
0.0
 20
0.0
 30
0.0
  3
block 114
  1

  0
POLYLINE
  5
3D7
330
3D3
100
AcDbEntity
  8
018
 62
     2
420
 16776960
370
    25
100
AcDb2dPolyline
 66
     1
 10
0.0
 20
0.0
 30
0.0
  0
VERTEX
  5
3D8
330
3D7
100
AcDbEntity
  8
018
 62
     2
420
 16776960
370
    25
100
AcDbVertex
100
AcDb2dVertex
 10
5.555289036668381
 20
21.25728669595101
 30
0.0
  0
VERTEX
  5
3D9
330
3D7
100
AcDbEntity
  8
018
 62
     2
420
 16776960
370
    25
100
AcDbVertex
100
AcDb2dVertex
 10
5.555289036668381
 20
21.40928440903227
 30
0.0
  0
SEQEND
  5
3DA
330
3D7
100
AcDbEntity
  8
018
370
    25
  0
ENDBLK
  5
3D6
330
3D3
100
AcDbEntity
  8
0
100
AcDbBlockEnd
  0
BLOCK
  5
3DD
330
3DB
100
AcDbEntity
  8
0
100
AcDbBlockBegin
  2
block 115
 70
     0
 71
     0
 10
0.0
 20
0.0
 30
0.0
  3
block 115
  1

  0
POLYLINE
  5
3DF
330
3DB
100
AcDbEntity
  8
018
 62
     2
420
 16776960
370
    25
100
AcDb2dPolyline
 66
     1
 10
0.0
 20
0.0
 30
0.0
  0
VERTEX
  5
3E0
330
3DF
100
AcDbEntity
  8
018
 62
     2
420
 16776960
370
    25
100
AcDbVertex
100
AcDb2dVertex
 10
5.656798842106723
 20
21.25728669595101
 30
0.0
  0
VERTEX
  5
3E1
330
3DF
100
AcDbEntity
  8
018
 62
     2
420
 16776960
370
    25
100
AcDbVertex
100
AcDb2dVertex
 10
5.656798842106723
 20
21.3889583322603
 30
0.0
  0
SEQEND
  5
3E2
330
3DF
100
AcDbEntity
  8
018
370
    25
  0
ENDBLK
  5
3DE
330
3DB
100
AcDbEntity
  8
0
100
AcDbBlockEnd
  0
BLOCK
  5
3E5
330
3E3
100
AcDbEntity
  8
0
100
AcDbBlockBegin
  2
block 116
 70
     0
 71
     0
 10
0.0
 20
0.0
 30
0.0
  3
block 116
  1

  0
POLYLINE
  5
3E7
330
3E3
100
AcDbEntity
  8
018
 62
     2
420
 16776960
370
    25
100
AcDb2dPolyline
 66
     1
 10
0.0
 20
0.0
 30
0.0
  0
VERTEX
  5
3E8
330
3E7
100
AcDbEntity
  8
018
 62
     2
420
 16776960
370
    25
100
AcDbVertex
100
AcDb2dVertex
 10
3.683343493413529
 20
23.81441050679807
 30
0.0
  0
VERTEX
  5
3E9
330
3E7
100
AcDbEntity
  8
018
 62
     2
420
 16776960
370
    25
100
AcDbVertex
100
AcDb2dVertex
 10
1.876975385981477
 20
23.81441050679807
 30
0.0
  0
SEQEND
  5
3EA
330
3E7
100
AcDbEntity
  8
018
370
    25
  0
ENDBLK
  5
3E6
330
3E3
100
AcDbEntity
  8
0
100
AcDbBlockEnd
  0
BLOCK
  5
3ED
330
3EB
100
AcDbEntity
  8
0
100
AcDbBlockBegin
  2
block 117
 70
     0
 71
     0
 10
0.0
 20
0.0
 30
0.0
  3
block 117
  1

  0
POLYLINE
  5
3EF
330
3EB
100
AcDbEntity
  8
018
 62
     2
420
 16776960
370
    25
100
AcDb2dPolyline
 66
     1
 10
0.0
 20
0.0
 30
0.0
  0
VERTEX
  5
3F0
330
3EF
100
AcDbEntity
  8
018
 62
     2
420
 16776960
370
    25
100
AcDbVertex
100
AcDb2dVertex
 10
3.671905768857096
 20
23.67839804731374
 30
0.0
  0
VERTEX
  5
3F1
330
3EF
100
AcDbEntity
  8
018
 62
     2
420
 16776960
370
    25
100
AcDbVertex
100
AcDb2dVertex
 10
3.532620466502705
 20
23.67839804731374
 30
0.0
  0
SEQEND
  5
3F2
330
3EF
100
AcDbEntity
  8
018
370
    25
  0
ENDBLK
  5
3EE
330
3EB
100
AcDbEntity
  8
0
100
AcDbBlockEnd
  0
BLOCK
  5
3F5
330
3F3
100
AcDbEntity
  8
0
100
AcDbBlockBegin
  2
block 118
 70
     0
 71
     0
 10
0.0
 20
0.0
 30
0.0
  3
block 118
  1

  0
POLYLINE
  5
3F7
330
3F3
100
AcDbEntity
  8
018
 62
     2
420
 16776960
370
    25
100
AcDb2dPolyline
 66
     1
 10
0.0
 20
0.0
 30
0.0
  0
VERTEX
  5
3F8
330
3F7
100
AcDbEntity
  8
018
 62
     2
420
 16776960
370
    25
100
AcDbVertex
100
AcDb2dVertex
 10
3.436553915521944
 20
23.67839804731374
 30
0.0
  0
VERTEX
  5
3F9
330
3F7
100
AcDbEntity
  8
018
 62
     2
420
 16776960
370
    25
100
AcDbVertex
100
AcDb2dVertex
 10
2.012987845465804
 20
23.67839804731374
 30
0.0
  0
SEQEND
  5
3FA
330
3F7
100
AcDbEntity
  8
018
370
    25
  0
ENDBLK
  5
3F6
330
3F3
100
AcDbEntity
  8
0
100
AcDbBlockEnd
  0
BLOCK
  5
3FD
330
3FB
100
AcDbEntity
  8
0
100
AcDbBlockBegin
  2
block 119
 70
     0
 71
     0
 10
0.0
 20
0.0
 30
0.0
  3
block 119
  1

  0
POLYLINE
  5
3FF
330
3FB
100
AcDbEntity
  8
018
 62
     2
420
 16776960
370
    25
100
AcDb2dPolyline
 66
     1
 10
0.0
 20
0.0
 30
0.0
  0
VERTEX
  5
400
330
3FF
100
AcDbEntity
  8
018
 62
     2
420
 16776960
370
    25
100
AcDbVertex
100
AcDb2dVertex
 10
5.281248735511319
 20
21.86600101880526
 30
0.0
  0
VERTEX
  5
401
330
3FF
100
AcDbEntity
  8
018
 62
     2
420
 16776960
370
    25
100
AcDbVertex
100
AcDb2dVertex
 10
4.285770512859499
 20
21.91774638712984
 30
0.0
  0
SEQEND
  5
402
330
3FF
100
AcDbEntity
  8
018
370
    25
  0
ENDBLK
  5
3FE
330
3FB
100
AcDbEntity
  8
0
100
AcDbBlockEnd
  0
BLOCK
  5
405
330
403
100
AcDbEntity
  8
0
100
AcDbBlockBegin
  2
block 120
 70
     0
 71
     0
 10
0.0
 20
0.0
 30
0.0
  3
block 120
  1

  0
POLYLINE
  5
407
330
403
100
AcDbEntity
  8
018
 62
     2
420
 16776960
370
    25
100
AcDb2dPolyline
 66
     1
 10
0.0
 20
0.0
 30
0.0
  0
VERTEX
  5
408
330
407
100
AcDbEntity
  8
018
 62
     2
420
 16776960
370
    25
100
AcDbVertex
100
AcDb2dVertex
 10
5.276373922183804
 20
21.77231158527749
 30
0.0
  0
VERTEX
  5
409
330
407
100
AcDbEntity
  8
018
 62
     2
420
 16776960
370
    25
100
AcDbVertex
100
AcDb2dVertex
 10
4.280895699531984
 20
21.82407417909086
 30
0.0
  0
SEQEND
  5
40A
330
407
100
AcDbEntity
  8
018
370
    25
  0
ENDBLK
  5
406
330
403
100
AcDbEntity
  8
0
100
AcDbBlockEnd
  0
BLOCK
  5
40D
330
40B
100
AcDbEntity
  8
0
100
AcDbBlockBegin
  2
block 121
 70
     0
 71
     0
 10
0.0
 20
0.0
 30
0.0
  3
block 121
  1

  0
POLYLINE
  5
40F
330
40B
100
AcDbEntity
  8
018
 62
     2
420
 16776960
370
    25
100
AcDb2dPolyline
 66
     1
 10
0.0
 20
0.0
 30
0.0
  0
VERTEX
  5
410
330
40F
100
AcDbEntity
  8
018
 62
     2
420
 16776960
370
    25
100
AcDbVertex
100
AcDb2dVertex
 10
3.74974775269824
 20
23.76104594252724
 30
0.0
  0
VERTEX
  5
411
330
40F
100
AcDbEntity
  8
018
 62
     2
420
 16776960
370
    25
100
AcDbVertex
100
AcDb2dVertex
 10
4.009077486428806
 20
22.15218528955914
 30
0.0
  0
SEQEND
  5
412
330
40F
100
AcDbEntity
  8
018
370
    25
  0
ENDBLK
  5
40E
330
40B
100
AcDbEntity
  8
0
100
AcDbBlockEnd
  0
BLOCK
  5
415
330
413
100
AcDbEntity
  8
0
100
AcDbBlockBegin
  2
block 122
 70
     0
 71
     0
 10
0.0
 20
0.0
 30
0.0
  3
block 122
  1

  0
POLYLINE
  5
417
330
413
100
AcDbEntity
  8
018
 62
     2
420
 16776960
370
    25
100
AcDb2dPolyline
 66
     1
 10
0.0
 20
0.0
 30
0.0
  0
VERTEX
  5
418
330
417
100
AcDbEntity
  8
018
 62
     2
420
 16776960
370
    25
100
AcDbVertex
100
AcDb2dVertex
 10
3.671905768857096
 20
23.67839804731374
 30
0.0
  0
VERTEX
  5
419
330
417
100
AcDbEntity
  8
018
 62
     2
420
 16776960
370
    25
100
AcDbVertex
100
AcDb2dVertex
 10
3.917455111555816
 20
22.13201424218627
 30
0.0
  0
SEQEND
  5
41A
330
417
100
AcDbEntity
  8
018
370
    25
  0
ENDBLK
  5
416
330
413
100
AcDbEntity
  8
0
100
AcDbBlockEnd
  0
BLOCK
  5
41D
330
41B
100
AcDbEntity
  8
0
100
AcDbBlockBegin
  2
block 123
 70
     0
 71
     0
 10
0.0
 20
0.0
 30
0.0
  3
block 123
  1

  0
SPLINE
  5
41F
330
41B
100
AcDbEntity
  8
018
 62
     2
420
 16776960
370
    25
100
AcDbSpline
210
0.0
220
0.0
230
1.0
 70
     8
 71
     3
 72
     8
 73
     4
 74
     0
 42
0.0000000001
 43
0.0000000001
 40
0.0
 40
0.0
 40
0.0
 40
0.0
 40
1.0
 40
1.0
 40
1.0
 40
1.0
 10
4.009077486428806
 20
22.15218528955914
 30
0.0
 10
4.033193170734538
 20
22.02482002544729
 30
0.0
 10
4.156165935204981
 20
21.92062304375774
 30
0.0
 10
4.285770512859499
 20
21.91774638712984
 30
0.0
  0
ENDBLK
  5
41E
330
41B
100
AcDbEntity
  8
0
100
AcDbBlockEnd
  0
BLOCK
  5
422
330
420
100
AcDbEntity
  8
0
100
AcDbBlockBegin
  2
block 124
 70
     0
 71
     0
 10
0.0
 20
0.0
 30
0.0
  3
block 124
  1

  0
SPLINE
  5
424
330
420
100
AcDbEntity
  8
018
 62
     2
420
 16776960
370
    25
100
AcDbSpline
210
0.0
220
0.0
230
1.0
 70
     8
 71
     3
 72
     8
 73
     4
 74
     0
 42
0.0000000001
 43
0.0000000001
 40
0.0
 40
0.0
 40
0.0
 40
0.0
 40
1.0
 40
1.0
 40
1.0
 40
1.0
 10
3.917455111555816
 20
22.13201424218627
 30
0.0
 10
3.949132785440273
 20
21.96470306957086
 30
0.0
 10
4.110656193822307
 20
21.82782933564704
 30
0.0
 10
4.280895699531984
 20
21.82407417909086
 30
0.0
  0
ENDBLK
  5
423
330
420
100
AcDbEntity
  8
0
100
AcDbBlockEnd
  0
BLOCK
  5
427
330
425
100
AcDbEntity
  8
0
100
AcDbBlockBegin
  2
block 125
 70
     0
 71
     0
 10
0.0
 20
0.0
 30
0.0
  3
block 125
  1

  0
SPLINE
  5
429
330
425
100
AcDbEntity
  8
018
 62
     2
420
 16776960
370
    25
100
AcDbSpline
210
0.0
220
0.0
230
1.0
 70
     8
 71
     3
 72
     8
 73
     4
 74
     0
 42
0.0000000001
 43
0.0000000001
 40
0.0
 40
0.0
 40
0.0
 40
0.0
 40
1.0
 40
1.0
 40
1.0
 40
1.0
 10
3.693024218113401
 20
22.08254263838194
 30
0.0
 10
3.736019038132763
 20
21.84343562849061
 30
0.0
 10
3.963722774445241
 20
21.62935725381087
 30
0.0
 10
4.205034646901668
 20
21.60119357963953
 30
0.0
  0
ENDBLK
  5
428
330
425
100
AcDbEntity
  8
0
100
AcDbBlockEnd
  0
BLOCK
  5
42C
330
42A
100
AcDbEntity
  8
0
100
AcDbBlockBegin
  2
block 126
 70
     0
 71
     0
 10
0.0
 20
0.0
 30
0.0
  3
block 126
  1

  0
POLYLINE
  5
42E
330
42A
100
AcDbEntity
  8
018
 62
     2
420
 16776960
370
    25
100
AcDb2dPolyline
 66
     1
 10
0.0
 20
0.0
 30
0.0
  0
VERTEX
  5
42F
330
42E
100
AcDbEntity
  8
018
 62
     2
420
 16776960
370
    25
100
AcDbVertex
100
AcDb2dVertex
 10
5.229520592675525
 20
21.64186295867227
 30
0.0
  0
VERTEX
  5
430
330
42E
100
AcDbEntity
  8
018
 62
     2
420
 16776960
370
    25
100
AcDbVertex
100
AcDb2dVertex
 10
4.263808014652493
 20
21.69207525849456
 30
0.0
  0
SEQEND
  5
431
330
42E
100
AcDbEntity
  8
018
370
    25
  0
ENDBLK
  5
42D
330
42A
100
AcDbEntity
  8
0
100
AcDbBlockEnd
  0
BLOCK
  5
434
330
432
100
AcDbEntity
  8
0
100
AcDbBlockBegin
  2
block 127
 70
     0
 71
     0
 10
0.0
 20
0.0
 30
0.0
  3
block 127
  1

  0
POLYLINE
  5
436
330
432
100
AcDbEntity
  8
018
 62
     2
420
 16776960
370
    25
100
AcDb2dPolyline
 66
     1
 10
0.0
 20
0.0
 30
0.0
  0
VERTEX
  5
437
330
436
100
AcDbEntity
  8
018
 62
     2
420
 16776960
370
    25
100
AcDbVertex
100
AcDb2dVertex
 10
5.20650733965234
 20
21.54912092702794
 30
0.0
  0
VERTEX
  5
438
330
436
100
AcDbEntity
  8
018
 62
     2
420
 16776960
370
    25
100
AcDbVertex
100
AcDb2dVertex
 10
4.205034646901668
 20
21.60119357963953
 30
0.0
  0
SEQEND
  5
439
330
436
100
AcDbEntity
  8
018
370
    25
  0
ENDBLK
  5
435
330
432
100
AcDbEntity
  8
0
100
AcDbBlockEnd
  0
BLOCK
  5
43C
330
43A
100
AcDbEntity
  8
0
100
AcDbBlockBegin
  2
block 128
 70
     0
 71
     0
 10
0.0
 20
0.0
 30
0.0
  3
block 128
  1

  0
POLYLINE
  5
43E
330
43A
100
AcDbEntity
  8
018
 62
     2
420
 16776960
370
    25
100
AcDb2dPolyline
 66
     1
 10
0.0
 20
0.0
 30
0.0
  0
VERTEX
  5
43F
330
43E
100
AcDbEntity
  8
018
 62
     2
420
 16776960
370
    25
100
AcDbVertex
100
AcDb2dVertex
 10
3.532620466502705
 20
23.67839804731374
 30
0.0
  0
VERTEX
  5
440
330
43E
100
AcDbEntity
  8
018
 62
     2
420
 16776960
370
    25
100
AcDbVertex
100
AcDb2dVertex
 10
3.785886828179259
 20
22.09702927445417
 30
0.0
  0
SEQEND
  5
441
330
43E
100
AcDbEntity
  8
018
370
    25
  0
ENDBLK
  5
43D
330
43A
100
AcDbEntity
  8
0
100
AcDbBlockEnd
  0
BLOCK
  5
444
330
442
100
AcDbEntity
  8
0
100
AcDbBlockBegin
  2
block 129
 70
     0
 71
     0
 10
0.0
 20
0.0
 30
0.0
  3
block 129
  1

  0
POLYLINE
  5
446
330
442
100
AcDbEntity
  8
018
 62
     2
420
 16776960
370
    25
100
AcDb2dPolyline
 66
     1
 10
0.0
 20
0.0
 30
0.0
  0
VERTEX
  5
447
330
446
100
AcDbEntity
  8
018
 62
     2
420
 16776960
370
    25
100
AcDbVertex
100
AcDb2dVertex
 10
3.436553915521944
 20
23.67839804731374
 30
0.0
  0
VERTEX
  5
448
330
446
100
AcDbEntity
  8
018
 62
     2
420
 16776960
370
    25
100
AcDbVertex
100
AcDb2dVertex
 10
3.693024218113401
 20
22.08254263838194
 30
0.0
  0
SEQEND
  5
449
330
446
100
AcDbEntity
  8
018
370
    25
  0
ENDBLK
  5
445
330
442
100
AcDbEntity
  8
0
100
AcDbBlockEnd
  0
BLOCK
  5
44C
330
44A
100
AcDbEntity
  8
0
100
AcDbBlockBegin
  2
block 130
 70
     0
 71
     0
 10
0.0
 20
0.0
 30
0.0
  3
block 130
  1

  0
SPLINE
  5
44E
330
44A
100
AcDbEntity
  8
018
 62
     2
420
 16776960
370
    25
100
AcDbSpline
210
0.0
220
0.0
230
1.0
 70
     8
 71
     3
 72
     8
 73
     4
 74
     0
 42
0.0000000001
 43
0.0000000001
 40
0.0
 40
0.0
 40
0.0
 40
0.0
 40
1.0
 40
1.0
 40
1.0
 40
1.0
 10
3.74974775269824
 20
23.76104594252724
 30
0.0
 10
3.743839410043336
 20
23.79144893024126
 30
0.0
 10
3.714314922257604
 20
23.81518565379361
 30
0.0
 10
3.683343493413529
 20
23.81441050679807
 30
0.0
  0
ENDBLK
  5
44D
330
44A
100
AcDbEntity
  8
0
100
AcDbBlockEnd
  0
BLOCK
  5
451
330
44F
100
AcDbEntity
  8
0
100
AcDbBlockBegin
  2
block 131
 70
     0
 71
     0
 10
0.0
 20
0.0
 30
0.0
  3
block 131
  1

  0
POLYLINE
  5
453
330
44F
100
AcDbEntity
  8
018
 62
     2
420
 16776960
370
    25
100
AcDb2dPolyline
 66
     1
 10
0.0
 20
0.0
 30
0.0
  0
VERTEX
  5
454
330
453
100
AcDbEntity
  8
018
 62
     2
420
 16776960
370
    25
100
AcDbVertex
100
AcDb2dVertex
 10
3.79203632767722
 20
23.49870174825846
 30
0.0
  0
VERTEX
  5
455
330
453
100
AcDbEntity
  8
018
 62
     2
420
 16776960
370
    25
100
AcDbVertex
100
AcDb2dVertex
 10
3.702670491835694
 20
23.48466297489476
 30
0.0
  0
SEQEND
  5
456
330
453
100
AcDbEntity
  8
018
370
    25
  0
ENDBLK
  5
452
330
44F
100
AcDbEntity
  8
0
100
AcDbBlockEnd
  0
BLOCK
  5
459
330
457
100
AcDbEntity
  8
0
100
AcDbBlockBegin
  2
block 132
 70
     0
 71
     0
 10
0.0
 20
0.0
 30
0.0
  3
block 132
  1

  0
SPLINE
  5
45B
330
457
100
AcDbEntity
  8
018
 62
     2
420
 16776960
370
    25
100
AcDbSpline
210
0.0
220
0.0
230
1.0
 70
     8
 71
     3
 72
     8
 73
     4
 74
     0
 42
0.0000000001
 43
0.0000000001
 40
0.0
 40
0.0
 40
0.0
 40
0.0
 40
1.0
 40
1.0
 40
1.0
 40
1.0
 10
3.785886828179259
 20
22.09702927445417
 30
0.0
 10
3.827538060073016
 20
21.87700810614194
 30
0.0
 10
4.039945562340144
 20
21.69701897377724
 30
0.0
 10
4.263808014652493
 20
21.69207525849456
 30
0.0
  0
ENDBLK
  5
45A
330
457
100
AcDbEntity
  8
0
100
AcDbBlockEnd
  0
BLOCK
  5
45E
330
45C
100
AcDbEntity
  8
0
100
AcDbBlockBegin
  2
block 133
 70
     0
 71
     0
 10
0.0
 20
0.0
 30
0.0
  3
block 133
  1

  0
POLYLINE
  5
460
330
45C
100
AcDbEntity
  8
018
 62
     2
420
 16776960
370
    25
100
AcDb2dPolyline
 66
     1
 10
0.0
 20
0.0
 30
0.0
  0
VERTEX
  5
461
330
460
100
AcDbEntity
  8
018
 62
     2
420
 16776960
370
    25
100
AcDbVertex
100
AcDb2dVertex
 10
3.187955661307428
 20
23.67839804731374
 30
0.0
  0
VERTEX
  5
462
330
460
100
AcDbEntity
  8
018
 62
     2
420
 16776960
370
    25
100
AcDbVertex
100
AcDb2dVertex
 10
3.187955661307428
 20
23.81441050679807
 30
0.0
  0
SEQEND
  5
463
330
460
100
AcDbEntity
  8
018
370
    25
  0
ENDBLK
  5
45F
330
45C
100
AcDbEntity
  8
0
100
AcDbBlockEnd
  0
BLOCK
  5
466
330
464
100
AcDbEntity
  8
0
100
AcDbBlockBegin
  2
block 134
 70
     0
 71
     0
 10
0.0
 20
0.0
 30
0.0
  3
block 134
  1

  0
POLYLINE
  5
468
330
464
100
AcDbEntity
  8
018
 62
     2
420
 16776960
370
    25
100
AcDb2dPolyline
 66
     1
 10
0.0
 20
0.0
 30
0.0
  0
VERTEX
  5
469
330
468
100
AcDbEntity
  8
018
 62
     2
420
 16776960
370
    25
100
AcDbVertex
100
AcDb2dVertex
 10
2.711894827623492
 20
23.67839804731374
 30
0.0
  0
VERTEX
  5
46A
330
468
100
AcDbEntity
  8
018
 62
     2
420
 16776960
370
    25
100
AcDbVertex
100
AcDb2dVertex
 10
2.711894827623492
 20
23.81441050679807
 30
0.0
  0
SEQEND
  5
46B
330
468
100
AcDbEntity
  8
018
370
    25
  0
ENDBLK
  5
467
330
464
100
AcDbEntity
  8
0
100
AcDbBlockEnd
  0
BLOCK
  5
46E
330
46C
100
AcDbEntity
  8
0
100
AcDbBlockBegin
  2
block 135
 70
     0
 71
     0
 10
0.0
 20
0.0
 30
0.0
  3
block 135
  1

  0
POLYLINE
  5
470
330
46C
100
AcDbEntity
  8
018
 62
     2
420
 16776960
370
    25
100
AcDb2dPolyline
 66
     1
 10
0.0
 20
0.0
 30
0.0
  0
VERTEX
  5
471
330
470
100
AcDbEntity
  8
018
 62
     2
420
 16776960
370
    25
100
AcDbVertex
100
AcDb2dVertex
 10
3.822749374189449
 20
23.30818784224318
 30
0.0
  0
VERTEX
  5
472
330
470
100
AcDbEntity
  8
018
 62
     2
420
 16776960
370
    25
100
AcDbVertex
100
AcDb2dVertex
 10
3.732935675639387
 20
23.29408016692432
 30
0.0
  0
SEQEND
  5
473
330
470
100
AcDbEntity
  8
018
370
    25
  0
ENDBLK
  5
46F
330
46C
100
AcDbEntity
  8
0
100
AcDbBlockEnd
  0
BLOCK
  5
477
330
475
100
AcDbEntity
  8
0
100
AcDbBlockBegin
  2
block 136
 70
     0
 71
     0
 10
0.0
 20
0.0
 30
0.0
  3
block 136
  1

  0
POLYLINE
  5
479
330
475
100
AcDbEntity
  8
035
 62
     4
420
    65535
370
    25
100
AcDb2dPolyline
 66
     1
 10
0.0
 20
0.0
 30
0.0
  0
VERTEX
  5
47A
330
479
100
AcDbEntity
  8
035
 62
     4
420
    65535
370
    25
100
AcDbVertex
100
AcDb2dVertex
 10
8.705055789328805
 20
23.78721145999896
 30
0.0
  0
VERTEX
  5
47B
330
479
100
AcDbEntity
  8
035
 62
     4
420
    65535
370
    25
100
AcDbVertex
100
AcDb2dVertex
 10
8.705055789328805
 20
21.774154712578
 30
0.0
  0
SEQEND
  5
47C
330
479
100
AcDbEntity
  8
035
370
    25
  0
ENDBLK
  5
478
330
475
100
AcDbEntity
  8
0
100
AcDbBlockEnd
  0
BLOCK
  5
47F
330
47D
100
AcDbEntity
  8
0
100
AcDbBlockBegin
  2
block 137
 70
     0
 71
     0
 10
0.0
 20
0.0
 30
0.0
  3
block 137
  1

  0
POLYLINE
  5
481
330
47D
100
AcDbEntity
  8
035
 62
     4
420
    65535
370
    25
100
AcDb2dPolyline
 66
     1
 10
0.0
 20
0.0
 30
0.0
  0
VERTEX
  5
482
330
481
100
AcDbEntity
  8
035
 62
     4
420
    65535
370
    25
100
AcDbVertex
100
AcDb2dVertex
 10
1.833756634607848
 20
9.312857161277195
 30
0.0
  0
VERTEX
  5
483
330
481
100
AcDbEntity
  8
035
 62
     4
420
    65535
370
    25
100
AcDbVertex
100
AcDb2dVertex
 10
4.430585197115419
 20
11.90970294927356
 30
0.0
  0
SEQEND
  5
484
330
481
100
AcDbEntity
  8
035
370
    25
  0
ENDBLK
  5
480
330
47D
100
AcDbEntity
  8
0
100
AcDbBlockEnd
  0
BLOCK
  5
487
330
485
100
AcDbEntity
  8
0
100
AcDbBlockBegin
  2
block 138
 70
     0
 71
     0
 10
0.0
 20
0.0
 30
0.0
  3
block 138
  1

  0
POLYLINE
  5
489
330
485
100
AcDbEntity
  8
035
 62
     4
420
    65535
370
    25
100
AcDb2dPolyline
 66
     1
 10
0.0
 20
0.0
 30
0.0
  0
VERTEX
  5
48A
330
489
100
AcDbEntity
  8
035
 62
     4
420
    65535
370
    25
100
AcDbVertex
100
AcDb2dVertex
 10
1.833756634607848
 20
9.312857161277195
 30
0.0
  0
VERTEX
  5
48B
330
489
100
AcDbEntity
  8
035
 62
     4
420
    65535
370
    25
100
AcDbVertex
100
AcDb2dVertex
 10
4.430585197115419
 20
6.716045824258413
 30
0.0
  0
SEQEND
  5
48C
330
489
100
AcDbEntity
  8
035
370
    25
  0
ENDBLK
  5
488
330
485
100
AcDbEntity
  8
0
100
AcDbBlockEnd
  0
BLOCK
  5
48F
330
48D
100
AcDbEntity
  8
0
100
AcDbBlockBegin
  2
block 139
 70
     0
 71
     0
 10
0.0
 20
0.0
 30
0.0
  3
block 139
  1

  0
SPLINE
  5
491
330
48D
100
AcDbEntity
  8
035
 62
     4
420
    65535
370
    25
100
AcDbSpline
210
0.0
220
0.0
230
1.0
 70
     8
 71
     3
 72
    14
 73
    10
 74
     0
 42
0.0000000001
 43
0.0000000001
 40
0.0
 40
0.0
 40
0.0
 40
0.0
 40
1.0
 40
1.0
 40
1.0
 40
2.0
 40
2.0
 40
2.0
 40
3.0
 40
3.0
 40
3.0
 40
3.0
 10
4.746225053699869
 20
6.888541868999555
 30
0.0
 10
6.0851278463541
 20
6.232181844152694
 30
0.0
 10
7.702635694694692
 20
6.785498995058921
 30
0.0
 10
8.359012945030342
 20
8.124401787713152
 30
0.0
 10
9.015372969877204
 20
9.463304580367382
 30
0.0
 10
8.462073044459766
 20
11.08081242870797
 30
0.0
 10
7.123170251805536
 20
11.73717245355484
 30
0.0
 10
6.46901508952377
 20
12.10469548237419
 30
0.0
 10
5.400380215981635
 20
12.10469548237419
 30
0.0
 10
4.746225053699869
 20
11.73717245355484
 30
0.0
  0
ENDBLK
  5
490
330
48D
100
AcDbEntity
  8
0
100
AcDbBlockEnd
  0
BLOCK
  5
494
330
492
100
AcDbEntity
  8
0
100
AcDbBlockBegin
  2
block 140
 70
     0
 71
     0
 10
0.0
 20
0.0
 30
0.0
  3
block 140
  1

  0
POLYLINE
  5
496
330
492
100
AcDbEntity
  8
035
 62
     4
420
    65535
370
    25
100
AcDb2dPolyline
 66
     1
 10
0.0
 20
0.0
 30
0.0
  0
VERTEX
  5
497
330
496
100
AcDbEntity
  8
035
 62
     4
420
    65535
370
    25
100
AcDbVertex
100
AcDb2dVertex
 10
4.574573057909427
 20
6.860016459563632
 30
0.0
  0
VERTEX
  5
498
330
496
100
AcDbEntity
  8
035
 62
     4
420
    65535
370
    25
100
AcDbVertex
100
AcDb2dVertex
 10
4.430585197115419
 20
6.716045824258413
 30
0.0
  0
SEQEND
  5
499
330
496
100
AcDbEntity
  8
035
370
    25
  0
ENDBLK
  5
495
330
492
100
AcDbEntity
  8
0
100
AcDbBlockEnd
  0
BLOCK
  5
49C
330
49A
100
AcDbEntity
  8
0
100
AcDbBlockBegin
  2
block 141
 70
     0
 71
     0
 10
0.0
 20
0.0
 30
0.0
  3
block 141
  1

  0
SPLINE
  5
49E
330
49A
100
AcDbEntity
  8
035
 62
     4
420
    65535
370
    25
100
AcDbSpline
210
0.0
220
0.0
230
1.0
 70
     8
 71
     3
 72
     8
 73
     4
 74
     0
 42
0.0000000001
 43
0.0000000001
 40
0.0
 40
0.0
 40
0.0
 40
0.0
 40
1.0
 40
1.0
 40
1.0
 40
1.0
 10
4.746225053699869
 20
6.888541868999555
 30
0.0
 10
4.692447077698087
 20
6.917308435278535
 30
0.0
 10
4.616138162359236
 20
6.904630475529236
 30
0.0
 10
4.574573057909427
 20
6.860016459563632
 30
0.0
  0
ENDBLK
  5
49D
330
49A
100
AcDbEntity
  8
0
100
AcDbBlockEnd
  0
BLOCK
  5
4A1
330
49F
100
AcDbEntity
  8
0
100
AcDbBlockBegin
  2
block 142
 70
     0
 71
     0
 10
0.0
 20
0.0
 30
0.0
  3
block 142
  1

  0
SPLINE
  5
4A3
330
49F
100
AcDbEntity
  8
035
 62
     4
420
    65535
370
    25
100
AcDbSpline
210
0.0
220
0.0
230
1.0
 70
     8
 71
     3
 72
     8
 73
     4
 74
     0
 42
0.0000000001
 43
0.0000000001
 40
0.0
 40
0.0
 40
0.0
 40
0.0
 40
1.0
 40
1.0
 40
1.0
 40
1.0
 10
4.574573057909427
 20
11.76573231396834
 30
0.0
 10
4.616138162359236
 20
11.72111829800273
 30
0.0
 10
4.692447077698087
 20
11.70840588727586
 30
0.0
 10
4.746225053699869
 20
11.73717245355484
 30
0.0
  0
ENDBLK
  5
4A2
330
49F
100
AcDbEntity
  8
0
100
AcDbBlockEnd
  0
BLOCK
  5
4A6
330
4A4
100
AcDbEntity
  8
0
100
AcDbBlockBegin
  2
block 143
 70
     0
 71
     0
 10
0.0
 20
0.0
 30
0.0
  3
block 143
  1

  0
POLYLINE
  5
4A8
330
4A4
100
AcDbEntity
  8
035
 62
     4
420
    65535
370
    25
100
AcDb2dPolyline
 66
     1
 10
0.0
 20
0.0
 30
0.0
  0
VERTEX
  5
4A9
330
4A8
100
AcDbEntity
  8
035
 62
     4
420
    65535
370
    25
100
AcDbVertex
100
AcDb2dVertex
 10
4.574573057909427
 20
11.76573231396834
 30
0.0
  0
VERTEX
  5
4AA
330
4A8
100
AcDbEntity
  8
035
 62
     4
420
    65535
370
    25
100
AcDbVertex
100
AcDb2dVertex
 10
4.430585197115419
 20
11.90970294927356
 30
0.0
  0
SEQEND
  5
4AB
330
4A8
100
AcDbEntity
  8
035
370
    25
  0
ENDBLK
  5
4A7
330
4A4
100
AcDbEntity
  8
0
100
AcDbBlockEnd
  0
BLOCK
  5
4AE
330
4AC
100
AcDbEntity
  8
0
100
AcDbBlockBegin
  2
block 144
 70
     0
 71
     0
 10
0.0
 20
0.0
 30
0.0
  3
block 144
  1

  0
POLYLINE
  5
4B0
330
4AC
100
AcDbEntity
  8
035
 62
     4
420
    65535
370
    25
100
AcDb2dPolyline
 66
     1
 10
0.0
 20
0.0
 30
0.0
  0
VERTEX
  5
4B1
330
4B0
100
AcDbEntity
  8
035
 62
     4
420
    65535
370
    25
100
AcDbVertex
100
AcDb2dVertex
 10
8.705055789328805
 20
21.774154712578
 30
0.0
  0
VERTEX
  5
4B2
330
4B0
100
AcDbEntity
  8
035
 62
     4
420
    65535
370
    25
100
AcDbVertex
100
AcDb2dVertex
 10
6.774698613587711
 20
21.774154712578
 30
0.0
  0
SEQEND
  5
4B3
330
4B0
100
AcDbEntity
  8
035
370
    25
  0
ENDBLK
  5
4AF
330
4AC
100
AcDbEntity
  8
0
100
AcDbBlockEnd
  0
BLOCK
  5
4B6
330
4B4
100
AcDbEntity
  8
0
100
AcDbBlockBegin
  2
block 145
 70
     0
 71
     0
 10
0.0
 20
0.0
 30
0.0
  3
block 145
  1

  0
POLYLINE
  5
4B8
330
4B4
100
AcDbEntity
  8
035
 62
     4
420
    65535
370
    25
100
AcDb2dPolyline
 66
     1
 10
0.0
 20
0.0
 30
0.0
  0
VERTEX
  5
4B9
330
4B8
100
AcDbEntity
  8
035
 62
     4
420
    65535
370
    25
100
AcDbVertex
100
AcDb2dVertex
 10
8.677856742529697
 20
23.81441050679807
 30
0.0
  0
VERTEX
  5
4BA
330
4B8
100
AcDbEntity
  8
035
 62
     4
420
    65535
370
    25
100
AcDbVertex
100
AcDb2dVertex
 10
4.858569691586999
 20
23.81441050679807
 30
0.0
  0
SEQEND
  5
4BB
330
4B8
100
AcDbEntity
  8
035
370
    25
  0
ENDBLK
  5
4B7
330
4B4
100
AcDbEntity
  8
0
100
AcDbBlockEnd
  0
BLOCK
  5
4BE
330
4BC
100
AcDbEntity
  8
0
100
AcDbBlockBegin
  2
block 146
 70
     0
 71
     0
 10
0.0
 20
0.0
 30
0.0
  3
block 146
  1

  0
SPLINE
  5
4C0
330
4BC
100
AcDbEntity
  8
035
 62
     4
420
    65535
370
    25
100
AcDbSpline
210
0.0
220
0.0
230
1.0
 70
     8
 71
     3
 72
    11
 73
     7
 74
     0
 42
0.0000000001
 43
0.0000000001
 40
0.0
 40
0.0
 40
0.0
 40
0.0
 40
1.0
 40
1.0
 40
1.0
 40
2.0
 40
2.0
 40
2.0
 40
2.0
 10
8.705055789328805
 20
23.78721145999896
 30
0.0
 10
8.705055789328805
 20
23.80223208622368
 30
0.0
 10
8.69287736875441
 20
23.81441050679807
 30
0.0
 10
8.677856742529697
 20
23.81441050679807
 30
0.0
 10
8.677856742529697
 20
23.81441050679807
 30
0.0
 10
8.677856742529697
 20
23.81441050679807
 30
0.0
 10
8.677856742529697
 20
23.81441050679807
 30
0.0
  0
ENDBLK
  5
4BF
330
4BC
100
AcDbEntity
  8
0
100
AcDbBlockEnd
  0
BLOCK
  5
4C3
330
4C1
100
AcDbEntity
  8
0
100
AcDbBlockBegin
  2
block 147
 70
     0
 71
     0
 10
0.0
 20
0.0
 30
0.0
  3
block 147
  1

  0
SPLINE
  5
4C5
330
4C1
100
AcDbEntity
  8
035
 62
     4
420
    65535
370
    25
100
AcDbSpline
210
0.0
220
0.0
230
1.0
 70
     8
 71
     3
 72
    11
 73
     7
 74
     0
 42
0.0000000001
 43
0.0000000001
 40
0.0
 40
0.0
 40
0.0
 40
0.0
 40
1.0
 40
1.0
 40
1.0
 40
2.0
 40
2.0
 40
2.0
 40
2.0
 10
8.705055789328805
 20
23.78721145999896
 30
0.0
 10
8.705055789328805
 20
23.80223208622368
 30
0.0
 10
8.69287736875441
 20
23.81441050679807
 30
0.0
 10
8.677856742529697
 20
23.81441050679807
 30
0.0
 10
8.677856742529697
 20
23.81441050679807
 30
0.0
 10
8.677856742529697
 20
23.81441050679807
 30
0.0
 10
8.677856742529697
 20
23.81441050679807
 30
0.0
  0
ENDBLK
  5
4C4
330
4C1
100
AcDbEntity
  8
0
100
AcDbBlockEnd
  0
BLOCK
  5
4C8
330
4C6
100
AcDbEntity
  8
0
100
AcDbBlockBegin
  2
block 148
 70
     0
 71
     0
 10
0.0
 20
0.0
 30
0.0
  3
block 148
  1

  0
POLYLINE
  5
4CA
330
4C6
100
AcDbEntity
  8
035
 62
     4
420
    65535
370
    25
100
AcDb2dPolyline
 66
     1
 10
0.0
 20
0.0
 30
0.0
  0
VERTEX
  5
4CB
330
4CA
100
AcDbEntity
  8
035
 62
     4
420
    65535
370
    25
100
AcDbVertex
100
AcDb2dVertex
 10
20.99203139407674
 20
23.78721145999896
 30
0.0
  0
VERTEX
  5
4CC
330
4CA
100
AcDbEntity
  8
035
 62
     4
420
    65535
370
    25
100
AcDbVertex
100
AcDb2dVertex
 10
20.99203139407674
 20
21.774154712578
 30
0.0
  0
SEQEND
  5
4CD
330
4CA
100
AcDbEntity
  8
035
370
    25
  0
ENDBLK
  5
4C9
330
4C6
100
AcDbEntity
  8
0
100
AcDbBlockEnd
  0
BLOCK
  5
4D0
330
4CE
100
AcDbEntity
  8
0
100
AcDbBlockBegin
  2
block 149
 70
     0
 71
     0
 10
0.0
 20
0.0
 30
0.0
  3
block 149
  1

  0
POLYLINE
  5
4D2
330
4CE
100
AcDbEntity
  8
035
 62
     4
420
    65535
370
    25
100
AcDb2dPolyline
 66
     1
 10
0.0
 20
0.0
 30
0.0
  0
VERTEX
  5
4D3
330
4D2
100
AcDbEntity
  8
035
 62
     4
420
    65535
370
    25
100
AcDbVertex
100
AcDb2dVertex
 10
20.99203139407674
 20
21.774154712578
 30
0.0
  0
VERTEX
  5
4D4
330
4D2
100
AcDbEntity
  8
035
 62
     4
420
    65535
370
    25
100
AcDbVertex
100
AcDb2dVertex
 10
15.59211626629244
 20
21.774154712578
 30
0.0
  0
SEQEND
  5
4D5
330
4D2
100
AcDbEntity
  8
035
370
    25
  0
ENDBLK
  5
4D1
330
4CE
100
AcDbEntity
  8
0
100
AcDbBlockEnd
  0
BLOCK
  5
4D8
330
4D6
100
AcDbEntity
  8
0
100
AcDbBlockBegin
  2
block 150
 70
     0
 71
     0
 10
0.0
 20
0.0
 30
0.0
  3
block 150
  1

  0
SPLINE
  5
4DA
330
4D6
100
AcDbEntity
  8
035
 62
     4
420
    65535
370
    25
100
AcDbSpline
210
0.0
220
0.0
230
1.0
 70
     8
 71
     3
 72
    11
 73
     7
 74
     0
 42
0.0000000001
 43
0.0000000001
 40
0.0
 40
0.0
 40
0.0
 40
0.0
 40
1.0
 40
1.0
 40
1.0
 40
2.0
 40
2.0
 40
2.0
 40
2.0
 10
20.99203139407674
 20
23.78721145999896
 30
0.0
 10
20.99203139407674
 20
23.80223208622368
 30
0.0
 10
20.97983574801356
 20
23.81441050679807
 30
0.0
 10
20.96481512178885
 20
23.81441050679807
 30
0.0
 10
20.96481512178885
 20
23.81441050679807
 30
0.0
 10
20.96481512178885
 20
23.81441050679807
 30
0.0
 10
20.96481512178885
 20
23.81441050679807
 30
0.0
  0
ENDBLK
  5
4D9
330
4D6
100
AcDbEntity
  8
0
100
AcDbBlockEnd
  0
BLOCK
  5
4DD
330
4DB
100
AcDbEntity
  8
0
100
AcDbBlockBegin
  2
block 151
 70
     0
 71
     0
 10
0.0
 20
0.0
 30
0.0
  3
block 151
  1

  0
SPLINE
  5
4DF
330
4DB
100
AcDbEntity
  8
035
 62
     4
420
    65535
370
    25
100
AcDbSpline
210
0.0
220
0.0
230
1.0
 70
     8
 71
     3
 72
    11
 73
     7
 74
     0
 42
0.0000000001
 43
0.0000000001
 40
0.0
 40
0.0
 40
0.0
 40
0.0
 40
1.0
 40
1.0
 40
1.0
 40
2.0
 40
2.0
 40
2.0
 40
2.0
 10
20.99203139407674
 20
23.78721145999896
 30
0.0
 10
20.99203139407674
 20
23.80223208622368
 30
0.0
 10
20.97983574801356
 20
23.81441050679807
 30
0.0
 10
20.96481512178885
 20
23.81441050679807
 30
0.0
 10
20.96481512178885
 20
23.81441050679807
 30
0.0
 10
20.96481512178885
 20
23.81441050679807
 30
0.0
 10
20.96481512178885
 20
23.81441050679807
 30
0.0
  0
ENDBLK
  5
4DE
330
4DB
100
AcDbEntity
  8
0
100
AcDbBlockEnd
  0
BLOCK
  5
4E2
330
4E0
100
AcDbEntity
  8
0
100
AcDbBlockBegin
  2
block 152
 70
     0
 71
     0
 10
0.0
 20
0.0
 30
0.0
  3
block 152
  1

  0
POLYLINE
  5
4E4
330
4E0
100
AcDbEntity
  8
035
 62
     4
420
    65535
370
    25
100
AcDb2dPolyline
 66
     1
 10
0.0
 20
0.0
 30
0.0
  0
VERTEX
  5
4E5
330
4E4
100
AcDbEntity
  8
035
 62
     4
420
    65535
370
    25
100
AcDbVertex
100
AcDb2dVertex
 10
15.59211626629244
 20
23.78721145999896
 30
0.0
  0
VERTEX
  5
4E6
330
4E4
100
AcDbEntity
  8
035
 62
     4
420
    65535
370
    25
100
AcDbVertex
100
AcDb2dVertex
 10
15.59211626629244
 20
21.774154712578
 30
0.0
  0
SEQEND
  5
4E7
330
4E4
100
AcDbEntity
  8
035
370
    25
  0
ENDBLK
  5
4E3
330
4E0
100
AcDbEntity
  8
0
100
AcDbBlockEnd
  0
BLOCK
  5
4EA
330
4E8
100
AcDbEntity
  8
0
100
AcDbBlockBegin
  2
block 153
 70
     0
 71
     0
 10
0.0
 20
0.0
 30
0.0
  3
block 153
  1

  0
SPLINE
  5
4EC
330
4E8
100
AcDbEntity
  8
035
 62
     4
420
    65535
370
    25
100
AcDbSpline
210
0.0
220
0.0
230
1.0
 70
     8
 71
     3
 72
    11
 73
     7
 74
     0
 42
0.0000000001
 43
0.0000000001
 40
0.0
 40
0.0
 40
0.0
 40
0.0
 40
1.0
 40
1.0
 40
1.0
 40
2.0
 40
2.0
 40
2.0
 40
2.0
 10
15.61933253858033
 20
23.81441050679807
 30
0.0
 10
15.60427746137804
 20
23.81441050679807
 30
0.0
 10
15.59211626629244
 20
23.80223208622368
 30
0.0
 10
15.59211626629244
 20
23.78721145999896
 30
0.0
 10
15.59211626629244
 20
23.78721145999896
 30
0.0
 10
15.59211626629244
 20
23.78721145999896
 30
0.0
 10
15.59211626629244
 20
23.78721145999896
 30
0.0
  0
ENDBLK
  5
4EB
330
4E8
100
AcDbEntity
  8
0
100
AcDbBlockEnd
  0
BLOCK
  5
4EF
330
4ED
100
AcDbEntity
  8
0
100
AcDbBlockBegin
  2
block 154
 70
     0
 71
     0
 10
0.0
 20
0.0
 30
0.0
  3
block 154
  1

  0
SPLINE
  5
4F1
330
4ED
100
AcDbEntity
  8
035
 62
     4
420
    65535
370
    25
100
AcDbSpline
210
0.0
220
0.0
230
1.0
 70
     8
 71
     3
 72
    11
 73
     7
 74
     0
 42
0.0000000001
 43
0.0000000001
 40
0.0
 40
0.0
 40
0.0
 40
0.0
 40
1.0
 40
1.0
 40
1.0
 40
2.0
 40
2.0
 40
2.0
 40
2.0
 10
15.61933253858033
 20
23.81441050679807
 30
0.0
 10
15.60427746137804
 20
23.81441050679807
 30
0.0
 10
15.59211626629244
 20
23.80223208622368
 30
0.0
 10
15.59211626629244
 20
23.78721145999896
 30
0.0
 10
15.59211626629244
 20
23.78721145999896
 30
0.0
 10
15.59211626629244
 20
23.78721145999896
 30
0.0
 10
15.59211626629244
 20
23.78721145999896
 30
0.0
  0
ENDBLK
  5
4F0
330
4ED
100
AcDbEntity
  8
0
100
AcDbBlockEnd
  0
BLOCK
  5
4F4
330
4F2
100
AcDbEntity
  8
0
100
AcDbBlockBegin
  2
block 155
 70
     0
 71
     0
 10
0.0
 20
0.0
 30
0.0
  3
block 155
  1

  0
POLYLINE
  5
4F6
330
4F2
100
AcDbEntity
  8
035
 62
     4
420
    65535
370
    25
100
AcDb2dPolyline
 66
     1
 10
0.0
 20
0.0
 30
0.0
  0
VERTEX
  5
4F7
330
4F6
100
AcDbEntity
  8
035
 62
     4
420
    65535
370
    25
100
AcDbVertex
100
AcDb2dVertex
 10
15.61933253858033
 20
23.81441050679807
 30
0.0
  0
VERTEX
  5
4F8
330
4F6
100
AcDbEntity
  8
035
 62
     4
420
    65535
370
    25
100
AcDbVertex
100
AcDb2dVertex
 10
20.96481512178885
 20
23.81441050679807
 30
0.0
  0
SEQEND
  5
4F9
330
4F6
100
AcDbEntity
  8
035
370
    25
  0
ENDBLK
  5
4F5
330
4F2
100
AcDbEntity
  8
0
100
AcDbBlockEnd
  0
BLOCK
  5
4FD
330
4FB
100
AcDbEntity
  8
0
100
AcDbBlockBegin
  2
block 156
 70
     0
 71
     0
 10
0.0
 20
0.0
 30
0.0
  3
block 156
  1

  0
SPLINE
  5
4FF
330
4FB
100
AcDbEntity
  8
025
 62
     3
420
    65280
370
    25
100
AcDbSpline
210
0.0
220
0.0
230
1.0
 70
     8
 71
     3
 72
     8
 73
     4
 74
     0
 42
0.0000000001
 43
0.0000000001
 40
0.0
 40
0.0
 40
0.0
 40
0.0
 40
1.0
 40
1.0
 40
1.0
 40
1.0
 10
3.619109645716333
 20
22.54251486553619
 30
0.0
 10
3.518082153964107
 20
22.71769808652855
 30
0.0
 10
3.269363321328063
 20
22.93844272536994
 30
0.0
 10
3.083396944353291
 20
23.01790390515733
 30
0.0
  0
ENDBLK
  5
4FE
330
4FB
100
AcDbEntity
  8
0
100
AcDbBlockEnd
  0
BLOCK
  5
502
330
500
100
AcDbEntity
  8
0
100
AcDbBlockBegin
  2
block 157
 70
     0
 71
     0
 10
0.0
 20
0.0
 30
0.0
  3
block 157
  1

  0
SPLINE
  5
504
330
500
100
AcDbEntity
  8
025
 62
     3
420
    65280
370
    25
100
AcDbSpline
210
0.0
220
0.0
230
1.0
 70
    11
 71
     3
 72
    23
 73
    19
 74
     0
 42
0.0000000001
 43
0.0000000001
 40
0.0
 40
0.0
 40
0.0
 40
0.0
 40
1.0
 40
1.0
 40
1.0
 40
2.0
 40
2.0
 40
2.0
 40
3.0
 40
3.0
 40
3.0
 40
4.0
 40
4.0
 40
4.0
 40
5.0
 40
5.0
 40
5.0
 40
6.0
 40
6.0
 40
6.0
 40
6.0
 10
3.234740088860548
 20
9.312857161277195
 30
0.0
 10
3.234740088860548
 20
9.444322091721013
 30
0.0
 10
3.128165989718003
 20
9.550913416352348
 30
0.0
 10
2.996701059274185
 20
9.550913416352348
 30
0.0
 10
2.865253354319157
 20
9.550913416352348
 30
0.0
 10
2.758679255176612
 20
9.444322091721013
 30
0.0
 10
2.758679255176612
 20
9.312857161277195
 30
0.0
 10
2.758679255176612
 20
9.181392230833378
 30
0.0
 10
2.865253354319157
 20
9.074835357179623
 30
0.0
 10
2.996701059274185
 20
9.074835357179623
 30
0.0
 10
3.128165989718003
 20
9.074835357179623
 30
0.0
 10
3.234740088860548
 20
9.181392230833378
 30
0.0
 10
3.234740088860548
 20
9.312857161277195
 30
0.0
 10
3.234740088860548
 20
9.312857161277195
 30
0.0
 10
3.234740088860548
 20
9.312857161277195
 30
0.0
 10
3.234740088860548
 20
9.312857161277195
 30
0.0
 10
3.234740088860548
 20
9.312857161277195
 30
0.0
 10
3.234740088860548
 20
9.312857161277195
 30
0.0
 10
3.234740088860548
 20
9.312857161277195
 30
0.0
  0
ENDBLK
  5
503
330
500
100
AcDbEntity
  8
0
100
AcDbBlockEnd
  0
BLOCK
  5
507
330
505
100
AcDbEntity
  8
0
100
AcDbBlockBegin
  2
block 158
 70
     0
 71
     0
 10
0.0
 20
0.0
 30
0.0
  3
block 158
  1

  0
SPLINE
  5
509
330
505
100
AcDbEntity
  8
025
 62
     3
420
    65280
370
    25
100
AcDbSpline
210
0.0
220
0.0
230
1.0
 70
     8
 71
     3
 72
     8
 73
     4
 74
     0
 42
0.0000000001
 43
0.0000000001
 40
0.0
 40
0.0
 40
0.0
 40
0.0
 40
1.0
 40
1.0
 40
1.0
 40
1.0
 10
2.702937573452792
 20
23.13789666006713
 30
0.0
 10
2.494819217894326
 20
23.18466386213146
 30
0.0
 10
2.089882427423509
 20
23.24212809273426
 30
0.0
 10
1.876975385981477
 20
23.25509888579299
 30
0.0
  0
ENDBLK
  5
508
330
505
100
AcDbEntity
  8
0
100
AcDbBlockEnd
  0
BLOCK
  5
50C
330
50A
100
AcDbEntity
  8
0
100
AcDbBlockBegin
  2
block 159
 70
     0
 71
     0
 10
0.0
 20
0.0
 30
0.0
  3
block 159
  1

  0
POLYLINE
  5
50E
330
50A
100
AcDbEntity
  8
025
 62
     3
420
    65280
370
    25
100
AcDb2dPolyline
 66
     1
 10
0.0
 20
0.0
 30
0.0
  0
VERTEX
  5
50F
330
50E
100
AcDbEntity
  8
025
 62
     3
420
    65280
370
    25
100
AcDbVertex
100
AcDb2dVertex
 10
2.719336238780689
 20
23.13622578765452
 30
0.0
  0
VERTEX
  5
510
330
50E
100
AcDbEntity
  8
025
 62
     3
420
    65280
370
    25
100
AcDbVertex
100
AcDb2dVertex
 10
2.93146813322718
 20
23.13941250308064
 30
0.0
  0
SEQEND
  5
511
330
50E
100
AcDbEntity
  8
025
370
    25
  0
ENDBLK
  5
50D
330
50A
100
AcDbEntity
  8
0
100
AcDbBlockEnd
  0
BLOCK
  5
514
330
512
100
AcDbEntity
  8
0
100
AcDbBlockBegin
  2
block 160
 70
     0
 71
     0
 10
0.0
 20
0.0
 30
0.0
  3
block 160
  1

  0
POLYLINE
  5
516
330
512
100
AcDbEntity
  8
025
 62
     3
420
    65280
370
    25
100
AcDb2dPolyline
 66
     1
 10
0.0
 20
0.0
 30
0.0
  0
VERTEX
  5
517
330
516
100
AcDbEntity
  8
025
 62
     3
420
    65280
370
    25
100
AcDbVertex
100
AcDb2dVertex
 10
2.999112627704758
 20
23.31221860661999
 30
0.0
  0
VERTEX
  5
518
330
516
100
AcDbEntity
  8
025
 62
     3
420
    65280
370
    25
100
AcDbVertex
100
AcDb2dVertex
 10
2.99437561828756
 20
23.21489459495757
 30
0.0
  0
SEQEND
  5
519
330
516
100
AcDbEntity
  8
025
370
    25
  0
ENDBLK
  5
515
330
512
100
AcDbEntity
  8
0
100
AcDbBlockEnd
  0
BLOCK
  5
51C
330
51A
100
AcDbEntity
  8
0
100
AcDbBlockBegin
  2
block 161
 70
     0
 71
     0
 10
0.0
 20
0.0
 30
0.0
  3
block 161
  1

  0
SPLINE
  5
51E
330
51A
100
AcDbEntity
  8
025
 62
     3
420
    65280
370
    25
100
AcDbSpline
210
0.0
220
0.0
230
1.0
 70
     8
 71
     3
 72
     8
 73
     4
 74
     0
 42
0.0000000001
 43
0.0000000001
 40
0.0
 40
0.0
 40
0.0
 40
0.0
 40
1.0
 40
1.0
 40
1.0
 40
1.0
 10
2.93146813322718
 20
23.13941250308064
 30
0.0
 10
2.965781306896479
 20
23.14633714957414
 30
0.0
 10
2.993738275202338
 20
23.17989240173668
 30
0.0
 10
2.99437561828756
 20
23.21489459495757
 30
0.0
  0
ENDBLK
  5
51D
330
51A
100
AcDbEntity
  8
0
100
AcDbBlockEnd
  0
BLOCK
  5
521
330
51F
100
AcDbEntity
  8
0
100
AcDbBlockBegin
  2
block 162
 70
     0
 71
     0
 10
0.0
 20
0.0
 30
0.0
  3
block 162
  1

  0
SPLINE
  5
523
330
51F
100
AcDbEntity
  8
025
 62
     3
420
    65280
370
    25
100
AcDbSpline
210
0.0
220
0.0
230
1.0
 70
     8
 71
     3
 72
    11
 73
     7
 74
     0
 42
0.0000000001
 43
0.0000000001
 40
0.0
 40
0.0
 40
0.0
 40
0.0
 40
1.0
 40
1.0
 40
1.0
 40
2.0
 40
2.0
 40
2.0
 40
2.0
 10
2.700732710887696
 20
23.13837897375325
 30
0.0
 10
2.744606030835338
 20
23.12809535694573
 30
0.0
 10
2.78851380176056
 20
23.15534608021121
 30
0.0
 10
2.798797418568076
 20
23.19923662564764
 30
0.0
 10
2.799762045940305
 20
23.20292288024866
 30
0.0
 10
2.800761124290114
 20
23.21003700711885
 30
0.0
 10
2.800847251734063
 20
23.21386106563019
 30
0.0
  0
ENDBLK
  5
522
330
51F
100
AcDbEntity
  8
0
100
AcDbBlockEnd
  0
BLOCK
  5
526
330
524
100
AcDbEntity
  8
0
100
AcDbBlockBegin
  2
block 163
 70
     0
 71
     0
 10
0.0
 20
0.0
 30
0.0
  3
block 163
  1

  0
SPLINE
  5
528
330
524
100
AcDbEntity
  8
025
 62
     3
420
    65280
370
    25
100
AcDbSpline
210
0.0
220
0.0
230
1.0
 70
     8
 71
     3
 72
     8
 73
     4
 74
     0
 42
0.0000000001
 43
0.0000000001
 40
0.0
 40
0.0
 40
0.0
 40
0.0
 40
1.0
 40
1.0
 40
1.0
 40
1.0
 10
3.007863176009981
 20
23.13319410162751
 30
0.0
 10
3.007863176009981
 20
23.0875810073121
 30
0.0
 10
3.041573457571636
 20
23.03612847229694
 30
0.0
 10
3.083396944353291
 20
23.01790390515733
 30
0.0
  0
ENDBLK
  5
527
330
524
100
AcDbEntity
  8
0
100
AcDbBlockEnd
  0
BLOCK
  5
52B
330
529
100
AcDbEntity
  8
0
100
AcDbBlockBegin
  2
block 164
 70
     0
 71
     0
 10
0.0
 20
0.0
 30
0.0
  3
block 164
  1

  0
POLYLINE
  5
52D
330
529
100
AcDbEntity
  8
025
 62
     3
420
    65280
370
    25
100
AcDb2dPolyline
 66
     1
 10
0.0
 20
0.0
 30
0.0
  0
VERTEX
  5
52E
330
52D
100
AcDbEntity
  8
025
 62
     3
420
    65280
370
    25
100
AcDbVertex
100
AcDb2dVertex
 10
2.997837941534312
 20
23.33834967311413
 30
0.0
  0
VERTEX
  5
52F
330
52D
100
AcDbEntity
  8
025
 62
     3
420
    65280
370
    25
100
AcDbVertex
100
AcDb2dVertex
 10
3.007863176009981
 20
23.13319410162751
 30
0.0
  0
SEQEND
  5
530
330
52D
100
AcDbEntity
  8
025
370
    25
  0
ENDBLK
  5
52C
330
529
100
AcDbEntity
  8
0
100
AcDbBlockEnd
  0
BLOCK
  5
533
330
531
100
AcDbEntity
  8
0
100
AcDbBlockBegin
  2
block 165
 70
     0
 71
     0
 10
0.0
 20
0.0
 30
0.0
  3
block 165
  1

  0
SPLINE
  5
535
330
531
100
AcDbEntity
  8
025
 62
     3
420
    65280
370
    25
100
AcDbSpline
210
0.0
220
0.0
230
1.0
 70
     8
 71
     3
 72
    11
 73
     7
 74
     0
 42
0.0000000001
 43
0.0000000001
 40
0.0
 40
0.0
 40
0.0
 40
0.0
 40
1.0
 40
1.0
 40
1.0
 40
2.0
 40
2.0
 40
2.0
 40
2.0
 10
2.997837941534312
 20
23.33834967311413
 30
0.0
 10
2.997837941534312
 20
23.39093909038942
 30
0.0
 10
2.955222082268326
 20
23.43357217514419
 30
0.0
 10
2.902632664993041
 20
23.43357217514419
 30
0.0
 10
2.902632664993041
 20
23.43357217514419
 30
0.0
 10
2.902632664993041
 20
23.43357217514419
 30
0.0
 10
2.902632664993041
 20
23.43357217514419
 30
0.0
  0
ENDBLK
  5
534
330
531
100
AcDbEntity
  8
0
100
AcDbBlockEnd
  0
BLOCK
  5
538
330
536
100
AcDbEntity
  8
0
100
AcDbBlockBegin
  2
block 166
 70
     0
 71
     0
 10
0.0
 20
0.0
 30
0.0
  3
block 166
  1

  0
POLYLINE
  5
53A
330
536
100
AcDbEntity
  8
025
 62
     3
420
    65280
370
    25
100
AcDb2dPolyline
 66
     1
 10
0.0
 20
0.0
 30
0.0
  0
VERTEX
  5
53B
330
53A
100
AcDbEntity
  8
025
 62
     3
420
    65280
370
    25
100
AcDbVertex
100
AcDb2dVertex
 10
2.80742738845177
 20
23.33834967311413
 30
0.0
  0
VERTEX
  5
53C
330
53A
100
AcDbEntity
  8
025
 62
     3
420
    65280
370
    25
100
AcDbVertex
100
AcDb2dVertex
 10
2.800847251734063
 20
23.21386106563019
 30
0.0
  0
SEQEND
  5
53D
330
53A
100
AcDbEntity
  8
025
370
    25
  0
ENDBLK
  5
539
330
536
100
AcDbEntity
  8
0
100
AcDbBlockEnd
  0
BLOCK
  5
540
330
53E
100
AcDbEntity
  8
0
100
AcDbBlockBegin
  2
block 167
 70
     0
 71
     0
 10
0.0
 20
0.0
 30
0.0
  3
block 167
  1

  0
SPLINE
  5
542
330
53E
100
AcDbEntity
  8
025
 62
     3
420
    65280
370
    25
100
AcDbSpline
210
0.0
220
0.0
230
1.0
 70
     8
 71
     3
 72
    11
 73
     7
 74
     0
 42
0.0000000001
 43
0.0000000001
 40
0.0
 40
0.0
 40
0.0
 40
0.0
 40
1.0
 40
1.0
 40
1.0
 40
2.0
 40
2.0
 40
2.0
 40
2.0
 10
2.902632664993041
 20
23.43357217514419
 30
0.0
 10
2.850043247717756
 20
23.43357217514419
 30
0.0
 10
2.80742738845177
 20
23.39093909038942
 30
0.0
 10
2.80742738845177
 20
23.33834967311413
 30
0.0
 10
2.80742738845177
 20
23.33834967311413
 30
0.0
 10
2.80742738845177
 20
23.33834967311413
 30
0.0
 10
2.80742738845177
 20
23.33834967311413
 30
0.0
  0
ENDBLK
  5
541
330
53E
100
AcDbEntity
  8
0
100
AcDbBlockEnd
  0
BLOCK
  5
545
330
543
100
AcDbEntity
  8
0
100
AcDbBlockBegin
  2
block 168
 70
     0
 71
     0
 10
0.0
 20
0.0
 30
0.0
  3
block 168
  1

  0
SPLINE
  5
547
330
543
100
AcDbEntity
  8
025
 62
     3
420
    65280
370
    25
100
AcDbSpline
210
0.0
220
0.0
230
1.0
 70
    11
 71
     3
 72
    23
 73
    19
 74
     0
 42
0.0000000001
 43
0.0000000001
 40
0.0
 40
0.0
 40
0.0
 40
0.0
 40
1.0
 40
1.0
 40
1.0
 40
2.0
 40
2.0
 40
2.0
 40
3.0
 40
3.0
 40
3.0
 40
4.0
 40
4.0
 40
4.0
 40
5.0
 40
5.0
 40
5.0
 40
6.0
 40
6.0
 40
6.0
 40
6.0
 10
6.240725686592439
 20
9.312857161277195
 30
0.0
 10
6.240725686592439
 20
9.481873657282796
 30
0.0
 10
6.103714148758303
 20
9.618919646094511
 30
0.0
 10
5.934697652752702
 20
9.618919646094511
 30
0.0
 10
5.765663931258312
 20
9.618919646094511
 30
0.0
 10
5.628652393424176
 20
9.481873657282796
 30
0.0
 10
5.628652393424176
 20
9.312857161277195
 30
0.0
 10
5.628652393424176
 20
9.143840665271595
 30
0.0
 10
5.765663931258312
 20
9.006829127437458
 30
0.0
 10
5.934697652752702
 20
9.006829127437458
 30
0.0
 10
6.103714148758303
 20
9.006829127437458
 30
0.0
 10
6.240725686592439
 20
9.143840665271595
 30
0.0
 10
6.240725686592439
 20
9.312857161277195
 30
0.0
 10
6.240725686592439
 20
9.312857161277195
 30
0.0
 10
6.240725686592439
 20
9.312857161277195
 30
0.0
 10
6.240725686592439
 20
9.312857161277195
 30
0.0
 10
6.240725686592439
 20
9.312857161277195
 30
0.0
 10
6.240725686592439
 20
9.312857161277195
 30
0.0
 10
6.240725686592439
 20
9.312857161277195
 30
0.0
  0
ENDBLK
  5
546
330
543
100
AcDbEntity
  8
0
100
AcDbBlockEnd
  0
BLOCK
  5
54A
330
548
100
AcDbEntity
  8
0
100
AcDbBlockBegin
  2
block 169
 70
     0
 71
     0
 10
0.0
 20
0.0
 30
0.0
  3
block 169
  1

  0
SPLINE
  5
54C
330
548
100
AcDbEntity
  8
025
 62
     3
420
    65280
370
    25
100
AcDbSpline
210
0.0
220
0.0
230
1.0
 70
    11
 71
     3
 72
    23
 73
    19
 74
     0
 42
0.0000000001
 43
0.0000000001
 40
0.0
 40
0.0
 40
0.0
 40
0.0
 40
1.0
 40
1.0
 40
1.0
 40
2.0
 40
2.0
 40
2.0
 40
3.0
 40
3.0
 40
3.0
 40
4.0
 40
4.0
 40
4.0
 40
5.0
 40
5.0
 40
5.0
 40
6.0
 40
6.0
 40
6.0
 40
6.0
 10
8.226600612703084
 20
9.312857161277195
 30
0.0
 10
8.226600612703084
 20
10.57865497950748
 30
0.0
 10
7.200478245494196
 20
11.60477734671637
 30
0.0
 10
5.934697652752702
 20
11.60477734671637
 30
0.0
 10
4.668917060011209
 20
11.60477734671637
 30
0.0
 10
3.64279469280232
 20
10.57865497950748
 30
0.0
 10
3.64279469280232
 20
9.312857161277195
 30
0.0
 10
3.64279469280232
 20
8.04709379402449
 30
0.0
 10
4.668917060011209
 20
7.020971426815603
 30
0.0
 10
5.934697652752702
 20
7.020971426815603
 30
0.0
 10
7.200478245494196
 20
7.020971426815603
 30
0.0
 10
8.226600612703084
 20
8.04709379402449
 30
0.0
 10
8.226600612703084
 20
9.312857161277195
 30
0.0
 10
8.226600612703084
 20
9.312857161277195
 30
0.0
 10
8.226600612703084
 20
9.312857161277195
 30
0.0
 10
8.226600612703084
 20
9.312857161277195
 30
0.0
 10
8.226600612703084
 20
9.312857161277195
 30
0.0
 10
8.226600612703084
 20
9.312857161277195
 30
0.0
 10
8.226600612703084
 20
9.312857161277195
 30
0.0
  0
ENDBLK
  5
54B
330
548
100
AcDbEntity
  8
0
100
AcDbBlockEnd
  0
BLOCK
  5
54F
330
54D
100
AcDbEntity
  8
0
100
AcDbBlockBegin
  2
block 170
 70
     0
 71
     0
 10
0.0
 20
0.0
 30
0.0
  3
block 170
  1

  0
SPLINE
  5
551
330
54D
100
AcDbEntity
  8
025
 62
     3
420
    65280
370
    25
100
AcDbSpline
210
0.0
220
0.0
230
1.0
 70
     8
 71
     3
 72
     8
 73
     4
 74
     0
 42
0.0000000001
 43
0.0000000001
 40
0.0
 40
0.0
 40
0.0
 40
0.0
 40
1.0
 40
1.0
 40
1.0
 40
1.0
 10
18.83894864828343
 20
21.76275143899915
 30
0.0
 10
18.75816110585923
 20
21.75024573413774
 30
0.0
 10
18.6924630916149
 20
21.67478086774959
 30
0.0
 10
18.69122285642203
 20
21.59301147246437
 30
0.0
  0
ENDBLK
  5
550
330
54D
100
AcDbEntity
  8
0
100
AcDbBlockEnd
  0
BLOCK
  5
554
330
552
100
AcDbEntity
  8
0
100
AcDbBlockBegin
  2
block 171
 70
     0
 71
     0
 10
0.0
 20
0.0
 30
0.0
  3
block 171
  1

  0
POLYLINE
  5
556
330
552
100
AcDbEntity
  8
025
 62
     3
420
    65280
370
    25
100
AcDb2dPolyline
 66
     1
 10
0.0
 20
0.0
 30
0.0
  0
VERTEX
  5
557
330
556
100
AcDbEntity
  8
025
 62
     3
420
    65280
370
    25
100
AcDbVertex
100
AcDb2dVertex
 10
19.06163976735807
 20
21.774154712578
 30
0.0
  0
VERTEX
  5
558
330
556
100
AcDbEntity
  8
025
 62
     3
420
    65280
370
    25
100
AcDbVertex
100
AcDb2dVertex
 10
18.83894864828343
 20
21.76275143899915
 30
0.0
  0
SEQEND
  5
559
330
556
100
AcDbEntity
  8
025
370
    25
  0
ENDBLK
  5
555
330
552
100
AcDbEntity
  8
0
100
AcDbBlockEnd
  0
BLOCK
  5
55C
330
55A
100
AcDbEntity
  8
0
100
AcDbBlockBegin
  2
block 172
 70
     0
 71
     0
 10
0.0
 20
0.0
 30
0.0
  3
block 172
  1

  0
POLYLINE
  5
55E
330
55A
100
AcDbEntity
  8
025
 62
     3
420
    65280
370
    25
100
AcDb2dPolyline
 66
     1
 10
0.0
 20
0.0
 30
0.0
  0
VERTEX
  5
55F
330
55E
100
AcDbEntity
  8
025
 62
     3
420
    65280
370
    25
100
AcDbVertex
100
AcDb2dVertex
 10
18.66466115270815
 20
21.25728669595101
 30
0.0
  0
VERTEX
  5
560
330
55E
100
AcDbEntity
  8
025
 62
     3
420
    65280
370
    25
100
AcDbVertex
100
AcDb2dVertex
 10
18.56533898434611
 20
21.25728669595101
 30
0.0
  0
SEQEND
  5
561
330
55E
100
AcDbEntity
  8
025
370
    25
  0
ENDBLK
  5
55D
330
55A
100
AcDbEntity
  8
0
100
AcDbBlockEnd
  0
BLOCK
  5
564
330
562
100
AcDbEntity
  8
0
100
AcDbBlockBegin
  2
block 173
 70
     0
 71
     0
 10
0.0
 20
0.0
 30
0.0
  3
block 173
  1

  0
POLYLINE
  5
566
330
562
100
AcDbEntity
  8
025
 62
     3
420
    65280
370
    25
100
AcDb2dPolyline
 66
     1
 10
0.0
 20
0.0
 30
0.0
  0
VERTEX
  5
567
330
566
100
AcDbEntity
  8
025
 62
     3
420
    65280
370
    25
100
AcDbVertex
100
AcDb2dVertex
 10
17.94373999587708
 20
21.25728669595101
 30
0.0
  0
VERTEX
  5
568
330
566
100
AcDbEntity
  8
025
 62
     3
420
    65280
370
    25
100
AcDbVertex
100
AcDb2dVertex
 10
18.56533898434611
 20
21.25728669595101
 30
0.0
  0
SEQEND
  5
569
330
566
100
AcDbEntity
  8
025
370
    25
  0
ENDBLK
  5
565
330
562
100
AcDbEntity
  8
0
100
AcDbBlockEnd
  0
BLOCK
  5
56C
330
56A
100
AcDbEntity
  8
0
100
AcDbBlockBegin
  2
block 174
 70
     0
 71
     0
 10
0.0
 20
0.0
 30
0.0
  3
block 174
  1

  0
POLYLINE
  5
56E
330
56A
100
AcDbEntity
  8
025
 62
     3
420
    65280
370
    25
100
AcDb2dPolyline
 66
     1
 10
0.0
 20
0.0
 30
0.0
  0
VERTEX
  5
56F
330
56E
100
AcDbEntity
  8
025
 62
     3
420
    65280
370
    25
100
AcDbVertex
100
AcDb2dVertex
 10
18.69122285642203
 20
21.59301147246437
 30
0.0
  0
VERTEX
  5
570
330
56E
100
AcDbEntity
  8
025
 62
     3
420
    65280
370
    25
100
AcDbVertex
100
AcDb2dVertex
 10
18.66466115270815
 20
21.25728669595101
 30
0.0
  0
SEQEND
  5
571
330
56E
100
AcDbEntity
  8
025
370
    25
  0
ENDBLK
  5
56D
330
56A
100
AcDbEntity
  8
0
100
AcDbBlockEnd
  0
BLOCK
  5
574
330
572
100
AcDbEntity
  8
0
100
AcDbBlockBegin
  2
block 175
 70
     0
 71
     0
 10
0.0
 20
0.0
 30
0.0
  3
block 175
  1

  0
SPLINE
  5
576
330
572
100
AcDbEntity
  8
025
 62
     3
420
    65280
370
    25
100
AcDbSpline
210
0.0
220
0.0
230
1.0
 70
     8
 71
     3
 72
     8
 73
     4
 74
     0
 42
0.0000000001
 43
0.0000000001
 40
0.0
 40
0.0
 40
0.0
 40
0.0
 40
1.0
 40
1.0
 40
1.0
 40
1.0
 10
17.81785612380116
 20
21.59301147246437
 30
0.0
 10
17.8166158886083
 20
21.67478086774959
 30
0.0
 10
17.75091787436397
 20
21.75024573413774
 30
0.0
 10
17.67013033193977
 20
21.76275143899915
 30
0.0
  0
ENDBLK
  5
575
330
572
100
AcDbEntity
  8
0
100
AcDbBlockEnd
  0
BLOCK
  5
579
330
577
100
AcDbEntity
  8
0
100
AcDbBlockBegin
  2
block 176
 70
     0
 71
     0
 10
0.0
 20
0.0
 30
0.0
  3
block 176
  1

  0
POLYLINE
  5
57B
330
577
100
AcDbEntity
  8
025
 62
     3
420
    65280
370
    25
100
AcDb2dPolyline
 66
     1
 10
0.0
 20
0.0
 30
0.0
  0
VERTEX
  5
57C
330
57B
100
AcDbEntity
  8
025
 62
     3
420
    65280
370
    25
100
AcDbVertex
100
AcDb2dVertex
 10
17.44743921286512
 20
21.774154712578
 30
0.0
  0
VERTEX
  5
57D
330
57B
100
AcDbEntity
  8
025
 62
     3
420
    65280
370
    25
100
AcDbVertex
100
AcDb2dVertex
 10
17.67013033193977
 20
21.76275143899915
 30
0.0
  0
SEQEND
  5
57E
330
57B
100
AcDbEntity
  8
025
370
    25
  0
ENDBLK
  5
57A
330
577
100
AcDbEntity
  8
0
100
AcDbBlockEnd
  0
BLOCK
  5
581
330
57F
100
AcDbEntity
  8
0
100
AcDbBlockBegin
  2
block 177
 70
     0
 71
     0
 10
0.0
 20
0.0
 30
0.0
  3
block 177
  1

  0
POLYLINE
  5
583
330
57F
100
AcDbEntity
  8
025
 62
     3
420
    65280
370
    25
100
AcDb2dPolyline
 66
     1
 10
0.0
 20
0.0
 30
0.0
  0
VERTEX
  5
584
330
583
100
AcDbEntity
  8
025
 62
     3
420
    65280
370
    25
100
AcDbVertex
100
AcDb2dVertex
 10
17.84445227849263
 20
21.25728669595101
 30
0.0
  0
VERTEX
  5
585
330
583
100
AcDbEntity
  8
025
 62
     3
420
    65280
370
    25
100
AcDbVertex
100
AcDb2dVertex
 10
17.94373999587708
 20
21.25728669595101
 30
0.0
  0
SEQEND
  5
586
330
583
100
AcDbEntity
  8
025
370
    25
  0
ENDBLK
  5
582
330
57F
100
AcDbEntity
  8
0
100
AcDbBlockEnd
  0
BLOCK
  5
589
330
587
100
AcDbEntity
  8
0
100
AcDbBlockBegin
  2
block 178
 70
     0
 71
     0
 10
0.0
 20
0.0
 30
0.0
  3
block 178
  1

  0
POLYLINE
  5
58B
330
587
100
AcDbEntity
  8
025
 62
     3
420
    65280
370
    25
100
AcDb2dPolyline
 66
     1
 10
0.0
 20
0.0
 30
0.0
  0
VERTEX
  5
58C
330
58B
100
AcDbEntity
  8
025
 62
     3
420
    65280
370
    25
100
AcDbVertex
100
AcDb2dVertex
 10
17.81785612380116
 20
21.59301147246437
 30
0.0
  0
VERTEX
  5
58D
330
58B
100
AcDbEntity
  8
025
 62
     3
420
    65280
370
    25
100
AcDbVertex
100
AcDb2dVertex
 10
17.84445227849263
 20
21.25728669595101
 30
0.0
  0
SEQEND
  5
58E
330
58B
100
AcDbEntity
  8
025
370
    25
  0
ENDBLK
  5
58A
330
587
100
AcDbEntity
  8
0
100
AcDbBlockEnd
  0
BLOCK
  5
591
330
58F
100
AcDbEntity
  8
0
100
AcDbBlockBegin
  2
block 179
 70
     0
 71
     0
 10
0.0
 20
0.0
 30
0.0
  3
block 179
  1

  0
POLYLINE
  5
593
330
58F
100
AcDbEntity
  8
025
 62
     3
420
    65280
370
    25
100
AcDb2dPolyline
 66
     1
 10
0.0
 20
0.0
 30
0.0
  0
VERTEX
  5
594
330
593
100
AcDbEntity
  8
025
 62
     3
420
    65280
370
    25
100
AcDbVertex
100
AcDb2dVertex
 10
3.683343493413529
 20
23.81441050679807
 30
0.0
  0
VERTEX
  5
595
330
593
100
AcDbEntity
  8
025
 62
     3
420
    65280
370
    25
100
AcDbVertex
100
AcDb2dVertex
 10
4.858569691586999
 20
23.81441050679807
 30
0.0
  0
SEQEND
  5
596
330
593
100
AcDbEntity
  8
025
370
    25
  0
ENDBLK
  5
592
330
58F
100
AcDbEntity
  8
0
100
AcDbBlockEnd
  0
BLOCK
  5
59A
330
598
100
AcDbEntity
  8
0
100
AcDbBlockBegin
  2
block 180
 70
     0
 71
     0
 10
0.0
 20
0.0
 30
0.0
  3
block 180
  1

  0
POLYLINE
  5
59C
330
598
100
AcDbEntity
  8
010
 62
     1
420
 16711680
370
    25
100
AcDb2dPolyline
 66
     1
 10
0.0
 20
0.0
 30
0.0
  0
VERTEX
  5
59D
330
59C
100
AcDbEntity
  8
010
 62
     1
420
 16711680
370
    25
100
AcDbVertex
100
AcDb2dVertex
 10
2.924577937711257
 20
9.240716814225477
 30
0.0
  0
VERTEX
  5
59E
330
59C
100
AcDbEntity
  8
010
 62
     1
420
 16711680
370
    25
100
AcDbVertex
100
AcDb2dVertex
 10
3.068841406325903
 20
9.384997508328913
 30
0.0
  0
SEQEND
  5
59F
330
59C
100
AcDbEntity
  8
010
370
    25
  0
ENDBLK
  5
59B
330
598
100
AcDbEntity
  8
0
100
AcDbBlockEnd
  0
BLOCK
  5
5A2
330
5A0
100
AcDbEntity
  8
0
100
AcDbBlockBegin
  2
block 181
 70
     0
 71
     0
 10
0.0
 20
0.0
 30
0.0
  3
block 181
  1

  0
POLYLINE
  5
5A4
330
5A0
100
AcDbEntity
  8
010
 62
     1
420
 16711680
370
    25
100
AcDb2dPolyline
 66
     1
 10
0.0
 20
0.0
 30
0.0
  0
VERTEX
  5
5A5
330
5A4
100
AcDbEntity
  8
010
 62
     1
420
 16711680
370
    25
100
AcDbVertex
100
AcDb2dVertex
 10
2.924577937711257
 20
9.384997508328913
 30
0.0
  0
VERTEX
  5
5A6
330
5A4
100
AcDbEntity
  8
010
 62
     1
420
 16711680
370
    25
100
AcDbVertex
100
AcDb2dVertex
 10
3.068841406325903
 20
9.240716814225477
 30
0.0
  0
SEQEND
  5
5A7
330
5A4
100
AcDbEntity
  8
010
370
    25
  0
ENDBLK
  5
5A3
330
5A0
100
AcDbEntity
  8
0
100
AcDbBlockEnd
  0
BLOCK
  5
5AA
330
5A8
100
AcDbEntity
  8
0
100
AcDbBlockBegin
  2
block 182
 70
     0
 71
     0
 10
0.0
 20
0.0
 30
0.0
  3
block 182
  1

  0
POLYLINE
  5
5AC
330
5A8
100
AcDbEntity
  8
010
  6
AI-Linetype-1
 62
     1
420
 16711680
370
    25
100
AcDb2dPolyline
 66
     1
 10
0.0
 20
0.0
 30
0.0
  0
VERTEX
  5
5AD
330
5AC
100
AcDbEntity
  8
010
  6
AI-Linetype-1
 62
     1
420
 16711680
370
    25
100
AcDbVertex
100
AcDb2dVertex
 10
3.004969293893293
 20
8.141661727480539
 30
0.0
  0
VERTEX
  5
5AE
330
5AC
100
AcDbEntity
  8
010
  6
AI-Linetype-1
 62
     1
420
 16711680
370
    25
100
AcDbVertex
100
AcDb2dVertex
 10
3.120397294273799
 20
8.257072502372257
 30
0.0
  0
SEQEND
  5
5AF
330
5AC
100
AcDbEntity
  8
010
  6
AI-Linetype-1
370
    25
  0
ENDBLK
  5
5AB
330
5A8
100
AcDbEntity
  8
0
100
AcDbBlockEnd
  0
BLOCK
  5
5B3
330
5B1
100
AcDbEntity
  8
0
100
AcDbBlockBegin
  2
block 183
 70
     0
 71
     0
 10
0.0
 20
0.0
 30
0.0
  3
block 183
  1

  0
POLYLINE
  5
5B5
330
5B1
100
AcDbEntity
  8
010
  6
AI-Linetype-2
 62
     1
420
 16711680
370
    25
100
AcDb2dPolyline
 66
     1
 10
0.0
 20
0.0
 30
0.0
  0
VERTEX
  5
5B6
330
5B5
100
AcDbEntity
  8
010
  6
AI-Linetype-2
 62
     1
420
 16711680
370
    25
100
AcDbVertex
100
AcDb2dVertex
 10
2.800847251734063
 20
8.34578376963977
 30
0.0
  0
VERTEX
  5
5B7
330
5B5
100
AcDbEntity
  8
010
  6
AI-Linetype-2
 62
     1
420
 16711680
370
    25
100
AcDbVertex
100
AcDb2dVertex
 10
2.916258026625779
 20
8.461194544531486
 30
0.0
  0
SEQEND
  5
5B8
330
5B5
100
AcDbEntity
  8
010
  6
AI-Linetype-2
370
    25
  0
ENDBLK
  5
5B4
330
5B1
100
AcDbEntity
  8
0
100
AcDbBlockEnd
  0
BLOCK
  5
5BC
330
5BA
100
AcDbEntity
  8
0
100
AcDbBlockBegin
  2
block 184
 70
     0
 71
     0
 10
0.0
 20
0.0
 30
0.0
  3
block 184
  1

  0
POLYLINE
  5
5BE
330
5BA
100
AcDbEntity
  8
010
  6
AI-Linetype-3
 62
     1
420
 16711680
370
    25
100
AcDb2dPolyline
 66
     1
 10
0.0
 20
0.0
 30
0.0
  0
VERTEX
  5
5BF
330
5BE
100
AcDbEntity
  8
010
  6
AI-Linetype-3
 62
     1
420
 16711680
370
    25
100
AcDbVertex
100
AcDb2dVertex
 10
2.916258026625779
 20
8.461194544531486
 30
0.0
  0
VERTEX
  5
5C0
330
5BE
100
AcDbEntity
  8
010
  6
AI-Linetype-3
 62
     1
420
 16711680
370
    25
100
AcDbVertex
100
AcDb2dVertex
 10
3.120397294273799
 20
8.257072502372257
 30
0.0
  0
SEQEND
  5
5C1
330
5BE
100
AcDbEntity
  8
010
  6
AI-Linetype-3
370
    25
  0
ENDBLK
  5
5BD
330
5BA
100
AcDbEntity
  8
0
100
AcDbBlockEnd
  0
BLOCK
  5
5C5
330
5C3
100
AcDbEntity
  8
0
100
AcDbBlockBegin
  2
block 185
 70
     0
 71
     0
 10
0.0
 20
0.0
 30
0.0
  3
block 185
  1

  0
POLYLINE
  5
5C7
330
5C3
100
AcDbEntity
  8
010
  6
AI-Linetype-4
 62
     1
420
 16711680
370
    25
100
AcDb2dPolyline
 66
     1
 10
0.0
 20
0.0
 30
0.0
  0
VERTEX
  5
5C8
330
5C7
100
AcDbEntity
  8
010
  6
AI-Linetype-4
 62
     1
420
 16711680
370
    25
100
AcDbVertex
100
AcDb2dVertex
 10
3.004969293893293
 20
10.48408704605143
 30
0.0
  0
VERTEX
  5
5C9
330
5C7
100
AcDbEntity
  8
010
  6
AI-Linetype-4
 62
     1
420
 16711680
370
    25
100
AcDbVertex
100
AcDb2dVertex
 10
3.120397294273799
 20
10.36867627115971
 30
0.0
  0
SEQEND
  5
5CA
330
5C7
100
AcDbEntity
  8
010
  6
AI-Linetype-4
370
    25
  0
ENDBLK
  5
5C6
330
5C3
100
AcDbEntity
  8
0
100
AcDbBlockEnd
  0
BLOCK
  5
5CE
330
5CC
100
AcDbEntity
  8
0
100
AcDbBlockBegin
  2
block 186
 70
     0
 71
     0
 10
0.0
 20
0.0
 30
0.0
  3
block 186
  1

  0
POLYLINE
  5
5D0
330
5CC
100
AcDbEntity
  8
010
  6
AI-Linetype-5
 62
     1
420
 16711680
370
    25
100
AcDb2dPolyline
 66
     1
 10
0.0
 20
0.0
 30
0.0
  0
VERTEX
  5
5D1
330
5D0
100
AcDbEntity
  8
010
  6
AI-Linetype-5
 62
     1
420
 16711680
370
    25
100
AcDbVertex
100
AcDb2dVertex
 10
2.916258026625779
 20
10.16455422900048
 30
0.0
  0
VERTEX
  5
5D2
330
5D0
100
AcDbEntity
  8
010
  6
AI-Linetype-5
 62
     1
420
 16711680
370
    25
100
AcDbVertex
100
AcDb2dVertex
 10
3.120397294273799
 20
10.36867627115971
 30
0.0
  0
SEQEND
  5
5D3
330
5D0
100
AcDbEntity
  8
010
  6
AI-Linetype-5
370
    25
  0
ENDBLK
  5
5CF
330
5CC
100
AcDbEntity
  8
0
100
AcDbBlockEnd
  0
BLOCK
  5
5D7
330
5D5
100
AcDbEntity
  8
0
100
AcDbBlockBegin
  2
block 187
 70
     0
 71
     0
 10
0.0
 20
0.0
 30
0.0
  3
block 187
  1

  0
POLYLINE
  5
5D9
330
5D5
100
AcDbEntity
  8
010
  6
AI-Linetype-6
 62
     1
420
 16711680
370
    25
100
AcDb2dPolyline
 66
     1
 10
0.0
 20
0.0
 30
0.0
  0
VERTEX
  5
5DA
330
5D9
100
AcDbEntity
  8
010
  6
AI-Linetype-6
 62
     1
420
 16711680
370
    25
100
AcDbVertex
100
AcDb2dVertex
 10
2.800847251734063
 20
10.2799650038922
 30
0.0
  0
VERTEX
  5
5DB
330
5D9
100
AcDbEntity
  8
010
  6
AI-Linetype-6
 62
     1
420
 16711680
370
    25
100
AcDbVertex
100
AcDb2dVertex
 10
2.916258026625779
 20
10.16455422900048
 30
0.0
  0
SEQEND
  5
5DC
330
5D9
100
AcDbEntity
  8
010
  6
AI-Linetype-6
370
    25
  0
ENDBLK
  5
5D8
330
5D5
100
AcDbEntity
  8
0
100
AcDbBlockEnd
  0
BLOCK
  5
5E0
330
5DE
100
AcDbEntity
  8
0
100
AcDbBlockBegin
  2
block 188
 70
     0
 71
     0
 10
0.0
 20
0.0
 30
0.0
  3
block 188
  1

  0
POLYLINE
  5
5E2
330
5DE
100
AcDbEntity
  8
010
 62
     1
420
 16711680
370
    25
100
AcDb2dPolyline
 66
     1
 10
0.0
 20
0.0
 30
0.0
  0
VERTEX
  5
5E3
330
5E2
100
AcDbEntity
  8
010
 62
     1
420
 16711680
370
    25
100
AcDbVertex
100
AcDb2dVertex
 10
5.862557305700984
 20
9.384997508328913
 30
0.0
  0
VERTEX
  5
5E4
330
5E2
100
AcDbEntity
  8
010
 62
     1
420
 16711680
370
    25
100
AcDbVertex
100
AcDb2dVertex
 10
6.006820774315631
 20
9.240716814225477
 30
0.0
  0
SEQEND
  5
5E5
330
5E2
100
AcDbEntity
  8
010
370
    25
  0
ENDBLK
  5
5E1
330
5DE
100
AcDbEntity
  8
0
100
AcDbBlockEnd
  0
BLOCK
  5
5E8
330
5E6
100
AcDbEntity
  8
0
100
AcDbBlockBegin
  2
block 189
 70
     0
 71
     0
 10
0.0
 20
0.0
 30
0.0
  3
block 189
  1

  0
POLYLINE
  5
5EA
330
5E6
100
AcDbEntity
  8
010
 62
     1
420
 16711680
370
    25
100
AcDb2dPolyline
 66
     1
 10
0.0
 20
0.0
 30
0.0
  0
VERTEX
  5
5EB
330
5EA
100
AcDbEntity
  8
010
 62
     1
420
 16711680
370
    25
100
AcDbVertex
100
AcDb2dVertex
 10
5.862557305700984
 20
9.240716814225477
 30
0.0
  0
VERTEX
  5
5EC
330
5EA
100
AcDbEntity
  8
010
 62
     1
420
 16711680
370
    25
100
AcDbVertex
100
AcDb2dVertex
 10
6.006820774315631
 20
9.384997508328913
 30
0.0
  0
SEQEND
  5
5ED
330
5EA
100
AcDbEntity
  8
010
370
    25
  0
ENDBLK
  5
5E9
330
5E6
100
AcDbEntity
  8
0
100
AcDbBlockEnd
  0
BLOCK
  5
5F0
330
5EE
100
AcDbEntity
  8
0
100
AcDbBlockBegin
  2
block 190
 70
     0
 71
     0
 10
0.0
 20
0.0
 30
0.0
  3
block 190
  1

  0
POLYLINE
  5
5F2
330
5EE
100
AcDbEntity
  8
010
  6
AI-Linetype-7
 62
     1
420
 16711680
370
    25
100
AcDb2dPolyline
 66
     1
 10
0.0
 20
0.0
 30
0.0
  0
VERTEX
  5
5F3
330
5F2
100
AcDbEntity
  8
010
  6
AI-Linetype-7
 62
     1
420
 16711680
370
    25
100
AcDbVertex
100
AcDb2dVertex
 10
5.977899178637542
 20
20.98860352180757
 30
0.0
  0
VERTEX
  5
5F4
330
5F2
100
AcDbEntity
  8
010
  6
AI-Linetype-7
 62
     1
420
 16711680
370
    25
100
AcDbVertex
100
AcDb2dVertex
 10
5.977899178637542
 20
22.51721062250396
 30
0.0
  0
SEQEND
  5
5F5
330
5F2
100
AcDbEntity
  8
010
  6
AI-Linetype-7
370
    25
  0
ENDBLK
  5
5F1
330
5EE
100
AcDbEntity
  8
0
100
AcDbBlockEnd
  0
BLOCK
  5
5F9
330
5F7
100
AcDbEntity
  8
0
100
AcDbBlockBegin
  2
block 191
 70
     0
 71
     0
 10
0.0
 20
0.0
 30
0.0
  3
block 191
  1

  0
SPLINE
  5
5FB
330
5F7
100
AcDbEntity
  8
010
 62
     1
420
 16711680
370
    25
100
AcDbSpline
210
0.0
220
0.0
230
1.0
 70
     8
 71
     3
 72
    38
 73
    34
 74
     0
 42
0.0000000001
 43
0.0000000001
 40
0.0
 40
0.0
 40
0.0
 40
0.0
 40
1.0
 40
1.0
 40
1.0
 40
2.0
 40
2.0
 40
2.0
 40
3.0
 40
3.0
 40
3.0
 40
4.0
 40
4.0
 40
4.0
 40
5.0
 40
5.0
 40
5.0
 40
6.0
 40
6.0
 40
6.0
 40
7.0
 40
7.0
 40
7.0
 40
8.0
 40
8.0
 40
8.0
 40
9.0
 40
9.0
 40
9.0
 40
10.0
 40
10.0
 40
10.0
 40
11.0
 40
11.0
 40
11.0
 40
11.0
 10
6.774698613587711
 20
21.774154712578
 30
0.0
 10
6.668968563395866
 20
21.93157845462806
 30
0.0
 10
6.563238513204023
 20
22.08900219667812
 30
0.0
 10
6.548682975176635
 20
22.27185076018193
 30
0.0
 10
6.548682975176635
 20
22.27185076018193
 30
0.0
 10
6.548682975176635
 20
22.27185076018193
 30
0.0
 10
6.548682975176635
 20
22.27185076018193
 30
0.0
 10
6.539966877848991
 20
22.38138764339633
 30
0.0
 10
6.563979209221984
 20
22.50005403566932
 30
0.0
 10
6.548682975176635
 20
22.5992900765874
 30
0.0
 10
6.548682975176635
 20
22.5992900765874
 30
0.0
 10
6.548682975176635
 20
22.5992900765874
 30
0.0
 10
6.548682975176635
 20
22.5992900765874
 30
0.0
 10
6.496145234367718
 20
22.94021695071529
 30
0.0
 10
5.979776756915631
 20
23.05197592198357
 30
0.0
 10
5.558630781493605
 20
23.13315965064993
 30
0.0
 10
5.558630781493605
 20
23.13315965064993
 30
0.0
 10
5.558630781493605
 20
23.13315965064993
 30
0.0
 10
5.558630781493605
 20
23.13315965064993
 30
0.0
 10
5.332322309773101
 20
23.17677458826573
 30
0.0
 10
5.133505718161132
 20
23.21157007562114
 30
0.0
 10
4.995925739196932
 20
23.35381816204738
 30
0.0
 10
4.995925739196932
 20
23.35381816204738
 30
0.0
 10
4.995925739196932
 20
23.35381816204738
 30
0.0
 10
4.995925739196932
 20
23.35381816204738
 30
0.0
 10
4.924905048916552
 20
23.42726764624712
 30
0.0
 10
4.87017967103133
 20
23.52934589281553
 30
0.0
 10
4.853470946905216
 20
23.63144136487272
 30
0.0
 10
4.853470946905216
 20
23.63144136487272
 30
0.0
 10
4.853470946905216
 20
23.63144136487272
 30
0.0
 10
4.853470946905216
 20
23.63144136487272
 30
0.0
 10
4.843480163407127
 20
23.69241959518865
 30
0.0
 10
4.847063065075408
 20
23.75341505099336
 30
0.0
 10
4.858569691586999
 20
23.81441050679807
 30
0.0
  0
ENDBLK
  5
5FA
330
5F7
100
AcDbEntity
  8
0
100
AcDbBlockEnd
  0
ENDSEC
  0
SECTION
  2
ENTITIES
  0
INSERT
  5
3D
330
1F
100
AcDbEntity
  8
cotas
100
AcDbBlockReference
  2
block 2
 10
0.0
 20
0.0
 30
0.0
  0
INSERT
  5
41
330
1F
100
AcDbEntity
  8
cotas
100
AcDbBlockReference
  2
block 3
 10
0.0
 20
0.0
 30
0.0
  0
INSERT
  5
46
330
1F
100
AcDbEntity
  8
cotas
100
AcDbBlockReference
  2
block 4
 10
0.0
 20
0.0
 30
0.0
  0
INSERT
  5
4C
330
1F
100
AcDbEntity
  8
LINHAS_COTAGENS
100
AcDbBlockReference
  2
block 5
 10
0.0
 20
0.0
 30
0.0
  0
INSERT
  5
9B
330
1F
100
AcDbEntity
  8
LINHAS_COTAGENS
100
AcDbBlockReference
  2
block 15
 10
0.0
 20
0.0
 30
0.0
  0
INSERT
  5
EA
330
1F
100
AcDbEntity
  8
LINHAS_COTAGENS
100
AcDbBlockReference
  2
block 25
 10
0.0
 20
0.0
 30
0.0
  0
INSERT
  5
139
330
1F
100
AcDbEntity
  8
LINHAS_COTAGENS
100
AcDbBlockReference
  2
block 35
 10
0.0
 20
0.0
 30
0.0
  0
INSERT
  5
188
330
1F
100
AcDbEntity
  8
LINHAS_COTAGENS
100
AcDbBlockReference
  2
block 45
 10
0.0
 20
0.0
 30
0.0
  0
INSERT
  5
190
330
1F
100
AcDbEntity
  8
LINHAS_COTAGENS
100
AcDbBlockReference
  2
block 46
 10
0.0
 20
0.0
 30
0.0
  0
INSERT
  5
19B
330
1F
100
AcDbEntity
  8
LINHAS_COTAGENS
100
AcDbBlockReference
  2
block 47
 10
0.0
 20
0.0
 30
0.0
  0
INSERT
  5
1A3
330
1F
100
AcDbEntity
  8
LINHAS_COTAGENS
100
AcDbBlockReference
  2
block 48
 10
0.0
 20
0.0
 30
0.0
  0
INSERT
  5
1AE
330
1F
100
AcDbEntity
  8
LINHAS_COTAGENS
100
AcDbBlockReference
  2
block 49
 10
0.0
 20
0.0
 30
0.0
  0
INSERT
  5
1FD
330
1F
100
AcDbEntity
  8
LINHAS_COTAGENS
100
AcDbBlockReference
  2
block 59
 10
0.0
 20
0.0
 30
0.0
  0
INSERT
  5
24D
330
1F
100
AcDbEntity
  8
SOMBREADO
100
AcDbBlockReference
  2
block 69
 10
0.0
 20
0.0
 30
0.0
  0
INSERT
  5
289
330
1F
100
AcDbEntity
  8
018
100
AcDbBlockReference
  2
block 70
 10
0.0
 20
0.0
 30
0.0
  0
INSERT
  5
291
330
1F
100
AcDbEntity
  8
018
100
AcDbBlockReference
  2
block 71
 10
0.0
 20
0.0
 30
0.0
  0
INSERT
  5
299
330
1F
100
AcDbEntity
  8
018
100
AcDbBlockReference
  2
block 72
 10
0.0
 20
0.0
 30
0.0
  0
INSERT
  5
2A4
330
1F
100
AcDbEntity
  8
018
100
AcDbBlockReference
  2
block 73
 10
0.0
 20
0.0
 30
0.0
  0
INSERT
  5
2AC
330
1F
100
AcDbEntity
  8
018
100
AcDbBlockReference
  2
block 74
 10
0.0
 20
0.0
 30
0.0
  0
INSERT
  5
2B7
330
1F
100
AcDbEntity
  8
018
100
AcDbBlockReference
  2
block 75
 10
0.0
 20
0.0
 30
0.0
  0
INSERT
  5
2BF
330
1F
100
AcDbEntity
  8
018
100
AcDbBlockReference
  2
block 76
 10
0.0
 20
0.0
 30
0.0
  0
INSERT
  5
2C7
330
1F
100
AcDbEntity
  8
018
100
AcDbBlockReference
  2
block 77
 10
0.0
 20
0.0
 30
0.0
  0
INSERT
  5
2CC
330
1F
100
AcDbEntity
  8
018
100
AcDbBlockReference
  2
block 78
 10
0.0
 20
0.0
 30
0.0
  0
INSERT
  5
2D1
330
1F
100
AcDbEntity
  8
018
100
AcDbBlockReference
  2
block 79
 10
0.0
 20
0.0
 30
0.0
  0
INSERT
  5
2D9
330
1F
100
AcDbEntity
  8
018
100
AcDbBlockReference
  2
block 80
 10
0.0
 20
0.0
 30
0.0
  0
INSERT
  5
2E1
330
1F
100
AcDbEntity
  8
018
100
AcDbBlockReference
  2
block 81
 10
0.0
 20
0.0
 30
0.0
  0
INSERT
  5
2E9
330
1F
100
AcDbEntity
  8
018
100
AcDbBlockReference
  2
block 82
 10
0.0
 20
0.0
 30
0.0
  0
INSERT
  5
2F1
330
1F
100
AcDbEntity
  8
018
100
AcDbBlockReference
  2
block 83
 10
0.0
 20
0.0
 30
0.0
  0
INSERT
  5
2F9
330
1F
100
AcDbEntity
  8
018
100
AcDbBlockReference
  2
block 84
 10
0.0
 20
0.0
 30
0.0
  0
INSERT
  5
2FE
330
1F
100
AcDbEntity
  8
018
100
AcDbBlockReference
  2
block 85
 10
0.0
 20
0.0
 30
0.0
  0
INSERT
  5
306
330
1F
100
AcDbEntity
  8
018
100
AcDbBlockReference
  2
block 86
 10
0.0
 20
0.0
 30
0.0
  0
INSERT
  5
30B
330
1F
100
AcDbEntity
  8
018
100
AcDbBlockReference
  2
block 87
 10
0.0
 20
0.0
 30
0.0
  0
INSERT
  5
313
330
1F
100
AcDbEntity
  8
018
100
AcDbBlockReference
  2
block 88
 10
0.0
 20
0.0
 30
0.0
  0
INSERT
  5
318
330
1F
100
AcDbEntity
  8
018
100
AcDbBlockReference
  2
block 89
 10
0.0
 20
0.0
 30
0.0
  0
INSERT
  5
320
330
1F
100
AcDbEntity
  8
018
100
AcDbBlockReference
  2
block 90
 10
0.0
 20
0.0
 30
0.0
  0
INSERT
  5
325
330
1F
100
AcDbEntity
  8
018
100
AcDbBlockReference
  2
block 91
 10
0.0
 20
0.0
 30
0.0
  0
INSERT
  5
32D
330
1F
100
AcDbEntity
  8
018
100
AcDbBlockReference
  2
block 92
 10
0.0
 20
0.0
 30
0.0
  0
INSERT
  5
335
330
1F
100
AcDbEntity
  8
018
100
AcDbBlockReference
  2
block 93
 10
0.0
 20
0.0
 30
0.0
  0
INSERT
  5
33A
330
1F
100
AcDbEntity
  8
018
100
AcDbBlockReference
  2
block 94
 10
0.0
 20
0.0
 30
0.0
  0
INSERT
  5
342
330
1F
100
AcDbEntity
  8
018
100
AcDbBlockReference
  2
block 95
 10
0.0
 20
0.0
 30
0.0
  0
INSERT
  5
34A
330
1F
100
AcDbEntity
  8
018
100
AcDbBlockReference
  2
block 96
 10
0.0
 20
0.0
 30
0.0
  0
INSERT
  5
352
330
1F
100
AcDbEntity
  8
018
100
AcDbBlockReference
  2
block 97
 10
0.0
 20
0.0
 30
0.0
  0
INSERT
  5
35A
330
1F
100
AcDbEntity
  8
018
100
AcDbBlockReference
  2
block 98
 10
0.0
 20
0.0
 30
0.0
  0
INSERT
  5
362
330
1F
100
AcDbEntity
  8
018
100
AcDbBlockReference
  2
block 99
 10
0.0
 20
0.0
 30
0.0
  0
INSERT
  5
36A
330
1F
100
AcDbEntity
  8
018
100
AcDbBlockReference
  2
block 100
 10
0.0
 20
0.0
 30
0.0
  0
INSERT
  5
372
330
1F
100
AcDbEntity
  8
018
100
AcDbBlockReference
  2
block 101
 10
0.0
 20
0.0
 30
0.0
  0
INSERT
  5
37A
330
1F
100
AcDbEntity
  8
018
100
AcDbBlockReference
  2
block 102
 10
0.0
 20
0.0
 30
0.0
  0
INSERT
  5
37F
330
1F
100
AcDbEntity
  8
018
100
AcDbBlockReference
  2
block 103
 10
0.0
 20
0.0
 30
0.0
  0
INSERT
  5
387
330
1F
100
AcDbEntity
  8
018
100
AcDbBlockReference
  2
block 104
 10
0.0
 20
0.0
 30
0.0
  0
INSERT
  5
38F
330
1F
100
AcDbEntity
  8
018
100
AcDbBlockReference
  2
block 105
 10
0.0
 20
0.0
 30
0.0
  0
INSERT
  5
394
330
1F
100
AcDbEntity
  8
018
100
AcDbBlockReference
  2
block 106
 10
0.0
 20
0.0
 30
0.0
  0
INSERT
  5
39C
330
1F
100
AcDbEntity
  8
018
100
AcDbBlockReference
  2
block 107
 10
0.0
 20
0.0
 30
0.0
  0
INSERT
  5
3A4
330
1F
100
AcDbEntity
  8
018
100
AcDbBlockReference
  2
block 108
 10
0.0
 20
0.0
 30
0.0
  0
INSERT
  5
3AC
330
1F
100
AcDbEntity
  8
018
100
AcDbBlockReference
  2
block 109
 10
0.0
 20
0.0
 30
0.0
  0
INSERT
  5
3B4
330
1F
100
AcDbEntity
  8
018
100
AcDbBlockReference
  2
block 110
 10
0.0
 20
0.0
 30
0.0
  0
INSERT
  5
3BC
330
1F
100
AcDbEntity
  8
018
100
AcDbBlockReference
  2
block 111
 10
0.0
 20
0.0
 30
0.0
  0
INSERT
  5
3C4
330
1F
100
AcDbEntity
  8
018
100
AcDbBlockReference
  2
block 112
 10
0.0
 20
0.0
 30
0.0
  0
INSERT
  5
3CC
330
1F
100
AcDbEntity
  8
018
100
AcDbBlockReference
  2
block 113
 10
0.0
 20
0.0
 30
0.0
  0
INSERT
  5
3D4
330
1F
100
AcDbEntity
  8
018
100
AcDbBlockReference
  2
block 114
 10
0.0
 20
0.0
 30
0.0
  0
INSERT
  5
3DC
330
1F
100
AcDbEntity
  8
018
100
AcDbBlockReference
  2
block 115
 10
0.0
 20
0.0
 30
0.0
  0
INSERT
  5
3E4
330
1F
100
AcDbEntity
  8
018
100
AcDbBlockReference
  2
block 116
 10
0.0
 20
0.0
 30
0.0
  0
INSERT
  5
3EC
330
1F
100
AcDbEntity
  8
018
100
AcDbBlockReference
  2
block 117
 10
0.0
 20
0.0
 30
0.0
  0
INSERT
  5
3F4
330
1F
100
AcDbEntity
  8
018
100
AcDbBlockReference
  2
block 118
 10
0.0
 20
0.0
 30
0.0
  0
INSERT
  5
3FC
330
1F
100
AcDbEntity
  8
018
100
AcDbBlockReference
  2
block 119
 10
0.0
 20
0.0
 30
0.0
  0
INSERT
  5
404
330
1F
100
AcDbEntity
  8
018
100
AcDbBlockReference
  2
block 120
 10
0.0
 20
0.0
 30
0.0
  0
INSERT
  5
40C
330
1F
100
AcDbEntity
  8
018
100
AcDbBlockReference
  2
block 121
 10
0.0
 20
0.0
 30
0.0
  0
INSERT
  5
414
330
1F
100
AcDbEntity
  8
018
100
AcDbBlockReference
  2
block 122
 10
0.0
 20
0.0
 30
0.0
  0
INSERT
  5
41C
330
1F
100
AcDbEntity
  8
018
100
AcDbBlockReference
  2
block 123
 10
0.0
 20
0.0
 30
0.0
  0
INSERT
  5
421
330
1F
100
AcDbEntity
  8
018
100
AcDbBlockReference
  2
block 124
 10
0.0
 20
0.0
 30
0.0
  0
INSERT
  5
426
330
1F
100
AcDbEntity
  8
018
100
AcDbBlockReference
  2
block 125
 10
0.0
 20
0.0
 30
0.0
  0
INSERT
  5
42B
330
1F
100
AcDbEntity
  8
018
100
AcDbBlockReference
  2
block 126
 10
0.0
 20
0.0
 30
0.0
  0
INSERT
  5
433
330
1F
100
AcDbEntity
  8
018
100
AcDbBlockReference
  2
block 127
 10
0.0
 20
0.0
 30
0.0
  0
INSERT
  5
43B
330
1F
100
AcDbEntity
  8
018
100
AcDbBlockReference
  2
block 128
 10
0.0
 20
0.0
 30
0.0
  0
INSERT
  5
443
330
1F
100
AcDbEntity
  8
018
100
AcDbBlockReference
  2
block 129
 10
0.0
 20
0.0
 30
0.0
  0
INSERT
  5
44B
330
1F
100
AcDbEntity
  8
018
100
AcDbBlockReference
  2
block 130
 10
0.0
 20
0.0
 30
0.0
  0
INSERT
  5
450
330
1F
100
AcDbEntity
  8
018
100
AcDbBlockReference
  2
block 131
 10
0.0
 20
0.0
 30
0.0
  0
INSERT
  5
458
330
1F
100
AcDbEntity
  8
018
100
AcDbBlockReference
  2
block 132
 10
0.0
 20
0.0
 30
0.0
  0
INSERT
  5
45D
330
1F
100
AcDbEntity
  8
018
100
AcDbBlockReference
  2
block 133
 10
0.0
 20
0.0
 30
0.0
  0
INSERT
  5
465
330
1F
100
AcDbEntity
  8
018
100
AcDbBlockReference
  2
block 134
 10
0.0
 20
0.0
 30
0.0
  0
INSERT
  5
46D
330
1F
100
AcDbEntity
  8
018
100
AcDbBlockReference
  2
block 135
 10
0.0
 20
0.0
 30
0.0
  0
INSERT
  5
476
330
1F
100
AcDbEntity
  8
035
100
AcDbBlockReference
  2
block 136
 10
0.0
 20
0.0
 30
0.0
  0
INSERT
  5
47E
330
1F
100
AcDbEntity
  8
035
100
AcDbBlockReference
  2
block 137
 10
0.0
 20
0.0
 30
0.0
  0
INSERT
  5
486
330
1F
100
AcDbEntity
  8
035
100
AcDbBlockReference
  2
block 138
 10
0.0
 20
0.0
 30
0.0
  0
INSERT
  5
48E
330
1F
100
AcDbEntity
  8
035
100
AcDbBlockReference
  2
block 139
 10
0.0
 20
0.0
 30
0.0
  0
INSERT
  5
493
330
1F
100
AcDbEntity
  8
035
100
AcDbBlockReference
  2
block 140
 10
0.0
 20
0.0
 30
0.0
  0
INSERT
  5
49B
330
1F
100
AcDbEntity
  8
035
100
AcDbBlockReference
  2
block 141
 10
0.0
 20
0.0
 30
0.0
  0
INSERT
  5
4A0
330
1F
100
AcDbEntity
  8
035
100
AcDbBlockReference
  2
block 142
 10
0.0
 20
0.0
 30
0.0
  0
INSERT
  5
4A5
330
1F
100
AcDbEntity
  8
035
100
AcDbBlockReference
  2
block 143
 10
0.0
 20
0.0
 30
0.0
  0
INSERT
  5
4AD
330
1F
100
AcDbEntity
  8
035
100
AcDbBlockReference
  2
block 144
 10
0.0
 20
0.0
 30
0.0
  0
INSERT
  5
4B5
330
1F
100
AcDbEntity
  8
035
100
AcDbBlockReference
  2
block 145
 10
0.0
 20
0.0
 30
0.0
  0
INSERT
  5
4BD
330
1F
100
AcDbEntity
  8
035
100
AcDbBlockReference
  2
block 146
 10
0.0
 20
0.0
 30
0.0
  0
INSERT
  5
4C2
330
1F
100
AcDbEntity
  8
035
100
AcDbBlockReference
  2
block 147
 10
0.0
 20
0.0
 30
0.0
  0
INSERT
  5
4C7
330
1F
100
AcDbEntity
  8
035
100
AcDbBlockReference
  2
block 148
 10
0.0
 20
0.0
 30
0.0
  0
INSERT
  5
4CF
330
1F
100
AcDbEntity
  8
035
100
AcDbBlockReference
  2
block 149
 10
0.0
 20
0.0
 30
0.0
  0
INSERT
  5
4D7
330
1F
100
AcDbEntity
  8
035
100
AcDbBlockReference
  2
block 150
 10
0.0
 20
0.0
 30
0.0
  0
INSERT
  5
4DC
330
1F
100
AcDbEntity
  8
035
100
AcDbBlockReference
  2
block 151
 10
0.0
 20
0.0
 30
0.0
  0
INSERT
  5
4E1
330
1F
100
AcDbEntity
  8
035
100
AcDbBlockReference
  2
block 152
 10
0.0
 20
0.0
 30
0.0
  0
INSERT
  5
4E9
330
1F
100
AcDbEntity
  8
035
100
AcDbBlockReference
  2
block 153
 10
0.0
 20
0.0
 30
0.0
  0
INSERT
  5
4EE
330
1F
100
AcDbEntity
  8
035
100
AcDbBlockReference
  2
block 154
 10
0.0
 20
0.0
 30
0.0
  0
INSERT
  5
4F3
330
1F
100
AcDbEntity
  8
035
100
AcDbBlockReference
  2
block 155
 10
0.0
 20
0.0
 30
0.0
  0
INSERT
  5
4FC
330
1F
100
AcDbEntity
  8
025
100
AcDbBlockReference
  2
block 156
 10
0.0
 20
0.0
 30
0.0
  0
INSERT
  5
501
330
1F
100
AcDbEntity
  8
025
100
AcDbBlockReference
  2
block 157
 10
0.0
 20
0.0
 30
0.0
  0
INSERT
  5
506
330
1F
100
AcDbEntity
  8
025
100
AcDbBlockReference
  2
block 158
 10
0.0
 20
0.0
 30
0.0
  0
INSERT
  5
50B
330
1F
100
AcDbEntity
  8
025
100
AcDbBlockReference
  2
block 159
 10
0.0
 20
0.0
 30
0.0
  0
INSERT
  5
513
330
1F
100
AcDbEntity
  8
025
100
AcDbBlockReference
  2
block 160
 10
0.0
 20
0.0
 30
0.0
  0
INSERT
  5
51B
330
1F
100
AcDbEntity
  8
025
100
AcDbBlockReference
  2
block 161
 10
0.0
 20
0.0
 30
0.0
  0
INSERT
  5
520
330
1F
100
AcDbEntity
  8
025
100
AcDbBlockReference
  2
block 162
 10
0.0
 20
0.0
 30
0.0
  0
INSERT
  5
525
330
1F
100
AcDbEntity
  8
025
100
AcDbBlockReference
  2
block 163
 10
0.0
 20
0.0
 30
0.0
  0
INSERT
  5
52A
330
1F
100
AcDbEntity
  8
025
100
AcDbBlockReference
  2
block 164
 10
0.0
 20
0.0
 30
0.0
  0
INSERT
  5
532
330
1F
100
AcDbEntity
  8
025
100
AcDbBlockReference
  2
block 165
 10
0.0
 20
0.0
 30
0.0
  0
INSERT
  5
537
330
1F
100
AcDbEntity
  8
025
100
AcDbBlockReference
  2
block 166
 10
0.0
 20
0.0
 30
0.0
  0
INSERT
  5
53F
330
1F
100
AcDbEntity
  8
025
100
AcDbBlockReference
  2
block 167
 10
0.0
 20
0.0
 30
0.0
  0
INSERT
  5
544
330
1F
100
AcDbEntity
  8
025
100
AcDbBlockReference
  2
block 168
 10
0.0
 20
0.0
 30
0.0
  0
INSERT
  5
549
330
1F
100
AcDbEntity
  8
025
100
AcDbBlockReference
  2
block 169
 10
0.0
 20
0.0
 30
0.0
  0
INSERT
  5
54E
330
1F
100
AcDbEntity
  8
025
100
AcDbBlockReference
  2
block 170
 10
0.0
 20
0.0
 30
0.0
  0
INSERT
  5
553
330
1F
100
AcDbEntity
  8
025
100
AcDbBlockReference
  2
block 171
 10
0.0
 20
0.0
 30
0.0
  0
INSERT
  5
55B
330
1F
100
AcDbEntity
  8
025
100
AcDbBlockReference
  2
block 172
 10
0.0
 20
0.0
 30
0.0
  0
INSERT
  5
563
330
1F
100
AcDbEntity
  8
025
100
AcDbBlockReference
  2
block 173
 10
0.0
 20
0.0
 30
0.0
  0
INSERT
  5
56B
330
1F
100
AcDbEntity
  8
025
100
AcDbBlockReference
  2
block 174
 10
0.0
 20
0.0
 30
0.0
  0
INSERT
  5
573
330
1F
100
AcDbEntity
  8
025
100
AcDbBlockReference
  2
block 175
 10
0.0
 20
0.0
 30
0.0
  0
INSERT
  5
578
330
1F
100
AcDbEntity
  8
025
100
AcDbBlockReference
  2
block 176
 10
0.0
 20
0.0
 30
0.0
  0
INSERT
  5
580
330
1F
100
AcDbEntity
  8
025
100
AcDbBlockReference
  2
block 177
 10
0.0
 20
0.0
 30
0.0
  0
INSERT
  5
588
330
1F
100
AcDbEntity
  8
025
100
AcDbBlockReference
  2
block 178
 10
0.0
 20
0.0
 30
0.0
  0
INSERT
  5
590
330
1F
100
AcDbEntity
  8
025
100
AcDbBlockReference
  2
block 179
 10
0.0
 20
0.0
 30
0.0
  0
INSERT
  5
599
330
1F
100
AcDbEntity
  8
010
100
AcDbBlockReference
  2
block 180
 10
0.0
 20
0.0
 30
0.0
  0
INSERT
  5
5A1
330
1F
100
AcDbEntity
  8
010
100
AcDbBlockReference
  2
block 181
 10
0.0
 20
0.0
 30
0.0
  0
INSERT
  5
5A9
330
1F
100
AcDbEntity
  8
010
100
AcDbBlockReference
  2
block 182
 10
0.0
 20
0.0
 30
0.0
  0
INSERT
  5
5B2
330
1F
100
AcDbEntity
  8
010
100
AcDbBlockReference
  2
block 183
 10
0.0
 20
0.0
 30
0.0
  0
INSERT
  5
5BB
330
1F
100
AcDbEntity
  8
010
100
AcDbBlockReference
  2
block 184
 10
0.0
 20
0.0
 30
0.0
  0
INSERT
  5
5C4
330
1F
100
AcDbEntity
  8
010
100
AcDbBlockReference
  2
block 185
 10
0.0
 20
0.0
 30
0.0
  0
INSERT
  5
5CD
330
1F
100
AcDbEntity
  8
010
100
AcDbBlockReference
  2
block 186
 10
0.0
 20
0.0
 30
0.0
  0
INSERT
  5
5D6
330
1F
100
AcDbEntity
  8
010
100
AcDbBlockReference
  2
block 187
 10
0.0
 20
0.0
 30
0.0
  0
INSERT
  5
5DF
330
1F
100
AcDbEntity
  8
010
100
AcDbBlockReference
  2
block 188
 10
0.0
 20
0.0
 30
0.0
  0
INSERT
  5
5E7
330
1F
100
AcDbEntity
  8
010
100
AcDbBlockReference
  2
block 189
 10
0.0
 20
0.0
 30
0.0
  0
INSERT
  5
5EF
330
1F
100
AcDbEntity
  8
010
100
AcDbBlockReference
  2
block 190
 10
0.0
 20
0.0
 30
0.0
  0
INSERT
  5
5F8
330
1F
100
AcDbEntity
  8
010
100
AcDbBlockReference
  2
block 191
 10
0.0
 20
0.0
 30
0.0
  0
ENDSEC
  0
SECTION
  2
OBJECTS
  0
DICTIONARY
  5
C
330
0
100
AcDbDictionary
281
     1
  3
ACAD_GROUP
350
D
  3
ACAD_LAYOUT
350
1A
  3
ACAD_MLINESTYLE
350
17
  3
ACAD_PLOTSETTINGS
350
19
  3
ACAD_PLOTSTYLENAME
350
E
  3
ACAD_TABLESTYLE
350
5FC
  3
ACAD_VISUALSTYLE
350
2A
  0
DICTIONARY
  5
D
102
{ACAD_REACTORS
330
C
102
}
330
C
100
AcDbDictionary
281
     1
  0
DICTIONARY
  5
1A
102
{ACAD_REACTORS
330
C
102
}
330
C
100
AcDbDictionary
281
     1
  3
Layout1
350
1E
  3
Layout2
350
26
  3
Model
350
22
  0
DICTIONARY
  5
17
102
{ACAD_REACTORS
330
C
102
}
330
C
100
AcDbDictionary
281
     1
  3
Standard
350
18
  0
DICTIONARY
  5
19
102
{ACAD_REACTORS
330
C
102
}
330
C
100
AcDbDictionary
281
     1
  0
ACDBDICTIONARYWDFLT
  5
E
102
{ACAD_REACTORS
330
C
102
}
330
C
100
AcDbDictionary
281
     1
  3
Normal
350
F
100
AcDbDictionaryWithDefault
340
F
  0
DICTIONARY
  5
5FC
102
{ACAD_REACTORS
330
C
102
}
330
C
100
AcDbDictionary
281
     1
  0
DICTIONARY
  5
2A
102
{ACAD_REACTORS
330
C
102
}
330
C
100
AcDbDictionary
281
     1
  3
2dWireframe
350
2F
  3
3D Hidden
350
31
  3
3dWireframe
350
30
  3
Basic
350
32
  3
Brighten
350
36
  3
ColorChange
350
3A
  3
Conceptual
350
34
  3
Dim
350
35
  3
Facepattern
350
39
  3
Flat
350
2B
  3
FlatWithEdges
350
2C
  3
Gouraud
350
2D
  3
GouraudWithEdges
350
2E
  3
Linepattern
350
38
  3
Realistic
350
33
  3
Thicken
350
37
  0
LAYOUT
  5
1E
102
{ACAD_REACTORS
330
1A
102
}
330
1A
100
AcDbPlotSettings
  1

  2
none_device
  4

  6

 40
0.0
 41
0.0
 42
0.0
 43
0.0
 44
0.0
 45
0.0
 46
0.0
 47
0.0
 48
0.0
 49
0.0
140
0.0
141
0.0
142
1.0
143
1.0
 70
   688
 72
     0
 73
     0
 74
     5
  7

 75
    16
 76
     0
 77
     2
 78
   300
147
1.0
148
0.0
149
0.0
100
AcDbLayout
  1
Layout1
 70
     1
 71
     1
 10
0.0
 20
0.0
 11
12.0
 21
9.0
 12
0.0
 22
0.0
 32
0.0
 14
1.000000000000000E+20
 24
1.000000000000000E+20
 34
1.000000000000000E+20
 15
-1.000000000000000E+20
 25
-1.000000000000000E+20
 35
-1.000000000000000E+20
146
0.0
 13
0.0
 23
0.0
 33
0.0
 16
1.0
 26
0.0
 36
0.0
 17
0.0
 27
1.0
 37
0.0
 76
     0
330
1B
  0
LAYOUT
  5
26
102
{ACAD_REACTORS
330
1A
102
}
330
1A
100
AcDbPlotSettings
  1

  2
none_device
  4

  6

 40
0.0
 41
0.0
 42
0.0
 43
0.0
 44
0.0
 45
0.0
 46
0.0
 47
0.0
 48
0.0
 49
0.0
140
0.0
141
0.0
142
1.0
143
1.0
 70
   688
 72
     0
 73
     0
 74
     5
  7

 75
    16
 76
     0
 77
     2
 78
   300
147
1.0
148
0.0
149
0.0
100
AcDbLayout
  1
Layout2
 70
     1
 71
     2
 10
0.0
 20
0.0
 11
0.0
 21
0.0
 12
0.0
 22
0.0
 32
0.0
 14
0.0
 24
0.0
 34
0.0
 15
0.0
 25
0.0
 35
0.0
146
0.0
 13
0.0
 23
0.0
 33
0.0
 16
1.0
 26
0.0
 36
0.0
 17
0.0
 27
1.0
 37
0.0
 76
     0
330
23
  0
LAYOUT
  5
22
102
{ACAD_REACTORS
330
1A
102
}
330
1A
100
AcDbPlotSettings
  1

  2
none_device
  4

  6

 40
0.0
 41
0.0
 42
0.0
 43
0.0
 44
0.0
 45
0.0
 46
0.0
 47
0.0
 48
0.0
 49
0.0
140
0.0
141
0.0
142
1.0
143
1.0
 70
  1712
 72
     0
 73
     0
 74
     0
  7

 75
     0
 76
     0
 77
     2
 78
   300
147
1.0
148
0.0
149
0.0
100
AcDbLayout
  1
Model
 70
     1
 71
     0
 10
0.0
 20
0.0
 11
12.0
 21
9.0
 12
0.0
 22
0.0
 32
0.0
 14
1.000000000000000E+20
 24
1.000000000000000E+20
 34
1.000000000000000E+20
 15
-1.000000000000000E+20
 25
-1.000000000000000E+20
 35
-1.000000000000000E+20
146
0.0
 13
0.0
 23
0.0
 33
0.0
 16
1.0
 26
0.0
 36
0.0
 17
0.0
 27
1.0
 37
0.0
 76
     0
330
1F
331
29
  0
MLINESTYLE
  5
18
102
{ACAD_REACTORS
330
17
102
}
330
17
100
AcDbMlineStyle
  2
Standard
 70
     0
  3

 62
   256
 51
90.0
 52
90.0
 71
     2
 49
0.5
 62
   256
  6
BYLAYER
 49
-0.5
 62
   256
  6
BYLAYER
  0
ACDBPLACEHOLDER
  5
F
102
{ACAD_REACTORS
330
E
102
}
330
E
  0
VISUALSTYLE
  5
2F
102
{ACAD_REACTORS
330
2A
102
}
330
2A
100
AcDbVisualStyle
  2
2dWireframe
 70
     4
 71
     0
 72
     2
 73
     0
 90
        0
 40
-0.6
 41
-30.0
 62
     5
 63
     7
421
 16777215
 74
     1
 91
        4
 64
     7
 65
   257
 75
     1
175
     1
 42
1.0
 92
        0
 66
   257
 43
1.0
 76
     1
 77
     6
 78
     2
 67
     7
 79
     5
170
     0
171
     0
290
     0
174
     0
 93
        1
 44
0.0
173
     0
291
     0
 45
0.0
1001
ACAD
1000
AcDbSavedByObjectVersion
1070
     0
  0
VISUALSTYLE
  5
31
102
{ACAD_REACTORS
330
2A
102
}
330
2A
100
AcDbVisualStyle
  2
3D Hidden
 70
     6
 71
     1
 72
     2
 73
     2
 90
        0
 40
-0.6
 41
-30.0
 62
     5
 63
     7
421
 16777215
 74
     2
 91
        2
 64
     7
 65
   257
 75
     2
175
     1
 42
40.0
 92
        0
 66
   257
 43
1.0
 76
     1
 77
     6
 78
     2
 67
     7
 79
     3
170
     0
171
     0
290
     0
174
     0
 93
        1
 44
0.0
173
     0
291
     0
 45
0.0
1001
ACAD
1000
AcDbSavedByObjectVersion
1070
     0
  0
VISUALSTYLE
  5
30
102
{ACAD_REACTORS
330
2A
102
}
330
2A
100
AcDbVisualStyle
  2
3dWireframe
 70
     5
 71
     0
 72
     2
 73
     0
 90
        0
 40
-0.6
 41
-30.0
 62
     5
 63
     7
421
 16777215
 74
     1
 91
        4
 64
     7
 65
   257
 75
     1
175
     1
 42
1.0
 92
        0
 66
   257
 43
1.0
 76
     1
 77
     6
 78
     2
 67
     7
 79
     5
170
     0
171
     0
290
     0
174
     0
 93
        1
 44
0.0
173
     0
291
     0
 45
0.0
1001
ACAD
1000
AcDbSavedByObjectVersion
1070
     0
  0
VISUALSTYLE
  5
32
102
{ACAD_REACTORS
330
2A
102
}
330
2A
100
AcDbVisualStyle
  2
Basic
 70
     7
 71
     1
 72
     0
 73
     1
 90
        0
 40
-0.6
 41
-30.0
 62
     5
 63
     7
421
 16777215
 74
     0
 91
        4
 64
     7
 65
   257
 75
     1
175
     1
 42
1.0
 92
        8
 66
     7
 43
1.0
 76
     1
 77
     6
 78
     2
 67
     7
 79
     5
170
     0
171
     0
290
     0
174
     0
 93
        1
 44
0.0
173
     0
291
     1
 45
0.0
1001
ACAD
1000
AcDbSavedByObjectVersion
1070
     0
  0
VISUALSTYLE
  5
36
102
{ACAD_REACTORS
330
2A
102
}
330
2A
100
AcDbVisualStyle
  2
Brighten
 70
    12
 71
     2
 72
     2
 73
     0
 90
        0
 40
-0.6
 41
-30.0
 62
     5
 63
     7
421
 16777215
 74
     1
 91
        4
 64
     7
 65
   257
 75
     1
175
     1
 42
1.0
 92
        8
 66
     7
 43
1.0
 76
     1
 77
     6
 78
     2
 67
     7
 79
     5
170
     0
171
     0
290
     0
174
     0
 93
        1
 44
50.0
173
     0
291
     1
 45
0.0
1001
ACAD
1000
AcDbSavedByObjectVersion
1070
     0
  0
VISUALSTYLE
  5
3A
102
{ACAD_REACTORS
330
2A
102
}
330
2A
100
AcDbVisualStyle
  2
ColorChange
 70
    16
 71
     2
 72
     2
 73
     3
 90
        0
 40
-0.6
 41
-30.0
 62
     5
 63
     8
421
  8421504
 74
     1
 91
        4
 64
     7
 65
   257
 75
     1
175
     1
 42
1.0
 92
        8
 66
     8
424
  8421504
 43
1.0
 76
     1
 77
     6
 78
     2
 67
     7
 79
     5
170
     0
171
     0
290
     0
174
     0
 93
        1
 44
0.0
173
     0
291
     1
 45
0.0
1001
ACAD
1000
AcDbSavedByObjectVersion
1070
     0
  0
VISUALSTYLE
  5
34
102
{ACAD_REACTORS
330
2A
102
}
330
2A
100
AcDbVisualStyle
  2
Conceptual
 70
     9
 71
     3
 72
     2
 73
     0
 90
        0
 40
-0.6
 41
-30.0
 62
     5
 63
     7
421
 16777215
 74
     2
 91
        2
 64
     7
 65
   257
 75
     1
175
     1
 42
40.0
 92
        8
 66
     7
 43
1.0
 76
     1
 77
     6
 78
     2
 67
     7
 79
     3
170
     0
171
     0
290
     0
174
     0
 93
        1
 44
0.0
173
     0
291
     0
 45
0.0
1001
ACAD
1000
AcDbSavedByObjectVersion
1070
     0
  0
VISUALSTYLE
  5
35
102
{ACAD_REACTORS
330
2A
102
}
330
2A
100
AcDbVisualStyle
  2
Dim
 70
    11
 71
     2
 72
     2
 73
     0
 90
        0
 40
-0.6
 41
-30.0
 62
     5
 63
     7
421
 16777215
 74
     1
 91
        4
 64
     7
 65
   257
 75
     1
175
     1
 42
1.0
 92
        8
 66
     7
 43
1.0
 76
     1
 77
     6
 78
     2
 67
     7
 79
     5
170
     0
171
     0
290
     0
174
     0
 93
        1
 44
-50.0
173
     0
291
     1
 45
0.0
1001
ACAD
1000
AcDbSavedByObjectVersion
1070
     0
  0
VISUALSTYLE
  5
39
102
{ACAD_REACTORS
330
2A
102
}
330
2A
100
AcDbVisualStyle
  2
Facepattern
 70
    15
 71
     2
 72
     2
 73
     0
 90
        0
 40
-0.6
 41
-30.0
 62
     5
 63
     7
421
 16777215
 74
     1
 91
        4
 64
     7
 65
   257
 75
     1
175
     1
 42
1.0
 92
        8
 66
     7
 43
1.0
 76
     1
 77
     6
 78
     2
 67
     7
 79
     5
170
     0
171
     0
290
     0
174
     0
 93
        1
 44
0.0
173
     0
291
     1
 45
0.0
1001
ACAD
1000
AcDbSavedByObjectVersion
1070
     0
  0
VISUALSTYLE
  5
2B
102
{ACAD_REACTORS
330
2A
102
}
330
2A
100
AcDbVisualStyle
  2
Flat
 70
     0
 71
     2
 72
     1
 73
     1
 90
        2
 40
-0.6
 41
30.0
 62
     5
 63
     7
421
 16777215
 74
     0
 91
        4
 64
     7
 65
   257
 75
     1
175
     1
 42
1.0
 92
        8
 66
     7
 43
1.0
 76
     1
 77
     6
 78
     2
 67
     7
 79
     5
170
     0
171
     0
290
     0
174
     0
 93
       13
 44
0.0
173
     0
291
     1
 45
0.0
1001
ACAD
1000
AcDbSavedByObjectVersion
1070
     0
  0
VISUALSTYLE
  5
2C
102
{ACAD_REACTORS
330
2A
102
}
330
2A
100
AcDbVisualStyle
  2
FlatWithEdges
 70
     1
 71
     2
 72
     1
 73
     1
 90
        2
 40
-0.6
 41
30.0
 62
     5
 63
     7
421
 16777215
 74
     1
 91
        4
 64
     7
 65
   257
 75
     1
175
     1
 42
1.0
 92
        0
 66
   257
 43
1.0
 76
     1
 77
     6
 78
     2
 67
     7
 79
     5
170
     0
171
     0
290
     0
174
     0
 93
       13
 44
0.0
173
     0
291
     1
 45
0.0
1001
ACAD
1000
AcDbSavedByObjectVersion
1070
     0
  0
VISUALSTYLE
  5
2D
102
{ACAD_REACTORS
330
2A
102
}
330
2A
100
AcDbVisualStyle
  2
Gouraud
 70
     2
 71
     2
 72
     2
 73
     1
 90
        2
 40
-0.6
 41
30.0
 62
     5
 63
     7
421
 16777215
 74
     0
 91
        4
 64
     7
 65
   257
 75
     1
175
     1
 42
1.0
 92
        0
 66
     7
 43
1.0
 76
     1
 77
     6
 78
     2
 67
     7
 79
     5
170
     0
171
     0
290
     0
174
     0
 93
       13
 44
0.0
173
     0
291
     1
 45
0.0
1001
ACAD
1000
AcDbSavedByObjectVersion
1070
     0
  0
VISUALSTYLE
  5
2E
102
{ACAD_REACTORS
330
2A
102
}
330
2A
100
AcDbVisualStyle
  2
GouraudWithEdges
 70
     3
 71
     2
 72
     2
 73
     1
 90
        2
 40
-0.6
 41
30.0
 62
     5
 63
     7
421
 16777215
 74
     1
 91
        4
 64
     7
 65
   257
 75
     1
175
     1
 42
1.0
 92
        0
 66
   257
 43
1.0
 76
     1
 77
     6
 78
     2
 67
     7
 79
     5
170
     0
171
     0
290
     0
174
     0
 93
       13
 44
0.0
173
     0
291
     1
 45
0.0
1001
ACAD
1000
AcDbSavedByObjectVersion
1070
     0
  0
VISUALSTYLE
  5
38
102
{ACAD_REACTORS
330
2A
102
}
330
2A
100
AcDbVisualStyle
  2
Linepattern
 70
    14
 71
     2
 72
     2
 73
     0
 90
        0
 40
-0.6
 41
-30.0
 62
     5
 63
     7
421
 16777215
 74
     1
 91
        4
 64
     7
 65
   257
 75
     7
175
     7
 42
1.0
 92
        8
 66
     7
 43
1.0
 76
     1
 77
     6
 78
     2
 67
     7
 79
     5
170
     0
171
     0
290
     0
174
     0
 93
        1
 44
0.0
173
     0
291
     1
 45
0.0
1001
ACAD
1000
AcDbSavedByObjectVersion
1070
     0
  0
VISUALSTYLE
  5
33
102
{ACAD_REACTORS
330
2A
102
}
330
2A
100
AcDbVisualStyle
  2
Realistic
 70
     8
 71
     2
 72
     2
 73
     0
 90
        0
 40
-0.6
 41
-30.0
 62
     5
 63
     7
421
 16777215
 74
     1
 91
        0
 64
     7
 65
   257
 75
     1
175
     1
 42
1.0
 92
        8
 66
     8
424
  7895160
 43
1.0
 76
     1
 77
     6
 78
     2
 67
     7
 79
     5
170
     0
171
     0
290
     0
174
     0
 93
       13
 44
0.0
173
     0
291
     0
 45
0.0
1001
ACAD
1000
AcDbSavedByObjectVersion
1070
     0
  0
VISUALSTYLE
  5
37
102
{ACAD_REACTORS
330
2A
102
}
330
2A
100
AcDbVisualStyle
  2
Thicken
 70
    13
 71
     2
 72
     2
 73
     0
 90
        0
 40
-0.6
 41
-30.0
 62
     5
 63
     7
421
 16777215
 74
     1
 91
        4
 64
     7
 65
   257
 75
     1
175
     1
 42
1.0
 92
       12
 66
     7
 43
1.0
 76
     1
 77
     6
 78
     2
 67
     7
 79
     5
170
     0
171
     0
290
     0
174
     0
 93
        1
 44
0.0
173
     0
291
     1
 45
0.0
1001
ACAD
1000
AcDbSavedByObjectVersion
1070
     0
  0
ENDSEC
  0
EOF
