  0
SECTION
  2
HEADER
  9
$ACADVER
  1
AC1009
  9
$INSBASE
 10
0.0
 20
0.0
 30
0.0
  9
$EXTMIN
 10
13.021133125855609
 20
-33.313773336466738
 30
-0.0000000349181948
  9
$EXTMAX
 10
799.04391560985323
 20
534.60391845129095
 30
0.0000000814935746
  9
$LIMMIN
 10
0.0
 20
0.0
  9
$LIMMAX
 10
420.0
 20
297.0
  9
$ORTHOMODE
 70
     1
  9
$REGENMODE
 70
     1
  9
$FILLMODE
 70
     1
  9
$QTEXTMODE
 70
     0
  9
$MIRRTEXT
 70
     0
  9
$DRAGMODE
 70
     2
  9
$LTSCALE
 40
1.0
  9
$OSMODE
 70
  3071
  9
$ATTMODE
 70
     1
  9
$TEXTSIZE
 40
2.5
  9
$TRACEWID
 40
1.0
  9
$TEXTSTYLE
  7
STANDARD
  9
$CLAYER
  8
0
  9
$CELTYPE
  6
BYLAYER
  9
$CECOLOR
 62
   256
  9
$DIMSCALE
 40
1.0
  9
$DIMASZ
 40
2.5
  9
$DIMEXO
 40
0.625
  9
$DIMDLI
 40
3.75
  9
$DIMRND
 40
0.0
  9
$DIMDLE
 40
0.0
  9
$DIMEXE
 40
1.25
  9
$DIMTP
 40
0.0
  9
$DIMTM
 40
0.0
  9
$DIMTXT
 40
2.5
  9
$DIMCEN
 40
2.5
  9
$DIMTSZ
 40
0.0
  9
$DIMTOL
 70
     0
  9
$DIMLIM
 70
     0
  9
$DIMTIH
 70
     0
  9
$DIMTOH
 70
     0
  9
$DIMSE1
 70
     0
  9
$DIMSE2
 70
     0
  9
$DIMTAD
 70
     1
  9
$DIMZIN
 70
     8
  9
$DIMBLK
  1

  9
$DIMASO
 70
     1
  9
$DIMSHO
 70
     1
  9
$DIMPOST
  1

  9
$DIMAPOST
  1

  9
$DIMALT
 70
     0
  9
$DIMALTD
 70
     3
  9
$DIMALTF
 40
0.03937007874016
  9
$DIMLFAC
 40
1.0
  9
$DIMTOFL
 70
     1
  9
$DIMTVP
 40
0.0
  9
$DIMTIX
 70
     0
  9
$DIMSOXD
 70
     0
  9
$DIMSAH
 70
     0
  9
$DIMBLK1
  1

  9
$DIMBLK2
  1

  9
$DIMSTYLE
  2
ISO-25
  9
$DIMCLRD
 70
     0
  9
$DIMCLRE
 70
     0
  9
$DIMCLRT
 70
     0
  9
$DIMTFAC
 40
1.0
  9
$DIMGAP
 40
0.625
  9
$LUNITS
 70
     2
  9
$LUPREC
 70
     4
  9
$SKETCHINC
 40
1.0
  9
$FILLETRAD
 40
0.0
  9
$AUNITS
 70
     0
  9
$AUPREC
 70
     0
  9
$MENU
  1
.
  9
$ELEVATION
 40
0.0
  9
$PELEVATION
 40
0.0
  9
$THICKNESS
 40
0.0
  9
$LIMCHECK
 70
     0
  9
$BLIPMODE
 70
     0
  9
$CHAMFERA
 40
0.0
  9
$CHAMFERB
 40
0.0
  9
$SKPOLY
 70
     0
  9
$TDCREATE
 40
2455019.583955972
  9
$TDUPDATE
 40
2455026.5014245142
  9
$TDINDWG
 40
0.0726390625
  9
$TDUSRTIMER
 40
0.0726388889
  9
$USRTIMER
 70
     1
  9
$ANGBASE
 50
0.0
  9
$ANGDIR
 70
     0
  9
$PDMODE
 70
     0
  9
$PDSIZE
 40
0.0
  9
$PLINEWID
 40
0.0
  9
$COORDS
 70
     2
  9
$SPLFRAME
 70
     0
  9
$SPLINETYPE
 70
     6
  9
$SPLINESEGS
 70
     8
  9
$ATTDIA
 70
     0
  9
$ATTREQ
 70
     1
  9
$HANDLING
 70
     1
  9
$HANDSEED
  5
916
  9
$SURFTAB1
 70
     6
  9
$SURFTAB2
 70
     6
  9
$SURFTYPE
 70
     6
  9
$SURFU
 70
     6
  9
$SURFV
 70
     6
  9
$UCSNAME
  2

  9
$UCSORG
 10
0.0
 20
0.0
 30
0.0
  9
$UCSXDIR
 10
1.0
 20
0.0
 30
0.0
  9
$UCSYDIR
 10
0.0
 20
1.0
 30
0.0
  9
$PUCSNAME
  2

  9
$PUCSORG
 10
0.0
 20
0.0
 30
0.0
  9
$PUCSXDIR
 10
1.0
 20
0.0
 30
0.0
  9
$PUCSYDIR
 10
0.0
 20
1.0
 30
0.0
  9
$USERI1
 70
     0
  9
$USERI2
 70
     0
  9
$USERI3
 70
     0
  9
$USERI4
 70
     0
  9
$USERI5
 70
     0
  9
$USERR1
 40
0.0
  9
$USERR2
 40
0.0
  9
$USERR3
 40
0.0
  9
$USERR4
 40
0.0
  9
$USERR5
 40
0.0
  9
$WORLDVIEW
 70
     1
  9
$SHADEDGE
 70
     3
  9
$SHADEDIF
 70
    70
  9
$TILEMODE
 70
     1
  9
$MAXACTVP
 70
    64
  9
$PLIMCHECK
 70
     0
  9
$PEXTMIN
 10
1.0000000000000000E+020
 20
1.0000000000000000E+020
 30
1.0000000000000000E+020
  9
$PEXTMAX
 10
-1.0000000000000000E+020
 20
-1.0000000000000000E+020
 30
-1.0000000000000000E+020
  9
$PLIMMIN
 10
0.0
 20
0.0
  9
$PLIMMAX
 10
420.0
 20
297.0
  9
$UNITMODE
 70
     0
  9
$VISRETAIN
 70
     1
  9
$PLINEGEN
 70
     0
  9
$PSLTSCALE
 70
     1
  0
ENDSEC
  0
SECTION
  2
TABLES
  0
TABLE
  2
VPORT
 70
     2
  0
VPORT
  2
*ACTIVE
 70
     0
 10
0.0
 20
0.0
 11
1.0
 21
1.0
 12
406.03252436785431
 22
250.64507255741211
 13
0.0
 23
0.0
 14
10.0
 24
10.0
 15
10.0
 25
10.0
 16
0.0
 26
0.0
 36
1.0
 17
0.0
 27
0.0
 37
0.0
 40
571.3183965290018
 41
1.525474525474525
 42
50.0
 43
0.0
 44
0.0
 50
0.0
 51
0.0
 71
     0
 72
  1000
 73
     1
 74
     3
 75
     0
 76
     0
 77
     0
 78
     0
  0
ENDTAB
  0
TABLE
  2
LTYPE
 70
     1
  0
LTYPE
  2
CONTINUOUS
 70
     0
  3
Solid line
 72
    65
 73
     0
 40
0.0
  0
ENDTAB
  0
TABLE
  2
LAYER
 70
     2
  0
LAYER
  2
0
 70
     0
 62
     7
  6
CONTINUOUS
  0
LAYER
  2
DEFPOINTS
 70
     0
 62
     7
  6
CONTINUOUS
  0
ENDTAB
  0
TABLE
  2
STYLE
 70
     1
  0
STYLE
  2
STANDARD
 70
     0
 40
0.0
 41
1.0
 50
0.0
 71
     0
 42
2.5
  3
txt
  4

  0
ENDTAB
  0
TABLE
  2
VIEW
 70
     0
  0
ENDTAB
  0
TABLE
  2
UCS
 70
     0
  0
ENDTAB
  0
TABLE
  2
APPID
 70
     3
  0
APPID
  2
ACAD
 70
     0
  0
APPID
  2
ACAD_PSEXT
 70
     0
  0
APPID
  2
CONTENTBLOCKICON
 70
     0
  0
ENDTAB
  0
TABLE
  2
DIMSTYLE
 70
     2
  0
DIMSTYLE
  2
ISO-25
 70
     0
  3

  4

  5

  6

  7

 40
1.0
 41
2.5
 42
0.625
 43
3.75
 44
1.25
 45
0.0
 46
0.0
 47
0.0
 48
0.0
140
2.5
141
2.5
142
0.0
143
0.03937007874016
144
1.0
145
0.0
146
1.0
147
0.625
 71
     0
 72
     0
 73
     0
 74
     0
 75
     0
 76
     0
 77
     1
 78
     8
170
     0
171
     3
172
     1
173
     0
174
     0
175
     0
176
     0
177
     0
178
     0
  0
DIMSTYLE
  2
STANDARD
 70
     0
  3

  4

  5

  6

  7

 40
1.0
 41
0.18
 42
0.0625
 43
0.38
 44
0.18
 45
0.0
 46
0.0
 47
0.0
 48
0.0
140
0.18
141
0.09
142
0.0
143
25.399999999999999
144
1.0
145
0.0
146
1.0
147
0.09
 71
     0
 72
     0
 73
     1
 74
     1
 75
     0
 76
     0
 77
     0
 78
     0
170
     0
171
     2
172
     0
173
     0
174
     0
175
     0
176
     0
177
     0
178
     0
  0
ENDTAB
  0
ENDSEC
  0
SECTION
  2
BLOCKS
  0
BLOCK
  8
0
  2
$MODEL_SPACE
 70
     0
 10
0.0
 20
0.0
 30
0.0
  3
$MODEL_SPACE
  1

  0
ENDBLK
  5
25
  8
0
  0
BLOCK
 67
     1
  8
0
  2
$PAPER_SPACE
 70
     0
 10
0.0
 20
0.0
 30
0.0
  3
$PAPER_SPACE
  1

  0
ENDBLK
  5
21
 67
     1
  8
0
  0
BLOCK
  8
0
  2
27080_P
 70
     0
 10
0.0
 20
0.0
 30
0.0
  3
27080_P
  1

  0
CIRCLE
  5
27F
  8
0
 10
381.65085261569487
 20
344.57027167960291
 30
0.0
 40
23.00000000000022
  0
ARC
  5
280
  8
0
 10
578.15082590460315
 20
399.57027167963298
 30
0.0
 40
40.0
 50
0.0
 51
90.0
  0
ARC
  5
281
  8
0
 10
627.65082590460497
 20
530.5702716796028
 30
0.0
 40
4.0
 50
0.0
 51
90.0
  0
ARC
  5
282
  8
0
 10
381.65085261568947
 20
344.57027167960291
 30
0.0
 40
36.000000000000078
 50
270.0
 51
90.0
  0
LINE
  5
283
  8
0
 10
578.15082590460315
 20
439.57027167963281
 30
0.0
 11
185.15085261569121
 21
439.57027167962571
 31
0.0
  0
CIRCLE
  5
284
  8
0
 10
381.65085261568947
 20
474.57027167959922
 30
0.0
 40
17.5
  0
LINE
  5
285
  8
0
 10
206.0249404835786
 20
407.41097282154408
 30
0.0
 11
557.27673803671576
 21
407.41097282154408
 31
0.0
  0
ARC
  5
286
  8
0
 10
557.27673803671576
 20
375.41097282154419
 30
0.0
 40
32.0
 50
0.0
 51
90.0
  0
POLYLINE
  8
0
  5
392
  66
     1
 10
0.000000
 20
0.000000
 30
0.000000
  70
     8
  0
VERTEX
  8
0
  5
393
 10
321.651
 20
415.929
 30
0.000000
  70
    32
  0
VERTEX
  8
0
  5
394
 10
321.699
 20
415.929
 30
0.000000
  70
    32
  0
VERTEX
  8
0
  5
395
 10
321.747
 20
415.929
 30
0.000000
  70
    32
  0
VERTEX
  8
0
  5
396
 10
321.794
 20
415.930
 30
0.000000
  70
    32
  0
VERTEX
  8
0
  5
397
 10
321.842
 20
415.930
 30
0.000000
  70
    32
  0
VERTEX
  8
0
  5
398
 10
321.890
 20
415.931
 30
0.000000
  70
    32
  0
VERTEX
  8
0
  5
399
 10
321.938
 20
415.932
 30
0.000000
  70
    32
  0
VERTEX
  8
0
  5
39A
 10
321.986
 20
415.933
 30
0.000000
  70
    32
  0
VERTEX
  8
0
  5
39B
 10
322.034
 20
415.934
 30
0.000000
  70
    32
  0
VERTEX
  8
0
  5
39C
 10
322.081
 20
415.935
 30
0.000000
  70
    32
  0
VERTEX
  8
0
  5
39D
 10
322.129
 20
415.937
 30
0.000000
  70
    32
  0
VERTEX
  8
0
  5
39E
 10
322.177
 20
415.938
 30
0.000000
  70
    32
  0
VERTEX
  8
0
  5
39F
 10
322.225
 20
415.940
 30
0.000000
  70
    32
  0
VERTEX
  8
0
  5
3A0
 10
322.273
 20
415.942
 30
0.000000
  70
    32
  0
VERTEX
  8
0
  5
3A1
 10
322.320
 20
415.944
 30
0.000000
  70
    32
  0
VERTEX
  8
0
  5
3A2
 10
322.368
 20
415.946
 30
0.000000
  70
    32
  0
VERTEX
  8
0
  5
3A3
 10
322.416
 20
415.948
 30
0.000000
  70
    32
  0
VERTEX
  8
0
  5
3A4
 10
322.464
 20
415.951
 30
0.000000
  70
    32
  0
VERTEX
  8
0
  5
3A5
 10
322.511
 20
415.953
 30
0.000000
  70
    32
  0
VERTEX
  8
0
  5
3A6
 10
322.559
 20
415.956
 30
0.000000
  70
    32
  0
VERTEX
  8
0
  5
3A7
 10
322.607
 20
415.959
 30
0.000000
  70
    32
  0
VERTEX
  8
0
  5
3A8
 10
322.654
 20
415.962
 30
0.000000
  70
    32
  0
VERTEX
  8
0
  5
3A9
 10
322.702
 20
415.966
 30
0.000000
  70
    32
  0
VERTEX
  8
0
  5
3AA
 10
322.750
 20
415.969
 30
0.000000
  70
    32
  0
VERTEX
  8
0
  5
3AB
 10
322.797
 20
415.973
 30
0.000000
  70
    32
  0
VERTEX
  8
0
  5
3AC
 10
322.845
 20
415.976
 30
0.000000
  70
    32
  0
VERTEX
  8
0
  5
3AD
 10
322.892
 20
415.980
 30
0.000000
  70
    32
  0
VERTEX
  8
0
  5
3AE
 10
322.940
 20
415.984
 30
0.000000
  70
    32
  0
VERTEX
  8
0
  5
3AF
 10
322.987
 20
415.988
 30
0.000000
  70
    32
  0
VERTEX
  8
0
  5
3B0
 10
323.035
 20
415.993
 30
0.000000
  70
    32
  0
VERTEX
  8
0
  5
3B1
 10
323.082
 20
415.997
 30
0.000000
  70
    32
  0
VERTEX
  8
0
  5
3B2
 10
323.130
 20
416.002
 30
0.000000
  70
    32
  0
VERTEX
  8
0
  5
3B3
 10
323.177
 20
416.006
 30
0.000000
  70
    32
  0
VERTEX
  8
0
  5
3B4
 10
323.225
 20
416.011
 30
0.000000
  70
    32
  0
VERTEX
  8
0
  5
3B5
 10
323.272
 20
416.016
 30
0.000000
  70
    32
  0
VERTEX
  8
0
  5
3B6
 10
323.319
 20
416.022
 30
0.000000
  70
    32
  0
VERTEX
  8
0
  5
3B7
 10
323.367
 20
416.027
 30
0.000000
  70
    32
  0
VERTEX
  8
0
  5
3B8
 10
323.414
 20
416.033
 30
0.000000
  70
    32
  0
VERTEX
  8
0
  5
3B9
 10
323.461
 20
416.038
 30
0.000000
  70
    32
  0
VERTEX
  8
0
  5
3BA
 10
323.508
 20
416.044
 30
0.000000
  70
    32
  0
VERTEX
  8
0
  5
3BB
 10
323.555
 20
416.050
 30
0.000000
  70
    32
  0
VERTEX
  8
0
  5
3BC
 10
323.603
 20
416.056
 30
0.000000
  70
    32
  0
VERTEX
  8
0
  5
3BD
 10
323.650
 20
416.062
 30
0.000000
  70
    32
  0
VERTEX
  8
0
  5
3BE
 10
323.697
 20
416.069
 30
0.000000
  70
    32
  0
VERTEX
  8
0
  5
3BF
 10
323.744
 20
416.075
 30
0.000000
  70
    32
  0
VERTEX
  8
0
  5
3C0
 10
323.791
 20
416.082
 30
0.000000
  70
    32
  0
VERTEX
  8
0
  5
3C1
 10
323.838
 20
416.089
 30
0.000000
  70
    32
  0
VERTEX
  8
0
  5
3C2
 10
323.885
 20
416.096
 30
0.000000
  70
    32
  0
VERTEX
  8
0
  5
3C3
 10
323.932
 20
416.103
 30
0.000000
  70
    32
  0
VERTEX
  8
0
  5
3C4
 10
323.978
 20
416.110
 30
0.000000
  70
    32
  0
VERTEX
  8
0
  5
3C5
 10
324.025
 20
416.118
 30
0.000000
  70
    32
  0
VERTEX
  8
0
  5
3C6
 10
324.072
 20
416.125
 30
0.000000
  70
    32
  0
VERTEX
  8
0
  5
3C7
 10
324.119
 20
416.133
 30
0.000000
  70
    32
  0
VERTEX
  8
0
  5
3C8
 10
324.165
 20
416.141
 30
0.000000
  70
    32
  0
VERTEX
  8
0
  5
3C9
 10
324.212
 20
416.149
 30
0.000000
  70
    32
  0
VERTEX
  8
0
  5
3CA
 10
324.259
 20
416.157
 30
0.000000
  70
    32
  0
VERTEX
  8
0
  5
3CB
 10
324.305
 20
416.166
 30
0.000000
  70
    32
  0
VERTEX
  8
0
  5
3CC
 10
324.352
 20
416.174
 30
0.000000
  70
    32
  0
VERTEX
  8
0
  5
3CD
 10
324.398
 20
416.183
 30
0.000000
  70
    32
  0
VERTEX
  8
0
  5
3CE
 10
324.444
 20
416.191
 30
0.000000
  70
    32
  0
VERTEX
  8
0
  5
3CF
 10
324.491
 20
416.200
 30
0.000000
  70
    32
  0
VERTEX
  8
0
  5
3D0
 10
324.537
 20
416.209
 30
0.000000
  70
    32
  0
VERTEX
  8
0
  5
3D1
 10
324.583
 20
416.219
 30
0.000000
  70
    32
  0
VERTEX
  8
0
  5
3D2
 10
324.629
 20
416.228
 30
0.000000
  70
    32
  0
VERTEX
  8
0
  5
3D3
 10
324.675
 20
416.238
 30
0.000000
  70
    32
  0
VERTEX
  8
0
  5
3D4
 10
324.722
 20
416.247
 30
0.000000
  70
    32
  0
VERTEX
  8
0
  5
3D5
 10
324.768
 20
416.257
 30
0.000000
  70
    32
  0
VERTEX
  8
0
  5
3D6
 10
324.813
 20
416.267
 30
0.000000
  70
    32
  0
VERTEX
  8
0
  5
3D7
 10
324.859
 20
416.277
 30
0.000000
  70
    32
  0
VERTEX
  8
0
  5
3D8
 10
324.905
 20
416.287
 30
0.000000
  70
    32
  0
VERTEX
  8
0
  5
3D9
 10
324.951
 20
416.298
 30
0.000000
  70
    32
  0
VERTEX
  8
0
  5
3DA
 10
324.997
 20
416.308
 30
0.000000
  70
    32
  0
VERTEX
  8
0
  5
3DB
 10
325.042
 20
416.319
 30
0.000000
  70
    32
  0
VERTEX
  8
0
  5
3DC
 10
325.088
 20
416.330
 30
0.000000
  70
    32
  0
VERTEX
  8
0
  5
3DD
 10
325.134
 20
416.341
 30
0.000000
  70
    32
  0
VERTEX
  8
0
  5
3DE
 10
325.179
 20
416.352
 30
0.000000
  70
    32
  0
VERTEX
  8
0
  5
3DF
 10
325.224
 20
416.363
 30
0.000000
  70
    32
  0
VERTEX
  8
0
  5
3E0
 10
325.270
 20
416.374
 30
0.000000
  70
    32
  0
VERTEX
  8
0
  5
3E1
 10
325.315
 20
416.386
 30
0.000000
  70
    32
  0
VERTEX
  8
0
  5
3E2
 10
325.360
 20
416.398
 30
0.000000
  70
    32
  0
VERTEX
  8
0
  5
3E3
 10
325.405
 20
416.410
 30
0.000000
  70
    32
  0
VERTEX
  8
0
  5
3E4
 10
325.451
 20
416.422
 30
0.000000
  70
    32
  0
VERTEX
  8
0
  5
3E5
 10
325.496
 20
416.434
 30
0.000000
  70
    32
  0
VERTEX
  8
0
  5
3E6
 10
325.541
 20
416.446
 30
0.000000
  70
    32
  0
VERTEX
  8
0
  5
3E7
 10
325.585
 20
416.458
 30
0.000000
  70
    32
  0
VERTEX
  8
0
  5
3E8
 10
325.630
 20
416.471
 30
0.000000
  70
    32
  0
VERTEX
  8
0
  5
3E9
 10
325.675
 20
416.484
 30
0.000000
  70
    32
  0
VERTEX
  8
0
  5
3EA
 10
325.720
 20
416.496
 30
0.000000
  70
    32
  0
VERTEX
  8
0
  5
3EB
 10
325.764
 20
416.509
 30
0.000000
  70
    32
  0
VERTEX
  8
0
  5
3EC
 10
325.809
 20
416.523
 30
0.000000
  70
    32
  0
VERTEX
  8
0
  5
3ED
 10
325.853
 20
416.536
 30
0.000000
  70
    32
  0
VERTEX
  8
0
  5
3EE
 10
325.898
 20
416.549
 30
0.000000
  70
    32
  0
VERTEX
  8
0
  5
3EF
 10
325.942
 20
416.563
 30
0.000000
  70
    32
  0
VERTEX
  8
0
  5
3F0
 10
325.986
 20
416.576
 30
0.000000
  70
    32
  0
VERTEX
  8
0
  5
3F1
 10
326.030
 20
416.590
 30
0.000000
  70
    32
  0
VERTEX
  8
0
  5
3F2
 10
326.074
 20
416.604
 30
0.000000
  70
    32
  0
VERTEX
  8
0
  5
3F3
 10
326.118
 20
416.618
 30
0.000000
  70
    32
  0
VERTEX
  8
0
  5
3F4
 10
326.162
 20
416.633
 30
0.000000
  70
    32
  0
VERTEX
  8
0
  5
3F5
 10
326.206
 20
416.647
 30
0.000000
  70
    32
  0
VERTEX
  8
0
  5
3F6
 10
326.250
 20
416.662
 30
0.000000
  70
    32
  0
VERTEX
  8
0
  5
3F7
 10
326.293
 20
416.676
 30
0.000000
  70
    32
  0
VERTEX
  8
0
  5
3F8
 10
326.337
 20
416.691
 30
0.000000
  70
    32
  0
VERTEX
  8
0
  5
3F9
 10
326.380
 20
416.706
 30
0.000000
  70
    32
  0
VERTEX
  8
0
  5
3FA
 10
326.424
 20
416.721
 30
0.000000
  70
    32
  0
VERTEX
  8
0
  5
3FB
 10
326.467
 20
416.737
 30
0.000000
  70
    32
  0
VERTEX
  8
0
  5
3FC
 10
326.510
 20
416.752
 30
0.000000
  70
    32
  0
VERTEX
  8
0
  5
3FD
 10
326.553
 20
416.767
 30
0.000000
  70
    32
  0
VERTEX
  8
0
  5
3FE
 10
326.596
 20
416.783
 30
0.000000
  70
    32
  0
VERTEX
  8
0
  5
3FF
 10
326.639
 20
416.799
 30
0.000000
  70
    32
  0
VERTEX
  8
0
  5
400
 10
326.682
 20
416.815
 30
0.000000
  70
    32
  0
VERTEX
  8
0
  5
401
 10
326.725
 20
416.831
 30
0.000000
  70
    32
  0
VERTEX
  8
0
  5
402
 10
326.768
 20
416.847
 30
0.000000
  70
    32
  0
VERTEX
  8
0
  5
403
 10
326.810
 20
416.864
 30
0.000000
  70
    32
  0
VERTEX
  8
0
  5
404
 10
326.853
 20
416.880
 30
0.000000
  70
    32
  0
VERTEX
  8
0
  5
405
 10
326.895
 20
416.897
 30
0.000000
  70
    32
  0
VERTEX
  8
0
  5
406
 10
326.937
 20
416.914
 30
0.000000
  70
    32
  0
VERTEX
  8
0
  5
407
 10
326.980
 20
416.931
 30
0.000000
  70
    32
  0
VERTEX
  8
0
  5
408
 10
327.022
 20
416.948
 30
0.000000
  70
    32
  0
VERTEX
  8
0
  5
409
 10
327.064
 20
416.965
 30
0.000000
  70
    32
  0
VERTEX
  8
0
  5
40A
 10
327.106
 20
416.982
 30
0.000000
  70
    32
  0
VERTEX
  8
0
  5
40B
 10
327.148
 20
417.000
 30
0.000000
  70
    32
  0
VERTEX
  8
0
  5
40C
 10
327.189
 20
417.017
 30
0.000000
  70
    32
  0
VERTEX
  8
0
  5
40D
 10
327.231
 20
417.035
 30
0.000000
  70
    32
  0
VERTEX
  8
0
  5
40E
 10
327.272
 20
417.053
 30
0.000000
  70
    32
  0
VERTEX
  8
0
  5
40F
 10
327.314
 20
417.071
 30
0.000000
  70
    32
  0
VERTEX
  8
0
  5
410
 10
327.355
 20
417.089
 30
0.000000
  70
    32
  0
VERTEX
  8
0
  5
411
 10
327.396
 20
417.108
 30
0.000000
  70
    32
  0
VERTEX
  8
0
  5
412
 10
327.437
 20
417.126
 30
0.000000
  70
    32
  0
VERTEX
  8
0
  5
413
 10
327.478
 20
417.145
 30
0.000000
  70
    32
  0
VERTEX
  8
0
  5
414
 10
327.519
 20
417.163
 30
0.000000
  70
    32
  0
VERTEX
  8
0
  5
415
 10
327.560
 20
417.182
 30
0.000000
  70
    32
  0
VERTEX
  8
0
  5
416
 10
327.601
 20
417.201
 30
0.000000
  70
    32
  0
VERTEX
  8
0
  5
417
 10
327.641
 20
417.220
 30
0.000000
  70
    32
  0
VERTEX
  8
0
  5
418
 10
327.682
 20
417.239
 30
0.000000
  70
    32
  0
VERTEX
  8
0
  5
419
 10
327.722
 20
417.259
 30
0.000000
  70
    32
  0
VERTEX
  8
0
  5
41A
 10
327.762
 20
417.278
 30
0.000000
  70
    32
  0
VERTEX
  8
0
  5
41B
 10
327.802
 20
417.298
 30
0.000000
  70
    32
  0
VERTEX
  8
0
  5
41C
 10
327.842
 20
417.318
 30
0.000000
  70
    32
  0
VERTEX
  8
0
  5
41D
 10
327.882
 20
417.338
 30
0.000000
  70
    32
  0
VERTEX
  8
0
  5
41E
 10
327.922
 20
417.358
 30
0.000000
  70
    32
  0
VERTEX
  8
0
  5
41F
 10
327.962
 20
417.378
 30
0.000000
  70
    32
  0
VERTEX
  8
0
  5
420
 10
328.001
 20
417.398
 30
0.000000
  70
    32
  0
VERTEX
  8
0
  5
421
 10
328.041
 20
417.419
 30
0.000000
  70
    32
  0
VERTEX
  8
0
  5
422
 10
328.080
 20
417.439
 30
0.000000
  70
    32
  0
VERTEX
  8
0
  5
423
 10
328.119
 20
417.460
 30
0.000000
  70
    32
  0
VERTEX
  8
0
  5
424
 10
328.158
 20
417.481
 30
0.000000
  70
    32
  0
VERTEX
  8
0
  5
425
 10
328.197
 20
417.502
 30
0.000000
  70
    32
  0
VERTEX
  8
0
  5
426
 10
328.236
 20
417.523
 30
0.000000
  70
    32
  0
VERTEX
  8
0
  5
427
 10
328.275
 20
417.544
 30
0.000000
  70
    32
  0
VERTEX
  8
0
  5
428
 10
328.314
 20
417.566
 30
0.000000
  70
    32
  0
VERTEX
  8
0
  5
429
 10
328.352
 20
417.587
 30
0.000000
  70
    32
  0
VERTEX
  8
0
  5
42A
 10
328.390
 20
417.609
 30
0.000000
  70
    32
  0
VERTEX
  8
0
  5
42B
 10
328.429
 20
417.630
 30
0.000000
  70
    32
  0
VERTEX
  8
0
  5
42C
 10
328.467
 20
417.652
 30
0.000000
  70
    32
  0
VERTEX
  8
0
  5
42D
 10
328.505
 20
417.674
 30
0.000000
  70
    32
  0
VERTEX
  8
0
  5
42E
 10
328.543
 20
417.696
 30
0.000000
  70
    32
  0
VERTEX
  8
0
  5
42F
 10
328.580
 20
417.719
 30
0.000000
  70
    32
  0
VERTEX
  8
0
  5
430
 10
328.618
 20
417.741
 30
0.000000
  70
    32
  0
VERTEX
  8
0
  5
431
 10
328.656
 20
417.764
 30
0.000000
  70
    32
  0
VERTEX
  8
0
  5
432
 10
328.693
 20
417.786
 30
0.000000
  70
    32
  0
VERTEX
  8
0
  5
433
 10
328.730
 20
417.809
 30
0.000000
  70
    32
  0
VERTEX
  8
0
  5
434
 10
328.767
 20
417.832
 30
0.000000
  70
    32
  0
VERTEX
  8
0
  5
435
 10
328.804
 20
417.855
 30
0.000000
  70
    32
  0
VERTEX
  8
0
  5
436
 10
328.841
 20
417.878
 30
0.000000
  70
    32
  0
VERTEX
  8
0
  5
437
 10
328.878
 20
417.901
 30
0.000000
  70
    32
  0
VERTEX
  8
0
  5
438
 10
328.914
 20
417.925
 30
0.000000
  70
    32
  0
VERTEX
  8
0
  5
439
 10
328.951
 20
417.948
 30
0.000000
  70
    32
  0
VERTEX
  8
0
  5
43A
 10
328.987
 20
417.972
 30
0.000000
  70
    32
  0
VERTEX
  8
0
  5
43B
 10
329.023
 20
417.996
 30
0.000000
  70
    32
  0
VERTEX
  8
0
  5
43C
 10
329.059
 20
418.019
 30
0.000000
  70
    32
  0
VERTEX
  8
0
  5
43D
 10
329.095
 20
418.043
 30
0.000000
  70
    32
  0
VERTEX
  8
0
  5
43E
 10
329.131
 20
418.068
 30
0.000000
  70
    32
  0
VERTEX
  8
0
  5
43F
 10
329.167
 20
418.092
 30
0.000000
  70
    32
  0
VERTEX
  8
0
  5
440
 10
329.202
 20
418.116
 30
0.000000
  70
    32
  0
VERTEX
  8
0
  5
441
 10
329.238
 20
418.141
 30
0.000000
  70
    32
  0
VERTEX
  8
0
  5
442
 10
329.273
 20
418.165
 30
0.000000
  70
    32
  0
VERTEX
  8
0
  5
443
 10
329.308
 20
418.190
 30
0.000000
  70
    32
  0
VERTEX
  8
0
  5
444
 10
329.343
 20
418.215
 30
0.000000
  70
    32
  0
VERTEX
  8
0
  5
445
 10
329.378
 20
418.240
 30
0.000000
  70
    32
  0
VERTEX
  8
0
  5
446
 10
329.412
 20
418.265
 30
0.000000
  70
    32
  0
VERTEX
  8
0
  5
447
 10
329.447
 20
418.290
 30
0.000000
  70
    32
  0
VERTEX
  8
0
  5
448
 10
329.481
 20
418.316
 30
0.000000
  70
    32
  0
VERTEX
  8
0
  5
449
 10
329.515
 20
418.341
 30
0.000000
  70
    32
  0
VERTEX
  8
0
  5
44A
 10
329.549
 20
418.367
 30
0.000000
  70
    32
  0
VERTEX
  8
0
  5
44B
 10
329.583
 20
418.392
 30
0.000000
  70
    32
  0
VERTEX
  8
0
  5
44C
 10
329.617
 20
418.418
 30
0.000000
  70
    32
  0
VERTEX
  8
0
  5
44D
 10
329.651
 20
418.444
 30
0.000000
  70
    32
  0
VERTEX
  8
0
  5
44E
 10
329.684
 20
418.470
 30
0.000000
  70
    32
  0
VERTEX
  8
0
  5
44F
 10
329.718
 20
418.496
 30
0.000000
  70
    32
  0
VERTEX
  8
0
  5
450
 10
329.751
 20
418.523
 30
0.000000
  70
    32
  0
VERTEX
  8
0
  5
451
 10
329.784
 20
418.549
 30
0.000000
  70
    32
  0
VERTEX
  8
0
  5
452
 10
329.817
 20
418.575
 30
0.000000
  70
    32
  0
VERTEX
  8
0
  5
453
 10
329.849
 20
418.602
 30
0.000000
  70
    32
  0
VERTEX
  8
0
  5
454
 10
329.882
 20
418.629
 30
0.000000
  70
    32
  0
VERTEX
  8
0
  5
455
 10
329.914
 20
418.656
 30
0.000000
  70
    32
  0
VERTEX
  8
0
  5
456
 10
329.947
 20
418.683
 30
0.000000
  70
    32
  0
VERTEX
  8
0
  5
457
 10
329.979
 20
418.710
 30
0.000000
  70
    32
  0
VERTEX
  8
0
  5
458
 10
330.011
 20
418.737
 30
0.000000
  70
    32
  0
VERTEX
  8
0
  5
459
 10
330.043
 20
418.764
 30
0.000000
  70
    32
  0
VERTEX
  8
0
  5
45A
 10
330.074
 20
418.792
 30
0.000000
  70
    32
  0
VERTEX
  8
0
  5
45B
 10
330.106
 20
418.819
 30
0.000000
  70
    32
  0
VERTEX
  8
0
  5
45C
 10
330.137
 20
418.847
 30
0.000000
  70
    32
  0
VERTEX
  8
0
  5
45D
 10
330.168
 20
418.875
 30
0.000000
  70
    32
  0
VERTEX
  8
0
  5
45E
 10
330.199
 20
418.903
 30
0.000000
  70
    32
  0
VERTEX
  8
0
  5
45F
 10
330.230
 20
418.931
 30
0.000000
  70
    32
  0
VERTEX
  8
0
  5
460
 10
330.261
 20
418.959
 30
0.000000
  70
    32
  0
VERTEX
  8
0
  5
461
 10
330.291
 20
418.987
 30
0.000000
  70
    32
  0
VERTEX
  8
0
  5
462
 10
330.322
 20
419.015
 30
0.000000
  70
    32
  0
VERTEX
  8
0
  5
463
 10
330.352
 20
419.044
 30
0.000000
  70
    32
  0
VERTEX
  8
0
  5
464
 10
330.382
 20
419.073
 30
0.000000
  70
    32
  0
VERTEX
  8
0
  5
465
 10
330.412
 20
419.101
 30
0.000000
  70
    32
  0
VERTEX
  8
0
  5
466
 10
330.441
 20
419.130
 30
0.000000
  70
    32
  0
VERTEX
  8
0
  5
467
 10
330.471
 20
419.159
 30
0.000000
  70
    32
  0
VERTEX
  8
0
  5
468
 10
330.500
 20
419.188
 30
0.000000
  70
    32
  0
VERTEX
  8
0
  5
469
 10
330.530
 20
419.217
 30
0.000000
  70
    32
  0
VERTEX
  8
0
  5
46A
 10
330.559
 20
419.246
 30
0.000000
  70
    32
  0
VERTEX
  8
0
  5
46B
 10
330.587
 20
419.276
 30
0.000000
  70
    32
  0
VERTEX
  8
0
  5
46C
 10
330.616
 20
419.305
 30
0.000000
  70
    32
  0
VERTEX
  8
0
  5
46D
 10
330.645
 20
419.335
 30
0.000000
  70
    32
  0
VERTEX
  8
0
  5
46E
 10
330.673
 20
419.364
 30
0.000000
  70
    32
  0
VERTEX
  8
0
  5
46F
 10
330.701
 20
419.394
 30
0.000000
  70
    32
  0
VERTEX
  8
0
  5
470
 10
330.729
 20
419.424
 30
0.000000
  70
    32
  0
VERTEX
  8
0
  5
471
 10
330.757
 20
419.454
 30
0.000000
  70
    32
  0
VERTEX
  8
0
  5
472
 10
330.785
 20
419.484
 30
0.000000
  70
    32
  0
VERTEX
  8
0
  5
473
 10
330.812
 20
419.514
 30
0.000000
  70
    32
  0
VERTEX
  8
0
  5
474
 10
330.839
 20
419.545
 30
0.000000
  70
    32
  0
VERTEX
  8
0
  5
475
 10
330.867
 20
419.575
 30
0.000000
  70
    32
  0
VERTEX
  8
0
  5
476
 10
330.893
 20
419.606
 30
0.000000
  70
    32
  0
VERTEX
  8
0
  5
477
 10
330.920
 20
419.636
 30
0.000000
  70
    32
  0
VERTEX
  8
0
  5
478
 10
330.947
 20
419.667
 30
0.000000
  70
    32
  0
VERTEX
  8
0
  5
479
 10
330.973
 20
419.698
 30
0.000000
  70
    32
  0
VERTEX
  8
0
  5
47A
 10
331.000
 20
419.729
 30
0.000000
  70
    32
  0
VERTEX
  8
0
  5
47B
 10
331.026
 20
419.760
 30
0.000000
  70
    32
  0
VERTEX
  8
0
  5
47C
 10
331.051
 20
419.791
 30
0.000000
  70
    32
  0
VERTEX
  8
0
  5
47D
 10
331.077
 20
419.822
 30
0.000000
  70
    32
  0
VERTEX
  8
0
  5
47E
 10
331.103
 20
419.853
 30
0.000000
  70
    32
  0
VERTEX
  8
0
  5
47F
 10
331.128
 20
419.885
 30
0.000000
  70
    32
  0
VERTEX
  8
0
  5
480
 10
331.153
 20
419.916
 30
0.000000
  70
    32
  0
VERTEX
  8
0
  5
481
 10
331.178
 20
419.948
 30
0.000000
  70
    32
  0
VERTEX
  8
0
  5
482
 10
331.203
 20
419.979
 30
0.000000
  70
    32
  0
VERTEX
  8
0
  5
483
 10
331.227
 20
420.011
 30
0.000000
  70
    32
  0
VERTEX
  8
0
  5
484
 10
331.252
 20
420.043
 30
0.000000
  70
    32
  0
VERTEX
  8
0
  5
485
 10
331.276
 20
420.075
 30
0.000000
  70
    32
  0
VERTEX
  8
0
  5
486
 10
331.300
 20
420.107
 30
0.000000
  70
    32
  0
VERTEX
  8
0
  5
487
 10
331.324
 20
420.139
 30
0.000000
  70
    32
  0
VERTEX
  8
0
  5
488
 10
331.348
 20
420.172
 30
0.000000
  70
    32
  0
VERTEX
  8
0
  5
489
 10
331.371
 20
420.204
 30
0.000000
  70
    32
  0
VERTEX
  8
0
  5
48A
 10
331.394
 20
420.236
 30
0.000000
  70
    32
  0
VERTEX
  8
0
  5
48B
 10
331.417
 20
420.269
 30
0.000000
  70
    32
  0
VERTEX
  8
0
  5
48C
 10
331.440
 20
420.302
 30
0.000000
  70
    32
  0
VERTEX
  8
0
  5
48D
 10
331.463
 20
420.334
 30
0.000000
  70
    32
  0
VERTEX
  8
0
  5
48E
 10
331.485
 20
420.367
 30
0.000000
  70
    32
  0
VERTEX
  8
0
  5
48F
 10
331.508
 20
420.400
 30
0.000000
  70
    32
  0
VERTEX
  8
0
  5
490
 10
331.530
 20
420.433
 30
0.000000
  70
    32
  0
VERTEX
  8
0
  5
491
 10
331.552
 20
420.466
 30
0.000000
  70
    32
  0
VERTEX
  8
0
  5
492
 10
331.573
 20
420.499
 30
0.000000
  70
    32
  0
VERTEX
  8
0
  5
493
 10
331.595
 20
420.533
 30
0.000000
  70
    32
  0
VERTEX
  8
0
  5
494
 10
331.616
 20
420.566
 30
0.000000
  70
    32
  0
VERTEX
  8
0
  5
495
 10
331.637
 20
420.599
 30
0.000000
  70
    32
  0
VERTEX
  8
0
  5
496
 10
331.658
 20
420.633
 30
0.000000
  70
    32
  0
VERTEX
  8
0
  5
497
 10
331.679
 20
420.666
 30
0.000000
  70
    32
  0
VERTEX
  8
0
  5
498
 10
331.700
 20
420.700
 30
0.000000
  70
    32
  0
VERTEX
  8
0
  5
499
 10
331.720
 20
420.734
 30
0.000000
  70
    32
  0
VERTEX
  8
0
  5
49A
 10
331.740
 20
420.768
 30
0.000000
  70
    32
  0
VERTEX
  8
0
  5
49B
 10
331.760
 20
420.802
 30
0.000000
  70
    32
  0
VERTEX
  8
0
  5
49C
 10
331.780
 20
420.836
 30
0.000000
  70
    32
  0
VERTEX
  8
0
  5
49D
 10
331.799
 20
420.870
 30
0.000000
  70
    32
  0
VERTEX
  8
0
  5
49E
 10
331.818
 20
420.904
 30
0.000000
  70
    32
  0
VERTEX
  8
0
  5
49F
 10
331.838
 20
420.938
 30
0.000000
  70
    32
  0
VERTEX
  8
0
  5
4A0
 10
331.856
 20
420.972
 30
0.000000
  70
    32
  0
VERTEX
  8
0
  5
4A1
 10
331.875
 20
421.007
 30
0.000000
  70
    32
  0
VERTEX
  8
0
  5
4A2
 10
331.894
 20
421.041
 30
0.000000
  70
    32
  0
VERTEX
  8
0
  5
4A3
 10
331.912
 20
421.076
 30
0.000000
  70
    32
  0
VERTEX
  8
0
  5
4A4
 10
331.930
 20
421.111
 30
0.000000
  70
    32
  0
VERTEX
  8
0
  5
4A5
 10
331.948
 20
421.145
 30
0.000000
  70
    32
  0
VERTEX
  8
0
  5
4A6
 10
331.965
 20
421.180
 30
0.000000
  70
    32
  0
VERTEX
  8
0
  5
4A7
 10
331.983
 20
421.215
 30
0.000000
  70
    32
  0
VERTEX
  8
0
  5
4A8
 10
332.000
 20
421.250
 30
0.000000
  70
    32
  0
VERTEX
  8
0
  5
4A9
 10
332.017
 20
421.285
 30
0.000000
  70
    32
  0
VERTEX
  8
0
  5
4AA
 10
332.034
 20
421.320
 30
0.000000
  70
    32
  0
VERTEX
  8
0
  5
4AB
 10
332.050
 20
421.355
 30
0.000000
  70
    32
  0
VERTEX
  8
0
  5
4AC
 10
332.067
 20
421.390
 30
0.000000
  70
    32
  0
VERTEX
  8
0
  5
4AD
 10
332.083
 20
421.426
 30
0.000000
  70
    32
  0
VERTEX
  8
0
  5
4AE
 10
332.099
 20
421.461
 30
0.000000
  70
    32
  0
VERTEX
  8
0
  5
4AF
 10
332.115
 20
421.497
 30
0.000000
  70
    32
  0
VERTEX
  8
0
  5
4B0
 10
332.130
 20
421.532
 30
0.000000
  70
    32
  0
VERTEX
  8
0
  5
4B1
 10
332.145
 20
421.568
 30
0.000000
  70
    32
  0
VERTEX
  8
0
  5
4B2
 10
332.161
 20
421.603
 30
0.000000
  70
    32
  0
VERTEX
  8
0
  5
4B3
 10
332.175
 20
421.639
 30
0.000000
  70
    32
  0
VERTEX
  8
0
  5
4B4
 10
332.190
 20
421.675
 30
0.000000
  70
    32
  0
VERTEX
  8
0
  5
4B5
 10
332.204
 20
421.711
 30
0.000000
  70
    32
  0
VERTEX
  8
0
  5
4B6
 10
332.219
 20
421.747
 30
0.000000
  70
    32
  0
VERTEX
  8
0
  5
4B7
 10
332.233
 20
421.783
 30
0.000000
  70
    32
  0
VERTEX
  8
0
  5
4B8
 10
332.246
 20
421.819
 30
0.000000
  70
    32
  0
VERTEX
  8
0
  5
4B9
 10
332.260
 20
421.855
 30
0.000000
  70
    32
  0
VERTEX
  8
0
  5
4BA
 10
332.273
 20
421.891
 30
0.000000
  70
    32
  0
VERTEX
  8
0
  5
4BB
 10
332.286
 20
421.927
 30
0.000000
  70
    32
  0
VERTEX
  8
0
  5
4BC
 10
332.299
 20
421.963
 30
0.000000
  70
    32
  0
VERTEX
  8
0
  5
4BD
 10
332.312
 20
422.000
 30
0.000000
  70
    32
  0
VERTEX
  8
0
  5
4BE
 10
332.324
 20
422.036
 30
0.000000
  70
    32
  0
VERTEX
  8
0
  5
4BF
 10
332.336
 20
422.073
 30
0.000000
  70
    32
  0
VERTEX
  8
0
  5
4C0
 10
332.348
 20
422.109
 30
0.000000
  70
    32
  0
VERTEX
  8
0
  5
4C1
 10
332.360
 20
422.146
 30
0.000000
  70
    32
  0
VERTEX
  8
0
  5
4C2
 10
332.371
 20
422.182
 30
0.000000
  70
    32
  0
VERTEX
  8
0
  5
4C3
 10
332.383
 20
422.219
 30
0.000000
  70
    32
  0
VERTEX
  8
0
  5
4C4
 10
332.394
 20
422.256
 30
0.000000
  70
    32
  0
VERTEX
  8
0
  5
4C5
 10
332.404
 20
422.292
 30
0.000000
  70
    32
  0
VERTEX
  8
0
  5
4C6
 10
332.415
 20
422.329
 30
0.000000
  70
    32
  0
VERTEX
  8
0
  5
4C7
 10
332.425
 20
422.366
 30
0.000000
  70
    32
  0
VERTEX
  8
0
  5
4C8
 10
332.435
 20
422.403
 30
0.000000
  70
    32
  0
VERTEX
  8
0
  5
4C9
 10
332.445
 20
422.440
 30
0.000000
  70
    32
  0
VERTEX
  8
0
  5
4CA
 10
332.455
 20
422.477
 30
0.000000
  70
    32
  0
VERTEX
  8
0
  5
4CB
 10
332.464
 20
422.514
 30
0.000000
  70
    32
  0
VERTEX
  8
0
  5
4CC
 10
332.474
 20
422.551
 30
0.000000
  70
    32
  0
VERTEX
  8
0
  5
4CD
 10
332.483
 20
422.588
 30
0.000000
  70
    32
  0
VERTEX
  8
0
  5
4CE
 10
332.491
 20
422.625
 30
0.000000
  70
    32
  0
VERTEX
  8
0
  5
4CF
 10
332.500
 20
422.663
 30
0.000000
  70
    32
  0
VERTEX
  8
0
  5
4D0
 10
332.508
 20
422.700
 30
0.000000
  70
    32
  0
VERTEX
  8
0
  5
4D1
 10
332.516
 20
422.737
 30
0.000000
  70
    32
  0
VERTEX
  8
0
  5
4D2
 10
332.524
 20
422.774
 30
0.000000
  70
    32
  0
VERTEX
  8
0
  5
4D3
 10
332.532
 20
422.812
 30
0.000000
  70
    32
  0
VERTEX
  8
0
  5
4D4
 10
332.539
 20
422.849
 30
0.000000
  70
    32
  0
VERTEX
  8
0
  5
4D5
 10
332.546
 20
422.887
 30
0.000000
  70
    32
  0
VERTEX
  8
0
  5
4D6
 10
332.553
 20
422.924
 30
0.000000
  70
    32
  0
VERTEX
  8
0
  5
4D7
 10
332.560
 20
422.962
 30
0.000000
  70
    32
  0
VERTEX
  8
0
  5
4D8
 10
332.566
 20
422.999
 30
0.000000
  70
    32
  0
VERTEX
  8
0
  5
4D9
 10
332.572
 20
423.037
 30
0.000000
  70
    32
  0
VERTEX
  8
0
  5
4DA
 10
332.578
 20
423.074
 30
0.000000
  70
    32
  0
VERTEX
  8
0
  5
4DB
 10
332.584
 20
423.112
 30
0.000000
  70
    32
  0
VERTEX
  8
0
  5
4DC
 10
332.590
 20
423.149
 30
0.000000
  70
    32
  0
VERTEX
  8
0
  5
4DD
 10
332.595
 20
423.187
 30
0.000000
  70
    32
  0
VERTEX
  8
0
  5
4DE
 10
332.600
 20
423.225
 30
0.000000
  70
    32
  0
VERTEX
  8
0
  5
4DF
 10
332.605
 20
423.262
 30
0.000000
  70
    32
  0
VERTEX
  8
0
  5
4E0
 10
332.609
 20
423.300
 30
0.000000
  70
    32
  0
VERTEX
  8
0
  5
4E1
 10
332.614
 20
423.338
 30
0.000000
  70
    32
  0
VERTEX
  8
0
  5
4E2
 10
332.618
 20
423.375
 30
0.000000
  70
    32
  0
VERTEX
  8
0
  5
4E3
 10
332.622
 20
423.413
 30
0.000000
  70
    32
  0
VERTEX
  8
0
  5
4E4
 10
332.625
 20
423.451
 30
0.000000
  70
    32
  0
VERTEX
  8
0
  5
4E5
 10
332.629
 20
423.489
 30
0.000000
  70
    32
  0
VERTEX
  8
0
  5
4E6
 10
332.632
 20
423.527
 30
0.000000
  70
    32
  0
VERTEX
  8
0
  5
4E7
 10
332.635
 20
423.564
 30
0.000000
  70
    32
  0
VERTEX
  8
0
  5
4E8
 10
332.637
 20
423.602
 30
0.000000
  70
    32
  0
VERTEX
  8
0
  5
4E9
 10
332.640
 20
423.640
 30
0.000000
  70
    32
  0
VERTEX
  8
0
  5
4EA
 10
332.642
 20
423.678
 30
0.000000
  70
    32
  0
VERTEX
  8
0
  5
4EB
 10
332.644
 20
423.716
 30
0.000000
  70
    32
  0
VERTEX
  8
0
  5
4EC
 10
332.646
 20
423.754
 30
0.000000
  70
    32
  0
VERTEX
  8
0
  5
4ED
 10
332.647
 20
423.792
 30
0.000000
  70
    32
  0
VERTEX
  8
0
  5
4EE
 10
332.648
 20
423.829
 30
0.000000
  70
    32
  0
VERTEX
  8
0
  5
4EF
 10
332.649
 20
423.867
 30
0.000000
  70
    32
  0
VERTEX
  8
0
  5
4F0
 10
332.650
 20
423.905
 30
0.000000
  70
    32
  0
VERTEX
  8
0
  5
4F1
 10
332.650
 20
423.943
 30
0.000000
  70
    32
  0
VERTEX
  8
0
  5
4F2
 10
332.651
 20
423.981
 30
0.000000
  70
    32
  0
VERTEX
  8
0
  5
4F3
 10
332.651
 20
424.019
 30
0.000000
  70
    32
  0
VERTEX
  8
0
  5
4F4
 10
332.651
 20
424.057
 30
0.000000
  70
    32
  0
VERTEX
  8
0
  5
4F5
 10
332.650
 20
424.095
 30
0.000000
  70
    32
  0
VERTEX
  8
0
  5
4F6
 10
332.649
 20
424.133
 30
0.000000
  70
    32
  0
VERTEX
  8
0
  5
4F7
 10
332.648
 20
424.171
 30
0.000000
  70
    32
  0
VERTEX
  8
0
  5
4F8
 10
332.647
 20
424.209
 30
0.000000
  70
    32
  0
VERTEX
  8
0
  5
4F9
 10
332.646
 20
424.246
 30
0.000000
  70
    32
  0
VERTEX
  8
0
  5
4FA
 10
332.644
 20
424.284
 30
0.000000
  70
    32
  0
VERTEX
  8
0
  5
4FB
 10
332.642
 20
424.322
 30
0.000000
  70
    32
  0
VERTEX
  8
0
  5
4FC
 10
332.640
 20
424.360
 30
0.000000
  70
    32
  0
VERTEX
  8
0
  5
4FD
 10
332.638
 20
424.398
 30
0.000000
  70
    32
  0
VERTEX
  8
0
  5
4FE
 10
332.635
 20
424.436
 30
0.000000
  70
    32
  0
VERTEX
  8
0
  5
4FF
 10
332.632
 20
424.474
 30
0.000000
  70
    32
  0
VERTEX
  8
0
  5
500
 10
332.629
 20
424.511
 30
0.000000
  70
    32
  0
VERTEX
  8
0
  5
501
 10
332.626
 20
424.549
 30
0.000000
  70
    32
  0
VERTEX
  8
0
  5
502
 10
332.622
 20
424.587
 30
0.000000
  70
    32
  0
VERTEX
  8
0
  5
503
 10
332.618
 20
424.625
 30
0.000000
  70
    32
  0
VERTEX
  8
0
  5
504
 10
332.614
 20
424.662
 30
0.000000
  70
    32
  0
VERTEX
  8
0
  5
505
 10
332.610
 20
424.700
 30
0.000000
  70
    32
  0
VERTEX
  8
0
  5
506
 10
332.605
 20
424.738
 30
0.000000
  70
    32
  0
VERTEX
  8
0
  5
507
 10
332.600
 20
424.776
 30
0.000000
  70
    32
  0
VERTEX
  8
0
  5
508
 10
332.595
 20
424.813
 30
0.000000
  70
    32
  0
VERTEX
  8
0
  5
509
 10
332.590
 20
424.851
 30
0.000000
  70
    32
  0
VERTEX
  8
0
  5
50A
 10
332.585
 20
424.888
 30
0.000000
  70
    32
  0
VERTEX
  8
0
  5
50B
 10
332.579
 20
424.926
 30
0.000000
  70
    32
  0
VERTEX
  8
0
  5
50C
 10
332.573
 20
424.964
 30
0.000000
  70
    32
  0
VERTEX
  8
0
  5
50D
 10
332.567
 20
425.001
 30
0.000000
  70
    32
  0
VERTEX
  8
0
  5
50E
 10
332.560
 20
425.039
 30
0.000000
  70
    32
  0
VERTEX
  8
0
  5
50F
 10
332.553
 20
425.076
 30
0.000000
  70
    32
  0
VERTEX
  8
0
  5
510
 10
332.546
 20
425.113
 30
0.000000
  70
    32
  0
VERTEX
  8
0
  5
511
 10
332.539
 20
425.151
 30
0.000000
  70
    32
  0
VERTEX
  8
0
  5
512
 10
332.532
 20
425.188
 30
0.000000
  70
    32
  0
VERTEX
  8
0
  5
513
 10
332.524
 20
425.226
 30
0.000000
  70
    32
  0
VERTEX
  8
0
  5
514
 10
332.516
 20
425.263
 30
0.000000
  70
    32
  0
VERTEX
  8
0
  5
515
 10
332.508
 20
425.300
 30
0.000000
  70
    32
  0
VERTEX
  8
0
  5
516
 10
332.500
 20
425.337
 30
0.000000
  70
    32
  0
VERTEX
  8
0
  5
517
 10
332.492
 20
425.375
 30
0.000000
  70
    32
  0
VERTEX
  8
0
  5
518
 10
332.483
 20
425.412
 30
0.000000
  70
    32
  0
VERTEX
  8
0
  5
519
 10
332.474
 20
425.449
 30
0.000000
  70
    32
  0
VERTEX
  8
0
  5
51A
 10
332.464
 20
425.486
 30
0.000000
  70
    32
  0
VERTEX
  8
0
  5
51B
 10
332.455
 20
425.523
 30
0.000000
  70
    32
  0
VERTEX
  8
0
  5
51C
 10
332.445
 20
425.560
 30
0.000000
  70
    32
  0
VERTEX
  8
0
  5
51D
 10
332.435
 20
425.597
 30
0.000000
  70
    32
  0
VERTEX
  8
0
  5
51E
 10
332.425
 20
425.634
 30
0.000000
  70
    32
  0
VERTEX
  8
0
  5
51F
 10
332.415
 20
425.671
 30
0.000000
  70
    32
  0
VERTEX
  8
0
  5
520
 10
332.404
 20
425.707
 30
0.000000
  70
    32
  0
VERTEX
  8
0
  5
521
 10
332.393
 20
425.744
 30
0.000000
  70
    32
  0
VERTEX
  8
0
  5
522
 10
332.382
 20
425.781
 30
0.000000
  70
    32
  0
VERTEX
  8
0
  5
523
 10
332.371
 20
425.817
 30
0.000000
  70
    32
  0
VERTEX
  8
0
  5
524
 10
332.360
 20
425.854
 30
0.000000
  70
    32
  0
VERTEX
  8
0
  5
525
 10
332.348
 20
425.891
 30
0.000000
  70
    32
  0
VERTEX
  8
0
  5
526
 10
332.336
 20
425.927
 30
0.000000
  70
    32
  0
VERTEX
  8
0
  5
527
 10
332.324
 20
425.964
 30
0.000000
  70
    32
  0
VERTEX
  8
0
  5
528
 10
332.311
 20
426.000
 30
0.000000
  70
    32
  0
VERTEX
  8
0
  5
529
 10
332.299
 20
426.036
 30
0.000000
  70
    32
  0
VERTEX
  8
0
  5
52A
 10
332.286
 20
426.073
 30
0.000000
  70
    32
  0
VERTEX
  8
0
  5
52B
 10
332.273
 20
426.109
 30
0.000000
  70
    32
  0
VERTEX
  8
0
  5
52C
 10
332.259
 20
426.145
 30
0.000000
  70
    32
  0
VERTEX
  8
0
  5
52D
 10
332.246
 20
426.181
 30
0.000000
  70
    32
  0
VERTEX
  8
0
  5
52E
 10
332.232
 20
426.217
 30
0.000000
  70
    32
  0
VERTEX
  8
0
  5
52F
 10
332.218
 20
426.253
 30
0.000000
  70
    32
  0
VERTEX
  8
0
  5
530
 10
332.204
 20
426.289
 30
0.000000
  70
    32
  0
VERTEX
  8
0
  5
531
 10
332.190
 20
426.325
 30
0.000000
  70
    32
  0
VERTEX
  8
0
  5
532
 10
332.175
 20
426.361
 30
0.000000
  70
    32
  0
VERTEX
  8
0
  5
533
 10
332.160
 20
426.397
 30
0.000000
  70
    32
  0
VERTEX
  8
0
  5
534
 10
332.145
 20
426.432
 30
0.000000
  70
    32
  0
VERTEX
  8
0
  5
535
 10
332.130
 20
426.468
 30
0.000000
  70
    32
  0
VERTEX
  8
0
  5
536
 10
332.114
 20
426.503
 30
0.000000
  70
    32
  0
VERTEX
  8
0
  5
537
 10
332.099
 20
426.539
 30
0.000000
  70
    32
  0
VERTEX
  8
0
  5
538
 10
332.083
 20
426.574
 30
0.000000
  70
    32
  0
VERTEX
  8
0
  5
539
 10
332.067
 20
426.610
 30
0.000000
  70
    32
  0
VERTEX
  8
0
  5
53A
 10
332.050
 20
426.645
 30
0.000000
  70
    32
  0
VERTEX
  8
0
  5
53B
 10
332.034
 20
426.680
 30
0.000000
  70
    32
  0
VERTEX
  8
0
  5
53C
 10
332.017
 20
426.715
 30
0.000000
  70
    32
  0
VERTEX
  8
0
  5
53D
 10
332.000
 20
426.750
 30
0.000000
  70
    32
  0
VERTEX
  8
0
  5
53E
 10
331.983
 20
426.785
 30
0.000000
  70
    32
  0
VERTEX
  8
0
  5
53F
 10
331.965
 20
426.820
 30
0.000000
  70
    32
  0
VERTEX
  8
0
  5
540
 10
331.948
 20
426.855
 30
0.000000
  70
    32
  0
VERTEX
  8
0
  5
541
 10
331.930
 20
426.890
 30
0.000000
  70
    32
  0
VERTEX
  8
0
  5
542
 10
331.912
 20
426.924
 30
0.000000
  70
    32
  0
VERTEX
  8
0
  5
543
 10
331.894
 20
426.959
 30
0.000000
  70
    32
  0
VERTEX
  8
0
  5
544
 10
331.875
 20
426.993
 30
0.000000
  70
    32
  0
VERTEX
  8
0
  5
545
 10
331.856
 20
427.028
 30
0.000000
  70
    32
  0
VERTEX
  8
0
  5
546
 10
331.838
 20
427.062
 30
0.000000
  70
    32
  0
VERTEX
  8
0
  5
547
 10
331.818
 20
427.096
 30
0.000000
  70
    32
  0
VERTEX
  8
0
  5
548
 10
331.799
 20
427.131
 30
0.000000
  70
    32
  0
VERTEX
  8
0
  5
549
 10
331.780
 20
427.165
 30
0.000000
  70
    32
  0
VERTEX
  8
0
  5
54A
 10
331.760
 20
427.199
 30
0.000000
  70
    32
  0
VERTEX
  8
0
  5
54B
 10
331.740
 20
427.233
 30
0.000000
  70
    32
  0
VERTEX
  8
0
  5
54C
 10
331.720
 20
427.266
 30
0.000000
  70
    32
  0
VERTEX
  8
0
  5
54D
 10
331.700
 20
427.300
 30
0.000000
  70
    32
  0
VERTEX
  8
0
  5
54E
 10
331.679
 20
427.334
 30
0.000000
  70
    32
  0
VERTEX
  8
0
  5
54F
 10
331.658
 20
427.367
 30
0.000000
  70
    32
  0
VERTEX
  8
0
  5
550
 10
331.637
 20
427.401
 30
0.000000
  70
    32
  0
VERTEX
  8
0
  5
551
 10
331.616
 20
427.434
 30
0.000000
  70
    32
  0
VERTEX
  8
0
  5
552
 10
331.595
 20
427.468
 30
0.000000
  70
    32
  0
VERTEX
  8
0
  5
553
 10
331.573
 20
427.501
 30
0.000000
  70
    32
  0
VERTEX
  8
0
  5
554
 10
331.552
 20
427.534
 30
0.000000
  70
    32
  0
VERTEX
  8
0
  5
555
 10
331.530
 20
427.567
 30
0.000000
  70
    32
  0
VERTEX
  8
0
  5
556
 10
331.508
 20
427.600
 30
0.000000
  70
    32
  0
VERTEX
  8
0
  5
557
 10
331.485
 20
427.633
 30
0.000000
  70
    32
  0
VERTEX
  8
0
  5
558
 10
331.463
 20
427.666
 30
0.000000
  70
    32
  0
VERTEX
  8
0
  5
559
 10
331.440
 20
427.699
 30
0.000000
  70
    32
  0
VERTEX
  8
0
  5
55A
 10
331.417
 20
427.731
 30
0.000000
  70
    32
  0
VERTEX
  8
0
  5
55B
 10
331.394
 20
427.764
 30
0.000000
  70
    32
  0
VERTEX
  8
0
  5
55C
 10
331.371
 20
427.796
 30
0.000000
  70
    32
  0
VERTEX
  8
0
  5
55D
 10
331.348
 20
427.829
 30
0.000000
  70
    32
  0
VERTEX
  8
0
  5
55E
 10
331.324
 20
427.861
 30
0.000000
  70
    32
  0
VERTEX
  8
0
  5
55F
 10
331.300
 20
427.893
 30
0.000000
  70
    32
  0
VERTEX
  8
0
  5
560
 10
331.276
 20
427.925
 30
0.000000
  70
    32
  0
VERTEX
  8
0
  5
561
 10
331.252
 20
427.957
 30
0.000000
  70
    32
  0
VERTEX
  8
0
  5
562
 10
331.227
 20
427.989
 30
0.000000
  70
    32
  0
VERTEX
  8
0
  5
563
 10
331.203
 20
428.021
 30
0.000000
  70
    32
  0
VERTEX
  8
0
  5
564
 10
331.178
 20
428.052
 30
0.000000
  70
    32
  0
VERTEX
  8
0
  5
565
 10
331.153
 20
428.084
 30
0.000000
  70
    32
  0
VERTEX
  8
0
  5
566
 10
331.128
 20
428.115
 30
0.000000
  70
    32
  0
VERTEX
  8
0
  5
567
 10
331.103
 20
428.147
 30
0.000000
  70
    32
  0
VERTEX
  8
0
  5
568
 10
331.077
 20
428.178
 30
0.000000
  70
    32
  0
VERTEX
  8
0
  5
569
 10
331.051
 20
428.209
 30
0.000000
  70
    32
  0
VERTEX
  8
0
  5
56A
 10
331.026
 20
428.240
 30
0.000000
  70
    32
  0
VERTEX
  8
0
  5
56B
 10
330.999
 20
428.271
 30
0.000000
  70
    32
  0
VERTEX
  8
0
  5
56C
 10
330.973
 20
428.302
 30
0.000000
  70
    32
  0
VERTEX
  8
0
  5
56D
 10
330.947
 20
428.333
 30
0.000000
  70
    32
  0
VERTEX
  8
0
  5
56E
 10
330.920
 20
428.364
 30
0.000000
  70
    32
  0
VERTEX
  8
0
  5
56F
 10
330.893
 20
428.394
 30
0.000000
  70
    32
  0
VERTEX
  8
0
  5
570
 10
330.867
 20
428.425
 30
0.000000
  70
    32
  0
VERTEX
  8
0
  5
571
 10
330.839
 20
428.455
 30
0.000000
  70
    32
  0
VERTEX
  8
0
  5
572
 10
330.812
 20
428.486
 30
0.000000
  70
    32
  0
VERTEX
  8
0
  5
573
 10
330.785
 20
428.516
 30
0.000000
  70
    32
  0
VERTEX
  8
0
  5
574
 10
330.757
 20
428.546
 30
0.000000
  70
    32
  0
VERTEX
  8
0
  5
575
 10
330.729
 20
428.576
 30
0.000000
  70
    32
  0
VERTEX
  8
0
  5
576
 10
330.701
 20
428.606
 30
0.000000
  70
    32
  0
VERTEX
  8
0
  5
577
 10
330.673
 20
428.636
 30
0.000000
  70
    32
  0
VERTEX
  8
0
  5
578
 10
330.645
 20
428.665
 30
0.000000
  70
    32
  0
VERTEX
  8
0
  5
579
 10
330.616
 20
428.695
 30
0.000000
  70
    32
  0
VERTEX
  8
0
  5
57A
 10
330.587
 20
428.724
 30
0.000000
  70
    32
  0
VERTEX
  8
0
  5
57B
 10
330.559
 20
428.754
 30
0.000000
  70
    32
  0
VERTEX
  8
0
  5
57C
 10
330.530
 20
428.783
 30
0.000000
  70
    32
  0
VERTEX
  8
0
  5
57D
 10
330.500
 20
428.812
 30
0.000000
  70
    32
  0
VERTEX
  8
0
  5
57E
 10
330.471
 20
428.841
 30
0.000000
  70
    32
  0
VERTEX
  8
0
  5
57F
 10
330.441
 20
428.870
 30
0.000000
  70
    32
  0
VERTEX
  8
0
  5
580
 10
330.412
 20
428.899
 30
0.000000
  70
    32
  0
VERTEX
  8
0
  5
581
 10
330.382
 20
428.927
 30
0.000000
  70
    32
  0
VERTEX
  8
0
  5
582
 10
330.352
 20
428.956
 30
0.000000
  70
    32
  0
VERTEX
  8
0
  5
583
 10
330.322
 20
428.985
 30
0.000000
  70
    32
  0
VERTEX
  8
0
  5
584
 10
330.291
 20
429.013
 30
0.000000
  70
    32
  0
VERTEX
  8
0
  5
585
 10
330.261
 20
429.041
 30
0.000000
  70
    32
  0
VERTEX
  8
0
  5
586
 10
330.230
 20
429.069
 30
0.000000
  70
    32
  0
VERTEX
  8
0
  5
587
 10
330.199
 20
429.097
 30
0.000000
  70
    32
  0
VERTEX
  8
0
  5
588
 10
330.168
 20
429.125
 30
0.000000
  70
    32
  0
VERTEX
  8
0
  5
589
 10
330.137
 20
429.153
 30
0.000000
  70
    32
  0
VERTEX
  8
0
  5
58A
 10
330.106
 20
429.181
 30
0.000000
  70
    32
  0
VERTEX
  8
0
  5
58B
 10
330.074
 20
429.208
 30
0.000000
  70
    32
  0
VERTEX
  8
0
  5
58C
 10
330.043
 20
429.236
 30
0.000000
  70
    32
  0
VERTEX
  8
0
  5
58D
 10
330.011
 20
429.263
 30
0.000000
  70
    32
  0
VERTEX
  8
0
  5
58E
 10
329.979
 20
429.290
 30
0.000000
  70
    32
  0
VERTEX
  8
0
  5
58F
 10
329.947
 20
429.317
 30
0.000000
  70
    32
  0
VERTEX
  8
0
  5
590
 10
329.914
 20
429.344
 30
0.000000
  70
    32
  0
VERTEX
  8
0
  5
591
 10
329.882
 20
429.371
 30
0.000000
  70
    32
  0
VERTEX
  8
0
  5
592
 10
329.849
 20
429.398
 30
0.000000
  70
    32
  0
VERTEX
  8
0
  5
593
 10
329.817
 20
429.425
 30
0.000000
  70
    32
  0
VERTEX
  8
0
  5
594
 10
329.784
 20
429.451
 30
0.000000
  70
    32
  0
VERTEX
  8
0
  5
595
 10
329.751
 20
429.478
 30
0.000000
  70
    32
  0
VERTEX
  8
0
  5
596
 10
329.718
 20
429.504
 30
0.000000
  70
    32
  0
VERTEX
  8
0
  5
597
 10
329.684
 20
429.530
 30
0.000000
  70
    32
  0
VERTEX
  8
0
  5
598
 10
329.651
 20
429.556
 30
0.000000
  70
    32
  0
VERTEX
  8
0
  5
599
 10
329.617
 20
429.582
 30
0.000000
  70
    32
  0
VERTEX
  8
0
  5
59A
 10
329.583
 20
429.608
 30
0.000000
  70
    32
  0
VERTEX
  8
0
  5
59B
 10
329.550
 20
429.634
 30
0.000000
  70
    32
  0
VERTEX
  8
0
  5
59C
 10
329.515
 20
429.659
 30
0.000000
  70
    32
  0
VERTEX
  8
0
  5
59D
 10
329.481
 20
429.685
 30
0.000000
  70
    32
  0
VERTEX
  8
0
  5
59E
 10
329.447
 20
429.710
 30
0.000000
  70
    32
  0
VERTEX
  8
0
  5
59F
 10
329.412
 20
429.735
 30
0.000000
  70
    32
  0
VERTEX
  8
0
  5
5A0
 10
329.378
 20
429.760
 30
0.000000
  70
    32
  0
VERTEX
  8
0
  5
5A1
 10
329.343
 20
429.785
 30
0.000000
  70
    32
  0
VERTEX
  8
0
  5
5A2
 10
329.308
 20
429.810
 30
0.000000
  70
    32
  0
VERTEX
  8
0
  5
5A3
 10
329.273
 20
429.835
 30
0.000000
  70
    32
  0
VERTEX
  8
0
  5
5A4
 10
329.238
 20
429.860
 30
0.000000
  70
    32
  0
VERTEX
  8
0
  5
5A5
 10
329.202
 20
429.884
 30
0.000000
  70
    32
  0
VERTEX
  8
0
  5
5A6
 10
329.167
 20
429.908
 30
0.000000
  70
    32
  0
VERTEX
  8
0
  5
5A7
 10
329.131
 20
429.933
 30
0.000000
  70
    32
  0
VERTEX
  8
0
  5
5A8
 10
329.095
 20
429.957
 30
0.000000
  70
    32
  0
VERTEX
  8
0
  5
5A9
 10
329.060
 20
429.981
 30
0.000000
  70
    32
  0
VERTEX
  8
0
  5
5AA
 10
329.023
 20
430.005
 30
0.000000
  70
    32
  0
VERTEX
  8
0
  5
5AB
 10
328.987
 20
430.029
 30
0.000000
  70
    32
  0
VERTEX
  8
0
  5
5AC
 10
328.951
 20
430.052
 30
0.000000
  70
    32
  0
VERTEX
  8
0
  5
5AD
 10
328.915
 20
430.076
 30
0.000000
  70
    32
  0
VERTEX
  8
0
  5
5AE
 10
328.878
 20
430.099
 30
0.000000
  70
    32
  0
VERTEX
  8
0
  5
5AF
 10
328.841
 20
430.122
 30
0.000000
  70
    32
  0
VERTEX
  8
0
  5
5B0
 10
328.804
 20
430.145
 30
0.000000
  70
    32
  0
VERTEX
  8
0
  5
5B1
 10
328.767
 20
430.168
 30
0.000000
  70
    32
  0
VERTEX
  8
0
  5
5B2
 10
328.730
 20
430.191
 30
0.000000
  70
    32
  0
VERTEX
  8
0
  5
5B3
 10
328.693
 20
430.214
 30
0.000000
  70
    32
  0
VERTEX
  8
0
  5
5B4
 10
328.656
 20
430.237
 30
0.000000
  70
    32
  0
VERTEX
  8
0
  5
5B5
 10
328.618
 20
430.259
 30
0.000000
  70
    32
  0
VERTEX
  8
0
  5
5B6
 10
328.581
 20
430.282
 30
0.000000
  70
    32
  0
VERTEX
  8
0
  5
5B7
 10
328.543
 20
430.304
 30
0.000000
  70
    32
  0
VERTEX
  8
0
  5
5B8
 10
328.505
 20
430.326
 30
0.000000
  70
    32
  0
VERTEX
  8
0
  5
5B9
 10
328.467
 20
430.348
 30
0.000000
  70
    32
  0
VERTEX
  8
0
  5
5BA
 10
328.429
 20
430.370
 30
0.000000
  70
    32
  0
VERTEX
  8
0
  5
5BB
 10
328.391
 20
430.392
 30
0.000000
  70
    32
  0
VERTEX
  8
0
  5
5BC
 10
328.352
 20
430.413
 30
0.000000
  70
    32
  0
VERTEX
  8
0
  5
5BD
 10
328.314
 20
430.435
 30
0.000000
  70
    32
  0
VERTEX
  8
0
  5
5BE
 10
328.275
 20
430.456
 30
0.000000
  70
    32
  0
VERTEX
  8
0
  5
5BF
 10
328.236
 20
430.477
 30
0.000000
  70
    32
  0
VERTEX
  8
0
  5
5C0
 10
328.197
 20
430.498
 30
0.000000
  70
    32
  0
VERTEX
  8
0
  5
5C1
 10
328.159
 20
430.519
 30
0.000000
  70
    32
  0
VERTEX
  8
0
  5
5C2
 10
328.119
 20
430.540
 30
0.000000
  70
    32
  0
VERTEX
  8
0
  5
5C3
 10
328.080
 20
430.561
 30
0.000000
  70
    32
  0
VERTEX
  8
0
  5
5C4
 10
328.041
 20
430.581
 30
0.000000
  70
    32
  0
VERTEX
  8
0
  5
5C5
 10
328.001
 20
430.602
 30
0.000000
  70
    32
  0
VERTEX
  8
0
  5
5C6
 10
327.962
 20
430.622
 30
0.000000
  70
    32
  0
VERTEX
  8
0
  5
5C7
 10
327.922
 20
430.642
 30
0.000000
  70
    32
  0
VERTEX
  8
0
  5
5C8
 10
327.882
 20
430.662
 30
0.000000
  70
    32
  0
VERTEX
  8
0
  5
5C9
 10
327.842
 20
430.682
 30
0.000000
  70
    32
  0
VERTEX
  8
0
  5
5CA
 10
327.802
 20
430.702
 30
0.000000
  70
    32
  0
VERTEX
  8
0
  5
5CB
 10
327.762
 20
430.722
 30
0.000000
  70
    32
  0
VERTEX
  8
0
  5
5CC
 10
327.722
 20
430.741
 30
0.000000
  70
    32
  0
VERTEX
  8
0
  5
5CD
 10
327.682
 20
430.761
 30
0.000000
  70
    32
  0
VERTEX
  8
0
  5
5CE
 10
327.641
 20
430.780
 30
0.000000
  70
    32
  0
VERTEX
  8
0
  5
5CF
 10
327.601
 20
430.799
 30
0.000000
  70
    32
  0
VERTEX
  8
0
  5
5D0
 10
327.560
 20
430.818
 30
0.000000
  70
    32
  0
VERTEX
  8
0
  5
5D1
 10
327.519
 20
430.837
 30
0.000000
  70
    32
  0
VERTEX
  8
0
  5
5D2
 10
327.478
 20
430.856
 30
0.000000
  70
    32
  0
VERTEX
  8
0
  5
5D3
 10
327.437
 20
430.874
 30
0.000000
  70
    32
  0
VERTEX
  8
0
  5
5D4
 10
327.396
 20
430.893
 30
0.000000
  70
    32
  0
VERTEX
  8
0
  5
5D5
 10
327.355
 20
430.911
 30
0.000000
  70
    32
  0
VERTEX
  8
0
  5
5D6
 10
327.314
 20
430.929
 30
0.000000
  70
    32
  0
VERTEX
  8
0
  5
5D7
 10
327.272
 20
430.947
 30
0.000000
  70
    32
  0
VERTEX
  8
0
  5
5D8
 10
327.231
 20
430.965
 30
0.000000
  70
    32
  0
VERTEX
  8
0
  5
5D9
 10
327.189
 20
430.983
 30
0.000000
  70
    32
  0
VERTEX
  8
0
  5
5DA
 10
327.148
 20
431.000
 30
0.000000
  70
    32
  0
VERTEX
  8
0
  5
5DB
 10
327.106
 20
431.018
 30
0.000000
  70
    32
  0
VERTEX
  8
0
  5
5DC
 10
327.064
 20
431.035
 30
0.000000
  70
    32
  0
VERTEX
  8
0
  5
5DD
 10
327.022
 20
431.052
 30
0.000000
  70
    32
  0
VERTEX
  8
0
  5
5DE
 10
326.980
 20
431.069
 30
0.000000
  70
    32
  0
VERTEX
  8
0
  5
5DF
 10
326.937
 20
431.086
 30
0.000000
  70
    32
  0
VERTEX
  8
0
  5
5E0
 10
326.895
 20
431.103
 30
0.000000
  70
    32
  0
VERTEX
  8
0
  5
5E1
 10
326.853
 20
431.120
 30
0.000000
  70
    32
  0
VERTEX
  8
0
  5
5E2
 10
326.810
 20
431.136
 30
0.000000
  70
    32
  0
VERTEX
  8
0
  5
5E3
 10
326.768
 20
431.153
 30
0.000000
  70
    32
  0
VERTEX
  8
0
  5
5E4
 10
326.725
 20
431.169
 30
0.000000
  70
    32
  0
VERTEX
  8
0
  5
5E5
 10
326.682
 20
431.185
 30
0.000000
  70
    32
  0
VERTEX
  8
0
  5
5E6
 10
326.639
 20
431.201
 30
0.000000
  70
    32
  0
VERTEX
  8
0
  5
5E7
 10
326.596
 20
431.217
 30
0.000000
  70
    32
  0
VERTEX
  8
0
  5
5E8
 10
326.553
 20
431.232
 30
0.000000
  70
    32
  0
VERTEX
  8
0
  5
5E9
 10
326.510
 20
431.248
 30
0.000000
  70
    32
  0
VERTEX
  8
0
  5
5EA
 10
326.467
 20
431.263
 30
0.000000
  70
    32
  0
VERTEX
  8
0
  5
5EB
 10
326.424
 20
431.279
 30
0.000000
  70
    32
  0
VERTEX
  8
0
  5
5EC
 10
326.380
 20
431.294
 30
0.000000
  70
    32
  0
VERTEX
  8
0
  5
5ED
 10
326.337
 20
431.309
 30
0.000000
  70
    32
  0
VERTEX
  8
0
  5
5EE
 10
326.293
 20
431.324
 30
0.000000
  70
    32
  0
VERTEX
  8
0
  5
5EF
 10
326.250
 20
431.338
 30
0.000000
  70
    32
  0
VERTEX
  8
0
  5
5F0
 10
326.206
 20
431.353
 30
0.000000
  70
    32
  0
VERTEX
  8
0
  5
5F1
 10
326.162
 20
431.367
 30
0.000000
  70
    32
  0
VERTEX
  8
0
  5
5F2
 10
326.118
 20
431.381
 30
0.000000
  70
    32
  0
VERTEX
  8
0
  5
5F3
 10
326.074
 20
431.396
 30
0.000000
  70
    32
  0
VERTEX
  8
0
  5
5F4
 10
326.030
 20
431.410
 30
0.000000
  70
    32
  0
VERTEX
  8
0
  5
5F5
 10
325.986
 20
431.423
 30
0.000000
  70
    32
  0
VERTEX
  8
0
  5
5F6
 10
325.942
 20
431.437
 30
0.000000
  70
    32
  0
VERTEX
  8
0
  5
5F7
 10
325.897
 20
431.451
 30
0.000000
  70
    32
  0
VERTEX
  8
0
  5
5F8
 10
325.853
 20
431.464
 30
0.000000
  70
    32
  0
VERTEX
  8
0
  5
5F9
 10
325.809
 20
431.477
 30
0.000000
  70
    32
  0
VERTEX
  8
0
  5
5FA
 10
325.764
 20
431.491
 30
0.000000
  70
    32
  0
VERTEX
  8
0
  5
5FB
 10
325.720
 20
431.504
 30
0.000000
  70
    32
  0
VERTEX
  8
0
  5
5FC
 10
325.675
 20
431.516
 30
0.000000
  70
    32
  0
VERTEX
  8
0
  5
5FD
 10
325.630
 20
431.529
 30
0.000000
  70
    32
  0
VERTEX
  8
0
  5
5FE
 10
325.585
 20
431.542
 30
0.000000
  70
    32
  0
VERTEX
  8
0
  5
5FF
 10
325.540
 20
431.554
 30
0.000000
  70
    32
  0
VERTEX
  8
0
  5
600
 10
325.495
 20
431.566
 30
0.000000
  70
    32
  0
VERTEX
  8
0
  5
601
 10
325.450
 20
431.578
 30
0.000000
  70
    32
  0
VERTEX
  8
0
  5
602
 10
325.405
 20
431.590
 30
0.000000
  70
    32
  0
VERTEX
  8
0
  5
603
 10
325.360
 20
431.602
 30
0.000000
  70
    32
  0
VERTEX
  8
0
  5
604
 10
325.315
 20
431.614
 30
0.000000
  70
    32
  0
VERTEX
  8
0
  5
605
 10
325.270
 20
431.626
 30
0.000000
  70
    32
  0
VERTEX
  8
0
  5
606
 10
325.224
 20
431.637
 30
0.000000
  70
    32
  0
VERTEX
  8
0
  5
607
 10
325.179
 20
431.648
 30
0.000000
  70
    32
  0
VERTEX
  8
0
  5
608
 10
325.133
 20
431.659
 30
0.000000
  70
    32
  0
VERTEX
  8
0
  5
609
 10
325.088
 20
431.670
 30
0.000000
  70
    32
  0
VERTEX
  8
0
  5
60A
 10
325.042
 20
431.681
 30
0.000000
  70
    32
  0
VERTEX
  8
0
  5
60B
 10
324.997
 20
431.692
 30
0.000000
  70
    32
  0
VERTEX
  8
0
  5
60C
 10
324.951
 20
431.702
 30
0.000000
  70
    32
  0
VERTEX
  8
0
  5
60D
 10
324.905
 20
431.713
 30
0.000000
  70
    32
  0
VERTEX
  8
0
  5
60E
 10
324.859
 20
431.723
 30
0.000000
  70
    32
  0
VERTEX
  8
0
  5
60F
 10
324.813
 20
431.733
 30
0.000000
  70
    32
  0
VERTEX
  8
0
  5
610
 10
324.768
 20
431.743
 30
0.000000
  70
    32
  0
VERTEX
  8
0
  5
611
 10
324.721
 20
431.753
 30
0.000000
  70
    32
  0
VERTEX
  8
0
  5
612
 10
324.675
 20
431.763
 30
0.000000
  70
    32
  0
VERTEX
  8
0
  5
613
 10
324.629
 20
431.772
 30
0.000000
  70
    32
  0
VERTEX
  8
0
  5
614
 10
324.583
 20
431.781
 30
0.000000
  70
    32
  0
VERTEX
  8
0
  5
615
 10
324.537
 20
431.791
 30
0.000000
  70
    32
  0
VERTEX
  8
0
  5
616
 10
324.491
 20
431.800
 30
0.000000
  70
    32
  0
VERTEX
  8
0
  5
617
 10
324.444
 20
431.809
 30
0.000000
  70
    32
  0
VERTEX
  8
0
  5
618
 10
324.398
 20
431.817
 30
0.000000
  70
    32
  0
VERTEX
  8
0
  5
619
 10
324.352
 20
431.826
 30
0.000000
  70
    32
  0
VERTEX
  8
0
  5
61A
 10
324.305
 20
431.835
 30
0.000000
  70
    32
  0
VERTEX
  8
0
  5
61B
 10
324.259
 20
431.843
 30
0.000000
  70
    32
  0
VERTEX
  8
0
  5
61C
 10
324.212
 20
431.851
 30
0.000000
  70
    32
  0
VERTEX
  8
0
  5
61D
 10
324.165
 20
431.859
 30
0.000000
  70
    32
  0
VERTEX
  8
0
  5
61E
 10
324.119
 20
431.867
 30
0.000000
  70
    32
  0
VERTEX
  8
0
  5
61F
 10
324.072
 20
431.875
 30
0.000000
  70
    32
  0
VERTEX
  8
0
  5
620
 10
324.025
 20
431.882
 30
0.000000
  70
    32
  0
VERTEX
  8
0
  5
621
 10
323.978
 20
431.890
 30
0.000000
  70
    32
  0
VERTEX
  8
0
  5
622
 10
323.932
 20
431.897
 30
0.000000
  70
    32
  0
VERTEX
  8
0
  5
623
 10
323.885
 20
431.904
 30
0.000000
  70
    32
  0
VERTEX
  8
0
  5
624
 10
323.838
 20
431.911
 30
0.000000
  70
    32
  0
VERTEX
  8
0
  5
625
 10
323.791
 20
431.918
 30
0.000000
  70
    32
  0
VERTEX
  8
0
  5
626
 10
323.744
 20
431.925
 30
0.000000
  70
    32
  0
VERTEX
  8
0
  5
627
 10
323.697
 20
431.931
 30
0.000000
  70
    32
  0
VERTEX
  8
0
  5
628
 10
323.650
 20
431.938
 30
0.000000
  70
    32
  0
VERTEX
  8
0
  5
629
 10
323.603
 20
431.944
 30
0.000000
  70
    32
  0
VERTEX
  8
0
  5
62A
 10
323.556
 20
431.950
 30
0.000000
  70
    32
  0
VERTEX
  8
0
  5
62B
 10
323.508
 20
431.956
 30
0.000000
  70
    32
  0
VERTEX
  8
0
  5
62C
 10
323.461
 20
431.962
 30
0.000000
  70
    32
  0
VERTEX
  8
0
  5
62D
 10
323.414
 20
431.968
 30
0.000000
  70
    32
  0
VERTEX
  8
0
  5
62E
 10
323.367
 20
431.973
 30
0.000000
  70
    32
  0
VERTEX
  8
0
  5
62F
 10
323.319
 20
431.979
 30
0.000000
  70
    32
  0
VERTEX
  8
0
  5
630
 10
323.272
 20
431.984
 30
0.000000
  70
    32
  0
VERTEX
  8
0
  5
631
 10
323.225
 20
431.989
 30
0.000000
  70
    32
  0
VERTEX
  8
0
  5
632
 10
323.177
 20
431.994
 30
0.000000
  70
    32
  0
VERTEX
  8
0
  5
633
 10
323.130
 20
431.998
 30
0.000000
  70
    32
  0
VERTEX
  8
0
  5
634
 10
323.082
 20
432.003
 30
0.000000
  70
    32
  0
VERTEX
  8
0
  5
635
 10
323.035
 20
432.008
 30
0.000000
  70
    32
  0
VERTEX
  8
0
  5
636
 10
322.987
 20
432.012
 30
0.000000
  70
    32
  0
VERTEX
  8
0
  5
637
 10
322.940
 20
432.016
 30
0.000000
  70
    32
  0
VERTEX
  8
0
  5
638
 10
322.892
 20
432.020
 30
0.000000
  70
    32
  0
VERTEX
  8
0
  5
639
 10
322.845
 20
432.024
 30
0.000000
  70
    32
  0
VERTEX
  8
0
  5
63A
 10
322.797
 20
432.028
 30
0.000000
  70
    32
  0
VERTEX
  8
0
  5
63B
 10
322.750
 20
432.031
 30
0.000000
  70
    32
  0
VERTEX
  8
0
  5
63C
 10
322.702
 20
432.035
 30
0.000000
  70
    32
  0
VERTEX
  8
0
  5
63D
 10
322.654
 20
432.038
 30
0.000000
  70
    32
  0
VERTEX
  8
0
  5
63E
 10
322.607
 20
432.041
 30
0.000000
  70
    32
  0
VERTEX
  8
0
  5
63F
 10
322.559
 20
432.044
 30
0.000000
  70
    32
  0
VERTEX
  8
0
  5
640
 10
322.511
 20
432.047
 30
0.000000
  70
    32
  0
VERTEX
  8
0
  5
641
 10
322.464
 20
432.049
 30
0.000000
  70
    32
  0
VERTEX
  8
0
  5
642
 10
322.416
 20
432.052
 30
0.000000
  70
    32
  0
VERTEX
  8
0
  5
643
 10
322.368
 20
432.054
 30
0.000000
  70
    32
  0
VERTEX
  8
0
  5
644
 10
322.320
 20
432.056
 30
0.000000
  70
    32
  0
VERTEX
  8
0
  5
645
 10
322.273
 20
432.058
 30
0.000000
  70
    32
  0
VERTEX
  8
0
  5
646
 10
322.225
 20
432.060
 30
0.000000
  70
    32
  0
VERTEX
  8
0
  5
647
 10
322.177
 20
432.062
 30
0.000000
  70
    32
  0
VERTEX
  8
0
  5
648
 10
322.129
 20
432.063
 30
0.000000
  70
    32
  0
VERTEX
  8
0
  5
649
 10
322.081
 20
432.065
 30
0.000000
  70
    32
  0
VERTEX
  8
0
  5
64A
 10
322.034
 20
432.066
 30
0.000000
  70
    32
  0
VERTEX
  8
0
  5
64B
 10
321.986
 20
432.067
 30
0.000000
  70
    32
  0
VERTEX
  8
0
  5
64C
 10
321.938
 20
432.068
 30
0.000000
  70
    32
  0
VERTEX
  8
0
  5
64D
 10
321.890
 20
432.069
 30
0.000000
  70
    32
  0
VERTEX
  8
0
  5
64E
 10
321.842
 20
432.070
 30
0.000000
  70
    32
  0
VERTEX
  8
0
  5
64F
 10
321.794
 20
432.070
 30
0.000000
  70
    32
  0
VERTEX
  8
0
  5
650
 10
321.747
 20
432.071
 30
0.000000
  70
    32
  0
VERTEX
  8
0
  5
651
 10
321.699
 20
432.071
 30
0.000000
  70
    32
  0
VERTEX
  8
0
  5
652
 10
321.651
 20
432.071
 30
0.000000
  70
    32
  0
SEQEND
  8
0
  5
653
  0
LINE
  5
288
  8
0
 10
627.65082590460497
 20
534.5702716796028
 30
0.0
 11
135.65085261568939
 21
534.57027167961007
 31
0.0
  0
ARC
  5
289
  8
0
 10
185.15085261569121
 20
399.57027167963298
 30
0.0
 40
40.0
 50
90.0
 51
180.0
  0
ARC
  5
28A
  8
0
 10
135.65085261569311
 20
530.5702716796028
 30
0.0
 40
4.0
 50
90.0
 51
180.0
  0
POLYLINE
  5
28B
  8
0
 66
     1
 10
0.0
 20
0.0
 30
0.0
 70
   128
  0
VERTEX
  5
2D6
  8
0
 10
381.65088217205721
 20
198.07026928061779
 30
0.0
  0
VERTEX
  5
2D7
  8
0
 10
358.32511164456167
 20
198.08417993225771
 30
0.0
  0
VERTEX
  5
2D8
  8
0
 10
333.05809573225002
 20
198.14340260625499
 30
0.0
  0
VERTEX
  5
2D9
  8
0
 10
308.97006096886338
 20
198.24020093767709
 30
0.0
  0
VERTEX
  5
2DA
  8
0
 10
286.09010114889219
 20
198.36891772521511
 30
0.0
  0
VERTEX
  5
2DB
  8
0
 10
264.37326712133017
 20
198.52404658181209
 30
0.0
  0
VERTEX
  5
2DC
  8
0
 10
268.74494666780362
 20
198.7005278422391
 30
0.0
  0
VERTEX
  5
2DD
  8
0
 10
274.14784473011508
 20
198.8938347870087
 30
0.0
  0
VERTEX
  5
2DE
  8
0
 10
255.0487620018948
 20
199.1059275488503
 30
0.0
  0
VERTEX
  5
2DF
  8
0
 10
236.70082993136469
 20
199.33322819508859
 30
0.0
  0
VERTEX
  5
2E0
  8
0
 10
218.9789212164896
 20
199.5746031967744
 30
0.0
  0
VERTEX
  5
2E1
  8
0
 10
210.8502260232099
 20
199.69207558072111
 30
0.0
  0
VERTEX
  5
2E2
  8
0
 10
202.85716156861329
 20
199.81183492405651
 30
0.0
  0
VERTEX
  5
2E3
  8
0
 10
195.09991359055951
 20
199.93224154098311
 30
0.0
  0
VERTEX
  5
2E4
  8
0
 10
188.22826171653369
 20
200.1368957313814
 30
0.0
  0
VERTEX
  5
2E5
  8
0
 10
182.4032884883099
 20
200.95063582781839
 30
0.0
  0
VERTEX
  5
2E6
  8
0
 10
176.51711450341369
 20
202.55238617123069
 30
0.0
  0
VERTEX
  5
2E7
  8
0
 10
171.33666979193089
 20
204.68868016499141
 30
0.0
  0
VERTEX
  5
2E8
  8
0
 10
166.95654089379511
 20
207.11028244378281
 30
0.0
  0
VERTEX
  5
2E9
  8
0
 10
164.3241074141433
 20
208.88387327017949
 30
0.0
  0
VERTEX
  5
2EA
  8
0
 10
162.0429448095301
 20
210.64938298400261
 30
0.0
  0
VERTEX
  5
2EB
  8
0
 10
160.17908804133819
 20
212.27293519853521
 30
0.0
  0
VERTEX
  5
2EC
  8
0
 10
158.47628081865969
 20
213.92444761398539
 30
0.0
  0
VERTEX
  5
2ED
  8
0
 10
156.3943697794939
 20
216.1992857069479
 30
0.0
  0
VERTEX
  5
2EE
  8
0
 10
154.0498016684642
 20
219.1676155570301
 30
0.0
  0
VERTEX
  5
2EF
  8
0
 10
152.06987393890361
 20
222.1156776745145
 30
0.0
  0
VERTEX
  5
2F0
  8
0
 10
150.56985387227451
 20
224.72742841665121
 30
0.0
  0
VERTEX
  5
2F1
  8
0
 10
149.45644504071689
 20
226.9644186107387
 30
0.0
  0
VERTEX
  5
2F2
  8
0
 10
148.64435692134151
 20
228.8217538352026
 30
0.0
  0
VERTEX
  5
2F3
  8
0
 10
147.74424138970329
 20
231.19987785561059
 30
0.0
  0
VERTEX
  5
2F4
  8
0
 10
146.7836776683443
 20
234.3175054507071
 30
0.0
  0
VERTEX
  5
2F5
  8
0
 10
145.91245212572991
 20
238.1979089532058
 30
0.0
  0
VERTEX
  5
2F6
  8
0
 10
145.3061754255568
 20
242.90842778474209
 30
0.0
  0
VERTEX
  5
2F7
  8
0
 10
145.14977267365879
 20
249.08159185838551
 30
0.0
  0
VERTEX
  5
2F8
  8
0
 10
145.15000597776361
 20
256.89074686313211
 30
0.0
  0
VERTEX
  5
2F9
  8
0
 10
145.14923107226511
 20
283.29500815029661
 30
0.0
  0
VERTEX
  5
2FA
  8
0
 10
145.1485158318855
 20
293.11879392939568
 30
0.0
  0
VERTEX
  5
2FB
  8
0
 10
145.14786019144501
 20
303.86448791218908
 30
0.0
  0
VERTEX
  5
2FC
  8
0
 10
145.14729395655101
 20
315.53210740975169
 30
0.0
  0
VERTEX
  5
2FD
  8
0
 10
145.146906537414
 20
329.99532795776372
 30
0.0
  0
VERTEX
  5
2FE
  8
0
 10
145.1467873325773
 20
345.66280558314952
 30
0.0
  0
VERTEX
  5
2FF
  8
0
 10
145.14705555216369
 20
362.5345962364006
 30
0.0
  0
VERTEX
  5
300
  8
0
 10
145.1478304018483
 20
380.61071159833932
 30
0.0
  0
VERTEX
  5
301
  8
0
 10
145.15085261569129
 20
399.57027167963298
 30
0.0
  0
VERTEX
  5
302
  8
0
 10
145.15085261569129
 20
399.57027167963298
 30
0.0
  0
VERTEX
  5
303
  8
0
 10
145.15085261569129
 20
399.57027167963298
 30
0.0
  0
SEQEND
  5
304
  8
0
  0
ARC
  5
28C
  8
0
 10
206.0249404835786
 20
375.41097282154419
 30
0.0
 40
32.0
 50
90.0
 51
180.0
  0
POLYLINE
  5
28D
  8
0
 66
     1
 10
0.0
 20
0.0
 30
0.0
 70
   128
  0
VERTEX
  5
305
  8
0
 10
381.65085261568947
 20
184.57027167960649
 30
0.0
  0
VERTEX
  5
306
  8
0
 10
358.30526645727417
 20
184.5841893641616
 30
0.0
  0
VERTEX
  5
307
  8
0
 10
333.01514978952667
 20
184.6434661833907
 30
0.0
  0
VERTEX
  5
308
  8
0
 10
308.90496294446262
 20
184.7403535334731
 30
0.0
  0
VERTEX
  5
309
  8
0
 10
286.00391219802168
 20
184.8691889731551
 30
0.0
  0
VERTEX
  5
30A
  8
0
 10
264.26730524249342
 20
185.024459072795
 30
0.0
  0
VERTEX
  5
30B
  8
0
 10
268.62062137074741
 20
185.2010974375869
 30
0.0
  0
VERTEX
  5
30C
  8
0
 10
274.00631229825291
 20
185.39457411452781
 30
0.0
  0
VERTEX
  5
30D
  8
0
 10
254.89019374795231
 20
185.60685605689531
 30
0.0
  0
VERTEX
  5
30E
  8
0
 10
236.5252874369171
 20
185.834366986003
 30
0.0
  0
VERTEX
  5
30F
  8
0
 10
218.79506628461149
 20
186.0758552043105
 30
0.0
  0
VERTEX
  5
310
  8
0
 10
210.6551579708603
 20
186.1934849707747
 30
0.0
  0
VERTEX
  5
311
  8
0
 10
202.65491824097899
 20
186.31334991141799
 30
0.0
  0
VERTEX
  5
312
  8
0
 10
194.7941980833557
 20
186.4353606192733
 30
0.0
  0
VERTEX
  5
313
  8
0
 10
187.0900444263961
 20
186.66480869933611
 30
0.0
  0
VERTEX
  5
314
  8
0
 10
179.68610446400899
 20
187.69912810012349
 30
0.0
  0
VERTEX
  5
315
  8
0
 10
172.15428273625639
 20
189.7486934153701
 30
0.0
  0
VERTEX
  5
316
  8
0
 10
165.47844331212309
 20
192.50165314361101
 30
0.0
  0
VERTEX
  5
317
  8
0
 10
159.90540902562401
 20
195.58276624366289
 30
0.0
  0
VERTEX
  5
318
  8
0
 10
156.41257684178609
 20
197.9360470263625
 30
0.0
  0
VERTEX
  5
319
  8
0
 10
153.4708194012191
 20
200.2128252474929
 30
0.0
  0
VERTEX
  5
31A
  8
0
 10
151.03954594083089
 20
202.33063788100731
 30
0.0
  0
VERTEX
  5
31B
  8
0
 10
148.78881494946739
 20
204.5135685889388
 30
0.0
  0
VERTEX
  5
31C
  8
0
 10
146.10440056271821
 20
207.44674296065821
 30
0.0
  0
VERTEX
  5
31D
  8
0
 10
143.13307921834249
 20
211.20857090636741
 30
0.0
  0
VERTEX
  5
31E
  8
0
 10
140.5989579433944
 20
214.9818131415511
 30
0.0
  0
VERTEX
  5
31F
  8
0
 10
138.6631480927017
 20
218.35233659430989
 30
0.0
  0
VERTEX
  5
320
  8
0
 10
137.22137134022981
 20
221.2490627257491
 30
0.0
  0
VERTEX
  5
321
  8
0
 10
136.13883178181911
 20
223.72495026275169
 30
0.0
  0
VERTEX
  5
322
  8
0
 10
134.96789853520659
 20
226.8185803382064
 30
0.0
  0
VERTEX
  5
323
  8
0
 10
133.72701923795009
 20
230.8460065810348
 30
0.0
  0
VERTEX
  5
324
  8
0
 10
132.60296504445341
 20
235.85249871894371
 30
0.0
  0
VERTEX
  5
325
  8
0
 10
131.82807486005089
 20
241.87307448073869
 30
0.0
  0
VERTEX
  5
326
  8
0
 10
131.64976756520531
 20
248.91080350562581
 30
0.0
  0
VERTEX
  5
327
  8
0
 10
131.65000598378441
 20
256.89115018531328
 30
0.0
  0
VERTEX
  5
328
  8
0
 10
131.64923112340051
 20
283.29383308577212
 30
0.0
  0
VERTEX
  5
329
  8
0
 10
131.64851586766321
 20
293.11781103300717
 30
0.0
  0
VERTEX
  5
32A
  8
0
 10
131.64786021657071
 20
303.86366421866092
 30
0.0
  0
VERTEX
  5
32B
  8
0
 10
131.64729397244531
 20
315.5314522473779
 30
0.0
  0
VERTEX
  5
32C
  8
0
 10
131.6469065422543
 20
329.99496633696231
 30
0.0
  0
VERTEX
  5
32D
  8
0
 10
131.64678733296469
 20
345.66270286726632
 30
0.0
  0
VERTEX
  5
32E
  8
0
 10
131.64705555386621
 20
362.53481084990182
 30
0.0
  0
VERTEX
  5
32F
  8
0
 10
131.64783041424829
 20
380.6112902848688
 30
0.0
  0
VERTEX
  5
330
  8
0
 10
131.64911191411099
 20
399.89220077681222
 30
0.0
  0
VERTEX
  5
331
  8
0
 10
131.650959658099
 20
420.37757212805423
 30
0.0
  0
VERTEX
  5
332
  8
0
 10
131.65085261569311
 20
530.5702716796028
 30
0.0
  0
SEQEND
  5
333
  8
0
  0
ARC
  5
28E
  8
0
 10
381.65085261568947
 20
344.57027167960291
 30
0.0
 40
36.000000000000078
 50
90.0
 51
270.0
  0
POLYLINE
  8
0
  5
654
  66
     1
 10
0.000000
 20
0.000000
 30
0.000000
  70
     8
  0
VERTEX
  8
0
  5
655
 10
321.651
 20
415.929
 30
0.000000
  70
    32
  0
VERTEX
  8
0
  5
656
 10
321.603
 20
415.929
 30
0.000000
  70
    32
  0
VERTEX
  8
0
  5
657
 10
321.555
 20
415.929
 30
0.000000
  70
    32
  0
VERTEX
  8
0
  5
658
 10
321.507
 20
415.930
 30
0.000000
  70
    32
  0
VERTEX
  8
0
  5
659
 10
321.459
 20
415.930
 30
0.000000
  70
    32
  0
VERTEX
  8
0
  5
65A
 10
321.412
 20
415.931
 30
0.000000
  70
    32
  0
VERTEX
  8
0
  5
65B
 10
321.364
 20
415.932
 30
0.000000
  70
    32
  0
VERTEX
  8
0
  5
65C
 10
321.316
 20
415.933
 30
0.000000
  70
    32
  0
VERTEX
  8
0
  5
65D
 10
321.268
 20
415.934
 30
0.000000
  70
    32
  0
VERTEX
  8
0
  5
65E
 10
321.220
 20
415.935
 30
0.000000
  70
    32
  0
VERTEX
  8
0
  5
65F
 10
321.173
 20
415.937
 30
0.000000
  70
    32
  0
VERTEX
  8
0
  5
660
 10
321.125
 20
415.938
 30
0.000000
  70
    32
  0
VERTEX
  8
0
  5
661
 10
321.077
 20
415.940
 30
0.000000
  70
    32
  0
VERTEX
  8
0
  5
662
 10
321.029
 20
415.942
 30
0.000000
  70
    32
  0
VERTEX
  8
0
  5
663
 10
320.981
 20
415.944
 30
0.000000
  70
    32
  0
VERTEX
  8
0
  5
664
 10
320.934
 20
415.946
 30
0.000000
  70
    32
  0
VERTEX
  8
0
  5
665
 10
320.886
 20
415.948
 30
0.000000
  70
    32
  0
VERTEX
  8
0
  5
666
 10
320.838
 20
415.951
 30
0.000000
  70
    32
  0
VERTEX
  8
0
  5
667
 10
320.790
 20
415.953
 30
0.000000
  70
    32
  0
VERTEX
  8
0
  5
668
 10
320.743
 20
415.956
 30
0.000000
  70
    32
  0
VERTEX
  8
0
  5
669
 10
320.695
 20
415.959
 30
0.000000
  70
    32
  0
VERTEX
  8
0
  5
66A
 10
320.647
 20
415.962
 30
0.000000
  70
    32
  0
VERTEX
  8
0
  5
66B
 10
320.600
 20
415.966
 30
0.000000
  70
    32
  0
VERTEX
  8
0
  5
66C
 10
320.552
 20
415.969
 30
0.000000
  70
    32
  0
VERTEX
  8
0
  5
66D
 10
320.505
 20
415.973
 30
0.000000
  70
    32
  0
VERTEX
  8
0
  5
66E
 10
320.457
 20
415.976
 30
0.000000
  70
    32
  0
VERTEX
  8
0
  5
66F
 10
320.409
 20
415.980
 30
0.000000
  70
    32
  0
VERTEX
  8
0
  5
670
 10
320.362
 20
415.984
 30
0.000000
  70
    32
  0
VERTEX
  8
0
  5
671
 10
320.314
 20
415.988
 30
0.000000
  70
    32
  0
VERTEX
  8
0
  5
672
 10
320.267
 20
415.993
 30
0.000000
  70
    32
  0
VERTEX
  8
0
  5
673
 10
320.219
 20
415.997
 30
0.000000
  70
    32
  0
VERTEX
  8
0
  5
674
 10
320.172
 20
416.002
 30
0.000000
  70
    32
  0
VERTEX
  8
0
  5
675
 10
320.124
 20
416.006
 30
0.000000
  70
    32
  0
VERTEX
  8
0
  5
676
 10
320.077
 20
416.011
 30
0.000000
  70
    32
  0
VERTEX
  8
0
  5
677
 10
320.030
 20
416.016
 30
0.000000
  70
    32
  0
VERTEX
  8
0
  5
678
 10
319.982
 20
416.022
 30
0.000000
  70
    32
  0
VERTEX
  8
0
  5
679
 10
319.935
 20
416.027
 30
0.000000
  70
    32
  0
VERTEX
  8
0
  5
67A
 10
319.888
 20
416.033
 30
0.000000
  70
    32
  0
VERTEX
  8
0
  5
67B
 10
319.841
 20
416.038
 30
0.000000
  70
    32
  0
VERTEX
  8
0
  5
67C
 10
319.793
 20
416.044
 30
0.000000
  70
    32
  0
VERTEX
  8
0
  5
67D
 10
319.746
 20
416.050
 30
0.000000
  70
    32
  0
VERTEX
  8
0
  5
67E
 10
319.699
 20
416.056
 30
0.000000
  70
    32
  0
VERTEX
  8
0
  5
67F
 10
319.652
 20
416.062
 30
0.000000
  70
    32
  0
VERTEX
  8
0
  5
680
 10
319.605
 20
416.069
 30
0.000000
  70
    32
  0
VERTEX
  8
0
  5
681
 10
319.558
 20
416.075
 30
0.000000
  70
    32
  0
VERTEX
  8
0
  5
682
 10
319.511
 20
416.082
 30
0.000000
  70
    32
  0
VERTEX
  8
0
  5
683
 10
319.464
 20
416.089
 30
0.000000
  70
    32
  0
VERTEX
  8
0
  5
684
 10
319.417
 20
416.096
 30
0.000000
  70
    32
  0
VERTEX
  8
0
  5
685
 10
319.370
 20
416.103
 30
0.000000
  70
    32
  0
VERTEX
  8
0
  5
686
 10
319.323
 20
416.110
 30
0.000000
  70
    32
  0
VERTEX
  8
0
  5
687
 10
319.277
 20
416.118
 30
0.000000
  70
    32
  0
VERTEX
  8
0
  5
688
 10
319.230
 20
416.125
 30
0.000000
  70
    32
  0
VERTEX
  8
0
  5
689
 10
319.183
 20
416.133
 30
0.000000
  70
    32
  0
VERTEX
  8
0
  5
68A
 10
319.136
 20
416.141
 30
0.000000
  70
    32
  0
VERTEX
  8
0
  5
68B
 10
319.090
 20
416.149
 30
0.000000
  70
    32
  0
VERTEX
  8
0
  5
68C
 10
319.043
 20
416.157
 30
0.000000
  70
    32
  0
VERTEX
  8
0
  5
68D
 10
318.997
 20
416.166
 30
0.000000
  70
    32
  0
VERTEX
  8
0
  5
68E
 10
318.950
 20
416.174
 30
0.000000
  70
    32
  0
VERTEX
  8
0
  5
68F
 10
318.904
 20
416.183
 30
0.000000
  70
    32
  0
VERTEX
  8
0
  5
690
 10
318.857
 20
416.191
 30
0.000000
  70
    32
  0
VERTEX
  8
0
  5
691
 10
318.811
 20
416.200
 30
0.000000
  70
    32
  0
VERTEX
  8
0
  5
692
 10
318.765
 20
416.209
 30
0.000000
  70
    32
  0
VERTEX
  8
0
  5
693
 10
318.719
 20
416.219
 30
0.000000
  70
    32
  0
VERTEX
  8
0
  5
694
 10
318.672
 20
416.228
 30
0.000000
  70
    32
  0
VERTEX
  8
0
  5
695
 10
318.626
 20
416.238
 30
0.000000
  70
    32
  0
VERTEX
  8
0
  5
696
 10
318.580
 20
416.247
 30
0.000000
  70
    32
  0
VERTEX
  8
0
  5
697
 10
318.534
 20
416.257
 30
0.000000
  70
    32
  0
VERTEX
  8
0
  5
698
 10
318.488
 20
416.267
 30
0.000000
  70
    32
  0
VERTEX
  8
0
  5
699
 10
318.442
 20
416.277
 30
0.000000
  70
    32
  0
VERTEX
  8
0
  5
69A
 10
318.396
 20
416.287
 30
0.000000
  70
    32
  0
VERTEX
  8
0
  5
69B
 10
318.351
 20
416.298
 30
0.000000
  70
    32
  0
VERTEX
  8
0
  5
69C
 10
318.305
 20
416.308
 30
0.000000
  70
    32
  0
VERTEX
  8
0
  5
69D
 10
318.259
 20
416.319
 30
0.000000
  70
    32
  0
VERTEX
  8
0
  5
69E
 10
318.214
 20
416.330
 30
0.000000
  70
    32
  0
VERTEX
  8
0
  5
69F
 10
318.168
 20
416.341
 30
0.000000
  70
    32
  0
VERTEX
  8
0
  5
6A0
 10
318.123
 20
416.352
 30
0.000000
  70
    32
  0
VERTEX
  8
0
  5
6A1
 10
318.077
 20
416.363
 30
0.000000
  70
    32
  0
VERTEX
  8
0
  5
6A2
 10
318.032
 20
416.374
 30
0.000000
  70
    32
  0
VERTEX
  8
0
  5
6A3
 10
317.987
 20
416.386
 30
0.000000
  70
    32
  0
VERTEX
  8
0
  5
6A4
 10
317.941
 20
416.398
 30
0.000000
  70
    32
  0
VERTEX
  8
0
  5
6A5
 10
317.896
 20
416.410
 30
0.000000
  70
    32
  0
VERTEX
  8
0
  5
6A6
 10
317.851
 20
416.422
 30
0.000000
  70
    32
  0
VERTEX
  8
0
  5
6A7
 10
317.806
 20
416.434
 30
0.000000
  70
    32
  0
VERTEX
  8
0
  5
6A8
 10
317.761
 20
416.446
 30
0.000000
  70
    32
  0
VERTEX
  8
0
  5
6A9
 10
317.716
 20
416.458
 30
0.000000
  70
    32
  0
VERTEX
  8
0
  5
6AA
 10
317.671
 20
416.471
 30
0.000000
  70
    32
  0
VERTEX
  8
0
  5
6AB
 10
317.627
 20
416.484
 30
0.000000
  70
    32
  0
VERTEX
  8
0
  5
6AC
 10
317.582
 20
416.496
 30
0.000000
  70
    32
  0
VERTEX
  8
0
  5
6AD
 10
317.537
 20
416.509
 30
0.000000
  70
    32
  0
VERTEX
  8
0
  5
6AE
 10
317.493
 20
416.523
 30
0.000000
  70
    32
  0
VERTEX
  8
0
  5
6AF
 10
317.449
 20
416.536
 30
0.000000
  70
    32
  0
VERTEX
  8
0
  5
6B0
 10
317.404
 20
416.549
 30
0.000000
  70
    32
  0
VERTEX
  8
0
  5
6B1
 10
317.360
 20
416.563
 30
0.000000
  70
    32
  0
VERTEX
  8
0
  5
6B2
 10
317.316
 20
416.576
 30
0.000000
  70
    32
  0
VERTEX
  8
0
  5
6B3
 10
317.272
 20
416.590
 30
0.000000
  70
    32
  0
VERTEX
  8
0
  5
6B4
 10
317.227
 20
416.604
 30
0.000000
  70
    32
  0
VERTEX
  8
0
  5
6B5
 10
317.183
 20
416.618
 30
0.000000
  70
    32
  0
VERTEX
  8
0
  5
6B6
 10
317.140
 20
416.633
 30
0.000000
  70
    32
  0
VERTEX
  8
0
  5
6B7
 10
317.096
 20
416.647
 30
0.000000
  70
    32
  0
VERTEX
  8
0
  5
6B8
 10
317.052
 20
416.662
 30
0.000000
  70
    32
  0
VERTEX
  8
0
  5
6B9
 10
317.008
 20
416.676
 30
0.000000
  70
    32
  0
VERTEX
  8
0
  5
6BA
 10
316.965
 20
416.691
 30
0.000000
  70
    32
  0
VERTEX
  8
0
  5
6BB
 10
316.921
 20
416.706
 30
0.000000
  70
    32
  0
VERTEX
  8
0
  5
6BC
 10
316.878
 20
416.721
 30
0.000000
  70
    32
  0
VERTEX
  8
0
  5
6BD
 10
316.835
 20
416.737
 30
0.000000
  70
    32
  0
VERTEX
  8
0
  5
6BE
 10
316.791
 20
416.752
 30
0.000000
  70
    32
  0
VERTEX
  8
0
  5
6BF
 10
316.748
 20
416.767
 30
0.000000
  70
    32
  0
VERTEX
  8
0
  5
6C0
 10
316.705
 20
416.783
 30
0.000000
  70
    32
  0
VERTEX
  8
0
  5
6C1
 10
316.662
 20
416.799
 30
0.000000
  70
    32
  0
VERTEX
  8
0
  5
6C2
 10
316.619
 20
416.815
 30
0.000000
  70
    32
  0
VERTEX
  8
0
  5
6C3
 10
316.577
 20
416.831
 30
0.000000
  70
    32
  0
VERTEX
  8
0
  5
6C4
 10
316.534
 20
416.847
 30
0.000000
  70
    32
  0
VERTEX
  8
0
  5
6C5
 10
316.491
 20
416.864
 30
0.000000
  70
    32
  0
VERTEX
  8
0
  5
6C6
 10
316.449
 20
416.880
 30
0.000000
  70
    32
  0
VERTEX
  8
0
  5
6C7
 10
316.407
 20
416.897
 30
0.000000
  70
    32
  0
VERTEX
  8
0
  5
6C8
 10
316.364
 20
416.914
 30
0.000000
  70
    32
  0
VERTEX
  8
0
  5
6C9
 10
316.322
 20
416.931
 30
0.000000
  70
    32
  0
VERTEX
  8
0
  5
6CA
 10
316.280
 20
416.948
 30
0.000000
  70
    32
  0
VERTEX
  8
0
  5
6CB
 10
316.238
 20
416.965
 30
0.000000
  70
    32
  0
VERTEX
  8
0
  5
6CC
 10
316.196
 20
416.982
 30
0.000000
  70
    32
  0
VERTEX
  8
0
  5
6CD
 10
316.154
 20
417.000
 30
0.000000
  70
    32
  0
VERTEX
  8
0
  5
6CE
 10
316.112
 20
417.017
 30
0.000000
  70
    32
  0
VERTEX
  8
0
  5
6CF
 10
316.071
 20
417.035
 30
0.000000
  70
    32
  0
VERTEX
  8
0
  5
6D0
 10
316.029
 20
417.053
 30
0.000000
  70
    32
  0
VERTEX
  8
0
  5
6D1
 10
315.988
 20
417.071
 30
0.000000
  70
    32
  0
VERTEX
  8
0
  5
6D2
 10
315.947
 20
417.089
 30
0.000000
  70
    32
  0
VERTEX
  8
0
  5
6D3
 10
315.905
 20
417.108
 30
0.000000
  70
    32
  0
VERTEX
  8
0
  5
6D4
 10
315.864
 20
417.126
 30
0.000000
  70
    32
  0
VERTEX
  8
0
  5
6D5
 10
315.823
 20
417.145
 30
0.000000
  70
    32
  0
VERTEX
  8
0
  5
6D6
 10
315.782
 20
417.163
 30
0.000000
  70
    32
  0
VERTEX
  8
0
  5
6D7
 10
315.742
 20
417.182
 30
0.000000
  70
    32
  0
VERTEX
  8
0
  5
6D8
 10
315.701
 20
417.201
 30
0.000000
  70
    32
  0
VERTEX
  8
0
  5
6D9
 10
315.660
 20
417.220
 30
0.000000
  70
    32
  0
VERTEX
  8
0
  5
6DA
 10
315.620
 20
417.239
 30
0.000000
  70
    32
  0
VERTEX
  8
0
  5
6DB
 10
315.580
 20
417.259
 30
0.000000
  70
    32
  0
VERTEX
  8
0
  5
6DC
 10
315.539
 20
417.278
 30
0.000000
  70
    32
  0
VERTEX
  8
0
  5
6DD
 10
315.499
 20
417.298
 30
0.000000
  70
    32
  0
VERTEX
  8
0
  5
6DE
 10
315.459
 20
417.318
 30
0.000000
  70
    32
  0
VERTEX
  8
0
  5
6DF
 10
315.419
 20
417.338
 30
0.000000
  70
    32
  0
VERTEX
  8
0
  5
6E0
 10
315.380
 20
417.358
 30
0.000000
  70
    32
  0
VERTEX
  8
0
  5
6E1
 10
315.340
 20
417.378
 30
0.000000
  70
    32
  0
VERTEX
  8
0
  5
6E2
 10
315.300
 20
417.398
 30
0.000000
  70
    32
  0
VERTEX
  8
0
  5
6E3
 10
315.261
 20
417.419
 30
0.000000
  70
    32
  0
VERTEX
  8
0
  5
6E4
 10
315.222
 20
417.439
 30
0.000000
  70
    32
  0
VERTEX
  8
0
  5
6E5
 10
315.182
 20
417.460
 30
0.000000
  70
    32
  0
VERTEX
  8
0
  5
6E6
 10
315.143
 20
417.481
 30
0.000000
  70
    32
  0
VERTEX
  8
0
  5
6E7
 10
315.104
 20
417.502
 30
0.000000
  70
    32
  0
VERTEX
  8
0
  5
6E8
 10
315.065
 20
417.523
 30
0.000000
  70
    32
  0
VERTEX
  8
0
  5
6E9
 10
315.027
 20
417.544
 30
0.000000
  70
    32
  0
VERTEX
  8
0
  5
6EA
 10
314.988
 20
417.566
 30
0.000000
  70
    32
  0
VERTEX
  8
0
  5
6EB
 10
314.950
 20
417.587
 30
0.000000
  70
    32
  0
VERTEX
  8
0
  5
6EC
 10
314.911
 20
417.609
 30
0.000000
  70
    32
  0
VERTEX
  8
0
  5
6ED
 10
314.873
 20
417.630
 30
0.000000
  70
    32
  0
VERTEX
  8
0
  5
6EE
 10
314.835
 20
417.652
 30
0.000000
  70
    32
  0
VERTEX
  8
0
  5
6EF
 10
314.797
 20
417.674
 30
0.000000
  70
    32
  0
VERTEX
  8
0
  5
6F0
 10
314.759
 20
417.696
 30
0.000000
  70
    32
  0
VERTEX
  8
0
  5
6F1
 10
314.721
 20
417.719
 30
0.000000
  70
    32
  0
VERTEX
  8
0
  5
6F2
 10
314.684
 20
417.741
 30
0.000000
  70
    32
  0
VERTEX
  8
0
  5
6F3
 10
314.646
 20
417.764
 30
0.000000
  70
    32
  0
VERTEX
  8
0
  5
6F4
 10
314.609
 20
417.786
 30
0.000000
  70
    32
  0
VERTEX
  8
0
  5
6F5
 10
314.572
 20
417.809
 30
0.000000
  70
    32
  0
VERTEX
  8
0
  5
6F6
 10
314.534
 20
417.832
 30
0.000000
  70
    32
  0
VERTEX
  8
0
  5
6F7
 10
314.497
 20
417.855
 30
0.000000
  70
    32
  0
VERTEX
  8
0
  5
6F8
 10
314.461
 20
417.878
 30
0.000000
  70
    32
  0
VERTEX
  8
0
  5
6F9
 10
314.424
 20
417.901
 30
0.000000
  70
    32
  0
VERTEX
  8
0
  5
6FA
 10
314.387
 20
417.925
 30
0.000000
  70
    32
  0
VERTEX
  8
0
  5
6FB
 10
314.351
 20
417.948
 30
0.000000
  70
    32
  0
VERTEX
  8
0
  5
6FC
 10
314.315
 20
417.972
 30
0.000000
  70
    32
  0
VERTEX
  8
0
  5
6FD
 10
314.278
 20
417.996
 30
0.000000
  70
    32
  0
VERTEX
  8
0
  5
6FE
 10
314.242
 20
418.019
 30
0.000000
  70
    32
  0
VERTEX
  8
0
  5
6FF
 10
314.206
 20
418.043
 30
0.000000
  70
    32
  0
VERTEX
  8
0
  5
700
 10
314.171
 20
418.068
 30
0.000000
  70
    32
  0
VERTEX
  8
0
  5
701
 10
314.135
 20
418.092
 30
0.000000
  70
    32
  0
VERTEX
  8
0
  5
702
 10
314.099
 20
418.116
 30
0.000000
  70
    32
  0
VERTEX
  8
0
  5
703
 10
314.064
 20
418.141
 30
0.000000
  70
    32
  0
VERTEX
  8
0
  5
704
 10
314.029
 20
418.165
 30
0.000000
  70
    32
  0
VERTEX
  8
0
  5
705
 10
313.994
 20
418.190
 30
0.000000
  70
    32
  0
VERTEX
  8
0
  5
706
 10
313.959
 20
418.215
 30
0.000000
  70
    32
  0
VERTEX
  8
0
  5
707
 10
313.924
 20
418.240
 30
0.000000
  70
    32
  0
VERTEX
  8
0
  5
708
 10
313.889
 20
418.265
 30
0.000000
  70
    32
  0
VERTEX
  8
0
  5
709
 10
313.855
 20
418.290
 30
0.000000
  70
    32
  0
VERTEX
  8
0
  5
70A
 10
313.821
 20
418.316
 30
0.000000
  70
    32
  0
VERTEX
  8
0
  5
70B
 10
313.786
 20
418.341
 30
0.000000
  70
    32
  0
VERTEX
  8
0
  5
70C
 10
313.752
 20
418.367
 30
0.000000
  70
    32
  0
VERTEX
  8
0
  5
70D
 10
313.718
 20
418.392
 30
0.000000
  70
    32
  0
VERTEX
  8
0
  5
70E
 10
313.685
 20
418.418
 30
0.000000
  70
    32
  0
VERTEX
  8
0
  5
70F
 10
313.651
 20
418.444
 30
0.000000
  70
    32
  0
VERTEX
  8
0
  5
710
 10
313.617
 20
418.470
 30
0.000000
  70
    32
  0
VERTEX
  8
0
  5
711
 10
313.584
 20
418.496
 30
0.000000
  70
    32
  0
VERTEX
  8
0
  5
712
 10
313.551
 20
418.523
 30
0.000000
  70
    32
  0
VERTEX
  8
0
  5
713
 10
313.518
 20
418.549
 30
0.000000
  70
    32
  0
VERTEX
  8
0
  5
714
 10
313.485
 20
418.575
 30
0.000000
  70
    32
  0
VERTEX
  8
0
  5
715
 10
313.452
 20
418.602
 30
0.000000
  70
    32
  0
VERTEX
  8
0
  5
716
 10
313.420
 20
418.629
 30
0.000000
  70
    32
  0
VERTEX
  8
0
  5
717
 10
313.387
 20
418.656
 30
0.000000
  70
    32
  0
VERTEX
  8
0
  5
718
 10
313.355
 20
418.683
 30
0.000000
  70
    32
  0
VERTEX
  8
0
  5
719
 10
313.323
 20
418.710
 30
0.000000
  70
    32
  0
VERTEX
  8
0
  5
71A
 10
313.291
 20
418.737
 30
0.000000
  70
    32
  0
VERTEX
  8
0
  5
71B
 10
313.259
 20
418.764
 30
0.000000
  70
    32
  0
VERTEX
  8
0
  5
71C
 10
313.227
 20
418.792
 30
0.000000
  70
    32
  0
VERTEX
  8
0
  5
71D
 10
313.196
 20
418.819
 30
0.000000
  70
    32
  0
VERTEX
  8
0
  5
71E
 10
313.165
 20
418.847
 30
0.000000
  70
    32
  0
VERTEX
  8
0
  5
71F
 10
313.133
 20
418.875
 30
0.000000
  70
    32
  0
VERTEX
  8
0
  5
720
 10
313.102
 20
418.903
 30
0.000000
  70
    32
  0
VERTEX
  8
0
  5
721
 10
313.072
 20
418.931
 30
0.000000
  70
    32
  0
VERTEX
  8
0
  5
722
 10
313.041
 20
418.959
 30
0.000000
  70
    32
  0
VERTEX
  8
0
  5
723
 10
313.010
 20
418.987
 30
0.000000
  70
    32
  0
VERTEX
  8
0
  5
724
 10
312.980
 20
419.015
 30
0.000000
  70
    32
  0
VERTEX
  8
0
  5
725
 10
312.950
 20
419.044
 30
0.000000
  70
    32
  0
VERTEX
  8
0
  5
726
 10
312.920
 20
419.073
 30
0.000000
  70
    32
  0
VERTEX
  8
0
  5
727
 10
312.890
 20
419.101
 30
0.000000
  70
    32
  0
VERTEX
  8
0
  5
728
 10
312.860
 20
419.130
 30
0.000000
  70
    32
  0
VERTEX
  8
0
  5
729
 10
312.831
 20
419.159
 30
0.000000
  70
    32
  0
VERTEX
  8
0
  5
72A
 10
312.801
 20
419.188
 30
0.000000
  70
    32
  0
VERTEX
  8
0
  5
72B
 10
312.772
 20
419.217
 30
0.000000
  70
    32
  0
VERTEX
  8
0
  5
72C
 10
312.743
 20
419.246
 30
0.000000
  70
    32
  0
VERTEX
  8
0
  5
72D
 10
312.714
 20
419.276
 30
0.000000
  70
    32
  0
VERTEX
  8
0
  5
72E
 10
312.686
 20
419.305
 30
0.000000
  70
    32
  0
VERTEX
  8
0
  5
72F
 10
312.657
 20
419.335
 30
0.000000
  70
    32
  0
VERTEX
  8
0
  5
730
 10
312.629
 20
419.364
 30
0.000000
  70
    32
  0
VERTEX
  8
0
  5
731
 10
312.601
 20
419.394
 30
0.000000
  70
    32
  0
VERTEX
  8
0
  5
732
 10
312.573
 20
419.424
 30
0.000000
  70
    32
  0
VERTEX
  8
0
  5
733
 10
312.545
 20
419.454
 30
0.000000
  70
    32
  0
VERTEX
  8
0
  5
734
 10
312.517
 20
419.484
 30
0.000000
  70
    32
  0
VERTEX
  8
0
  5
735
 10
312.490
 20
419.514
 30
0.000000
  70
    32
  0
VERTEX
  8
0
  5
736
 10
312.462
 20
419.545
 30
0.000000
  70
    32
  0
VERTEX
  8
0
  5
737
 10
312.435
 20
419.575
 30
0.000000
  70
    32
  0
VERTEX
  8
0
  5
738
 10
312.408
 20
419.606
 30
0.000000
  70
    32
  0
VERTEX
  8
0
  5
739
 10
312.381
 20
419.636
 30
0.000000
  70
    32
  0
VERTEX
  8
0
  5
73A
 10
312.355
 20
419.667
 30
0.000000
  70
    32
  0
VERTEX
  8
0
  5
73B
 10
312.328
 20
419.698
 30
0.000000
  70
    32
  0
VERTEX
  8
0
  5
73C
 10
312.302
 20
419.729
 30
0.000000
  70
    32
  0
VERTEX
  8
0
  5
73D
 10
312.276
 20
419.760
 30
0.000000
  70
    32
  0
VERTEX
  8
0
  5
73E
 10
312.250
 20
419.791
 30
0.000000
  70
    32
  0
VERTEX
  8
0
  5
73F
 10
312.225
 20
419.822
 30
0.000000
  70
    32
  0
VERTEX
  8
0
  5
740
 10
312.199
 20
419.853
 30
0.000000
  70
    32
  0
VERTEX
  8
0
  5
741
 10
312.174
 20
419.885
 30
0.000000
  70
    32
  0
VERTEX
  8
0
  5
742
 10
312.149
 20
419.916
 30
0.000000
  70
    32
  0
VERTEX
  8
0
  5
743
 10
312.124
 20
419.948
 30
0.000000
  70
    32
  0
VERTEX
  8
0
  5
744
 10
312.099
 20
419.979
 30
0.000000
  70
    32
  0
VERTEX
  8
0
  5
745
 10
312.074
 20
420.011
 30
0.000000
  70
    32
  0
VERTEX
  8
0
  5
746
 10
312.050
 20
420.043
 30
0.000000
  70
    32
  0
VERTEX
  8
0
  5
747
 10
312.026
 20
420.075
 30
0.000000
  70
    32
  0
VERTEX
  8
0
  5
748
 10
312.002
 20
420.107
 30
0.000000
  70
    32
  0
VERTEX
  8
0
  5
749
 10
311.978
 20
420.139
 30
0.000000
  70
    32
  0
VERTEX
  8
0
  5
74A
 10
311.954
 20
420.172
 30
0.000000
  70
    32
  0
VERTEX
  8
0
  5
74B
 10
311.931
 20
420.204
 30
0.000000
  70
    32
  0
VERTEX
  8
0
  5
74C
 10
311.907
 20
420.236
 30
0.000000
  70
    32
  0
VERTEX
  8
0
  5
74D
 10
311.884
 20
420.269
 30
0.000000
  70
    32
  0
VERTEX
  8
0
  5
74E
 10
311.862
 20
420.302
 30
0.000000
  70
    32
  0
VERTEX
  8
0
  5
74F
 10
311.839
 20
420.334
 30
0.000000
  70
    32
  0
VERTEX
  8
0
  5
750
 10
311.816
 20
420.367
 30
0.000000
  70
    32
  0
VERTEX
  8
0
  5
751
 10
311.794
 20
420.400
 30
0.000000
  70
    32
  0
VERTEX
  8
0
  5
752
 10
311.772
 20
420.433
 30
0.000000
  70
    32
  0
VERTEX
  8
0
  5
753
 10
311.750
 20
420.466
 30
0.000000
  70
    32
  0
VERTEX
  8
0
  5
754
 10
311.728
 20
420.499
 30
0.000000
  70
    32
  0
VERTEX
  8
0
  5
755
 10
311.707
 20
420.533
 30
0.000000
  70
    32
  0
VERTEX
  8
0
  5
756
 10
311.685
 20
420.566
 30
0.000000
  70
    32
  0
VERTEX
  8
0
  5
757
 10
311.664
 20
420.599
 30
0.000000
  70
    32
  0
VERTEX
  8
0
  5
758
 10
311.643
 20
420.633
 30
0.000000
  70
    32
  0
VERTEX
  8
0
  5
759
 10
311.623
 20
420.666
 30
0.000000
  70
    32
  0
VERTEX
  8
0
  5
75A
 10
311.602
 20
420.700
 30
0.000000
  70
    32
  0
VERTEX
  8
0
  5
75B
 10
311.582
 20
420.734
 30
0.000000
  70
    32
  0
VERTEX
  8
0
  5
75C
 10
311.562
 20
420.768
 30
0.000000
  70
    32
  0
VERTEX
  8
0
  5
75D
 10
311.542
 20
420.802
 30
0.000000
  70
    32
  0
VERTEX
  8
0
  5
75E
 10
311.522
 20
420.836
 30
0.000000
  70
    32
  0
VERTEX
  8
0
  5
75F
 10
311.503
 20
420.870
 30
0.000000
  70
    32
  0
VERTEX
  8
0
  5
760
 10
311.483
 20
420.904
 30
0.000000
  70
    32
  0
VERTEX
  8
0
  5
761
 10
311.464
 20
420.938
 30
0.000000
  70
    32
  0
VERTEX
  8
0
  5
762
 10
311.445
 20
420.972
 30
0.000000
  70
    32
  0
VERTEX
  8
0
  5
763
 10
311.427
 20
421.007
 30
0.000000
  70
    32
  0
VERTEX
  8
0
  5
764
 10
311.408
 20
421.041
 30
0.000000
  70
    32
  0
VERTEX
  8
0
  5
765
 10
311.390
 20
421.076
 30
0.000000
  70
    32
  0
VERTEX
  8
0
  5
766
 10
311.372
 20
421.111
 30
0.000000
  70
    32
  0
VERTEX
  8
0
  5
767
 10
311.354
 20
421.145
 30
0.000000
  70
    32
  0
VERTEX
  8
0
  5
768
 10
311.336
 20
421.180
 30
0.000000
  70
    32
  0
VERTEX
  8
0
  5
769
 10
311.319
 20
421.215
 30
0.000000
  70
    32
  0
VERTEX
  8
0
  5
76A
 10
311.302
 20
421.250
 30
0.000000
  70
    32
  0
VERTEX
  8
0
  5
76B
 10
311.285
 20
421.285
 30
0.000000
  70
    32
  0
VERTEX
  8
0
  5
76C
 10
311.268
 20
421.320
 30
0.000000
  70
    32
  0
VERTEX
  8
0
  5
76D
 10
311.251
 20
421.355
 30
0.000000
  70
    32
  0
VERTEX
  8
0
  5
76E
 10
311.235
 20
421.390
 30
0.000000
  70
    32
  0
VERTEX
  8
0
  5
76F
 10
311.219
 20
421.426
 30
0.000000
  70
    32
  0
VERTEX
  8
0
  5
770
 10
311.203
 20
421.461
 30
0.000000
  70
    32
  0
VERTEX
  8
0
  5
771
 10
311.187
 20
421.497
 30
0.000000
  70
    32
  0
VERTEX
  8
0
  5
772
 10
311.172
 20
421.532
 30
0.000000
  70
    32
  0
VERTEX
  8
0
  5
773
 10
311.156
 20
421.568
 30
0.000000
  70
    32
  0
VERTEX
  8
0
  5
774
 10
311.141
 20
421.603
 30
0.000000
  70
    32
  0
VERTEX
  8
0
  5
775
 10
311.126
 20
421.639
 30
0.000000
  70
    32
  0
VERTEX
  8
0
  5
776
 10
311.112
 20
421.675
 30
0.000000
  70
    32
  0
VERTEX
  8
0
  5
777
 10
311.097
 20
421.711
 30
0.000000
  70
    32
  0
VERTEX
  8
0
  5
778
 10
311.083
 20
421.747
 30
0.000000
  70
    32
  0
VERTEX
  8
0
  5
779
 10
311.069
 20
421.783
 30
0.000000
  70
    32
  0
VERTEX
  8
0
  5
77A
 10
311.055
 20
421.819
 30
0.000000
  70
    32
  0
VERTEX
  8
0
  5
77B
 10
311.042
 20
421.855
 30
0.000000
  70
    32
  0
VERTEX
  8
0
  5
77C
 10
311.029
 20
421.891
 30
0.000000
  70
    32
  0
VERTEX
  8
0
  5
77D
 10
311.016
 20
421.927
 30
0.000000
  70
    32
  0
VERTEX
  8
0
  5
77E
 10
311.003
 20
421.963
 30
0.000000
  70
    32
  0
VERTEX
  8
0
  5
77F
 10
310.990
 20
422.000
 30
0.000000
  70
    32
  0
VERTEX
  8
0
  5
780
 10
310.978
 20
422.036
 30
0.000000
  70
    32
  0
VERTEX
  8
0
  5
781
 10
310.966
 20
422.073
 30
0.000000
  70
    32
  0
VERTEX
  8
0
  5
782
 10
310.954
 20
422.109
 30
0.000000
  70
    32
  0
VERTEX
  8
0
  5
783
 10
310.942
 20
422.146
 30
0.000000
  70
    32
  0
VERTEX
  8
0
  5
784
 10
310.930
 20
422.182
 30
0.000000
  70
    32
  0
VERTEX
  8
0
  5
785
 10
310.919
 20
422.219
 30
0.000000
  70
    32
  0
VERTEX
  8
0
  5
786
 10
310.908
 20
422.256
 30
0.000000
  70
    32
  0
VERTEX
  8
0
  5
787
 10
310.897
 20
422.292
 30
0.000000
  70
    32
  0
VERTEX
  8
0
  5
788
 10
310.887
 20
422.329
 30
0.000000
  70
    32
  0
VERTEX
  8
0
  5
789
 10
310.876
 20
422.366
 30
0.000000
  70
    32
  0
VERTEX
  8
0
  5
78A
 10
310.866
 20
422.403
 30
0.000000
  70
    32
  0
VERTEX
  8
0
  5
78B
 10
310.856
 20
422.440
 30
0.000000
  70
    32
  0
VERTEX
  8
0
  5
78C
 10
310.847
 20
422.477
 30
0.000000
  70
    32
  0
VERTEX
  8
0
  5
78D
 10
310.837
 20
422.514
 30
0.000000
  70
    32
  0
VERTEX
  8
0
  5
78E
 10
310.828
 20
422.551
 30
0.000000
  70
    32
  0
VERTEX
  8
0
  5
78F
 10
310.819
 20
422.588
 30
0.000000
  70
    32
  0
VERTEX
  8
0
  5
790
 10
310.810
 20
422.625
 30
0.000000
  70
    32
  0
VERTEX
  8
0
  5
791
 10
310.802
 20
422.663
 30
0.000000
  70
    32
  0
VERTEX
  8
0
  5
792
 10
310.793
 20
422.700
 30
0.000000
  70
    32
  0
VERTEX
  8
0
  5
793
 10
310.785
 20
422.737
 30
0.000000
  70
    32
  0
VERTEX
  8
0
  5
794
 10
310.778
 20
422.774
 30
0.000000
  70
    32
  0
VERTEX
  8
0
  5
795
 10
310.770
 20
422.812
 30
0.000000
  70
    32
  0
VERTEX
  8
0
  5
796
 10
310.763
 20
422.849
 30
0.000000
  70
    32
  0
VERTEX
  8
0
  5
797
 10
310.755
 20
422.887
 30
0.000000
  70
    32
  0
VERTEX
  8
0
  5
798
 10
310.749
 20
422.924
 30
0.000000
  70
    32
  0
VERTEX
  8
0
  5
799
 10
310.742
 20
422.962
 30
0.000000
  70
    32
  0
VERTEX
  8
0
  5
79A
 10
310.735
 20
422.999
 30
0.000000
  70
    32
  0
VERTEX
  8
0
  5
79B
 10
310.729
 20
423.037
 30
0.000000
  70
    32
  0
VERTEX
  8
0
  5
79C
 10
310.723
 20
423.074
 30
0.000000
  70
    32
  0
VERTEX
  8
0
  5
79D
 10
310.718
 20
423.112
 30
0.000000
  70
    32
  0
VERTEX
  8
0
  5
79E
 10
310.712
 20
423.149
 30
0.000000
  70
    32
  0
VERTEX
  8
0
  5
79F
 10
310.707
 20
423.187
 30
0.000000
  70
    32
  0
VERTEX
  8
0
  5
7A0
 10
310.702
 20
423.225
 30
0.000000
  70
    32
  0
VERTEX
  8
0
  5
7A1
 10
310.697
 20
423.262
 30
0.000000
  70
    32
  0
VERTEX
  8
0
  5
7A2
 10
310.692
 20
423.300
 30
0.000000
  70
    32
  0
VERTEX
  8
0
  5
7A3
 10
310.688
 20
423.338
 30
0.000000
  70
    32
  0
VERTEX
  8
0
  5
7A4
 10
310.684
 20
423.375
 30
0.000000
  70
    32
  0
VERTEX
  8
0
  5
7A5
 10
310.680
 20
423.413
 30
0.000000
  70
    32
  0
VERTEX
  8
0
  5
7A6
 10
310.677
 20
423.451
 30
0.000000
  70
    32
  0
VERTEX
  8
0
  5
7A7
 10
310.673
 20
423.489
 30
0.000000
  70
    32
  0
VERTEX
  8
0
  5
7A8
 10
310.670
 20
423.527
 30
0.000000
  70
    32
  0
VERTEX
  8
0
  5
7A9
 10
310.667
 20
423.564
 30
0.000000
  70
    32
  0
VERTEX
  8
0
  5
7AA
 10
310.664
 20
423.602
 30
0.000000
  70
    32
  0
VERTEX
  8
0
  5
7AB
 10
310.662
 20
423.640
 30
0.000000
  70
    32
  0
VERTEX
  8
0
  5
7AC
 10
310.660
 20
423.678
 30
0.000000
  70
    32
  0
VERTEX
  8
0
  5
7AD
 10
310.658
 20
423.716
 30
0.000000
  70
    32
  0
VERTEX
  8
0
  5
7AE
 10
310.656
 20
423.754
 30
0.000000
  70
    32
  0
VERTEX
  8
0
  5
7AF
 10
310.655
 20
423.792
 30
0.000000
  70
    32
  0
VERTEX
  8
0
  5
7B0
 10
310.653
 20
423.829
 30
0.000000
  70
    32
  0
VERTEX
  8
0
  5
7B1
 10
310.652
 20
423.867
 30
0.000000
  70
    32
  0
VERTEX
  8
0
  5
7B2
 10
310.652
 20
423.905
 30
0.000000
  70
    32
  0
VERTEX
  8
0
  5
7B3
 10
310.651
 20
423.943
 30
0.000000
  70
    32
  0
VERTEX
  8
0
  5
7B4
 10
310.651
 20
423.981
 30
0.000000
  70
    32
  0
VERTEX
  8
0
  5
7B5
 10
310.651
 20
424.019
 30
0.000000
  70
    32
  0
VERTEX
  8
0
  5
7B6
 10
310.651
 20
424.057
 30
0.000000
  70
    32
  0
VERTEX
  8
0
  5
7B7
 10
310.652
 20
424.095
 30
0.000000
  70
    32
  0
VERTEX
  8
0
  5
7B8
 10
310.652
 20
424.133
 30
0.000000
  70
    32
  0
VERTEX
  8
0
  5
7B9
 10
310.653
 20
424.171
 30
0.000000
  70
    32
  0
VERTEX
  8
0
  5
7BA
 10
310.654
 20
424.209
 30
0.000000
  70
    32
  0
VERTEX
  8
0
  5
7BB
 10
310.656
 20
424.246
 30
0.000000
  70
    32
  0
VERTEX
  8
0
  5
7BC
 10
310.658
 20
424.284
 30
0.000000
  70
    32
  0
VERTEX
  8
0
  5
7BD
 10
310.660
 20
424.322
 30
0.000000
  70
    32
  0
VERTEX
  8
0
  5
7BE
 10
310.662
 20
424.360
 30
0.000000
  70
    32
  0
VERTEX
  8
0
  5
7BF
 10
310.664
 20
424.398
 30
0.000000
  70
    32
  0
VERTEX
  8
0
  5
7C0
 10
310.667
 20
424.436
 30
0.000000
  70
    32
  0
VERTEX
  8
0
  5
7C1
 10
310.670
 20
424.474
 30
0.000000
  70
    32
  0
VERTEX
  8
0
  5
7C2
 10
310.673
 20
424.511
 30
0.000000
  70
    32
  0
VERTEX
  8
0
  5
7C3
 10
310.676
 20
424.549
 30
0.000000
  70
    32
  0
VERTEX
  8
0
  5
7C4
 10
310.680
 20
424.587
 30
0.000000
  70
    32
  0
VERTEX
  8
0
  5
7C5
 10
310.684
 20
424.625
 30
0.000000
  70
    32
  0
VERTEX
  8
0
  5
7C6
 10
310.688
 20
424.662
 30
0.000000
  70
    32
  0
VERTEX
  8
0
  5
7C7
 10
310.692
 20
424.700
 30
0.000000
  70
    32
  0
VERTEX
  8
0
  5
7C8
 10
310.697
 20
424.738
 30
0.000000
  70
    32
  0
VERTEX
  8
0
  5
7C9
 10
310.701
 20
424.776
 30
0.000000
  70
    32
  0
VERTEX
  8
0
  5
7CA
 10
310.706
 20
424.813
 30
0.000000
  70
    32
  0
VERTEX
  8
0
  5
7CB
 10
310.712
 20
424.851
 30
0.000000
  70
    32
  0
VERTEX
  8
0
  5
7CC
 10
310.717
 20
424.888
 30
0.000000
  70
    32
  0
VERTEX
  8
0
  5
7CD
 10
310.723
 20
424.926
 30
0.000000
  70
    32
  0
VERTEX
  8
0
  5
7CE
 10
310.729
 20
424.964
 30
0.000000
  70
    32
  0
VERTEX
  8
0
  5
7CF
 10
310.735
 20
425.001
 30
0.000000
  70
    32
  0
VERTEX
  8
0
  5
7D0
 10
310.742
 20
425.039
 30
0.000000
  70
    32
  0
VERTEX
  8
0
  5
7D1
 10
310.748
 20
425.076
 30
0.000000
  70
    32
  0
VERTEX
  8
0
  5
7D2
 10
310.755
 20
425.113
 30
0.000000
  70
    32
  0
VERTEX
  8
0
  5
7D3
 10
310.762
 20
425.151
 30
0.000000
  70
    32
  0
VERTEX
  8
0
  5
7D4
 10
310.770
 20
425.188
 30
0.000000
  70
    32
  0
VERTEX
  8
0
  5
7D5
 10
310.777
 20
425.226
 30
0.000000
  70
    32
  0
VERTEX
  8
0
  5
7D6
 10
310.785
 20
425.263
 30
0.000000
  70
    32
  0
VERTEX
  8
0
  5
7D7
 10
310.793
 20
425.300
 30
0.000000
  70
    32
  0
VERTEX
  8
0
  5
7D8
 10
310.802
 20
425.337
 30
0.000000
  70
    32
  0
VERTEX
  8
0
  5
7D9
 10
310.810
 20
425.375
 30
0.000000
  70
    32
  0
VERTEX
  8
0
  5
7DA
 10
310.819
 20
425.412
 30
0.000000
  70
    32
  0
VERTEX
  8
0
  5
7DB
 10
310.828
 20
425.449
 30
0.000000
  70
    32
  0
VERTEX
  8
0
  5
7DC
 10
310.837
 20
425.486
 30
0.000000
  70
    32
  0
VERTEX
  8
0
  5
7DD
 10
310.847
 20
425.523
 30
0.000000
  70
    32
  0
VERTEX
  8
0
  5
7DE
 10
310.856
 20
425.560
 30
0.000000
  70
    32
  0
VERTEX
  8
0
  5
7DF
 10
310.866
 20
425.597
 30
0.000000
  70
    32
  0
VERTEX
  8
0
  5
7E0
 10
310.876
 20
425.634
 30
0.000000
  70
    32
  0
VERTEX
  8
0
  5
7E1
 10
310.887
 20
425.671
 30
0.000000
  70
    32
  0
VERTEX
  8
0
  5
7E2
 10
310.897
 20
425.707
 30
0.000000
  70
    32
  0
VERTEX
  8
0
  5
7E3
 10
310.908
 20
425.744
 30
0.000000
  70
    32
  0
VERTEX
  8
0
  5
7E4
 10
310.919
 20
425.781
 30
0.000000
  70
    32
  0
VERTEX
  8
0
  5
7E5
 10
310.931
 20
425.817
 30
0.000000
  70
    32
  0
VERTEX
  8
0
  5
7E6
 10
310.942
 20
425.854
 30
0.000000
  70
    32
  0
VERTEX
  8
0
  5
7E7
 10
310.954
 20
425.891
 30
0.000000
  70
    32
  0
VERTEX
  8
0
  5
7E8
 10
310.966
 20
425.927
 30
0.000000
  70
    32
  0
VERTEX
  8
0
  5
7E9
 10
310.978
 20
425.964
 30
0.000000
  70
    32
  0
VERTEX
  8
0
  5
7EA
 10
310.990
 20
426.000
 30
0.000000
  70
    32
  0
VERTEX
  8
0
  5
7EB
 10
311.003
 20
426.036
 30
0.000000
  70
    32
  0
VERTEX
  8
0
  5
7EC
 10
311.016
 20
426.073
 30
0.000000
  70
    32
  0
VERTEX
  8
0
  5
7ED
 10
311.029
 20
426.109
 30
0.000000
  70
    32
  0
VERTEX
  8
0
  5
7EE
 10
311.042
 20
426.145
 30
0.000000
  70
    32
  0
VERTEX
  8
0
  5
7EF
 10
311.056
 20
426.181
 30
0.000000
  70
    32
  0
VERTEX
  8
0
  5
7F0
 10
311.069
 20
426.217
 30
0.000000
  70
    32
  0
VERTEX
  8
0
  5
7F1
 10
311.083
 20
426.253
 30
0.000000
  70
    32
  0
VERTEX
  8
0
  5
7F2
 10
311.098
 20
426.289
 30
0.000000
  70
    32
  0
VERTEX
  8
0
  5
7F3
 10
311.112
 20
426.325
 30
0.000000
  70
    32
  0
VERTEX
  8
0
  5
7F4
 10
311.127
 20
426.361
 30
0.000000
  70
    32
  0
VERTEX
  8
0
  5
7F5
 10
311.141
 20
426.397
 30
0.000000
  70
    32
  0
VERTEX
  8
0
  5
7F6
 10
311.156
 20
426.432
 30
0.000000
  70
    32
  0
VERTEX
  8
0
  5
7F7
 10
311.172
 20
426.468
 30
0.000000
  70
    32
  0
VERTEX
  8
0
  5
7F8
 10
311.187
 20
426.503
 30
0.000000
  70
    32
  0
VERTEX
  8
0
  5
7F9
 10
311.203
 20
426.539
 30
0.000000
  70
    32
  0
VERTEX
  8
0
  5
7FA
 10
311.219
 20
426.574
 30
0.000000
  70
    32
  0
VERTEX
  8
0
  5
7FB
 10
311.235
 20
426.610
 30
0.000000
  70
    32
  0
VERTEX
  8
0
  5
7FC
 10
311.251
 20
426.645
 30
0.000000
  70
    32
  0
VERTEX
  8
0
  5
7FD
 10
311.268
 20
426.680
 30
0.000000
  70
    32
  0
VERTEX
  8
0
  5
7FE
 10
311.285
 20
426.715
 30
0.000000
  70
    32
  0
VERTEX
  8
0
  5
7FF
 10
311.302
 20
426.750
 30
0.000000
  70
    32
  0
VERTEX
  8
0
  5
800
 10
311.319
 20
426.785
 30
0.000000
  70
    32
  0
VERTEX
  8
0
  5
801
 10
311.336
 20
426.820
 30
0.000000
  70
    32
  0
VERTEX
  8
0
  5
802
 10
311.354
 20
426.855
 30
0.000000
  70
    32
  0
VERTEX
  8
0
  5
803
 10
311.372
 20
426.890
 30
0.000000
  70
    32
  0
VERTEX
  8
0
  5
804
 10
311.390
 20
426.924
 30
0.000000
  70
    32
  0
VERTEX
  8
0
  5
805
 10
311.408
 20
426.959
 30
0.000000
  70
    32
  0
VERTEX
  8
0
  5
806
 10
311.427
 20
426.993
 30
0.000000
  70
    32
  0
VERTEX
  8
0
  5
807
 10
311.445
 20
427.028
 30
0.000000
  70
    32
  0
VERTEX
  8
0
  5
808
 10
311.464
 20
427.062
 30
0.000000
  70
    32
  0
VERTEX
  8
0
  5
809
 10
311.483
 20
427.096
 30
0.000000
  70
    32
  0
VERTEX
  8
0
  5
80A
 10
311.503
 20
427.131
 30
0.000000
  70
    32
  0
VERTEX
  8
0
  5
80B
 10
311.522
 20
427.165
 30
0.000000
  70
    32
  0
VERTEX
  8
0
  5
80C
 10
311.542
 20
427.199
 30
0.000000
  70
    32
  0
VERTEX
  8
0
  5
80D
 10
311.562
 20
427.233
 30
0.000000
  70
    32
  0
VERTEX
  8
0
  5
80E
 10
311.582
 20
427.266
 30
0.000000
  70
    32
  0
VERTEX
  8
0
  5
80F
 10
311.602
 20
427.300
 30
0.000000
  70
    32
  0
VERTEX
  8
0
  5
810
 10
311.623
 20
427.334
 30
0.000000
  70
    32
  0
VERTEX
  8
0
  5
811
 10
311.643
 20
427.367
 30
0.000000
  70
    32
  0
VERTEX
  8
0
  5
812
 10
311.664
 20
427.401
 30
0.000000
  70
    32
  0
VERTEX
  8
0
  5
813
 10
311.685
 20
427.434
 30
0.000000
  70
    32
  0
VERTEX
  8
0
  5
814
 10
311.707
 20
427.468
 30
0.000000
  70
    32
  0
VERTEX
  8
0
  5
815
 10
311.728
 20
427.501
 30
0.000000
  70
    32
  0
VERTEX
  8
0
  5
816
 10
311.750
 20
427.534
 30
0.000000
  70
    32
  0
VERTEX
  8
0
  5
817
 10
311.772
 20
427.567
 30
0.000000
  70
    32
  0
VERTEX
  8
0
  5
818
 10
311.794
 20
427.600
 30
0.000000
  70
    32
  0
VERTEX
  8
0
  5
819
 10
311.816
 20
427.633
 30
0.000000
  70
    32
  0
VERTEX
  8
0
  5
81A
 10
311.839
 20
427.666
 30
0.000000
  70
    32
  0
VERTEX
  8
0
  5
81B
 10
311.861
 20
427.699
 30
0.000000
  70
    32
  0
VERTEX
  8
0
  5
81C
 10
311.884
 20
427.731
 30
0.000000
  70
    32
  0
VERTEX
  8
0
  5
81D
 10
311.907
 20
427.764
 30
0.000000
  70
    32
  0
VERTEX
  8
0
  5
81E
 10
311.931
 20
427.796
 30
0.000000
  70
    32
  0
VERTEX
  8
0
  5
81F
 10
311.954
 20
427.829
 30
0.000000
  70
    32
  0
VERTEX
  8
0
  5
820
 10
311.978
 20
427.861
 30
0.000000
  70
    32
  0
VERTEX
  8
0
  5
821
 10
312.002
 20
427.893
 30
0.000000
  70
    32
  0
VERTEX
  8
0
  5
822
 10
312.026
 20
427.925
 30
0.000000
  70
    32
  0
VERTEX
  8
0
  5
823
 10
312.050
 20
427.957
 30
0.000000
  70
    32
  0
VERTEX
  8
0
  5
824
 10
312.074
 20
427.989
 30
0.000000
  70
    32
  0
VERTEX
  8
0
  5
825
 10
312.099
 20
428.021
 30
0.000000
  70
    32
  0
VERTEX
  8
0
  5
826
 10
312.124
 20
428.052
 30
0.000000
  70
    32
  0
VERTEX
  8
0
  5
827
 10
312.149
 20
428.084
 30
0.000000
  70
    32
  0
VERTEX
  8
0
  5
828
 10
312.174
 20
428.115
 30
0.000000
  70
    32
  0
VERTEX
  8
0
  5
829
 10
312.199
 20
428.147
 30
0.000000
  70
    32
  0
VERTEX
  8
0
  5
82A
 10
312.225
 20
428.178
 30
0.000000
  70
    32
  0
VERTEX
  8
0
  5
82B
 10
312.250
 20
428.209
 30
0.000000
  70
    32
  0
VERTEX
  8
0
  5
82C
 10
312.276
 20
428.240
 30
0.000000
  70
    32
  0
VERTEX
  8
0
  5
82D
 10
312.302
 20
428.271
 30
0.000000
  70
    32
  0
VERTEX
  8
0
  5
82E
 10
312.328
 20
428.302
 30
0.000000
  70
    32
  0
VERTEX
  8
0
  5
82F
 10
312.355
 20
428.333
 30
0.000000
  70
    32
  0
VERTEX
  8
0
  5
830
 10
312.381
 20
428.364
 30
0.000000
  70
    32
  0
VERTEX
  8
0
  5
831
 10
312.408
 20
428.394
 30
0.000000
  70
    32
  0
VERTEX
  8
0
  5
832
 10
312.435
 20
428.425
 30
0.000000
  70
    32
  0
VERTEX
  8
0
  5
833
 10
312.462
 20
428.455
 30
0.000000
  70
    32
  0
VERTEX
  8
0
  5
834
 10
312.490
 20
428.486
 30
0.000000
  70
    32
  0
VERTEX
  8
0
  5
835
 10
312.517
 20
428.516
 30
0.000000
  70
    32
  0
VERTEX
  8
0
  5
836
 10
312.545
 20
428.546
 30
0.000000
  70
    32
  0
VERTEX
  8
0
  5
837
 10
312.573
 20
428.576
 30
0.000000
  70
    32
  0
VERTEX
  8
0
  5
838
 10
312.601
 20
428.606
 30
0.000000
  70
    32
  0
VERTEX
  8
0
  5
839
 10
312.629
 20
428.636
 30
0.000000
  70
    32
  0
VERTEX
  8
0
  5
83A
 10
312.657
 20
428.665
 30
0.000000
  70
    32
  0
VERTEX
  8
0
  5
83B
 10
312.686
 20
428.695
 30
0.000000
  70
    32
  0
VERTEX
  8
0
  5
83C
 10
312.714
 20
428.724
 30
0.000000
  70
    32
  0
VERTEX
  8
0
  5
83D
 10
312.743
 20
428.754
 30
0.000000
  70
    32
  0
VERTEX
  8
0
  5
83E
 10
312.772
 20
428.783
 30
0.000000
  70
    32
  0
VERTEX
  8
0
  5
83F
 10
312.801
 20
428.812
 30
0.000000
  70
    32
  0
VERTEX
  8
0
  5
840
 10
312.831
 20
428.841
 30
0.000000
  70
    32
  0
VERTEX
  8
0
  5
841
 10
312.860
 20
428.870
 30
0.000000
  70
    32
  0
VERTEX
  8
0
  5
842
 10
312.890
 20
428.899
 30
0.000000
  70
    32
  0
VERTEX
  8
0
  5
843
 10
312.920
 20
428.927
 30
0.000000
  70
    32
  0
VERTEX
  8
0
  5
844
 10
312.950
 20
428.956
 30
0.000000
  70
    32
  0
VERTEX
  8
0
  5
845
 10
312.980
 20
428.985
 30
0.000000
  70
    32
  0
VERTEX
  8
0
  5
846
 10
313.010
 20
429.013
 30
0.000000
  70
    32
  0
VERTEX
  8
0
  5
847
 10
313.041
 20
429.041
 30
0.000000
  70
    32
  0
VERTEX
  8
0
  5
848
 10
313.072
 20
429.069
 30
0.000000
  70
    32
  0
VERTEX
  8
0
  5
849
 10
313.102
 20
429.097
 30
0.000000
  70
    32
  0
VERTEX
  8
0
  5
84A
 10
313.133
 20
429.125
 30
0.000000
  70
    32
  0
VERTEX
  8
0
  5
84B
 10
313.165
 20
429.153
 30
0.000000
  70
    32
  0
VERTEX
  8
0
  5
84C
 10
313.196
 20
429.181
 30
0.000000
  70
    32
  0
VERTEX
  8
0
  5
84D
 10
313.227
 20
429.208
 30
0.000000
  70
    32
  0
VERTEX
  8
0
  5
84E
 10
313.259
 20
429.236
 30
0.000000
  70
    32
  0
VERTEX
  8
0
  5
84F
 10
313.291
 20
429.263
 30
0.000000
  70
    32
  0
VERTEX
  8
0
  5
850
 10
313.323
 20
429.290
 30
0.000000
  70
    32
  0
VERTEX
  8
0
  5
851
 10
313.355
 20
429.317
 30
0.000000
  70
    32
  0
VERTEX
  8
0
  5
852
 10
313.387
 20
429.344
 30
0.000000
  70
    32
  0
VERTEX
  8
0
  5
853
 10
313.420
 20
429.371
 30
0.000000
  70
    32
  0
VERTEX
  8
0
  5
854
 10
313.452
 20
429.398
 30
0.000000
  70
    32
  0
VERTEX
  8
0
  5
855
 10
313.485
 20
429.425
 30
0.000000
  70
    32
  0
VERTEX
  8
0
  5
856
 10
313.518
 20
429.451
 30
0.000000
  70
    32
  0
VERTEX
  8
0
  5
857
 10
313.551
 20
429.478
 30
0.000000
  70
    32
  0
VERTEX
  8
0
  5
858
 10
313.584
 20
429.504
 30
0.000000
  70
    32
  0
VERTEX
  8
0
  5
859
 10
313.617
 20
429.530
 30
0.000000
  70
    32
  0
VERTEX
  8
0
  5
85A
 10
313.651
 20
429.556
 30
0.000000
  70
    32
  0
VERTEX
  8
0
  5
85B
 10
313.684
 20
429.582
 30
0.000000
  70
    32
  0
VERTEX
  8
0
  5
85C
 10
313.718
 20
429.608
 30
0.000000
  70
    32
  0
VERTEX
  8
0
  5
85D
 10
313.752
 20
429.634
 30
0.000000
  70
    32
  0
VERTEX
  8
0
  5
85E
 10
313.786
 20
429.659
 30
0.000000
  70
    32
  0
VERTEX
  8
0
  5
85F
 10
313.820
 20
429.685
 30
0.000000
  70
    32
  0
VERTEX
  8
0
  5
860
 10
313.855
 20
429.710
 30
0.000000
  70
    32
  0
VERTEX
  8
0
  5
861
 10
313.889
 20
429.735
 30
0.000000
  70
    32
  0
VERTEX
  8
0
  5
862
 10
313.924
 20
429.760
 30
0.000000
  70
    32
  0
VERTEX
  8
0
  5
863
 10
313.959
 20
429.785
 30
0.000000
  70
    32
  0
VERTEX
  8
0
  5
864
 10
313.994
 20
429.810
 30
0.000000
  70
    32
  0
VERTEX
  8
0
  5
865
 10
314.029
 20
429.835
 30
0.000000
  70
    32
  0
VERTEX
  8
0
  5
866
 10
314.064
 20
429.860
 30
0.000000
  70
    32
  0
VERTEX
  8
0
  5
867
 10
314.099
 20
429.884
 30
0.000000
  70
    32
  0
VERTEX
  8
0
  5
868
 10
314.135
 20
429.908
 30
0.000000
  70
    32
  0
VERTEX
  8
0
  5
869
 10
314.171
 20
429.933
 30
0.000000
  70
    32
  0
VERTEX
  8
0
  5
86A
 10
314.206
 20
429.957
 30
0.000000
  70
    32
  0
VERTEX
  8
0
  5
86B
 10
314.242
 20
429.981
 30
0.000000
  70
    32
  0
VERTEX
  8
0
  5
86C
 10
314.278
 20
430.005
 30
0.000000
  70
    32
  0
VERTEX
  8
0
  5
86D
 10
314.314
 20
430.029
 30
0.000000
  70
    32
  0
VERTEX
  8
0
  5
86E
 10
314.351
 20
430.052
 30
0.000000
  70
    32
  0
VERTEX
  8
0
  5
86F
 10
314.387
 20
430.076
 30
0.000000
  70
    32
  0
VERTEX
  8
0
  5
870
 10
314.424
 20
430.099
 30
0.000000
  70
    32
  0
VERTEX
  8
0
  5
871
 10
314.460
 20
430.122
 30
0.000000
  70
    32
  0
VERTEX
  8
0
  5
872
 10
314.497
 20
430.145
 30
0.000000
  70
    32
  0
VERTEX
  8
0
  5
873
 10
314.534
 20
430.168
 30
0.000000
  70
    32
  0
VERTEX
  8
0
  5
874
 10
314.571
 20
430.191
 30
0.000000
  70
    32
  0
VERTEX
  8
0
  5
875
 10
314.609
 20
430.214
 30
0.000000
  70
    32
  0
VERTEX
  8
0
  5
876
 10
314.646
 20
430.237
 30
0.000000
  70
    32
  0
VERTEX
  8
0
  5
877
 10
314.684
 20
430.259
 30
0.000000
  70
    32
  0
VERTEX
  8
0
  5
878
 10
314.721
 20
430.282
 30
0.000000
  70
    32
  0
VERTEX
  8
0
  5
879
 10
314.759
 20
430.304
 30
0.000000
  70
    32
  0
VERTEX
  8
0
  5
87A
 10
314.797
 20
430.326
 30
0.000000
  70
    32
  0
VERTEX
  8
0
  5
87B
 10
314.835
 20
430.348
 30
0.000000
  70
    32
  0
VERTEX
  8
0
  5
87C
 10
314.873
 20
430.370
 30
0.000000
  70
    32
  0
VERTEX
  8
0
  5
87D
 10
314.911
 20
430.392
 30
0.000000
  70
    32
  0
VERTEX
  8
0
  5
87E
 10
314.950
 20
430.413
 30
0.000000
  70
    32
  0
VERTEX
  8
0
  5
87F
 10
314.988
 20
430.435
 30
0.000000
  70
    32
  0
VERTEX
  8
0
  5
880
 10
315.027
 20
430.456
 30
0.000000
  70
    32
  0
VERTEX
  8
0
  5
881
 10
315.065
 20
430.477
 30
0.000000
  70
    32
  0
VERTEX
  8
0
  5
882
 10
315.104
 20
430.498
 30
0.000000
  70
    32
  0
VERTEX
  8
0
  5
883
 10
315.143
 20
430.519
 30
0.000000
  70
    32
  0
VERTEX
  8
0
  5
884
 10
315.182
 20
430.540
 30
0.000000
  70
    32
  0
VERTEX
  8
0
  5
885
 10
315.222
 20
430.561
 30
0.000000
  70
    32
  0
VERTEX
  8
0
  5
886
 10
315.261
 20
430.581
 30
0.000000
  70
    32
  0
VERTEX
  8
0
  5
887
 10
315.300
 20
430.602
 30
0.000000
  70
    32
  0
VERTEX
  8
0
  5
888
 10
315.340
 20
430.622
 30
0.000000
  70
    32
  0
VERTEX
  8
0
  5
889
 10
315.380
 20
430.642
 30
0.000000
  70
    32
  0
VERTEX
  8
0
  5
88A
 10
315.419
 20
430.662
 30
0.000000
  70
    32
  0
VERTEX
  8
0
  5
88B
 10
315.459
 20
430.682
 30
0.000000
  70
    32
  0
VERTEX
  8
0
  5
88C
 10
315.499
 20
430.702
 30
0.000000
  70
    32
  0
VERTEX
  8
0
  5
88D
 10
315.539
 20
430.722
 30
0.000000
  70
    32
  0
VERTEX
  8
0
  5
88E
 10
315.580
 20
430.741
 30
0.000000
  70
    32
  0
VERTEX
  8
0
  5
88F
 10
315.620
 20
430.761
 30
0.000000
  70
    32
  0
VERTEX
  8
0
  5
890
 10
315.660
 20
430.780
 30
0.000000
  70
    32
  0
VERTEX
  8
0
  5
891
 10
315.701
 20
430.799
 30
0.000000
  70
    32
  0
VERTEX
  8
0
  5
892
 10
315.742
 20
430.818
 30
0.000000
  70
    32
  0
VERTEX
  8
0
  5
893
 10
315.782
 20
430.837
 30
0.000000
  70
    32
  0
VERTEX
  8
0
  5
894
 10
315.823
 20
430.856
 30
0.000000
  70
    32
  0
VERTEX
  8
0
  5
895
 10
315.864
 20
430.874
 30
0.000000
  70
    32
  0
VERTEX
  8
0
  5
896
 10
315.905
 20
430.893
 30
0.000000
  70
    32
  0
VERTEX
  8
0
  5
897
 10
315.947
 20
430.911
 30
0.000000
  70
    32
  0
VERTEX
  8
0
  5
898
 10
315.988
 20
430.929
 30
0.000000
  70
    32
  0
VERTEX
  8
0
  5
899
 10
316.029
 20
430.947
 30
0.000000
  70
    32
  0
VERTEX
  8
0
  5
89A
 10
316.071
 20
430.965
 30
0.000000
  70
    32
  0
VERTEX
  8
0
  5
89B
 10
316.112
 20
430.983
 30
0.000000
  70
    32
  0
VERTEX
  8
0
  5
89C
 10
316.154
 20
431.000
 30
0.000000
  70
    32
  0
VERTEX
  8
0
  5
89D
 10
316.196
 20
431.018
 30
0.000000
  70
    32
  0
VERTEX
  8
0
  5
89E
 10
316.238
 20
431.035
 30
0.000000
  70
    32
  0
VERTEX
  8
0
  5
89F
 10
316.280
 20
431.052
 30
0.000000
  70
    32
  0
VERTEX
  8
0
  5
8A0
 10
316.322
 20
431.069
 30
0.000000
  70
    32
  0
VERTEX
  8
0
  5
8A1
 10
316.364
 20
431.086
 30
0.000000
  70
    32
  0
VERTEX
  8
0
  5
8A2
 10
316.407
 20
431.103
 30
0.000000
  70
    32
  0
VERTEX
  8
0
  5
8A3
 10
316.449
 20
431.120
 30
0.000000
  70
    32
  0
VERTEX
  8
0
  5
8A4
 10
316.491
 20
431.136
 30
0.000000
  70
    32
  0
VERTEX
  8
0
  5
8A5
 10
316.534
 20
431.153
 30
0.000000
  70
    32
  0
VERTEX
  8
0
  5
8A6
 10
316.577
 20
431.169
 30
0.000000
  70
    32
  0
VERTEX
  8
0
  5
8A7
 10
316.620
 20
431.185
 30
0.000000
  70
    32
  0
VERTEX
  8
0
  5
8A8
 10
316.662
 20
431.201
 30
0.000000
  70
    32
  0
VERTEX
  8
0
  5
8A9
 10
316.705
 20
431.217
 30
0.000000
  70
    32
  0
VERTEX
  8
0
  5
8AA
 10
316.748
 20
431.232
 30
0.000000
  70
    32
  0
VERTEX
  8
0
  5
8AB
 10
316.792
 20
431.248
 30
0.000000
  70
    32
  0
VERTEX
  8
0
  5
8AC
 10
316.835
 20
431.263
 30
0.000000
  70
    32
  0
VERTEX
  8
0
  5
8AD
 10
316.878
 20
431.279
 30
0.000000
  70
    32
  0
VERTEX
  8
0
  5
8AE
 10
316.921
 20
431.294
 30
0.000000
  70
    32
  0
VERTEX
  8
0
  5
8AF
 10
316.965
 20
431.309
 30
0.000000
  70
    32
  0
VERTEX
  8
0
  5
8B0
 10
317.008
 20
431.324
 30
0.000000
  70
    32
  0
VERTEX
  8
0
  5
8B1
 10
317.052
 20
431.338
 30
0.000000
  70
    32
  0
VERTEX
  8
0
  5
8B2
 10
317.096
 20
431.353
 30
0.000000
  70
    32
  0
VERTEX
  8
0
  5
8B3
 10
317.140
 20
431.367
 30
0.000000
  70
    32
  0
VERTEX
  8
0
  5
8B4
 10
317.184
 20
431.381
 30
0.000000
  70
    32
  0
VERTEX
  8
0
  5
8B5
 10
317.228
 20
431.396
 30
0.000000
  70
    32
  0
VERTEX
  8
0
  5
8B6
 10
317.272
 20
431.410
 30
0.000000
  70
    32
  0
VERTEX
  8
0
  5
8B7
 10
317.316
 20
431.423
 30
0.000000
  70
    32
  0
VERTEX
  8
0
  5
8B8
 10
317.360
 20
431.437
 30
0.000000
  70
    32
  0
VERTEX
  8
0
  5
8B9
 10
317.404
 20
431.451
 30
0.000000
  70
    32
  0
VERTEX
  8
0
  5
8BA
 10
317.449
 20
431.464
 30
0.000000
  70
    32
  0
VERTEX
  8
0
  5
8BB
 10
317.493
 20
431.477
 30
0.000000
  70
    32
  0
VERTEX
  8
0
  5
8BC
 10
317.538
 20
431.491
 30
0.000000
  70
    32
  0
VERTEX
  8
0
  5
8BD
 10
317.582
 20
431.504
 30
0.000000
  70
    32
  0
VERTEX
  8
0
  5
8BE
 10
317.627
 20
431.516
 30
0.000000
  70
    32
  0
VERTEX
  8
0
  5
8BF
 10
317.672
 20
431.529
 30
0.000000
  70
    32
  0
VERTEX
  8
0
  5
8C0
 10
317.716
 20
431.542
 30
0.000000
  70
    32
  0
VERTEX
  8
0
  5
8C1
 10
317.761
 20
431.554
 30
0.000000
  70
    32
  0
VERTEX
  8
0
  5
8C2
 10
317.806
 20
431.566
 30
0.000000
  70
    32
  0
VERTEX
  8
0
  5
8C3
 10
317.851
 20
431.578
 30
0.000000
  70
    32
  0
VERTEX
  8
0
  5
8C4
 10
317.896
 20
431.590
 30
0.000000
  70
    32
  0
VERTEX
  8
0
  5
8C5
 10
317.941
 20
431.602
 30
0.000000
  70
    32
  0
VERTEX
  8
0
  5
8C6
 10
317.987
 20
431.614
 30
0.000000
  70
    32
  0
VERTEX
  8
0
  5
8C7
 10
318.032
 20
431.626
 30
0.000000
  70
    32
  0
VERTEX
  8
0
  5
8C8
 10
318.077
 20
431.637
 30
0.000000
  70
    32
  0
VERTEX
  8
0
  5
8C9
 10
318.123
 20
431.648
 30
0.000000
  70
    32
  0
VERTEX
  8
0
  5
8CA
 10
318.168
 20
431.659
 30
0.000000
  70
    32
  0
VERTEX
  8
0
  5
8CB
 10
318.214
 20
431.670
 30
0.000000
  70
    32
  0
VERTEX
  8
0
  5
8CC
 10
318.259
 20
431.681
 30
0.000000
  70
    32
  0
VERTEX
  8
0
  5
8CD
 10
318.305
 20
431.692
 30
0.000000
  70
    32
  0
VERTEX
  8
0
  5
8CE
 10
318.351
 20
431.702
 30
0.000000
  70
    32
  0
VERTEX
  8
0
  5
8CF
 10
318.397
 20
431.713
 30
0.000000
  70
    32
  0
VERTEX
  8
0
  5
8D0
 10
318.442
 20
431.723
 30
0.000000
  70
    32
  0
VERTEX
  8
0
  5
8D1
 10
318.488
 20
431.733
 30
0.000000
  70
    32
  0
VERTEX
  8
0
  5
8D2
 10
318.534
 20
431.743
 30
0.000000
  70
    32
  0
VERTEX
  8
0
  5
8D3
 10
318.580
 20
431.753
 30
0.000000
  70
    32
  0
VERTEX
  8
0
  5
8D4
 10
318.626
 20
431.763
 30
0.000000
  70
    32
  0
VERTEX
  8
0
  5
8D5
 10
318.672
 20
431.772
 30
0.000000
  70
    32
  0
VERTEX
  8
0
  5
8D6
 10
318.719
 20
431.781
 30
0.000000
  70
    32
  0
VERTEX
  8
0
  5
8D7
 10
318.765
 20
431.791
 30
0.000000
  70
    32
  0
VERTEX
  8
0
  5
8D8
 10
318.811
 20
431.800
 30
0.000000
  70
    32
  0
VERTEX
  8
0
  5
8D9
 10
318.857
 20
431.809
 30
0.000000
  70
    32
  0
VERTEX
  8
0
  5
8DA
 10
318.904
 20
431.817
 30
0.000000
  70
    32
  0
VERTEX
  8
0
  5
8DB
 10
318.950
 20
431.826
 30
0.000000
  70
    32
  0
VERTEX
  8
0
  5
8DC
 10
318.997
 20
431.835
 30
0.000000
  70
    32
  0
VERTEX
  8
0
  5
8DD
 10
319.043
 20
431.843
 30
0.000000
  70
    32
  0
VERTEX
  8
0
  5
8DE
 10
319.090
 20
431.851
 30
0.000000
  70
    32
  0
VERTEX
  8
0
  5
8DF
 10
319.136
 20
431.859
 30
0.000000
  70
    32
  0
VERTEX
  8
0
  5
8E0
 10
319.183
 20
431.867
 30
0.000000
  70
    32
  0
VERTEX
  8
0
  5
8E1
 10
319.230
 20
431.875
 30
0.000000
  70
    32
  0
VERTEX
  8
0
  5
8E2
 10
319.276
 20
431.882
 30
0.000000
  70
    32
  0
VERTEX
  8
0
  5
8E3
 10
319.323
 20
431.890
 30
0.000000
  70
    32
  0
VERTEX
  8
0
  5
8E4
 10
319.370
 20
431.897
 30
0.000000
  70
    32
  0
VERTEX
  8
0
  5
8E5
 10
319.417
 20
431.904
 30
0.000000
  70
    32
  0
VERTEX
  8
0
  5
8E6
 10
319.464
 20
431.911
 30
0.000000
  70
    32
  0
VERTEX
  8
0
  5
8E7
 10
319.511
 20
431.918
 30
0.000000
  70
    32
  0
VERTEX
  8
0
  5
8E8
 10
319.558
 20
431.925
 30
0.000000
  70
    32
  0
VERTEX
  8
0
  5
8E9
 10
319.605
 20
431.931
 30
0.000000
  70
    32
  0
VERTEX
  8
0
  5
8EA
 10
319.652
 20
431.938
 30
0.000000
  70
    32
  0
VERTEX
  8
0
  5
8EB
 10
319.699
 20
431.944
 30
0.000000
  70
    32
  0
VERTEX
  8
0
  5
8EC
 10
319.746
 20
431.950
 30
0.000000
  70
    32
  0
VERTEX
  8
0
  5
8ED
 10
319.793
 20
431.956
 30
0.000000
  70
    32
  0
VERTEX
  8
0
  5
8EE
 10
319.841
 20
431.962
 30
0.000000
  70
    32
  0
VERTEX
  8
0
  5
8EF
 10
319.888
 20
431.968
 30
0.000000
  70
    32
  0
VERTEX
  8
0
  5
8F0
 10
319.935
 20
431.973
 30
0.000000
  70
    32
  0
VERTEX
  8
0
  5
8F1
 10
319.982
 20
431.979
 30
0.000000
  70
    32
  0
VERTEX
  8
0
  5
8F2
 10
320.030
 20
431.984
 30
0.000000
  70
    32
  0
VERTEX
  8
0
  5
8F3
 10
320.077
 20
431.989
 30
0.000000
  70
    32
  0
VERTEX
  8
0
  5
8F4
 10
320.124
 20
431.994
 30
0.000000
  70
    32
  0
VERTEX
  8
0
  5
8F5
 10
320.172
 20
431.998
 30
0.000000
  70
    32
  0
VERTEX
  8
0
  5
8F6
 10
320.219
 20
432.003
 30
0.000000
  70
    32
  0
VERTEX
  8
0
  5
8F7
 10
320.267
 20
432.008
 30
0.000000
  70
    32
  0
VERTEX
  8
0
  5
8F8
 10
320.314
 20
432.012
 30
0.000000
  70
    32
  0
VERTEX
  8
0
  5
8F9
 10
320.362
 20
432.016
 30
0.000000
  70
    32
  0
VERTEX
  8
0
  5
8FA
 10
320.409
 20
432.020
 30
0.000000
  70
    32
  0
VERTEX
  8
0
  5
8FB
 10
320.457
 20
432.024
 30
0.000000
  70
    32
  0
VERTEX
  8
0
  5
8FC
 10
320.505
 20
432.028
 30
0.000000
  70
    32
  0
VERTEX
  8
0
  5
8FD
 10
320.552
 20
432.031
 30
0.000000
  70
    32
  0
VERTEX
  8
0
  5
8FE
 10
320.600
 20
432.035
 30
0.000000
  70
    32
  0
VERTEX
  8
0
  5
8FF
 10
320.647
 20
432.038
 30
0.000000
  70
    32
  0
VERTEX
  8
0
  5
900
 10
320.695
 20
432.041
 30
0.000000
  70
    32
  0
VERTEX
  8
0
  5
901
 10
320.743
 20
432.044
 30
0.000000
  70
    32
  0
VERTEX
  8
0
  5
902
 10
320.790
 20
432.047
 30
0.000000
  70
    32
  0
VERTEX
  8
0
  5
903
 10
320.838
 20
432.049
 30
0.000000
  70
    32
  0
VERTEX
  8
0
  5
904
 10
320.886
 20
432.052
 30
0.000000
  70
    32
  0
VERTEX
  8
0
  5
905
 10
320.934
 20
432.054
 30
0.000000
  70
    32
  0
VERTEX
  8
0
  5
906
 10
320.981
 20
432.056
 30
0.000000
  70
    32
  0
VERTEX
  8
0
  5
907
 10
321.029
 20
432.058
 30
0.000000
  70
    32
  0
VERTEX
  8
0
  5
908
 10
321.077
 20
432.060
 30
0.000000
  70
    32
  0
VERTEX
  8
0
  5
909
 10
321.125
 20
432.062
 30
0.000000
  70
    32
  0
VERTEX
  8
0
  5
90A
 10
321.173
 20
432.063
 30
0.000000
  70
    32
  0
VERTEX
  8
0
  5
90B
 10
321.220
 20
432.065
 30
0.000000
  70
    32
  0
VERTEX
  8
0
  5
90C
 10
321.268
 20
432.066
 30
0.000000
  70
    32
  0
VERTEX
  8
0
  5
90D
 10
321.316
 20
432.067
 30
0.000000
  70
    32
  0
VERTEX
  8
0
  5
90E
 10
321.364
 20
432.068
 30
0.000000
  70
    32
  0
VERTEX
  8
0
  5
90F
 10
321.412
 20
432.069
 30
0.000000
  70
    32
  0
VERTEX
  8
0
  5
910
 10
321.459
 20
432.070
 30
0.000000
  70
    32
  0
VERTEX
  8
0
  5
911
 10
321.507
 20
432.070
 30
0.000000
  70
    32
  0
VERTEX
  8
0
  5
912
 10
321.555
 20
432.071
 30
0.000000
  70
    32
  0
VERTEX
  8
0
  5
913
 10
321.603
 20
432.071
 30
0.000000
  70
    32
  0
VERTEX
  8
0
  5
914
 10
321.651
 20
432.071
 30
0.000000
  70
    32
  0
SEQEND
  8
0
  5
915
  0
ARC
  5
290
  8
0
 10
381.65083926014358
 20
3653.0277973444581
 30
0.0
 40
3260.779591976122
 50
266.96036458569841
 51
273.03963541430159
  0
POLYLINE
  5
291
  8
0
 66
     1
 10
0.0
 20
0.0
 30
0.0
 70
   128
  0
VERTEX
  5
334
  8
0
 10
381.65088217205721
 20
198.07026928061779
 30
0.0
  0
VERTEX
  5
335
  8
0
 10
404.97665269955269
 20
198.08417993225771
 30
0.0
  0
VERTEX
  5
336
  8
0
 10
430.24366861186439
 20
198.14340260625499
 30
0.0
  0
VERTEX
  5
337
  8
0
 10
454.33170337525098
 20
198.24020093767709
 30
0.0
  0
VERTEX
  5
338
  8
0
 10
477.21166319522212
 20
198.36891772521511
 30
0.0
  0
VERTEX
  5
339
  8
0
 10
473.92847051169969
 20
198.52404658181209
 30
0.0
  0
VERTEX
  5
33A
  8
0
 10
469.5567909652263
 20
198.7005278422391
 30
0.0
  0
VERTEX
  5
33B
  8
0
 10
489.15389290291472
 20
198.8938347870087
 30
0.0
  0
VERTEX
  5
33C
  8
0
 10
508.25297563113509
 20
199.1059275488503
 30
0.0
  0
VERTEX
  5
33D
  8
0
 10
526.60090770166516
 20
199.33322819508859
 30
0.0
  0
VERTEX
  5
33E
  8
0
 10
544.32281641654015
 20
199.5746031967744
 30
0.0
  0
VERTEX
  5
33F
  8
0
 10
552.45151160982005
 20
199.69207558072111
 30
0.0
  0
VERTEX
  5
340
  8
0
 10
560.44457606441665
 20
199.81183492405651
 30
0.0
  0
VERTEX
  5
341
  8
0
 10
568.20182404247043
 20
199.93224154098311
 30
0.0
  0
VERTEX
  5
342
  8
0
 10
575.07347591649614
 20
200.1368957313814
 30
0.0
  0
VERTEX
  5
343
  8
0
 10
580.89844914471985
 20
200.95063582781839
 30
0.0
  0
VERTEX
  5
344
  8
0
 10
586.78462312961608
 20
202.55238617123069
 30
0.0
  0
VERTEX
  5
345
  8
0
 10
591.96506784109886
 20
204.68868016499141
 30
0.0
  0
VERTEX
  5
346
  8
0
 10
596.34519673923467
 20
207.11028244378281
 30
0.0
  0
VERTEX
  5
347
  8
0
 10
598.97763021888647
 20
208.88387327017949
 30
0.0
  0
VERTEX
  5
348
  8
0
 10
601.25879282349979
 20
210.64938298400261
 30
0.0
  0
VERTEX
  5
349
  8
0
 10
603.1226495916917
 20
212.27293519853521
 30
0.0
  0
VERTEX
  5
34A
  8
0
 10
604.82545681437023
 20
213.92444761398539
 30
0.0
  0
VERTEX
  5
34B
  8
0
 10
606.90736785353602
 20
216.1992857069479
 30
0.0
  0
VERTEX
  5
34C
  8
0
 10
609.25193596456575
 20
219.1676155570301
 30
0.0
  0
VERTEX
  5
34D
  8
0
 10
611.23186369412633
 20
222.1156776745145
 30
0.0
  0
VERTEX
  5
34E
  8
0
 10
612.7318837607553
 20
224.72742841665121
 30
0.0
  0
VERTEX
  5
34F
  8
0
 10
613.84529259231294
 20
226.9644186107387
 30
0.0
  0
VERTEX
  5
350
  8
0
 10
614.65738071168835
 20
228.8217538352026
 30
0.0
  0
VERTEX
  5
351
  8
0
 10
615.55749624332657
 20
231.19987785561059
 30
0.0
  0
VERTEX
  5
352
  8
0
 10
616.51805996468556
 20
234.3175054507071
 30
0.0
  0
VERTEX
  5
353
  8
0
 10
617.38928550729986
 20
238.1979089532058
 30
0.0
  0
VERTEX
  5
354
  8
0
 10
617.99556220747297
 20
242.90842778474209
 30
0.0
  0
VERTEX
  5
355
  8
0
 10
618.15196495937107
 20
249.08159185838551
 30
0.0
  0
VERTEX
  5
356
  8
0
 10
618.1517316552663
 20
256.89074686313211
 30
0.0
  0
VERTEX
  5
357
  8
0
 10
618.15250656076114
 20
283.29500815029661
 30
0.0
  0
VERTEX
  5
358
  8
0
 10
618.1532218011406
 20
293.11879392939568
 30
0.0
  0
VERTEX
  5
359
  8
0
 10
618.15387744158124
 20
303.86448791218908
 30
0.0
  0
VERTEX
  5
35A
  8
0
 10
618.15444367647524
 20
315.53210740975169
 30
0.0
  0
VERTEX
  5
35B
  8
0
 10
618.15483109561228
 20
329.99532795776372
 30
0.0
  0
VERTEX
  5
35C
  8
0
 10
618.15495030044895
 20
345.66280558314952
 30
0.0
  0
VERTEX
  5
35D
  8
0
 10
618.15468208086259
 20
362.5345962364006
 30
0.0
  0
VERTEX
  5
35E
  8
0
 10
618.15390723117787
 20
380.61071159833932
 30
0.0
  0
VERTEX
  5
35F
  8
0
 10
618.15088501733499
 20
399.57027167963298
 30
0.0
  0
VERTEX
  5
360
  8
0
 10
618.15088501733499
 20
399.57027167963298
 30
0.0
  0
VERTEX
  5
361
  8
0
 10
618.15088501733499
 20
399.57027167963298
 30
0.0
  0
SEQEND
  5
362
  8
0
  0
POLYLINE
  5
292
  8
0
 66
     1
 10
0.0
 20
0.0
 30
0.0
 70
   128
  0
VERTEX
  5
363
  8
0
 10
381.65091172842489
 20
184.57027167960649
 30
0.0
  0
VERTEX
  5
364
  8
0
 10
404.99649788684007
 20
184.5841893641616
 30
0.0
  0
VERTEX
  5
365
  8
0
 10
430.28661455458757
 20
184.6434661833907
 30
0.0
  0
VERTEX
  5
366
  8
0
 10
454.39680139965179
 20
184.7403535334731
 30
0.0
  0
VERTEX
  5
367
  8
0
 10
477.29785214609268
 20
184.8691889731551
 30
0.0
  0
VERTEX
  5
368
  8
0
 10
474.03443239053649
 20
185.024459072795
 30
0.0
  0
VERTEX
  5
369
  8
0
 10
469.6811162622825
 20
185.2010974375869
 30
0.0
  0
VERTEX
  5
36A
  8
0
 10
489.29542533477701
 20
185.39457411452781
 30
0.0
  0
VERTEX
  5
36B
  8
0
 10
508.41154388507761
 20
185.60685605689531
 30
0.0
  0
VERTEX
  5
36C
  8
0
 10
526.77645019611282
 20
185.834366986003
 30
0.0
  0
VERTEX
  5
36D
  8
0
 10
544.50667134841842
 20
186.0758552043105
 30
0.0
  0
VERTEX
  5
36E
  8
0
 10
552.64657966216964
 20
186.1934849707747
 30
0.0
  0
VERTEX
  5
36F
  8
0
 10
560.64681939205093
 20
186.31334991141799
 30
0.0
  0
VERTEX
  5
370
  8
0
 10
568.50753954967422
 20
186.4353606192733
 30
0.0
  0
VERTEX
  5
371
  8
0
 10
576.21169320663375
 20
186.66480869933611
 30
0.0
  0
VERTEX
  5
372
  8
0
 10
583.61563316902084
 20
187.69912810012349
 30
0.0
  0
VERTEX
  5
373
  8
0
 10
591.14745489677352
 20
189.7486934153701
 30
0.0
  0
VERTEX
  5
374
  8
0
 10
597.82329432090683
 20
192.50165314361101
 30
0.0
  0
VERTEX
  5
375
  8
0
 10
603.39632860740585
 20
195.58276624366289
 30
0.0
  0
VERTEX
  5
376
  8
0
 10
606.88916079124374
 20
197.9360470263625
 30
0.0
  0
VERTEX
  5
377
  8
0
 10
609.83091823181076
 20
200.2128252474929
 30
0.0
  0
VERTEX
  5
378
  8
0
 10
612.26219169219894
 20
202.33063788100731
 30
0.0
  0
VERTEX
  5
379
  8
0
 10
614.51292268356235
 20
204.5135685889388
 30
0.0
  0
VERTEX
  5
37A
  8
0
 10
617.19733707031173
 20
207.44674296065821
 30
0.0
  0
VERTEX
  5
37B
  8
0
 10
620.16865841468734
 20
211.20857090636741
 30
0.0
  0
VERTEX
  5
37C
  8
0
 10
622.70277968963535
 20
214.9818131415511
 30
0.0
  0
VERTEX
  5
37D
  8
0
 10
624.63858954032821
 20
218.35233659430989
 30
0.0
  0
VERTEX
  5
37E
  8
0
 10
626.08036629280014
 20
221.2490627257491
 30
0.0
  0
VERTEX
  5
37F
  8
0
 10
627.16290585121067
 20
223.72495026275169
 30
0.0
  0
VERTEX
  5
380
  8
0
 10
628.33383909782333
 20
226.8185803382064
 30
0.0
  0
VERTEX
  5
381
  8
0
 10
629.5747183950798
 20
230.8460065810348
 30
0.0
  0
VERTEX
  5
382
  8
0
 10
630.6987725885765
 20
235.85249871894371
 30
0.0
  0
VERTEX
  5
383
  8
0
 10
631.47366277297886
 20
241.87307448073869
 30
0.0
  0
VERTEX
  5
384
  8
0
 10
631.65197006782455
 20
248.91080350562581
 30
0.0
  0
VERTEX
  5
385
  8
0
 10
631.65173164924545
 20
256.89115018531328
 30
0.0
  0
VERTEX
  5
386
  8
0
 10
631.65250650962571
 20
283.29383308577212
 30
0.0
  0
VERTEX
  5
387
  8
0
 10
631.65322176536301
 20
293.11781103300717
 30
0.0
  0
VERTEX
  5
388
  8
0
 10
631.65387741645554
 20
303.86366421866092
 30
0.0
  0
VERTEX
  5
389
  8
0
 10
631.65444366058091
 20
315.5314522473779
 30
0.0
  0
VERTEX
  5
38A
  8
0
 10
631.65483109077195
 20
329.99496633696231
 30
0.0
  0
VERTEX
  5
38B
  8
0
 10
631.6549503000615
 20
345.66270286726632
 30
0.0
  0
VERTEX
  5
38C
  8
0
 10
631.65468207916001
 20
362.53481084990182
 30
0.0
  0
VERTEX
  5
38D
  8
0
 10
631.65390721877793
 20
380.6112902848688
 30
0.0
  0
VERTEX
  5
38E
  8
0
 10
631.65262571891526
 20
399.89220077681222
 30
0.0
  0
VERTEX
  5
38F
  8
0
 10
631.65077797492722
 20
420.37757212805423
 30
0.0
  0
VERTEX
  5
390
  8
0
 10
631.65088501733669
 20
530.5702716796028
 30
0.0
  0
SEQEND
  5
391
  8
0
  0
ENDBLK
  5
27E
  8
0
  0
BLOCK
  8
0
  2
*U2
 70
     1
 10
0.0
 20
0.0
 30
0.0
  3
*U2
  1

  0
TEXT
  5
2D1
  8
0
 62
     0
 10
13.08774661053099
 20
6.4433363259259124
 30
0.0
 40
20.0
  1
LAVAMANOS  DE 50x35 CM CON SEMICOLUMNA.  SERIE 
  0
TEXT
  5
2D2
  8
0
 62
     0
 10
13.07332699986048
 20
-26.88999700740742
 30
0.0
 40
20.0
  1
EMMA SQUARE 
  0
ENDBLK
  5
2D4
  8
0
  0
ENDSEC
  0
SECTION
  2
ENTITIES
  0
INSERT
  5
6B
  8
0
  2
*U2
 10
0.0
 20
0.0
 30
0.0
  0
INSERT
  5
293
  8
0
  2
27080_P
 10
0.0
 20
0.0
 30
0.0
  0
ENDSEC
  0
EOF
