  0
SECTION
  2
HEADER
  9
$ACADVER
  1
AC1024
  9
$ACADMAINTVER
 70
   226
  9
$DWGCODEPAGE
  3
ANSI_1252
  9
$INSBASE
 10
0.0
 20
0.0
 30
0.0
  9
$EXTMIN
 10
1.000000000000000E+20
 20
1.000000000000000E+20
 30
1.000000000000000E+20
  9
$EXTMAX
 10
-1.000000000000000E+20
 20
-1.000000000000000E+20
 30
-1.000000000000000E+20
  9
$LIMMIN
 10
0.0
 20
0.0
  9
$LIMMAX
 10
12.0
 20
9.0
  9
$ORTHOMODE
 70
     0
  9
$REGENMODE
 70
     1
  9
$FILLMODE
 70
     1
  9
$QTEXTMODE
 70
     0
  9
$MIRRTEXT
 70
     0
  9
$LTSCALE
 40
1.0
  9
$ATTMODE
 70
     1
  9
$TEXTSIZE
 40
0.2
  9
$TRACEWID
 40
0.05
  9
$TEXTSTYLE
  7
Standard
  9
$CLAYER
  8
0
  9
$CELTYPE
  6
ByLayer
  9
$CECOLOR
 62
   256
  9
$CELTSCALE
 40
1.0
  9
$DISPSILH
 70
     0
  9
$DIMSCALE
 40
1.0
  9
$DIMASZ
 40
0.18
  9
$DIMEXO
 40
0.0625
  9
$DIMDLI
 40
0.38
  9
$DIMRND
 40
0.0
  9
$DIMDLE
 40
0.0
  9
$DIMEXE
 40
0.18
  9
$DIMTP
 40
0.0
  9
$DIMTM
 40
0.0
  9
$DIMTXT
 40
0.18
  9
$DIMCEN
 40
0.09
  9
$DIMTSZ
 40
0.0
  9
$DIMTOL
 70
     0
  9
$DIMLIM
 70
     0
  9
$DIMTIH
 70
     1
  9
$DIMTOH
 70
     1
  9
$DIMSE1
 70
     0
  9
$DIMSE2
 70
     0
  9
$DIMTAD
 70
     0
  9
$DIMZIN
 70
     0
  9
$DIMBLK
  1

  9
$DIMASO
 70
     1
  9
$DIMSHO
 70
     1
  9
$DIMPOST
  1

  9
$DIMAPOST
  1

  9
$DIMALT
 70
     0
  9
$DIMALTD
 70
     2
  9
$DIMALTF
 40
25.4
  9
$DIMLFAC
 40
1.0
  9
$DIMTOFL
 70
     0
  9
$DIMTVP
 40
0.0
  9
$DIMTIX
 70
     0
  9
$DIMSOXD
 70
     0
  9
$DIMSAH
 70
     0
  9
$DIMBLK1
  1

  9
$DIMBLK2
  1

  9
$DIMSTYLE
  2
Standard
  9
$DIMCLRD
 70
     0
  9
$DIMCLRE
 70
     0
  9
$DIMCLRT
 70
     0
  9
$DIMTFAC
 40
1.0
  9
$DIMGAP
 40
0.09
  9
$DIMJUST
 70
     0
  9
$DIMSD1
 70
     0
  9
$DIMSD2
 70
     0
  9
$DIMTOLJ
 70
     1
  9
$DIMTZIN
 70
     0
  9
$DIMALTZ
 70
     0
  9
$DIMALTTZ
 70
     0
  9
$DIMUPT
 70
     0
  9
$DIMDEC
 70
     4
  9
$DIMTDEC
 70
     4
  9
$DIMALTU
 70
     2
  9
$DIMALTTD
 70
     2
  9
$DIMTXSTY
  7
Standard
  9
$DIMAUNIT
 70
     0
  9
$DIMADEC
 70
     0
  9
$DIMALTRND
 40
0.0
  9
$DIMAZIN
 70
     0
  9
$DIMDSEP
 70
    46
  9
$DIMATFIT
 70
     3
  9
$DIMFRAC
 70
     0
  9
$DIMLDRBLK
  1

  9
$DIMLUNIT
 70
     2
  9
$DIMLWD
 70
    -2
  9
$DIMLWE
 70
    -2
  9
$DIMTMOVE
 70
     0
  9
$DIMFXL
 40
1.0
  9
$DIMFXLON
 70
     0
  9
$DIMJOGANG
 40
0.7853981633974483
  9
$DIMTFILL
 70
     0
  9
$DIMTFILLCLR
 70
     0
  9
$DIMARCSYM
 70
     0
  9
$DIMLTYPE
  6

  9
$DIMLTEX1
  6

  9
$DIMLTEX2
  6

  9
$DIMTXTDIRECTION
 70
     0
  9
$LUNITS
 70
     2
  9
$LUPREC
 70
     4
  9
$SKETCHINC
 40
0.1
  9
$FILLETRAD
 40
0.0
  9
$AUNITS
 70
     0
  9
$AUPREC
 70
     0
  9
$MENU
  1
.
  9
$ELEVATION
 40
0.0
  9
$PELEVATION
 40
0.0
  9
$THICKNESS
 40
0.0
  9
$LIMCHECK
 70
     0
  9
$CHAMFERA
 40
0.0
  9
$CHAMFERB
 40
0.0
  9
$CHAMFERC
 40
0.0
  9
$CHAMFERD
 40
0.0
  9
$SKPOLY
 70
     0
  9
$TDCREATE
 40
2459620.794537037
  9
$TDUCREATE
 40
2459620.752870371
  9
$TDUPDATE
 40
2459620.794537037
  9
$TDUUPDATE
 40
2459620.752870371
  9
$TDINDWG
 40
0.0000000000
  9
$TDUSRTIMER
 40
0.0000000000
  9
$USRTIMER
 70
     1
  9
$ANGBASE
 50
0.0
  9
$ANGDIR
 70
     0
  9
$PDMODE
 70
     0
  9
$PDSIZE
 40
0.0
  9
$PLINEWID
 40
0.0
  9
$SPLFRAME
 70
     0
  9
$SPLINETYPE
 70
     6
  9
$SPLINESEGS
 70
     8
  9
$HANDSEED
  5
154
  9
$SURFTAB1
 70
     6
  9
$SURFTAB2
 70
     6
  9
$SURFTYPE
 70
     6
  9
$SURFU
 70
     6
  9
$SURFV
 70
     6
  9
$UCSBASE
  2

  9
$UCSNAME
  2

  9
$UCSORG
 10
0.0
 20
0.0
 30
0.0
  9
$UCSXDIR
 10
1.0
 20
0.0
 30
0.0
  9
$UCSYDIR
 10
0.0
 20
1.0
 30
0.0
  9
$UCSORTHOREF
  2

  9
$UCSORTHOVIEW
 70
     0
  9
$UCSORGTOP
 10
0.0
 20
0.0
 30
0.0
  9
$UCSORGBOTTOM
 10
0.0
 20
0.0
 30
0.0
  9
$UCSORGLEFT
 10
0.0
 20
0.0
 30
0.0
  9
$UCSORGRIGHT
 10
0.0
 20
0.0
 30
0.0
  9
$UCSORGFRONT
 10
0.0
 20
0.0
 30
0.0
  9
$UCSORGBACK
 10
0.0
 20
0.0
 30
0.0
  9
$PUCSBASE
  2

  9
$PUCSNAME
  2

  9
$PUCSORG
 10
0.0
 20
0.0
 30
0.0
  9
$PUCSXDIR
 10
1.0
 20
0.0
 30
0.0
  9
$PUCSYDIR
 10
0.0
 20
1.0
 30
0.0
  9
$PUCSORTHOREF
  2

  9
$PUCSORTHOVIEW
 70
     0
  9
$PUCSORGTOP
 10
0.0
 20
0.0
 30
0.0
  9
$PUCSORGBOTTOM
 10
0.0
 20
0.0
 30
0.0
  9
$PUCSORGLEFT
 10
0.0
 20
0.0
 30
0.0
  9
$PUCSORGRIGHT
 10
0.0
 20
0.0
 30
0.0
  9
$PUCSORGFRONT
 10
0.0
 20
0.0
 30
0.0
  9
$PUCSORGBACK
 10
0.0
 20
0.0
 30
0.0
  9
$USERI1
 70
     0
  9
$USERI2
 70
     0
  9
$USERI3
 70
     0
  9
$USERI4
 70
     0
  9
$USERI5
 70
     0
  9
$USERR1
 40
0.0
  9
$USERR2
 40
0.0
  9
$USERR3
 40
0.0
  9
$USERR4
 40
0.0
  9
$USERR5
 40
0.0
  9
$WORLDVIEW
 70
     1
  9
$SHADEDGE
 70
     3
  9
$SHADEDIF
 70
    70
  9
$TILEMODE
 70
     1
  9
$MAXACTVP
 70
    64
  9
$PINSBASE
 10
0.0
 20
0.0
 30
0.0
  9
$PLIMCHECK
 70
     0
  9
$PEXTMIN
 10
1.000000000000000E+20
 20
1.000000000000000E+20
 30
1.000000000000000E+20
  9
$PEXTMAX
 10
-1.000000000000000E+20
 20
-1.000000000000000E+20
 30
-1.000000000000000E+20
  9
$PLIMMIN
 10
0.0
 20
0.0
  9
$PLIMMAX
 10
12.0
 20
9.0
  9
$UNITMODE
 70
     0
  9
$VISRETAIN
 70
     1
  9
$PLINEGEN
 70
     0
  9
$PSLTSCALE
 70
     1
  9
$TREEDEPTH
 70
  3020
  9
$CMLSTYLE
  2
Standard
  9
$CMLJUST
 70
     0
  9
$CMLSCALE
 40
1.0
  9
$PROXYGRAPHICS
 70
     1
  9
$MEASUREMENT
 70
     0
  9
$CELWEIGHT
370
    -1
  9
$ENDCAPS
280
     0
  9
$JOINSTYLE
280
     0
  9
$LWDISPLAY
290
     1
  9
$INSUNITS
 70
     4
  9
$HYPERLINKBASE
  1

  9
$STYLESHEET
  1

  9
$XEDIT
290
     1
  9
$CEPSNTYPE
380
     0
  9
$PSTYLEMODE
290
     1
  9
$FINGERPRINTGUID
  2
{19B88265-FD9D-6E44-91A7-0B5CCC125048}
  9
$VERSIONGUID
  2
{18D87CA0-F2D6-C14A-B53C-CA563593F2DD}
  9
$EXTNAMES
290
     1
  9
$PSVPSCALE
 40
0.0
  9
$OLESTARTUP
290
     0
  9
$SORTENTS
280
   127
  9
$INDEXCTL
280
     0
  9
$HIDETEXT
280
     1
  9
$XCLIPFRAME
280
     2
  9
$HALOGAP
280
     0
  9
$OBSCOLOR
 70
   257
  9
$OBSLTYPE
280
     0
  9
$INTERSECTIONDISPLAY
280
     0
  9
$INTERSECTIONCOLOR
 70
   257
  9
$DIMASSOC
280
     2
  9
$PROJECTNAME
  1

  9
$CAMERADISPLAY
290
     0
  9
$LENSLENGTH
 40
50.0
  9
$CAMERAHEIGHT
 40
0.0
  9
$STEPSPERSEC
 40
2.0
  9
$STEPSIZE
 40
6.0
  9
$3DDWFPREC
 40
2.0
  9
$PSOLWIDTH
 40
0.25
  9
$PSOLHEIGHT
 40
4.0
  9
$LOFTANG1
 40
1.570796326794896
  9
$LOFTANG2
 40
1.570796326794896
  9
$LOFTMAG1
 40
0.0
  9
$LOFTMAG2
 40
0.0
  9
$LOFTPARAM
 70
     7
  9
$LOFTNORMALS
280
     1
  9
$LATITUDE
 40
37.795
  9
$LONGITUDE
 40
-122.394
  9
$NORTHDIRECTION
 40
0.0
  9
$TIMEZONE
 70
 -8000
  9
$LIGHTGLYPHDISPLAY
280
     1
  9
$TILEMODELIGHTSYNCH
280
     1
  9
$CMATERIAL
347
11
  9
$SOLIDHIST
280
     0
  9
$SHOWHIST
280
     1
  9
$DWFFRAME
280
     2
  9
$DGNFRAME
280
     0
  9
$REALWORLDSCALE
290
     1
  9
$INTERFERECOLOR
 62
     1
  9
$INTERFEREOBJVS
345
33
  9
$INTERFEREVPVS
346
30
  9
$CSHADOW
280
     0
  9
$SHADOWPLANELOCATION
 40
0.0
  0
ENDSEC
  0
SECTION
  2
CLASSES
  0
CLASS
  1
ACDBDICTIONARYWDFLT
  2
AcDbDictionaryWithDefault
  3
ObjectDBX Classes
 90
        0
 91
        1
280
     0
281
     0
  0
CLASS
  1
MATERIAL
  2
AcDbMaterial
  3
ObjectDBX Classes
 90
     1153
 91
        3
280
     0
281
     0
  0
CLASS
  1
VISUALSTYLE
  2
AcDbVisualStyle
  3
ObjectDBX Classes
 90
     4095
 91
       24
280
     0
281
     0
  0
CLASS
  1
SCALE
  2
AcDbScale
  3
ObjectDBX Classes
 90
     1153
 91
       17
280
     0
281
     0
  0
CLASS
  1
TABLESTYLE
  2
AcDbTableStyle
  3
ObjectDBX Classes
 90
     4095
 91
        1
280
     0
281
     0
  0
CLASS
  1
MLEADERSTYLE
  2
AcDbMLeaderStyle
  3
ACDB_MLEADERSTYLE_CLASS
 90
     4095
 91
        1
280
     0
281
     0
  0
CLASS
  1
ACDBSECTIONVIEWSTYLE
  2
AcDbSectionViewStyle
  3
ObjectDBX Classes
 90
     1025
 91
        1
280
     0
281
     0
  0
CLASS
  1
ACDBDETAILVIEWSTYLE
  2
AcDbDetailViewStyle
  3
ObjectDBX Classes
 90
     1025
 91
        1
280
     0
281
     0
  0
CLASS
  1
DICTIONARYVAR
  2
AcDbDictionaryVar
  3
ObjectDBX Classes
 90
        0
 91
        5
280
     0
281
     0
  0
CLASS
  1
CELLSTYLEMAP
  2
AcDbCellStyleMap
  3
ObjectDBX Classes
 90
     1152
 91
        1
280
     0
281
     0
  0
ENDSEC
  0
SECTION
  2
TABLES
  0
TABLE
  2
VPORT
  5
8
330
0
100
AcDbSymbolTable
 70
     1
  0
VPORT
  5
57
330
8
100
AcDbSymbolTableRecord
100
AcDbViewportTableRecord
  2
*Active
 70
     0
 10
0.0
 20
0.0
 11
1.0
 21
1.0
 12
0.0
 22
0.0
 13
0.0
 23
0.0
 14
1.0
 24
1.0
 15
0.0
 25
0.0
 16
0.0
 26
0.0
 36
1.0
 17
104.9999999737534
 27
-148.4999999628701
 37
0.0
 40
302.939999924255
 41
0.7070707070707534
 42
50.0
 43
0.0
 44
0.0
 50
0.0
 51
0.0
 71
     0
 72
   100
 73
     1
 74
     1
 75
     0
 76
     0
 77
     0
 78
     0
281
     0
 65
     1
110
0.0
120
0.0
130
0.0
111
1.0
121
0.0
131
0.0
112
0.0
122
1.0
132
0.0
 79
     0
146
0.0
 60
     3
 61
     5
292
     1
282
     1
141
0.0
142
0.0
 63
   250
421
  3355443
  0
ENDTAB
  0
TABLE
  2
LTYPE
  5
5
330
0
100
AcDbSymbolTable
 70
     1
  0
LTYPE
  5
5B
330
5
100
AcDbSymbolTableRecord
100
AcDbLinetypeTableRecord
  2
ByBlock
 70
     0
  3

 72
    65
 73
     0
 40
0.0
  0
LTYPE
  5
5C
330
5
100
AcDbSymbolTableRecord
100
AcDbLinetypeTableRecord
  2
ByLayer
 70
     0
  3

 72
    65
 73
     0
 40
0.0
  0
LTYPE
  5
5D
330
5
100
AcDbSymbolTableRecord
100
AcDbLinetypeTableRecord
  2
Continuous
 70
     0
  3
Solid line
 72
    65
 73
     0
 40
0.0
  0
ENDTAB
  0
TABLE
  2
LAYER
  5
2
330
0
100
AcDbSymbolTable
 70
     2
  0
LAYER
  5
54
330
2
100
AcDbSymbolTableRecord
100
AcDbLayerTableRecord
  2
0
 70
     0
 62
     7
  6
Continuous
370
    -3
390
F
347
21
  0
LAYER
  5
78
330
2
100
AcDbSymbolTableRecord
100
AcDbLayerTableRecord
  2
Capa 1
 70
     0
 62
     7
  6
Continuous
370
     0
390
F
347
21
  0
ENDTAB
  0
TABLE
  2
STYLE
  5
3
330
0
100
AcDbSymbolTable
 70
     2
  0
STYLE
  5
55
330
3
100
AcDbSymbolTableRecord
100
AcDbTextStyleTableRecord
  2
Standard
 70
     0
 40
0.0
 41
1.0
 50
0.0
 71
     0
 42
0.2
  3
txt
  4

  0
STYLE
  5
5A
330
3
100
AcDbSymbolTableRecord
100
AcDbTextStyleTableRecord
  2
Annotative
 70
     0
 40
0.0
 41
1.0
 50
0.0
 71
     0
 42
0.2
  3
txt
  4

1001
AcadAnnotative
1000
AnnotativeData
1002
{
1070
     1
1070
     1
1002
}
  0
ENDTAB
  0
TABLE
  2
VIEW
  5
6
330
0
100
AcDbSymbolTable
 70
     0
  0
ENDTAB
  0
TABLE
  2
UCS
  5
7
330
0
100
AcDbSymbolTable
 70
     0
  0
ENDTAB
  0
TABLE
  2
APPID
  5
9
330
0
100
AcDbSymbolTable
 70
     2
  0
APPID
  5
56
330
9
100
AcDbSymbolTableRecord
100
AcDbRegAppTableRecord
  2
ACAD
 70
     0
  0
APPID
  5
5E
330
9
100
AcDbSymbolTableRecord
100
AcDbRegAppTableRecord
  2
AcadAnnotative
 70
     0
  0
ENDTAB
  0
TABLE
  2
DIMSTYLE
  5
A
330
0
100
AcDbSymbolTable
 70
     2
100
AcDbDimStyleTable
 71
     0
  0
DIMSTYLE
105
58
330
A
100
AcDbSymbolTableRecord
100
AcDbDimStyleTableRecord
  2
Standard
 70
     0
340
55
  0
DIMSTYLE
105
59
330
A
100
AcDbSymbolTableRecord
100
AcDbDimStyleTableRecord
  2
Annotative
 70
     0
340
55
1001
AcadAnnotative
1000
AnnotativeData
1002
{
1070
     1
1070
     1
1002
}
  0
ENDTAB
  0
TABLE
  2
BLOCK_RECORD
  5
1
330
0
100
AcDbSymbolTable
 70
     1
  0
BLOCK_RECORD
  5
70
330
1
100
AcDbSymbolTableRecord
100
AcDbBlockTableRecord
  2
*Model_Space
340
73
 70
     0
280
     1
281
     0
  0
BLOCK_RECORD
  5
6C
330
1
100
AcDbSymbolTableRecord
100
AcDbBlockTableRecord
  2
*Paper_Space
340
6F
 70
     0
280
     1
281
     0
  0
BLOCK_RECORD
  5
74
330
1
100
AcDbSymbolTableRecord
100
AcDbBlockTableRecord
  2
*Paper_Space0
340
77
 70
     0
280
     1
281
     0
  0
ENDTAB
  0
ENDSEC
  0
SECTION
  2
BLOCKS
  0
BLOCK
  5
71
330
70
100
AcDbEntity
  8
0
100
AcDbBlockBegin
  2
*Model_Space
 70
     0
 10
0.0
 20
0.0
 30
0.0
  3
*Model_Space
  1

  0
ENDBLK
  5
72
330
70
100
AcDbEntity
  8
0
100
AcDbBlockEnd
  0
BLOCK
  5
6D
330
6C
100
AcDbEntity
 67
     1
  8
0
100
AcDbBlockBegin
  2
*Paper_Space
 70
     0
 10
0.0
 20
0.0
 30
0.0
  3
*Paper_Space
  1

  0
ENDBLK
  5
6E
330
6C
100
AcDbEntity
 67
     1
  8
0
100
AcDbBlockEnd
  0
BLOCK
  5
75
330
74
100
AcDbEntity
 67
     1
  8
0
100
AcDbBlockBegin
  2
*Paper_Space0
 70
     0
 10
0.0
 20
0.0
 30
0.0
  3
*Paper_Space0
  1

  0
ENDBLK
  5
76
330
74
100
AcDbEntity
 67
     1
  8
0
100
AcDbBlockEnd
  0
ENDSEC
  0
SECTION
  2
ENTITIES
  0
MTEXT
  5
79
330
70
100
AcDbEntity
  8
Capa 1
100
AcDbMText
 10
52.32014399651012
 20
-156.2504997498574
 30
0.0
 40
0.2
 41
0.0
 46
0.0
 71
     7
 72
     1
  1
\C18;\c0;\FArial Bold|b1|i0|c1;\H2.499665;\W0.999201;  230  
 11
0.0000000000000001
 21
1.0
 31
0.0
 73
     1
 44
1.0
  0
MTEXT
  5
7A
330
70
100
AcDbEntity
  8
Capa 1
100
AcDbMText
 10
82.96960823580956
 20
-125.1691927914819
 30
0.0
 40
0.2
 41
0.0
 46
0.0
 71
     7
 72
     1
  1
\C18;\c0;\FArial Bold|b1|i0|c1;\H2.499665;\W0.999201;  400  
 73
     1
 44
1.0
  0
LWPOLYLINE
  5
7B
330
70
100
AcDbEntity
  8
Capa 1
 62
    18
420
        0
370
     9
100
AcDbPolyline
 90
        4
 70
     0
 43
0.0
 10
53.24000964485279
 20
-135.1942409183604
 10
53.71626448939926
 20
-138.2634011247057
 10
52.76376287474887
 20
-138.2634011247057
 10
53.24000964485279
 20
-135.1942409183604
  0
LWPOLYLINE
  5
7C
330
70
100
AcDbEntity
  8
Capa 1
 62
    18
420
        0
370
     9
100
AcDbPolyline
 90
        4
 70
     0
 43
0.0
 10
53.24000964485279
 20
-163.875072629635
 10
52.76376287474887
 20
-160.8059043488471
 10
53.71626448939926
 20
-160.8059043488471
 10
53.24000964485279
 20
-163.875072629635
  0
SPLINE
  5
7D
330
70
100
AcDbEntity
  8
Capa 1
 62
    18
420
        0
370
     9
100
AcDbSpline
210
0.0
220
0.0
230
1.0
 70
    11
 71
     3
 72
    14
 73
    10
 74
     0
 42
0.0000000001
 43
0.0000000001
 40
0.0
 40
0.0
 40
0.0
 40
0.0
 40
1.0
 40
1.0
 40
1.0
 40
2.0
 40
2.0
 40
2.0
 40
3.0
 40
3.0
 40
3.0
 40
3.0
 10
63.77043115355238
 20
-126.145479616403
 30
0.0
 10
63.77043115355238
 20
-126.145479616403
 30
0.0
 10
66.83959539711899
 20
-125.6692328462991
 30
0.0
 10
66.83959539711899
 20
-125.6692328462991
 30
0.0
 10
66.83959539711899
 20
-125.6692328462991
 30
0.0
 10
66.83959539711899
 20
-126.6217344609495
 30
0.0
 10
66.83959539711899
 20
-126.6217344609495
 30
0.0
 10
66.83959539711899
 20
-126.6217344609495
 30
0.0
 10
63.77043115355238
 20
-126.145479616403
 30
0.0
 10
63.77043115355238
 20
-126.145479616403
 30
0.0
  0
SPLINE
  5
7E
330
70
100
AcDbEntity
  8
Capa 1
 62
    18
420
        0
370
     9
100
AcDbSpline
210
0.0
220
0.0
230
1.0
 70
    11
 71
     3
 72
    14
 73
    10
 74
     0
 42
0.0000000001
 43
0.0000000001
 40
0.0
 40
0.0
 40
0.0
 40
0.0
 40
1.0
 40
1.0
 40
1.0
 40
2.0
 40
2.0
 40
2.0
 40
3.0
 40
3.0
 40
3.0
 40
3.0
 10
113.7766811410508
 20
-126.145479616403
 30
0.0
 10
113.7766811410508
 20
-126.145479616403
 30
0.0
 10
110.7075128602629
 20
-126.6217344609495
 30
0.0
 10
110.7075128602629
 20
-126.6217344609495
 30
0.0
 10
110.7075128602629
 20
-126.6217344609495
 30
0.0
 10
110.7075128602629
 20
-125.6692328462991
 30
0.0
 10
110.7075128602629
 20
-125.6692328462991
 30
0.0
 10
110.7075128602629
 20
-125.6692328462991
 30
0.0
 10
113.7766811410508
 20
-126.145479616403
 30
0.0
 10
113.7766811410508
 20
-126.145479616403
 30
0.0
  0
LINE
  5
7F
330
70
100
AcDbEntity
  8
Capa 1
 62
    18
420
        0
370
     9
100
AcDbLine
 10
53.24001771929534
 20
-163.875072629635
 30
0.0
 11
53.24001771929534
 21
-135.1942409183604
 31
0.0
  0
LINE
  5
80
330
70
100
AcDbEntity
  8
Capa 1
 62
    18
420
        0
370
     9
100
AcDbLine
 10
62.28877094681017
 20
-135.1942409183604
 30
0.0
 11
51.75834943811057
 21
-135.1942409183604
 31
0.0
  0
LINE
  5
81
330
70
100
AcDbEntity
  8
Capa 1
 62
    18
420
        0
370
     9
100
AcDbLine
 10
62.87084943533245
 20
-163.875072629635
 30
0.0
 11
51.75834943811057
 21
-163.875072629635
 31
0.0
  0
SPLINE
  5
82
330
70
100
AcDbEntity
  8
Capa 1
 62
    18
420
        0
370
     9
100
AcDbSpline
210
0.0
220
0.0
230
1.0
 70
    24
 71
     3
 72
     8
 73
     4
 74
     0
 42
0.0000000001
 43
0.0000000001
 40
0.0
 40
0.0
 40
0.0
 40
0.0
 40
1.0
 40
1.0
 40
1.0
 40
1.0
 10
63.77043115355238
 20
-134.2946430512554
 30
0.0
 10
63.77043115355238
 20
-134.2946430512554
 30
0.0
 10
63.77043115355238
 20
-124.6638113352183
 30
0.0
 10
63.77043115355238
 20
-124.6638113352183
 30
0.0
  0
SPLINE
  5
83
330
70
100
AcDbEntity
  8
Capa 1
 62
    18
420
        0
370
     9
100
AcDbSpline
210
0.0
220
0.0
230
1.0
 70
    24
 71
     3
 72
     8
 73
     4
 74
     0
 42
0.0000000001
 43
0.0000000001
 40
0.0
 40
0.0
 40
0.0
 40
0.0
 40
1.0
 40
1.0
 40
1.0
 40
1.0
 10
113.7766811410508
 20
-134.2946430512554
 30
0.0
 10
113.7766811410508
 20
-134.2946430512554
 30
0.0
 10
113.7766811410508
 20
-124.6638113352183
 30
0.0
 10
113.7766811410508
 20
-124.6638113352183
 30
0.0
  0
SPLINE
  5
84
330
70
100
AcDbEntity
  8
Capa 1
 62
    18
420
        0
370
     9
100
AcDbSpline
210
0.0
220
0.0
230
1.0
 70
    24
 71
     3
 72
     8
 73
     4
 74
     0
 42
0.0000000001
 43
0.0000000001
 40
0.0
 40
0.0
 40
0.0
 40
0.0
 40
1.0
 40
1.0
 40
1.0
 40
1.0
 10
63.77043115355238
 20
-126.145479616403
 30
0.0
 10
63.77043115355238
 20
-126.145479616403
 30
0.0
 10
113.7766811410508
 20
-126.145479616403
 30
0.0
 10
113.7766811410508
 20
-126.145479616403
 30
0.0
  0
LWPOLYLINE
  5
85
330
70
100
AcDbEntity
  8
Capa 1
100
AcDbPolyline
 90
        3
 70
     0
 43
0.0
 10
53.24000964485279
 20
-135.1942409183604
 10
53.71626448939926
 20
-138.2634011247057
 10
52.76376287474887
 20
-138.2634011247057
  0
HATCH
  5
86
330
70
100
AcDbEntity
  8
Capa 1
 62
    18
420
        0
440
 33554687
100
AcDbHatch
 10
0.0
 20
0.0
 30
0.0
210
0.0
220
0.0
230
1.0
  2
SOLID
 70
     1
 71
     1
 91
        1
 92
        3
 72
     0
 73
     1
 93
        3
 10
53.24000964485279
 20
-135.1942409183604
 10
53.71626448939926
 20
-138.2634011247057
 10
52.76376287474887
 20
-138.2634011247057
 97
        0
 75
     2
 76
     1
 98
        1
 10
0.0
 20
0.0
450
        0
451
        0
460
0.0
461
0.0
452
        0
462
0.0
453
        0
470

  0
LWPOLYLINE
  5
87
330
70
100
AcDbEntity
  8
Capa 1
100
AcDbPolyline
 90
        3
 70
     0
 43
0.0
 10
53.24000964485279
 20
-163.875072629635
 10
52.76376287474887
 20
-160.8059043488471
 10
53.71626448939926
 20
-160.8059043488471
  0
HATCH
  5
88
330
70
100
AcDbEntity
  8
Capa 1
 62
    18
420
        0
440
 33554687
100
AcDbHatch
 10
0.0
 20
0.0
 30
0.0
210
0.0
220
0.0
230
1.0
  2
SOLID
 70
     1
 71
     1
 91
        1
 92
        3
 72
     0
 73
     1
 93
        3
 10
53.24000964485279
 20
-163.875072629635
 10
52.76376287474887
 20
-160.8059043488471
 10
53.71626448939926
 20
-160.8059043488471
 97
        0
 75
     2
 76
     1
 98
        1
 10
0.0
 20
0.0
450
        0
451
        0
460
0.0
461
0.0
452
        0
462
0.0
453
        0
470

  0
SPLINE
  5
89
330
70
100
AcDbEntity
  8
Capa 1
100
AcDbSpline
210
0.0
220
0.0
230
1.0
 70
     8
 71
     3
 72
    11
 73
     7
 74
     0
 42
0.0000000001
 43
0.0000000001
 40
0.0
 40
0.0
 40
0.0
 40
0.0
 40
1.0
 40
1.0
 40
1.0
 40
2.0
 40
2.0
 40
2.0
 40
2.0
 10
63.77043115355238
 20
-126.145479616403
 30
0.0
 10
63.77043115355238
 20
-126.145479616403
 30
0.0
 10
66.83959539711899
 20
-125.6692328462991
 30
0.0
 10
66.83959539711899
 20
-125.6692328462991
 30
0.0
 10
66.83959539711899
 20
-125.6692328462991
 30
0.0
 10
66.83959539711899
 20
-126.6217344609495
 30
0.0
 10
66.83959539711899
 20
-126.6217344609495
 30
0.0
  0
SPLINE
  5
8A
330
70
100
AcDbEntity
  8
Capa 1
100
AcDbSpline
210
0.0
220
0.0
230
1.0
 70
     8
 71
     3
 72
    11
 73
     7
 74
     0
 42
0.0000000001
 43
0.0000000001
 40
0.0
 40
0.0
 40
0.0
 40
0.0
 40
1.0
 40
1.0
 40
1.0
 40
2.0
 40
2.0
 40
2.0
 40
2.0
 10
113.7766811410508
 20
-126.145479616403
 30
0.0
 10
113.7766811410508
 20
-126.145479616403
 30
0.0
 10
110.7075128602629
 20
-126.6217344609495
 30
0.0
 10
110.7075128602629
 20
-126.6217344609495
 30
0.0
 10
110.7075128602629
 20
-126.6217344609495
 30
0.0
 10
110.7075128602629
 20
-125.6692328462991
 30
0.0
 10
110.7075128602629
 20
-125.6692328462991
 30
0.0
  0
HATCH
  5
8B
330
70
100
AcDbEntity
  8
Capa 1
 62
    18
420
        0
440
 33554687
100
AcDbHatch
 10
0.0
 20
0.0
 30
0.0
210
0.0
220
0.0
230
1.0
  2
SOLID
 70
     1
 71
     1
 91
        2
 92
        1
 93
        2
 72
     4
 94
        3
 73
     0
 74
     0
 95
       11
 96
        7
 40
0.0
 40
0.0
 40
0.0
 40
0.0
 40
1.0
 40
1.0
 40
1.0
 40
2.0
 40
2.0
 40
2.0
 40
2.0
 10
63.77043115355238
 20
-126.145479616403
 10
63.77043115355238
 20
-126.145479616403
 10
66.83959539711899
 20
-125.6692328462991
 10
66.83959539711899
 20
-125.6692328462991
 10
66.83959539711899
 20
-125.6692328462991
 10
66.83959539711899
 20
-126.6217344609495
 10
66.83959539711899
 20
-126.6217344609495
 97
        0
 72
     1
 10
66.83959539711899
 20
-126.6217344609495
 11
63.77043115355238
 21
-126.145479616403
 97
        0
 92
        1
 93
        2
 72
     4
 94
        3
 73
     0
 74
     0
 95
       11
 96
        7
 40
0.0
 40
0.0
 40
0.0
 40
0.0
 40
1.0
 40
1.0
 40
1.0
 40
2.0
 40
2.0
 40
2.0
 40
2.0
 10
113.7766811410508
 20
-126.145479616403
 10
113.7766811410508
 20
-126.145479616403
 10
110.7075128602629
 20
-126.6217344609495
 10
110.7075128602629
 20
-126.6217344609495
 10
110.7075128602629
 20
-126.6217344609495
 10
110.7075128602629
 20
-125.6692328462991
 10
110.7075128602629
 20
-125.6692328462991
 97
        0
 72
     1
 10
110.7075128602629
 20
-125.6692328462991
 11
113.7766811410508
 21
-126.145479616403
 97
        0
 75
     2
 76
     1
 98
        1
 10
0.0
 20
0.0
450
        0
451
        0
460
0.0
461
0.0
452
        0
462
0.0
453
        0
470

  0
SPLINE
  5
8C
330
70
100
AcDbEntity
  8
Capa 1
 62
    18
420
        0
370
     9
100
AcDbSpline
210
0.0
220
0.0
230
1.0
 70
    24
 71
     3
 72
     8
 73
     4
 74
     0
 42
0.0000000001
 43
0.0000000001
 40
0.0
 40
0.0
 40
0.0
 40
0.0
 40
1.0
 40
1.0
 40
1.0
 40
1.0
 10
63.77043115355238
 20
-135.7763113324401
 30
0.0
 10
63.77043115355238
 20
-135.7763113324401
 30
0.0
 10
63.77043115355238
 20
-163.2929779922276
 30
0.0
 10
63.77043115355238
 20
-163.2929779922276
 30
0.0
  0
SPLINE
  5
8D
330
70
100
AcDbEntity
  8
Capa 1
 62
    18
420
        0
370
     9
100
AcDbSpline
210
0.0
220
0.0
230
1.0
 70
    24
 71
     3
 72
     8
 73
     4
 74
     0
 42
0.0000000001
 43
0.0000000001
 40
0.0
 40
0.0
 40
0.0
 40
0.0
 40
1.0
 40
1.0
 40
1.0
 40
1.0
 10
64.35251367929594
 20
-163.8750645551925
 30
0.0
 10
64.35251367929594
 20
-163.8750645551925
 30
0.0
 10
113.1416827560981
 20
-163.8750645551925
 30
0.0
 10
113.1416827560981
 20
-163.8750645551925
 30
0.0
  0
SPLINE
  5
8E
330
70
100
AcDbEntity
  8
Capa 1
 62
    18
420
        0
370
     9
100
AcDbSpline
210
0.0
220
0.0
230
1.0
 70
    24
 71
     3
 72
     8
 73
     4
 74
     0
 42
0.0000000001
 43
0.0000000001
 40
0.0
 40
0.0
 40
0.0
 40
0.0
 40
1.0
 40
1.0
 40
1.0
 40
1.0
 10
113.7766811410508
 20
-163.2929779922276
 30
0.0
 10
113.7766811410508
 20
-163.2929779922276
 30
0.0
 10
113.7766811410508
 20
-135.7763113324401
 30
0.0
 10
113.7766811410508
 20
-135.7763113324401
 30
0.0
  0
SPLINE
  5
8F
330
70
100
AcDbEntity
  8
Capa 1
 62
    18
420
        0
370
     9
100
AcDbSpline
210
0.0
220
0.0
230
1.0
 70
     8
 71
     3
 72
    29
 73
    25
 74
     0
 42
0.0000000001
 43
0.0000000001
 40
0.0
 40
0.0
 40
0.0
 40
0.0
 40
1.0
 40
1.0
 40
1.0
 40
2.0
 40
2.0
 40
2.0
 40
3.0
 40
3.0
 40
3.0
 40
4.0
 40
4.0
 40
4.0
 40
5.0
 40
5.0
 40
5.0
 40
6.0
 40
6.0
 40
6.0
 40
7.0
 40
7.0
 40
7.0
 40
8.0
 40
8.0
 40
8.0
 40
8.0
 10
63.77043115355238
 20
-163.2929779922276
 30
0.0
 10
63.77043115355238
 20
-163.2929779922276
 30
0.0
 10
63.77043115355238
 20
-163.3988177850886
 30
0.0
 10
63.77043115355238
 20
-163.3988177850886
 30
0.0
 10
63.77043115355238
 20
-163.3988177850886
 30
0.0
 10
63.82334701276157
 20
-163.5046495035069
 30
0.0
 10
63.82334701276157
 20
-163.5046495035069
 30
0.0
 10
63.82334701276157
 20
-163.5046495035069
 30
0.0
 10
63.87626287197075
 20
-163.6104812219253
 30
0.0
 10
63.87626287197075
 20
-163.6104812219253
 30
0.0
 10
63.87626287197075
 20
-163.6104812219253
 30
0.0
 10
63.92917873117993
 20
-163.7163129403437
 30
0.0
 10
63.92917873117993
 20
-163.7163129403437
 30
0.0
 10
63.92917873117993
 20
-163.7163129403437
 30
0.0
 10
64.03501448681956
 20
-163.7692328367741
 30
0.0
 10
64.03501448681956
 20
-163.7692328367741
 30
0.0
 10
64.03501448681956
 20
-163.7692328367741
 30
0.0
 10
64.14084620523794
 20
-163.822144658762
 30
0.0
 10
64.14084620523794
 20
-163.822144658762
 30
0.0
 10
64.14084620523794
 20
-163.822144658762
 30
0.0
 10
64.24667792365631
 20
-163.8750645551925
 30
0.0
 10
64.24667792365631
 20
-163.8750645551925
 30
0.0
 10
64.24667792365631
 20
-163.8750645551925
 30
0.0
 10
64.35251367929594
 20
-163.8750645551925
 30
0.0
 10
64.35251367929594
 20
-163.8750645551925
 30
0.0
  0
SPLINE
  5
90
330
70
100
AcDbEntity
  8
Capa 1
 62
    18
420
        0
370
     9
100
AcDbSpline
210
0.0
220
0.0
230
1.0
 70
     8
 71
     3
 72
    29
 73
    25
 74
     0
 42
0.0000000001
 43
0.0000000001
 40
0.0
 40
0.0
 40
0.0
 40
0.0
 40
1.0
 40
1.0
 40
1.0
 40
2.0
 40
2.0
 40
2.0
 40
3.0
 40
3.0
 40
3.0
 40
4.0
 40
4.0
 40
4.0
 40
5.0
 40
5.0
 40
5.0
 40
6.0
 40
6.0
 40
6.0
 40
7.0
 40
7.0
 40
7.0
 40
8.0
 40
8.0
 40
8.0
 40
8.0
 10
113.1416827560981
 20
-163.8750645551925
 30
0.0
 10
113.1416827560981
 20
-163.8750645551925
 30
0.0
 10
113.3004262965043
 20
-163.8750645551925
 30
0.0
 10
113.3004262965043
 20
-163.8750645551925
 30
0.0
 10
113.3004262965043
 20
-163.8750645551925
 30
0.0
 10
113.4062660893652
 20
-163.822144658762
 30
0.0
 10
113.4062660893652
 20
-163.822144658762
 30
0.0
 10
113.4062660893652
 20
-163.822144658762
 30
0.0
 10
113.5120978077836
 20
-163.7692328367741
 30
0.0
 10
113.5120978077836
 20
-163.7692328367741
 30
0.0
 10
113.5120978077836
 20
-163.7692328367741
 30
0.0
 10
113.617929526202
 20
-163.7163129403437
 30
0.0
 10
113.617929526202
 20
-163.7163129403437
 30
0.0
 10
113.617929526202
 20
-163.7163129403437
 30
0.0
 10
113.6708494226324
 20
-163.6104812219253
 30
0.0
 10
113.6708494226324
 20
-163.6104812219253
 30
0.0
 10
113.6708494226324
 20
-163.6104812219253
 30
0.0
 10
113.7237612446203
 20
-163.5046495035069
 30
0.0
 10
113.7237612446203
 20
-163.5046495035069
 30
0.0
 10
113.7237612446203
 20
-163.5046495035069
 30
0.0
 10
113.7766811410508
 20
-163.3988177850886
 30
0.0
 10
113.7766811410508
 20
-163.3988177850886
 30
0.0
 10
113.7766811410508
 20
-163.3988177850886
 30
0.0
 10
113.7766811410508
 20
-163.2929779922276
 30
0.0
 10
113.7766811410508
 20
-163.2929779922276
 30
0.0
  0
SPLINE
  5
91
330
70
100
AcDbEntity
  8
Capa 1
 62
    18
420
        0
370
     9
100
AcDbSpline
210
0.0
220
0.0
230
1.0
 70
    24
 71
     3
 72
     8
 73
     4
 74
     0
 42
0.0000000001
 43
0.0000000001
 40
0.0
 40
0.0
 40
0.0
 40
0.0
 40
1.0
 40
1.0
 40
1.0
 40
1.0
 10
113.7766811410508
 20
-135.7763113324401
 30
0.0
 10
113.7766811410508
 20
-135.7763113324401
 30
0.0
 10
113.7766811410508
 20
-135.6704796140218
 30
0.0
 10
113.7766811410508
 20
-135.6704796140218
 30
0.0
  0
SPLINE
  5
92
330
70
100
AcDbEntity
  8
Capa 1
 62
    18
420
        0
370
     9
100
AcDbSpline
210
0.0
220
0.0
230
1.0
 70
    24
 71
     3
 72
    11
 73
     7
 74
     0
 42
0.0000000001
 43
0.0000000001
 40
0.0
 40
0.0
 40
0.0
 40
0.0
 40
1.0
 40
1.0
 40
1.0
 40
2.0
 40
2.0
 40
2.0
 40
2.0
 10
63.77043115355238
 20
-135.6175677920338
 30
0.0
 10
63.77043115355238
 20
-135.6175677920338
 30
0.0
 10
63.77043115355238
 20
-135.6704796140218
 30
0.0
 10
63.77043115355238
 20
-135.6704796140218
 30
0.0
 10
63.77043115355238
 20
-135.6704796140218
 30
0.0
 10
63.77043115355238
 20
-135.7763113324401
 30
0.0
 10
63.77043115355238
 20
-135.7763113324401
 30
0.0
  0
SPLINE
  5
93
330
70
100
AcDbEntity
  8
Capa 1
 62
    18
420
        0
370
     9
100
AcDbSpline
210
0.0
220
0.0
230
1.0
 70
    24
 71
     3
 72
     8
 73
     4
 74
     0
 42
0.0000000001
 43
0.0000000001
 40
0.0
 40
0.0
 40
0.0
 40
0.0
 40
1.0
 40
1.0
 40
1.0
 40
1.0
 10
63.77043115355238
 20
-135.6704796140218
 30
0.0
 10
63.77043115355238
 20
-135.6704796140218
 30
0.0
 10
63.77043115355238
 20
-135.1942328439178
 30
0.0
 10
63.77043115355238
 20
-135.1942328439178
 30
0.0
  0
SPLINE
  5
94
330
70
100
AcDbEntity
  8
Capa 1
 62
    18
420
        0
370
     9
100
AcDbSpline
210
0.0
220
0.0
230
1.0
 70
    24
 71
     3
 72
     8
 73
     4
 74
     0
 42
0.0000000001
 43
0.0000000001
 40
0.0
 40
0.0
 40
0.0
 40
0.0
 40
1.0
 40
1.0
 40
1.0
 40
1.0
 10
113.7766811410508
 20
-135.1942328439178
 30
0.0
 10
113.7766811410508
 20
-135.1942328439178
 30
0.0
 10
63.77043115355238
 20
-135.1942328439178
 30
0.0
 10
63.77043115355238
 20
-135.1942328439178
 30
0.0
  0
SPLINE
  5
95
330
70
100
AcDbEntity
  8
Capa 1
 62
    18
420
        0
370
     9
100
AcDbSpline
210
0.0
220
0.0
230
1.0
 70
    24
 71
     3
 72
     8
 73
     4
 74
     0
 42
0.0000000001
 43
0.0000000001
 40
0.0
 40
0.0
 40
0.0
 40
0.0
 40
1.0
 40
1.0
 40
1.0
 40
1.0
 10
113.7766811410508
 20
-135.6704796140218
 30
0.0
 10
113.7766811410508
 20
-135.6704796140218
 30
0.0
 10
113.7766811410508
 20
-135.1942328439178
 30
0.0
 10
113.7766811410508
 20
-135.1942328439178
 30
0.0
  0
SPLINE
  5
96
330
70
100
AcDbEntity
  8
Capa 1
 62
    18
420
        0
370
     9
100
AcDbSpline
210
0.0
220
0.0
230
1.0
 70
     8
 71
     3
 72
    29
 73
    25
 74
     0
 42
0.0000000001
 43
0.0000000001
 40
0.0
 40
0.0
 40
0.0
 40
0.0
 40
1.0
 40
1.0
 40
1.0
 40
2.0
 40
2.0
 40
2.0
 40
3.0
 40
3.0
 40
3.0
 40
4.0
 40
4.0
 40
4.0
 40
5.0
 40
5.0
 40
5.0
 40
6.0
 40
6.0
 40
6.0
 40
7.0
 40
7.0
 40
7.0
 40
8.0
 40
8.0
 40
8.0
 40
8.0
 10
64.77584459019067
 20
-139.9038129462968
 30
0.0
 10
64.77584459019067
 20
-139.9038129462968
 30
0.0
 10
64.88168034583032
 20
-139.4804779981808
 30
0.0
 10
64.88168034583032
 20
-139.4804779981808
 30
0.0
 10
64.88168034583032
 20
-139.4804779981808
 30
0.0
 10
65.09334781988832
 20
-139.1100629464952
 30
0.0
 10
65.09334781988832
 20
-139.1100629464952
 30
0.0
 10
65.09334781988832
 20
-139.1100629464952
 30
0.0
 10
65.41084701236468
 20
-138.7925677912401
 30
0.0
 10
65.41084701236468
 20
-138.7925677912401
 30
0.0
 10
65.41084701236468
 20
-138.7925677912401
 30
0.0
 10
65.83417792325943
 20
-138.6338161763913
 30
0.0
 10
65.83417792325943
 20
-138.6338161763913
 30
0.0
 10
65.83417792325943
 20
-138.6338161763913
 30
0.0
 10
66.31042873058461
 20
-138.4750645615425
 30
0.0
 10
66.31042873058461
 20
-138.4750645615425
 30
0.0
 10
66.31042873058461
 20
-138.4750645615425
 30
0.0
 10
66.78667953790981
 20
-138.422144665112
 30
0.0
 10
66.78667953790981
 20
-138.422144665112
 30
0.0
 10
66.78667953790981
 20
-138.422144665112
 30
0.0
 10
67.262930345235
 20
-138.3692328431241
 30
0.0
 10
67.262930345235
 20
-138.3692328431241
 30
0.0
 10
67.262930345235
 20
-138.3692328431241
 30
0.0
 10
67.79209701176937
 20
-138.3692328431241
 30
0.0
 10
67.79209701176937
 20
-138.3692328431241
 30
0.0
  0
SPLINE
  5
97
330
70
100
AcDbEntity
  8
Capa 1
 62
    18
420
        0
370
     9
100
AcDbSpline
210
0.0
220
0.0
230
1.0
 70
     8
 71
     3
 72
    29
 73
    25
 74
     0
 42
0.0000000001
 43
0.0000000001
 40
0.0
 40
0.0
 40
0.0
 40
0.0
 40
1.0
 40
1.0
 40
1.0
 40
2.0
 40
2.0
 40
2.0
 40
3.0
 40
3.0
 40
3.0
 40
4.0
 40
4.0
 40
4.0
 40
5.0
 40
5.0
 40
5.0
 40
6.0
 40
6.0
 40
6.0
 40
7.0
 40
7.0
 40
7.0
 40
8.0
 40
8.0
 40
8.0
 40
8.0
 10
67.58042953771137
 20
-162.5521478888565
 30
0.0
 10
67.58042953771137
 20
-162.5521478888565
 30
0.0
 10
67.10417873038618
 20
-162.5521478888565
 30
0.0
 10
67.10417873038618
 20
-162.5521478888565
 30
0.0
 10
67.10417873038618
 20
-162.5521478888565
 30
0.0
 10
66.62792792306099
 20
-162.4992279924261
 30
0.0
 10
66.62792792306099
 20
-162.4992279924261
 30
0.0
 10
66.62792792306099
 20
-162.4992279924261
 30
0.0
 10
66.15168115295706
 20
-162.4463161704382
 30
0.0
 10
66.15168115295706
 20
-162.4463161704382
 30
0.0
 10
66.15168115295706
 20
-162.4463161704382
 30
0.0
 10
65.72834620484106
 20
-162.2875645555893
 30
0.0
 10
65.72834620484106
 20
-162.2875645555893
 30
0.0
 10
65.72834620484106
 20
-162.2875645555893
 30
0.0
 10
65.3579311531555
 20
-162.1288129407405
 30
0.0
 10
65.3579311531555
 20
-162.1288129407405
 30
0.0
 10
65.3579311531555
 20
-162.1288129407405
 30
0.0
 10
65.04042792345787
 20
-161.8113177854854
 30
0.0
 10
65.04042792345787
 20
-161.8113177854854
 30
0.0
 10
65.04042792345787
 20
-161.8113177854854
 30
0.0
 10
64.82876448662112
 20
-161.4938145557878
 30
0.0
 10
64.82876448662112
 20
-161.4938145557878
 30
0.0
 10
64.82876448662112
 20
-161.4938145557878
 30
0.0
 10
64.77584459019067
 20
-161.0704796076718
 30
0.0
 10
64.77584459019067
 20
-161.0704796076718
 30
0.0
  0
SPLINE
  5
98
330
70
100
AcDbEntity
  8
Capa 1
 62
    18
420
        0
370
     9
100
AcDbSpline
210
0.0
220
0.0
230
1.0
 70
    24
 71
     3
 72
     8
 73
     4
 74
     0
 42
0.0000000001
 43
0.0000000001
 40
0.0
 40
0.0
 40
0.0
 40
0.0
 40
1.0
 40
1.0
 40
1.0
 40
1.0
 10
113.1416827560981
 20
-135.7763113324401
 30
0.0
 10
113.1416827560981
 20
-135.7763113324401
 30
0.0
 10
64.35251367929594
 20
-135.7763113324401
 30
0.0
 10
64.35251367929594
 20
-135.7763113324401
 30
0.0
  0
SPLINE
  5
99
330
70
100
AcDbEntity
  8
Capa 1
 62
    18
420
        0
370
     9
100
AcDbSpline
210
0.0
220
0.0
230
1.0
 70
    24
 71
     3
 72
     8
 73
     4
 74
     0
 42
0.0000000001
 43
0.0000000001
 40
0.0
 40
0.0
 40
0.0
 40
0.0
 40
1.0
 40
1.0
 40
1.0
 40
1.0
 10
64.77584459019067
 20
-139.9038129462968
 30
0.0
 10
64.77584459019067
 20
-139.9038129462968
 30
0.0
 10
64.77584459019067
 20
-161.0704796076718
 30
0.0
 10
64.77584459019067
 20
-161.0704796076718
 30
0.0
  0
SPLINE
  5
9A
330
70
100
AcDbEntity
  8
Capa 1
 62
    18
420
        0
370
     9
100
AcDbSpline
210
0.0
220
0.0
230
1.0
 70
    24
 71
     3
 72
     8
 73
     4
 74
     0
 42
0.0000000001
 43
0.0000000001
 40
0.0
 40
0.0
 40
0.0
 40
0.0
 40
1.0
 40
1.0
 40
1.0
 40
1.0
 10
111.2895994232278
 20
-138.3692328431241
 30
0.0
 10
111.2895994232278
 20
-138.3692328431241
 30
0.0
 10
67.79209701176937
 20
-138.3692328431241
 30
0.0
 10
67.79209701176937
 20
-138.3692328431241
 30
0.0
  0
SPLINE
  5
9B
330
70
100
AcDbEntity
  8
Capa 1
 62
    18
420
        0
370
     9
100
AcDbSpline
210
0.0
220
0.0
230
1.0
 70
    24
 71
     3
 72
     8
 73
     4
 74
     0
 42
0.0000000001
 43
0.0000000001
 40
0.0
 40
0.0
 40
0.0
 40
0.0
 40
1.0
 40
1.0
 40
1.0
 40
1.0
 10
67.58042953771137
 20
-162.5521478888565
 30
0.0
 10
67.58042953771137
 20
-162.5521478888565
 30
0.0
 10
111.2895994232278
 20
-162.5521478888565
 30
0.0
 10
111.2895994232278
 20
-162.5521478888565
 30
0.0
  0
SPLINE
  5
9C
330
70
100
AcDbEntity
  8
Capa 1
 62
    18
420
        0
370
     9
100
AcDbSpline
210
0.0
220
0.0
230
1.0
 70
    24
 71
     3
 72
     8
 73
     4
 74
     0
 42
0.0000000001
 43
0.0000000001
 40
0.0
 40
0.0
 40
0.0
 40
0.0
 40
1.0
 40
1.0
 40
1.0
 40
1.0
 10
112.5066762967028
 20
-161.335062940939
 30
0.0
 10
112.5066762967028
 20
-161.335062940939
 30
0.0
 10
112.5066762967028
 20
-139.5863177910417
 30
0.0
 10
112.5066762967028
 20
-139.5863177910417
 30
0.0
  0
SPLINE
  5
9D
330
70
100
AcDbEntity
  8
Capa 1
 62
    18
420
        0
370
     9
100
AcDbSpline
210
0.0
220
0.0
230
1.0
 70
    24
 71
     3
 72
     8
 73
     4
 74
     0
 42
0.0000000001
 43
0.0000000001
 40
0.0
 40
0.0
 40
0.0
 40
0.0
 40
1.0
 40
1.0
 40
1.0
 40
1.0
 10
111.2895994232278
 20
-138.3692328431241
 30
0.0
 10
111.2895994232278
 20
-138.3692328431241
 30
0.0
 10
111.5541827564949
 20
-138.422144665112
 30
0.0
 10
111.5541827564949
 20
-138.422144665112
 30
0.0
  0
SPLINE
  5
9E
330
70
100
AcDbEntity
  8
Capa 1
 62
    18
420
        0
370
     9
100
AcDbSpline
210
0.0
220
0.0
230
1.0
 70
     8
 71
     3
 72
    17
 73
    13
 74
     0
 42
0.0000000001
 43
0.0000000001
 40
0.0
 40
0.0
 40
0.0
 40
0.0
 40
1.0
 40
1.0
 40
1.0
 40
2.0
 40
2.0
 40
2.0
 40
3.0
 40
3.0
 40
3.0
 40
4.0
 40
4.0
 40
4.0
 40
4.0
 10
111.5541827564949
 20
-138.422144665112
 30
0.0
 10
111.5541827564949
 20
-138.422144665112
 30
0.0
 10
111.9245978081805
 20
-138.5808962799608
 30
0.0
 10
111.9245978081805
 20
-138.5808962799608
 30
0.0
 10
111.9245978081805
 20
-138.5808962799608
 30
0.0
 10
112.2420929634356
 20
-138.845479613228
 30
0.0
 10
112.2420929634356
 20
-138.845479613228
 30
0.0
 10
112.2420929634356
 20
-138.845479613228
 30
0.0
 10
112.4008445782844
 20
-139.1629828429257
 30
0.0
 10
112.4008445782844
 20
-139.1629828429257
 30
0.0
 10
112.4008445782844
 20
-139.1629828429257
 30
0.0
 10
112.5066762967028
 20
-139.5863177910417
 30
0.0
 10
112.5066762967028
 20
-139.5863177910417
 30
0.0
  0
SPLINE
  5
9F
330
70
100
AcDbEntity
  8
Capa 1
 62
    18
420
        0
370
     9
100
AcDbSpline
210
0.0
220
0.0
230
1.0
 70
     8
 71
     3
 72
    11
 73
     7
 74
     0
 42
0.0000000001
 43
0.0000000001
 40
0.0
 40
0.0
 40
0.0
 40
0.0
 40
1.0
 40
1.0
 40
1.0
 40
2.0
 40
2.0
 40
2.0
 40
2.0
 10
111.9775096301684
 20
-162.2875645555893
 30
0.0
 10
111.9775096301684
 20
-162.2875645555893
 30
0.0
 10
111.6600144749133
 20
-162.4992279924261
 30
0.0
 10
111.6600144749133
 20
-162.4992279924261
 30
0.0
 10
111.6600144749133
 20
-162.4992279924261
 30
0.0
 10
111.2895994232278
 20
-162.5521478888565
 30
0.0
 10
111.2895994232278
 20
-162.5521478888565
 30
0.0
  0
SPLINE
  5
A0
330
70
100
AcDbEntity
  8
Capa 1
 62
    18
420
        0
370
     9
100
AcDbSpline
210
0.0
220
0.0
230
1.0
 70
     8
 71
     3
 72
    17
 73
    13
 74
     0
 42
0.0000000001
 43
0.0000000001
 40
0.0
 40
0.0
 40
0.0
 40
0.0
 40
1.0
 40
1.0
 40
1.0
 40
2.0
 40
2.0
 40
2.0
 40
3.0
 40
3.0
 40
3.0
 40
4.0
 40
4.0
 40
4.0
 40
4.0
 10
112.5066762967028
 20
-161.335062940939
 30
0.0
 10
112.5066762967028
 20
-161.335062940939
 30
0.0
 10
112.4537644747149
 20
-161.5996462742061
 30
0.0
 10
112.4537644747149
 20
-161.5996462742061
 30
0.0
 10
112.4537644747149
 20
-161.5996462742061
 30
0.0
 10
112.3479327562965
 20
-161.8642296074733
 30
0.0
 10
112.3479327562965
 20
-161.8642296074733
 30
0.0
 10
112.3479327562965
 20
-161.8642296074733
 30
0.0
 10
112.1891811414477
 20
-162.1288129407405
 30
0.0
 10
112.1891811414477
 20
-162.1288129407405
 30
0.0
 10
112.1891811414477
 20
-162.1288129407405
 30
0.0
 10
111.9775096301684
 20
-162.2875645555893
 30
0.0
 10
111.9775096301684
 20
-162.2875645555893
 30
0.0
  0
SPLINE
  5
A1
330
70
100
AcDbEntity
  8
Capa 1
 62
    18
420
        0
370
     9
100
AcDbSpline
210
0.0
220
0.0
230
1.0
 70
    24
 71
     3
 72
    26
 73
    22
 74
     0
 42
0.0000000001
 43
0.0000000001
 40
0.0
 40
0.0
 40
0.0
 40
0.0
 40
1.0
 40
1.0
 40
1.0
 40
2.0
 40
2.0
 40
2.0
 40
3.0
 40
3.0
 40
3.0
 40
4.0
 40
4.0
 40
4.0
 40
5.0
 40
5.0
 40
5.0
 40
6.0
 40
6.0
 40
6.0
 40
7.0
 40
7.0
 40
7.0
 40
7.0
 10
64.35251367929594
 20
-135.7763113324401
 30
0.0
 10
64.35251367929594
 20
-135.7763113324401
 30
0.0
 10
64.24667792365631
 20
-135.7763113324401
 30
0.0
 10
64.24667792365631
 20
-135.7763113324401
 30
0.0
 10
64.24667792365631
 20
-135.7763113324401
 30
0.0
 10
64.14084620523794
 20
-135.7763113324401
 30
0.0
 10
64.14084620523794
 20
-135.7763113324401
 30
0.0
 10
64.14084620523794
 20
-135.7763113324401
 30
0.0
 10
64.03501448681956
 20
-135.7763113324401
 30
0.0
 10
64.03501448681956
 20
-135.7763113324401
 30
0.0
 10
64.03501448681956
 20
-135.7763113324401
 30
0.0
 10
63.92917873117993
 20
-135.7763113324401
 30
0.0
 10
63.92917873117993
 20
-135.7763113324401
 30
0.0
 10
63.92917873117993
 20
-135.7763113324401
 30
0.0
 10
63.87626287197075
 20
-135.7763113324401
 30
0.0
 10
63.87626287197075
 20
-135.7763113324401
 30
0.0
 10
63.87626287197075
 20
-135.7763113324401
 30
0.0
 10
63.82334701276157
 20
-135.7763113324401
 30
0.0
 10
63.82334701276157
 20
-135.7763113324401
 30
0.0
 10
63.82334701276157
 20
-135.7763113324401
 30
0.0
 10
63.77043115355238
 20
-135.7763113324401
 30
0.0
 10
63.77043115355238
 20
-135.7763113324401
 30
0.0
  0
SPLINE
  5
A2
330
70
100
AcDbEntity
  8
Capa 1
 62
    18
420
        0
370
     9
100
AcDbSpline
210
0.0
220
0.0
230
1.0
 70
    24
 71
     3
 72
    29
 73
    25
 74
     0
 42
0.0000000001
 43
0.0000000001
 40
0.0
 40
0.0
 40
0.0
 40
0.0
 40
1.0
 40
1.0
 40
1.0
 40
2.0
 40
2.0
 40
2.0
 40
3.0
 40
3.0
 40
3.0
 40
4.0
 40
4.0
 40
4.0
 40
5.0
 40
5.0
 40
5.0
 40
6.0
 40
6.0
 40
6.0
 40
7.0
 40
7.0
 40
7.0
 40
8.0
 40
8.0
 40
8.0
 40
8.0
 10
113.7766811410508
 20
-135.7763113324401
 30
0.0
 10
113.7766811410508
 20
-135.7763113324401
 30
0.0
 10
113.7766811410508
 20
-135.7763113324401
 30
0.0
 10
113.7766811410508
 20
-135.7763113324401
 30
0.0
 10
113.7766811410508
 20
-135.7763113324401
 30
0.0
 10
113.7237612446203
 20
-135.7763113324401
 30
0.0
 10
113.7237612446203
 20
-135.7763113324401
 30
0.0
 10
113.7237612446203
 20
-135.7763113324401
 30
0.0
 10
113.6708494226324
 20
-135.7763113324401
 30
0.0
 10
113.6708494226324
 20
-135.7763113324401
 30
0.0
 10
113.6708494226324
 20
-135.7763113324401
 30
0.0
 10
113.617929526202
 20
-135.7763113324401
 30
0.0
 10
113.617929526202
 20
-135.7763113324401
 30
0.0
 10
113.617929526202
 20
-135.7763113324401
 30
0.0
 10
113.5120978077836
 20
-135.7763113324401
 30
0.0
 10
113.5120978077836
 20
-135.7763113324401
 30
0.0
 10
113.5120978077836
 20
-135.7763113324401
 30
0.0
 10
113.4062660893652
 20
-135.7763113324401
 30
0.0
 10
113.4062660893652
 20
-135.7763113324401
 30
0.0
 10
113.4062660893652
 20
-135.7763113324401
 30
0.0
 10
113.3004262965043
 20
-135.7763113324401
 30
0.0
 10
113.3004262965043
 20
-135.7763113324401
 30
0.0
 10
113.3004262965043
 20
-135.7763113324401
 30
0.0
 10
113.1416827560981
 20
-135.7763113324401
 30
0.0
 10
113.1416827560981
 20
-135.7763113324401
 30
0.0
  0
SPLINE
  5
A3
330
70
100
AcDbEntity
  8
Capa 1
 62
    18
420
        0
370
     9
100
AcDbSpline
210
0.0
220
0.0
230
1.0
 70
    24
 71
     3
 72
     8
 73
     4
 74
     0
 42
0.0000000001
 43
0.0000000001
 40
0.0
 40
0.0
 40
0.0
 40
0.0
 40
1.0
 40
1.0
 40
1.0
 40
1.0
 10
111.2895994232278
 20
-138.3692328431241
 30
0.0
 10
111.2895994232278
 20
-138.3692328431241
 30
0.0
 10
111.5541827564949
 20
-138.422144665112
 30
0.0
 10
111.5541827564949
 20
-138.422144665112
 30
0.0
  0
SPLINE
  5
A4
330
70
100
AcDbEntity
  8
Capa 1
 62
    18
420
        0
370
     9
100
AcDbSpline
210
0.0
220
0.0
230
1.0
 70
     8
 71
     3
 72
    11
 73
     7
 74
     0
 42
0.0000000001
 43
0.0000000001
 40
0.0
 40
0.0
 40
0.0
 40
0.0
 40
1.0
 40
1.0
 40
1.0
 40
2.0
 40
2.0
 40
2.0
 40
2.0
 10
111.9775096301684
 20
-162.2875645555893
 30
0.0
 10
111.9775096301684
 20
-162.2875645555893
 30
0.0
 10
111.6600144749133
 20
-162.4463161704382
 30
0.0
 10
111.6600144749133
 20
-162.4463161704382
 30
0.0
 10
111.6600144749133
 20
-162.4463161704382
 30
0.0
 10
111.3425112452157
 20
-162.4992279924261
 30
0.0
 10
111.3425112452157
 20
-162.4992279924261
 30
0.0
  0
SPLINE
  5
A5
330
70
100
AcDbEntity
  8
Capa 1
 62
    18
420
        0
370
     9
100
AcDbSpline
210
0.0
220
0.0
230
1.0
 70
    24
 71
     3
 72
     8
 73
     4
 74
     0
 42
0.0000000001
 43
0.0000000001
 40
0.0
 40
0.0
 40
0.0
 40
0.0
 40
1.0
 40
1.0
 40
1.0
 40
1.0
 10
111.2895994232278
 20
-162.4992279924261
 30
0.0
 10
111.2895994232278
 20
-162.4992279924261
 30
0.0
 10
111.2895994232278
 20
-162.5521478888565
 30
0.0
 10
111.2895994232278
 20
-162.5521478888565
 30
0.0
  0
SPLINE
  5
A6
330
70
100
AcDbEntity
  8
Capa 1
 62
    18
420
        0
370
     9
100
AcDbSpline
210
0.0
220
0.0
230
1.0
 70
    24
 71
     3
 72
     8
 73
     4
 74
     0
 42
0.0000000001
 43
0.0000000001
 40
0.0
 40
0.0
 40
0.0
 40
0.0
 40
1.0
 40
1.0
 40
1.0
 40
1.0
 10
111.3425112452157
 20
-162.4992279924261
 30
0.0
 10
111.3425112452157
 20
-162.4992279924261
 30
0.0
 10
111.2895994232278
 20
-162.4992279924261
 30
0.0
 10
111.2895994232278
 20
-162.4992279924261
 30
0.0
  0
SPLINE
  5
A7
330
70
100
AcDbEntity
  8
Capa 1
 62
    18
420
        0
370
     9
100
AcDbSpline
 70
     3
 71
     3
 72
     8
 73
     4
 74
     0
 42
0.0000000001
 43
0.0000000001
 40
0.0
 40
0.0
 40
0.0
 40
0.0
 40
1.0
 40
1.0
 40
1.0
 40
1.0
 10
111.2895994232278
 20
-138.3692328431241
 30
0.0
 10
111.2895994232278
 20
-138.3692328431241
 30
0.0
 10
111.2895994232278
 20
-138.3692328431241
 30
0.0
 10
111.2895994232278
 20
-138.3692328431241
 30
0.0
  0
SPLINE
  5
A8
330
70
100
AcDbEntity
  8
Capa 1
 62
    18
420
        0
370
     9
100
AcDbSpline
210
0.0
220
0.0
230
1.0
 70
    24
 71
     3
 72
     8
 73
     4
 74
     0
 42
0.0000000001
 43
0.0000000001
 40
0.0
 40
0.0
 40
0.0
 40
0.0
 40
1.0
 40
1.0
 40
1.0
 40
1.0
 10
111.2895994232278
 20
-161.5467344522182
 30
0.0
 10
111.2895994232278
 20
-161.5467344522182
 30
0.0
 10
111.3425112452157
 20
-161.5467344522182
 30
0.0
 10
111.3425112452157
 20
-161.5467344522182
 30
0.0
  0
SPLINE
  5
A9
330
70
100
AcDbEntity
  8
Capa 1
 62
    18
420
        0
370
     9
100
AcDbSpline
210
0.0
220
0.0
230
1.0
 70
    11
 71
     3
 72
   137
 73
   133
 74
     0
 42
0.0000000001
 43
0.0000000001
 40
0.0
 40
0.0
 40
0.0
 40
0.0
 40
1.0
 40
1.0
 40
1.0
 40
2.0
 40
2.0
 40
2.0
 40
3.0
 40
3.0
 40
3.0
 40
4.0
 40
4.0
 40
4.0
 40
5.0
 40
5.0
 40
5.0
 40
6.0
 40
6.0
 40
6.0
 40
7.0
 40
7.0
 40
7.0
 40
8.0
 40
8.0
 40
8.0
 40
9.0
 40
9.0
 40
9.0
 40
10.0
 40
10.0
 40
10.0
 40
11.0
 40
11.0
 40
11.0
 40
12.0
 40
12.0
 40
12.0
 40
13.0
 40
13.0
 40
13.0
 40
14.0
 40
14.0
 40
14.0
 40
15.0
 40
15.0
 40
15.0
 40
16.0
 40
16.0
 40
16.0
 40
17.0
 40
17.0
 40
17.0
 40
18.0
 40
18.0
 40
18.0
 40
19.0
 40
19.0
 40
19.0
 40
20.0
 40
20.0
 40
20.0
 40
21.0
 40
21.0
 40
21.0
 40
22.0
 40
22.0
 40
22.0
 40
23.0
 40
23.0
 40
23.0
 40
24.0
 40
24.0
 40
24.0
 40
25.0
 40
25.0
 40
25.0
 40
26.0
 40
26.0
 40
26.0
 40
27.0
 40
27.0
 40
27.0
 40
28.0
 40
28.0
 40
28.0
 40
29.0
 40
29.0
 40
29.0
 40
30.0
 40
30.0
 40
30.0
 40
31.0
 40
31.0
 40
31.0
 40
32.0
 40
32.0
 40
32.0
 40
33.0
 40
33.0
 40
33.0
 40
34.0
 40
34.0
 40
34.0
 40
35.0
 40
35.0
 40
35.0
 40
36.0
 40
36.0
 40
36.0
 40
37.0
 40
37.0
 40
37.0
 40
38.0
 40
38.0
 40
38.0
 40
39.0
 40
39.0
 40
39.0
 40
40.0
 40
40.0
 40
40.0
 40
41.0
 40
41.0
 40
41.0
 40
42.0
 40
42.0
 40
42.0
 40
43.0
 40
43.0
 40
43.0
 40
44.0
 40
44.0
 40
44.0
 40
44.0
 10
107.5854327574871
 20
-150.2754828401475
 30
0.0
 10
107.5854327574871
 20
-150.2754828401475
 30
0.0
 10
107.5854327574871
 20
-149.9579796104499
 30
0.0
 10
107.5854327574871
 20
-149.9579796104499
 30
0.0
 10
107.5854327574871
 20
-149.9579796104499
 30
0.0
 10
107.4795929646262
 20
-149.6933962771827
 30
0.0
 10
107.4795929646262
 20
-149.6933962771827
 30
0.0
 10
107.4795929646262
 20
-149.6933962771827
 30
0.0
 10
107.3737612462078
 20
-149.3759011219276
 30
0.0
 10
107.3737612462078
 20
-149.3759011219276
 30
0.0
 10
107.3737612462078
 20
-149.3759011219276
 30
0.0
 10
107.215009631359
 20
-149.1113177886604
 30
0.0
 10
107.215009631359
 20
-149.1113177886604
 30
0.0
 10
107.215009631359
 20
-149.1113177886604
 30
0.0
 10
107.0562660909527
 20
-148.8467344553932
 30
0.0
 10
107.0562660909527
 20
-148.8467344553932
 30
0.0
 10
107.0562660909527
 20
-148.8467344553932
 30
0.0
 10
106.8445945796735
 20
-148.6350629441139
 30
0.0
 10
106.8445945796735
 20
-148.6350629441139
 30
0.0
 10
106.8445945796735
 20
-148.6350629441139
 30
0.0
 10
106.5800112464063
 20
-148.4763113292651
 30
0.0
 10
106.5800112464063
 20
-148.4763113292651
 30
0.0
 10
106.5800112464063
 20
-148.4763113292651
 30
0.0
 10
106.3154279131391
 20
-148.3175677888588
 30
0.0
 10
106.3154279131391
 20
-148.3175677888588
 30
0.0
 10
106.3154279131391
 20
-148.3175677888588
 30
0.0
 10
106.0508445798719
 20
-148.2117279959979
 30
0.0
 10
106.0508445798719
 20
-148.2117279959979
 30
0.0
 10
106.0508445798719
 20
-148.2117279959979
 30
0.0
 10
105.7333494246168
 20
-148.15881617401
 30
0.0
 10
105.7333494246168
 20
-148.15881617401
 30
0.0
 10
105.7333494246168
 20
-148.15881617401
 30
0.0
 10
105.4158461949192
 20
-148.1058962775796
 30
0.0
 10
105.4158461949192
 20
-148.1058962775796
 30
0.0
 10
105.4158461949192
 20
-148.1058962775796
 30
0.0
 10
105.0983429652215
 20
-148.15881617401
 30
0.0
 10
105.0983429652215
 20
-148.15881617401
 30
0.0
 10
105.0983429652215
 20
-148.15881617401
 30
0.0
 10
104.8337596319543
 20
-148.2117279959979
 30
0.0
 10
104.8337596319543
 20
-148.2117279959979
 30
0.0
 10
104.8337596319543
 20
-148.2117279959979
 30
0.0
 10
104.5162644766992
 20
-148.3175677888588
 30
0.0
 10
104.5162644766992
 20
-148.3175677888588
 30
0.0
 10
104.5162644766992
 20
-148.3175677888588
 30
0.0
 10
104.251681143432
 20
-148.4763113292651
 30
0.0
 10
104.251681143432
 20
-148.4763113292651
 30
0.0
 10
104.251681143432
 20
-148.4763113292651
 30
0.0
 10
103.9870978101649
 20
-148.6350629441139
 30
0.0
 10
103.9870978101649
 20
-148.6350629441139
 30
0.0
 10
103.9870978101649
 20
-148.6350629441139
 30
0.0
 10
103.7754262988856
 20
-148.8467344553932
 30
0.0
 10
103.7754262988856
 20
-148.8467344553932
 30
0.0
 10
103.7754262988856
 20
-148.8467344553932
 30
0.0
 10
103.6166827584793
 20
-149.1113177886604
 30
0.0
 10
103.6166827584793
 20
-149.1113177886604
 30
0.0
 10
103.6166827584793
 20
-149.1113177886604
 30
0.0
 10
103.4579311436305
 20
-149.3759011219276
 30
0.0
 10
103.4579311436305
 20
-149.3759011219276
 30
0.0
 10
103.4579311436305
 20
-149.3759011219276
 30
0.0
 10
103.3520994252121
 20
-149.6933962771827
 30
0.0
 10
103.3520994252121
 20
-149.6933962771827
 30
0.0
 10
103.3520994252121
 20
-149.6933962771827
 30
0.0
 10
103.2991795287817
 20
-149.9579796104499
 30
0.0
 10
103.2991795287817
 20
-149.9579796104499
 30
0.0
 10
103.2991795287817
 20
-149.9579796104499
 30
0.0
 10
103.2462596323512
 20
-150.2754828401475
 30
0.0
 10
103.2462596323512
 20
-150.2754828401475
 30
0.0
 10
103.2462596323512
 20
-150.2754828401475
 30
0.0
 10
103.2991795287817
 20
-150.5929779954026
 30
0.0
 10
103.2991795287817
 20
-150.5929779954026
 30
0.0
 10
103.2991795287817
 20
-150.5929779954026
 30
0.0
 10
103.3520994252121
 20
-150.9104812251003
 30
0.0
 10
103.3520994252121
 20
-150.9104812251003
 30
0.0
 10
103.3520994252121
 20
-150.9104812251003
 30
0.0
 10
103.4579311436305
 20
-151.1750645583675
 30
0.0
 10
103.4579311436305
 20
-151.1750645583675
 30
0.0
 10
103.4579311436305
 20
-151.1750645583675
 30
0.0
 10
103.6166827584793
 20
-151.4396478916347
 30
0.0
 10
103.6166827584793
 20
-151.4396478916347
 30
0.0
 10
103.6166827584793
 20
-151.4396478916347
 30
0.0
 10
103.7754262988856
 20
-151.7042312249018
 30
0.0
 10
103.7754262988856
 20
-151.7042312249018
 30
0.0
 10
103.7754262988856
 20
-151.7042312249018
 30
0.0
 10
103.9870978101649
 20
-151.9158946617386
 30
0.0
 10
103.9870978101649
 20
-151.9158946617386
 30
0.0
 10
103.9870978101649
 20
-151.9158946617386
 30
0.0
 10
104.251681143432
 20
-152.0746462765874
 30
0.0
 10
104.251681143432
 20
-152.0746462765874
 30
0.0
 10
104.251681143432
 20
-152.0746462765874
 30
0.0
 10
104.5162644766992
 20
-152.2333978914362
 30
0.0
 10
104.5162644766992
 20
-152.2333978914362
 30
0.0
 10
104.5162644766992
 20
-152.2333978914362
 30
0.0
 10
104.8337596319543
 20
-152.3392296098546
 30
0.0
 10
104.8337596319543
 20
-152.3392296098546
 30
0.0
 10
104.8337596319543
 20
-152.3392296098546
 30
0.0
 10
105.0983429652215
 20
-152.445061328273
 30
0.0
 10
105.0983429652215
 20
-152.445061328273
 30
0.0
 10
105.0983429652215
 20
-152.445061328273
 30
0.0
 10
105.4158461949192
 20
-152.445061328273
 30
0.0
 10
105.4158461949192
 20
-152.445061328273
 30
0.0
 10
105.4158461949192
 20
-152.445061328273
 30
0.0
 10
105.7333494246168
 20
-152.445061328273
 30
0.0
 10
105.7333494246168
 20
-152.445061328273
 30
0.0
 10
105.7333494246168
 20
-152.445061328273
 30
0.0
 10
106.0508445798719
 20
-152.3392296098546
 30
0.0
 10
106.0508445798719
 20
-152.3392296098546
 30
0.0
 10
106.0508445798719
 20
-152.3392296098546
 30
0.0
 10
106.3154279131391
 20
-152.2333978914362
 30
0.0
 10
106.3154279131391
 20
-152.2333978914362
 30
0.0
 10
106.3154279131391
 20
-152.2333978914362
 30
0.0
 10
106.5800112464063
 20
-152.0746462765874
 30
0.0
 10
106.5800112464063
 20
-152.0746462765874
 30
0.0
 10
106.5800112464063
 20
-152.0746462765874
 30
0.0
 10
106.8445945796735
 20
-151.9158946617386
 30
0.0
 10
106.8445945796735
 20
-151.9158946617386
 30
0.0
 10
106.8445945796735
 20
-151.9158946617386
 30
0.0
 10
107.0562660909527
 20
-151.7042312249018
 30
0.0
 10
107.0562660909527
 20
-151.7042312249018
 30
0.0
 10
107.0562660909527
 20
-151.7042312249018
 30
0.0
 10
107.215009631359
 20
-151.4396478916347
 30
0.0
 10
107.215009631359
 20
-151.4396478916347
 30
0.0
 10
107.215009631359
 20
-151.4396478916347
 30
0.0
 10
107.3737612462078
 20
-151.1750645583675
 30
0.0
 10
107.3737612462078
 20
-151.1750645583675
 30
0.0
 10
107.3737612462078
 20
-151.1750645583675
 30
0.0
 10
107.4795929646262
 20
-150.9104812251003
 30
0.0
 10
107.4795929646262
 20
-150.9104812251003
 30
0.0
 10
107.4795929646262
 20
-150.9104812251003
 30
0.0
 10
107.5854327574871
 20
-150.5929779954026
 30
0.0
 10
107.5854327574871
 20
-150.5929779954026
 30
0.0
 10
107.5854327574871
 20
-150.5929779954026
 30
0.0
 10
107.5854327574871
 20
-150.2754828401475
 30
0.0
 10
107.5854327574871
 20
-150.2754828401475
 30
0.0
  0
SPLINE
  5
AA
330
70
100
AcDbEntity
  8
Capa 1
 62
    18
420
        0
370
     9
100
AcDbSpline
210
0.0
220
0.0
230
1.0
 70
    11
 71
     3
 72
   155
 73
   151
 74
     0
 42
0.0000000001
 43
0.0000000001
 40
0.0
 40
0.0
 40
0.0
 40
0.0
 40
1.0
 40
1.0
 40
1.0
 40
2.0
 40
2.0
 40
2.0
 40
3.0
 40
3.0
 40
3.0
 40
4.0
 40
4.0
 40
4.0
 40
5.0
 40
5.0
 40
5.0
 40
6.0
 40
6.0
 40
6.0
 40
7.0
 40
7.0
 40
7.0
 40
8.0
 40
8.0
 40
8.0
 40
9.0
 40
9.0
 40
9.0
 40
10.0
 40
10.0
 40
10.0
 40
11.0
 40
11.0
 40
11.0
 40
12.0
 40
12.0
 40
12.0
 40
13.0
 40
13.0
 40
13.0
 40
14.0
 40
14.0
 40
14.0
 40
15.0
 40
15.0
 40
15.0
 40
16.0
 40
16.0
 40
16.0
 40
17.0
 40
17.0
 40
17.0
 40
18.0
 40
18.0
 40
18.0
 40
19.0
 40
19.0
 40
19.0
 40
20.0
 40
20.0
 40
20.0
 40
21.0
 40
21.0
 40
21.0
 40
22.0
 40
22.0
 40
22.0
 40
23.0
 40
23.0
 40
23.0
 40
24.0
 40
24.0
 40
24.0
 40
25.0
 40
25.0
 40
25.0
 40
26.0
 40
26.0
 40
26.0
 40
27.0
 40
27.0
 40
27.0
 40
28.0
 40
28.0
 40
28.0
 40
29.0
 40
29.0
 40
29.0
 40
30.0
 40
30.0
 40
30.0
 40
31.0
 40
31.0
 40
31.0
 40
32.0
 40
32.0
 40
32.0
 40
33.0
 40
33.0
 40
33.0
 40
34.0
 40
34.0
 40
34.0
 40
35.0
 40
35.0
 40
35.0
 40
36.0
 40
36.0
 40
36.0
 40
37.0
 40
37.0
 40
37.0
 40
38.0
 40
38.0
 40
38.0
 40
39.0
 40
39.0
 40
39.0
 40
40.0
 40
40.0
 40
40.0
 40
41.0
 40
41.0
 40
41.0
 40
42.0
 40
42.0
 40
42.0
 40
43.0
 40
43.0
 40
43.0
 40
44.0
 40
44.0
 40
44.0
 40
45.0
 40
45.0
 40
45.0
 40
46.0
 40
46.0
 40
46.0
 40
47.0
 40
47.0
 40
47.0
 40
48.0
 40
48.0
 40
48.0
 40
49.0
 40
49.0
 40
49.0
 40
50.0
 40
50.0
 40
50.0
 40
50.0
 10
85.94251125156567
 20
-150.2754828401475
 30
0.0
 10
85.94251125156567
 20
-150.2754828401475
 30
0.0
 10
85.94251125156567
 20
-150.6458978918331
 30
0.0
 10
85.94251125156567
 20
-150.6458978918331
 30
0.0
 10
85.94251125156567
 20
-150.6458978918331
 30
0.0
 10
85.99543114799613
 20
-151.0163129435186
 30
0.0
 10
85.99543114799613
 20
-151.0163129435186
 30
0.0
 10
85.99543114799613
 20
-151.0163129435186
 30
0.0
 10
86.1541746884024
 20
-151.3338161732163
 30
0.0
 10
86.1541746884024
 20
-151.3338161732163
 30
0.0
 10
86.1541746884024
 20
-151.3338161732163
 30
0.0
 10
86.26001448126332
 20
-151.6513113284714
 30
0.0
 10
86.26001448126332
 20
-151.6513113284714
 30
0.0
 10
86.26001448126332
 20
-151.6513113284714
 30
0.0
 10
86.47167791810005
 20
-151.968814558169
 30
0.0
 10
86.47167791810005
 20
-151.968814558169
 30
0.0
 10
86.47167791810005
 20
-151.968814558169
 30
0.0
 10
86.68334135493678
 20
-152.2333978914362
 30
0.0
 10
86.68334135493678
 20
-152.2333978914362
 30
0.0
 10
86.68334135493678
 20
-152.2333978914362
 30
0.0
 10
86.94792468820397
 20
-152.445061328273
 30
0.0
 10
86.94792468820397
 20
-152.445061328273
 30
0.0
 10
86.94792468820397
 20
-152.445061328273
 30
0.0
 10
87.26542791790162
 20
-152.6567328395522
 30
0.0
 10
87.26542791790162
 20
-152.6567328395522
 30
0.0
 10
87.26542791790162
 20
-152.6567328395522
 30
0.0
 10
87.58293114759926
 20
-152.8683962763889
 30
0.0
 10
87.58293114759926
 20
-152.8683962763889
 30
0.0
 10
87.58293114759926
 20
-152.8683962763889
 30
0.0
 10
87.90042630285435
 20
-152.9742279948073
 30
0.0
 10
87.90042630285435
 20
-152.9742279948073
 30
0.0
 10
87.90042630285435
 20
-152.9742279948073
 30
0.0
 10
88.21792953255201
 20
-153.0800677876682
 30
0.0
 10
88.21792953255201
 20
-153.0800677876682
 30
0.0
 10
88.21792953255201
 20
-153.0800677876682
 30
0.0
 10
88.58834458423755
 20
-153.1329796096561
 30
0.0
 10
88.58834458423755
 20
-153.1329796096561
 30
0.0
 10
88.58834458423755
 20
-153.1329796096561
 30
0.0
 10
88.9587596359231
 20
-153.1329796096561
 30
0.0
 10
88.9587596359231
 20
-153.1329796096561
 30
0.0
 10
88.9587596359231
 20
-153.1329796096561
 30
0.0
 10
89.27626286562075
 20
-153.0800677876682
 30
0.0
 10
89.27626286562075
 20
-153.0800677876682
 30
0.0
 10
89.27626286562075
 20
-153.0800677876682
 30
0.0
 10
89.64667791730631
 20
-152.9742279948073
 30
0.0
 10
89.64667791730631
 20
-152.9742279948073
 30
0.0
 10
89.64667791730631
 20
-152.9742279948073
 30
0.0
 10
89.96418114700395
 20
-152.8683962763889
 30
0.0
 10
89.96418114700395
 20
-152.8683962763889
 30
0.0
 10
89.96418114700395
 20
-152.8683962763889
 30
0.0
 10
90.28167630225905
 20
-152.6567328395522
 30
0.0
 10
90.28167630225905
 20
-152.6567328395522
 30
0.0
 10
90.28167630225905
 20
-152.6567328395522
 30
0.0
 10
90.5991795319567
 20
-152.445061328273
 30
0.0
 10
90.5991795319567
 20
-152.445061328273
 30
0.0
 10
90.5991795319567
 20
-152.445061328273
 30
0.0
 10
90.86376286522387
 20
-152.2333978914362
 30
0.0
 10
90.86376286522387
 20
-152.2333978914362
 30
0.0
 10
90.86376286522387
 20
-152.2333978914362
 30
0.0
 10
91.0754263020606
 20
-151.968814558169
 30
0.0
 10
91.0754263020606
 20
-151.968814558169
 30
0.0
 10
91.0754263020606
 20
-151.968814558169
 30
0.0
 10
91.23417791690943
 20
-151.6513113284714
 30
0.0
 10
91.23417791690943
 20
-151.6513113284714
 30
0.0
 10
91.23417791690943
 20
-151.6513113284714
 30
0.0
 10
91.39292953175825
 20
-151.3338161732163
 30
0.0
 10
91.39292953175825
 20
-151.3338161732163
 30
0.0
 10
91.39292953175825
 20
-151.3338161732163
 30
0.0
 10
91.49876125017661
 20
-151.0163129435186
 30
0.0
 10
91.49876125017661
 20
-151.0163129435186
 30
0.0
 10
91.49876125017661
 20
-151.0163129435186
 30
0.0
 10
91.60459296859498
 20
-150.6458978918331
 30
0.0
 10
91.60459296859498
 20
-150.6458978918331
 30
0.0
 10
91.60459296859498
 20
-150.6458978918331
 30
0.0
 10
91.60459296859498
 20
-150.2754828401475
 30
0.0
 10
91.60459296859498
 20
-150.2754828401475
 30
0.0
 10
91.60459296859498
 20
-150.2754828401475
 30
0.0
 10
91.60459296859498
 20
-149.905067788462
 30
0.0
 10
91.60459296859498
 20
-149.905067788462
 30
0.0
 10
91.60459296859498
 20
-149.905067788462
 30
0.0
 10
91.49876125017661
 20
-149.5875645587643
 30
0.0
 10
91.49876125017661
 20
-149.5875645587643
 30
0.0
 10
91.49876125017661
 20
-149.5875645587643
 30
0.0
 10
91.39292953175825
 20
-149.2171495070788
 30
0.0
 10
91.39292953175825
 20
-149.2171495070788
 30
0.0
 10
91.39292953175825
 20
-149.2171495070788
 30
0.0
 10
91.23417791690943
 20
-148.8996462773811
 30
0.0
 10
91.23417791690943
 20
-148.8996462773811
 30
0.0
 10
91.23417791690943
 20
-148.8996462773811
 30
0.0
 10
91.0754263020606
 20
-148.6350629441139
 30
0.0
 10
91.0754263020606
 20
-148.6350629441139
 30
0.0
 10
91.0754263020606
 20
-148.6350629441139
 30
0.0
 10
90.86376286522387
 20
-148.3175677888588
 30
0.0
 10
90.86376286522387
 20
-148.3175677888588
 30
0.0
 10
90.86376286522387
 20
-148.3175677888588
 30
0.0
 10
90.5991795319567
 20
-148.1058962775796
 30
0.0
 10
90.5991795319567
 20
-148.1058962775796
 30
0.0
 10
90.5991795319567
 20
-148.1058962775796
 30
0.0
 10
90.28167630225905
 20
-147.8942328407428
 30
0.0
 10
90.28167630225905
 20
-147.8942328407428
 30
0.0
 10
90.28167630225905
 20
-147.8942328407428
 30
0.0
 10
89.96418114700395
 20
-147.735481225894
 30
0.0
 10
89.96418114700395
 20
-147.735481225894
 30
0.0
 10
89.96418114700395
 20
-147.735481225894
 30
0.0
 10
89.64667791730631
 20
-147.5767296110452
 30
0.0
 10
89.64667791730631
 20
-147.5767296110452
 30
0.0
 10
89.64667791730631
 20
-147.5767296110452
 30
0.0
 10
89.27626286562075
 20
-147.4708978926268
 30
0.0
 10
89.27626286562075
 20
-147.4708978926268
 30
0.0
 10
89.27626286562075
 20
-147.4708978926268
 30
0.0
 10
88.9587596359231
 20
-147.4708978926268
 30
0.0
 10
88.9587596359231
 20
-147.4708978926268
 30
0.0
 10
88.9587596359231
 20
-147.4708978926268
 30
0.0
 10
88.58834458423755
 20
-147.4708978926268
 30
0.0
 10
88.58834458423755
 20
-147.4708978926268
 30
0.0
 10
88.58834458423755
 20
-147.4708978926268
 30
0.0
 10
88.21792953255201
 20
-147.4708978926268
 30
0.0
 10
88.21792953255201
 20
-147.4708978926268
 30
0.0
 10
88.21792953255201
 20
-147.4708978926268
 30
0.0
 10
87.90042630285435
 20
-147.5767296110452
 30
0.0
 10
87.90042630285435
 20
-147.5767296110452
 30
0.0
 10
87.90042630285435
 20
-147.5767296110452
 30
0.0
 10
87.58293114759926
 20
-147.735481225894
 30
0.0
 10
87.58293114759926
 20
-147.735481225894
 30
0.0
 10
87.58293114759926
 20
-147.735481225894
 30
0.0
 10
87.26542791790162
 20
-147.8942328407428
 30
0.0
 10
87.26542791790162
 20
-147.8942328407428
 30
0.0
 10
87.26542791790162
 20
-147.8942328407428
 30
0.0
 10
86.94792468820397
 20
-148.1058962775796
 30
0.0
 10
86.94792468820397
 20
-148.1058962775796
 30
0.0
 10
86.94792468820397
 20
-148.1058962775796
 30
0.0
 10
86.68334135493678
 20
-148.3175677888588
 30
0.0
 10
86.68334135493678
 20
-148.3175677888588
 30
0.0
 10
86.68334135493678
 20
-148.3175677888588
 30
0.0
 10
86.47167791810005
 20
-148.6350629441139
 30
0.0
 10
86.47167791810005
 20
-148.6350629441139
 30
0.0
 10
86.47167791810005
 20
-148.6350629441139
 30
0.0
 10
86.26001448126332
 20
-148.8996462773811
 30
0.0
 10
86.26001448126332
 20
-148.8996462773811
 30
0.0
 10
86.26001448126332
 20
-148.8996462773811
 30
0.0
 10
86.1541746884024
 20
-149.2171495070788
 30
0.0
 10
86.1541746884024
 20
-149.2171495070788
 30
0.0
 10
86.1541746884024
 20
-149.2171495070788
 30
0.0
 10
85.99543114799613
 20
-149.5875645587643
 30
0.0
 10
85.99543114799613
 20
-149.5875645587643
 30
0.0
 10
85.99543114799613
 20
-149.5875645587643
 30
0.0
 10
85.94251125156567
 20
-149.905067788462
 30
0.0
 10
85.94251125156567
 20
-149.905067788462
 30
0.0
 10
85.94251125156567
 20
-149.905067788462
 30
0.0
 10
85.94251125156567
 20
-150.2754828401475
 30
0.0
 10
85.94251125156567
 20
-150.2754828401475
 30
0.0
  0
SPLINE
  5
AB
330
70
100
AcDbEntity
  8
Capa 1
 62
    18
420
        0
370
     9
100
AcDbSpline
 70
     3
 71
     3
 72
     8
 73
     4
 74
     0
 42
0.0000000001
 43
0.0000000001
 40
0.0
 40
0.0
 40
0.0
 40
0.0
 40
1.0
 40
1.0
 40
1.0
 40
1.0
 10
109.0141811422414
 20
-135.0884011254995
 30
0.0
 10
109.0141811422414
 20
-135.0884011254995
 30
0.0
 10
109.0141811422414
 20
-135.0884011254995
 30
0.0
 10
109.0141811422414
 20
-135.0884011254995
 30
0.0
  0
SPLINE
  5
AC
330
70
100
AcDbEntity
  8
Capa 1
 62
    18
420
        0
370
     9
100
AcDbSpline
210
0.0
220
0.0
230
1.0
 70
     8
 71
     3
 72
    17
 73
    13
 74
     0
 42
0.0000000001
 43
0.0000000001
 40
0.0
 40
0.0
 40
0.0
 40
0.0
 40
1.0
 40
1.0
 40
1.0
 40
2.0
 40
2.0
 40
2.0
 40
3.0
 40
3.0
 40
3.0
 40
4.0
 40
4.0
 40
4.0
 40
4.0
 10
108.8554295273926
 20
-135.1942328439178
 30
0.0
 10
108.8554295273926
 20
-135.1942328439178
 30
0.0
 10
108.8554295273926
 20
-135.1413129474874
 30
0.0
 10
108.8554295273926
 20
-135.1413129474874
 30
0.0
 10
108.8554295273926
 20
-135.1413129474874
 30
0.0
 10
108.9083494238231
 20
-135.1413129474874
 30
0.0
 10
108.9083494238231
 20
-135.1413129474874
 30
0.0
 10
108.9083494238231
 20
-135.1413129474874
 30
0.0
 10
108.961261245811
 20
-135.0884011254995
 30
0.0
 10
108.961261245811
 20
-135.0884011254995
 30
0.0
 10
108.961261245811
 20
-135.0884011254995
 30
0.0
 10
109.0141811422414
 20
-135.0884011254995
 30
0.0
 10
109.0141811422414
 20
-135.0884011254995
 30
0.0
  0
SPLINE
  5
AD
330
70
100
AcDbEntity
  8
Capa 1
 62
    18
420
        0
370
     9
100
AcDbSpline
210
0.0
220
0.0
230
1.0
 70
    24
 71
     3
 72
     8
 73
     4
 74
     0
 42
0.0000000001
 43
0.0000000001
 40
0.0
 40
0.0
 40
0.0
 40
0.0
 40
1.0
 40
1.0
 40
1.0
 40
1.0
 10
108.8025096309621
 20
-135.1942328439178
 30
0.0
 10
108.8025096309621
 20
-135.1942328439178
 30
0.0
 10
108.8554295273926
 20
-135.1413129474874
 30
0.0
 10
108.8554295273926
 20
-135.1413129474874
 30
0.0
  0
SPLINE
  5
AE
330
70
100
AcDbEntity
  8
Capa 1
 62
    18
420
        0
370
     9
100
AcDbSpline
210
0.0
220
0.0
230
1.0
 70
    24
 71
     3
 72
    11
 73
     7
 74
     0
 42
0.0000000001
 43
0.0000000001
 40
0.0
 40
0.0
 40
0.0
 40
0.0
 40
1.0
 40
1.0
 40
1.0
 40
2.0
 40
2.0
 40
2.0
 40
2.0
 10
108.8554295273926
 20
-135.1413129474874
 30
0.0
 10
108.8554295273926
 20
-135.1413129474874
 30
0.0
 10
108.8554295273926
 20
-135.1413129474874
 30
0.0
 10
108.8554295273926
 20
-135.1413129474874
 30
0.0
 10
108.8554295273926
 20
-135.1413129474874
 30
0.0
 10
108.9083494238231
 20
-135.1413129474874
 30
0.0
 10
108.9083494238231
 20
-135.1413129474874
 30
0.0
  0
SPLINE
  5
AF
330
70
100
AcDbEntity
  8
Capa 1
 62
    18
420
        0
370
     9
100
AcDbSpline
210
0.0
220
0.0
230
1.0
 70
    24
 71
     3
 72
     8
 73
     4
 74
     0
 42
0.0000000001
 43
0.0000000001
 40
0.0
 40
0.0
 40
0.0
 40
0.0
 40
1.0
 40
1.0
 40
1.0
 40
1.0
 10
110.6016811418445
 20
-135.0884011254995
 30
0.0
 10
110.6016811418445
 20
-135.0884011254995
 30
0.0
 10
110.7075128602629
 20
-135.1413129474874
 30
0.0
 10
110.7075128602629
 20
-135.1413129474874
 30
0.0
  0
SPLINE
  5
B0
330
70
100
AcDbEntity
  8
Capa 1
 62
    18
420
        0
370
     9
100
AcDbSpline
210
0.0
220
0.0
230
1.0
 70
    24
 71
     3
 72
    11
 73
     7
 74
     0
 42
0.0000000001
 43
0.0000000001
 40
0.0
 40
0.0
 40
0.0
 40
0.0
 40
1.0
 40
1.0
 40
1.0
 40
2.0
 40
2.0
 40
2.0
 40
2.0
 10
110.7075128602629
 20
-135.1413129474874
 30
0.0
 10
110.7075128602629
 20
-135.1413129474874
 30
0.0
 10
110.7075128602629
 20
-135.1413129474874
 30
0.0
 10
110.7075128602629
 20
-135.1413129474874
 30
0.0
 10
110.7075128602629
 20
-135.1413129474874
 30
0.0
 10
110.7604327566934
 20
-135.1413129474874
 30
0.0
 10
110.7604327566934
 20
-135.1413129474874
 30
0.0
  0
SPLINE
  5
B1
330
70
100
AcDbEntity
  8
Capa 1
 62
    18
420
        0
370
     9
100
AcDbSpline
210
0.0
220
0.0
230
1.0
 70
    24
 71
     3
 72
     8
 73
     4
 74
     0
 42
0.0000000001
 43
0.0000000001
 40
0.0
 40
0.0
 40
0.0
 40
0.0
 40
1.0
 40
1.0
 40
1.0
 40
1.0
 10
110.7604327566934
 20
-135.1413129474874
 30
0.0
 10
110.7604327566934
 20
-135.1413129474874
 30
0.0
 10
110.7604327566934
 20
-135.1942328439178
 30
0.0
 10
110.7604327566934
 20
-135.1942328439178
 30
0.0
  0
SPLINE
  5
B2
330
70
100
AcDbEntity
  8
Capa 1
 62
    18
420
        0
370
     9
100
AcDbSpline
210
0.0
220
0.0
230
1.0
 70
     8
 71
     3
 72
    17
 73
    13
 74
     0
 42
0.0000000001
 43
0.0000000001
 40
0.0
 40
0.0
 40
0.0
 40
0.0
 40
1.0
 40
1.0
 40
1.0
 40
2.0
 40
2.0
 40
2.0
 40
3.0
 40
3.0
 40
3.0
 40
4.0
 40
4.0
 40
4.0
 40
4.0
 10
110.6016811418445
 20
-135.0884011254995
 30
0.0
 10
110.6016811418445
 20
-135.0884011254995
 30
0.0
 10
110.6545929638325
 20
-135.0884011254995
 30
0.0
 10
110.6545929638325
 20
-135.0884011254995
 30
0.0
 10
110.6545929638325
 20
-135.0884011254995
 30
0.0
 10
110.7075128602629
 20
-135.1413129474874
 30
0.0
 10
110.7075128602629
 20
-135.1413129474874
 30
0.0
 10
110.7075128602629
 20
-135.1413129474874
 30
0.0
 10
110.7604327566934
 20
-135.1413129474874
 30
0.0
 10
110.7604327566934
 20
-135.1413129474874
 30
0.0
 10
110.7604327566934
 20
-135.1413129474874
 30
0.0
 10
110.7604327566934
 20
-135.1942328439178
 30
0.0
 10
110.7604327566934
 20
-135.1942328439178
 30
0.0
  0
SPLINE
  5
B3
330
70
100
AcDbEntity
  8
Capa 1
 62
    18
420
        0
370
     9
100
AcDbSpline
 70
     3
 71
     3
 72
     8
 73
     4
 74
     0
 42
0.0000000001
 43
0.0000000001
 40
0.0
 40
0.0
 40
0.0
 40
0.0
 40
1.0
 40
1.0
 40
1.0
 40
1.0
 10
110.6016811418445
 20
-135.0884011254995
 30
0.0
 10
110.6016811418445
 20
-135.0884011254995
 30
0.0
 10
110.6016811418445
 20
-135.0884011254995
 30
0.0
 10
110.6016811418445
 20
-135.0884011254995
 30
0.0
  0
SPLINE
  5
B4
330
70
100
AcDbEntity
  8
Capa 1
 62
    18
420
        0
370
     9
100
AcDbSpline
210
0.0
220
0.0
230
1.0
 70
    24
 71
     3
 72
     8
 73
     4
 74
     0
 42
0.0000000001
 43
0.0000000001
 40
0.0
 40
0.0
 40
0.0
 40
0.0
 40
1.0
 40
1.0
 40
1.0
 40
1.0
 10
108.8025096309621
 20
-135.0884011254995
 30
0.0
 10
108.8025096309621
 20
-135.0884011254995
 30
0.0
 10
108.8554295273926
 20
-135.0884011254995
 30
0.0
 10
108.8554295273926
 20
-135.0884011254995
 30
0.0
  0
SPLINE
  5
B5
330
70
100
AcDbEntity
  8
Capa 1
 62
    18
420
        0
370
     9
100
AcDbSpline
 70
     3
 71
     3
 72
     8
 73
     4
 74
     0
 42
0.0000000001
 43
0.0000000001
 40
0.0
 40
0.0
 40
0.0
 40
0.0
 40
1.0
 40
1.0
 40
1.0
 40
1.0
 10
108.8025096309621
 20
-135.0884011254995
 30
0.0
 10
108.8025096309621
 20
-135.0884011254995
 30
0.0
 10
108.8025096309621
 20
-135.0884011254995
 30
0.0
 10
108.8025096309621
 20
-135.0884011254995
 30
0.0
  0
SPLINE
  5
B6
330
70
100
AcDbEntity
  8
Capa 1
 62
    18
420
        0
370
     9
100
AcDbSpline
210
0.0
220
0.0
230
1.0
 70
    24
 71
     3
 72
     8
 73
     4
 74
     0
 42
0.0000000001
 43
0.0000000001
 40
0.0
 40
0.0
 40
0.0
 40
0.0
 40
1.0
 40
1.0
 40
1.0
 40
1.0
 10
109.1200128606598
 20
-135.0884011254995
 30
0.0
 10
109.1200128606598
 20
-135.0884011254995
 30
0.0
 10
108.8025096309621
 20
-135.0884011254995
 30
0.0
 10
108.8025096309621
 20
-135.0884011254995
 30
0.0
  0
SPLINE
  5
B7
330
70
100
AcDbEntity
  8
Capa 1
 62
    18
420
        0
370
     9
100
AcDbSpline
 70
     3
 71
     3
 72
     8
 73
     4
 74
     0
 42
0.0000000001
 43
0.0000000001
 40
0.0
 40
0.0
 40
0.0
 40
0.0
 40
1.0
 40
1.0
 40
1.0
 40
1.0
 10
109.1200128606598
 20
-135.0884011254995
 30
0.0
 10
109.1200128606598
 20
-135.0884011254995
 30
0.0
 10
109.1200128606598
 20
-135.0884011254995
 30
0.0
 10
109.1200128606598
 20
-135.0884011254995
 30
0.0
  0
SPLINE
  5
B8
330
70
100
AcDbEntity
  8
Capa 1
 62
    18
420
        0
370
     9
100
AcDbSpline
210
0.0
220
0.0
230
1.0
 70
    24
 71
     3
 72
    11
 73
     7
 74
     0
 42
0.0000000001
 43
0.0000000001
 40
0.0
 40
0.0
 40
0.0
 40
0.0
 40
1.0
 40
1.0
 40
1.0
 40
2.0
 40
2.0
 40
2.0
 40
2.0
 10
109.1200128606598
 20
-135.0884011254995
 30
0.0
 10
109.1200128606598
 20
-135.0884011254995
 30
0.0
 10
109.1200128606598
 20
-135.0884011254995
 30
0.0
 10
109.1200128606598
 20
-135.0884011254995
 30
0.0
 10
109.1200128606598
 20
-135.0884011254995
 30
0.0
 10
109.1729327570902
 20
-135.0884011254995
 30
0.0
 10
109.1729327570902
 20
-135.0884011254995
 30
0.0
  0
SPLINE
  5
B9
330
70
100
AcDbEntity
  8
Capa 1
 62
    18
420
        0
370
     9
100
AcDbSpline
210
0.0
220
0.0
230
1.0
 70
    24
 71
     3
 72
     8
 73
     4
 74
     0
 42
0.0000000001
 43
0.0000000001
 40
0.0
 40
0.0
 40
0.0
 40
0.0
 40
1.0
 40
1.0
 40
1.0
 40
1.0
 10
110.4429295269957
 20
-135.0884011254995
 30
0.0
 10
110.4429295269957
 20
-135.0884011254995
 30
0.0
 10
109.1729327570902
 20
-135.0884011254995
 30
0.0
 10
109.1729327570902
 20
-135.0884011254995
 30
0.0
  0
SPLINE
  5
BA
330
70
100
AcDbEntity
  8
Capa 1
 62
    18
420
        0
370
     9
100
AcDbSpline
210
0.0
220
0.0
230
1.0
 70
    24
 71
     3
 72
    11
 73
     7
 74
     0
 42
0.0000000001
 43
0.0000000001
 40
0.0
 40
0.0
 40
0.0
 40
0.0
 40
1.0
 40
1.0
 40
1.0
 40
2.0
 40
2.0
 40
2.0
 40
2.0
 10
110.4429295269957
 20
-135.0884011254995
 30
0.0
 10
110.4429295269957
 20
-135.0884011254995
 30
0.0
 10
110.4429295269957
 20
-135.0884011254995
 30
0.0
 10
110.4429295269957
 20
-135.0884011254995
 30
0.0
 10
110.4429295269957
 20
-135.0884011254995
 30
0.0
 10
110.4958494234262
 20
-135.0884011254995
 30
0.0
 10
110.4958494234262
 20
-135.0884011254995
 30
0.0
  0
SPLINE
  5
BB
330
70
100
AcDbEntity
  8
Capa 1
 62
    18
420
        0
370
     9
100
AcDbSpline
 70
     3
 71
     3
 72
     8
 73
     4
 74
     0
 42
0.0000000001
 43
0.0000000001
 40
0.0
 40
0.0
 40
0.0
 40
0.0
 40
1.0
 40
1.0
 40
1.0
 40
1.0
 10
110.4958494234262
 20
-135.0884011254995
 30
0.0
 10
110.4958494234262
 20
-135.0884011254995
 30
0.0
 10
110.4958494234262
 20
-135.0884011254995
 30
0.0
 10
110.4958494234262
 20
-135.0884011254995
 30
0.0
  0
SPLINE
  5
BC
330
70
100
AcDbEntity
  8
Capa 1
 62
    18
420
        0
370
     9
100
AcDbSpline
210
0.0
220
0.0
230
1.0
 70
    24
 71
     3
 72
     8
 73
     4
 74
     0
 42
0.0000000001
 43
0.0000000001
 40
0.0
 40
0.0
 40
0.0
 40
0.0
 40
1.0
 40
1.0
 40
1.0
 40
1.0
 10
110.8133445786813
 20
-135.0884011254995
 30
0.0
 10
110.8133445786813
 20
-135.0884011254995
 30
0.0
 10
110.4958494234262
 20
-135.0884011254995
 30
0.0
 10
110.4958494234262
 20
-135.0884011254995
 30
0.0
  0
SPLINE
  5
BD
330
70
100
AcDbEntity
  8
Capa 1
 62
    18
420
        0
370
     9
100
AcDbSpline
 70
     3
 71
     3
 72
     8
 73
     4
 74
     0
 42
0.0000000001
 43
0.0000000001
 40
0.0
 40
0.0
 40
0.0
 40
0.0
 40
1.0
 40
1.0
 40
1.0
 40
1.0
 10
110.8133445786813
 20
-135.0884011254995
 30
0.0
 10
110.8133445786813
 20
-135.0884011254995
 30
0.0
 10
110.8133445786813
 20
-135.0884011254995
 30
0.0
 10
110.8133445786813
 20
-135.0884011254995
 30
0.0
  0
SPLINE
  5
BE
330
70
100
AcDbEntity
  8
Capa 1
 62
    18
420
        0
370
     9
100
AcDbSpline
210
0.0
220
0.0
230
1.0
 70
    24
 71
     3
 72
     8
 73
     4
 74
     0
 42
0.0000000001
 43
0.0000000001
 40
0.0
 40
0.0
 40
0.0
 40
0.0
 40
1.0
 40
1.0
 40
1.0
 40
1.0
 10
110.7604327566934
 20
-135.0884011254995
 30
0.0
 10
110.7604327566934
 20
-135.0884011254995
 30
0.0
 10
110.8133445786813
 20
-135.0884011254995
 30
0.0
 10
110.8133445786813
 20
-135.0884011254995
 30
0.0
  0
SPLINE
  5
BF
330
70
100
AcDbEntity
  8
Capa 1
 62
    18
420
        0
370
     9
100
AcDbSpline
210
0.0
220
0.0
230
1.0
 70
    24
 71
     3
 72
    11
 73
     7
 74
     0
 42
0.0000000001
 43
0.0000000001
 40
0.0
 40
0.0
 40
0.0
 40
0.0
 40
1.0
 40
1.0
 40
1.0
 40
2.0
 40
2.0
 40
2.0
 40
2.0
 10
110.7604327566934
 20
-135.0884011254995
 30
0.0
 10
110.7604327566934
 20
-135.0884011254995
 30
0.0
 10
110.7604327566934
 20
-135.0884011254995
 30
0.0
 10
110.7604327566934
 20
-135.0884011254995
 30
0.0
 10
110.7604327566934
 20
-135.0884011254995
 30
0.0
 10
110.7075128602629
 20
-135.0884011254995
 30
0.0
 10
110.7075128602629
 20
-135.0884011254995
 30
0.0
  0
SPLINE
  5
C0
330
70
100
AcDbEntity
  8
Capa 1
 62
    18
420
        0
370
     9
100
AcDbSpline
210
0.0
220
0.0
230
1.0
 70
    24
 71
     3
 72
     8
 73
     4
 74
     0
 42
0.0000000001
 43
0.0000000001
 40
0.0
 40
0.0
 40
0.0
 40
0.0
 40
1.0
 40
1.0
 40
1.0
 40
1.0
 10
110.6016811418445
 20
-135.0884011254995
 30
0.0
 10
110.6016811418445
 20
-135.0884011254995
 30
0.0
 10
110.7075128602629
 20
-135.0884011254995
 30
0.0
 10
110.7075128602629
 20
-135.0884011254995
 30
0.0
  0
SPLINE
  5
C1
330
70
100
AcDbEntity
  8
Capa 1
 62
    18
420
        0
370
     9
100
AcDbSpline
210
0.0
220
0.0
230
1.0
 70
    24
 71
     3
 72
     8
 73
     4
 74
     0
 42
0.0000000001
 43
0.0000000001
 40
0.0
 40
0.0
 40
0.0
 40
0.0
 40
1.0
 40
1.0
 40
1.0
 40
1.0
 10
109.0141811422414
 20
-135.0884011254995
 30
0.0
 10
109.0141811422414
 20
-135.0884011254995
 30
0.0
 10
110.6016811418445
 20
-135.0884011254995
 30
0.0
 10
110.6016811418445
 20
-135.0884011254995
 30
0.0
  0
SPLINE
  5
C2
330
70
100
AcDbEntity
  8
Capa 1
 62
    18
420
        0
370
     9
100
AcDbSpline
210
0.0
220
0.0
230
1.0
 70
    24
 71
     3
 72
     8
 73
     4
 74
     0
 42
0.0000000001
 43
0.0000000001
 40
0.0
 40
0.0
 40
0.0
 40
0.0
 40
1.0
 40
1.0
 40
1.0
 40
1.0
 10
108.8554295273926
 20
-135.0884011254995
 30
0.0
 10
108.8554295273926
 20
-135.0884011254995
 30
0.0
 10
109.0141811422414
 20
-135.0884011254995
 30
0.0
 10
109.0141811422414
 20
-135.0884011254995
 30
0.0
  0
SPLINE
  5
C3
330
70
100
AcDbEntity
  8
Capa 1
 62
    18
420
        0
370
     9
100
AcDbSpline
 70
     3
 71
     3
 72
     8
 73
     4
 74
     0
 42
0.0000000001
 43
0.0000000001
 40
0.0
 40
0.0
 40
0.0
 40
0.0
 40
1.0
 40
1.0
 40
1.0
 40
1.0
 10
108.8554295273926
 20
-135.0884011254995
 30
0.0
 10
108.8554295273926
 20
-135.0884011254995
 30
0.0
 10
108.8554295273926
 20
-135.0884011254995
 30
0.0
 10
108.8554295273926
 20
-135.0884011254995
 30
0.0
  0
SPLINE
  5
C4
330
70
100
AcDbEntity
  8
Capa 1
 62
    18
420
        0
370
     9
100
AcDbSpline
210
0.0
220
0.0
230
1.0
 70
    24
 71
     3
 72
     8
 73
     4
 74
     0
 42
0.0000000001
 43
0.0000000001
 40
0.0
 40
0.0
 40
0.0
 40
0.0
 40
1.0
 40
1.0
 40
1.0
 40
1.0
 10
108.8554295273926
 20
-135.0884011254995
 30
0.0
 10
108.8554295273926
 20
-135.0884011254995
 30
0.0
 10
108.9083494238231
 20
-135.0884011254995
 30
0.0
 10
108.9083494238231
 20
-135.0884011254995
 30
0.0
  0
SPLINE
  5
C5
330
70
100
AcDbEntity
  8
Capa 1
 62
    18
420
        0
370
     9
100
AcDbSpline
210
0.0
220
0.0
230
1.0
 70
    24
 71
     3
 72
    11
 73
     7
 74
     0
 42
0.0000000001
 43
0.0000000001
 40
0.0
 40
0.0
 40
0.0
 40
0.0
 40
1.0
 40
1.0
 40
1.0
 40
2.0
 40
2.0
 40
2.0
 40
2.0
 10
108.9083494238231
 20
-135.1413129474874
 30
0.0
 10
108.9083494238231
 20
-135.1413129474874
 30
0.0
 10
108.9083494238231
 20
-135.1413129474874
 30
0.0
 10
108.9083494238231
 20
-135.1413129474874
 30
0.0
 10
108.9083494238231
 20
-135.1413129474874
 30
0.0
 10
108.9083494238231
 20
-135.0884011254995
 30
0.0
 10
108.9083494238231
 20
-135.0884011254995
 30
0.0
  0
SPLINE
  5
C6
330
70
100
AcDbEntity
  8
Capa 1
 62
    18
420
        0
370
     9
100
AcDbSpline
210
0.0
220
0.0
230
1.0
 70
     8
 71
     3
 72
    11
 73
     7
 74
     0
 42
0.0000000001
 43
0.0000000001
 40
0.0
 40
0.0
 40
0.0
 40
0.0
 40
1.0
 40
1.0
 40
1.0
 40
2.0
 40
2.0
 40
2.0
 40
2.0
 10
110.7075128602629
 20
-135.0884011254995
 30
0.0
 10
110.7075128602629
 20
-135.0884011254995
 30
0.0
 10
110.6545929638325
 20
-135.0884011254995
 30
0.0
 10
110.6545929638325
 20
-135.0884011254995
 30
0.0
 10
110.6545929638325
 20
-135.0884011254995
 30
0.0
 10
110.7075128602629
 20
-135.1413129474874
 30
0.0
 10
110.7075128602629
 20
-135.1413129474874
 30
0.0
  0
SPLINE
  5
C7
330
70
100
AcDbEntity
  8
Capa 1
 62
    18
420
        0
370
     9
100
AcDbSpline
 70
     3
 71
     3
 72
     8
 73
     4
 74
     0
 42
0.0000000001
 43
0.0000000001
 40
0.0
 40
0.0
 40
0.0
 40
0.0
 40
1.0
 40
1.0
 40
1.0
 40
1.0
 10
110.7075128602629
 20
-135.0884011254995
 30
0.0
 10
110.7075128602629
 20
-135.0884011254995
 30
0.0
 10
110.7075128602629
 20
-135.0884011254995
 30
0.0
 10
110.7075128602629
 20
-135.0884011254995
 30
0.0
  0
SPLINE
  5
C8
330
70
100
AcDbEntity
  8
Capa 1
 62
    18
420
        0
370
     9
100
AcDbSpline
210
0.0
220
0.0
230
1.0
 70
    24
 71
     3
 72
    11
 73
     7
 74
     0
 42
0.0000000001
 43
0.0000000001
 40
0.0
 40
0.0
 40
0.0
 40
0.0
 40
1.0
 40
1.0
 40
1.0
 40
2.0
 40
2.0
 40
2.0
 40
2.0
 10
110.6016811418445
 20
-135.0884011254995
 30
0.0
 10
110.6016811418445
 20
-135.0884011254995
 30
0.0
 10
110.6545929638325
 20
-135.0884011254995
 30
0.0
 10
110.6545929638325
 20
-135.0884011254995
 30
0.0
 10
110.6545929638325
 20
-135.0884011254995
 30
0.0
 10
110.7075128602629
 20
-135.0884011254995
 30
0.0
 10
110.7075128602629
 20
-135.0884011254995
 30
0.0
  0
SPLINE
  5
C9
330
70
100
AcDbEntity
  8
Capa 1
 62
    18
420
        0
370
     9
100
AcDbSpline
210
0.0
220
0.0
230
1.0
 70
    24
 71
     3
 72
    11
 73
     7
 74
     0
 42
0.0000000001
 43
0.0000000001
 40
0.0
 40
0.0
 40
0.0
 40
0.0
 40
1.0
 40
1.0
 40
1.0
 40
2.0
 40
2.0
 40
2.0
 40
2.0
 10
108.9083494238231
 20
-135.0884011254995
 30
0.0
 10
108.9083494238231
 20
-135.0884011254995
 30
0.0
 10
108.961261245811
 20
-135.0884011254995
 30
0.0
 10
108.961261245811
 20
-135.0884011254995
 30
0.0
 10
108.961261245811
 20
-135.0884011254995
 30
0.0
 10
109.0141811422414
 20
-135.0884011254995
 30
0.0
 10
109.0141811422414
 20
-135.0884011254995
 30
0.0
  0
SPLINE
  5
CA
330
70
100
AcDbEntity
  8
Capa 1
 62
    18
420
        0
370
     9
100
AcDbSpline
210
0.0
220
0.0
230
1.0
 70
    24
 71
     3
 72
     8
 73
     4
 74
     0
 42
0.0000000001
 43
0.0000000001
 40
0.0
 40
0.0
 40
0.0
 40
0.0
 40
1.0
 40
1.0
 40
1.0
 40
1.0
 10
110.8133445786813
 20
-135.1942328439178
 30
0.0
 10
110.8133445786813
 20
-135.1942328439178
 30
0.0
 10
110.8133445786813
 20
-135.0884011254995
 30
0.0
 10
110.8133445786813
 20
-135.0884011254995
 30
0.0
  0
SPLINE
  5
CB
330
70
100
AcDbEntity
  8
Capa 1
 62
    18
420
        0
370
     9
100
AcDbSpline
210
0.0
220
0.0
230
1.0
 70
    24
 71
     3
 72
     8
 73
     4
 74
     0
 42
0.0000000001
 43
0.0000000001
 40
0.0
 40
0.0
 40
0.0
 40
0.0
 40
1.0
 40
1.0
 40
1.0
 40
1.0
 10
108.8025096309621
 20
-135.0884011254995
 30
0.0
 10
108.8025096309621
 20
-135.0884011254995
 30
0.0
 10
108.8025096309621
 20
-135.1942328439178
 30
0.0
 10
108.8025096309621
 20
-135.1942328439178
 30
0.0
  0
SPLINE
  5
CC
330
70
100
AcDbEntity
  8
Capa 1
 62
    18
420
        0
370
     9
100
AcDbSpline
210
0.0
220
0.0
230
1.0
 70
    24
 71
     3
 72
     8
 73
     4
 74
     0
 42
0.0000000001
 43
0.0000000001
 40
0.0
 40
0.0
 40
0.0
 40
0.0
 40
1.0
 40
1.0
 40
1.0
 40
1.0
 10
108.8554295273926
 20
-135.0884011254995
 30
0.0
 10
108.8554295273926
 20
-135.0884011254995
 30
0.0
 10
108.8554295273926
 20
-135.1413129474874
 30
0.0
 10
108.8554295273926
 20
-135.1413129474874
 30
0.0
  0
SPLINE
  5
CD
330
70
100
AcDbEntity
  8
Capa 1
 62
    18
420
        0
370
     9
100
AcDbSpline
210
0.0
220
0.0
230
1.0
 70
    24
 71
     3
 72
     8
 73
     4
 74
     0
 42
0.0000000001
 43
0.0000000001
 40
0.0
 40
0.0
 40
0.0
 40
0.0
 40
1.0
 40
1.0
 40
1.0
 40
1.0
 10
110.7604327566934
 20
-135.1413129474874
 30
0.0
 10
110.7604327566934
 20
-135.1413129474874
 30
0.0
 10
110.7604327566934
 20
-135.0884011254995
 30
0.0
 10
110.7604327566934
 20
-135.0884011254995
 30
0.0
  0
SPLINE
  5
CE
330
70
100
AcDbEntity
  8
Capa 1
 62
    18
420
        0
370
     9
100
AcDbSpline
210
0.0
220
0.0
230
1.0
 70
     8
 71
     3
 72
    47
 73
    43
 74
     0
 42
0.0000000001
 43
0.0000000001
 40
0.0
 40
0.0
 40
0.0
 40
0.0
 40
1.0
 40
1.0
 40
1.0
 40
2.0
 40
2.0
 40
2.0
 40
3.0
 40
3.0
 40
3.0
 40
4.0
 40
4.0
 40
4.0
 40
5.0
 40
5.0
 40
5.0
 40
6.0
 40
6.0
 40
6.0
 40
7.0
 40
7.0
 40
7.0
 40
8.0
 40
8.0
 40
8.0
 40
9.0
 40
9.0
 40
9.0
 40
10.0
 40
10.0
 40
10.0
 40
11.0
 40
11.0
 40
11.0
 40
12.0
 40
12.0
 40
12.0
 40
13.0
 40
13.0
 40
13.0
 40
14.0
 40
14.0
 40
14.0
 40
14.0
 10
76.2058478171102
 20
-139.5333978946112
 30
0.0
 10
76.2058478171102
 20
-139.5333978946112
 30
0.0
 10
75.83542872820337
 20
-139.6392376874721
 30
0.0
 10
75.83542872820337
 20
-139.6392376874721
 30
0.0
 10
75.83542872820337
 20
-139.6392376874721
 30
0.0
 10
75.51792953572699
 20
-139.7979812278784
 30
0.0
 10
75.51792953572699
 20
-139.7979812278784
 30
0.0
 10
75.51792953572699
 20
-139.7979812278784
 30
0.0
 10
75.20043034325063
 20
-140.0096527391577
 30
0.0
 10
75.20043034325063
 20
-140.0096527391577
 30
0.0
 10
75.20043034325063
 20
-140.0096527391577
 30
0.0
 10
74.88293115077425
 20
-140.2742360724249
 30
0.0
 10
74.88293115077425
 20
-140.2742360724249
 30
0.0
 10
74.88293115077425
 20
-140.2742360724249
 30
0.0
 10
74.56542792107661
 20
-140.538819405692
 30
0.0
 10
74.56542792107661
 20
-140.538819405692
 30
0.0
 10
74.56542792107661
 20
-140.538819405692
 30
0.0
 10
74.24792872860024
 20
-140.8563145609472
 30
0.0
 10
74.24792872860024
 20
-140.8563145609472
 30
0.0
 10
74.24792872860024
 20
-140.8563145609472
 30
0.0
 10
73.98334539533306
 20
-141.2267376870753
 30
0.0
 10
73.98334539533306
 20
-141.2267376870753
 30
0.0
 10
73.98334539533306
 20
-141.2267376870753
 30
0.0
 10
73.71876206206586
 20
-141.5971527387608
 30
0.0
 10
73.71876206206586
 20
-141.5971527387608
 30
0.0
 10
73.71876206206586
 20
-141.5971527387608
 30
0.0
 10
73.50709458800785
 20
-142.0204876868768
 30
0.0
 10
73.50709458800785
 20
-142.0204876868768
 30
0.0
 10
73.50709458800785
 20
-142.0204876868768
 30
0.0
 10
73.29543115117113
 20
-142.4438145605503
 30
0.0
 10
73.29543115117113
 20
-142.4438145605503
 30
0.0
 10
73.29543115117113
 20
-142.4438145605503
 30
0.0
 10
73.1366795363223
 20
-142.9200694050967
 30
0.0
 10
73.1366795363223
 20
-142.9200694050967
 30
0.0
 10
73.1366795363223
 20
-142.9200694050967
 30
0.0
 10
72.97792792147349
 20
-143.3963161752007
 30
0.0
 10
72.97792792147349
 20
-143.3963161752007
 30
0.0
 10
72.97792792147349
 20
-143.3963161752007
 30
0.0
 10
72.87209620305512
 20
-143.8725710197471
 30
0.0
 10
72.87209620305512
 20
-143.8725710197471
 30
0.0
 10
72.87209620305512
 20
-143.8725710197471
 30
0.0
 10
72.81918034384594
 20
-144.348817789851
 30
0.0
 10
72.81918034384594
 20
-144.348817789851
 30
0.0
  0
SPLINE
  5
CF
330
70
100
AcDbEntity
  8
Capa 1
 62
    18
420
        0
370
     9
100
AcDbSpline
210
0.0
220
0.0
230
1.0
 70
     8
 71
     3
 72
    47
 73
    43
 74
     0
 42
0.0000000001
 43
0.0000000001
 40
0.0
 40
0.0
 40
0.0
 40
0.0
 40
1.0
 40
1.0
 40
1.0
 40
2.0
 40
2.0
 40
2.0
 40
3.0
 40
3.0
 40
3.0
 40
4.0
 40
4.0
 40
4.0
 40
5.0
 40
5.0
 40
5.0
 40
6.0
 40
6.0
 40
6.0
 40
7.0
 40
7.0
 40
7.0
 40
8.0
 40
8.0
 40
8.0
 40
9.0
 40
9.0
 40
9.0
 40
10.0
 40
10.0
 40
10.0
 40
11.0
 40
11.0
 40
11.0
 40
12.0
 40
12.0
 40
12.0
 40
13.0
 40
13.0
 40
13.0
 40
14.0
 40
14.0
 40
14.0
 40
14.0
 10
72.81918034384594
 20
-156.3079876833049
 30
0.0
 10
72.81918034384594
 20
-156.3079876833049
 30
0.0
 10
72.87209620305512
 20
-156.7842344534089
 30
0.0
 10
72.87209620305512
 20
-156.7842344534089
 30
0.0
 10
72.87209620305512
 20
-156.7842344534089
 30
0.0
 10
73.03084781790395
 20
-157.2604812235128
 30
0.0
 10
73.03084781790395
 20
-157.2604812235128
 30
0.0
 10
73.03084781790395
 20
-157.2604812235128
 30
0.0
 10
73.1366795363223
 20
-157.6838161716288
 30
0.0
 10
73.1366795363223
 20
-157.6838161716288
 30
0.0
 10
73.1366795363223
 20
-157.6838161716288
 30
0.0
 10
73.34834701038031
 20
-158.1600710161752
 30
0.0
 10
73.34834701038031
 20
-158.1600710161752
 30
0.0
 10
73.34834701038031
 20
-158.1600710161752
 30
0.0
 10
73.56001448443833
 20
-158.5833978898487
 30
0.0
 10
73.56001448443833
 20
-158.5833978898487
 30
0.0
 10
73.56001448443833
 20
-158.5833978898487
 30
0.0
 10
73.77167792127505
 20
-159.0067328379647
 30
0.0
 10
73.77167792127505
 20
-159.0067328379647
 30
0.0
 10
73.77167792127505
 20
-159.0067328379647
 30
0.0
 10
74.03626125454223
 20
-159.3771478896503
 30
0.0
 10
74.03626125454223
 20
-159.3771478896503
 30
0.0
 10
74.03626125454223
 20
-159.3771478896503
 30
0.0
 10
74.30084458780942
 20
-159.6946511193479
 30
0.0
 10
74.30084458780942
 20
-159.6946511193479
 30
0.0
 10
74.30084458780942
 20
-159.6946511193479
 30
0.0
 10
74.56542792107661
 20
-160.0121543490456
 30
0.0
 10
74.56542792107661
 20
-160.0121543490456
 30
0.0
 10
74.56542792107661
 20
-160.0121543490456
 30
0.0
 10
74.88293115077425
 20
-160.3296495043007
 30
0.0
 10
74.88293115077425
 20
-160.3296495043007
 30
0.0
 10
74.88293115077425
 20
-160.3296495043007
 30
0.0
 10
75.20043034325063
 20
-160.5413210155799
 30
0.0
 10
75.20043034325063
 20
-160.5413210155799
 30
0.0
 10
75.20043034325063
 20
-160.5413210155799
 30
0.0
 10
75.51792953572699
 20
-160.7529844524167
 30
0.0
 10
75.51792953572699
 20
-160.7529844524167
 30
0.0
 10
75.51792953572699
 20
-160.7529844524167
 30
0.0
 10
75.83542872820337
 20
-160.9117360672655
 30
0.0
 10
75.83542872820337
 20
-160.9117360672655
 30
0.0
 10
75.83542872820337
 20
-160.9117360672655
 30
0.0
 10
76.2058478171102
 20
-161.0704876821143
 30
0.0
 10
76.2058478171102
 20
-161.0704876821143
 30
0.0
  0
SPLINE
  5
D0
330
70
100
AcDbEntity
  8
Capa 1
 62
    18
420
        0
370
     9
100
AcDbSpline
210
0.0
220
0.0
230
1.0
 70
     8
 71
     3
 72
    20
 73
    16
 74
     0
 42
0.0000000001
 43
0.0000000001
 40
0.0
 40
0.0
 40
0.0
 40
0.0
 40
1.0
 40
1.0
 40
1.0
 40
2.0
 40
2.0
 40
2.0
 40
3.0
 40
3.0
 40
3.0
 40
4.0
 40
4.0
 40
4.0
 40
5.0
 40
5.0
 40
5.0
 40
5.0
 10
72.81918034384594
 20
-144.348817789851
 30
0.0
 10
72.81918034384594
 20
-144.348817789851
 30
0.0
 10
72.87209620305512
 20
-146.7300677892557
 30
0.0
 10
72.87209620305512
 20
-146.7300677892557
 30
0.0
 10
72.87209620305512
 20
-146.7300677892557
 30
0.0
 10
72.9250120622643
 20
-149.1113177886604
 30
0.0
 10
72.9250120622643
 20
-149.1113177886604
 30
0.0
 10
72.9250120622643
 20
-149.1113177886604
 30
0.0
 10
72.9250120622643
 20
-151.5454876844956
 30
0.0
 10
72.9250120622643
 20
-151.5454876844956
 30
0.0
 10
72.9250120622643
 20
-151.5454876844956
 30
0.0
 10
72.87209620305512
 20
-153.9267376839003
 30
0.0
 10
72.87209620305512
 20
-153.9267376839003
 30
0.0
 10
72.87209620305512
 20
-153.9267376839003
 30
0.0
 10
72.81918034384594
 20
-156.3079876833049
 30
0.0
 10
72.81918034384594
 20
-156.3079876833049
 30
0.0
  0
SPLINE
  5
D1
330
70
100
AcDbEntity
  8
Capa 1
 62
    18
420
        0
370
     9
100
AcDbSpline
210
0.0
220
0.0
230
1.0
 70
     8
 71
     3
 72
    20
 73
    16
 74
     0
 42
0.0000000001
 43
0.0000000001
 40
0.0
 40
0.0
 40
0.0
 40
0.0
 40
1.0
 40
1.0
 40
1.0
 40
2.0
 40
2.0
 40
2.0
 40
3.0
 40
3.0
 40
3.0
 40
4.0
 40
4.0
 40
4.0
 40
5.0
 40
5.0
 40
5.0
 40
5.0
 10
111.5541827564949
 20
-139.5863177910417
 30
0.0
 10
111.5541827564949
 20
-139.5863177910417
 30
0.0
 10
111.5541827564949
 20
-139.4804860726233
 30
0.0
 10
111.5541827564949
 20
-139.4804860726233
 30
0.0
 10
111.5541827564949
 20
-139.4804860726233
 30
0.0
 10
111.5012628600645
 20
-139.4275661761928
 30
0.0
 10
111.5012628600645
 20
-139.4275661761928
 30
0.0
 10
111.5012628600645
 20
-139.4275661761928
 30
0.0
 10
111.3954311416461
 20
-139.3746543542049
 30
0.0
 10
111.3954311416461
 20
-139.3746543542049
 30
0.0
 10
111.3954311416461
 20
-139.3746543542049
 30
0.0
 10
111.3425112452157
 20
-139.3217344577745
 30
0.0
 10
111.3425112452157
 20
-139.3217344577745
 30
0.0
 10
111.3425112452157
 20
-139.3217344577745
 30
0.0
 10
111.2895994232278
 20
-139.3217344577745
 30
0.0
 10
111.2895994232278
 20
-139.3217344577745
 30
0.0
  0
SPLINE
  5
D2
330
70
100
AcDbEntity
  8
Capa 1
 62
    18
420
        0
370
     9
100
AcDbSpline
210
0.0
220
0.0
230
1.0
 70
     8
 71
     3
 72
    17
 73
    13
 74
     0
 42
0.0000000001
 43
0.0000000001
 40
0.0
 40
0.0
 40
0.0
 40
0.0
 40
1.0
 40
1.0
 40
1.0
 40
2.0
 40
2.0
 40
2.0
 40
3.0
 40
3.0
 40
3.0
 40
4.0
 40
4.0
 40
4.0
 40
4.0
 10
111.3425112452157
 20
-161.5467344522182
 30
0.0
 10
111.3425112452157
 20
-161.5467344522182
 30
0.0
 10
111.3954311416461
 20
-161.5467344522182
 30
0.0
 10
111.3954311416461
 20
-161.5467344522182
 30
0.0
 10
111.3954311416461
 20
-161.5467344522182
 30
0.0
 10
111.5012628600645
 20
-161.4938145557878
 30
0.0
 10
111.5012628600645
 20
-161.4938145557878
 30
0.0
 10
111.5012628600645
 20
-161.4938145557878
 30
0.0
 10
111.5541827564949
 20
-161.3879828373694
 30
0.0
 10
111.5541827564949
 20
-161.3879828373694
 30
0.0
 10
111.5541827564949
 20
-161.3879828373694
 30
0.0
 10
111.5541827564949
 20
-161.3350710153815
 30
0.0
 10
111.5541827564949
 20
-161.3350710153815
 30
0.0
  0
SPLINE
  5
D3
330
70
100
AcDbEntity
  8
Capa 1
 62
    18
420
        0
370
     9
100
AcDbSpline
210
0.0
220
0.0
230
1.0
 70
     8
 71
     3
 72
    17
 73
    13
 74
     0
 42
0.0000000001
 43
0.0000000001
 40
0.0
 40
0.0
 40
0.0
 40
0.0
 40
1.0
 40
1.0
 40
1.0
 40
2.0
 40
2.0
 40
2.0
 40
3.0
 40
3.0
 40
3.0
 40
4.0
 40
4.0
 40
4.0
 40
4.0
 10
79.38084781631644
 20
-160.6471527339983
 30
0.0
 10
79.38084781631644
 20
-160.6471527339983
 30
0.0
 10
78.48126206087524
 20
-160.7000645559862
 30
0.0
 10
78.48126206087524
 20
-160.7000645559862
 30
0.0
 10
78.48126206087524
 20
-160.7000645559862
 30
0.0
 10
77.63459620186449
 20
-160.7529844524167
 30
0.0
 10
77.63459620186449
 20
-160.7529844524167
 30
0.0
 10
77.63459620186449
 20
-160.7529844524167
 30
0.0
 10
76.89376206127211
 20
-160.9117360672655
 30
0.0
 10
76.89376206127211
 20
-160.9117360672655
 30
0.0
 10
76.89376206127211
 20
-160.9117360672655
 30
0.0
 10
76.2058478171102
 20
-161.0704876821143
 30
0.0
 10
76.2058478171102
 20
-161.0704876821143
 30
0.0
  0
SPLINE
  5
D4
330
70
100
AcDbEntity
  8
Capa 1
 62
    18
420
        0
370
     9
100
AcDbSpline
210
0.0
220
0.0
230
1.0
 70
     8
 71
     3
 72
    44
 73
    40
 74
     0
 42
0.0000000001
 43
0.0000000001
 40
0.0
 40
0.0
 40
0.0
 40
0.0
 40
1.0
 40
1.0
 40
1.0
 40
2.0
 40
2.0
 40
2.0
 40
3.0
 40
3.0
 40
3.0
 40
4.0
 40
4.0
 40
4.0
 40
5.0
 40
5.0
 40
5.0
 40
6.0
 40
6.0
 40
6.0
 40
7.0
 40
7.0
 40
7.0
 40
8.0
 40
8.0
 40
8.0
 40
9.0
 40
9.0
 40
9.0
 40
10.0
 40
10.0
 40
10.0
 40
11.0
 40
11.0
 40
11.0
 40
12.0
 40
12.0
 40
12.0
 40
13.0
 40
13.0
 40
13.0
 40
13.0
 10
93.50959619789575
 20
-160.5942328375678
 30
0.0
 10
93.50959619789575
 20
-160.5942328375678
 30
0.0
 10
92.29251124997817
 20
-160.5942328375678
 30
0.0
 10
92.29251124997817
 20
-160.5942328375678
 30
0.0
 10
92.29251124997817
 20
-160.5942328375678
 30
0.0
 10
91.12834619849106
 20
-160.5942328375678
 30
0.0
 10
91.12834619849106
 20
-160.5942328375678
 30
0.0
 10
91.12834619849106
 20
-160.5942328375678
 30
0.0
 10
90.07001286542232
 20
-160.5942328375678
 30
0.0
 10
90.07001286542232
 20
-160.5942328375678
 30
0.0
 10
90.07001286542232
 20
-160.5942328375678
 30
0.0
 10
89.01167953235356
 20
-160.5413210155799
 30
0.0
 10
89.01167953235356
 20
-160.5413210155799
 30
0.0
 10
89.01167953235356
 20
-160.5413210155799
 30
0.0
 10
87.90042630285435
 20
-160.5413210155799
 30
0.0
 10
87.90042630285435
 20
-160.5413210155799
 30
0.0
 10
87.90042630285435
 20
-160.5413210155799
 30
0.0
 10
86.73626125136724
 20
-160.5942328375678
 30
0.0
 10
86.73626125136724
 20
-160.5942328375678
 30
0.0
 10
86.73626125136724
 20
-160.5942328375678
 30
0.0
 10
85.6779279182985
 20
-160.5942328375678
 30
0.0
 10
85.6779279182985
 20
-160.5942328375678
 30
0.0
 10
85.6779279182985
 20
-160.5942328375678
 30
0.0
 10
84.72543034086937
 20
-160.5942328375678
 30
0.0
 10
84.72543034086937
 20
-160.5942328375678
 30
0.0
 10
84.72543034086937
 20
-160.5942328375678
 30
0.0
 10
83.61418114859144
 20
-160.5942328375678
 30
0.0
 10
83.61418114859144
 20
-160.5942328375678
 30
0.0
 10
83.61418114859144
 20
-160.5942328375678
 30
0.0
 10
82.5558478155227
 20
-160.5942328375678
 30
0.0
 10
82.5558478155227
 20
-160.5942328375678
 30
0.0
 10
82.5558478155227
 20
-160.5942328375678
 30
0.0
 10
81.60334620087231
 20
-160.5942328375678
 30
0.0
 10
81.60334620087231
 20
-160.5942328375678
 30
0.0
 10
81.60334620087231
 20
-160.5942328375678
 30
0.0
 10
80.54501286780356
 20
-160.6471527339983
 30
0.0
 10
80.54501286780356
 20
-160.6471527339983
 30
0.0
 10
80.54501286780356
 20
-160.6471527339983
 30
0.0
 10
79.38084781631644
 20
-160.6471527339983
 30
0.0
 10
79.38084781631644
 20
-160.6471527339983
 30
0.0
  0
SPLINE
  5
D5
330
70
100
AcDbEntity
  8
Capa 1
 62
    18
420
        0
370
     9
100
AcDbSpline
210
0.0
220
0.0
230
1.0
 70
     8
 71
     3
 72
    44
 73
    40
 74
     0
 42
0.0000000001
 43
0.0000000001
 40
0.0
 40
0.0
 40
0.0
 40
0.0
 40
1.0
 40
1.0
 40
1.0
 40
2.0
 40
2.0
 40
2.0
 40
3.0
 40
3.0
 40
3.0
 40
4.0
 40
4.0
 40
4.0
 40
5.0
 40
5.0
 40
5.0
 40
6.0
 40
6.0
 40
6.0
 40
7.0
 40
7.0
 40
7.0
 40
8.0
 40
8.0
 40
8.0
 40
9.0
 40
9.0
 40
9.0
 40
10.0
 40
10.0
 40
10.0
 40
11.0
 40
11.0
 40
11.0
 40
12.0
 40
12.0
 40
12.0
 40
13.0
 40
13.0
 40
13.0
 40
13.0
 10
93.50959619789575
 20
-139.9038210207393
 30
0.0
 10
93.50959619789575
 20
-139.9038210207393
 30
0.0
 10
92.29251124997817
 20
-139.9567328427272
 30
0.0
 10
92.29251124997817
 20
-139.9567328427272
 30
0.0
 10
92.29251124997817
 20
-139.9567328427272
 30
0.0
 10
91.12834619849106
 20
-139.9567328427272
 30
0.0
 10
91.12834619849106
 20
-139.9567328427272
 30
0.0
 10
91.12834619849106
 20
-139.9567328427272
 30
0.0
 10
90.07001286542232
 20
-139.9567328427272
 30
0.0
 10
90.07001286542232
 20
-139.9567328427272
 30
0.0
 10
90.07001286542232
 20
-139.9567328427272
 30
0.0
 10
89.01167953235356
 20
-139.9567328427272
 30
0.0
 10
89.01167953235356
 20
-139.9567328427272
 30
0.0
 10
89.01167953235356
 20
-139.9567328427272
 30
0.0
 10
87.84751448086645
 20
-139.9567328427272
 30
0.0
 10
87.84751448086645
 20
-139.9567328427272
 30
0.0
 10
87.84751448086645
 20
-139.9567328427272
 30
0.0
 10
86.73626125136724
 20
-139.9567328427272
 30
0.0
 10
86.73626125136724
 20
-139.9567328427272
 30
0.0
 10
86.73626125136724
 20
-139.9567328427272
 30
0.0
 10
85.6779279182985
 20
-139.9567328427272
 30
0.0
 10
85.6779279182985
 20
-139.9567328427272
 30
0.0
 10
85.6779279182985
 20
-139.9567328427272
 30
0.0
 10
84.6725144816602
 20
-139.9567328427272
 30
0.0
 10
84.6725144816602
 20
-139.9567328427272
 30
0.0
 10
84.6725144816602
 20
-139.9567328427272
 30
0.0
 10
83.56126125216098
 20
-139.9038210207393
 30
0.0
 10
83.56126125216098
 20
-139.9038210207393
 30
0.0
 10
83.56126125216098
 20
-139.9038210207393
 30
0.0
 10
82.50292791909224
 20
-139.9038210207393
 30
0.0
 10
82.50292791909224
 20
-139.9038210207393
 30
0.0
 10
82.50292791909224
 20
-139.9038210207393
 30
0.0
 10
81.55043034166313
 20
-139.9038210207393
 30
0.0
 10
81.55043034166313
 20
-139.9038210207393
 30
0.0
 10
81.55043034166313
 20
-139.9038210207393
 30
0.0
 10
80.49209700859439
 20
-139.9038210207393
 30
0.0
 10
80.49209700859439
 20
-139.9038210207393
 30
0.0
 10
80.49209700859439
 20
-139.9038210207393
 30
0.0
 10
79.38084781631644
 20
-139.9038210207393
 30
0.0
 10
79.38084781631644
 20
-139.9038210207393
 30
0.0
  0
SPLINE
  5
D6
330
70
100
AcDbEntity
  8
Capa 1
 62
    18
420
        0
370
     9
100
AcDbSpline
210
0.0
220
0.0
230
1.0
 70
     8
 71
     3
 72
    17
 73
    13
 74
     0
 42
0.0000000001
 43
0.0000000001
 40
0.0
 40
0.0
 40
0.0
 40
0.0
 40
1.0
 40
1.0
 40
1.0
 40
2.0
 40
2.0
 40
2.0
 40
3.0
 40
3.0
 40
3.0
 40
4.0
 40
4.0
 40
4.0
 40
4.0
 10
79.38084781631644
 20
-139.9038210207393
 30
0.0
 10
79.38084781631644
 20
-139.9038210207393
 30
0.0
 10
78.48126206087524
 20
-139.8509011243088
 30
0.0
 10
78.48126206087524
 20
-139.8509011243088
 30
0.0
 10
78.48126206087524
 20
-139.8509011243088
 30
0.0
 10
77.63459620186449
 20
-139.7979812278784
 30
0.0
 10
77.63459620186449
 20
-139.7979812278784
 30
0.0
 10
77.63459620186449
 20
-139.7979812278784
 30
0.0
 10
76.89376206127211
 20
-139.69214950946
 30
0.0
 10
76.89376206127211
 20
-139.69214950946
 30
0.0
 10
76.89376206127211
 20
-139.69214950946
 30
0.0
 10
76.2058478171102
 20
-139.5333978946112
 30
0.0
 10
76.2058478171102
 20
-139.5333978946112
 30
0.0
  0
SPLINE
  5
D7
330
70
100
AcDbEntity
  8
Capa 1
 62
    18
420
        0
370
     9
100
AcDbSpline
210
0.0
220
0.0
230
1.0
 70
    24
 71
     3
 72
     8
 73
     4
 74
     0
 42
0.0000000001
 43
0.0000000001
 40
0.0
 40
0.0
 40
0.0
 40
0.0
 40
1.0
 40
1.0
 40
1.0
 40
1.0
 10
111.5541827564949
 20
-161.3350710153815
 30
0.0
 10
111.5541827564949
 20
-161.3350710153815
 30
0.0
 10
111.5541827564949
 20
-139.5863177910417
 30
0.0
 10
111.5541827564949
 20
-139.5863177910417
 30
0.0
  0
SPLINE
  5
D8
330
70
100
AcDbEntity
  8
Capa 1
 62
    18
420
        0
370
     9
100
AcDbSpline
210
0.0
220
0.0
230
1.0
 70
    24
 71
     3
 72
     8
 73
     4
 74
     0
 42
0.0000000001
 43
0.0000000001
 40
0.0
 40
0.0
 40
0.0
 40
0.0
 40
1.0
 40
1.0
 40
1.0
 40
1.0
 10
111.2895994232278
 20
-139.3217344577745
 30
0.0
 10
111.2895994232278
 20
-139.3217344577745
 30
0.0
 10
100.2300112479938
 20
-139.3746543542049
 30
0.0
 10
100.2300112479938
 20
-139.3746543542049
 30
0.0
  0
SPLINE
  5
D9
330
70
100
AcDbEntity
  8
Capa 1
 62
    18
420
        0
370
     9
100
AcDbSpline
210
0.0
220
0.0
230
1.0
 70
    24
 71
     3
 72
     8
 73
     4
 74
     0
 42
0.0000000001
 43
0.0000000001
 40
0.0
 40
0.0
 40
0.0
 40
0.0
 40
1.0
 40
1.0
 40
1.0
 40
1.0
 10
100.2300112479938
 20
-161.4938145557878
 30
0.0
 10
100.2300112479938
 20
-161.4938145557878
 30
0.0
 10
111.2895994232278
 20
-161.5467344522182
 30
0.0
 10
111.2895994232278
 20
-161.5467344522182
 30
0.0
  0
SPLINE
  5
DA
330
70
100
AcDbEntity
  8
Capa 1
 62
    18
420
        0
370
     9
100
AcDbSpline
210
0.0
220
0.0
230
1.0
 70
    24
 71
     3
 72
     8
 73
     4
 74
     0
 42
0.0000000001
 43
0.0000000001
 40
0.0
 40
0.0
 40
0.0
 40
0.0
 40
1.0
 40
1.0
 40
1.0
 40
1.0
 10
99.59501286304107
 20
-161.1763194005327
 30
0.0
 10
99.59501286304107
 20
-161.1763194005327
 30
0.0
 10
99.59501286304107
 20
-139.69214950946
 30
0.0
 10
99.59501286304107
 20
-139.69214950946
 30
0.0
  0
SPLINE
  5
DB
330
70
100
AcDbEntity
  8
Capa 1
 62
    18
420
        0
370
     9
100
AcDbSpline
210
0.0
220
0.0
230
1.0
 70
     8
 71
     3
 72
    29
 73
    25
 74
     0
 42
0.0000000001
 43
0.0000000001
 40
0.0
 40
0.0
 40
0.0
 40
0.0
 40
1.0
 40
1.0
 40
1.0
 40
2.0
 40
2.0
 40
2.0
 40
3.0
 40
3.0
 40
3.0
 40
4.0
 40
4.0
 40
4.0
 40
5.0
 40
5.0
 40
5.0
 40
6.0
 40
6.0
 40
6.0
 40
7.0
 40
7.0
 40
7.0
 40
8.0
 40
8.0
 40
8.0
 40
8.0
 10
98.00751286343794
 20
-143.7667312268862
 30
0.0
 10
98.00751286343794
 20
-143.7667312268862
 30
0.0
 10
97.69000963374029
 20
-142.9729812270847
 30
0.0
 10
97.69000963374029
 20
-142.9729812270847
 30
0.0
 10
97.69000963374029
 20
-142.9729812270847
 30
0.0
 10
97.26667468562428
 20
-142.2321511237136
 30
0.0
 10
97.26667468562428
 20
-142.2321511237136
 30
0.0
 10
97.26667468562428
 20
-142.2321511237136
 30
0.0
 10
96.73750801908992
 20
-141.5442328423303
 30
0.0
 10
96.73750801908992
 20
-141.5442328423303
 30
0.0
 10
96.73750801908992
 20
-141.5442328423303
 30
0.0
 10
96.15542953056763
 20
-141.015066175796
 30
0.0
 10
96.15542953056763
 20
-141.015066175796
 30
0.0
 10
96.15542953056763
 20
-141.015066175796
 30
0.0
 10
95.52043114561488
 20
-140.59173122768
 30
0.0
 10
95.52043114561488
 20
-140.59173122768
 30
0.0
 10
95.52043114561488
 20
-140.59173122768
 30
0.0
 10
94.88542468621959
 20
-140.2742360724249
 30
0.0
 10
94.88542468621959
 20
-140.2742360724249
 30
0.0
 10
94.88542468621959
 20
-140.2742360724249
 30
0.0
 10
94.19751447927895
 20
-140.0625645611456
 30
0.0
 10
94.19751447927895
 20
-140.0625645611456
 30
0.0
 10
94.19751447927895
 20
-140.0625645611456
 30
0.0
 10
93.50959619789575
 20
-139.9038210207393
 30
0.0
 10
93.50959619789575
 20
-139.9038210207393
 30
0.0
  0
SPLINE
  5
DC
330
70
100
AcDbEntity
  8
Capa 1
 62
    18
420
        0
370
     9
100
AcDbSpline
210
0.0
220
0.0
230
1.0
 70
     8
 71
     3
 72
    11
 73
     7
 74
     0
 42
0.0000000001
 43
0.0000000001
 40
0.0
 40
0.0
 40
0.0
 40
0.0
 40
1.0
 40
1.0
 40
1.0
 40
2.0
 40
2.0
 40
2.0
 40
2.0
 10
98.16626447828676
 20
-144.825064559955
 30
0.0
 10
98.16626447828676
 20
-144.825064559955
 30
0.0
 10
98.11334458185632
 20
-144.2958978934206
 30
0.0
 10
98.11334458185632
 20
-144.2958978934206
 30
0.0
 10
98.11334458185632
 20
-144.2958978934206
 30
0.0
 10
98.00751286343794
 20
-143.7667312268862
 30
0.0
 10
98.00751286343794
 20
-143.7667312268862
 30
0.0
  0
SPLINE
  5
DD
330
70
100
AcDbEntity
  8
Capa 1
 62
    18
420
        0
370
     9
100
AcDbSpline
210
0.0
220
0.0
230
1.0
 70
     8
 71
     3
 72
    11
 73
     7
 74
     0
 42
0.0000000001
 43
0.0000000001
 40
0.0
 40
0.0
 40
0.0
 40
0.0
 40
1.0
 40
1.0
 40
1.0
 40
2.0
 40
2.0
 40
2.0
 40
2.0
 10
97.90168114501957
 20
-156.9429860682577
 30
0.0
 10
97.90168114501957
 20
-156.9429860682577
 30
0.0
 10
98.06042468542585
 20
-156.3079876833049
 30
0.0
 10
98.06042468542585
 20
-156.3079876833049
 30
0.0
 10
98.06042468542585
 20
-156.3079876833049
 30
0.0
 10
98.16626447828676
 20
-155.7259011203401
 30
0.0
 10
98.16626447828676
 20
-155.7259011203401
 30
0.0
  0
SPLINE
  5
DE
330
70
100
AcDbEntity
  8
Capa 1
 62
    18
420
        0
370
     9
100
AcDbSpline
210
0.0
220
0.0
230
1.0
 70
     8
 71
     3
 72
    29
 73
    25
 74
     0
 42
0.0000000001
 43
0.0000000001
 40
0.0
 40
0.0
 40
0.0
 40
0.0
 40
1.0
 40
1.0
 40
1.0
 40
2.0
 40
2.0
 40
2.0
 40
3.0
 40
3.0
 40
3.0
 40
4.0
 40
4.0
 40
4.0
 40
5.0
 40
5.0
 40
5.0
 40
6.0
 40
6.0
 40
6.0
 40
7.0
 40
7.0
 40
7.0
 40
8.0
 40
8.0
 40
8.0
 40
8.0
 10
93.50959619789575
 20
-160.5942328375678
 30
0.0
 10
93.50959619789575
 20
-160.5942328375678
 30
0.0
 10
94.19751447927895
 20
-160.4884011191495
 30
0.0
 10
94.19751447927895
 20
-160.4884011191495
 30
0.0
 10
94.19751447927895
 20
-160.4884011191495
 30
0.0
 10
94.83251286423168
 20
-160.2767376823128
 30
0.0
 10
94.83251286423168
 20
-160.2767376823128
 30
0.0
 10
94.83251286423168
 20
-160.2767376823128
 30
0.0
 10
95.46751124918442
 20
-159.9592344526151
 30
0.0
 10
95.46751124918442
 20
-159.9592344526151
 30
0.0
 10
95.46751124918442
 20
-159.9592344526151
 30
0.0
 10
96.10250963413717
 20
-159.5358995044991
 30
0.0
 10
96.10250963413717
 20
-159.5358995044991
 30
0.0
 10
96.10250963413717
 20
-159.5358995044991
 30
0.0
 10
96.68459619710199
 20
-159.0067328379647
 30
0.0
 10
96.68459619710199
 20
-159.0067328379647
 30
0.0
 10
96.68459619710199
 20
-159.0067328379647
 30
0.0
 10
97.16084296720593
 20
-158.4246543494424
 30
0.0
 10
97.16084296720593
 20
-158.4246543494424
 30
0.0
 10
97.16084296720593
 20
-158.4246543494424
 30
0.0
 10
97.58417791532194
 20
-157.6838161716288
 30
0.0
 10
97.58417791532194
 20
-157.6838161716288
 30
0.0
 10
97.58417791532194
 20
-157.6838161716288
 30
0.0
 10
97.90168114501957
 20
-156.9429860682577
 30
0.0
 10
97.90168114501957
 20
-156.9429860682577
 30
0.0
  0
SPLINE
  5
DF
330
70
100
AcDbEntity
  8
Capa 1
 62
    18
420
        0
370
     9
100
AcDbSpline
210
0.0
220
0.0
230
1.0
 70
     8
 71
     3
 72
    26
 73
    22
 74
     0
 42
0.0000000001
 43
0.0000000001
 40
0.0
 40
0.0
 40
0.0
 40
0.0
 40
1.0
 40
1.0
 40
1.0
 40
2.0
 40
2.0
 40
2.0
 40
3.0
 40
3.0
 40
3.0
 40
4.0
 40
4.0
 40
4.0
 40
5.0
 40
5.0
 40
5.0
 40
6.0
 40
6.0
 40
6.0
 40
7.0
 40
7.0
 40
7.0
 40
7.0
 10
98.16626447828676
 20
-144.825064559955
 30
0.0
 10
98.16626447828676
 20
-144.825064559955
 30
0.0
 10
98.11334458185632
 20
-146.4125645595581
 30
0.0
 10
98.11334458185632
 20
-146.4125645595581
 30
0.0
 10
98.11334458185632
 20
-146.4125645595581
 30
0.0
 10
98.11334458185632
 20
-147.9471527371733
 30
0.0
 10
98.11334458185632
 20
-147.9471527371733
 30
0.0
 10
98.11334458185632
 20
-147.9471527371733
 30
0.0
 10
98.11334458185632
 20
-149.481732840346
 30
0.0
 10
98.11334458185632
 20
-149.481732840346
 30
0.0
 10
98.11334458185632
 20
-149.481732840346
 30
0.0
 10
98.11334458185632
 20
-151.0692328399491
 30
0.0
 10
98.11334458185632
 20
-151.0692328399491
 30
0.0
 10
98.11334458185632
 20
-151.0692328399491
 30
0.0
 10
98.11334458185632
 20
-152.6038210175643
 30
0.0
 10
98.11334458185632
 20
-152.6038210175643
 30
0.0
 10
98.11334458185632
 20
-152.6038210175643
 30
0.0
 10
98.11334458185632
 20
-154.138401120737
 30
0.0
 10
98.11334458185632
 20
-154.138401120737
 30
0.0
 10
98.11334458185632
 20
-154.138401120737
 30
0.0
 10
98.16626447828676
 20
-155.7259011203401
 30
0.0
 10
98.16626447828676
 20
-155.7259011203401
 30
0.0
  0
SPLINE
  5
E0
330
70
100
AcDbEntity
  8
Capa 1
 62
    18
420
        0
370
     9
100
AcDbSpline
210
0.0
220
0.0
230
1.0
 70
    11
 71
     3
 72
   200
 73
   196
 74
     0
 42
0.0000000001
 43
0.0000000001
 40
0.0
 40
0.0
 40
0.0
 40
0.0
 40
1.0
 40
1.0
 40
1.0
 40
2.0
 40
2.0
 40
2.0
 40
3.0
 40
3.0
 40
3.0
 40
4.0
 40
4.0
 40
4.0
 40
5.0
 40
5.0
 40
5.0
 40
6.0
 40
6.0
 40
6.0
 40
7.0
 40
7.0
 40
7.0
 40
8.0
 40
8.0
 40
8.0
 40
9.0
 40
9.0
 40
9.0
 40
10.0
 40
10.0
 40
10.0
 40
11.0
 40
11.0
 40
11.0
 40
12.0
 40
12.0
 40
12.0
 40
13.0
 40
13.0
 40
13.0
 40
14.0
 40
14.0
 40
14.0
 40
15.0
 40
15.0
 40
15.0
 40
16.0
 40
16.0
 40
16.0
 40
17.0
 40
17.0
 40
17.0
 40
18.0
 40
18.0
 40
18.0
 40
19.0
 40
19.0
 40
19.0
 40
20.0
 40
20.0
 40
20.0
 40
21.0
 40
21.0
 40
21.0
 40
22.0
 40
22.0
 40
22.0
 40
23.0
 40
23.0
 40
23.0
 40
24.0
 40
24.0
 40
24.0
 40
25.0
 40
25.0
 40
25.0
 40
26.0
 40
26.0
 40
26.0
 40
27.0
 40
27.0
 40
27.0
 40
28.0
 40
28.0
 40
28.0
 40
29.0
 40
29.0
 40
29.0
 40
30.0
 40
30.0
 40
30.0
 40
31.0
 40
31.0
 40
31.0
 40
32.0
 40
32.0
 40
32.0
 40
33.0
 40
33.0
 40
33.0
 40
34.0
 40
34.0
 40
34.0
 40
35.0
 40
35.0
 40
35.0
 40
36.0
 40
36.0
 40
36.0
 40
37.0
 40
37.0
 40
37.0
 40
38.0
 40
38.0
 40
38.0
 40
39.0
 40
39.0
 40
39.0
 40
40.0
 40
40.0
 40
40.0
 40
41.0
 40
41.0
 40
41.0
 40
42.0
 40
42.0
 40
42.0
 40
43.0
 40
43.0
 40
43.0
 40
44.0
 40
44.0
 40
44.0
 40
45.0
 40
45.0
 40
45.0
 40
46.0
 40
46.0
 40
46.0
 40
47.0
 40
47.0
 40
47.0
 40
48.0
 40
48.0
 40
48.0
 40
49.0
 40
49.0
 40
49.0
 40
50.0
 40
50.0
 40
50.0
 40
51.0
 40
51.0
 40
51.0
 40
52.0
 40
52.0
 40
52.0
 40
53.0
 40
53.0
 40
53.0
 40
54.0
 40
54.0
 40
54.0
 40
55.0
 40
55.0
 40
55.0
 40
56.0
 40
56.0
 40
56.0
 40
57.0
 40
57.0
 40
57.0
 40
58.0
 40
58.0
 40
58.0
 40
59.0
 40
59.0
 40
59.0
 40
60.0
 40
60.0
 40
60.0
 40
61.0
 40
61.0
 40
61.0
 40
62.0
 40
62.0
 40
62.0
 40
63.0
 40
63.0
 40
63.0
 40
64.0
 40
64.0
 40
64.0
 40
65.0
 40
65.0
 40
65.0
 40
65.0
 10
83.93168034106782
 20
-150.2754828401475
 30
0.0
 10
83.93168034106782
 20
-150.2754828401475
 30
0.0
 10
83.98459620027699
 20
-149.7992360700436
 30
0.0
 10
83.98459620027699
 20
-149.7992360700436
 30
0.0
 10
83.98459620027699
 20
-149.7992360700436
 30
0.0
 10
84.03751205948617
 20
-149.3759011219276
 30
0.0
 10
84.03751205948617
 20
-149.3759011219276
 30
0.0
 10
84.03751205948617
 20
-149.3759011219276
 30
0.0
 10
84.14334781512582
 20
-148.8996543518237
 30
0.0
 10
84.14334781512582
 20
-148.8996543518237
 30
0.0
 10
84.14334781512582
 20
-148.8996543518237
 30
0.0
 10
84.30209539275336
 20
-148.4763194037077
 30
0.0
 10
84.30209539275336
 20
-148.4763194037077
 30
0.0
 10
84.30209539275336
 20
-148.4763194037077
 30
0.0
 10
84.51376286681137
 20
-148.0529844555917
 30
0.0
 10
84.51376286681137
 20
-148.0529844555917
 30
0.0
 10
84.51376286681137
 20
-148.0529844555917
 30
0.0
 10
84.72543034086937
 20
-147.6296495074756
 30
0.0
 10
84.72543034086937
 20
-147.6296495074756
 30
0.0
 10
84.72543034086937
 20
-147.6296495074756
 30
0.0
 10
84.99001367413656
 20
-147.2592344557901
 30
0.0
 10
84.99001367413656
 20
-147.2592344557901
 30
0.0
 10
84.99001367413656
 20
-147.2592344557901
 30
0.0
 10
85.30751286661294
 20
-146.9417312260925
 30
0.0
 10
85.30751286661294
 20
-146.9417312260925
 30
0.0
 10
85.30751286661294
 20
-146.9417312260925
 30
0.0
 10
85.6779279182985
 20
-146.6242360708374
 30
0.0
 10
85.6779279182985
 20
-146.6242360708374
 30
0.0
 10
85.6779279182985
 20
-146.6242360708374
 30
0.0
 10
86.04834296998404
 20
-146.3067328411397
 30
0.0
 10
86.04834296998404
 20
-146.3067328411397
 30
0.0
 10
86.04834296998404
 20
-146.3067328411397
 30
0.0
 10
86.41875802166961
 20
-146.095069404303
 30
0.0
 10
86.41875802166961
 20
-146.095069404303
 30
0.0
 10
86.41875802166961
 20
-146.095069404303
 30
0.0
 10
86.84209296978561
 20
-145.8833978930237
 30
0.0
 10
86.84209296978561
 20
-145.8833978930237
 30
0.0
 10
86.84209296978561
 20
-145.8833978930237
 30
0.0
 10
87.26542791790162
 20
-145.7246543526174
 30
0.0
 10
87.26542791790162
 20
-145.7246543526174
 30
0.0
 10
87.26542791790162
 20
-145.7246543526174
 30
0.0
 10
87.74167468800554
 20
-145.5659027377686
 30
0.0
 10
87.74167468800554
 20
-145.5659027377686
 30
0.0
 10
87.74167468800554
 20
-145.5659027377686
 30
0.0
 10
88.16500963612154
 20
-145.5129828413381
 30
0.0
 10
88.16500963612154
 20
-145.5129828413381
 30
0.0
 10
88.16500963612154
 20
-145.5129828413381
 30
0.0
 10
88.64126448066802
 20
-145.4600710193503
 30
0.0
 10
88.64126448066802
 20
-145.4600710193503
 30
0.0
 10
88.64126448066802
 20
-145.4600710193503
 30
0.0
 10
89.11751125077193
 20
-145.4600710193503
 30
0.0
 10
89.11751125077193
 20
-145.4600710193503
 30
0.0
 10
89.11751125077193
 20
-145.4600710193503
 30
0.0
 10
89.59375802087585
 20
-145.5129828413381
 30
0.0
 10
89.59375802087585
 20
-145.5129828413381
 30
0.0
 10
89.59375802087585
 20
-145.5129828413381
 30
0.0
 10
90.01709296899186
 20
-145.6188145597565
 30
0.0
 10
90.01709296899186
 20
-145.6188145597565
 30
0.0
 10
90.01709296899186
 20
-145.6188145597565
 30
0.0
 10
90.49334781353833
 20
-145.7775661746054
 30
0.0
 10
90.49334781353833
 20
-145.7775661746054
 30
0.0
 10
90.49334781353833
 20
-145.7775661746054
 30
0.0
 10
90.91667468721178
 20
-145.9363177894542
 30
0.0
 10
90.91667468721178
 20
-145.9363177894542
 30
0.0
 10
90.91667468721178
 20
-145.9363177894542
 30
0.0
 10
91.28709781333988
 20
-146.2009011227213
 30
0.0
 10
91.28709781333988
 20
-146.2009011227213
 30
0.0
 10
91.28709781333988
 20
-146.2009011227213
 30
0.0
 10
91.71042468701335
 20
-146.4654844559885
 30
0.0
 10
91.71042468701335
 20
-146.4654844559885
 30
0.0
 10
91.71042468701335
 20
-146.4654844559885
 30
0.0
 10
92.02792791671098
 20
-146.7300677892557
 30
0.0
 10
92.02792791671098
 20
-146.7300677892557
 30
0.0
 10
92.02792791671098
 20
-146.7300677892557
 30
0.0
 10
92.39834296839655
 20
-147.1004828409413
 30
0.0
 10
92.39834296839655
 20
-147.1004828409413
 30
0.0
 10
92.39834296839655
 20
-147.1004828409413
 30
0.0
 10
92.66292630166374
 20
-147.4708978926268
 30
0.0
 10
92.66292630166374
 20
-147.4708978926268
 30
0.0
 10
92.66292630166374
 20
-147.4708978926268
 30
0.0
 10
92.92750963493091
 20
-147.8413210187549
 30
0.0
 10
92.92750963493091
 20
-147.8413210187549
 30
0.0
 10
92.92750963493091
 20
-147.8413210187549
 30
0.0
 10
93.13918114621019
 20
-148.2646478924284
 30
0.0
 10
93.13918114621019
 20
-148.2646478924284
 30
0.0
 10
93.13918114621019
 20
-148.2646478924284
 30
0.0
 10
93.29792468661647
 20
-148.6879828405444
 30
0.0
 10
93.29792468661647
 20
-148.6879828405444
 30
0.0
 10
93.29792468661647
 20
-148.6879828405444
 30
0.0
 10
93.45667630146529
 20
-149.1113177886604
 30
0.0
 10
93.45667630146529
 20
-149.1113177886604
 30
0.0
 10
93.45667630146529
 20
-149.1113177886604
 30
0.0
 10
93.56250801988366
 20
-149.5875645587643
 30
0.0
 10
93.56250801988366
 20
-149.5875645587643
 30
0.0
 10
93.56250801988366
 20
-149.5875645587643
 30
0.0
 10
93.56250801988366
 20
-150.0638194033108
 30
0.0
 10
93.56250801988366
 20
-150.0638194033108
 30
0.0
 10
93.56250801988366
 20
-150.0638194033108
 30
0.0
 10
93.56250801988366
 20
-150.5400661734147
 30
0.0
 10
93.56250801988366
 20
-150.5400661734147
 30
0.0
 10
93.56250801988366
 20
-150.5400661734147
 30
0.0
 10
93.56250801988366
 20
-150.9634011215307
 30
0.0
 10
93.56250801988366
 20
-150.9634011215307
 30
0.0
 10
93.56250801988366
 20
-150.9634011215307
 30
0.0
 10
93.45667630146529
 20
-151.4396478916347
 30
0.0
 10
93.45667630146529
 20
-151.4396478916347
 30
0.0
 10
93.45667630146529
 20
-151.4396478916347
 30
0.0
 10
93.29792468661647
 20
-151.8629828397506
 30
0.0
 10
93.29792468661647
 20
-151.8629828397506
 30
0.0
 10
93.29792468661647
 20
-151.8629828397506
 30
0.0
 10
93.13918114621019
 20
-152.3392376842971
 30
0.0
 10
93.13918114621019
 20
-152.3392376842971
 30
0.0
 10
93.13918114621019
 20
-152.3392376842971
 30
0.0
 10
92.92750963493091
 20
-152.7096527359827
 30
0.0
 10
92.92750963493091
 20
-152.7096527359827
 30
0.0
 10
92.92750963493091
 20
-152.7096527359827
 30
0.0
 10
92.66292630166374
 20
-153.1329876840987
 30
0.0
 10
92.66292630166374
 20
-153.1329876840987
 30
0.0
 10
92.66292630166374
 20
-153.1329876840987
 30
0.0
 10
92.39834296839655
 20
-153.5034027357843
 30
0.0
 10
92.39834296839655
 20
-153.5034027357843
 30
0.0
 10
92.39834296839655
 20
-153.5034027357843
 30
0.0
 10
92.02792791671098
 20
-153.8208978910393
 30
0.0
 10
92.02792791671098
 20
-153.8208978910393
 30
0.0
 10
92.02792791671098
 20
-153.8208978910393
 30
0.0
 10
91.71042468701335
 20
-154.138401120737
 30
0.0
 10
91.71042468701335
 20
-154.138401120737
 30
0.0
 10
91.71042468701335
 20
-154.138401120737
 30
0.0
 10
91.28709781333988
 20
-154.4029844540041
 30
0.0
 10
91.28709781333988
 20
-154.4029844540041
 30
0.0
 10
91.28709781333988
 20
-154.4029844540041
 30
0.0
 10
90.91667468721178
 20
-154.6146478908409
 30
0.0
 10
90.91667468721178
 20
-154.6146478908409
 30
0.0
 10
90.91667468721178
 20
-154.6146478908409
 30
0.0
 10
90.49334781353833
 20
-154.7733995056897
 30
0.0
 10
90.49334781353833
 20
-154.7733995056897
 30
0.0
 10
90.49334781353833
 20
-154.7733995056897
 30
0.0
 10
90.01709296899186
 20
-154.9321511205385
 30
0.0
 10
90.01709296899186
 20
-154.9321511205385
 30
0.0
 10
90.01709296899186
 20
-154.9321511205385
 30
0.0
 10
89.59375802087585
 20
-155.0379828389569
 30
0.0
 10
89.59375802087585
 20
-155.0379828389569
 30
0.0
 10
89.59375802087585
 20
-155.0379828389569
 30
0.0
 10
89.11751125077193
 20
-155.0909027353874
 30
0.0
 10
89.11751125077193
 20
-155.0909027353874
 30
0.0
 10
89.11751125077193
 20
-155.0909027353874
 30
0.0
 10
88.64126448066802
 20
-155.0909027353874
 30
0.0
 10
88.64126448066802
 20
-155.0909027353874
 30
0.0
 10
88.64126448066802
 20
-155.0909027353874
 30
0.0
 10
88.16500963612154
 20
-155.0909027353874
 30
0.0
 10
88.16500963612154
 20
-155.0909027353874
 30
0.0
 10
88.16500963612154
 20
-155.0909027353874
 30
0.0
 10
87.74167468800554
 20
-154.985071016969
 30
0.0
 10
87.74167468800554
 20
-154.985071016969
 30
0.0
 10
87.74167468800554
 20
-154.985071016969
 30
0.0
 10
87.26542791790162
 20
-154.8792312241081
 30
0.0
 10
87.26542791790162
 20
-154.8792312241081
 30
0.0
 10
87.26542791790162
 20
-154.8792312241081
 30
0.0
 10
86.84209296978561
 20
-154.7204876837018
 30
0.0
 10
86.84209296978561
 20
-154.7204876837018
 30
0.0
 10
86.84209296978561
 20
-154.7204876837018
 30
0.0
 10
86.41875802166961
 20
-154.5088161724225
 30
0.0
 10
86.41875802166961
 20
-154.5088161724225
 30
0.0
 10
86.41875802166961
 20
-154.5088161724225
 30
0.0
 10
86.04834296998404
 20
-154.2442328391553
 30
0.0
 10
86.04834296998404
 20
-154.2442328391553
 30
0.0
 10
86.04834296998404
 20
-154.2442328391553
 30
0.0
 10
85.6779279182985
 20
-153.9796495058882
 30
0.0
 10
85.6779279182985
 20
-153.9796495058882
 30
0.0
 10
85.6779279182985
 20
-153.9796495058882
 30
0.0
 10
85.30751286661294
 20
-153.6621543506331
 30
0.0
 10
85.30751286661294
 20
-153.6621543506331
 30
0.0
 10
85.30751286661294
 20
-153.6621543506331
 30
0.0
 10
84.99001367413656
 20
-153.291731224505
 30
0.0
 10
84.99001367413656
 20
-153.291731224505
 30
0.0
 10
84.99001367413656
 20
-153.291731224505
 30
0.0
 10
84.72543034086937
 20
-152.9213161728194
 30
0.0
 10
84.72543034086937
 20
-152.9213161728194
 30
0.0
 10
84.72543034086937
 20
-152.9213161728194
 30
0.0
 10
84.51376286681137
 20
-152.5509011211338
 30
0.0
 10
84.51376286681137
 20
-152.5509011211338
 30
0.0
 10
84.51376286681137
 20
-152.5509011211338
 30
0.0
 10
84.30209539275336
 20
-152.1275661730179
 30
0.0
 10
84.30209539275336
 20
-152.1275661730179
 30
0.0
 10
84.30209539275336
 20
-152.1275661730179
 30
0.0
 10
84.14334781512582
 20
-151.6513194029139
 30
0.0
 10
84.14334781512582
 20
-151.6513194029139
 30
0.0
 10
84.14334781512582
 20
-151.6513194029139
 30
0.0
 10
84.03751205948617
 20
-151.2279844547979
 30
0.0
 10
84.03751205948617
 20
-151.2279844547979
 30
0.0
 10
84.03751205948617
 20
-151.2279844547979
 30
0.0
 10
83.98459620027699
 20
-150.751737684694
 30
0.0
 10
83.98459620027699
 20
-150.751737684694
 30
0.0
 10
83.98459620027699
 20
-150.751737684694
 30
0.0
 10
83.93168034106782
 20
-150.2754828401475
 30
0.0
 10
83.93168034106782
 20
-150.2754828401475
 30
0.0
  0
MTEXT
  5
E1
330
70
100
AcDbEntity
  8
Capa 1
100
AcDbMText
 10
133.548777602505
 20
-102.0977328363123
 30
0.0
 40
0.2
 41
0.0
 46
0.0
 71
     7
 72
     1
  1
\C18;\c0;\FArial Bold|b1|i0|c1;\H2.499665;\W0.999201;  110  
 11
0.0000000000000001
 21
1.0
 31
0.0
 73
     1
 44
1.0
  0
LWPOLYLINE
  5
E2
330
70
100
AcDbEntity
  8
Capa 1
 62
    18
420
        0
370
     9
100
AcDbPolyline
 90
        4
 70
     0
 43
0.0
 10
134.4755085929315
 20
-103.4451675158909
 10
134.9517553630355
 20
-106.5143277222363
 10
133.9992456739425
 20
-106.5143277222363
 10
134.4755085929315
 20
-103.4451675158909
  0
LWPOLYLINE
  5
E3
330
70
100
AcDbEntity
  8
Capa 1
 62
    18
420
        0
370
     9
100
AcDbPolyline
 90
        4
 70
     0
 43
0.0
 10
134.4755085929315
 20
-103.4451513670059
 10
134.9517553630355
 20
-106.5143277222363
 10
133.9992456739425
 20
-106.5143277222363
 10
134.4755085929315
 20
-103.4451513670059
  0
LWPOLYLINE
  5
E4
330
70
100
AcDbEntity
  8
Capa 1
 62
    18
420
        0
370
     9
100
AcDbPolyline
 90
        4
 70
     0
 43
0.0
 10
134.4755085929315
 20
-89.89848147394885
 10
133.9992456739425
 20
-86.77640137117306
 10
134.9517553630355
 20
-86.77640137117306
 10
134.4755085929315
 20
-89.89848147394885
  0
LINE
  5
E5
330
70
100
AcDbEntity
  8
Capa 1
 62
    18
420
        0
370
     9
100
AcDbLine
 10
144.6355150499456
 20
-103.4451675158909
 30
0.0
 11
132.9938483861893
 21
-103.4451675158909
 31
0.0
  0
LINE
  5
E6
330
70
100
AcDbEntity
  8
Capa 1
 62
    18
420
        0
370
     9
100
AcDbLine
 10
134.4755085929315
 20
-103.4451513670059
 30
0.0
 11
134.4755085929315
 21
-109.3718244917449
 31
0.0
  0
LINE
  5
E7
330
70
100
AcDbEntity
  8
Capa 1
 62
    18
420
        0
370
     9
100
AcDbLine
 10
134.4755085929315
 20
-89.89848147394885
 30
0.0
 11
134.4755085929315
 21
-103.4451513670059
 31
0.0
  0
LINE
  5
E8
330
70
100
AcDbEntity
  8
Capa 1
 62
    18
420
        0
370
     9
100
AcDbLine
 10
134.4755085929315
 20
-89.89848147394885
 30
0.0
 11
134.4755085929315
 21
-83.97182449809491
 31
0.0
  0
LINE
  5
E9
330
70
100
AcDbEntity
  8
Capa 1
 62
    18
420
        0
370
     9
100
AcDbLine
 10
145.1117618200495
 20
-103.4451513670059
 30
0.0
 11
132.9938322373042
 21
-103.4451513670059
 31
0.0
  0
LINE
  5
EA
330
70
100
AcDbEntity
  8
Capa 1
 62
    18
420
        0
370
     9
100
AcDbLine
 10
145.1117618200495
 20
-89.89848147394885
 30
0.0
 11
132.9938322373042
 21
-89.89848147394885
 31
0.0
  0
LWPOLYLINE
  5
EB
330
70
100
AcDbEntity
  8
Capa 1
100
AcDbPolyline
 90
        3
 70
     0
 43
0.0
 10
134.4755085929315
 20
-103.4451675158909
 10
134.9517553630355
 20
-106.5143277222363
 10
133.9992456739425
 20
-106.5143277222363
  0
HATCH
  5
EC
330
70
100
AcDbEntity
  8
Capa 1
 62
    18
420
        0
440
 33554687
100
AcDbHatch
 10
0.0
 20
0.0
 30
0.0
210
0.0
220
0.0
230
1.0
  2
SOLID
 70
     1
 71
     1
 91
        1
 92
        3
 72
     0
 73
     1
 93
        3
 10
134.4755085929315
 20
-103.4451675158909
 10
134.9517553630355
 20
-106.5143277222363
 10
133.9992456739425
 20
-106.5143277222363
 97
        0
 75
     2
 76
     1
 98
        1
 10
0.0
 20
0.0
450
        0
451
        0
460
0.0
461
0.0
452
        0
462
0.0
453
        0
470

  0
LWPOLYLINE
  5
ED
330
70
100
AcDbEntity
  8
Capa 1
100
AcDbPolyline
 90
        3
 70
     0
 43
0.0
 10
134.4755085929315
 20
-103.4451513670059
 10
134.9517553630355
 20
-106.5143277222363
 10
133.9992456739425
 20
-106.5143277222363
  0
HATCH
  5
EE
330
70
100
AcDbEntity
  8
Capa 1
 62
    18
420
        0
440
 33554687
100
AcDbHatch
 10
0.0
 20
0.0
 30
0.0
210
0.0
220
0.0
230
1.0
  2
SOLID
 70
     1
 71
     1
 91
        1
 92
        3
 72
     0
 73
     1
 93
        3
 10
134.4755085929315
 20
-103.4451513670059
 10
134.9517553630355
 20
-106.5143277222363
 10
133.9992456739425
 20
-106.5143277222363
 97
        0
 75
     2
 76
     1
 98
        1
 10
0.0
 20
0.0
450
        0
451
        0
460
0.0
461
0.0
452
        0
462
0.0
453
        0
470

  0
LWPOLYLINE
  5
EF
330
70
100
AcDbEntity
  8
Capa 1
100
AcDbPolyline
 90
        3
 70
     0
 43
0.0
 10
134.4755085929315
 20
-89.89848147394885
 10
133.9992456739425
 20
-86.77640137117306
 10
134.9517553630355
 20
-86.77640137117306
  0
HATCH
  5
F0
330
70
100
AcDbEntity
  8
Capa 1
 62
    18
420
        0
440
 33554687
100
AcDbHatch
 10
0.0
 20
0.0
 30
0.0
210
0.0
220
0.0
230
1.0
  2
SOLID
 70
     1
 71
     1
 91
        1
 92
        3
 72
     0
 73
     1
 93
        3
 10
134.4755085929315
 20
-89.89848147394885
 10
133.9992456739425
 20
-86.77640137117306
 10
134.9517553630355
 20
-86.77640137117306
 97
        0
 75
     2
 76
     1
 98
        1
 10
0.0
 20
0.0
450
        0
451
        0
460
0.0
461
0.0
452
        0
462
0.0
453
        0
470

  0
LINE
  5
F1
330
70
100
AcDbEntity
  8
Capa 1
 62
    18
420
        0
370
     9
100
AcDbLine
 10
146.0113354638269
 20
-103.4451513670059
 30
0.0
 11
146.1171591078027
 21
-103.4451513670059
 31
0.0
  0
LINE
  5
F2
330
70
100
AcDbEntity
  8
Capa 1
 62
    18
420
        0
370
     9
100
AcDbLine
 10
146.5934058779066
 20
-103.4451513670059
 30
0.0
 11
146.1171591078027
 21
-103.4451513670059
 31
0.0
  0
LWPOLYLINE
  5
F3
330
70
100
AcDbEntity
  8
Capa 1
 62
    18
420
        0
370
     9
100
AcDbPolyline
 90
        3
 70
     0
 43
0.0
 10
174.3217521234159
 20
-103.33932772303
 10
174.3746558709613
 20
-103.2864078265996
 10
174.3746558709613
 20
-103.2334879301691
  0
LWPOLYLINE
  5
F4
330
70
100
AcDbEntity
  8
Capa 1
 62
    18
420
        0
370
     9
100
AcDbPolyline
 90
        3
 70
     0
 43
0.0
 10
174.1100725376941
 20
-103.4451513670059
 10
174.1629924341246
 20
-103.4451513670059
 10
174.215912330555
 20
-103.4451513670059
  0
LWPOLYLINE
  5
F5
330
70
100
AcDbEntity
  8
Capa 1
 62
    18
420
        0
370
     9
100
AcDbPolyline
 90
        4
 70
     0
 43
0.0
 10
173.7396655604511
 20
-103.4451513670059
 10
173.8984091008574
 20
-103.4451513670059
 10
174.0042488937183
 20
-103.4451513670059
 10
174.1100725376941
 20
-103.4451513670059
  0
LWPOLYLINE
  5
F6
330
70
100
AcDbEntity
  8
Capa 1
 62
    18
420
        0
370
     9
100
AcDbPolyline
 90
        8
 70
     0
 43
0.0
 10
146.0113354638269
 20
-103.1805680337387
 10
146.0113354638269
 20
-103.2334879301691
 10
146.0113354638269
 20
-103.2864078265996
 10
146.0113354638269
 20
-103.33932772303
 10
146.0642392113722
 20
-103.3922476194605
 10
146.1171591078027
 20
-103.3922476194605
 10
146.1700790042331
 20
-103.4451513670059
 10
146.2229989006636
 20
-103.4451513670059
  0
LWPOLYLINE
  5
F7
330
70
100
AcDbEntity
  8
Capa 1
 62
    18
420
        0
370
     9
100
AcDbPolyline
 90
        5
 70
     0
 43
0.0
 10
146.2229989006636
 20
-103.4451513670059
 10
146.2759187970941
 20
-103.4451513670059
 10
146.3288225446394
 20
-103.4451513670059
 10
146.4875822339308
 20
-103.4451513670059
 10
146.5934058779066
 20
-103.4451513670059
  0
LINE
  5
F8
330
70
100
AcDbEntity
  8
Capa 1
 62
    18
420
        0
370
     9
100
AcDbLine
 10
146.5934058779066
 20
-103.4451513670059
 30
0.0
 11
173.7396655604511
 21
-103.4451513670059
 31
0.0
  0
LINE
  5
F9
330
70
100
AcDbEntity
  8
Capa 1
 62
    18
420
        0
370
     9
100
AcDbLine
 10
174.692159100659
 20
-90.53348793334414
 30
0.0
 11
174.3746558709613
 21
-103.2334879301691
 31
0.0
  0
LINE
  5
FA
330
70
100
AcDbEntity
  8
Capa 1
 62
    18
420
        0
370
     9
100
AcDbLine
 10
146.0113354638269
 20
-90.4805680369137
 30
0.0
 11
146.0113354638269
 21
-103.1805680337387
 31
0.0
  0
LWPOLYLINE
  5
FB
330
70
100
AcDbEntity
  8
Capa 1
 62
    18
420
        0
370
     9
100
AcDbPolyline
 90
        9
 70
     0
 43
0.0
 10
146.5934058779066
 20
-89.89849762283396
 10
146.4875822339308
 20
-89.89849762283396
 10
146.3817424410699
 20
-89.95140137037932
 10
146.2759187970941
 20
-90.00432126680978
 10
146.1700790042331
 20
-90.05724116324023
 10
146.1171591078027
 20
-90.16308095610114
 10
146.0642392113722
 20
-90.26890460007697
 10
146.0113354638269
 20
-90.37474439293786
 10
146.0113354638269
 20
-90.4805680369137
  0
LWPOLYLINE
  5
FC
330
70
100
AcDbEntity
  8
Capa 1
 62
    18
420
        0
370
     9
100
AcDbPolyline
 90
        9
 70
     0
 43
0.0
 10
174.692159100659
 20
-90.53348793334414
 10
174.692159100659
 20
-90.37474439293786
 10
174.692159100659
 20
-90.26890460007697
 10
174.5863354566831
 20
-90.16308095610114
 10
174.5334155602527
 20
-90.05724116324023
 10
174.4275757673918
 20
-90.00432126680978
 10
174.3217521234159
 20
-89.95140137037932
 10
174.215912330555
 20
-89.89849762283396
 10
174.1100725376941
 20
-89.89849762283396
  0
LINE
  5
FD
330
70
100
AcDbEntity
  8
Capa 1
 62
    18
420
        0
370
     9
100
AcDbLine
 10
174.1100725376941
 20
-89.89849762283396
 30
0.0
 11
146.5934058779066
 21
-89.89849762283396
 31
0.0
  0
LWPOLYLINE
  5
FE
330
70
100
AcDbEntity
  8
Capa 1
 62
    18
420
        0
370
     9
100
AcDbPolyline
 90
        1
 70
     0
 43
0.0
 10
100.0745943779155
 20
-112.0437624971601
  0
LWPOLYLINE
  5
FF
330
70
100
AcDbEntity
  8
Capa 1
 62
    18
420
        0
370
     9
100
AcDbPolyline
 90
        5
 70
     0
 43
0.0
 10
174.215912330555
 20
-103.4451513670059
 10
174.2688322269855
 20
-103.3922476194605
 10
174.3217521234159
 20
-103.33932772303
 10
174.3746558709613
 20
-103.2864078265996
 10
174.3746558709613
 20
-103.2334879301691
  0
LINE
  5
100
330
70
100
AcDbEntity
  8
Capa 1
 62
    18
420
        0
370
     9
100
AcDbLine
 10
146.0113354638269
 20
-103.1805680337387
 30
0.0
 11
146.0113354638269
 21
-103.2334879301691
 31
0.0
  0
LINE
  5
101
330
70
100
AcDbEntity
  8
Capa 1
 62
    18
420
        0
370
     9
100
AcDbLine
 10
112.8506314001731
 20
-103.2335040790542
 30
0.0
 11
112.7977195781852
 21
-103.2335040790542
 31
0.0
  0
LINE
  5
102
330
70
100
AcDbEntity
  8
Capa 1
 62
    18
420
        0
370
     9
100
AcDbLine
 10
64.64355292355708
 20
-103.2335040790542
 30
0.0
 11
64.69646878276626
 21
-103.2335040790542
 31
0.0
  0
LINE
  5
103
330
70
100
AcDbEntity
  8
Capa 1
 62
    18
420
        0
370
     9
100
AcDbLine
 10
113.4327179631379
 20
-103.0747443897628
 30
0.0
 11
113.4327179631379
 21
-103.0218244933324
 31
0.0
  0
LWPOLYLINE
  5
104
330
70
100
AcDbEntity
  8
Capa 1
 62
    18
420
        0
370
     9
100
AcDbPolyline
 90
        3
 70
     0
 43
0.0
 10
113.1681346298707
 20
-103.2335040790542
 10
113.2210545263012
 20
-103.2335040790542
 10
113.2739663482891
 20
-103.2335040790542
  0
LINE
  5
105
330
70
100
AcDbEntity
  8
Capa 1
 62
    18
420
        0
370
     9
100
AcDbLine
 10
113.0623029114524
 20
-103.2335040790542
 30
0.0
 11
113.1681346298707
 21
-103.2335040790542
 31
0.0
  0
LWPOLYLINE
  5
106
330
70
100
AcDbEntity
  8
Capa 1
 62
    18
420
        0
370
     9
100
AcDbPolyline
 90
        3
 70
     0
 43
0.0
 10
112.7977195781852
 20
-103.2335040790542
 10
112.956471193034
 20
-103.2335040790542
 10
113.0623029114524
 20
-103.2335040790542
  0
LWPOLYLINE
  5
107
330
70
100
AcDbEntity
  8
Capa 1
 62
    18
420
        0
370
     9
100
AcDbPolyline
 90
        5
 70
     0
 43
0.0
 10
64.16730211623189
 20
-103.1805841826231
 10
64.16730211623189
 20
-103.1805841826231
 10
64.22021797544108
 20
-103.2335040790542
 10
64.27313383465025
 20
-103.2335040790542
 10
64.32605373108072
 20
-103.2335040790542
  0
LWPOLYLINE
  5
108
330
70
100
AcDbEntity
  8
Capa 1
 62
    18
420
        0
370
     9
100
AcDbPolyline
 90
        4
 70
     0
 43
0.0
 10
64.06147039781352
 20
-103.0218244933324
 10
64.06147039781352
 20
-103.0218244933324
 10
64.06147039781352
 20
-103.0747443897628
 10
64.1143862570227
 20
-103.1276642861933
  0
LWPOLYLINE
  5
109
330
70
100
AcDbEntity
  8
Capa 1
 62
    18
420
        0
370
     9
100
AcDbPolyline
 90
        5
 70
     0
 43
0.0
 10
64.32605373108072
 20
-103.2335040790542
 10
64.32605373108072
 20
-103.2335040790542
 10
64.43188544949908
 20
-103.2335040790542
 10
64.53771716791745
 20
-103.2335040790542
 10
64.69646878276626
 20
-103.2335040790542
  0
LINE
  5
10A
330
70
100
AcDbEntity
  8
Capa 1
 62
    18
420
        0
370
     9
100
AcDbLine
 10
64.69646878276626
 20
-103.2335040790542
 30
0.0
 11
112.7977195781852
 21
-103.2335040790542
 31
0.0
  0
LINE
  5
10B
330
70
100
AcDbEntity
  8
Capa 1
 62
    18
420
        0
370
     9
100
AcDbLine
 10
113.7502211928356
 20
-90.32182449650742
 30
0.0
 11
113.4327179631379
 21
-103.0218244933324
 31
0.0
  0
LINE
  5
10C
330
70
100
AcDbEntity
  8
Capa 1
 62
    18
420
        0
370
     9
100
AcDbLine
 10
64.06147039781352
 20
-103.0218244933324
 30
0.0
 11
63.74396716811588
 21
-90.32182449650742
 31
0.0
  0
LWPOLYLINE
  5
10D
330
70
100
AcDbEntity
  8
Capa 1
 62
    18
420
        0
370
     9
100
AcDbPolyline
 90
        3
 70
     0
 43
0.0
 10
113.7502211928356
 20
-90.32182449650742
 10
113.7502211928356
 20
-90.32182449650742
 10
113.7502211928356
 20
-90.26892074896204
  0
LWPOLYLINE
  5
10E
330
70
100
AcDbEntity
  8
Capa 1
 62
    18
420
        0
370
     9
100
AcDbPolyline
 90
        9
 70
     0
 43
0.0
 10
113.7502211928356
 20
-90.26892074896204
 10
113.7502211928356
 20
-90.16308095610114
 10
113.6973012964051
 20
-90.05724116324023
 10
113.6443813999747
 20
-89.95141751926377
 10
113.5914695779868
 20
-89.8455777264035
 10
113.4856378595684
 20
-89.79265782997304
 10
113.3797980667075
 20
-89.73975408242768
 10
113.2739663482891
 20
-89.68683418599658
 10
113.1152147334403
 20
-89.68683418599658
  0
LWPOLYLINE
  5
10F
330
70
100
AcDbEntity
  8
Capa 1
 62
    18
420
        0
370
     9
100
AcDbPolyline
 90
        9
 70
     0
 43
0.0
 10
63.74396716811588
 20
-90.26892074896204
 10
63.74396716811588
 20
-90.16308095610114
 10
63.79688706454634
 20
-90.05724116324023
 10
63.84980292375551
 20
-89.95141751926377
 10
63.9027187829647
 20
-89.8455777264035
 10
64.00855050138307
 20
-89.79265782997304
 10
64.1143862570227
 20
-89.73975408242768
 10
64.22021797544108
 20
-89.68683418599658
 10
64.32605373108072
 20
-89.68683418599658
  0
LWPOLYLINE
  5
110
330
70
100
AcDbEntity
  8
Capa 1
 62
    18
420
        0
370
     9
100
AcDbPolyline
 90
        3
 70
     0
 43
0.0
 10
63.74396716811588
 20
-90.32182449650742
 10
63.74396716811588
 20
-90.32182449650742
 10
63.74396716811588
 20
-90.26892074896204
  0
LINE
  5
111
330
70
100
AcDbEntity
  8
Capa 1
 62
    18
420
        0
370
     9
100
AcDbLine
 10
113.1152147334403
 20
-89.68683418599658
 30
0.0
 11
64.32605373108072
 21
-89.68683418599658
 31
0.0
  0
LWPOLYLINE
  5
112
330
70
100
AcDbEntity
  8
Capa 1
 62
    18
420
        0
370
     9
100
AcDbPolyline
 90
        5
 70
     0
 43
0.0
 10
113.2739663482891
 20
-103.2335040790542
 10
113.3268862447196
 20
-103.1805841826231
 10
113.3797980667075
 20
-103.1276642861933
 10
113.4327179631379
 20
-103.0747443897628
 10
113.4327179631379
 20
-103.0218244933324
  0
LWPOLYLINE
  5
113
330
70
100
AcDbEntity
  8
Capa 1
 62
    18
420
        0
370
     9
100
AcDbPolyline
 90
        5
 70
     0
 43
0.0
 10
64.06147039781352
 20
-103.0218244933324
 10
64.06147039781352
 20
-103.0747443897628
 10
64.1143862570227
 20
-103.1276642861933
 10
64.16730211623189
 20
-103.1805841826231
 10
64.22021797544108
 20
-103.2335040790542
  0
ENDSEC
  0
SECTION
  2
OBJECTS
  0
DICTIONARY
  5
C
330
0
100
AcDbDictionary
281
     1
  3
ACAD_COLOR
350
63
  3
ACAD_DETAILVIEWSTYLE
350
6A
  3
ACAD_GROUP
350
D
  3
ACAD_LAYOUT
350
62
  3
ACAD_MATERIAL
350
10
  3
ACAD_MLEADERSTYLE
350
66
  3
ACAD_MLINESTYLE
350
5F
  3
ACAD_PLOTSETTINGS
350
61
  3
ACAD_PLOTSTYLENAME
350
E
  3
ACAD_SCALELIST
350
42
  3
ACAD_SECTIONVIEWSTYLE
350
68
  3
ACAD_TABLESTYLE
350
64
  3
ACAD_VISUALSTYLE
350
29
  3
ACDB_RECOMPOSE_DATA
350
11D
  3
AcDbVariableDictionary
350
114
  0
DICTIONARY
  5
63
102
{ACAD_REACTORS
330
C
102
}
330
C
100
AcDbDictionary
281
     1
  0
DICTIONARY
  5
6A
102
{ACAD_REACTORS
330
C
102
}
330
C
100
AcDbDictionary
281
     1
  3
Imperial24
350
6B
  0
DICTIONARY
  5
D
102
{ACAD_REACTORS
330
C
102
}
330
C
100
AcDbDictionary
281
     1
  0
DICTIONARY
  5
62
102
{ACAD_REACTORS
330
C
102
}
330
C
100
AcDbDictionary
281
     1
  3
Layout1
350
6F
  3
Layout2
350
77
  3
Model
350
73
  0
DICTIONARY
  5
10
102
{ACAD_REACTORS
330
C
102
}
330
C
100
AcDbDictionary
281
     1
  3
ByBlock
350
19
  3
ByLayer
350
11
  3
Global
350
21
  0
DICTIONARY
  5
66
102
{ACAD_REACTORS
330
C
102
}
330
C
100
AcDbDictionary
281
     1
  3
Standard
350
67
  0
DICTIONARY
  5
5F
102
{ACAD_REACTORS
330
C
102
}
330
C
100
AcDbDictionary
281
     1
  3
Standard
350
60
  0
DICTIONARY
  5
61
102
{ACAD_REACTORS
330
C
102
}
330
C
100
AcDbDictionary
281
     1
  0
ACDBDICTIONARYWDFLT
  5
E
102
{ACAD_REACTORS
330
C
102
}
330
C
100
AcDbDictionary
281
     1
  3
Normal
350
F
100
AcDbDictionaryWithDefault
340
F
  0
DICTIONARY
  5
42
102
{ACAD_REACTORS
330
C
102
}
330
C
100
AcDbDictionary
281
     1
  3
A0
350
43
  3
A1
350
44
  3
A2
350
45
  3
A3
350
46
  3
A4
350
47
  3
A5
350
48
  3
A6
350
49
  3
A7
350
4A
  3
A8
350
4B
  3
A9
350
4C
  3
B0
350
4D
  3
B1
350
4E
  3
B2
350
4F
  3
B3
350
50
  3
B4
350
51
  3
B5
350
52
  3
B6
350
53
  0
DICTIONARY
  5
68
102
{ACAD_REACTORS
330
C
102
}
330
C
100
AcDbDictionary
281
     1
  3
Imperial24
350
69
  0
DICTIONARY
  5
64
102
{ACAD_REACTORS
330
C
102
}
330
C
100
AcDbDictionary
281
     1
  3
Standard
350
65
  0
DICTIONARY
  5
29
102
{ACAD_REACTORS
330
C
102
}
330
C
100
AcDbDictionary
281
     1
  3
2dWireframe
350
2F
  3
Basic
350
2E
  3
Brighten
350
35
  3
ColorChange
350
39
  3
Conceptual
350
32
  3
Dim
350
34
  3
EdgeColorOff
350
41
  3
Facepattern
350
38
  3
Flat
350
2A
  3
FlatWithEdges
350
2B
  3
Gouraud
350
2C
  3
GouraudWithEdges
350
2D
  3
Hidden
350
31
  3
JitterOff
350
3F
  3
Linepattern
350
37
  3
OverhangOff
350
40
  3
Realistic
350
33
  3
Shaded
350
3E
  3
Shaded with edges
350
3D
  3
Shades of Gray
350
3A
  3
Sketchy
350
3B
  3
Thicken
350
36
  3
Wireframe
350
30
  3
X-Ray
350
3C
  0
XRECORD
  5
11D
102
{ACAD_REACTORS
330
C
102
}
330
C
100
AcDbXrecord
280
     1
 90
        1
330
65
  0
DICTIONARY
  5
114
102
{ACAD_REACTORS
330
C
102
}
330
C
100
AcDbDictionary
281
     1
  3
CANNOSCALE
350
119
  3
CMLEADERSTYLE
350
116
  3
CTABLESTYLE
350
115
  3
CVIEWDETAILSTYLE
350
117
  3
CVIEWSECTIONSTYLE
350
118
  0
ACDBDETAILVIEWSTYLE
  5
6B
102
{ACAD_XDICTIONARY
360
152
102
}
102
{ACAD_REACTORS
330
6A
102
}
330
6A
100
AcDbModelDocViewStyle
 70
     0
  3
Imperial24
290
     0
100
AcDbDetailViewStyle
 70
     0
 71
     0
 90
        3
 71
     1
340
55
 62
   256
 40
0.24
340
0
 62
   256
 40
0.24
300

 40
0.36
280
     3
 71
     2
340
5D
 90
       25
 62
   256
 71
     3
340
55
 62
   256
 40
0.24
 90
        1
 40
0.75
 90
        1
300
%<\AcVar ViewType \f "%tc1">% %<\AcVar ViewDetailId>%\PSCALE %<\AcVar ViewScale \f "%sn">%
 71
     4
340
5D
 90
       25
 62
   256
340
5D
 90
       25
 62
   256
280
     0
  0
LAYOUT
  5
6F
102
{ACAD_REACTORS
330
62
102
}
330
62
100
AcDbPlotSettings
  1

  2

  4

  6

 40
0.0
 41
0.0
 42
0.0
 43
0.0
 44
0.0
 45
0.0
 46
0.0
 47
0.0
 48
0.0
 49
0.0
140
0.0
141
0.0
142
1.0
143
1.0
 70
   688
 72
     0
 73
     0
 74
     5
  7

 75
    16
147
1.0
 76
     0
 77
     2
 78
   300
148
0.0
149
0.0
100
AcDbLayout
  1
Layout1
 70
     1
 71
     1
 10
0.0
 20
0.0
 11
12.0
 21
9.0
 12
0.0
 22
0.0
 32
0.0
 14
0.0
 24
0.0
 34
0.0
 15
0.0
 25
0.0
 35
0.0
146
0.0
 13
0.0
 23
0.0
 33
0.0
 16
1.0
 26
0.0
 36
0.0
 17
0.0
 27
1.0
 37
0.0
 76
     0
330
6C
  0
LAYOUT
  5
77
102
{ACAD_REACTORS
330
62
102
}
330
62
100
AcDbPlotSettings
  1

  2

  4

  6

 40
0.0
 41
0.0
 42
0.0
 43
0.0
 44
0.0
 45
0.0
 46
0.0
 47
0.0
 48
0.0
 49
0.0
140
0.0
141
0.0
142
1.0
143
1.0
 70
   688
 72
     0
 73
     0
 74
     5
  7

 75
    16
147
1.0
 76
     0
 77
     2
 78
   300
148
0.0
149
0.0
100
AcDbLayout
  1
Layout2
 70
     1
 71
     2
 10
0.0
 20
0.0
 11
12.0
 21
9.0
 12
0.0
 22
0.0
 32
0.0
 14
0.0
 24
0.0
 34
0.0
 15
0.0
 25
0.0
 35
0.0
146
0.0
 13
0.0
 23
0.0
 33
0.0
 16
1.0
 26
0.0
 36
0.0
 17
0.0
 27
1.0
 37
0.0
 76
     0
330
74
  0
LAYOUT
  5
73
102
{ACAD_REACTORS
330
62
102
}
330
62
100
AcDbPlotSettings
  1

  2

  4

  6

 40
0.0
 41
0.0
 42
0.0
 43
0.0
 44
0.0
 45
0.0
 46
0.0
 47
0.0
 48
0.0
 49
0.0
140
0.0
141
0.0
142
1.0
143
1.0
 70
  1712
 72
     0
 73
     0
 74
     0
  7

 75
     0
147
1.0
 76
     0
 77
     2
 78
   300
148
0.0
149
0.0
100
AcDbLayout
  1
Model
 70
     1
 71
     0
 10
0.0
 20
0.0
 11
12.0
 21
9.0
 12
0.0
 22
0.0
 32
0.0
 14
0.0
 24
0.0
 34
0.0
 15
0.0
 25
0.0
 35
0.0
146
0.0
 13
0.0
 23
0.0
 33
0.0
 16
1.0
 26
0.0
 36
0.0
 17
0.0
 27
1.0
 37
0.0
 76
     0
330
70
  0
MATERIAL
  5
19
102
{ACAD_XDICTIONARY
360
1A
102
}
102
{ACAD_REACTORS
330
10
102
}
330
10
100
AcDbMaterial
  1
ByBlock
 72
     0
 43
0.0208333333333333
 43
0.0
 43
0.0
 43
0.0
 43
0.0
 43
0.0208333333333333
 43
0.0
 43
0.0
 43
0.0
 43
0.0
 43
1.0
 43
0.0
 43
0.0
 43
0.0
 43
0.0
 43
1.0
 77
     0
 47
0.0208333333333333
 47
0.0
 47
0.0
 47
0.0
 47
0.0
 47
0.0208333333333333
 47
0.0
 47
0.0
 47
0.0
 47
0.0
 47
1.0
 47
0.0
 47
0.0
 47
0.0
 47
0.0
 47
1.0
171
     0
 49
0.0208333333333333
 49
0.0
 49
0.0
 49
0.0
 49
0.0
 49
0.0208333333333333
 49
0.0
 49
0.0
 49
0.0
 49
0.0
 49
1.0
 49
0.0
 49
0.0
 49
0.0
 49
0.0
 49
1.0
175
     0
142
0.0208333333333333
142
0.0
142
0.0
142
0.0
142
0.0
142
0.0208333333333333
142
0.0
142
0.0
142
0.0
142
0.0
142
1.0
142
0.0
142
0.0
142
0.0
142
0.0
142
1.0
179
     0
144
0.0208333333333333
144
0.0
144
0.0
144
0.0
144
0.0
144
0.0208333333333333
144
0.0
144
0.0
144
0.0
144
0.0
144
1.0
144
0.0
144
0.0
144
0.0
144
0.0
144
1.0
147
0.0208333333333333
147
0.0
147
0.0
147
0.0
147
0.0
147
0.0208333333333333
147
0.0
147
0.0
147
0.0
147
0.0
147
1.0
147
0.0
147
0.0
147
0.0
147
0.0
147
1.0
  0
MATERIAL
  5
11
102
{ACAD_XDICTIONARY
360
12
102
}
102
{ACAD_REACTORS
330
10
102
}
330
10
100
AcDbMaterial
  1
ByLayer
 72
     0
 43
0.0208333333333333
 43
0.0
 43
0.0
 43
0.0
 43
0.0
 43
0.0208333333333333
 43
0.0
 43
0.0
 43
0.0
 43
0.0
 43
1.0
 43
0.0
 43
0.0
 43
0.0
 43
0.0
 43
1.0
 77
     0
 47
0.0208333333333333
 47
0.0
 47
0.0
 47
0.0
 47
0.0
 47
0.0208333333333333
 47
0.0
 47
0.0
 47
0.0
 47
0.0
 47
1.0
 47
0.0
 47
0.0
 47
0.0
 47
0.0
 47
1.0
171
     0
 49
0.0208333333333333
 49
0.0
 49
0.0
 49
0.0
 49
0.0
 49
0.0208333333333333
 49
0.0
 49
0.0
 49
0.0
 49
0.0
 49
1.0
 49
0.0
 49
0.0
 49
0.0
 49
0.0
 49
1.0
175
     0
142
0.0208333333333333
142
0.0
142
0.0
142
0.0
142
0.0
142
0.0208333333333333
142
0.0
142
0.0
142
0.0
142
0.0
142
1.0
142
0.0
142
0.0
142
0.0
142
0.0
142
1.0
179
     0
144
0.0208333333333333
144
0.0
144
0.0
144
0.0
144
0.0
144
0.0208333333333333
144
0.0
144
0.0
144
0.0
144
0.0
144
1.0
144
0.0
144
0.0
144
0.0
144
0.0
144
1.0
147
0.0208333333333333
147
0.0
147
0.0
147
0.0
147
0.0
147
0.0208333333333333
147
0.0
147
0.0
147
0.0
147
0.0
147
1.0
147
0.0
147
0.0
147
0.0
147
0.0
147
1.0
  0
MATERIAL
  5
21
102
{ACAD_XDICTIONARY
360
22
102
}
102
{ACAD_REACTORS
330
10
102
}
330
10
100
AcDbMaterial
  1
Global
 72
     0
 43
0.0208333333333333
 43
0.0
 43
0.0
 43
0.0
 43
0.0
 43
0.0208333333333333
 43
0.0
 43
0.0
 43
0.0
 43
0.0
 43
1.0
 43
0.0
 43
0.0
 43
0.0
 43
0.0
 43
1.0
 77
     0
 47
0.0208333333333333
 47
0.0
 47
0.0
 47
0.0
 47
0.0
 47
0.0208333333333333
 47
0.0
 47
0.0
 47
0.0
 47
0.0
 47
1.0
 47
0.0
 47
0.0
 47
0.0
 47
0.0
 47
1.0
171
     0
 49
0.0208333333333333
 49
0.0
 49
0.0
 49
0.0
 49
0.0
 49
0.0208333333333333
 49
0.0
 49
0.0
 49
0.0
 49
0.0
 49
1.0
 49
0.0
 49
0.0
 49
0.0
 49
0.0
 49
1.0
175
     0
142
0.0208333333333333
142
0.0
142
0.0
142
0.0
142
0.0
142
0.0208333333333333
142
0.0
142
0.0
142
0.0
142
0.0
142
1.0
142
0.0
142
0.0
142
0.0
142
0.0
142
1.0
179
     0
144
0.0208333333333333
144
0.0
144
0.0
144
0.0
144
0.0
144
0.0208333333333333
144
0.0
144
0.0
144
0.0
144
0.0
144
1.0
144
0.0
144
0.0
144
0.0
144
0.0
144
1.0
147
0.0208333333333333
147
0.0
147
0.0
147
0.0
147
0.0
147
0.0208333333333333
147
0.0
147
0.0
147
0.0
147
0.0
147
1.0
147
0.0
147
0.0
147
0.0
147
0.0
147
1.0
  0
MLEADERSTYLE
  5
67
102
{ACAD_XDICTIONARY
360
14E
102
}
102
{ACAD_REACTORS
330
66
102
}
330
66
100
AcDbMLeaderStyle
179
     2
170
     2
171
     1
172
     0
 90
        2
 40
0.0
 41
0.0
173
     1
 91
-1056964608
340
5B
 92
       -2
290
     1
 42
0.09
291
     1
 43
0.36
  3
Standard
 44
0.18
300

342
55
174
     1
178
     6
175
     1
176
     0
 93
-1056964608
 45
0.18
292
     0
297
     0
 46
0.18
 94
-1056964608
 47
1.0
 49
1.0
140
1.0
293
     1
141
0.0
294
     1
177
     0
142
1.0
295
     0
296
     0
143
0.125
271
     0
272
     9
273
     9
  0
MLINESTYLE
  5
60
102
{ACAD_REACTORS
330
5F
102
}
330
5F
100
AcDbMlineStyle
  2
STANDARD
 70
     0
  3

 62
   256
 51
90.0
 52
90.0
 71
     2
 49
0.5
 62
   256
  6
BYLAYER
 49
-0.5
 62
   256
  6
BYLAYER
  0
ACDBPLACEHOLDER
  5
F
102
{ACAD_REACTORS
330
E
102
}
330
E
  0
SCALE
  5
43
102
{ACAD_REACTORS
330
42
102
}
330
42
100
AcDbScale
 70
     0
300
1:1
140
1.0
141
1.0
290
     1
  0
SCALE
  5
44
102
{ACAD_REACTORS
330
42
102
}
330
42
100
AcDbScale
 70
     0
300
1/128" = 1'-0"
140
0.0078125
141
12.0
290
     0
  0
SCALE
  5
45
102
{ACAD_REACTORS
330
42
102
}
330
42
100
AcDbScale
 70
     0
300
1/64" = 1'-0"
140
0.015625
141
12.0
290
     0
  0
SCALE
  5
46
102
{ACAD_REACTORS
330
42
102
}
330
42
100
AcDbScale
 70
     0
300
1/32" = 1'-0"
140
0.03125
141
12.0
290
     0
  0
SCALE
  5
47
102
{ACAD_REACTORS
330
42
102
}
330
42
100
AcDbScale
 70
     0
300
1/16" = 1'-0"
140
0.0625
141
12.0
290
     0
  0
SCALE
  5
48
102
{ACAD_REACTORS
330
42
102
}
330
42
100
AcDbScale
 70
     0
300
3/32" = 1'-0"
140
0.09375
141
12.0
290
     0
  0
SCALE
  5
49
102
{ACAD_REACTORS
330
42
102
}
330
42
100
AcDbScale
 70
     0
300
1/8" = 1'-0"
140
0.125
141
12.0
290
     0
  0
SCALE
  5
4A
102
{ACAD_REACTORS
330
42
102
}
330
42
100
AcDbScale
 70
     0
300
3/16" = 1'-0"
140
0.1875
141
12.0
290
     0
  0
SCALE
  5
4B
102
{ACAD_REACTORS
330
42
102
}
330
42
100
AcDbScale
 70
     0
300
1/4" = 1'-0"
140
0.25
141
12.0
290
     0
  0
SCALE
  5
4C
102
{ACAD_REACTORS
330
42
102
}
330
42
100
AcDbScale
 70
     0
300
3/8" = 1'-0"
140
0.375
141
12.0
290
     0
  0
SCALE
  5
4D
102
{ACAD_REACTORS
330
42
102
}
330
42
100
AcDbScale
 70
     0
300
1/2" = 1'-0"
140
0.5
141
12.0
290
     0
  0
SCALE
  5
4E
102
{ACAD_REACTORS
330
42
102
}
330
42
100
AcDbScale
 70
     0
300
3/4" = 1'-0"
140
0.75
141
12.0
290
     0
  0
SCALE
  5
4F
102
{ACAD_REACTORS
330
42
102
}
330
42
100
AcDbScale
 70
     0
300
1" = 1'-0"
140
1.0
141
12.0
290
     0
  0
SCALE
  5
50
102
{ACAD_REACTORS
330
42
102
}
330
42
100
AcDbScale
 70
     0
300
1-1/2" = 1'-0"
140
1.5
141
12.0
290
     0
  0
SCALE
  5
51
102
{ACAD_REACTORS
330
42
102
}
330
42
100
AcDbScale
 70
     0
300
3" = 1'-0"
140
3.0
141
12.0
290
     0
  0
SCALE
  5
52
102
{ACAD_REACTORS
330
42
102
}
330
42
100
AcDbScale
 70
     0
300
6" = 1'-0"
140
6.0
141
12.0
290
     0
  0
SCALE
  5
53
102
{ACAD_REACTORS
330
42
102
}
330
42
100
AcDbScale
 70
     0
300
1'-0" = 1'-0"
140
12.0
141
12.0
290
     0
  0
ACDBSECTIONVIEWSTYLE
  5
69
102
{ACAD_XDICTIONARY
360
150
102
}
102
{ACAD_REACTORS
330
68
102
}
330
68
100
AcDbModelDocViewStyle
 70
     0
  3
Imperial24
290
     0
100
AcDbSectionViewStyle
 70
     0
 71
     0
 90
       78
 71
     1
340
55
 62
   256
 40
0.24
340
0
340
0
 62
   256
 40
0.24
300
I, O, Q, S, X, Z
 40
0.48
 90
        3
 40
0.18
 90
        1
 71
     2
340
5D
 90
       25
 62
   256
340
5D
 90
       50
 62
   256
 40
0.24
 40
0.0
 40
0.24
 71
     3
340
55
 62
   256
 40
0.24
 90
        1
 40
0.75
 90
        1
300
%<\AcVar ViewType \f "%tc1">% %<\AcVar ViewSectionStartId>%-%<\AcVar ViewSectionEndId>%\PSCALE %<\AcVar ViewScale \f "%sn">%
 71
     4
 62
   256
 62
   257
300
ANSI31
 40
1.0
 90
        0
290
     0
290
     0
 90
        6
 40
0.0
 40
1.570796326794896
 40
0.2617993877991494
 40
1.308996938995747
 40
-0.2617993877991494
 40
1.832595714594046
  0
TABLESTYLE
  5
65
102
{ACAD_XDICTIONARY
360
11A
102
}
102
{ACAD_REACTORS
330
64
102
}
330
64
100
AcDbTableStyle
280
     0
  3
Standard
 70
     0
 71
     0
 40
0.06
 41
0.06
280
     0
281
     0
  7
Standard
140
0.18
170
     2
 62
     0
 63
     7
283
     0
 90
      512
 91
        0
  1

274
    -2
284
     1
 64
     0
275
    -2
285
     1
 65
     0
276
    -2
286
     1
 66
     0
277
    -2
287
     1
 67
     0
278
    -2
288
     1
 68
     0
279
    -2
289
     1
 69
     0
  7
Standard
140
0.25
170
     5
 62
     0
 63
     7
283
     0
 90
      512
 91
        0
  1

274
    -2
284
     1
 64
     0
275
    -2
285
     1
 65
     0
276
    -2
286
     1
 66
     0
277
    -2
287
     1
 67
     0
278
    -2
288
     1
 68
     0
279
    -2
289
     1
 69
     0
  7
Standard
140
0.18
170
     5
 62
     0
 63
     7
283
     0
 90
      512
 91
        0
  1

274
    -2
284
     1
 64
     0
275
    -2
285
     1
 65
     0
276
    -2
286
     1
 66
     0
277
    -2
287
     1
 67
     0
278
    -2
288
     1
 68
     0
279
    -2
289
     1
 69
     0
  0
VISUALSTYLE
  5
2F
102
{ACAD_XDICTIONARY
360
128
102
}
102
{ACAD_REACTORS
330
29
102
}
330
29
100
AcDbVisualStyle
  2
2dWireframe
 70
     4
177
     2
291
     0
 71
     0
176
     1
 72
     2
176
     1
 73
     0
176
     1
 90
        0
176
     1
 40
0.6
176
     1
 41
30.0
176
     1
 63
     7
421
 16777215
176
     1
 74
     1
176
     1
 91
        4
176
     1
 64
     7
176
     1
 65
   257
176
     1
 75
     1
176
     1
175
     1
176
     1
 42
1.0
176
     1
 92
        0
176
     1
 66
   257
176
     1
 43
1.0
176
     1
 76
     1
176
     1
 77
     6
176
     1
 78
     2
176
     1
 67
     7
176
     1
 79
     5
176
     1
170
     0
176
     1
171
     0
176
     1
290
     0
176
     1
 93
        1
176
     1
 44
0.0
176
     1
173
     0
176
     1
1001
ACAD
1000
AcDbSavedByObjectVersion
1070
     0
  0
VISUALSTYLE
  5
2E
102
{ACAD_XDICTIONARY
360
126
102
}
102
{ACAD_REACTORS
330
29
102
}
330
29
100
AcDbVisualStyle
  2
Basic
 70
     7
177
     2
291
     1
 71
     1
176
     1
 72
     0
176
     1
 73
     1
176
     1
 90
        0
176
     1
 40
0.6
176
     1
 41
30.0
176
     1
 63
     7
421
 16777215
176
     1
 74
     0
176
     1
 91
        4
176
     1
 64
     7
176
     1
 65
   257
176
     1
 75
     1
176
     1
175
     1
176
     1
 42
1.0
176
     1
 92
        8
176
     1
 66
     7
176
     1
 43
1.0
176
     1
 76
     1
176
     1
 77
     6
176
     1
 78
     2
176
     1
 67
     7
176
     1
 79
     5
176
     1
170
     0
176
     1
171
     0
176
     1
290
     0
176
     1
 93
        1
176
     1
 44
0.0
176
     1
173
     0
176
     1
1001
ACAD
1000
AcDbSavedByObjectVersion
1070
     0
  0
VISUALSTYLE
  5
35
102
{ACAD_XDICTIONARY
360
134
102
}
102
{ACAD_REACTORS
330
29
102
}
330
29
100
AcDbVisualStyle
  2
Brighten
 70
    12
177
     2
291
     1
 71
     2
176
     1
 72
     2
176
     1
 73
     0
176
     1
 90
        0
176
     1
 40
0.6
176
     1
 41
30.0
176
     1
 63
     7
421
 16777215
176
     1
 74
     1
176
     1
 91
        4
176
     1
 64
     7
176
     1
 65
   257
176
     1
 75
     1
176
     1
175
     1
176
     1
 42
1.0
176
     1
 92
        8
176
     1
 66
     7
176
     1
 43
1.0
176
     1
 76
     1
176
     1
 77
     6
176
     1
 78
     2
176
     1
 67
     7
176
     1
 79
     5
176
     1
170
     0
176
     1
171
     0
176
     1
290
     0
176
     1
 93
        1
176
     1
 44
50.0
176
     1
173
     0
176
     1
1001
ACAD
1000
AcDbSavedByObjectVersion
1070
     0
  0
VISUALSTYLE
  5
39
102
{ACAD_XDICTIONARY
360
13C
102
}
102
{ACAD_REACTORS
330
29
102
}
330
29
100
AcDbVisualStyle
  2
ColorChange
 70
    16
177
     2
291
     1
 71
     2
176
     1
 72
     2
176
     1
 73
     3
176
     1
 90
        0
176
     1
 40
0.6
176
     1
 41
30.0
176
     1
 63
     8
421
  8421504
176
     1
 74
     1
176
     1
 91
        4
176
     1
 64
     7
176
     1
 65
   257
176
     1
 75
     1
176
     1
175
     1
176
     1
 42
1.0
176
     1
 92
        8
176
     1
 66
     8
424
  8421504
176
     1
 43
1.0
176
     1
 76
     1
176
     1
 77
     6
176
     1
 78
     2
176
     1
 67
     7
176
     1
 79
     5
176
     1
170
     0
176
     1
171
     0
176
     1
290
     0
176
     1
 93
        1
176
     1
 44
0.0
176
     1
173
     0
176
     1
1001
ACAD
1000
AcDbSavedByObjectVersion
1070
     0
  0
VISUALSTYLE
  5
32
102
{ACAD_XDICTIONARY
360
12E
102
}
102
{ACAD_REACTORS
330
29
102
}
330
29
100
AcDbVisualStyle
  2
Conceptual
 70
     9
177
     2
291
     0
 71
     3
176
     1
 72
     2
176
     1
 73
     0
176
     1
 90
        0
176
     1
 40
0.6
176
     1
 41
30.0
176
     1
 63
     7
421
 16777215
176
     1
 74
     2
176
     1
 91
        2
176
     1
 64
     7
176
     1
 65
   257
176
     1
 75
     1
176
     1
175
     1
176
     1
 42
179.0
176
     1
 92
        8
176
     1
 66
     7
176
     1
 43
1.0
176
     1
 76
     1
176
     1
 77
     6
176
     1
 78
     2
176
     1
 67
     7
176
     1
 79
     3
176
     1
170
     0
176
     1
171
     0
176
     1
290
     0
176
     1
 93
        1
176
     1
 44
0.0
176
     1
173
     0
176
     1
1001
ACAD
1000
AcDbSavedByObjectVersion
1070
     0
  0
VISUALSTYLE
  5
34
102
{ACAD_XDICTIONARY
360
132
102
}
102
{ACAD_REACTORS
330
29
102
}
330
29
100
AcDbVisualStyle
  2
Dim
 70
    11
177
     2
291
     1
 71
     2
176
     1
 72
     2
176
     1
 73
     0
176
     1
 90
        0
176
     1
 40
0.6
176
     1
 41
30.0
176
     1
 63
     7
421
 16777215
176
     1
 74
     1
176
     1
 91
        4
176
     1
 64
     7
176
     1
 65
   257
176
     1
 75
     1
176
     1
175
     1
176
     1
 42
1.0
176
     1
 92
        8
176
     1
 66
     7
176
     1
 43
1.0
176
     1
 76
     1
176
     1
 77
     6
176
     1
 78
     2
176
     1
 67
     7
176
     1
 79
     5
176
     1
170
     0
176
     1
171
     0
176
     1
290
     0
176
     1
 93
        1
176
     1
 44
-50.0
176
     1
173
     0
176
     1
1001
ACAD
1000
AcDbSavedByObjectVersion
1070
     0
  0
VISUALSTYLE
  5
41
102
{ACAD_XDICTIONARY
360
14C
102
}
102
{ACAD_REACTORS
330
29
102
}
330
29
100
AcDbVisualStyle
  2
EdgeColorOff
 70
    22
177
     2
291
     1
 71
     2
176
     0
 72
     2
176
     0
 73
     0
176
     0
 90
        0
176
     0
 40
0.6
176
     0
 41
30.0
176
     0
 63
     7
421
 16777215
176
     0
 74
     1
176
     0
 91
        4
176
     0
 64
     7
176
     0
 65
   257
176
     0
 75
     1
176
     0
175
     1
176
     0
 42
1.0
176
     0
 92
        8
176
     2
 66
     7
176
     0
 43
1.0
176
     0
 76
     1
176
     0
 77
     6
176
     0
 78
     2
176
     0
 67
     7
176
     0
 79
     5
176
     0
170
     0
176
     0
171
     0
176
     0
290
     0
176
     0
 93
        1
176
     0
 44
0.0
176
     0
173
     0
176
     0
1001
ACAD
1000
AcDbSavedByObjectVersion
1070
     0
  0
VISUALSTYLE
  5
38
102
{ACAD_XDICTIONARY
360
13A
102
}
102
{ACAD_REACTORS
330
29
102
}
330
29
100
AcDbVisualStyle
  2
Facepattern
 70
    15
177
     2
291
     1
 71
     2
176
     1
 72
     2
176
     1
 73
     0
176
     1
 90
        0
176
     1
 40
0.6
176
     1
 41
30.0
176
     1
 63
     7
421
 16777215
176
     1
 74
     1
176
     1
 91
        4
176
     1
 64
     7
176
     1
 65
   257
176
     1
 75
     1
176
     1
175
     1
176
     1
 42
1.0
176
     1
 92
        8
176
     1
 66
     7
176
     1
 43
1.0
176
     1
 76
     1
176
     1
 77
     6
176
     1
 78
     2
176
     1
 67
     7
176
     1
 79
     5
176
     1
170
     0
176
     1
171
     0
176
     1
290
     0
176
     1
 93
        1
176
     1
 44
0.0
176
     1
173
     0
176
     1
1001
ACAD
1000
AcDbSavedByObjectVersion
1070
     0
  0
VISUALSTYLE
  5
2A
102
{ACAD_XDICTIONARY
360
11E
102
}
102
{ACAD_REACTORS
330
29
102
}
330
29
100
AcDbVisualStyle
  2
Flat
 70
     0
177
     2
291
     1
 71
     2
176
     1
 72
     1
176
     1
 73
     1
176
     1
 90
        2
176
     1
 40
0.6
176
     1
 41
30.0
176
     1
 63
     7
421
 16777215
176
     1
 74
     0
176
     1
 91
        0
176
     1
 64
     7
176
     1
 65
   257
176
     1
 75
     1
176
     1
175
     1
176
     1
 42
1.0
176
     1
 92
        8
176
     1
 66
     7
176
     1
 43
1.0
176
     1
 76
     1
176
     1
 77
     6
176
     1
 78
     2
176
     1
 67
     7
176
     1
 79
     5
176
     1
170
     0
176
     1
171
     0
176
     1
290
     0
176
     1
 93
       13
176
     1
 44
0.0
176
     1
173
     0
176
     1
1001
ACAD
1000
AcDbSavedByObjectVersion
1070
     0
  0
VISUALSTYLE
  5
2B
102
{ACAD_XDICTIONARY
360
120
102
}
102
{ACAD_REACTORS
330
29
102
}
330
29
100
AcDbVisualStyle
  2
FlatWithEdges
 70
     1
177
     2
291
     1
 71
     2
176
     1
 72
     1
176
     1
 73
     1
176
     1
 90
        2
176
     1
 40
0.6
176
     1
 41
30.0
176
     1
 63
     7
421
 16777215
176
     1
 74
     1
176
     1
 91
        0
176
     1
 64
     7
176
     1
 65
   257
176
     1
 75
     1
176
     1
175
     1
176
     1
 42
1.0
176
     1
 92
        0
176
     1
 66
   257
176
     1
 43
1.0
176
     1
 76
     1
176
     1
 77
     6
176
     1
 78
     2
176
     1
 67
     7
176
     1
 79
     5
176
     1
170
     0
176
     1
171
     0
176
     1
290
     0
176
     1
 93
       13
176
     1
 44
0.0
176
     1
173
     0
176
     1
1001
ACAD
1000
AcDbSavedByObjectVersion
1070
     0
  0
VISUALSTYLE
  5
2C
102
{ACAD_XDICTIONARY
360
122
102
}
102
{ACAD_REACTORS
330
29
102
}
330
29
100
AcDbVisualStyle
  2
Gouraud
 70
     2
177
     2
291
     1
 71
     2
176
     1
 72
     2
176
     1
 73
     1
176
     1
 90
        2
176
     1
 40
0.6
176
     1
 41
30.0
176
     1
 63
     7
421
 16777215
176
     1
 74
     0
176
     1
 91
        0
176
     1
 64
     7
176
     1
 65
   257
176
     1
 75
     1
176
     1
175
     1
176
     1
 42
1.0
176
     1
 92
        0
176
     1
 66
     7
176
     1
 43
1.0
176
     1
 76
     1
176
     1
 77
     6
176
     1
 78
     2
176
     1
 67
     7
176
     1
 79
     5
176
     1
170
     0
176
     1
171
     0
176
     1
290
     0
176
     1
 93
       13
176
     1
 44
0.0
176
     1
173
     0
176
     1
1001
ACAD
1000
AcDbSavedByObjectVersion
1070
     0
  0
VISUALSTYLE
  5
2D
102
{ACAD_XDICTIONARY
360
124
102
}
102
{ACAD_REACTORS
330
29
102
}
330
29
100
AcDbVisualStyle
  2
GouraudWithEdges
 70
     3
177
     2
291
     1
 71
     2
176
     1
 72
     2
176
     1
 73
     1
176
     1
 90
        2
176
     1
 40
0.6
176
     1
 41
30.0
176
     1
 63
     7
421
 16777215
176
     1
 74
     1
176
     1
 91
        0
176
     1
 64
     7
176
     1
 65
   257
176
     1
 75
     1
176
     1
175
     1
176
     1
 42
1.0
176
     1
 92
        0
176
     1
 66
   257
176
     1
 43
1.0
176
     1
 76
     1
176
     1
 77
     6
176
     1
 78
     2
176
     1
 67
     7
176
     1
 79
     5
176
     1
170
     0
176
     1
171
     0
176
     1
290
     0
176
     1
 93
       13
176
     1
 44
0.0
176
     1
173
     0
176
     1
1001
ACAD
1000
AcDbSavedByObjectVersion
1070
     0
  0
VISUALSTYLE
  5
31
102
{ACAD_XDICTIONARY
360
12C
102
}
102
{ACAD_REACTORS
330
29
102
}
330
29
100
AcDbVisualStyle
  2
Hidden
 70
     6
177
     2
291
     0
 71
     1
176
     1
 72
     2
176
     1
 73
     2
176
     1
 90
        0
176
     1
 40
0.6
176
     1
 41
30.0
176
     1
 63
     7
421
 16777215
176
     1
 74
     2
176
     1
 91
        2
176
     1
 64
     7
176
     1
 65
   257
176
     1
 75
     2
176
     1
175
     1
176
     1
 42
40.0
176
     1
 92
        0
176
     1
 66
   257
176
     1
 43
1.0
176
     1
 76
     1
176
     1
 77
     6
176
     1
 78
     2
176
     1
 67
     7
176
     1
 79
     3
176
     1
170
     0
176
     1
171
     0
176
     1
290
     0
176
     1
 93
        1
176
     1
 44
0.0
176
     1
173
     0
176
     1
1001
ACAD
1000
AcDbSavedByObjectVersion
1070
     0
  0
VISUALSTYLE
  5
3F
102
{ACAD_XDICTIONARY
360
148
102
}
102
{ACAD_REACTORS
330
29
102
}
330
29
100
AcDbVisualStyle
  2
JitterOff
 70
    20
177
     2
291
     1
 71
     2
176
     0
 72
     2
176
     0
 73
     0
176
     0
 90
        0
176
     0
 40
0.6
176
     0
 41
30.0
176
     0
 63
     7
421
 16777215
176
     0
 74
     1
176
     0
 91
        4
176
     0
 64
     7
176
     0
 65
   257
176
     0
 75
     1
176
     0
175
     1
176
     0
 42
1.0
176
     0
 92
       10
176
     2
 66
     7
176
     0
 43
1.0
176
     0
 76
     1
176
     0
 77
     6
176
     0
 78
     2
176
     0
 67
     7
176
     0
 79
     5
176
     0
170
     0
176
     0
171
     0
176
     0
290
     0
176
     0
 93
        1
176
     0
 44
0.0
176
     0
173
     0
176
     0
1001
ACAD
1000
AcDbSavedByObjectVersion
1070
     0
  0
VISUALSTYLE
  5
37
102
{ACAD_XDICTIONARY
360
138
102
}
102
{ACAD_REACTORS
330
29
102
}
330
29
100
AcDbVisualStyle
  2
Linepattern
 70
    14
177
     2
291
     1
 71
     2
176
     1
 72
     2
176
     1
 73
     0
176
     1
 90
        0
176
     1
 40
0.6
176
     1
 41
30.0
176
     1
 63
     7
421
 16777215
176
     1
 74
     1
176
     1
 91
        4
176
     1
 64
     7
176
     1
 65
   257
176
     1
 75
     7
176
     1
175
     7
176
     1
 42
1.0
176
     1
 92
        8
176
     1
 66
     7
176
     1
 43
1.0
176
     1
 76
     1
176
     1
 77
     6
176
     1
 78
     2
176
     1
 67
     7
176
     1
 79
     5
176
     1
170
     0
176
     1
171
     0
176
     1
290
     0
176
     1
 93
        1
176
     1
 44
0.0
176
     1
173
     0
176
     1
1001
ACAD
1000
AcDbSavedByObjectVersion
1070
     0
  0
VISUALSTYLE
  5
40
102
{ACAD_XDICTIONARY
360
14A
102
}
102
{ACAD_REACTORS
330
29
102
}
330
29
100
AcDbVisualStyle
  2
OverhangOff
 70
    21
177
     2
291
     1
 71
     2
176
     0
 72
     2
176
     0
 73
     0
176
     0
 90
        0
176
     0
 40
0.6
176
     0
 41
30.0
176
     0
 63
     7
421
 16777215
176
     0
 74
     1
176
     0
 91
        4
176
     0
 64
     7
176
     0
 65
   257
176
     0
 75
     1
176
     0
175
     1
176
     0
 42
1.0
176
     0
 92
        9
176
     2
 66
     7
176
     0
 43
1.0
176
     0
 76
     1
176
     0
 77
     6
176
     0
 78
     2
176
     0
 67
     7
176
     0
 79
     5
176
     0
170
     0
176
     0
171
     0
176
     0
290
     0
176
     0
 93
        1
176
     0
 44
0.0
176
     0
173
     0
176
     0
1001
ACAD
1000
AcDbSavedByObjectVersion
1070
     0
  0
VISUALSTYLE
  5
33
102
{ACAD_XDICTIONARY
360
130
102
}
102
{ACAD_REACTORS
330
29
102
}
330
29
100
AcDbVisualStyle
  2
Realistic
 70
     8
177
     2
291
     0
 71
     2
176
     1
 72
     3
176
     1
 73
     0
176
     1
 90
        2
176
     1
 40
0.6
176
     1
 41
30.0
176
     1
 63
     7
421
 16777215
176
     1
 74
     0
176
     1
 91
        0
176
     1
 64
     7
176
     1
 65
   257
176
     1
 75
     1
176
     1
175
     1
176
     1
 42
1.0
176
     1
 92
        8
176
     1
 66
   257
176
     1
 43
1.0
176
     1
 76
     1
176
     1
 77
     6
176
     1
 78
     2
176
     1
 67
     7
176
     1
 79
     3
176
     1
170
     0
176
     1
171
     0
176
     1
290
     0
176
     1
 93
       13
176
     1
 44
0.0
176
     1
173
     0
176
     1
1001
ACAD
1000
AcDbSavedByObjectVersion
1070
     0
  0
VISUALSTYLE
  5
3E
102
{ACAD_XDICTIONARY
360
146
102
}
102
{ACAD_REACTORS
330
29
102
}
330
29
100
AcDbVisualStyle
  2
Shaded
 70
    27
177
     2
291
     0
 71
     2
176
     1
 72
     2
176
     1
 73
     1
176
     1
 90
        2
176
     1
 40
0.6
176
     1
 41
30.0
176
     1
 63
     7
421
 16777215
176
     1
 74
     0
176
     1
 91
        4
176
     1
 64
     7
176
     1
 65
   257
176
     1
 75
     1
176
     1
175
     1
176
     1
 42
1.0
176
     1
 92
        8
176
     1
 66
   257
176
     1
 43
1.0
176
     1
 76
     1
176
     1
 77
     6
176
     1
 78
     2
176
     1
 67
     8
425
  7895160
176
     1
 79
     3
176
     1
170
     0
176
     1
171
     0
176
     1
290
     0
176
     1
 93
        5
176
     1
 44
0.0
176
     1
173
     0
176
     1
1001
ACAD
1000
AcDbSavedByObjectVersion
1070
     0
  0
VISUALSTYLE
  5
3D
102
{ACAD_XDICTIONARY
360
144
102
}
102
{ACAD_REACTORS
330
29
102
}
330
29
100
AcDbVisualStyle
  2
Shaded with edges
 70
    26
177
     2
291
     0
 71
     2
176
     1
 72
     2
176
     1
 73
     1
176
     1
 90
        2
176
     1
 40
0.6
176
     1
 41
30.0
176
     1
 63
     7
421
 16777215
176
     1
 74
     1
176
     1
 91
        2
176
     1
 64
     7
176
     1
 65
   257
176
     1
 75
     2
176
     1
175
     1
176
     1
 42
1.0
176
     1
 92
        8
176
     1
 66
   257
176
     1
 43
1.0
176
     1
 76
     1
176
     1
 77
     6
176
     1
 78
     2
176
     1
 67
     7
176
     1
 79
     3
176
     1
170
     0
176
     1
171
     0
176
     1
290
     0
176
     1
 93
        5
176
     1
 44
0.0
176
     1
173
     0
176
     1
1001
ACAD
1000
AcDbSavedByObjectVersion
1070
     0
  0
VISUALSTYLE
  5
3A
102
{ACAD_XDICTIONARY
360
13E
102
}
102
{ACAD_REACTORS
330
29
102
}
330
29
100
AcDbVisualStyle
  2
Shades of Gray
 70
    23
177
     2
291
     0
 71
     2
176
     1
 72
     2
176
     1
 73
     3
176
     1
 90
        0
176
     1
 40
0.6
176
     1
 41
30.0
176
     1
 63
     7
421
 16777215
176
     1
 74
     2
176
     1
 91
        2
176
     1
 64
     7
176
     1
 65
     7
176
     1
 75
     1
176
     1
175
     1
176
     1
 42
40.0
176
     1
 92
        8
176
     1
 66
     7
176
     1
 43
1.0
176
     1
 76
     1
176
     1
 77
     6
176
     1
 78
     2
176
     1
 67
     7
176
     1
 79
     3
176
     1
170
     0
176
     1
171
     0
176
     1
290
     0
176
     1
 93
        1
176
     1
 44
0.0
176
     1
173
     0
176
     1
1001
ACAD
1000
AcDbSavedByObjectVersion
1070
     0
  0
VISUALSTYLE
  5
3B
102
{ACAD_XDICTIONARY
360
140
102
}
102
{ACAD_REACTORS
330
29
102
}
330
29
100
AcDbVisualStyle
  2
Sketchy
 70
    24
177
     2
291
     0
 71
     1
176
     1
 72
     2
176
     1
 73
     2
176
     1
 90
        0
176
     1
 40
0.6
176
     1
 41
30.0
176
     1
 63
     7
421
 16777215
176
     1
 74
     2
176
     1
 91
        2
176
     1
 64
     7
176
     1
 65
     7
176
     1
 75
     1
176
     1
175
     1
176
     1
 42
40.0
176
     1
 92
       11
176
     1
 66
     7
176
     1
 43
1.0
176
     1
 76
     1
176
     1
 77
     6
176
     1
 78
     2
176
     1
 67
     7
176
     1
 79
     6
176
     1
170
     0
176
     1
171
     0
176
     1
290
     0
176
     1
 93
        1
176
     1
 44
0.0
176
     1
173
     0
176
     1
1001
ACAD
1000
AcDbSavedByObjectVersion
1070
     0
  0
VISUALSTYLE
  5
36
102
{ACAD_XDICTIONARY
360
136
102
}
102
{ACAD_REACTORS
330
29
102
}
330
29
100
AcDbVisualStyle
  2
Thicken
 70
    13
177
     2
291
     1
 71
     2
176
     1
 72
     2
176
     1
 73
     0
176
     1
 90
        0
176
     1
 40
0.6
176
     1
 41
30.0
176
     1
 63
     7
421
 16777215
176
     1
 74
     1
176
     1
 91
        4
176
     1
 64
     7
176
     1
 65
   257
176
     1
 75
     1
176
     1
175
     1
176
     1
 42
1.0
176
     1
 92
       12
176
     1
 66
     7
176
     1
 43
1.0
176
     1
 76
     1
176
     1
 77
     6
176
     1
 78
     2
176
     1
 67
     7
176
     1
 79
     5
176
     1
170
     0
176
     1
171
     0
176
     1
290
     0
176
     1
 93
        1
176
     1
 44
0.0
176
     1
173
     0
176
     1
1001
ACAD
1000
AcDbSavedByObjectVersion
1070
     0
  0
VISUALSTYLE
  5
30
102
{ACAD_XDICTIONARY
360
12A
102
}
102
{ACAD_REACTORS
330
29
102
}
330
29
100
AcDbVisualStyle
  2
Wireframe
 70
     5
177
     2
291
     0
 71
     0
176
     1
 72
     2
176
     1
 73
     0
176
     1
 90
        0
176
     1
 40
0.6
176
     1
 41
30.0
176
     1
 63
     7
421
 16777215
176
     1
 74
     1
176
     1
 91
        4
176
     1
 64
     7
176
     1
 65
   257
176
     1
 75
     1
176
     1
175
     1
176
     1
 42
1.0
176
     1
 92
        0
176
     1
 66
   257
176
     1
 43
1.0
176
     1
 76
     1
176
     1
 77
     6
176
     1
 78
     2
176
     1
 67
     7
176
     1
 79
     3
176
     1
170
     0
176
     1
171
     0
176
     1
290
     0
176
     1
 93
        1
176
     1
 44
0.0
176
     1
173
     0
176
     1
1001
ACAD
1000
AcDbSavedByObjectVersion
1070
     0
  0
VISUALSTYLE
  5
3C
102
{ACAD_XDICTIONARY
360
142
102
}
102
{ACAD_REACTORS
330
29
102
}
330
29
100
AcDbVisualStyle
  2
X-Ray
 70
    25
177
     2
291
     0
 71
     2
176
     1
 72
     2
176
     1
 73
     1
176
     1
 90
        1
176
     1
 40
0.5
176
     1
 41
30.0
176
     1
 63
     7
421
 16777215
176
     1
 74
     1
176
     1
 91
        0
176
     1
 64
     7
176
     1
 65
   257
176
     1
 75
     1
176
     1
175
     1
176
     1
 42
1.0
176
     1
 92
        8
176
     1
 66
     7
176
     1
 43
1.0
176
     1
 76
     1
176
     1
 77
     6
176
     1
 78
     2
176
     1
 67
     7
176
     1
 79
     3
176
     1
170
     0
176
     1
171
     0
176
     1
290
     0
176
     1
 93
       13
176
     1
 44
0.0
176
     1
173
     0
176
     1
1001
ACAD
1000
AcDbSavedByObjectVersion
1070
     0
  0
DICTIONARYVAR
  5
119
102
{ACAD_REACTORS
330
114
102
}
330
114
100
DictionaryVariables
280
     0
  1
1:1
  0
DICTIONARYVAR
  5
116
102
{ACAD_REACTORS
330
114
102
}
330
114
100
DictionaryVariables
280
     0
  1
STANDARD
  0
DICTIONARYVAR
  5
115
102
{ACAD_REACTORS
330
114
102
}
330
114
100
DictionaryVariables
280
     0
  1
STANDARD
  0
DICTIONARYVAR
  5
117
102
{ACAD_REACTORS
330
114
102
}
330
114
100
DictionaryVariables
280
     0
  1
Imperial24
  0
DICTIONARYVAR
  5
118
102
{ACAD_REACTORS
330
114
102
}
330
114
100
DictionaryVariables
280
     0
  1
Imperial24
  0
DICTIONARY
  5
152
330
6B
100
AcDbDictionary
280
     1
281
     1
  3
ACAD_XREC_ROUNDTRIP
360
153
  0
DICTIONARY
  5
1A
330
19
100
AcDbDictionary
280
     1
281
     1
  3
BUMPTILE
360
1C
  3
DIFFUSETILE
360
1B
  3
OPACITYTILE
360
1F
  3
REFLECTIONTILE
360
1E
  3
REFRACTIONTILE
360
20
  3
SPECULARTILE
360
1D
  0
DICTIONARY
  5
12
330
11
100
AcDbDictionary
280
     1
281
     1
  3
BUMPTILE
360
14
  3
DIFFUSETILE
360
13
  3
OPACITYTILE
360
17
  3
REFLECTIONTILE
360
16
  3
REFRACTIONTILE
360
18
  3
SPECULARTILE
360
15
  0
DICTIONARY
  5
22
330
21
100
AcDbDictionary
280
     1
281
     1
  3
BUMPTILE
360
24
  3
DIFFUSETILE
360
23
  3
OPACITYTILE
360
27
  3
REFLECTIONTILE
360
26
  3
REFRACTIONTILE
360
28
  3
SPECULARTILE
360
25
  0
DICTIONARY
  5
14E
330
67
100
AcDbDictionary
280
     1
281
     1
  3
ACAD_XREC_ROUNDTRIP
360
14F
  0
DICTIONARY
  5
150
330
69
100
AcDbDictionary
280
     1
281
     1
  3
ACAD_XREC_ROUNDTRIP
360
151
  0
DICTIONARY
  5
11A
330
65
100
AcDbDictionary
280
     1
281
     1
  3
ACAD_ROUNDTRIP_2008_TABLESTYLE_CELLSTYLEMAP
360
11B
  0
DICTIONARY
  5
128
330
2F
100
AcDbDictionary
280
     1
281
     1
  3
ACAD_XREC_ROUNDTRIP
360
129
  0
DICTIONARY
  5
126
330
2E
100
AcDbDictionary
280
     1
281
     1
  3
ACAD_XREC_ROUNDTRIP
360
127
  0
DICTIONARY
  5
134
330
35
100
AcDbDictionary
280
     1
281
     1
  3
ACAD_XREC_ROUNDTRIP
360
135
  0
DICTIONARY
  5
13C
330
39
100
AcDbDictionary
280
     1
281
     1
  3
ACAD_XREC_ROUNDTRIP
360
13D
  0
DICTIONARY
  5
12E
330
32
100
AcDbDictionary
280
     1
281
     1
  3
ACAD_XREC_ROUNDTRIP
360
12F
  0
DICTIONARY
  5
132
330
34
100
AcDbDictionary
280
     1
281
     1
  3
ACAD_XREC_ROUNDTRIP
360
133
  0
DICTIONARY
  5
14C
330
41
100
AcDbDictionary
280
     1
281
     1
  3
ACAD_XREC_ROUNDTRIP
360
14D
  0
DICTIONARY
  5
13A
330
38
100
AcDbDictionary
280
     1
281
     1
  3
ACAD_XREC_ROUNDTRIP
360
13B
  0
DICTIONARY
  5
11E
330
2A
100
AcDbDictionary
280
     1
281
     1
  3
ACAD_XREC_ROUNDTRIP
360
11F
  0
DICTIONARY
  5
120
330
2B
100
AcDbDictionary
280
     1
281
     1
  3
ACAD_XREC_ROUNDTRIP
360
121
  0
DICTIONARY
  5
122
330
2C
100
AcDbDictionary
280
     1
281
     1
  3
ACAD_XREC_ROUNDTRIP
360
123
  0
DICTIONARY
  5
124
330
2D
100
AcDbDictionary
280
     1
281
     1
  3
ACAD_XREC_ROUNDTRIP
360
125
  0
DICTIONARY
  5
12C
330
31
100
AcDbDictionary
280
     1
281
     1
  3
ACAD_XREC_ROUNDTRIP
360
12D
  0
DICTIONARY
  5
148
330
3F
100
AcDbDictionary
280
     1
281
     1
  3
ACAD_XREC_ROUNDTRIP
360
149
  0
DICTIONARY
  5
138
330
37
100
AcDbDictionary
280
     1
281
     1
  3
ACAD_XREC_ROUNDTRIP
360
139
  0
DICTIONARY
  5
14A
330
40
100
AcDbDictionary
280
     1
281
     1
  3
ACAD_XREC_ROUNDTRIP
360
14B
  0
DICTIONARY
  5
130
330
33
100
AcDbDictionary
280
     1
281
     1
  3
ACAD_XREC_ROUNDTRIP
360
131
  0
DICTIONARY
  5
146
330
3E
100
AcDbDictionary
280
     1
281
     1
  3
ACAD_XREC_ROUNDTRIP
360
147
  0
DICTIONARY
  5
144
330
3D
100
AcDbDictionary
280
     1
281
     1
  3
ACAD_XREC_ROUNDTRIP
360
145
  0
DICTIONARY
  5
13E
330
3A
100
AcDbDictionary
280
     1
281
     1
  3
ACAD_XREC_ROUNDTRIP
360
13F
  0
DICTIONARY
  5
140
330
3B
100
AcDbDictionary
280
     1
281
     1
  3
ACAD_XREC_ROUNDTRIP
360
141
  0
DICTIONARY
  5
136
330
36
100
AcDbDictionary
280
     1
281
     1
  3
ACAD_XREC_ROUNDTRIP
360
137
  0
DICTIONARY
  5
12A
330
30
100
AcDbDictionary
280
     1
281
     1
  3
ACAD_XREC_ROUNDTRIP
360
12B
  0
DICTIONARY
  5
142
330
3C
100
AcDbDictionary
280
     1
281
     1
  3
ACAD_XREC_ROUNDTRIP
360
143
  0
XRECORD
  5
153
102
{ACAD_REACTORS
330
152
102
}
330
152
100
AcDbXrecord
280
     1
102
DISPLAYNAME
  1
Imperial24
102
FLAGS
 90
        0
  0
XRECORD
  5
1C
102
{ACAD_REACTORS
330
1A
102
}
330
1A
100
AcDbXrecord
280
     1
270
     1
271
     1
  0
XRECORD
  5
1B
102
{ACAD_REACTORS
330
1A
102
}
330
1A
100
AcDbXrecord
280
     1
270
     1
271
     1
  0
XRECORD
  5
1F
102
{ACAD_REACTORS
330
1A
102
}
330
1A
100
AcDbXrecord
280
     1
270
     1
271
     1
  0
XRECORD
  5
1E
102
{ACAD_REACTORS
330
1A
102
}
330
1A
100
AcDbXrecord
280
     1
270
     1
271
     1
  0
XRECORD
  5
20
102
{ACAD_REACTORS
330
1A
102
}
330
1A
100
AcDbXrecord
280
     1
270
     1
271
     1
  0
XRECORD
  5
1D
102
{ACAD_REACTORS
330
1A
102
}
330
1A
100
AcDbXrecord
280
     1
270
     1
271
     1
  0
XRECORD
  5
14
102
{ACAD_REACTORS
330
12
102
}
330
12
100
AcDbXrecord
280
     1
270
     1
271
     1
  0
XRECORD
  5
13
102
{ACAD_REACTORS
330
12
102
}
330
12
100
AcDbXrecord
280
     1
270
     1
271
     1
  0
XRECORD
  5
17
102
{ACAD_REACTORS
330
12
102
}
330
12
100
AcDbXrecord
280
     1
270
     1
271
     1
  0
XRECORD
  5
16
102
{ACAD_REACTORS
330
12
102
}
330
12
100
AcDbXrecord
280
     1
270
     1
271
     1
  0
XRECORD
  5
18
102
{ACAD_REACTORS
330
12
102
}
330
12
100
AcDbXrecord
280
     1
270
     1
271
     1
  0
XRECORD
  5
15
102
{ACAD_REACTORS
330
12
102
}
330
12
100
AcDbXrecord
280
     1
270
     1
271
     1
  0
XRECORD
  5
24
102
{ACAD_REACTORS
330
22
102
}
330
22
100
AcDbXrecord
280
     1
270
     1
271
     1
  0
XRECORD
  5
23
102
{ACAD_REACTORS
330
22
102
}
330
22
100
AcDbXrecord
280
     1
270
     1
271
     1
  0
XRECORD
  5
27
102
{ACAD_REACTORS
330
22
102
}
330
22
100
AcDbXrecord
280
     1
270
     1
271
     1
  0
XRECORD
  5
26
102
{ACAD_REACTORS
330
22
102
}
330
22
100
AcDbXrecord
280
     1
270
     1
271
     1
  0
XRECORD
  5
28
102
{ACAD_REACTORS
330
22
102
}
330
22
100
AcDbXrecord
280
     1
270
     1
271
     1
  0
XRECORD
  5
25
102
{ACAD_REACTORS
330
22
102
}
330
22
100
AcDbXrecord
280
     1
270
     1
271
     1
  0
XRECORD
  5
14F
102
{ACAD_REACTORS
330
14E
102
}
330
14E
100
AcDbXrecord
280
     1
102
ACAD_ROUNDTRIP_2012_MLEADER_STYLE
298
     1
  0
XRECORD
  5
151
102
{ACAD_REACTORS
330
150
102
}
330
150
100
AcDbXrecord
280
     1
102
DISPLAYNAME
  1
Imperial24
102
FLAGS
 90
        0
  0
CELLSTYLEMAP
  5
11B
102
{ACAD_REACTORS
330
11A
102
}
330
11A
100
AcDbCellStyleMap
 90
        3
300
CELLSTYLE
  1
TABLEFORMAT_BEGIN
 90
        5
170
     1
 91
        0
 92
    32768
 62
   257
 93
        1
300
CONTENTFORMAT
  1
CONTENTFORMAT_BEGIN
 90
        0
 91
        0
 92
      512
 93
        0
300

 40
0.0
140
1.0
 94
        5
 62
     0
340
55
144
0.25
309
CONTENTFORMAT_END
171
     0
 94
        0
309
TABLEFORMAT_END
  1
CELLSTYLE_BEGIN
 90
        1
 91
        1
300
_TITLE
309
CELLSTYLE_END
300
CELLSTYLE
  1
TABLEFORMAT_BEGIN
 90
        5
170
     1
 91
        0
 92
        0
 62
   257
 93
        1
300
CONTENTFORMAT
  1
CONTENTFORMAT_BEGIN
 90
        0
 91
        0
 92
      512
 93
        0
300

 40
0.0
140
1.0
 94
        5
 62
     0
340
55
144
0.18
309
CONTENTFORMAT_END
171
     0
 94
        0
309
TABLEFORMAT_END
  1
CELLSTYLE_BEGIN
 90
        2
 91
        1
300
_HEADER
309
CELLSTYLE_END
300
CELLSTYLE
  1
TABLEFORMAT_BEGIN
 90
        5
170
     1
 91
        0
 92
        0
 62
   257
 93
        1
300
CONTENTFORMAT
  1
CONTENTFORMAT_BEGIN
 90
        0
 91
        0
 92
      512
 93
        0
300

 40
0.0
140
1.0
 94
        2
 62
     0
340
55
144
0.18
309
CONTENTFORMAT_END
171
     0
 94
        0
309
TABLEFORMAT_END
  1
CELLSTYLE_BEGIN
 90
        3
 91
        2
300
_DATA
309
CELLSTYLE_END
  0
XRECORD
  5
129
102
{ACAD_REACTORS
330
128
102
}
330
128
100
AcDbXrecord
280
     1
102
RTVSPost2010Prop28
280
     1
102
RTVSPost2010PropOp28
 70
     1
102
RTVSPost2010Prop29
280
     1
102
RTVSPost2010PropOp29
 70
     1
102
RTVSPost2010Prop30
280
     0
102
RTVSPost2010PropOp30
 70
     1
102
RTVSPost2010Prop31
280
     0
102
RTVSPost2010PropOp31
 70
     1
102
RTVSPost2010Prop32
280
     0
102
RTVSPost2010PropOp32
 70
     1
102
RTVSPost2010Prop33
280
     0
102
RTVSPost2010PropOp33
 70
     1
102
RTVSPost2010Prop34
280
     0
102
RTVSPost2010PropOp34
 70
     1
102
RTVSPost2010Prop35
280
     0
102
RTVSPost2010PropOp35
 70
     1
102
RTVSPost2010Prop36
280
     0
102
RTVSPost2010PropOp36
 70
     1
102
RTVSPost2010Prop37
 90
       50
102
RTVSPost2010PropOp37
 70
     1
102
RTVSPost2010Prop38
140
0.0
102
RTVSPost2010PropOp38
 70
     1
102
RTVSPost2010Prop39
140
1.0
102
RTVSPost2010PropOp39
 70
     1
102
RTVSPost2010Prop40
 90
        0
102
RTVSPost2010PropOp40
 70
     1
102
RTVSPost2010Prop41ColorIndex
 90
       18
102
RTVSPost2010Prop41ColorRGB
 90
        0
102
RTVSPost2010PropOp41
 70
     1
102
RTVSPost2010Prop42
 90
       50
102
RTVSPost2010PropOp42
 70
     1
102
RTVSPost2010Prop43
 90
        3
102
RTVSPost2010PropOp43
 70
     1
102
RTVSPost2010Prop44ColorIndex
 90
        5
102
RTVSPost2010Prop44ColorRGB
 90
      255
102
RTVSPost2010PropOp44
 70
     1
102
RTVSPost2010Prop45
280
     0
102
RTVSPost2010PropOp45
 70
     1
102
RTVSPost2010Prop46
 90
       50
102
RTVSPost2010PropOp46
 70
     1
102
RTVSPost2010Prop47
 90
       50
102
RTVSPost2010PropOp47
 70
     1
102
RTVSPost2010Prop48
 90
       50
102
RTVSPost2010PropOp48
 70
     1
102
RTVSPost2010Prop49
280
     0
102
RTVSPost2010PropOp49
 70
     1
102
RTVSPost2010Prop50
 90
       50
102
RTVSPost2010PropOp50
 70
     1
102
RTVSPost2010Prop51ColorIndex
 90
      256
102
RTVSPost2010Prop51ColorRGB
 90
-16777216
102
RTVSPost2010PropOp51
 70
     0
102
RTVSPost2010Prop52
140
1.0
102
RTVSPost2010PropOp52
 70
     0
102
RTVSPost2010Prop53
 90
        2
102
RTVSPost2010PropOp53
 70
     1
102
RTVSPost2010Prop54
  1
strokes_ogs.tif
102
RTVSPost2010PropOp54
 70
     1
102
RTVSPost2010Prop55
280
     0
102
RTVSPost2010PropOp55
 70
     1
102
RTVSPost2010Prop56
140
1.0
102
RTVSPost2010PropOp56
 70
     1
102
RTVSPost2010Prop57
140
1.0
102
RTVSPost2010PropOp57
 70
     1
  0
XRECORD
  5
127
102
{ACAD_REACTORS
330
126
102
}
330
126
100
AcDbXrecord
280
     1
102
RTVSPost2010Prop28
280
     0
102
RTVSPost2010PropOp28
 70
     1
102
RTVSPost2010Prop29
280
     1
102
RTVSPost2010PropOp29
 70
     1
102
RTVSPost2010Prop30
280
     1
102
RTVSPost2010PropOp30
 70
     1
102
RTVSPost2010Prop31
280
     0
102
RTVSPost2010PropOp31
 70
     1
102
RTVSPost2010Prop32
280
     0
102
RTVSPost2010PropOp32
 70
     1
102
RTVSPost2010Prop33
280
     0
102
RTVSPost2010PropOp33
 70
     1
102
RTVSPost2010Prop34
280
     0
102
RTVSPost2010PropOp34
 70
     1
102
RTVSPost2010Prop35
280
     0
102
RTVSPost2010PropOp35
 70
     1
102
RTVSPost2010Prop36
280
     0
102
RTVSPost2010PropOp36
 70
     1
102
RTVSPost2010Prop37
 90
       50
102
RTVSPost2010PropOp37
 70
     1
102
RTVSPost2010Prop38
140
0.0
102
RTVSPost2010PropOp38
 70
     1
102
RTVSPost2010Prop39
140
1.0
102
RTVSPost2010PropOp39
 70
     1
102
RTVSPost2010Prop40
 90
        0
102
RTVSPost2010PropOp40
 70
     1
102
RTVSPost2010Prop41ColorIndex
 90
       18
102
RTVSPost2010Prop41ColorRGB
 90
        0
102
RTVSPost2010PropOp41
 70
     1
102
RTVSPost2010Prop42
 90
       50
102
RTVSPost2010PropOp42
 70
     1
102
RTVSPost2010Prop43
 90
        3
102
RTVSPost2010PropOp43
 70
     1
102
RTVSPost2010Prop44ColorIndex
 90
        5
102
RTVSPost2010Prop44ColorRGB
 90
      255
102
RTVSPost2010PropOp44
 70
     1
102
RTVSPost2010Prop45
280
     0
102
RTVSPost2010PropOp45
 70
     1
102
RTVSPost2010Prop46
 90
       50
102
RTVSPost2010PropOp46
 70
     1
102
RTVSPost2010Prop47
 90
       50
102
RTVSPost2010PropOp47
 70
     1
102
RTVSPost2010Prop48
 90
       50
102
RTVSPost2010PropOp48
 70
     1
102
RTVSPost2010Prop49
280
     0
102
RTVSPost2010PropOp49
 70
     1
102
RTVSPost2010Prop50
 90
       50
102
RTVSPost2010PropOp50
 70
     1
102
RTVSPost2010Prop51ColorIndex
 90
      256
102
RTVSPost2010Prop51ColorRGB
 90
-16777216
102
RTVSPost2010PropOp51
 70
     0
102
RTVSPost2010Prop52
140
1.0
102
RTVSPost2010PropOp52
 70
     0
102
RTVSPost2010Prop53
 90
        2
102
RTVSPost2010PropOp53
 70
     1
102
RTVSPost2010Prop54
  1
strokes_ogs.tif
102
RTVSPost2010PropOp54
 70
     1
102
RTVSPost2010Prop55
280
     0
102
RTVSPost2010PropOp55
 70
     1
102
RTVSPost2010Prop56
140
1.0
102
RTVSPost2010PropOp56
 70
     1
102
RTVSPost2010Prop57
140
1.0
102
RTVSPost2010PropOp57
 70
     1
  0
XRECORD
  5
135
102
{ACAD_REACTORS
330
134
102
}
330
134
100
AcDbXrecord
280
     1
102
RTVSPost2010Prop28
280
     0
102
RTVSPost2010PropOp28
 70
     1
102
RTVSPost2010Prop29
280
     1
102
RTVSPost2010PropOp29
 70
     1
102
RTVSPost2010Prop30
280
     1
102
RTVSPost2010PropOp30
 70
     1
102
RTVSPost2010Prop31
280
     0
102
RTVSPost2010PropOp31
 70
     1
102
RTVSPost2010Prop32
280
     0
102
RTVSPost2010PropOp32
 70
     1
102
RTVSPost2010Prop33
280
     0
102
RTVSPost2010PropOp33
 70
     1
102
RTVSPost2010Prop34
280
     0
102
RTVSPost2010PropOp34
 70
     1
102
RTVSPost2010Prop35
280
     0
102
RTVSPost2010PropOp35
 70
     1
102
RTVSPost2010Prop36
280
     0
102
RTVSPost2010PropOp36
 70
     1
102
RTVSPost2010Prop37
 90
       50
102
RTVSPost2010PropOp37
 70
     1
102
RTVSPost2010Prop38
140
0.0
102
RTVSPost2010PropOp38
 70
     1
102
RTVSPost2010Prop39
140
1.0
102
RTVSPost2010PropOp39
 70
     1
102
RTVSPost2010Prop40
 90
        0
102
RTVSPost2010PropOp40
 70
     1
102
RTVSPost2010Prop41ColorIndex
 90
       18
102
RTVSPost2010Prop41ColorRGB
 90
        0
102
RTVSPost2010PropOp41
 70
     1
102
RTVSPost2010Prop42
 90
       50
102
RTVSPost2010PropOp42
 70
     1
102
RTVSPost2010Prop43
 90
        3
102
RTVSPost2010PropOp43
 70
     1
102
RTVSPost2010Prop44ColorIndex
 90
        5
102
RTVSPost2010Prop44ColorRGB
 90
      255
102
RTVSPost2010PropOp44
 70
     1
102
RTVSPost2010Prop45
280
     0
102
RTVSPost2010PropOp45
 70
     1
102
RTVSPost2010Prop46
 90
       50
102
RTVSPost2010PropOp46
 70
     1
102
RTVSPost2010Prop47
 90
       50
102
RTVSPost2010PropOp47
 70
     1
102
RTVSPost2010Prop48
 90
       50
102
RTVSPost2010PropOp48
 70
     1
102
RTVSPost2010Prop49
280
     0
102
RTVSPost2010PropOp49
 70
     1
102
RTVSPost2010Prop50
 90
       50
102
RTVSPost2010PropOp50
 70
     1
102
RTVSPost2010Prop51ColorIndex
 90
      256
102
RTVSPost2010Prop51ColorRGB
 90
-16777216
102
RTVSPost2010PropOp51
 70
     0
102
RTVSPost2010Prop52
140
1.0
102
RTVSPost2010PropOp52
 70
     0
102
RTVSPost2010Prop53
 90
        2
102
RTVSPost2010PropOp53
 70
     1
102
RTVSPost2010Prop54
  1
strokes_ogs.tif
102
RTVSPost2010PropOp54
 70
     1
102
RTVSPost2010Prop55
280
     0
102
RTVSPost2010PropOp55
 70
     1
102
RTVSPost2010Prop56
140
1.0
102
RTVSPost2010PropOp56
 70
     1
102
RTVSPost2010Prop57
140
1.0
102
RTVSPost2010PropOp57
 70
     1
  0
XRECORD
  5
13D
102
{ACAD_REACTORS
330
13C
102
}
330
13C
100
AcDbXrecord
280
     1
102
RTVSPost2010Prop28
280
     0
102
RTVSPost2010PropOp28
 70
     1
102
RTVSPost2010Prop29
280
     1
102
RTVSPost2010PropOp29
 70
     1
102
RTVSPost2010Prop30
280
     1
102
RTVSPost2010PropOp30
 70
     1
102
RTVSPost2010Prop31
280
     0
102
RTVSPost2010PropOp31
 70
     1
102
RTVSPost2010Prop32
280
     0
102
RTVSPost2010PropOp32
 70
     1
102
RTVSPost2010Prop33
280
     0
102
RTVSPost2010PropOp33
 70
     1
102
RTVSPost2010Prop34
280
     0
102
RTVSPost2010PropOp34
 70
     1
102
RTVSPost2010Prop35
280
     0
102
RTVSPost2010PropOp35
 70
     1
102
RTVSPost2010Prop36
280
     0
102
RTVSPost2010PropOp36
 70
     1
102
RTVSPost2010Prop37
 90
       50
102
RTVSPost2010PropOp37
 70
     1
102
RTVSPost2010Prop38
140
0.0
102
RTVSPost2010PropOp38
 70
     1
102
RTVSPost2010Prop39
140
1.0
102
RTVSPost2010PropOp39
 70
     1
102
RTVSPost2010Prop40
 90
        0
102
RTVSPost2010PropOp40
 70
     1
102
RTVSPost2010Prop41ColorIndex
 90
       18
102
RTVSPost2010Prop41ColorRGB
 90
        0
102
RTVSPost2010PropOp41
 70
     1
102
RTVSPost2010Prop42
 90
       50
102
RTVSPost2010PropOp42
 70
     1
102
RTVSPost2010Prop43
 90
        3
102
RTVSPost2010PropOp43
 70
     1
102
RTVSPost2010Prop44ColorIndex
 90
        5
102
RTVSPost2010Prop44ColorRGB
 90
      255
102
RTVSPost2010PropOp44
 70
     1
102
RTVSPost2010Prop45
280
     0
102
RTVSPost2010PropOp45
 70
     1
102
RTVSPost2010Prop46
 90
       50
102
RTVSPost2010PropOp46
 70
     1
102
RTVSPost2010Prop47
 90
       50
102
RTVSPost2010PropOp47
 70
     1
102
RTVSPost2010Prop48
 90
       50
102
RTVSPost2010PropOp48
 70
     1
102
RTVSPost2010Prop49
280
     0
102
RTVSPost2010PropOp49
 70
     1
102
RTVSPost2010Prop50
 90
       50
102
RTVSPost2010PropOp50
 70
     1
102
RTVSPost2010Prop51ColorIndex
 90
      256
102
RTVSPost2010Prop51ColorRGB
 90
-16777216
102
RTVSPost2010PropOp51
 70
     0
102
RTVSPost2010Prop52
140
1.0
102
RTVSPost2010PropOp52
 70
     0
102
RTVSPost2010Prop53
 90
        2
102
RTVSPost2010PropOp53
 70
     1
102
RTVSPost2010Prop54
  1
strokes_ogs.tif
102
RTVSPost2010PropOp54
 70
     1
102
RTVSPost2010Prop55
280
     0
102
RTVSPost2010PropOp55
 70
     1
102
RTVSPost2010Prop56
140
1.0
102
RTVSPost2010PropOp56
 70
     1
102
RTVSPost2010Prop57
140
1.0
102
RTVSPost2010PropOp57
 70
     1
  0
XRECORD
  5
12F
102
{ACAD_REACTORS
330
12E
102
}
330
12E
100
AcDbXrecord
280
     1
102
RTVSPost2010Prop28
280
     0
102
RTVSPost2010PropOp28
 70
     1
102
RTVSPost2010Prop29
280
     1
102
RTVSPost2010PropOp29
 70
     1
102
RTVSPost2010Prop30
280
     1
102
RTVSPost2010PropOp30
 70
     1
102
RTVSPost2010Prop31
280
     0
102
RTVSPost2010PropOp31
 70
     1
102
RTVSPost2010Prop32
280
     0
102
RTVSPost2010PropOp32
 70
     1
102
RTVSPost2010Prop33
280
     0
102
RTVSPost2010PropOp33
 70
     1
102
RTVSPost2010Prop34
280
     0
102
RTVSPost2010PropOp34
 70
     1
102
RTVSPost2010Prop35
280
     0
102
RTVSPost2010PropOp35
 70
     1
102
RTVSPost2010Prop36
280
     0
102
RTVSPost2010PropOp36
 70
     1
102
RTVSPost2010Prop37
 90
       50
102
RTVSPost2010PropOp37
 70
     1
102
RTVSPost2010Prop38
140
0.0
102
RTVSPost2010PropOp38
 70
     1
102
RTVSPost2010Prop39
140
1.0
102
RTVSPost2010PropOp39
 70
     1
102
RTVSPost2010Prop40
 90
        0
102
RTVSPost2010PropOp40
 70
     1
102
RTVSPost2010Prop41ColorIndex
 90
       18
102
RTVSPost2010Prop41ColorRGB
 90
        0
102
RTVSPost2010PropOp41
 70
     1
102
RTVSPost2010Prop42
 90
       50
102
RTVSPost2010PropOp42
 70
     1
102
RTVSPost2010Prop43
 90
        3
102
RTVSPost2010PropOp43
 70
     1
102
RTVSPost2010Prop44ColorIndex
 90
        5
102
RTVSPost2010Prop44ColorRGB
 90
      255
102
RTVSPost2010PropOp44
 70
     1
102
RTVSPost2010Prop45
280
     0
102
RTVSPost2010PropOp45
 70
     1
102
RTVSPost2010Prop46
 90
       50
102
RTVSPost2010PropOp46
 70
     1
102
RTVSPost2010Prop47
 90
       50
102
RTVSPost2010PropOp47
 70
     1
102
RTVSPost2010Prop48
 90
       50
102
RTVSPost2010PropOp48
 70
     1
102
RTVSPost2010Prop49
280
     0
102
RTVSPost2010PropOp49
 70
     1
102
RTVSPost2010Prop50
 90
       50
102
RTVSPost2010PropOp50
 70
     1
102
RTVSPost2010Prop51ColorIndex
 90
      256
102
RTVSPost2010Prop51ColorRGB
 90
-16777216
102
RTVSPost2010PropOp51
 70
     0
102
RTVSPost2010Prop52
140
1.0
102
RTVSPost2010PropOp52
 70
     0
102
RTVSPost2010Prop53
 90
        2
102
RTVSPost2010PropOp53
 70
     1
102
RTVSPost2010Prop54
  1
strokes_ogs.tif
102
RTVSPost2010PropOp54
 70
     1
102
RTVSPost2010Prop55
280
     0
102
RTVSPost2010PropOp55
 70
     1
102
RTVSPost2010Prop56
140
1.0
102
RTVSPost2010PropOp56
 70
     1
102
RTVSPost2010Prop57
140
1.0
102
RTVSPost2010PropOp57
 70
     1
  0
XRECORD
  5
133
102
{ACAD_REACTORS
330
132
102
}
330
132
100
AcDbXrecord
280
     1
102
RTVSPost2010Prop28
280
     0
102
RTVSPost2010PropOp28
 70
     1
102
RTVSPost2010Prop29
280
     1
102
RTVSPost2010PropOp29
 70
     1
102
RTVSPost2010Prop30
280
     1
102
RTVSPost2010PropOp30
 70
     1
102
RTVSPost2010Prop31
280
     0
102
RTVSPost2010PropOp31
 70
     1
102
RTVSPost2010Prop32
280
     0
102
RTVSPost2010PropOp32
 70
     1
102
RTVSPost2010Prop33
280
     0
102
RTVSPost2010PropOp33
 70
     1
102
RTVSPost2010Prop34
280
     0
102
RTVSPost2010PropOp34
 70
     1
102
RTVSPost2010Prop35
280
     0
102
RTVSPost2010PropOp35
 70
     1
102
RTVSPost2010Prop36
280
     0
102
RTVSPost2010PropOp36
 70
     1
102
RTVSPost2010Prop37
 90
       50
102
RTVSPost2010PropOp37
 70
     1
102
RTVSPost2010Prop38
140
0.0
102
RTVSPost2010PropOp38
 70
     1
102
RTVSPost2010Prop39
140
1.0
102
RTVSPost2010PropOp39
 70
     1
102
RTVSPost2010Prop40
 90
        0
102
RTVSPost2010PropOp40
 70
     1
102
RTVSPost2010Prop41ColorIndex
 90
       18
102
RTVSPost2010Prop41ColorRGB
 90
        0
102
RTVSPost2010PropOp41
 70
     1
102
RTVSPost2010Prop42
 90
       50
102
RTVSPost2010PropOp42
 70
     1
102
RTVSPost2010Prop43
 90
        3
102
RTVSPost2010PropOp43
 70
     1
102
RTVSPost2010Prop44ColorIndex
 90
        5
102
RTVSPost2010Prop44ColorRGB
 90
      255
102
RTVSPost2010PropOp44
 70
     1
102
RTVSPost2010Prop45
280
     0
102
RTVSPost2010PropOp45
 70
     1
102
RTVSPost2010Prop46
 90
       50
102
RTVSPost2010PropOp46
 70
     1
102
RTVSPost2010Prop47
 90
       50
102
RTVSPost2010PropOp47
 70
     1
102
RTVSPost2010Prop48
 90
       50
102
RTVSPost2010PropOp48
 70
     1
102
RTVSPost2010Prop49
280
     0
102
RTVSPost2010PropOp49
 70
     1
102
RTVSPost2010Prop50
 90
       50
102
RTVSPost2010PropOp50
 70
     1
102
RTVSPost2010Prop51ColorIndex
 90
      256
102
RTVSPost2010Prop51ColorRGB
 90
-16777216
102
RTVSPost2010PropOp51
 70
     0
102
RTVSPost2010Prop52
140
1.0
102
RTVSPost2010PropOp52
 70
     0
102
RTVSPost2010Prop53
 90
        2
102
RTVSPost2010PropOp53
 70
     1
102
RTVSPost2010Prop54
  1
strokes_ogs.tif
102
RTVSPost2010PropOp54
 70
     1
102
RTVSPost2010Prop55
280
     0
102
RTVSPost2010PropOp55
 70
     1
102
RTVSPost2010Prop56
140
1.0
102
RTVSPost2010PropOp56
 70
     1
102
RTVSPost2010Prop57
140
1.0
102
RTVSPost2010PropOp57
 70
     1
  0
XRECORD
  5
14D
102
{ACAD_REACTORS
330
14C
102
}
330
14C
100
AcDbXrecord
280
     1
102
RTVSPost2010Prop28
280
     0
102
RTVSPost2010PropOp28
 70
     0
102
RTVSPost2010Prop29
280
     1
102
RTVSPost2010PropOp29
 70
     0
102
RTVSPost2010Prop30
280
     1
102
RTVSPost2010PropOp30
 70
     0
102
RTVSPost2010Prop31
280
     0
102
RTVSPost2010PropOp31
 70
     0
102
RTVSPost2010Prop32
280
     0
102
RTVSPost2010PropOp32
 70
     0
102
RTVSPost2010Prop33
280
     0
102
RTVSPost2010PropOp33
 70
     0
102
RTVSPost2010Prop34
280
     0
102
RTVSPost2010PropOp34
 70
     0
102
RTVSPost2010Prop35
280
     0
102
RTVSPost2010PropOp35
 70
     0
102
RTVSPost2010Prop36
280
     0
102
RTVSPost2010PropOp36
 70
     0
102
RTVSPost2010Prop37
 90
       50
102
RTVSPost2010PropOp37
 70
     0
102
RTVSPost2010Prop38
140
0.0
102
RTVSPost2010PropOp38
 70
     0
102
RTVSPost2010Prop39
140
1.0
102
RTVSPost2010PropOp39
 70
     0
102
RTVSPost2010Prop40
 90
        0
102
RTVSPost2010PropOp40
 70
     0
102
RTVSPost2010Prop41ColorIndex
 90
       18
102
RTVSPost2010Prop41ColorRGB
 90
        0
102
RTVSPost2010PropOp41
 70
     0
102
RTVSPost2010Prop42
 90
       50
102
RTVSPost2010PropOp42
 70
     0
102
RTVSPost2010Prop43
 90
        3
102
RTVSPost2010PropOp43
 70
     0
102
RTVSPost2010Prop44ColorIndex
 90
        5
102
RTVSPost2010Prop44ColorRGB
 90
      255
102
RTVSPost2010PropOp44
 70
     0
102
RTVSPost2010Prop45
280
     0
102
RTVSPost2010PropOp45
 70
     0
102
RTVSPost2010Prop46
 90
       50
102
RTVSPost2010PropOp46
 70
     0
102
RTVSPost2010Prop47
 90
       50
102
RTVSPost2010PropOp47
 70
     0
102
RTVSPost2010Prop48
 90
       50
102
RTVSPost2010PropOp48
 70
     0
102
RTVSPost2010Prop49
280
     0
102
RTVSPost2010PropOp49
 70
     0
102
RTVSPost2010Prop50
 90
       50
102
RTVSPost2010PropOp50
 70
     0
102
RTVSPost2010Prop51ColorIndex
 90
      256
102
RTVSPost2010Prop51ColorRGB
 90
-16777216
102
RTVSPost2010PropOp51
 70
     0
102
RTVSPost2010Prop52
140
1.0
102
RTVSPost2010PropOp52
 70
     0
102
RTVSPost2010Prop53
 90
        2
102
RTVSPost2010PropOp53
 70
     0
102
RTVSPost2010Prop54
  1
strokes_ogs.tif
102
RTVSPost2010PropOp54
 70
     0
102
RTVSPost2010Prop55
280
     0
102
RTVSPost2010PropOp55
 70
     0
102
RTVSPost2010Prop56
140
1.0
102
RTVSPost2010PropOp56
 70
     0
102
RTVSPost2010Prop57
140
1.0
102
RTVSPost2010PropOp57
 70
     0
  0
XRECORD
  5
13B
102
{ACAD_REACTORS
330
13A
102
}
330
13A
100
AcDbXrecord
280
     1
102
RTVSPost2010Prop28
280
     0
102
RTVSPost2010PropOp28
 70
     1
102
RTVSPost2010Prop29
280
     1
102
RTVSPost2010PropOp29
 70
     1
102
RTVSPost2010Prop30
280
     1
102
RTVSPost2010PropOp30
 70
     1
102
RTVSPost2010Prop31
280
     0
102
RTVSPost2010PropOp31
 70
     1
102
RTVSPost2010Prop32
280
     0
102
RTVSPost2010PropOp32
 70
     1
102
RTVSPost2010Prop33
280
     0
102
RTVSPost2010PropOp33
 70
     1
102
RTVSPost2010Prop34
280
     0
102
RTVSPost2010PropOp34
 70
     1
102
RTVSPost2010Prop35
280
     0
102
RTVSPost2010PropOp35
 70
     1
102
RTVSPost2010Prop36
280
     0
102
RTVSPost2010PropOp36
 70
     1
102
RTVSPost2010Prop37
 90
       50
102
RTVSPost2010PropOp37
 70
     1
102
RTVSPost2010Prop38
140
0.0
102
RTVSPost2010PropOp38
 70
     1
102
RTVSPost2010Prop39
140
1.0
102
RTVSPost2010PropOp39
 70
     1
102
RTVSPost2010Prop40
 90
        0
102
RTVSPost2010PropOp40
 70
     1
102
RTVSPost2010Prop41ColorIndex
 90
       18
102
RTVSPost2010Prop41ColorRGB
 90
        0
102
RTVSPost2010PropOp41
 70
     1
102
RTVSPost2010Prop42
 90
       50
102
RTVSPost2010PropOp42
 70
     1
102
RTVSPost2010Prop43
 90
        3
102
RTVSPost2010PropOp43
 70
     1
102
RTVSPost2010Prop44ColorIndex
 90
        5
102
RTVSPost2010Prop44ColorRGB
 90
      255
102
RTVSPost2010PropOp44
 70
     1
102
RTVSPost2010Prop45
280
     0
102
RTVSPost2010PropOp45
 70
     1
102
RTVSPost2010Prop46
 90
       50
102
RTVSPost2010PropOp46
 70
     1
102
RTVSPost2010Prop47
 90
       50
102
RTVSPost2010PropOp47
 70
     1
102
RTVSPost2010Prop48
 90
       50
102
RTVSPost2010PropOp48
 70
     1
102
RTVSPost2010Prop49
280
     0
102
RTVSPost2010PropOp49
 70
     1
102
RTVSPost2010Prop50
 90
       50
102
RTVSPost2010PropOp50
 70
     1
102
RTVSPost2010Prop51ColorIndex
 90
      256
102
RTVSPost2010Prop51ColorRGB
 90
-16777216
102
RTVSPost2010PropOp51
 70
     0
102
RTVSPost2010Prop52
140
1.0
102
RTVSPost2010PropOp52
 70
     0
102
RTVSPost2010Prop53
 90
        2
102
RTVSPost2010PropOp53
 70
     1
102
RTVSPost2010Prop54
  1
strokes_ogs.tif
102
RTVSPost2010PropOp54
 70
     1
102
RTVSPost2010Prop55
280
     0
102
RTVSPost2010PropOp55
 70
     1
102
RTVSPost2010Prop56
140
1.0
102
RTVSPost2010PropOp56
 70
     1
102
RTVSPost2010Prop57
140
1.0
102
RTVSPost2010PropOp57
 70
     1
  0
XRECORD
  5
11F
102
{ACAD_REACTORS
330
11E
102
}
330
11E
100
AcDbXrecord
280
     1
102
RTVSPost2010Prop28
280
     0
102
RTVSPost2010PropOp28
 70
     1
102
RTVSPost2010Prop29
280
     1
102
RTVSPost2010PropOp29
 70
     1
102
RTVSPost2010Prop30
280
     1
102
RTVSPost2010PropOp30
 70
     1
102
RTVSPost2010Prop31
280
     0
102
RTVSPost2010PropOp31
 70
     1
102
RTVSPost2010Prop32
280
     0
102
RTVSPost2010PropOp32
 70
     1
102
RTVSPost2010Prop33
280
     0
102
RTVSPost2010PropOp33
 70
     1
102
RTVSPost2010Prop34
280
     0
102
RTVSPost2010PropOp34
 70
     1
102
RTVSPost2010Prop35
280
     0
102
RTVSPost2010PropOp35
 70
     1
102
RTVSPost2010Prop36
280
     0
102
RTVSPost2010PropOp36
 70
     1
102
RTVSPost2010Prop37
 90
       50
102
RTVSPost2010PropOp37
 70
     1
102
RTVSPost2010Prop38
140
0.0
102
RTVSPost2010PropOp38
 70
     1
102
RTVSPost2010Prop39
140
1.0
102
RTVSPost2010PropOp39
 70
     1
102
RTVSPost2010Prop40
 90
        0
102
RTVSPost2010PropOp40
 70
     1
102
RTVSPost2010Prop41ColorIndex
 90
       18
102
RTVSPost2010Prop41ColorRGB
 90
        0
102
RTVSPost2010PropOp41
 70
     1
102
RTVSPost2010Prop42
 90
       50
102
RTVSPost2010PropOp42
 70
     1
102
RTVSPost2010Prop43
 90
        3
102
RTVSPost2010PropOp43
 70
     1
102
RTVSPost2010Prop44ColorIndex
 90
        5
102
RTVSPost2010Prop44ColorRGB
 90
      255
102
RTVSPost2010PropOp44
 70
     1
102
RTVSPost2010Prop45
280
     0
102
RTVSPost2010PropOp45
 70
     1
102
RTVSPost2010Prop46
 90
       50
102
RTVSPost2010PropOp46
 70
     1
102
RTVSPost2010Prop47
 90
       50
102
RTVSPost2010PropOp47
 70
     1
102
RTVSPost2010Prop48
 90
       50
102
RTVSPost2010PropOp48
 70
     1
102
RTVSPost2010Prop49
280
     0
102
RTVSPost2010PropOp49
 70
     1
102
RTVSPost2010Prop50
 90
       50
102
RTVSPost2010PropOp50
 70
     1
102
RTVSPost2010Prop51ColorIndex
 90
      256
102
RTVSPost2010Prop51ColorRGB
 90
-16777216
102
RTVSPost2010PropOp51
 70
     0
102
RTVSPost2010Prop52
140
1.0
102
RTVSPost2010PropOp52
 70
     0
102
RTVSPost2010Prop53
 90
        2
102
RTVSPost2010PropOp53
 70
     1
102
RTVSPost2010Prop54
  1
strokes_ogs.tif
102
RTVSPost2010PropOp54
 70
     1
102
RTVSPost2010Prop55
280
     0
102
RTVSPost2010PropOp55
 70
     1
102
RTVSPost2010Prop56
140
1.0
102
RTVSPost2010PropOp56
 70
     1
102
RTVSPost2010Prop57
140
1.0
102
RTVSPost2010PropOp57
 70
     1
  0
XRECORD
  5
121
102
{ACAD_REACTORS
330
120
102
}
330
120
100
AcDbXrecord
280
     1
102
RTVSPost2010Prop28
280
     0
102
RTVSPost2010PropOp28
 70
     1
102
RTVSPost2010Prop29
280
     1
102
RTVSPost2010PropOp29
 70
     1
102
RTVSPost2010Prop30
280
     1
102
RTVSPost2010PropOp30
 70
     1
102
RTVSPost2010Prop31
280
     0
102
RTVSPost2010PropOp31
 70
     1
102
RTVSPost2010Prop32
280
     0
102
RTVSPost2010PropOp32
 70
     1
102
RTVSPost2010Prop33
280
     0
102
RTVSPost2010PropOp33
 70
     1
102
RTVSPost2010Prop34
280
     0
102
RTVSPost2010PropOp34
 70
     1
102
RTVSPost2010Prop35
280
     0
102
RTVSPost2010PropOp35
 70
     1
102
RTVSPost2010Prop36
280
     0
102
RTVSPost2010PropOp36
 70
     1
102
RTVSPost2010Prop37
 90
       50
102
RTVSPost2010PropOp37
 70
     1
102
RTVSPost2010Prop38
140
0.0
102
RTVSPost2010PropOp38
 70
     1
102
RTVSPost2010Prop39
140
1.0
102
RTVSPost2010PropOp39
 70
     1
102
RTVSPost2010Prop40
 90
        0
102
RTVSPost2010PropOp40
 70
     1
102
RTVSPost2010Prop41ColorIndex
 90
       18
102
RTVSPost2010Prop41ColorRGB
 90
        0
102
RTVSPost2010PropOp41
 70
     1
102
RTVSPost2010Prop42
 90
       50
102
RTVSPost2010PropOp42
 70
     1
102
RTVSPost2010Prop43
 90
        3
102
RTVSPost2010PropOp43
 70
     1
102
RTVSPost2010Prop44ColorIndex
 90
        5
102
RTVSPost2010Prop44ColorRGB
 90
      255
102
RTVSPost2010PropOp44
 70
     1
102
RTVSPost2010Prop45
280
     0
102
RTVSPost2010PropOp45
 70
     1
102
RTVSPost2010Prop46
 90
       50
102
RTVSPost2010PropOp46
 70
     1
102
RTVSPost2010Prop47
 90
       50
102
RTVSPost2010PropOp47
 70
     1
102
RTVSPost2010Prop48
 90
       50
102
RTVSPost2010PropOp48
 70
     1
102
RTVSPost2010Prop49
280
     0
102
RTVSPost2010PropOp49
 70
     1
102
RTVSPost2010Prop50
 90
       50
102
RTVSPost2010PropOp50
 70
     1
102
RTVSPost2010Prop51ColorIndex
 90
      256
102
RTVSPost2010Prop51ColorRGB
 90
-16777216
102
RTVSPost2010PropOp51
 70
     0
102
RTVSPost2010Prop52
140
1.0
102
RTVSPost2010PropOp52
 70
     0
102
RTVSPost2010Prop53
 90
        2
102
RTVSPost2010PropOp53
 70
     1
102
RTVSPost2010Prop54
  1
strokes_ogs.tif
102
RTVSPost2010PropOp54
 70
     1
102
RTVSPost2010Prop55
280
     0
102
RTVSPost2010PropOp55
 70
     1
102
RTVSPost2010Prop56
140
1.0
102
RTVSPost2010PropOp56
 70
     1
102
RTVSPost2010Prop57
140
1.0
102
RTVSPost2010PropOp57
 70
     1
  0
XRECORD
  5
123
102
{ACAD_REACTORS
330
122
102
}
330
122
100
AcDbXrecord
280
     1
102
RTVSPost2010Prop28
280
     0
102
RTVSPost2010PropOp28
 70
     1
102
RTVSPost2010Prop29
280
     1
102
RTVSPost2010PropOp29
 70
     1
102
RTVSPost2010Prop30
280
     1
102
RTVSPost2010PropOp30
 70
     1
102
RTVSPost2010Prop31
280
     0
102
RTVSPost2010PropOp31
 70
     1
102
RTVSPost2010Prop32
280
     0
102
RTVSPost2010PropOp32
 70
     1
102
RTVSPost2010Prop33
280
     0
102
RTVSPost2010PropOp33
 70
     1
102
RTVSPost2010Prop34
280
     0
102
RTVSPost2010PropOp34
 70
     1
102
RTVSPost2010Prop35
280
     0
102
RTVSPost2010PropOp35
 70
     1
102
RTVSPost2010Prop36
280
     0
102
RTVSPost2010PropOp36
 70
     1
102
RTVSPost2010Prop37
 90
       50
102
RTVSPost2010PropOp37
 70
     1
102
RTVSPost2010Prop38
140
0.0
102
RTVSPost2010PropOp38
 70
     1
102
RTVSPost2010Prop39
140
1.0
102
RTVSPost2010PropOp39
 70
     1
102
RTVSPost2010Prop40
 90
        0
102
RTVSPost2010PropOp40
 70
     1
102
RTVSPost2010Prop41ColorIndex
 90
       18
102
RTVSPost2010Prop41ColorRGB
 90
        0
102
RTVSPost2010PropOp41
 70
     1
102
RTVSPost2010Prop42
 90
       50
102
RTVSPost2010PropOp42
 70
     1
102
RTVSPost2010Prop43
 90
        3
102
RTVSPost2010PropOp43
 70
     1
102
RTVSPost2010Prop44ColorIndex
 90
        5
102
RTVSPost2010Prop44ColorRGB
 90
      255
102
RTVSPost2010PropOp44
 70
     1
102
RTVSPost2010Prop45
280
     0
102
RTVSPost2010PropOp45
 70
     1
102
RTVSPost2010Prop46
 90
       50
102
RTVSPost2010PropOp46
 70
     1
102
RTVSPost2010Prop47
 90
       50
102
RTVSPost2010PropOp47
 70
     1
102
RTVSPost2010Prop48
 90
       50
102
RTVSPost2010PropOp48
 70
     1
102
RTVSPost2010Prop49
280
     0
102
RTVSPost2010PropOp49
 70
     1
102
RTVSPost2010Prop50
 90
       50
102
RTVSPost2010PropOp50
 70
     1
102
RTVSPost2010Prop51ColorIndex
 90
      256
102
RTVSPost2010Prop51ColorRGB
 90
-16777216
102
RTVSPost2010PropOp51
 70
     0
102
RTVSPost2010Prop52
140
1.0
102
RTVSPost2010PropOp52
 70
     0
102
RTVSPost2010Prop53
 90
        2
102
RTVSPost2010PropOp53
 70
     1
102
RTVSPost2010Prop54
  1
strokes_ogs.tif
102
RTVSPost2010PropOp54
 70
     1
102
RTVSPost2010Prop55
280
     0
102
RTVSPost2010PropOp55
 70
     1
102
RTVSPost2010Prop56
140
1.0
102
RTVSPost2010PropOp56
 70
     1
102
RTVSPost2010Prop57
140
1.0
102
RTVSPost2010PropOp57
 70
     1
  0
XRECORD
  5
125
102
{ACAD_REACTORS
330
124
102
}
330
124
100
AcDbXrecord
280
     1
102
RTVSPost2010Prop28
280
     0
102
RTVSPost2010PropOp28
 70
     1
102
RTVSPost2010Prop29
280
     1
102
RTVSPost2010PropOp29
 70
     1
102
RTVSPost2010Prop30
280
     1
102
RTVSPost2010PropOp30
 70
     1
102
RTVSPost2010Prop31
280
     0
102
RTVSPost2010PropOp31
 70
     1
102
RTVSPost2010Prop32
280
     0
102
RTVSPost2010PropOp32
 70
     1
102
RTVSPost2010Prop33
280
     0
102
RTVSPost2010PropOp33
 70
     1
102
RTVSPost2010Prop34
280
     0
102
RTVSPost2010PropOp34
 70
     1
102
RTVSPost2010Prop35
280
     0
102
RTVSPost2010PropOp35
 70
     1
102
RTVSPost2010Prop36
280
     0
102
RTVSPost2010PropOp36
 70
     1
102
RTVSPost2010Prop37
 90
       50
102
RTVSPost2010PropOp37
 70
     1
102
RTVSPost2010Prop38
140
0.0
102
RTVSPost2010PropOp38
 70
     1
102
RTVSPost2010Prop39
140
1.0
102
RTVSPost2010PropOp39
 70
     1
102
RTVSPost2010Prop40
 90
        0
102
RTVSPost2010PropOp40
 70
     1
102
RTVSPost2010Prop41ColorIndex
 90
       18
102
RTVSPost2010Prop41ColorRGB
 90
        0
102
RTVSPost2010PropOp41
 70
     1
102
RTVSPost2010Prop42
 90
       50
102
RTVSPost2010PropOp42
 70
     1
102
RTVSPost2010Prop43
 90
        3
102
RTVSPost2010PropOp43
 70
     1
102
RTVSPost2010Prop44ColorIndex
 90
        5
102
RTVSPost2010Prop44ColorRGB
 90
      255
102
RTVSPost2010PropOp44
 70
     1
102
RTVSPost2010Prop45
280
     0
102
RTVSPost2010PropOp45
 70
     1
102
RTVSPost2010Prop46
 90
       50
102
RTVSPost2010PropOp46
 70
     1
102
RTVSPost2010Prop47
 90
       50
102
RTVSPost2010PropOp47
 70
     1
102
RTVSPost2010Prop48
 90
       50
102
RTVSPost2010PropOp48
 70
     1
102
RTVSPost2010Prop49
280
     0
102
RTVSPost2010PropOp49
 70
     1
102
RTVSPost2010Prop50
 90
       50
102
RTVSPost2010PropOp50
 70
     1
102
RTVSPost2010Prop51ColorIndex
 90
      256
102
RTVSPost2010Prop51ColorRGB
 90
-16777216
102
RTVSPost2010PropOp51
 70
     0
102
RTVSPost2010Prop52
140
1.0
102
RTVSPost2010PropOp52
 70
     0
102
RTVSPost2010Prop53
 90
        2
102
RTVSPost2010PropOp53
 70
     1
102
RTVSPost2010Prop54
  1
strokes_ogs.tif
102
RTVSPost2010PropOp54
 70
     1
102
RTVSPost2010Prop55
280
     0
102
RTVSPost2010PropOp55
 70
     1
102
RTVSPost2010Prop56
140
1.0
102
RTVSPost2010PropOp56
 70
     1
102
RTVSPost2010Prop57
140
1.0
102
RTVSPost2010PropOp57
 70
     1
  0
XRECORD
  5
12D
102
{ACAD_REACTORS
330
12C
102
}
330
12C
100
AcDbXrecord
280
     1
102
RTVSPost2010Prop28
280
     0
102
RTVSPost2010PropOp28
 70
     1
102
RTVSPost2010Prop29
280
     1
102
RTVSPost2010PropOp29
 70
     1
102
RTVSPost2010Prop30
280
     1
102
RTVSPost2010PropOp30
 70
     1
102
RTVSPost2010Prop31
280
     0
102
RTVSPost2010PropOp31
 70
     1
102
RTVSPost2010Prop32
280
     0
102
RTVSPost2010PropOp32
 70
     1
102
RTVSPost2010Prop33
280
     0
102
RTVSPost2010PropOp33
 70
     1
102
RTVSPost2010Prop34
280
     0
102
RTVSPost2010PropOp34
 70
     1
102
RTVSPost2010Prop35
280
     0
102
RTVSPost2010PropOp35
 70
     1
102
RTVSPost2010Prop36
280
     0
102
RTVSPost2010PropOp36
 70
     1
102
RTVSPost2010Prop37
 90
       50
102
RTVSPost2010PropOp37
 70
     1
102
RTVSPost2010Prop38
140
0.0
102
RTVSPost2010PropOp38
 70
     1
102
RTVSPost2010Prop39
140
1.0
102
RTVSPost2010PropOp39
 70
     1
102
RTVSPost2010Prop40
 90
        0
102
RTVSPost2010PropOp40
 70
     1
102
RTVSPost2010Prop41ColorIndex
 90
       18
102
RTVSPost2010Prop41ColorRGB
 90
        0
102
RTVSPost2010PropOp41
 70
     1
102
RTVSPost2010Prop42
 90
       50
102
RTVSPost2010PropOp42
 70
     1
102
RTVSPost2010Prop43
 90
        3
102
RTVSPost2010PropOp43
 70
     1
102
RTVSPost2010Prop44ColorIndex
 90
        5
102
RTVSPost2010Prop44ColorRGB
 90
      255
102
RTVSPost2010PropOp44
 70
     1
102
RTVSPost2010Prop45
280
     0
102
RTVSPost2010PropOp45
 70
     1
102
RTVSPost2010Prop46
 90
       50
102
RTVSPost2010PropOp46
 70
     1
102
RTVSPost2010Prop47
 90
       50
102
RTVSPost2010PropOp47
 70
     1
102
RTVSPost2010Prop48
 90
       50
102
RTVSPost2010PropOp48
 70
     1
102
RTVSPost2010Prop49
280
     0
102
RTVSPost2010PropOp49
 70
     1
102
RTVSPost2010Prop50
 90
       50
102
RTVSPost2010PropOp50
 70
     1
102
RTVSPost2010Prop51ColorIndex
 90
      256
102
RTVSPost2010Prop51ColorRGB
 90
-16777216
102
RTVSPost2010PropOp51
 70
     0
102
RTVSPost2010Prop52
140
1.0
102
RTVSPost2010PropOp52
 70
     0
102
RTVSPost2010Prop53
 90
        2
102
RTVSPost2010PropOp53
 70
     1
102
RTVSPost2010Prop54
  1
strokes_ogs.tif
102
RTVSPost2010PropOp54
 70
     1
102
RTVSPost2010Prop55
280
     0
102
RTVSPost2010PropOp55
 70
     1
102
RTVSPost2010Prop56
140
1.0
102
RTVSPost2010PropOp56
 70
     1
102
RTVSPost2010Prop57
140
1.0
102
RTVSPost2010PropOp57
 70
     1
  0
XRECORD
  5
149
102
{ACAD_REACTORS
330
148
102
}
330
148
100
AcDbXrecord
280
     1
102
RTVSPost2010Prop28
280
     0
102
RTVSPost2010PropOp28
 70
     0
102
RTVSPost2010Prop29
280
     1
102
RTVSPost2010PropOp29
 70
     0
102
RTVSPost2010Prop30
280
     1
102
RTVSPost2010PropOp30
 70
     0
102
RTVSPost2010Prop31
280
     0
102
RTVSPost2010PropOp31
 70
     0
102
RTVSPost2010Prop32
280
     0
102
RTVSPost2010PropOp32
 70
     0
102
RTVSPost2010Prop33
280
     0
102
RTVSPost2010PropOp33
 70
     0
102
RTVSPost2010Prop34
280
     0
102
RTVSPost2010PropOp34
 70
     0
102
RTVSPost2010Prop35
280
     0
102
RTVSPost2010PropOp35
 70
     0
102
RTVSPost2010Prop36
280
     0
102
RTVSPost2010PropOp36
 70
     0
102
RTVSPost2010Prop37
 90
       50
102
RTVSPost2010PropOp37
 70
     0
102
RTVSPost2010Prop38
140
0.0
102
RTVSPost2010PropOp38
 70
     0
102
RTVSPost2010Prop39
140
1.0
102
RTVSPost2010PropOp39
 70
     0
102
RTVSPost2010Prop40
 90
        0
102
RTVSPost2010PropOp40
 70
     0
102
RTVSPost2010Prop41ColorIndex
 90
       18
102
RTVSPost2010Prop41ColorRGB
 90
        0
102
RTVSPost2010PropOp41
 70
     0
102
RTVSPost2010Prop42
 90
       50
102
RTVSPost2010PropOp42
 70
     0
102
RTVSPost2010Prop43
 90
        3
102
RTVSPost2010PropOp43
 70
     0
102
RTVSPost2010Prop44ColorIndex
 90
        5
102
RTVSPost2010Prop44ColorRGB
 90
      255
102
RTVSPost2010PropOp44
 70
     0
102
RTVSPost2010Prop45
280
     0
102
RTVSPost2010PropOp45
 70
     0
102
RTVSPost2010Prop46
 90
       50
102
RTVSPost2010PropOp46
 70
     0
102
RTVSPost2010Prop47
 90
       50
102
RTVSPost2010PropOp47
 70
     0
102
RTVSPost2010Prop48
 90
       50
102
RTVSPost2010PropOp48
 70
     0
102
RTVSPost2010Prop49
280
     0
102
RTVSPost2010PropOp49
 70
     0
102
RTVSPost2010Prop50
 90
       50
102
RTVSPost2010PropOp50
 70
     0
102
RTVSPost2010Prop51ColorIndex
 90
      256
102
RTVSPost2010Prop51ColorRGB
 90
-16777216
102
RTVSPost2010PropOp51
 70
     0
102
RTVSPost2010Prop52
140
1.0
102
RTVSPost2010PropOp52
 70
     0
102
RTVSPost2010Prop53
 90
        2
102
RTVSPost2010PropOp53
 70
     0
102
RTVSPost2010Prop54
  1
strokes_ogs.tif
102
RTVSPost2010PropOp54
 70
     0
102
RTVSPost2010Prop55
280
     0
102
RTVSPost2010PropOp55
 70
     0
102
RTVSPost2010Prop56
140
1.0
102
RTVSPost2010PropOp56
 70
     0
102
RTVSPost2010Prop57
140
1.0
102
RTVSPost2010PropOp57
 70
     0
  0
XRECORD
  5
139
102
{ACAD_REACTORS
330
138
102
}
330
138
100
AcDbXrecord
280
     1
102
RTVSPost2010Prop28
280
     0
102
RTVSPost2010PropOp28
 70
     1
102
RTVSPost2010Prop29
280
     1
102
RTVSPost2010PropOp29
 70
     1
102
RTVSPost2010Prop30
280
     1
102
RTVSPost2010PropOp30
 70
     1
102
RTVSPost2010Prop31
280
     0
102
RTVSPost2010PropOp31
 70
     1
102
RTVSPost2010Prop32
280
     0
102
RTVSPost2010PropOp32
 70
     1
102
RTVSPost2010Prop33
280
     0
102
RTVSPost2010PropOp33
 70
     1
102
RTVSPost2010Prop34
280
     0
102
RTVSPost2010PropOp34
 70
     1
102
RTVSPost2010Prop35
280
     0
102
RTVSPost2010PropOp35
 70
     1
102
RTVSPost2010Prop36
280
     0
102
RTVSPost2010PropOp36
 70
     1
102
RTVSPost2010Prop37
 90
       50
102
RTVSPost2010PropOp37
 70
     1
102
RTVSPost2010Prop38
140
0.0
102
RTVSPost2010PropOp38
 70
     1
102
RTVSPost2010Prop39
140
1.0
102
RTVSPost2010PropOp39
 70
     1
102
RTVSPost2010Prop40
 90
        0
102
RTVSPost2010PropOp40
 70
     1
102
RTVSPost2010Prop41ColorIndex
 90
       18
102
RTVSPost2010Prop41ColorRGB
 90
        0
102
RTVSPost2010PropOp41
 70
     1
102
RTVSPost2010Prop42
 90
       50
102
RTVSPost2010PropOp42
 70
     1
102
RTVSPost2010Prop43
 90
        3
102
RTVSPost2010PropOp43
 70
     1
102
RTVSPost2010Prop44ColorIndex
 90
        5
102
RTVSPost2010Prop44ColorRGB
 90
      255
102
RTVSPost2010PropOp44
 70
     1
102
RTVSPost2010Prop45
280
     0
102
RTVSPost2010PropOp45
 70
     1
102
RTVSPost2010Prop46
 90
       50
102
RTVSPost2010PropOp46
 70
     1
102
RTVSPost2010Prop47
 90
       50
102
RTVSPost2010PropOp47
 70
     1
102
RTVSPost2010Prop48
 90
       50
102
RTVSPost2010PropOp48
 70
     1
102
RTVSPost2010Prop49
280
     0
102
RTVSPost2010PropOp49
 70
     1
102
RTVSPost2010Prop50
 90
       50
102
RTVSPost2010PropOp50
 70
     1
102
RTVSPost2010Prop51ColorIndex
 90
      256
102
RTVSPost2010Prop51ColorRGB
 90
-16777216
102
RTVSPost2010PropOp51
 70
     0
102
RTVSPost2010Prop52
140
1.0
102
RTVSPost2010PropOp52
 70
     0
102
RTVSPost2010Prop53
 90
        2
102
RTVSPost2010PropOp53
 70
     1
102
RTVSPost2010Prop54
  1
strokes_ogs.tif
102
RTVSPost2010PropOp54
 70
     1
102
RTVSPost2010Prop55
280
     0
102
RTVSPost2010PropOp55
 70
     1
102
RTVSPost2010Prop56
140
1.0
102
RTVSPost2010PropOp56
 70
     1
102
RTVSPost2010Prop57
140
1.0
102
RTVSPost2010PropOp57
 70
     1
  0
XRECORD
  5
14B
102
{ACAD_REACTORS
330
14A
102
}
330
14A
100
AcDbXrecord
280
     1
102
RTVSPost2010Prop28
280
     0
102
RTVSPost2010PropOp28
 70
     0
102
RTVSPost2010Prop29
280
     1
102
RTVSPost2010PropOp29
 70
     0
102
RTVSPost2010Prop30
280
     1
102
RTVSPost2010PropOp30
 70
     0
102
RTVSPost2010Prop31
280
     0
102
RTVSPost2010PropOp31
 70
     0
102
RTVSPost2010Prop32
280
     0
102
RTVSPost2010PropOp32
 70
     0
102
RTVSPost2010Prop33
280
     0
102
RTVSPost2010PropOp33
 70
     0
102
RTVSPost2010Prop34
280
     0
102
RTVSPost2010PropOp34
 70
     0
102
RTVSPost2010Prop35
280
     0
102
RTVSPost2010PropOp35
 70
     0
102
RTVSPost2010Prop36
280
     0
102
RTVSPost2010PropOp36
 70
     0
102
RTVSPost2010Prop37
 90
       50
102
RTVSPost2010PropOp37
 70
     0
102
RTVSPost2010Prop38
140
0.0
102
RTVSPost2010PropOp38
 70
     0
102
RTVSPost2010Prop39
140
1.0
102
RTVSPost2010PropOp39
 70
     0
102
RTVSPost2010Prop40
 90
        0
102
RTVSPost2010PropOp40
 70
     0
102
RTVSPost2010Prop41ColorIndex
 90
       18
102
RTVSPost2010Prop41ColorRGB
 90
        0
102
RTVSPost2010PropOp41
 70
     0
102
RTVSPost2010Prop42
 90
       50
102
RTVSPost2010PropOp42
 70
     0
102
RTVSPost2010Prop43
 90
        3
102
RTVSPost2010PropOp43
 70
     0
102
RTVSPost2010Prop44ColorIndex
 90
        5
102
RTVSPost2010Prop44ColorRGB
 90
      255
102
RTVSPost2010PropOp44
 70
     0
102
RTVSPost2010Prop45
280
     0
102
RTVSPost2010PropOp45
 70
     0
102
RTVSPost2010Prop46
 90
       50
102
RTVSPost2010PropOp46
 70
     0
102
RTVSPost2010Prop47
 90
       50
102
RTVSPost2010PropOp47
 70
     0
102
RTVSPost2010Prop48
 90
       50
102
RTVSPost2010PropOp48
 70
     0
102
RTVSPost2010Prop49
280
     0
102
RTVSPost2010PropOp49
 70
     0
102
RTVSPost2010Prop50
 90
       50
102
RTVSPost2010PropOp50
 70
     0
102
RTVSPost2010Prop51ColorIndex
 90
      256
102
RTVSPost2010Prop51ColorRGB
 90
-16777216
102
RTVSPost2010PropOp51
 70
     0
102
RTVSPost2010Prop52
140
1.0
102
RTVSPost2010PropOp52
 70
     0
102
RTVSPost2010Prop53
 90
        2
102
RTVSPost2010PropOp53
 70
     0
102
RTVSPost2010Prop54
  1
strokes_ogs.tif
102
RTVSPost2010PropOp54
 70
     0
102
RTVSPost2010Prop55
280
     0
102
RTVSPost2010PropOp55
 70
     0
102
RTVSPost2010Prop56
140
1.0
102
RTVSPost2010PropOp56
 70
     0
102
RTVSPost2010Prop57
140
1.0
102
RTVSPost2010PropOp57
 70
     0
  0
XRECORD
  5
131
102
{ACAD_REACTORS
330
130
102
}
330
130
100
AcDbXrecord
280
     1
102
RTVSPost2010Prop28
280
     0
102
RTVSPost2010PropOp28
 70
     1
102
RTVSPost2010Prop29
280
     1
102
RTVSPost2010PropOp29
 70
     1
102
RTVSPost2010Prop30
280
     1
102
RTVSPost2010PropOp30
 70
     1
102
RTVSPost2010Prop31
280
     0
102
RTVSPost2010PropOp31
 70
     1
102
RTVSPost2010Prop32
280
     0
102
RTVSPost2010PropOp32
 70
     1
102
RTVSPost2010Prop33
280
     0
102
RTVSPost2010PropOp33
 70
     1
102
RTVSPost2010Prop34
280
     0
102
RTVSPost2010PropOp34
 70
     1
102
RTVSPost2010Prop35
280
     0
102
RTVSPost2010PropOp35
 70
     1
102
RTVSPost2010Prop36
280
     0
102
RTVSPost2010PropOp36
 70
     1
102
RTVSPost2010Prop37
 90
       50
102
RTVSPost2010PropOp37
 70
     1
102
RTVSPost2010Prop38
140
0.0
102
RTVSPost2010PropOp38
 70
     1
102
RTVSPost2010Prop39
140
1.0
102
RTVSPost2010PropOp39
 70
     1
102
RTVSPost2010Prop40
 90
        0
102
RTVSPost2010PropOp40
 70
     1
102
RTVSPost2010Prop41ColorIndex
 90
       18
102
RTVSPost2010Prop41ColorRGB
 90
        0
102
RTVSPost2010PropOp41
 70
     1
102
RTVSPost2010Prop42
 90
       50
102
RTVSPost2010PropOp42
 70
     1
102
RTVSPost2010Prop43
 90
        3
102
RTVSPost2010PropOp43
 70
     1
102
RTVSPost2010Prop44ColorIndex
 90
        5
102
RTVSPost2010Prop44ColorRGB
 90
      255
102
RTVSPost2010PropOp44
 70
     1
102
RTVSPost2010Prop45
280
     0
102
RTVSPost2010PropOp45
 70
     1
102
RTVSPost2010Prop46
 90
       50
102
RTVSPost2010PropOp46
 70
     1
102
RTVSPost2010Prop47
 90
       50
102
RTVSPost2010PropOp47
 70
     1
102
RTVSPost2010Prop48
 90
       50
102
RTVSPost2010PropOp48
 70
     1
102
RTVSPost2010Prop49
280
     0
102
RTVSPost2010PropOp49
 70
     1
102
RTVSPost2010Prop50
 90
       50
102
RTVSPost2010PropOp50
 70
     1
102
RTVSPost2010Prop51ColorIndex
 90
      256
102
RTVSPost2010Prop51ColorRGB
 90
-16777216
102
RTVSPost2010PropOp51
 70
     0
102
RTVSPost2010Prop52
140
1.0
102
RTVSPost2010PropOp52
 70
     0
102
RTVSPost2010Prop53
 90
        2
102
RTVSPost2010PropOp53
 70
     1
102
RTVSPost2010Prop54
  1
strokes_ogs.tif
102
RTVSPost2010PropOp54
 70
     1
102
RTVSPost2010Prop55
280
     0
102
RTVSPost2010PropOp55
 70
     1
102
RTVSPost2010Prop56
140
1.0
102
RTVSPost2010PropOp56
 70
     1
102
RTVSPost2010Prop57
140
1.0
102
RTVSPost2010PropOp57
 70
     1
  0
XRECORD
  5
147
102
{ACAD_REACTORS
330
146
102
}
330
146
100
AcDbXrecord
280
     1
102
RTVSPost2010Prop28
280
     0
102
RTVSPost2010PropOp28
 70
     1
102
RTVSPost2010Prop29
280
     1
102
RTVSPost2010PropOp29
 70
     1
102
RTVSPost2010Prop30
280
     1
102
RTVSPost2010PropOp30
 70
     1
102
RTVSPost2010Prop31
280
     0
102
RTVSPost2010PropOp31
 70
     1
102
RTVSPost2010Prop32
280
     0
102
RTVSPost2010PropOp32
 70
     1
102
RTVSPost2010Prop33
280
     0
102
RTVSPost2010PropOp33
 70
     1
102
RTVSPost2010Prop34
280
     0
102
RTVSPost2010PropOp34
 70
     1
102
RTVSPost2010Prop35
280
     0
102
RTVSPost2010PropOp35
 70
     1
102
RTVSPost2010Prop36
280
     0
102
RTVSPost2010PropOp36
 70
     1
102
RTVSPost2010Prop37
 90
       50
102
RTVSPost2010PropOp37
 70
     1
102
RTVSPost2010Prop38
140
0.0
102
RTVSPost2010PropOp38
 70
     1
102
RTVSPost2010Prop39
140
1.0
102
RTVSPost2010PropOp39
 70
     1
102
RTVSPost2010Prop40
 90
        0
102
RTVSPost2010PropOp40
 70
     1
102
RTVSPost2010Prop41ColorIndex
 90
       18
102
RTVSPost2010Prop41ColorRGB
 90
        0
102
RTVSPost2010PropOp41
 70
     1
102
RTVSPost2010Prop42
 90
       50
102
RTVSPost2010PropOp42
 70
     1
102
RTVSPost2010Prop43
 90
        3
102
RTVSPost2010PropOp43
 70
     1
102
RTVSPost2010Prop44ColorIndex
 90
        5
102
RTVSPost2010Prop44ColorRGB
 90
      255
102
RTVSPost2010PropOp44
 70
     1
102
RTVSPost2010Prop45
280
     0
102
RTVSPost2010PropOp45
 70
     1
102
RTVSPost2010Prop46
 90
       50
102
RTVSPost2010PropOp46
 70
     1
102
RTVSPost2010Prop47
 90
       50
102
RTVSPost2010PropOp47
 70
     1
102
RTVSPost2010Prop48
 90
       50
102
RTVSPost2010PropOp48
 70
     1
102
RTVSPost2010Prop49
280
     0
102
RTVSPost2010PropOp49
 70
     1
102
RTVSPost2010Prop50
 90
       50
102
RTVSPost2010PropOp50
 70
     1
102
RTVSPost2010Prop51ColorIndex
 90
      256
102
RTVSPost2010Prop51ColorRGB
 90
-16777216
102
RTVSPost2010PropOp51
 70
     0
102
RTVSPost2010Prop52
140
1.0
102
RTVSPost2010PropOp52
 70
     0
102
RTVSPost2010Prop53
 90
        2
102
RTVSPost2010PropOp53
 70
     1
102
RTVSPost2010Prop54
  1
strokes_ogs.tif
102
RTVSPost2010PropOp54
 70
     1
102
RTVSPost2010Prop55
280
     0
102
RTVSPost2010PropOp55
 70
     1
102
RTVSPost2010Prop56
140
1.0
102
RTVSPost2010PropOp56
 70
     1
102
RTVSPost2010Prop57
140
1.0
102
RTVSPost2010PropOp57
 70
     1
  0
XRECORD
  5
145
102
{ACAD_REACTORS
330
144
102
}
330
144
100
AcDbXrecord
280
     1
102
RTVSPost2010Prop28
280
     0
102
RTVSPost2010PropOp28
 70
     1
102
RTVSPost2010Prop29
280
     1
102
RTVSPost2010PropOp29
 70
     1
102
RTVSPost2010Prop30
280
     1
102
RTVSPost2010PropOp30
 70
     1
102
RTVSPost2010Prop31
280
     0
102
RTVSPost2010PropOp31
 70
     1
102
RTVSPost2010Prop32
280
     0
102
RTVSPost2010PropOp32
 70
     1
102
RTVSPost2010Prop33
280
     0
102
RTVSPost2010PropOp33
 70
     1
102
RTVSPost2010Prop34
280
     0
102
RTVSPost2010PropOp34
 70
     1
102
RTVSPost2010Prop35
280
     0
102
RTVSPost2010PropOp35
 70
     1
102
RTVSPost2010Prop36
280
     0
102
RTVSPost2010PropOp36
 70
     1
102
RTVSPost2010Prop37
 90
       50
102
RTVSPost2010PropOp37
 70
     1
102
RTVSPost2010Prop38
140
0.0
102
RTVSPost2010PropOp38
 70
     1
102
RTVSPost2010Prop39
140
1.0
102
RTVSPost2010PropOp39
 70
     1
102
RTVSPost2010Prop40
 90
        0
102
RTVSPost2010PropOp40
 70
     1
102
RTVSPost2010Prop41ColorIndex
 90
       18
102
RTVSPost2010Prop41ColorRGB
 90
        0
102
RTVSPost2010PropOp41
 70
     1
102
RTVSPost2010Prop42
 90
       50
102
RTVSPost2010PropOp42
 70
     1
102
RTVSPost2010Prop43
 90
        3
102
RTVSPost2010PropOp43
 70
     1
102
RTVSPost2010Prop44ColorIndex
 90
        5
102
RTVSPost2010Prop44ColorRGB
 90
      255
102
RTVSPost2010PropOp44
 70
     1
102
RTVSPost2010Prop45
280
     0
102
RTVSPost2010PropOp45
 70
     1
102
RTVSPost2010Prop46
 90
       50
102
RTVSPost2010PropOp46
 70
     1
102
RTVSPost2010Prop47
 90
       50
102
RTVSPost2010PropOp47
 70
     1
102
RTVSPost2010Prop48
 90
       50
102
RTVSPost2010PropOp48
 70
     1
102
RTVSPost2010Prop49
280
     0
102
RTVSPost2010PropOp49
 70
     1
102
RTVSPost2010Prop50
 90
       50
102
RTVSPost2010PropOp50
 70
     1
102
RTVSPost2010Prop51ColorIndex
 90
      256
102
RTVSPost2010Prop51ColorRGB
 90
-16777216
102
RTVSPost2010PropOp51
 70
     0
102
RTVSPost2010Prop52
140
1.0
102
RTVSPost2010PropOp52
 70
     0
102
RTVSPost2010Prop53
 90
        2
102
RTVSPost2010PropOp53
 70
     1
102
RTVSPost2010Prop54
  1
strokes_ogs.tif
102
RTVSPost2010PropOp54
 70
     1
102
RTVSPost2010Prop55
280
     0
102
RTVSPost2010PropOp55
 70
     1
102
RTVSPost2010Prop56
140
1.0
102
RTVSPost2010PropOp56
 70
     1
102
RTVSPost2010Prop57
140
1.0
102
RTVSPost2010PropOp57
 70
     1
  0
XRECORD
  5
13F
102
{ACAD_REACTORS
330
13E
102
}
330
13E
100
AcDbXrecord
280
     1
102
RTVSPost2010Prop28
280
     0
102
RTVSPost2010PropOp28
 70
     1
102
RTVSPost2010Prop29
280
     1
102
RTVSPost2010PropOp29
 70
     1
102
RTVSPost2010Prop30
280
     1
102
RTVSPost2010PropOp30
 70
     1
102
RTVSPost2010Prop31
280
     0
102
RTVSPost2010PropOp31
 70
     1
102
RTVSPost2010Prop32
280
     0
102
RTVSPost2010PropOp32
 70
     1
102
RTVSPost2010Prop33
280
     0
102
RTVSPost2010PropOp33
 70
     1
102
RTVSPost2010Prop34
280
     0
102
RTVSPost2010PropOp34
 70
     1
102
RTVSPost2010Prop35
280
     0
102
RTVSPost2010PropOp35
 70
     1
102
RTVSPost2010Prop36
280
     0
102
RTVSPost2010PropOp36
 70
     1
102
RTVSPost2010Prop37
 90
       50
102
RTVSPost2010PropOp37
 70
     1
102
RTVSPost2010Prop38
140
0.0
102
RTVSPost2010PropOp38
 70
     1
102
RTVSPost2010Prop39
140
1.0
102
RTVSPost2010PropOp39
 70
     1
102
RTVSPost2010Prop40
 90
        0
102
RTVSPost2010PropOp40
 70
     1
102
RTVSPost2010Prop41ColorIndex
 90
       18
102
RTVSPost2010Prop41ColorRGB
 90
        0
102
RTVSPost2010PropOp41
 70
     1
102
RTVSPost2010Prop42
 90
       50
102
RTVSPost2010PropOp42
 70
     1
102
RTVSPost2010Prop43
 90
        3
102
RTVSPost2010PropOp43
 70
     1
102
RTVSPost2010Prop44ColorIndex
 90
        5
102
RTVSPost2010Prop44ColorRGB
 90
      255
102
RTVSPost2010PropOp44
 70
     1
102
RTVSPost2010Prop45
280
     0
102
RTVSPost2010PropOp45
 70
     1
102
RTVSPost2010Prop46
 90
       50
102
RTVSPost2010PropOp46
 70
     1
102
RTVSPost2010Prop47
 90
       50
102
RTVSPost2010PropOp47
 70
     1
102
RTVSPost2010Prop48
 90
       50
102
RTVSPost2010PropOp48
 70
     1
102
RTVSPost2010Prop49
280
     0
102
RTVSPost2010PropOp49
 70
     1
102
RTVSPost2010Prop50
 90
       50
102
RTVSPost2010PropOp50
 70
     1
102
RTVSPost2010Prop51ColorIndex
 90
      256
102
RTVSPost2010Prop51ColorRGB
 90
-16777216
102
RTVSPost2010PropOp51
 70
     0
102
RTVSPost2010Prop52
140
1.0
102
RTVSPost2010PropOp52
 70
     0
102
RTVSPost2010Prop53
 90
        2
102
RTVSPost2010PropOp53
 70
     1
102
RTVSPost2010Prop54
  1
strokes_ogs.tif
102
RTVSPost2010PropOp54
 70
     1
102
RTVSPost2010Prop55
280
     0
102
RTVSPost2010PropOp55
 70
     1
102
RTVSPost2010Prop56
140
1.0
102
RTVSPost2010PropOp56
 70
     1
102
RTVSPost2010Prop57
140
1.0
102
RTVSPost2010PropOp57
 70
     1
  0
XRECORD
  5
141
102
{ACAD_REACTORS
330
140
102
}
330
140
100
AcDbXrecord
280
     1
102
RTVSPost2010Prop28
280
     0
102
RTVSPost2010PropOp28
 70
     1
102
RTVSPost2010Prop29
280
     1
102
RTVSPost2010PropOp29
 70
     1
102
RTVSPost2010Prop30
280
     1
102
RTVSPost2010PropOp30
 70
     1
102
RTVSPost2010Prop31
280
     0
102
RTVSPost2010PropOp31
 70
     1
102
RTVSPost2010Prop32
280
     0
102
RTVSPost2010PropOp32
 70
     1
102
RTVSPost2010Prop33
280
     0
102
RTVSPost2010PropOp33
 70
     1
102
RTVSPost2010Prop34
280
     0
102
RTVSPost2010PropOp34
 70
     1
102
RTVSPost2010Prop35
280
     0
102
RTVSPost2010PropOp35
 70
     1
102
RTVSPost2010Prop36
280
     0
102
RTVSPost2010PropOp36
 70
     1
102
RTVSPost2010Prop37
 90
       50
102
RTVSPost2010PropOp37
 70
     1
102
RTVSPost2010Prop38
140
0.0
102
RTVSPost2010PropOp38
 70
     1
102
RTVSPost2010Prop39
140
1.0
102
RTVSPost2010PropOp39
 70
     1
102
RTVSPost2010Prop40
 90
        0
102
RTVSPost2010PropOp40
 70
     1
102
RTVSPost2010Prop41ColorIndex
 90
       18
102
RTVSPost2010Prop41ColorRGB
 90
        0
102
RTVSPost2010PropOp41
 70
     1
102
RTVSPost2010Prop42
 90
       50
102
RTVSPost2010PropOp42
 70
     1
102
RTVSPost2010Prop43
 90
        3
102
RTVSPost2010PropOp43
 70
     1
102
RTVSPost2010Prop44ColorIndex
 90
        5
102
RTVSPost2010Prop44ColorRGB
 90
      255
102
RTVSPost2010PropOp44
 70
     1
102
RTVSPost2010Prop45
280
     0
102
RTVSPost2010PropOp45
 70
     1
102
RTVSPost2010Prop46
 90
       50
102
RTVSPost2010PropOp46
 70
     1
102
RTVSPost2010Prop47
 90
       50
102
RTVSPost2010PropOp47
 70
     1
102
RTVSPost2010Prop48
 90
       50
102
RTVSPost2010PropOp48
 70
     1
102
RTVSPost2010Prop49
280
     0
102
RTVSPost2010PropOp49
 70
     1
102
RTVSPost2010Prop50
 90
       50
102
RTVSPost2010PropOp50
 70
     1
102
RTVSPost2010Prop51ColorIndex
 90
      256
102
RTVSPost2010Prop51ColorRGB
 90
-16777216
102
RTVSPost2010PropOp51
 70
     0
102
RTVSPost2010Prop52
140
1.0
102
RTVSPost2010PropOp52
 70
     0
102
RTVSPost2010Prop53
 90
        2
102
RTVSPost2010PropOp53
 70
     1
102
RTVSPost2010Prop54
  1
strokes_ogs.tif
102
RTVSPost2010PropOp54
 70
     1
102
RTVSPost2010Prop55
280
     0
102
RTVSPost2010PropOp55
 70
     1
102
RTVSPost2010Prop56
140
1.0
102
RTVSPost2010PropOp56
 70
     1
102
RTVSPost2010Prop57
140
1.0
102
RTVSPost2010PropOp57
 70
     1
  0
XRECORD
  5
137
102
{ACAD_REACTORS
330
136
102
}
330
136
100
AcDbXrecord
280
     1
102
RTVSPost2010Prop28
280
     0
102
RTVSPost2010PropOp28
 70
     1
102
RTVSPost2010Prop29
280
     1
102
RTVSPost2010PropOp29
 70
     1
102
RTVSPost2010Prop30
280
     1
102
RTVSPost2010PropOp30
 70
     1
102
RTVSPost2010Prop31
280
     0
102
RTVSPost2010PropOp31
 70
     1
102
RTVSPost2010Prop32
280
     0
102
RTVSPost2010PropOp32
 70
     1
102
RTVSPost2010Prop33
280
     0
102
RTVSPost2010PropOp33
 70
     1
102
RTVSPost2010Prop34
280
     0
102
RTVSPost2010PropOp34
 70
     1
102
RTVSPost2010Prop35
280
     0
102
RTVSPost2010PropOp35
 70
     1
102
RTVSPost2010Prop36
280
     0
102
RTVSPost2010PropOp36
 70
     1
102
RTVSPost2010Prop37
 90
       50
102
RTVSPost2010PropOp37
 70
     1
102
RTVSPost2010Prop38
140
0.0
102
RTVSPost2010PropOp38
 70
     1
102
RTVSPost2010Prop39
140
1.0
102
RTVSPost2010PropOp39
 70
     1
102
RTVSPost2010Prop40
 90
        0
102
RTVSPost2010PropOp40
 70
     1
102
RTVSPost2010Prop41ColorIndex
 90
       18
102
RTVSPost2010Prop41ColorRGB
 90
        0
102
RTVSPost2010PropOp41
 70
     1
102
RTVSPost2010Prop42
 90
       50
102
RTVSPost2010PropOp42
 70
     1
102
RTVSPost2010Prop43
 90
        3
102
RTVSPost2010PropOp43
 70
     1
102
RTVSPost2010Prop44ColorIndex
 90
        5
102
RTVSPost2010Prop44ColorRGB
 90
      255
102
RTVSPost2010PropOp44
 70
     1
102
RTVSPost2010Prop45
280
     0
102
RTVSPost2010PropOp45
 70
     1
102
RTVSPost2010Prop46
 90
       50
102
RTVSPost2010PropOp46
 70
     1
102
RTVSPost2010Prop47
 90
       50
102
RTVSPost2010PropOp47
 70
     1
102
RTVSPost2010Prop48
 90
       50
102
RTVSPost2010PropOp48
 70
     1
102
RTVSPost2010Prop49
280
     0
102
RTVSPost2010PropOp49
 70
     1
102
RTVSPost2010Prop50
 90
       50
102
RTVSPost2010PropOp50
 70
     1
102
RTVSPost2010Prop51ColorIndex
 90
      256
102
RTVSPost2010Prop51ColorRGB
 90
-16777216
102
RTVSPost2010PropOp51
 70
     0
102
RTVSPost2010Prop52
140
1.0
102
RTVSPost2010PropOp52
 70
     0
102
RTVSPost2010Prop53
 90
        2
102
RTVSPost2010PropOp53
 70
     1
102
RTVSPost2010Prop54
  1
strokes_ogs.tif
102
RTVSPost2010PropOp54
 70
     1
102
RTVSPost2010Prop55
280
     0
102
RTVSPost2010PropOp55
 70
     1
102
RTVSPost2010Prop56
140
1.0
102
RTVSPost2010PropOp56
 70
     1
102
RTVSPost2010Prop57
140
1.0
102
RTVSPost2010PropOp57
 70
     1
  0
XRECORD
  5
12B
102
{ACAD_REACTORS
330
12A
102
}
330
12A
100
AcDbXrecord
280
     1
102
RTVSPost2010Prop28
280
     0
102
RTVSPost2010PropOp28
 70
     1
102
RTVSPost2010Prop29
280
     1
102
RTVSPost2010PropOp29
 70
     1
102
RTVSPost2010Prop30
280
     1
102
RTVSPost2010PropOp30
 70
     1
102
RTVSPost2010Prop31
280
     0
102
RTVSPost2010PropOp31
 70
     1
102
RTVSPost2010Prop32
280
     0
102
RTVSPost2010PropOp32
 70
     1
102
RTVSPost2010Prop33
280
     0
102
RTVSPost2010PropOp33
 70
     1
102
RTVSPost2010Prop34
280
     0
102
RTVSPost2010PropOp34
 70
     1
102
RTVSPost2010Prop35
280
     0
102
RTVSPost2010PropOp35
 70
     1
102
RTVSPost2010Prop36
280
     0
102
RTVSPost2010PropOp36
 70
     1
102
RTVSPost2010Prop37
 90
       50
102
RTVSPost2010PropOp37
 70
     1
102
RTVSPost2010Prop38
140
0.0
102
RTVSPost2010PropOp38
 70
     1
102
RTVSPost2010Prop39
140
1.0
102
RTVSPost2010PropOp39
 70
     1
102
RTVSPost2010Prop40
 90
        0
102
RTVSPost2010PropOp40
 70
     1
102
RTVSPost2010Prop41ColorIndex
 90
       18
102
RTVSPost2010Prop41ColorRGB
 90
        0
102
RTVSPost2010PropOp41
 70
     1
102
RTVSPost2010Prop42
 90
       50
102
RTVSPost2010PropOp42
 70
     1
102
RTVSPost2010Prop43
 90
        3
102
RTVSPost2010PropOp43
 70
     1
102
RTVSPost2010Prop44ColorIndex
 90
        5
102
RTVSPost2010Prop44ColorRGB
 90
      255
102
RTVSPost2010PropOp44
 70
     1
102
RTVSPost2010Prop45
280
     0
102
RTVSPost2010PropOp45
 70
     1
102
RTVSPost2010Prop46
 90
       50
102
RTVSPost2010PropOp46
 70
     1
102
RTVSPost2010Prop47
 90
       50
102
RTVSPost2010PropOp47
 70
     1
102
RTVSPost2010Prop48
 90
       50
102
RTVSPost2010PropOp48
 70
     1
102
RTVSPost2010Prop49
280
     0
102
RTVSPost2010PropOp49
 70
     1
102
RTVSPost2010Prop50
 90
       50
102
RTVSPost2010PropOp50
 70
     1
102
RTVSPost2010Prop51ColorIndex
 90
      256
102
RTVSPost2010Prop51ColorRGB
 90
-16777216
102
RTVSPost2010PropOp51
 70
     0
102
RTVSPost2010Prop52
140
1.0
102
RTVSPost2010PropOp52
 70
     0
102
RTVSPost2010Prop53
 90
        2
102
RTVSPost2010PropOp53
 70
     1
102
RTVSPost2010Prop54
  1
strokes_ogs.tif
102
RTVSPost2010PropOp54
 70
     1
102
RTVSPost2010Prop55
280
     0
102
RTVSPost2010PropOp55
 70
     1
102
RTVSPost2010Prop56
140
1.0
102
RTVSPost2010PropOp56
 70
     1
102
RTVSPost2010Prop57
140
1.0
102
RTVSPost2010PropOp57
 70
     1
  0
XRECORD
  5
143
102
{ACAD_REACTORS
330
142
102
}
330
142
100
AcDbXrecord
280
     1
102
RTVSPost2010Prop28
280
     0
102
RTVSPost2010PropOp28
 70
     1
102
RTVSPost2010Prop29
280
     1
102
RTVSPost2010PropOp29
 70
     1
102
RTVSPost2010Prop30
280
     1
102
RTVSPost2010PropOp30
 70
     1
102
RTVSPost2010Prop31
280
     0
102
RTVSPost2010PropOp31
 70
     1
102
RTVSPost2010Prop32
280
     0
102
RTVSPost2010PropOp32
 70
     1
102
RTVSPost2010Prop33
280
     0
102
RTVSPost2010PropOp33
 70
     1
102
RTVSPost2010Prop34
280
     0
102
RTVSPost2010PropOp34
 70
     1
102
RTVSPost2010Prop35
280
     0
102
RTVSPost2010PropOp35
 70
     1
102
RTVSPost2010Prop36
280
     0
102
RTVSPost2010PropOp36
 70
     1
102
RTVSPost2010Prop37
 90
       50
102
RTVSPost2010PropOp37
 70
     1
102
RTVSPost2010Prop38
140
0.0
102
RTVSPost2010PropOp38
 70
     1
102
RTVSPost2010Prop39
140
1.0
102
RTVSPost2010PropOp39
 70
     1
102
RTVSPost2010Prop40
 90
        0
102
RTVSPost2010PropOp40
 70
     1
102
RTVSPost2010Prop41ColorIndex
 90
       18
102
RTVSPost2010Prop41ColorRGB
 90
        0
102
RTVSPost2010PropOp41
 70
     1
102
RTVSPost2010Prop42
 90
       50
102
RTVSPost2010PropOp42
 70
     1
102
RTVSPost2010Prop43
 90
        3
102
RTVSPost2010PropOp43
 70
     1
102
RTVSPost2010Prop44ColorIndex
 90
        5
102
RTVSPost2010Prop44ColorRGB
 90
      255
102
RTVSPost2010PropOp44
 70
     1
102
RTVSPost2010Prop45
280
     0
102
RTVSPost2010PropOp45
 70
     1
102
RTVSPost2010Prop46
 90
       50
102
RTVSPost2010PropOp46
 70
     1
102
RTVSPost2010Prop47
 90
       50
102
RTVSPost2010PropOp47
 70
     1
102
RTVSPost2010Prop48
 90
       50
102
RTVSPost2010PropOp48
 70
     1
102
RTVSPost2010Prop49
280
     0
102
RTVSPost2010PropOp49
 70
     1
102
RTVSPost2010Prop50
 90
       50
102
RTVSPost2010PropOp50
 70
     1
102
RTVSPost2010Prop51ColorIndex
 90
      256
102
RTVSPost2010Prop51ColorRGB
 90
-16777216
102
RTVSPost2010PropOp51
 70
     0
102
RTVSPost2010Prop52
140
1.0
102
RTVSPost2010PropOp52
 70
     0
102
RTVSPost2010Prop53
 90
        2
102
RTVSPost2010PropOp53
 70
     1
102
RTVSPost2010Prop54
  1
strokes_ogs.tif
102
RTVSPost2010PropOp54
 70
     1
102
RTVSPost2010Prop55
280
     0
102
RTVSPost2010PropOp55
 70
     1
102
RTVSPost2010Prop56
140
1.0
102
RTVSPost2010PropOp56
 70
     1
102
RTVSPost2010Prop57
140
1.0
102
RTVSPost2010PropOp57
 70
     1
  0
ENDSEC
  0
EOF
