  0
SECTION
  2
HEADER
  9
$ACADVER
  1
AC1018
  9
$ACADMAINTVER
 70
     0
  9
$DWGCODEPAGE
  3
ASCII
  9
$INSBASE
 10
0.0
 20
0.0
 30
0.0
  9
$EXTMIN
 10
1.000000000000000E+20
 20
1.000000000000000E+20
 30
1.000000000000000E+20
  9
$EXTMAX
 10
-1.000000000000000E+20
 20
-1.000000000000000E+20
 30
-1.000000000000000E+20
  9
$LIMMIN
 10
0.0
 20
0.0
  9
$LIMMAX
 10
12.0
 20
9.0
  9
$ORTHOMODE
 70
     0
  9
$REGENMODE
 70
     1
  9
$FILLMODE
 70
     1
  9
$QTEXTMODE
 70
     0
  9
$MIRRTEXT
 70
     1
  9
$LTSCALE
 40
1.0
  9
$ATTMODE
 70
     1
  9
$TEXTSIZE
 40
0.2
  9
$TRACEWID
 40
0.05
  9
$TEXTSTYLE
  7
Standard
  9
$CLAYER
  8
0
  9
$CELTYPE
  6
ByLayer
  9
$CECOLOR
 62
   256
  9
$CELTSCALE
 40
1.0
  9
$DISPSILH
 70
     0
  9
$DIMSCALE
 40
1.0
  9
$DIMASZ
 40
0.18
  9
$DIMEXO
 40
0.0625
  9
$DIMDLI
 40
0.38
  9
$DIMRND
 40
0.0
  9
$DIMDLE
 40
0.0
  9
$DIMEXE
 40
0.18
  9
$DIMTP
 40
0.0
  9
$DIMTM
 40
0.0
  9
$DIMTXT
 40
0.18
  9
$DIMCEN
 40
0.09
  9
$DIMTSZ
 40
0.0
  9
$DIMTOL
 70
     0
  9
$DIMLIM
 70
     0
  9
$DIMTIH
 70
     1
  9
$DIMTOH
 70
     1
  9
$DIMSE1
 70
     0
  9
$DIMSE2
 70
     0
  9
$DIMTAD
 70
     0
  9
$DIMZIN
 70
     0
  9
$DIMBLK
  1

  9
$DIMASO
 70
     1
  9
$DIMSHO
 70
     1
  9
$DIMPOST
  1

  9
$DIMAPOST
  1

  9
$DIMALT
 70
     0
  9
$DIMALTD
 70
     2
  9
$DIMALTF
 40
25.4
  9
$DIMLFAC
 40
1.0
  9
$DIMTOFL
 70
     0
  9
$DIMTVP
 40
0.0
  9
$DIMTIX
 70
     0
  9
$DIMSOXD
 70
     0
  9
$DIMSAH
 70
     0
  9
$DIMBLK1
  1

  9
$DIMBLK2
  1

  9
$DIMSTYLE
  2
Standard
  9
$DIMCLRD
 70
     0
  9
$DIMCLRE
 70
     0
  9
$DIMCLRT
 70
     0
  9
$DIMTFAC
 40
1.0
  9
$DIMGAP
 40
0.09
  9
$DIMJUST
 70
     0
  9
$DIMSD1
 70
     0
  9
$DIMSD2
 70
     0
  9
$DIMTOLJ
 70
     1
  9
$DIMTZIN
 70
     0
  9
$DIMALTZ
 70
     0
  9
$DIMALTTZ
 70
     0
  9
$DIMUPT
 70
     0
  9
$DIMDEC
 70
     4
  9
$DIMTDEC
 70
     4
  9
$DIMALTU
 70
     2
  9
$DIMALTTD
 70
     2
  9
$DIMTXSTY
  7
Standard
  9
$DIMAUNIT
 70
     0
  9
$DIMADEC
 70
     0
  9
$DIMALTRND
 40
0.0
  9
$DIMAZIN
 70
     0
  9
$DIMDSEP
 70
    46
  9
$DIMATFIT
 70
     3
  9
$DIMFRAC
 70
     0
  9
$DIMLDRBLK
  1

  9
$DIMLUNIT
 70
     2
  9
$DIMLWD
 70
    -2
  9
$DIMLWE
 70
    -2
  9
$DIMTMOVE
 70
     0
  9
$LUNITS
 70
     2
  9
$LUPREC
 70
     4
  9
$SKETCHINC
 40
0.1
  9
$FILLETRAD
 40
0.5
  9
$AUNITS
 70
     0
  9
$AUPREC
 70
     0
  9
$MENU
  1
.
  9
$ELEVATION
 40
0.0
  9
$PELEVATION
 40
0.0
  9
$THICKNESS
 40
0.0
  9
$LIMCHECK
 70
     0
  9
$CHAMFERA
 40
0.5
  9
$CHAMFERB
 40
0.5
  9
$CHAMFERC
 40
1.0
  9
$CHAMFERD
 40
0.0
  9
$SKPOLY
 70
     0
  9
$TDCREATE
 40
2457534.686811158
  9
$TDUCREATE
 40
2457534.603477824
  9
$TDUPDATE
 40
2457534.686811169
  9
$TDUUPDATE
 40
2457534.603477836
  9
$TDINDWG
 40
0.0000000116
  9
$TDUSRTIMER
 40
0.0000000116
  9
$USRTIMER
 70
     1
  9
$ANGBASE
 50
0.0
  9
$ANGDIR
 70
     0
  9
$PDMODE
 70
     0
  9
$PDSIZE
 40
0.0
  9
$PLINEWID
 40
0.0
  9
$SPLFRAME
 70
     0
  9
$SPLINETYPE
 70
     6
  9
$SPLINESEGS
 70
     8
  9
$HANDSEED
  5
273
  9
$SURFTAB1
 70
     6
  9
$SURFTAB2
 70
     6
  9
$SURFTYPE
 70
     6
  9
$SURFU
 70
     6
  9
$SURFV
 70
     6
  9
$UCSBASE
  2

  9
$UCSNAME
  2

  9
$UCSORG
 10
0.0
 20
0.0
 30
0.0
  9
$UCSXDIR
 10
1.0
 20
0.0
 30
0.0
  9
$UCSYDIR
 10
0.0
 20
1.0
 30
0.0
  9
$UCSORTHOREF
  2

  9
$UCSORTHOVIEW
 70
     0
  9
$UCSORGTOP
 10
0.0
 20
0.0
 30
0.0
  9
$UCSORGBOTTOM
 10
0.0
 20
0.0
 30
0.0
  9
$UCSORGLEFT
 10
0.0
 20
0.0
 30
0.0
  9
$UCSORGRIGHT
 10
0.0
 20
0.0
 30
0.0
  9
$UCSORGFRONT
 10
0.0
 20
0.0
 30
0.0
  9
$UCSORGBACK
 10
0.0
 20
0.0
 30
0.0
  9
$PUCSBASE
  2

  9
$PUCSNAME
  2

  9
$PUCSORG
 10
0.0
 20
0.0
 30
0.0
  9
$PUCSXDIR
 10
1.0
 20
0.0
 30
0.0
  9
$PUCSYDIR
 10
0.0
 20
1.0
 30
0.0
  9
$PUCSORTHOREF
  2

  9
$PUCSORTHOVIEW
 70
     0
  9
$PUCSORGTOP
 10
0.0
 20
0.0
 30
0.0
  9
$PUCSORGBOTTOM
 10
0.0
 20
0.0
 30
0.0
  9
$PUCSORGLEFT
 10
0.0
 20
0.0
 30
0.0
  9
$PUCSORGRIGHT
 10
0.0
 20
0.0
 30
0.0
  9
$PUCSORGFRONT
 10
0.0
 20
0.0
 30
0.0
  9
$PUCSORGBACK
 10
0.0
 20
0.0
 30
0.0
  9
$USERI1
 70
     0
  9
$USERI2
 70
     0
  9
$USERI3
 70
     0
  9
$USERI4
 70
     0
  9
$USERI5
 70
     0
  9
$USERR1
 40
0.0
  9
$USERR2
 40
0.0
  9
$USERR3
 40
0.0
  9
$USERR4
 40
0.0
  9
$USERR5
 40
0.0
  9
$WORLDVIEW
 70
     1
  9
$SHADEDGE
 70
     3
  9
$SHADEDIF
 70
    70
  9
$TILEMODE
 70
     1
  9
$MAXACTVP
 70
    64
  9
$PINSBASE
 10
0.0
 20
0.0
 30
0.0
  9
$PLIMCHECK
 70
     0
  9
$PEXTMIN
 10
1.000000000000000E+20
 20
1.000000000000000E+20
 30
1.000000000000000E+20
  9
$PEXTMAX
 10
-1.000000000000000E+20
 20
-1.000000000000000E+20
 30
-1.000000000000000E+20
  9
$PLIMMIN
 10
0.0
 20
0.0
  9
$PLIMMAX
 10
12.0
 20
9.0
  9
$UNITMODE
 70
     0
  9
$VISRETAIN
 70
     1
  9
$PLINEGEN
 70
     0
  9
$PSLTSCALE
 70
     1
  9
$TREEDEPTH
 70
  3020
  9
$CMLSTYLE
  2
Standard
  9
$CMLJUST
 70
     0
  9
$CMLSCALE
 40
1.0
  9
$PROXYGRAPHICS
 70
     1
  9
$MEASUREMENT
 70
     0
  9
$CELWEIGHT
370
    -1
  9
$ENDCAPS
280
     0
  9
$JOINSTYLE
280
     0
  9
$LWDISPLAY
290
     1
  9
$INSUNITS
 70
     1
  9
$HYPERLINKBASE
  1

  9
$STYLESHEET
  1

  9
$XEDIT
290
     1
  9
$CEPSNTYPE
380
     0
  9
$PSTYLEMODE
290
     1
  9
$FINGERPRINTGUID
  2
{F2C1B4A1-8888-4998-9D9B-65608C56FBCB}
  9
$VERSIONGUID
  2
{FAEB1C32-E019-11D5-929B-00C0DF256EC4}
  9
$EXTNAMES
290
     1
  9
$PSVPSCALE
 40
0.0
  9
$OLESTARTUP
290
     0
  9
$SORTENTS
280
   127
  9
$INDEXCTL
280
     0
  9
$HIDETEXT
280
     1
  9
$XCLIPFRAME
290
     0
  9
$HALOGAP
280
     0
  9
$OBSCOLOR
 70
   257
  9
$OBSLTYPE
280
     0
  9
$INTERSECTIONDISPLAY
280
     0
  9
$INTERSECTIONCOLOR
 70
   257
  9
$DIMASSOC
280
     2
  9
$PROJECTNAME
  1

  0
ENDSEC
  0
SECTION
  2
CLASSES
  0
CLASS
  1
ACDBDICTIONARYWDFLT
  2
AcDbDictionaryWithDefault
  3
ObjectDBX Classes
 90
        0
 91
        3
280
     0
281
     0
  0
CLASS
  1
VISUALSTYLE
  2
AcDbVisualStyle
  3
ObjectDBX Classes
 90
     4095
 91
        3
280
     0
281
     0
  0
ENDSEC
  0
SECTION
  2
TABLES
  0
TABLE
  2
VPORT
  5
8
330
0
100
AcDbSymbolTable
 70
     1
  0
VPORT
  5
29
330
8
100
AcDbSymbolTableRecord
100
AcDbViewportTableRecord
  2
*Active
 70
     0
 10
0.0
 20
0.0
 11
1.0
 21
1.0
 12
0.0
 22
0.0
 13
0.0
 23
0.0
 14
0.5
 24
0.5
 15
0.5
 25
0.5
 16
0.0
 26
0.0
 36
1.0
 17
105.0008091239277
 27
148.5001637099431
 37
0.0
 40
297.0003274198861
 41
0.7070753762199199
 42
50.0
 43
0.0
 44
0.0
 50
0.0
 51
0.0
 71
     0
 72
   100
 73
     1
 74
     3
 75
     0
 76
     0
 77
     0
 78
     0
281
     0
 65
     1
110
0.0
120
0.0
130
0.0
111
1.0
121
0.0
131
0.0
112
0.0
122
1.0
132
0.0
 79
     0
146
0.0
  0
ENDTAB
  0
TABLE
  2
LTYPE
  5
5
330
0
100
AcDbSymbolTable
 70
     4
  0
LTYPE
  5
14
330
5
100
AcDbSymbolTableRecord
100
AcDbLinetypeTableRecord
  2
ByBlock
 70
     0
  3

 72
    65
 73
     0
 40
0.0
  0
LTYPE
  5
15
330
5
100
AcDbSymbolTableRecord
100
AcDbLinetypeTableRecord
  2
ByLayer
 70
     0
  3

 72
    65
 73
     0
 40
0.0
  0
LTYPE
  5
16
330
5
100
AcDbSymbolTableRecord
100
AcDbLinetypeTableRecord
  2
Continuous
 70
     0
  3
Solid line
 72
    65
 73
     0
 40
0.0
  0
LTYPE
  5
11B
330
5
100
AcDbSymbolTableRecord
100
AcDbLinetypeTableRecord
  2
AI-Linetype-1
 70
     0
  3
Adobe Illustrator Linetype No. 1
 72
    65
 73
     4
 40
38.92584121856557
 49
19.46115671927014
 74
     0
 49
-9.730578359635068
 74
     0
 49
0.0035277800253007
 74
     0
 49
-9.730578359635068
 74
     0
  0
LTYPE
  5
124
330
5
100
AcDbSymbolTableRecord
100
AcDbLinetypeTableRecord
  2
AI-Linetype-2
 70
     0
  3
Adobe Illustrator Linetype No. 2
 72
    65
 73
     4
 40
38.92584121856557
 49
19.46115671927014
 74
     0
 49
-9.730578359635068
 74
     0
 49
0.0035277800253007
 74
     0
 49
-9.730578359635068
 74
     0
  0
LTYPE
  5
12D
330
5
100
AcDbSymbolTableRecord
100
AcDbLinetypeTableRecord
  2
AI-Linetype-3
 70
     0
  3
Adobe Illustrator Linetype No. 3
 72
    65
 73
     4
 40
38.92584121856557
 49
19.46115671927014
 74
     0
 49
-9.730578359635068
 74
     0
 49
0.0035277800253007
 74
     0
 49
-9.730578359635068
 74
     0
  0
ENDTAB
  0
TABLE
  2
LAYER
  5
2
330
0
100
AcDbSymbolTable
 70
    11
  0
LAYER
  5
10
330
2
100
AcDbSymbolTableRecord
100
AcDbLayerTableRecord
  2
0
 70
     0
 62
     7
  6
Continuous
370
    -3
390
F
  0
LAYER
  5
69
330
2
100
AcDbSymbolTableRecord
100
AcDbLayerTableRecord
  2
PIEZA
 70
     0
 62
     7
  6
Continuous
370
    -3
390
F
  0
LAYER
  5
112
330
2
100
AcDbSymbolTableRecord
100
AcDbLayerTableRecord
  2
EJES
 70
     0
 62
     7
  6
Continuous
370
    -3
390
F
  0
LAYER
  5
12E
330
2
100
AcDbSymbolTableRecord
100
AcDbLayerTableRecord
  2
COTAS
 70
     0
 62
     7
  6
Continuous
370
    -3
390
F
  0
LAYER
  5
23C
330
2
100
AcDbSymbolTableRecord
100
AcDbLayerTableRecord
  2
CAJETIN
 70
     0
 62
     7
  6
Continuous
370
    -3
390
F
  0
LAYER
  5
23D
330
2
100
AcDbSymbolTableRecord
100
AcDbLayerTableRecord
  2
TITULOS
 70
     0
 62
     7
  6
Continuous
370
    -3
390
F
  0
LAYER
  5
23E
330
2
100
AcDbSymbolTableRecord
100
AcDbLayerTableRecord
  2
TEXTO
 70
     0
 62
     7
  6
Continuous
370
    -3
390
F
  0
LAYER
  5
23F
330
2
100
AcDbSymbolTableRecord
100
AcDbLayerTableRecord
  2
REVIS\U+00D5ES
 70
     0
 62
     7
  6
Continuous
370
    -3
390
F
  0
LAYER
  5
240
330
2
100
AcDbSymbolTableRecord
100
AcDbLayerTableRecord
  2
trama-1
 70
     0
 62
     7
  6
Continuous
370
    -3
390
F
  0
LAYER
  5
255
330
2
100
AcDbSymbolTableRecord
100
AcDbLayerTableRecord
  2
035
 70
     0
 62
     7
  6
Continuous
370
    -3
390
F
  0
LAYER
  5
26A
330
2
100
AcDbSymbolTableRecord
100
AcDbLayerTableRecord
  2
trama-2
 70
     0
 62
     7
  6
Continuous
370
    -3
390
F
  0
ENDTAB
  0
TABLE
  2
STYLE
  5
3
330
0
100
AcDbSymbolTable
 70
     1
  0
STYLE
  5
11
330
3
100
AcDbSymbolTableRecord
100
AcDbTextStyleTableRecord
  2
Standard
 70
     0
 40
0.0
 41
1.0
 50
0.0
 71
     0
 42
0.2
  3
txt
  4

  0
ENDTAB
  0
TABLE
  2
VIEW
  5
6
330
0
100
AcDbSymbolTable
 70
     0
  0
ENDTAB
  0
TABLE
  2
UCS
  5
7
330
0
100
AcDbSymbolTable
 70
     0
  0
ENDTAB
  0
TABLE
  2
APPID
  5
9
330
0
100
AcDbSymbolTable
 70
     1
  0
APPID
  5
12
330
9
100
AcDbSymbolTableRecord
100
AcDbRegAppTableRecord
  2
ACAD
 70
     0
  0
ENDTAB
  0
TABLE
  2
DIMSTYLE
  5
A
330
0
100
AcDbSymbolTable
 70
     1
100
AcDbDimStyleTable
  0
DIMSTYLE
105
27
330
A
100
AcDbSymbolTableRecord
100
AcDbDimStyleTableRecord
  2
Standard
 70
     0
340
11
  0
ENDTAB
  0
TABLE
  2
BLOCK_RECORD
  5
1
330
0
100
AcDbSymbolTable
 70
    84
  0
BLOCK_RECORD
  5
1F
330
1
100
AcDbSymbolTableRecord
100
AcDbBlockTableRecord
  2
*Model_Space
340
22
  0
BLOCK_RECORD
  5
1B
330
1
100
AcDbSymbolTableRecord
100
AcDbBlockTableRecord
  2
*Paper_Space
340
1E
  0
BLOCK_RECORD
  5
23
330
1
100
AcDbSymbolTableRecord
100
AcDbBlockTableRecord
  2
*Paper_Space0
340
26
  0
BLOCK_RECORD
  5
3B
330
1
100
AcDbSymbolTableRecord
100
AcDbBlockTableRecord
  2
block 2
340
0
102
{BLKREFS
331
3C
102
}
  0
BLOCK_RECORD
  5
40
330
1
100
AcDbSymbolTableRecord
100
AcDbBlockTableRecord
  2
block 3
340
0
102
{BLKREFS
331
41
102
}
  0
BLOCK_RECORD
  5
45
330
1
100
AcDbSymbolTableRecord
100
AcDbBlockTableRecord
  2
block 4
340
0
102
{BLKREFS
331
46
102
}
  0
BLOCK_RECORD
  5
4A
330
1
100
AcDbSymbolTableRecord
100
AcDbBlockTableRecord
  2
block 5
340
0
102
{BLKREFS
331
4B
102
}
  0
BLOCK_RECORD
  5
52
330
1
100
AcDbSymbolTableRecord
100
AcDbBlockTableRecord
  2
block 6
340
0
102
{BLKREFS
331
53
102
}
  0
BLOCK_RECORD
  5
5A
330
1
100
AcDbSymbolTableRecord
100
AcDbBlockTableRecord
  2
block 7
340
0
102
{BLKREFS
331
5B
102
}
  0
BLOCK_RECORD
  5
5F
330
1
100
AcDbSymbolTableRecord
100
AcDbBlockTableRecord
  2
block 8
340
0
102
{BLKREFS
331
60
102
}
  0
BLOCK_RECORD
  5
64
330
1
100
AcDbSymbolTableRecord
100
AcDbBlockTableRecord
  2
block 9
340
0
102
{BLKREFS
331
65
102
}
  0
BLOCK_RECORD
  5
6A
330
1
100
AcDbSymbolTableRecord
100
AcDbBlockTableRecord
  2
block 10
340
0
102
{BLKREFS
331
6B
102
}
  0
BLOCK_RECORD
  5
6F
330
1
100
AcDbSymbolTableRecord
100
AcDbBlockTableRecord
  2
block 11
340
0
102
{BLKREFS
331
70
102
}
  0
BLOCK_RECORD
  5
74
330
1
100
AcDbSymbolTableRecord
100
AcDbBlockTableRecord
  2
block 12
340
0
102
{BLKREFS
331
75
102
}
  0
BLOCK_RECORD
  5
79
330
1
100
AcDbSymbolTableRecord
100
AcDbBlockTableRecord
  2
block 13
340
0
102
{BLKREFS
331
7A
102
}
  0
BLOCK_RECORD
  5
7E
330
1
100
AcDbSymbolTableRecord
100
AcDbBlockTableRecord
  2
block 14
340
0
102
{BLKREFS
331
7F
102
}
  0
BLOCK_RECORD
  5
86
330
1
100
AcDbSymbolTableRecord
100
AcDbBlockTableRecord
  2
block 15
340
0
102
{BLKREFS
331
87
102
}
  0
BLOCK_RECORD
  5
8B
330
1
100
AcDbSymbolTableRecord
100
AcDbBlockTableRecord
  2
block 16
340
0
102
{BLKREFS
331
8C
102
}
  0
BLOCK_RECORD
  5
90
330
1
100
AcDbSymbolTableRecord
100
AcDbBlockTableRecord
  2
block 17
340
0
102
{BLKREFS
331
91
102
}
  0
BLOCK_RECORD
  5
95
330
1
100
AcDbSymbolTableRecord
100
AcDbBlockTableRecord
  2
block 18
340
0
102
{BLKREFS
331
96
102
}
  0
BLOCK_RECORD
  5
9A
330
1
100
AcDbSymbolTableRecord
100
AcDbBlockTableRecord
  2
block 19
340
0
102
{BLKREFS
331
9B
102
}
  0
BLOCK_RECORD
  5
9F
330
1
100
AcDbSymbolTableRecord
100
AcDbBlockTableRecord
  2
block 20
340
0
102
{BLKREFS
331
A0
102
}
  0
BLOCK_RECORD
  5
A7
330
1
100
AcDbSymbolTableRecord
100
AcDbBlockTableRecord
  2
block 21
340
0
102
{BLKREFS
331
A8
102
}
  0
BLOCK_RECORD
  5
AC
330
1
100
AcDbSymbolTableRecord
100
AcDbBlockTableRecord
  2
block 22
340
0
102
{BLKREFS
331
AD
102
}
  0
BLOCK_RECORD
  5
B4
330
1
100
AcDbSymbolTableRecord
100
AcDbBlockTableRecord
  2
block 23
340
0
102
{BLKREFS
331
B5
102
}
  0
BLOCK_RECORD
  5
B9
330
1
100
AcDbSymbolTableRecord
100
AcDbBlockTableRecord
  2
block 24
340
0
102
{BLKREFS
331
BA
102
}
  0
BLOCK_RECORD
  5
C1
330
1
100
AcDbSymbolTableRecord
100
AcDbBlockTableRecord
  2
block 25
340
0
102
{BLKREFS
331
C2
102
}
  0
BLOCK_RECORD
  5
C9
330
1
100
AcDbSymbolTableRecord
100
AcDbBlockTableRecord
  2
block 26
340
0
102
{BLKREFS
331
CA
102
}
  0
BLOCK_RECORD
  5
CE
330
1
100
AcDbSymbolTableRecord
100
AcDbBlockTableRecord
  2
block 27
340
0
102
{BLKREFS
331
CF
102
}
  0
BLOCK_RECORD
  5
D3
330
1
100
AcDbSymbolTableRecord
100
AcDbBlockTableRecord
  2
block 28
340
0
102
{BLKREFS
331
D4
102
}
  0
BLOCK_RECORD
  5
D8
330
1
100
AcDbSymbolTableRecord
100
AcDbBlockTableRecord
  2
block 29
340
0
102
{BLKREFS
331
D9
102
}
  0
BLOCK_RECORD
  5
DD
330
1
100
AcDbSymbolTableRecord
100
AcDbBlockTableRecord
  2
block 30
340
0
102
{BLKREFS
331
DE
102
}
  0
BLOCK_RECORD
  5
E2
330
1
100
AcDbSymbolTableRecord
100
AcDbBlockTableRecord
  2
block 31
340
0
102
{BLKREFS
331
E3
102
}
  0
BLOCK_RECORD
  5
E7
330
1
100
AcDbSymbolTableRecord
100
AcDbBlockTableRecord
  2
block 32
340
0
102
{BLKREFS
331
E8
102
}
  0
BLOCK_RECORD
  5
EF
330
1
100
AcDbSymbolTableRecord
100
AcDbBlockTableRecord
  2
block 33
340
0
102
{BLKREFS
331
F0
102
}
  0
BLOCK_RECORD
  5
F4
330
1
100
AcDbSymbolTableRecord
100
AcDbBlockTableRecord
  2
block 34
340
0
102
{BLKREFS
331
F5
102
}
  0
BLOCK_RECORD
  5
F9
330
1
100
AcDbSymbolTableRecord
100
AcDbBlockTableRecord
  2
block 35
340
0
102
{BLKREFS
331
FA
102
}
  0
BLOCK_RECORD
  5
FE
330
1
100
AcDbSymbolTableRecord
100
AcDbBlockTableRecord
  2
block 36
340
0
102
{BLKREFS
331
FF
102
}
  0
BLOCK_RECORD
  5
103
330
1
100
AcDbSymbolTableRecord
100
AcDbBlockTableRecord
  2
block 37
340
0
102
{BLKREFS
331
104
102
}
  0
BLOCK_RECORD
  5
108
330
1
100
AcDbSymbolTableRecord
100
AcDbBlockTableRecord
  2
block 38
340
0
102
{BLKREFS
331
109
102
}
  0
BLOCK_RECORD
  5
10D
330
1
100
AcDbSymbolTableRecord
100
AcDbBlockTableRecord
  2
block 39
340
0
102
{BLKREFS
331
10E
102
}
  0
BLOCK_RECORD
  5
113
330
1
100
AcDbSymbolTableRecord
100
AcDbBlockTableRecord
  2
block 40
340
0
102
{BLKREFS
331
114
102
}
  0
BLOCK_RECORD
  5
11C
330
1
100
AcDbSymbolTableRecord
100
AcDbBlockTableRecord
  2
block 41
340
0
102
{BLKREFS
331
11D
102
}
  0
BLOCK_RECORD
  5
125
330
1
100
AcDbSymbolTableRecord
100
AcDbBlockTableRecord
  2
block 42
340
0
102
{BLKREFS
331
126
102
}
  0
BLOCK_RECORD
  5
12F
330
1
100
AcDbSymbolTableRecord
100
AcDbBlockTableRecord
  2
block 43
340
0
102
{BLKREFS
331
130
102
}
  0
BLOCK_RECORD
  5
137
330
1
100
AcDbSymbolTableRecord
100
AcDbBlockTableRecord
  2
block 44
340
0
102
{BLKREFS
331
138
102
}
  0
BLOCK_RECORD
  5
13B
330
1
100
AcDbSymbolTableRecord
100
AcDbBlockTableRecord
  2
block 45
340
0
102
{BLKREFS
331
13C
102
}
  0
BLOCK_RECORD
  5
143
330
1
100
AcDbSymbolTableRecord
100
AcDbBlockTableRecord
  2
block 46
340
0
102
{BLKREFS
331
144
102
}
  0
BLOCK_RECORD
  5
14B
330
1
100
AcDbSymbolTableRecord
100
AcDbBlockTableRecord
  2
block 47
340
0
102
{BLKREFS
331
14C
102
}
  0
BLOCK_RECORD
  5
153
330
1
100
AcDbSymbolTableRecord
100
AcDbBlockTableRecord
  2
block 48
340
0
102
{BLKREFS
331
154
102
}
  0
BLOCK_RECORD
  5
15B
330
1
100
AcDbSymbolTableRecord
100
AcDbBlockTableRecord
  2
block 49
340
0
102
{BLKREFS
331
15C
102
}
  0
BLOCK_RECORD
  5
166
330
1
100
AcDbSymbolTableRecord
100
AcDbBlockTableRecord
  2
block 50
340
0
102
{BLKREFS
331
167
102
}
  0
BLOCK_RECORD
  5
171
330
1
100
AcDbSymbolTableRecord
100
AcDbBlockTableRecord
  2
block 51
340
0
102
{BLKREFS
331
172
102
}
  0
BLOCK_RECORD
  5
176
330
1
100
AcDbSymbolTableRecord
100
AcDbBlockTableRecord
  2
block 52
340
0
102
{BLKREFS
331
177
102
}
  0
BLOCK_RECORD
  5
17E
330
1
100
AcDbSymbolTableRecord
100
AcDbBlockTableRecord
  2
block 53
340
0
102
{BLKREFS
331
17F
102
}
  0
BLOCK_RECORD
  5
186
330
1
100
AcDbSymbolTableRecord
100
AcDbBlockTableRecord
  2
block 54
340
0
102
{BLKREFS
331
187
102
}
  0
BLOCK_RECORD
  5
18E
330
1
100
AcDbSymbolTableRecord
100
AcDbBlockTableRecord
  2
block 55
340
0
102
{BLKREFS
331
18F
102
}
  0
BLOCK_RECORD
  5
192
330
1
100
AcDbSymbolTableRecord
100
AcDbBlockTableRecord
  2
block 56
340
0
102
{BLKREFS
331
193
102
}
  0
BLOCK_RECORD
  5
19A
330
1
100
AcDbSymbolTableRecord
100
AcDbBlockTableRecord
  2
block 57
340
0
102
{BLKREFS
331
19B
102
}
  0
BLOCK_RECORD
  5
1A2
330
1
100
AcDbSymbolTableRecord
100
AcDbBlockTableRecord
  2
block 58
340
0
102
{BLKREFS
331
1A3
102
}
  0
BLOCK_RECORD
  5
1AA
330
1
100
AcDbSymbolTableRecord
100
AcDbBlockTableRecord
  2
block 59
340
0
102
{BLKREFS
331
1AB
102
}
  0
BLOCK_RECORD
  5
1B2
330
1
100
AcDbSymbolTableRecord
100
AcDbBlockTableRecord
  2
block 60
340
0
102
{BLKREFS
331
1B3
102
}
  0
BLOCK_RECORD
  5
1BD
330
1
100
AcDbSymbolTableRecord
100
AcDbBlockTableRecord
  2
block 61
340
0
102
{BLKREFS
331
1BE
102
}
  0
BLOCK_RECORD
  5
1C8
330
1
100
AcDbSymbolTableRecord
100
AcDbBlockTableRecord
  2
block 62
340
0
102
{BLKREFS
331
1C9
102
}
  0
BLOCK_RECORD
  5
1CD
330
1
100
AcDbSymbolTableRecord
100
AcDbBlockTableRecord
  2
block 63
340
0
102
{BLKREFS
331
1CE
102
}
  0
BLOCK_RECORD
  5
1D5
330
1
100
AcDbSymbolTableRecord
100
AcDbBlockTableRecord
  2
block 64
340
0
102
{BLKREFS
331
1D6
102
}
  0
BLOCK_RECORD
  5
1DD
330
1
100
AcDbSymbolTableRecord
100
AcDbBlockTableRecord
  2
block 65
340
0
102
{BLKREFS
331
1DE
102
}
  0
BLOCK_RECORD
  5
1E5
330
1
100
AcDbSymbolTableRecord
100
AcDbBlockTableRecord
  2
block 66
340
0
102
{BLKREFS
331
1E6
102
}
  0
BLOCK_RECORD
  5
1E9
330
1
100
AcDbSymbolTableRecord
100
AcDbBlockTableRecord
  2
block 67
340
0
102
{BLKREFS
331
1EA
102
}
  0
BLOCK_RECORD
  5
1F1
330
1
100
AcDbSymbolTableRecord
100
AcDbBlockTableRecord
  2
block 68
340
0
102
{BLKREFS
331
1F2
102
}
  0
BLOCK_RECORD
  5
1F9
330
1
100
AcDbSymbolTableRecord
100
AcDbBlockTableRecord
  2
block 69
340
0
102
{BLKREFS
331
1FA
102
}
  0
BLOCK_RECORD
  5
201
330
1
100
AcDbSymbolTableRecord
100
AcDbBlockTableRecord
  2
block 70
340
0
102
{BLKREFS
331
202
102
}
  0
BLOCK_RECORD
  5
209
330
1
100
AcDbSymbolTableRecord
100
AcDbBlockTableRecord
  2
block 71
340
0
102
{BLKREFS
331
20A
102
}
  0
BLOCK_RECORD
  5
214
330
1
100
AcDbSymbolTableRecord
100
AcDbBlockTableRecord
  2
block 72
340
0
102
{BLKREFS
331
215
102
}
  0
BLOCK_RECORD
  5
21F
330
1
100
AcDbSymbolTableRecord
100
AcDbBlockTableRecord
  2
block 73
340
0
102
{BLKREFS
331
220
102
}
  0
BLOCK_RECORD
  5
224
330
1
100
AcDbSymbolTableRecord
100
AcDbBlockTableRecord
  2
block 74
340
0
102
{BLKREFS
331
225
102
}
  0
BLOCK_RECORD
  5
22C
330
1
100
AcDbSymbolTableRecord
100
AcDbBlockTableRecord
  2
block 75
340
0
102
{BLKREFS
331
22D
102
}
  0
BLOCK_RECORD
  5
234
330
1
100
AcDbSymbolTableRecord
100
AcDbBlockTableRecord
  2
block 76
340
0
102
{BLKREFS
331
235
102
}
  0
BLOCK_RECORD
  5
241
330
1
100
AcDbSymbolTableRecord
100
AcDbBlockTableRecord
  2
block 77
340
0
102
{BLKREFS
331
242
102
}
  0
BLOCK_RECORD
  5
247
330
1
100
AcDbSymbolTableRecord
100
AcDbBlockTableRecord
  2
block 78
340
0
102
{BLKREFS
331
248
102
}
  0
BLOCK_RECORD
  5
24F
330
1
100
AcDbSymbolTableRecord
100
AcDbBlockTableRecord
  2
block 79
340
0
102
{BLKREFS
331
250
102
}
  0
BLOCK_RECORD
  5
256
330
1
100
AcDbSymbolTableRecord
100
AcDbBlockTableRecord
  2
block 80
340
0
102
{BLKREFS
331
257
102
}
  0
BLOCK_RECORD
  5
25B
330
1
100
AcDbSymbolTableRecord
100
AcDbBlockTableRecord
  2
block 81
340
0
102
{BLKREFS
331
25C
102
}
  0
BLOCK_RECORD
  5
260
330
1
100
AcDbSymbolTableRecord
100
AcDbBlockTableRecord
  2
block 82
340
0
102
{BLKREFS
331
261
102
}
  0
BLOCK_RECORD
  5
265
330
1
100
AcDbSymbolTableRecord
100
AcDbBlockTableRecord
  2
block 83
340
0
102
{BLKREFS
331
266
102
}
  0
BLOCK_RECORD
  5
26B
330
1
100
AcDbSymbolTableRecord
100
AcDbBlockTableRecord
  2
block 84
340
0
102
{BLKREFS
331
26C
102
}
  0
ENDTAB
  0
ENDSEC
  0
SECTION
  2
BLOCKS
  0
BLOCK
  5
20
330
1F
100
AcDbEntity
  8
0
100
AcDbBlockBegin
  2
*Model_Space
 70
     0
 71
     0
 10
0.0
 20
0.0
 30
0.0
  3
*Model_Space
  1

  0
ENDBLK
  5
21
330
1F
100
AcDbEntity
  8
0
100
AcDbBlockEnd
  0
BLOCK
  5
1C
330
1B
100
AcDbEntity
 67
     1
  8
0
100
AcDbBlockBegin
  2
*Paper_Space
 70
     0
 71
     0
 10
0.0
 20
0.0
 30
0.0
  3
*Paper_Space
  1

  0
ENDBLK
  5
1D
330
1B
100
AcDbEntity
 67
     1
  8
0
100
AcDbBlockEnd
  0
BLOCK
  5
24
330
23
100
AcDbEntity
  8
0
100
AcDbBlockBegin
  2
*Paper_Space0
 70
     0
 71
     0
 10
0.0
 20
0.0
 30
0.0
  3
*Paper_Space0
  1

  0
ENDBLK
  5
25
330
23
100
AcDbEntity
  8
0
100
AcDbBlockEnd
  0
BLOCK
  5
3D
330
3B
100
AcDbEntity
  8
0
100
AcDbBlockBegin
  2
block 2
 70
     0
 71
     0
 10
0.0
 20
0.0
 30
0.0
  3
block 2
  1

  0
SPLINE
  5
3F
330
3B
100
AcDbEntity
  8
0
 62
     7
370
     9
100
AcDbSpline
210
0.0
220
0.0
230
1.0
 70
     8
 71
     3
 72
     8
 73
     4
 74
     0
 42
0.0000000001
 43
0.0000000001
 40
0.0
 40
0.0
 40
0.0
 40
0.0
 40
1.0
 40
1.0
 40
1.0
 40
1.0
 10
87.97728919017975
 20
123.2549179768195
 30
0.0
 10
87.99744301206381
 20
123.3668836539533
 30
0.0
 10
88.01363497152623
 20
123.5780681465163
 30
0.0
 10
88.01122340309567
 20
123.7010581364756
 30
0.0
  0
ENDBLK
  5
3E
330
3B
100
AcDbEntity
  8
0
100
AcDbBlockEnd
  0
BLOCK
  5
42
330
40
100
AcDbEntity
  8
0
100
AcDbBlockBegin
  2
block 3
 70
     0
 71
     0
 10
0.0
 20
0.0
 30
0.0
  3
block 3
  1

  0
SPLINE
  5
44
330
40
100
AcDbEntity
  8
0
 62
     7
370
     9
100
AcDbSpline
210
0.0
220
0.0
230
1.0
 70
     8
 71
     3
 72
    14
 73
    10
 74
     0
 42
0.0000000001
 43
0.0000000001
 40
0.0
 40
0.0
 40
0.0
 40
0.0
 40
1.0
 40
1.0
 40
1.0
 40
2.0
 40
2.0
 40
2.0
 40
3.0
 40
3.0
 40
3.0
 40
3.0
 10
106.5529117913334
 20
143.4686845618839
 30
0.0
 10
95.63556925124068
 20
143.4686845618839
 30
0.0
 10
86.78528536592499
 20
134.6185729314562
 30
0.0
 10
86.78528536592499
 20
123.7010581364756
 30
0.0
 10
86.78528536592499
 20
112.7838878512708
 30
0.0
 10
95.63556925124068
 20
103.9334317110672
 30
0.0
 10
106.5529117913334
 20
103.9334317110672
 30
0.0
 10
106.5529117913334
 20
103.9334317110672
 30
0.0
 10
106.5529117913334
 20
103.9334317110672
 30
0.0
 10
106.5529117913334
 20
103.9334317110672
 30
0.0
  0
ENDBLK
  5
43
330
40
100
AcDbEntity
  8
0
100
AcDbBlockEnd
  0
BLOCK
  5
47
330
45
100
AcDbEntity
  8
0
100
AcDbBlockBegin
  2
block 4
 70
     0
 71
     0
 10
0.0
 20
0.0
 30
0.0
  3
block 4
  1

  0
SPLINE
  5
49
330
45
100
AcDbEntity
  8
0
 62
     7
370
     9
100
AcDbSpline
210
0.0
220
0.0
230
1.0
 70
     8
 71
     3
 72
    14
 73
    10
 74
     0
 42
0.0000000001
 43
0.0000000001
 40
0.0
 40
0.0
 40
0.0
 40
0.0
 40
1.0
 40
1.0
 40
1.0
 40
2.0
 40
2.0
 40
2.0
 40
3.0
 40
3.0
 40
3.0
 40
3.0
 10
106.5529117913334
 20
128.1448897344704
 30
0.0
 10
104.0986241485615
 20
128.1448897344704
 30
0.0
 10
102.1090801933386
 20
126.1553457792475
 30
0.0
 10
102.1090801933386
 20
123.7010581364756
 30
0.0
 10
102.1090801933386
 20
121.2467704937037
 30
0.0
 10
104.0986241485615
 20
119.2572265384808
 30
0.0
 10
106.5529117913334
 20
119.2572265384808
 30
0.0
 10
106.5529117913334
 20
119.2572265384808
 30
0.0
 10
106.5529117913334
 20
119.2572265384808
 30
0.0
 10
106.5529117913334
 20
119.2572265384808
 30
0.0
  0
ENDBLK
  5
48
330
45
100
AcDbEntity
  8
0
100
AcDbBlockEnd
  0
BLOCK
  5
4C
330
4A
100
AcDbEntity
  8
0
100
AcDbBlockBegin
  2
block 5
 70
     0
 71
     0
 10
0.0
 20
0.0
 30
0.0
  3
block 5
  1

  0
POLYLINE
  5
4E
330
4A
100
AcDbEntity
  8
0
 62
     7
370
     9
100
AcDb2dPolyline
 66
     1
 10
0.0
 20
0.0
 30
0.0
  0
VERTEX
  5
4F
330
4E
100
AcDbEntity
  8
0
 62
     7
370
     9
100
AcDbVertex
100
AcDb2dVertex
 10
110.7797022305766
 20
182.1435242476498
 30
0.0
  0
VERTEX
  5
50
330
4E
100
AcDbEntity
  8
0
 62
     7
370
     9
100
AcDbVertex
100
AcDb2dVertex
 10
102.3261213520902
 20
182.1435242476498
 30
0.0
  0
SEQEND
  5
51
330
4E
100
AcDbEntity
  8
0
370
     9
  0
ENDBLK
  5
4D
330
4A
100
AcDbEntity
  8
0
100
AcDbBlockEnd
  0
BLOCK
  5
54
330
52
100
AcDbEntity
  8
0
100
AcDbBlockBegin
  2
block 6
 70
     0
 71
     0
 10
0.0
 20
0.0
 30
0.0
  3
block 6
  1

  0
POLYLINE
  5
56
330
52
100
AcDbEntity
  8
0
 62
     7
370
     9
100
AcDb2dPolyline
 66
     1
 10
0.0
 20
0.0
 30
0.0
  0
VERTEX
  5
57
330
56
100
AcDbEntity
  8
0
 62
     7
370
     9
100
AcDbVertex
100
AcDb2dVertex
 10
110.4958261753205
 20
178.3339351468957
 30
0.0
  0
VERTEX
  5
58
330
56
100
AcDbEntity
  8
0
 62
     7
370
     9
100
AcDbVertex
100
AcDb2dVertex
 10
102.6101696622341
 20
178.3339351468957
 30
0.0
  0
SEQEND
  5
59
330
56
100
AcDbEntity
  8
0
370
     9
  0
ENDBLK
  5
55
330
52
100
AcDbEntity
  8
0
100
AcDbBlockEnd
  0
BLOCK
  5
5C
330
5A
100
AcDbEntity
  8
0
100
AcDbBlockBegin
  2
block 7
 70
     0
 71
     0
 10
0.0
 20
0.0
 30
0.0
  3
block 7
  1

  0
SPLINE
  5
5E
330
5A
100
AcDbEntity
  8
0
 62
     7
370
     9
100
AcDbSpline
210
0.0
220
0.0
230
1.0
 70
     8
 71
     3
 72
     8
 73
     4
 74
     0
 42
0.0000000001
 43
0.0000000001
 40
0.0
 40
0.0
 40
0.0
 40
0.0
 40
1.0
 40
1.0
 40
1.0
 40
1.0
 10
87.97728919017975
 20
124.1475428059074
 30
0.0
 10
87.99744301206381
 20
124.0352326189979
 30
0.0
 10
88.01363497152623
 20
123.8243926362106
 30
0.0
 10
88.01122340309567
 20
123.7010581364756
 30
0.0
  0
ENDBLK
  5
5D
330
5A
100
AcDbEntity
  8
0
100
AcDbBlockEnd
  0
BLOCK
  5
61
330
5F
100
AcDbEntity
  8
0
100
AcDbBlockBegin
  2
block 8
 70
     0
 71
     0
 10
0.0
 20
0.0
 30
0.0
  3
block 8
  1

  0
SPLINE
  5
63
330
5F
100
AcDbEntity
  8
0
 62
     7
370
     9
100
AcDbSpline
210
0.0
220
0.0
230
1.0
 70
     8
 71
     3
 72
    14
 73
    10
 74
     0
 42
0.0000000001
 43
0.0000000001
 40
0.0
 40
0.0
 40
0.0
 40
0.0
 40
1.0
 40
1.0
 40
1.0
 40
2.0
 40
2.0
 40
2.0
 40
3.0
 40
3.0
 40
3.0
 40
3.0
 10
106.5529117913334
 20
103.9334317110672
 30
0.0
 10
117.4700820765382
 20
103.9334317110672
 30
0.0
 10
126.3205382167417
 20
112.7838878512708
 30
0.0
 10
126.3205382167417
 20
123.7010581364756
 30
0.0
 10
126.3205382167417
 20
134.6185729314562
 30
0.0
 10
117.4700820765382
 20
143.4686845618839
 30
0.0
 10
106.5529117913334
 20
143.4686845618839
 30
0.0
 10
106.5529117913334
 20
143.4686845618839
 30
0.0
 10
106.5529117913334
 20
143.4686845618839
 30
0.0
 10
106.5529117913334
 20
143.4686845618839
 30
0.0
  0
ENDBLK
  5
62
330
5F
100
AcDbEntity
  8
0
100
AcDbBlockEnd
  0
BLOCK
  5
66
330
64
100
AcDbEntity
  8
0
100
AcDbBlockBegin
  2
block 9
 70
     0
 71
     0
 10
0.0
 20
0.0
 30
0.0
  3
block 9
  1

  0
SPLINE
  5
68
330
64
100
AcDbEntity
  8
0
 62
     7
370
     9
100
AcDbSpline
210
0.0
220
0.0
230
1.0
 70
     8
 71
     3
 72
    14
 73
    10
 74
     0
 42
0.0000000001
 43
0.0000000001
 40
0.0
 40
0.0
 40
0.0
 40
0.0
 40
1.0
 40
1.0
 40
1.0
 40
2.0
 40
2.0
 40
2.0
 40
3.0
 40
3.0
 40
3.0
 40
3.0
 10
106.5529117913334
 20
119.2572265384808
 30
0.0
 10
109.0071994341053
 20
119.2572265384808
 30
0.0
 10
110.9967433893281
 20
121.2467704937037
 30
0.0
 10
110.9967433893281
 20
123.7010581364756
 30
0.0
 10
110.9967433893281
 20
126.1553457792475
 30
0.0
 10
109.0071994341053
 20
128.1448897344704
 30
0.0
 10
106.5529117913334
 20
128.1448897344704
 30
0.0
 10
106.5529117913334
 20
128.1448897344704
 30
0.0
 10
106.5529117913334
 20
128.1448897344704
 30
0.0
 10
106.5529117913334
 20
128.1448897344704
 30
0.0
  0
ENDBLK
  5
67
330
64
100
AcDbEntity
  8
0
100
AcDbBlockEnd
  0
BLOCK
  5
6C
330
6A
100
AcDbEntity
  8
0
100
AcDbBlockBegin
  2
block 10
 70
     0
 71
     0
 10
0.0
 20
0.0
 30
0.0
  3
block 10
  1

  0
SPLINE
  5
6E
330
6A
100
AcDbEntity
  8
PIEZA
 62
     7
370
     9
100
AcDbSpline
210
0.0
220
0.0
230
1.0
 70
     8
 71
     3
 72
    14
 73
    10
 74
     0
 42
0.0000000001
 43
0.0000000001
 40
0.0
 40
0.0
 40
0.0
 40
0.0
 40
1.0
 40
1.0
 40
1.0
 40
2.0
 40
2.0
 40
2.0
 40
3.0
 40
3.0
 40
3.0
 40
3.0
 10
87.94318272237592
 20
123.7010581364756
 30
0.0
 10
87.94318272237592
 20
123.0378768180679
 30
0.0
 10
88.15677878336955
 20
122.5000970580501
 30
0.0
 10
88.42050101674151
 20
122.5000970580501
 30
0.0
 10
88.68405099522558
 20
122.5000970580501
 30
0.0
 10
88.8978193111071
 20
123.0378768180679
 30
0.0
 10
88.8978193111071
 20
123.7010581364756
 30
0.0
 10
88.8978193111071
 20
123.7010581364756
 30
0.0
 10
88.8978193111071
 20
123.7010581364756
 30
0.0
 10
88.8978193111071
 20
123.7010581364756
 30
0.0
  0
ENDBLK
  5
6D
330
6A
100
AcDbEntity
  8
0
100
AcDbBlockEnd
  0
BLOCK
  5
71
330
6F
100
AcDbEntity
  8
0
100
AcDbBlockBegin
  2
block 11
 70
     0
 71
     0
 10
0.0
 20
0.0
 30
0.0
  3
block 11
  1

  0
SPLINE
  5
73
330
6F
100
AcDbEntity
  8
PIEZA
 62
     7
370
     9
100
AcDbSpline
210
0.0
220
0.0
230
1.0
 70
    11
 71
     3
 72
    23
 73
    19
 74
     0
 42
0.0000000001
 43
0.0000000001
 40
0.0
 40
0.0
 40
0.0
 40
0.0
 40
1.0
 40
1.0
 40
1.0
 40
2.0
 40
2.0
 40
2.0
 40
3.0
 40
3.0
 40
3.0
 40
4.0
 40
4.0
 40
4.0
 40
5.0
 40
5.0
 40
5.0
 40
6.0
 40
6.0
 40
6.0
 40
6.0
 10
130.5790235553582
 20
123.7010581364756
 30
0.0
 10
130.5790235553582
 20
136.9701966610408
 30
0.0
 10
119.8220503158986
 20
147.7271699005004
 30
0.0
 10
106.5529117913334
 20
147.7271699005004
 30
0.0
 10
93.28360101188024
 20
147.7271699005004
 30
0.0
 10
82.52680002730855
 20
136.9701966610408
 30
0.0
 10
82.52680002730855
 20
123.7010581364756
 30
0.0
 10
82.52680002730855
 20
110.4319196119103
 30
0.0
 10
93.28360101188024
 20
99.67494637245076
 30
0.0
 10
106.5529117913334
 20
99.67494637245076
 30
0.0
 10
119.8220503158986
 20
99.67494637245076
 30
0.0
 10
130.5790235553582
 20
110.4319196119103
 30
0.0
 10
130.5790235553582
 20
123.7010581364756
 30
0.0
 10
130.5790235553582
 20
123.7010581364756
 30
0.0
 10
130.5790235553582
 20
123.7010581364756
 30
0.0
 10
130.5790235553582
 20
123.7010581364756
 30
0.0
 10
130.5790235553582
 20
123.7010581364756
 30
0.0
 10
130.5790235553582
 20
123.7010581364756
 30
0.0
 10
130.5790235553582
 20
123.7010581364756
 30
0.0
  0
ENDBLK
  5
72
330
6F
100
AcDbEntity
  8
0
100
AcDbBlockEnd
  0
BLOCK
  5
76
330
74
100
AcDbEntity
  8
0
100
AcDbBlockBegin
  2
block 12
 70
     0
 71
     0
 10
0.0
 20
0.0
 30
0.0
  3
block 12
  1

  0
SPLINE
  5
78
330
74
100
AcDbEntity
  8
PIEZA
 62
     7
370
     9
100
AcDbSpline
210
0.0
220
0.0
230
1.0
 70
    11
 71
     3
 72
    23
 73
    19
 74
     0
 42
0.0000000001
 43
0.0000000001
 40
0.0
 40
0.0
 40
0.0
 40
0.0
 40
1.0
 40
1.0
 40
1.0
 40
2.0
 40
2.0
 40
2.0
 40
3.0
 40
3.0
 40
3.0
 40
4.0
 40
4.0
 40
4.0
 40
5.0
 40
5.0
 40
5.0
 40
6.0
 40
6.0
 40
6.0
 40
6.0
 10
109.315191173667
 20
123.7010581364756
 30
0.0
 10
109.315191173667
 20
125.226547423701
 30
0.0
 10
108.0784010785588
 20
126.4633375188093
 30
0.0
 10
106.5529117913334
 20
126.4633375188093
 30
0.0
 10
105.02725024922
 20
126.4633375188093
 30
0.0
 10
103.7906324089997
 20
125.226547423701
 30
0.0
 10
103.7906324089997
 20
123.7010581364756
 30
0.0
 10
103.7906324089997
 20
122.1755688492501
 30
0.0
 10
105.02725024922
 20
120.9387787541419
 30
0.0
 10
106.5529117913334
 20
120.9387787541419
 30
0.0
 10
108.0784010785588
 20
120.9387787541419
 30
0.0
 10
109.315191173667
 20
122.1755688492501
 30
0.0
 10
109.315191173667
 20
123.7010581364756
 30
0.0
 10
109.315191173667
 20
123.7010581364756
 30
0.0
 10
109.315191173667
 20
123.7010581364756
 30
0.0
 10
109.315191173667
 20
123.7010581364756
 30
0.0
 10
109.315191173667
 20
123.7010581364756
 30
0.0
 10
109.315191173667
 20
123.7010581364756
 30
0.0
 10
109.315191173667
 20
123.7010581364756
 30
0.0
  0
ENDBLK
  5
77
330
74
100
AcDbEntity
  8
0
100
AcDbBlockEnd
  0
BLOCK
  5
7B
330
79
100
AcDbEntity
  8
0
100
AcDbBlockBegin
  2
block 13
 70
     0
 71
     0
 10
0.0
 20
0.0
 30
0.0
  3
block 13
  1

  0
SPLINE
  5
7D
330
79
100
AcDbEntity
  8
PIEZA
 62
     7
370
     9
100
AcDbSpline
210
0.0
220
0.0
230
1.0
 70
     8
 71
     3
 72
     8
 73
     4
 74
     0
 42
0.0000000001
 43
0.0000000001
 40
0.0
 40
0.0
 40
0.0
 40
0.0
 40
1.0
 40
1.0
 40
1.0
 40
1.0
 10
102.2399939081411
 20
178.0622891886804
 30
0.0
 10
102.2541188089488
 20
177.8781487135174
 30
0.0
 10
102.414315854694
 20
177.7313875490282
 30
0.0
 10
102.5989730945207
 20
177.733454607683
 30
0.0
  0
ENDBLK
  5
7C
330
79
100
AcDbEntity
  8
0
100
AcDbBlockEnd
  0
BLOCK
  5
80
330
7E
100
AcDbEntity
  8
0
100
AcDbBlockBegin
  2
block 14
 70
     0
 71
     0
 10
0.0
 20
0.0
 30
0.0
  3
block 14
  1

  0
POLYLINE
  5
82
330
7E
100
AcDbEntity
  8
PIEZA
 62
     7
370
     9
100
AcDb2dPolyline
 66
     1
 10
0.0
 20
0.0
 30
0.0
  0
VERTEX
  5
83
330
82
100
AcDbEntity
  8
PIEZA
 62
     7
370
     9
100
AcDbVertex
100
AcDb2dVertex
 10
84.03609735507158
 20
201.7607721559231
 30
0.0
  0
VERTEX
  5
84
330
82
100
AcDbEntity
  8
PIEZA
 62
     7
370
     9
100
AcDbVertex
100
AcDb2dVertex
 10
129.0318301522576
 20
201.7607721559231
 30
0.0
  0
SEQEND
  5
85
330
82
100
AcDbEntity
  8
PIEZA
370
     9
  0
ENDBLK
  5
81
330
7E
100
AcDbEntity
  8
0
100
AcDbBlockEnd
  0
BLOCK
  5
88
330
86
100
AcDbEntity
  8
0
100
AcDbBlockBegin
  2
block 15
 70
     0
 71
     0
 10
0.0
 20
0.0
 30
0.0
  3
block 15
  1

  0
SPLINE
  5
8A
330
86
100
AcDbEntity
  8
PIEZA
 62
     7
370
     9
100
AcDbSpline
210
0.0
220
0.0
230
1.0
 70
     8
 71
     3
 72
     8
 73
     4
 74
     0
 42
0.0000000001
 43
0.0000000001
 40
0.0
 40
0.0
 40
0.0
 40
0.0
 40
1.0
 40
1.0
 40
1.0
 40
1.0
 10
87.08707592952244
 20
193.9982778876838
 30
0.0
 10
89.4102776026039
 20
188.7844669407846
 30
0.0
 10
95.93374246219226
 20
183.4345746324459
 30
0.0
 10
101.501537203722
 20
182.1771139507899
 30
0.0
  0
ENDBLK
  5
89
330
86
100
AcDbEntity
  8
0
100
AcDbBlockEnd
  0
BLOCK
  5
8D
330
8B
100
AcDbEntity
  8
0
100
AcDbBlockBegin
  2
block 16
 70
     0
 71
     0
 10
0.0
 20
0.0
 30
0.0
  3
block 16
  1

  0
SPLINE
  5
8F
330
8B
100
AcDbEntity
  8
PIEZA
 62
     7
370
     9
100
AcDbSpline
210
0.0
220
0.0
230
1.0
 70
     8
 71
     3
 72
     8
 73
     4
 74
     0
 42
0.0000000001
 43
0.0000000001
 40
0.0
 40
0.0
 40
0.0
 40
0.0
 40
1.0
 40
1.0
 40
1.0
 40
1.0
 10
85.05464050721294
 20
199.8199763339754
 30
0.0
 10
85.41706479135051
 20
198.2719216564353
 30
0.0
 10
86.4073581418766
 20
195.4355726723055
 30
0.0
 10
87.08707592952244
 20
193.9982778876838
 30
0.0
  0
ENDBLK
  5
8E
330
8B
100
AcDbEntity
  8
0
100
AcDbBlockEnd
  0
BLOCK
  5
92
330
90
100
AcDbEntity
  8
0
100
AcDbBlockBegin
  2
block 17
 70
     0
 71
     0
 10
0.0
 20
0.0
 30
0.0
  3
block 17
  1

  0
SPLINE
  5
94
330
90
100
AcDbEntity
  8
PIEZA
 62
     7
370
     9
100
AcDbSpline
210
0.0
220
0.0
230
1.0
 70
     8
 71
     3
 72
     8
 73
     4
 74
     0
 42
0.0000000001
 43
0.0000000001
 40
0.0
 40
0.0
 40
0.0
 40
0.0
 40
1.0
 40
1.0
 40
1.0
 40
1.0
 10
84.48912771024354
 20
201.7607721559231
 30
0.0
 10
83.85471295811489
 20
201.7972901921575
 30
0.0
 10
83.02358312400663
 20
201.4083386552836
 30
0.0
 10
82.64496688040664
 20
200.8977751675537
 30
0.0
  0
ENDBLK
  5
93
330
90
100
AcDbEntity
  8
0
100
AcDbBlockEnd
  0
BLOCK
  5
97
330
95
100
AcDbEntity
  8
0
100
AcDbBlockBegin
  2
block 18
 70
     0
 71
     0
 10
0.0
 20
0.0
 30
0.0
  3
block 18
  1

  0
SPLINE
  5
99
330
95
100
AcDbEntity
  8
PIEZA
 62
     7
370
     9
100
AcDbSpline
210
0.0
220
0.0
230
1.0
 70
     8
 71
     3
 72
    11
 73
     7
 74
     0
 42
0.0000000001
 43
0.0000000001
 40
0.0
 40
0.0
 40
0.0
 40
0.0
 40
1.0
 40
1.0
 40
1.0
 40
2.0
 40
2.0
 40
2.0
 40
2.0
 10
82.64496688040664
 20
200.8977751675537
 30
0.0
 10
82.46496052255314
 20
200.6821120479053
 30
0.0
 10
82.49389934372002
 20
200.3610289368633
 30
0.0
 10
82.70956246336841
 20
200.1810225790098
 30
0.0
 10
82.78432108471618
 20
200.1107425847474
 30
0.0
 10
82.93332156274803
 20
200.0566545499474
 30
0.0
 10
83.03581322104739
 20
200.0626834710238
 30
0.0
  0
ENDBLK
  5
98
330
95
100
AcDbEntity
  8
0
100
AcDbBlockEnd
  0
BLOCK
  5
9C
330
9A
100
AcDbEntity
  8
0
100
AcDbBlockBegin
  2
block 19
 70
     0
 71
     0
 10
0.0
 20
0.0
 30
0.0
  3
block 19
  1

  0
SPLINE
  5
9E
330
9A
100
AcDbEntity
  8
PIEZA
 62
     7
370
     9
100
AcDbSpline
210
0.0
220
0.0
230
1.0
 70
     8
 71
     3
 72
     8
 73
     4
 74
     0
 42
0.0000000001
 43
0.0000000001
 40
0.0
 40
0.0
 40
0.0
 40
0.0
 40
1.0
 40
1.0
 40
1.0
 40
1.0
 10
85.05464050721294
 20
199.8199763339754
 30
0.0
 10
85.04843933124862
 20
199.8876725049193
 30
0.0
 10
85.0131270792295
 20
200.003255534699
 30
0.0
 10
84.98005414075307
 20
200.0626834710238
 30
0.0
  0
ENDBLK
  5
9D
330
9A
100
AcDbEntity
  8
0
100
AcDbBlockEnd
  0
BLOCK
  5
A1
330
9F
100
AcDbEntity
  8
0
100
AcDbBlockBegin
  2
block 20
 70
     0
 71
     0
 10
0.0
 20
0.0
 30
0.0
  3
block 20
  1

  0
POLYLINE
  5
A3
330
9F
100
AcDbEntity
  8
PIEZA
 62
     7
370
     9
100
AcDb2dPolyline
 66
     1
 10
0.0
 20
0.0
 30
0.0
  0
VERTEX
  5
A4
330
A3
100
AcDbEntity
  8
PIEZA
 62
     7
370
     9
100
AcDbVertex
100
AcDb2dVertex
 10
102.2399939081411
 20
178.0622891886804
 30
0.0
  0
VERTEX
  5
A5
330
A3
100
AcDbEntity
  8
PIEZA
 62
     7
370
     9
100
AcDbVertex
100
AcDb2dVertex
 10
101.925800992615
 20
181.6544926209071
 30
0.0
  0
SEQEND
  5
A6
330
A3
100
AcDbEntity
  8
PIEZA
370
     9
  0
ENDBLK
  5
A2
330
9F
100
AcDbEntity
  8
0
100
AcDbBlockEnd
  0
BLOCK
  5
A9
330
A7
100
AcDbEntity
  8
0
100
AcDbBlockBegin
  2
block 21
 70
     0
 71
     0
 10
0.0
 20
0.0
 30
0.0
  3
block 21
  1

  0
SPLINE
  5
AB
330
A7
100
AcDbEntity
  8
PIEZA
 62
     7
370
     9
100
AcDbSpline
210
0.0
220
0.0
230
1.0
 70
     8
 71
     3
 72
     8
 73
     4
 74
     0
 42
0.0000000001
 43
0.0000000001
 40
0.0
 40
0.0
 40
0.0
 40
0.0
 40
1.0
 40
1.0
 40
1.0
 40
1.0
 10
101.925800992615
 20
181.6544926209071
 30
0.0
 10
101.9144321700138
 20
181.8894482880001
 30
0.0
 10
101.7223679700074
 20
182.1226814062141
 30
0.0
 10
101.4941302435424
 20
182.1791810094446
 30
0.0
  0
ENDBLK
  5
AA
330
A7
100
AcDbEntity
  8
0
100
AcDbBlockEnd
  0
BLOCK
  5
AE
330
AC
100
AcDbEntity
  8
0
100
AcDbBlockBegin
  2
block 22
 70
     0
 71
     0
 10
0.0
 20
0.0
 30
0.0
  3
block 22
  1

  0
POLYLINE
  5
B0
330
AC
100
AcDbEntity
  8
PIEZA
 62
     7
370
     9
100
AcDb2dPolyline
 66
     1
 10
0.0
 20
0.0
 30
0.0
  0
VERTEX
  5
B1
330
B0
100
AcDbEntity
  8
PIEZA
 62
     7
370
     9
100
AcDbVertex
100
AcDb2dVertex
 10
130.0701826165073
 20
200.0626834710238
 30
0.0
  0
VERTEX
  5
B2
330
B0
100
AcDbEntity
  8
PIEZA
 62
     7
370
     9
100
AcDbVertex
100
AcDb2dVertex
 10
83.03581322104739
 20
200.0626834710238
 30
0.0
  0
SEQEND
  5
B3
330
B0
100
AcDbEntity
  8
PIEZA
370
     9
  0
ENDBLK
  5
AF
330
AC
100
AcDbEntity
  8
0
100
AcDbBlockEnd
  0
BLOCK
  5
B6
330
B4
100
AcDbEntity
  8
0
100
AcDbBlockBegin
  2
block 23
 70
     0
 71
     0
 10
0.0
 20
0.0
 30
0.0
  3
block 23
  1

  0
SPLINE
  5
B8
330
B4
100
AcDbEntity
  8
PIEZA
 62
     7
370
     9
100
AcDbSpline
210
0.0
220
0.0
230
1.0
 70
     8
 71
     3
 72
     8
 73
     4
 74
     0
 42
0.0000000001
 43
0.0000000001
 40
0.0
 40
0.0
 40
0.0
 40
0.0
 40
1.0
 40
1.0
 40
1.0
 40
1.0
 10
111.6044586338326
 20
182.1771139507899
 30
0.0
 10
117.1720811204745
 20
183.4345746324459
 30
0.0
 10
123.6957182349507
 20
188.7844669407846
 30
0.0
 10
126.0187476531443
 20
193.9982778876838
 30
0.0
  0
ENDBLK
  5
B7
330
B4
100
AcDbEntity
  8
0
100
AcDbBlockEnd
  0
BLOCK
  5
BB
330
B9
100
AcDbEntity
  8
0
100
AcDbBlockBegin
  2
block 24
 70
     0
 71
     0
 10
0.0
 20
0.0
 30
0.0
  3
block 24
  1

  0
POLYLINE
  5
BD
330
B9
100
AcDbEntity
  8
PIEZA
 62
     7
370
     9
100
AcDb2dPolyline
 66
     1
 10
0.0
 20
0.0
 30
0.0
  0
VERTEX
  5
BE
330
BD
100
AcDbEntity
  8
PIEZA
 62
     7
370
     9
100
AcDbVertex
100
AcDb2dVertex
 10
110.5071949979218
 20
177.733454607683
 30
0.0
  0
VERTEX
  5
BF
330
BD
100
AcDbEntity
  8
PIEZA
 62
     7
370
     9
100
AcDbVertex
100
AcDb2dVertex
 10
102.5986285847449
 20
177.733454607683
 30
0.0
  0
SEQEND
  5
C0
330
BD
100
AcDbEntity
  8
PIEZA
370
     9
  0
ENDBLK
  5
BC
330
B9
100
AcDbEntity
  8
0
100
AcDbBlockEnd
  0
BLOCK
  5
C3
330
C1
100
AcDbEntity
  8
0
100
AcDbBlockBegin
  2
block 25
 70
     0
 71
     0
 10
0.0
 20
0.0
 30
0.0
  3
block 25
  1

  0
POLYLINE
  5
C5
330
C1
100
AcDbEntity
  8
PIEZA
 62
     7
370
     9
100
AcDb2dPolyline
 66
     1
 10
0.0
 20
0.0
 30
0.0
  0
VERTEX
  5
C6
330
C5
100
AcDbEntity
  8
PIEZA
 62
     7
370
     9
100
AcDbVertex
100
AcDb2dVertex
 10
110.8658296745256
 20
178.0622891886804
 30
0.0
  0
VERTEX
  5
C7
330
C5
100
AcDbEntity
  8
PIEZA
 62
     7
370
     9
100
AcDbVertex
100
AcDb2dVertex
 10
111.1800225900517
 20
181.6544926209071
 30
0.0
  0
SEQEND
  5
C8
330
C5
100
AcDbEntity
  8
PIEZA
370
     9
  0
ENDBLK
  5
C4
330
C1
100
AcDbEntity
  8
0
100
AcDbBlockEnd
  0
BLOCK
  5
CB
330
C9
100
AcDbEntity
  8
0
100
AcDbBlockBegin
  2
block 26
 70
     0
 71
     0
 10
0.0
 20
0.0
 30
0.0
  3
block 26
  1

  0
SPLINE
  5
CD
330
C9
100
AcDbEntity
  8
PIEZA
 62
     7
370
     9
100
AcDbSpline
210
0.0
220
0.0
230
1.0
 70
     8
 71
     3
 72
     8
 73
     4
 74
     0
 42
0.0000000001
 43
0.0000000001
 40
0.0
 40
0.0
 40
0.0
 40
0.0
 40
1.0
 40
1.0
 40
1.0
 40
1.0
 10
110.506850488146
 20
177.733454607683
 30
0.0
 10
110.6915077279727
 20
177.7313875490282
 30
0.0
 10
110.851704773718
 20
177.8781487135174
 30
0.0
 10
110.8658296745256
 20
178.0622891886804
 30
0.0
  0
ENDBLK
  5
CC
330
C9
100
AcDbEntity
  8
0
100
AcDbBlockEnd
  0
BLOCK
  5
D0
330
CE
100
AcDbEntity
  8
0
100
AcDbBlockBegin
  2
block 27
 70
     0
 71
     0
 10
0.0
 20
0.0
 30
0.0
  3
block 27
  1

  0
SPLINE
  5
D2
330
CE
100
AcDbEntity
  8
PIEZA
 62
     7
370
     9
100
AcDbSpline
210
0.0
220
0.0
230
1.0
 70
     8
 71
     3
 72
     8
 73
     4
 74
     0
 42
0.0000000001
 43
0.0000000001
 40
0.0
 40
0.0
 40
0.0
 40
0.0
 40
1.0
 40
1.0
 40
1.0
 40
1.0
 10
111.6116933391243
 20
182.1791810094446
 30
0.0
 10
111.3832833577714
 20
182.1226814062141
 30
0.0
 10
111.191391412653
 20
181.8894482880001
 30
0.0
 10
111.1800225900517
 20
181.6544926209071
 30
0.0
  0
ENDBLK
  5
D1
330
CE
100
AcDbEntity
  8
0
100
AcDbBlockEnd
  0
BLOCK
  5
D5
330
D3
100
AcDbEntity
  8
0
100
AcDbBlockBegin
  2
block 28
 70
     0
 71
     0
 10
0.0
 20
0.0
 30
0.0
  3
block 28
  1

  0
SPLINE
  5
D7
330
D3
100
AcDbEntity
  8
PIEZA
 62
     7
370
     9
100
AcDbSpline
210
0.0
220
0.0
230
1.0
 70
     8
 71
     3
 72
     8
 73
     4
 74
     0
 42
0.0000000001
 43
0.0000000001
 40
0.0
 40
0.0
 40
0.0
 40
0.0
 40
1.0
 40
1.0
 40
1.0
 40
1.0
 10
126.0187476531443
 20
193.9982778876838
 30
0.0
 10
126.7284377912844
 20
195.4951728635182
 30
0.0
 10
127.7478422178653
 20
198.4471048774276
 30
0.0
 10
128.113367089985
 20
200.0626834710238
 30
0.0
  0
ENDBLK
  5
D6
330
D3
100
AcDbEntity
  8
0
100
AcDbBlockEnd
  0
BLOCK
  5
DA
330
D8
100
AcDbEntity
  8
0
100
AcDbBlockBegin
  2
block 29
 70
     0
 71
     0
 10
0.0
 20
0.0
 30
0.0
  3
block 29
  1

  0
SPLINE
  5
DC
330
D8
100
AcDbEntity
  8
PIEZA
 62
     7
370
     9
100
AcDbSpline
210
0.0
220
0.0
230
1.0
 70
     8
 71
     3
 72
     8
 73
     4
 74
     0
 42
0.0000000001
 43
0.0000000001
 40
0.0
 40
0.0
 40
0.0
 40
0.0
 40
1.0
 40
1.0
 40
1.0
 40
1.0
 10
130.4608567022601
 20
200.8977751675537
 30
0.0
 10
130.0822404586601
 20
201.4083386552836
 30
0.0
 10
129.2512828794397
 20
201.7972901921575
 30
0.0
 10
128.6166958724232
 20
201.7607721559231
 30
0.0
  0
ENDBLK
  5
DB
330
D8
100
AcDbEntity
  8
0
100
AcDbBlockEnd
  0
BLOCK
  5
DF
330
DD
100
AcDbEntity
  8
0
100
AcDbBlockBegin
  2
block 30
 70
     0
 71
     0
 10
0.0
 20
0.0
 30
0.0
  3
block 30
  1

  0
SPLINE
  5
E1
330
DD
100
AcDbEntity
  8
PIEZA
 62
     7
370
     9
100
AcDbSpline
210
0.0
220
0.0
230
1.0
 70
     8
 71
     3
 72
    11
 73
     7
 74
     0
 42
0.0000000001
 43
0.0000000001
 40
0.0
 40
0.0
 40
0.0
 40
0.0
 40
1.0
 40
1.0
 40
1.0
 40
2.0
 40
2.0
 40
2.0
 40
2.0
 10
130.0701826165073
 20
200.0626834710238
 30
0.0
 10
130.3513025935569
 20
200.0626834710238
 30
0.0
 10
130.5790235553582
 20
200.290576687713
 30
0.0
 10
130.5790235553582
 20
200.5716966647626
 30
0.0
 10
130.5852247313225
 20
200.674188323062
 30
0.0
 10
130.5311366965225
 20
200.8231888010938
 30
0.0
 10
130.4608567022601
 20
200.8977751675537
 30
0.0
  0
ENDBLK
  5
E0
330
DD
100
AcDbEntity
  8
0
100
AcDbBlockEnd
  0
BLOCK
  5
E4
330
E2
100
AcDbEntity
  8
0
100
AcDbBlockBegin
  2
block 31
 70
     0
 71
     0
 10
0.0
 20
0.0
 30
0.0
  3
block 31
  1

  0
SPLINE
  5
E6
330
E2
100
AcDbEntity
  8
PIEZA
 62
     7
370
     9
100
AcDbSpline
210
0.0
220
0.0
230
1.0
 70
     8
 71
     3
 72
    14
 73
    10
 74
     0
 42
0.0000000001
 43
0.0000000001
 40
0.0
 40
0.0
 40
0.0
 40
0.0
 40
1.0
 40
1.0
 40
1.0
 40
2.0
 40
2.0
 40
2.0
 40
3.0
 40
3.0
 40
3.0
 40
3.0
 10
87.94318272237592
 20
123.7010581364756
 30
0.0
 10
87.94318272237592
 20
123.7010581364756
 30
0.0
 10
87.94318272237592
 20
123.7010581364756
 30
0.0
 10
87.94318272237592
 20
123.7010581364756
 30
0.0
 10
87.94318272237592
 20
124.364583964659
 30
0.0
 10
88.15677878336955
 20
124.902019214901
 30
0.0
 10
88.42050101674151
 20
124.902019214901
 30
0.0
 10
88.68405099522558
 20
124.902019214901
 30
0.0
 10
88.8978193111071
 20
124.364583964659
 30
0.0
 10
88.8978193111071
 20
123.7010581364756
 30
0.0
  0
ENDBLK
  5
E5
330
E2
100
AcDbEntity
  8
0
100
AcDbBlockEnd
  0
BLOCK
  5
E9
330
E7
100
AcDbEntity
  8
0
100
AcDbBlockBegin
  2
block 32
 70
     0
 71
     0
 10
0.0
 20
0.0
 30
0.0
  3
block 32
  1

  0
POLYLINE
  5
EB
330
E7
100
AcDbEntity
  8
PIEZA
 62
     7
370
     9
100
AcDb2dPolyline
 66
     1
 10
0.0
 20
0.0
 30
0.0
  0
VERTEX
  5
EC
330
EB
100
AcDbEntity
  8
PIEZA
 62
     7
370
     9
100
AcDbVertex
100
AcDb2dVertex
 10
84.62107495437347
 20
200.0626834710238
 30
0.0
  0
VERTEX
  5
ED
330
EB
100
AcDbEntity
  8
PIEZA
 62
     7
370
     9
100
AcDbVertex
100
AcDb2dVertex
 10
85.02346237250339
 20
192.7375443631578
 30
0.0
  0
SEQEND
  5
EE
330
EB
100
AcDbEntity
  8
PIEZA
370
     9
  0
ENDBLK
  5
EA
330
E7
100
AcDbEntity
  8
0
100
AcDbBlockEnd
  0
BLOCK
  5
F1
330
EF
100
AcDbEntity
  8
0
100
AcDbBlockBegin
  2
block 33
 70
     0
 71
     0
 10
0.0
 20
0.0
 30
0.0
  3
block 33
  1

  0
SPLINE
  5
F3
330
EF
100
AcDbEntity
  8
PIEZA
 62
     7
370
     9
100
AcDbSpline
210
0.0
220
0.0
230
1.0
 70
     8
 71
     3
 72
     8
 73
     4
 74
     0
 42
0.0000000001
 43
0.0000000001
 40
0.0
 40
0.0
 40
0.0
 40
0.0
 40
1.0
 40
1.0
 40
1.0
 40
1.0
 10
91.0558285466943
 20
185.3610732986981
 30
0.0
 10
93.44276452829806
 20
183.0283976067822
 30
0.0
 10
98.4116290246062
 20
180.4118458596103
 30
0.0
 10
101.6856776788851
 20
179.7634784615619
 30
0.0
  0
ENDBLK
  5
F2
330
EF
100
AcDbEntity
  8
0
100
AcDbBlockEnd
  0
BLOCK
  5
F6
330
F4
100
AcDbEntity
  8
0
100
AcDbBlockBegin
  2
block 34
 70
     0
 71
     0
 10
0.0
 20
0.0
 30
0.0
  3
block 34
  1

  0
SPLINE
  5
F8
330
F4
100
AcDbEntity
  8
PIEZA
 62
     7
370
     9
100
AcDbSpline
210
0.0
220
0.0
230
1.0
 70
     8
 71
     3
 72
     8
 73
     4
 74
     0
 42
0.0000000001
 43
0.0000000001
 40
0.0
 40
0.0
 40
0.0
 40
0.0
 40
1.0
 40
1.0
 40
1.0
 40
1.0
 10
102.1366409754023
 20
179.2336224263874
 30
0.0
 10
102.1240663685857
 20
179.4766740732116
 30
0.0
 10
101.9235616790723
 20
179.7121465049683
 30
0.0
 10
101.6856776788851
 20
179.7634784615619
 30
0.0
  0
ENDBLK
  5
F7
330
F4
100
AcDbEntity
  8
0
100
AcDbBlockEnd
  0
BLOCK
  5
FB
330
F9
100
AcDbEntity
  8
0
100
AcDbBlockBegin
  2
block 35
 70
     0
 71
     0
 10
0.0
 20
0.0
 30
0.0
  3
block 35
  1

  0
SPLINE
  5
FD
330
F9
100
AcDbEntity
  8
PIEZA
 62
     7
370
     9
100
AcDbSpline
210
0.0
220
0.0
230
1.0
 70
     8
 71
     3
 72
     8
 73
     4
 74
     0
 42
0.0000000001
 43
0.0000000001
 40
0.0
 40
0.0
 40
0.0
 40
0.0
 40
1.0
 40
1.0
 40
1.0
 40
1.0
 10
85.02346237250339
 20
192.7375443631578
 30
0.0
 10
86.07249463980273
 20
190.3261481874725
 30
0.0
 10
88.90057538931347
 20
186.8679590580305
 30
0.0
 10
91.0558285466943
 20
185.3610732986981
 30
0.0
  0
ENDBLK
  5
FC
330
F9
100
AcDbEntity
  8
0
100
AcDbBlockEnd
  0
BLOCK
  5
100
330
FE
100
AcDbEntity
  8
0
100
AcDbBlockBegin
  2
block 36
 70
     0
 71
     0
 10
0.0
 20
0.0
 30
0.0
  3
block 36
  1

  0
SPLINE
  5
102
330
FE
100
AcDbEntity
  8
PIEZA
 62
     7
370
     9
100
AcDbSpline
210
0.0
220
0.0
230
1.0
 70
    11
 71
     3
 72
    20
 73
    16
 74
     0
 42
0.0000000001
 43
0.0000000001
 40
0.0
 40
0.0
 40
0.0
 40
0.0
 40
1.0
 40
1.0
 40
1.0
 40
2.0
 40
2.0
 40
2.0
 40
3.0
 40
3.0
 40
3.0
 40
4.0
 40
4.0
 40
4.0
 40
5.0
 40
5.0
 40
5.0
 40
5.0
 10
154.7153784476378
 20
69.69432764356496
 30
0.0
 10
155.0764246926722
 20
69.48589922920827
 30
0.0
 10
155.661402291974
 20
69.82351880948852
 30
0.0
 10
156.0224485370084
 20
70.44880405255857
 30
0.0
 10
156.383150272267
 20
71.07374478585282
 30
0.0
 10
156.383150272267
 20
71.7493284561891
 30
0.0
 10
156.0224485370084
 20
71.9577568705458
 30
0.0
 10
155.661402291974
 20
72.16618528490247
 30
0.0
 10
155.0764246926722
 20
71.82822119484642
 30
0.0
 10
154.7153784476378
 20
71.20328046155218
 30
0.0
 10
154.3546767123792
 20
70.57833972825793
 30
0.0
 10
154.3546767123792
 20
69.90241154814585
 30
0.0
 10
154.7153784476378
 20
69.69432764356496
 30
0.0
 10
154.7153784476378
 20
69.69432764356496
 30
0.0
 10
154.7153784476378
 20
69.69432764356496
 30
0.0
 10
154.7153784476378
 20
69.69432764356496
 30
0.0
  0
ENDBLK
  5
101
330
FE
100
AcDbEntity
  8
0
100
AcDbBlockEnd
  0
BLOCK
  5
105
330
103
100
AcDbEntity
  8
0
100
AcDbBlockBegin
  2
block 37
 70
     0
 71
     0
 10
0.0
 20
0.0
 30
0.0
  3
block 37
  1

  0
SPLINE
  5
107
330
103
100
AcDbEntity
  8
PIEZA
 62
     7
370
     9
100
AcDbSpline
210
0.0
220
0.0
230
1.0
 70
     8
 71
     3
 72
    11
 73
     7
 74
     0
 42
0.0000000001
 43
0.0000000001
 40
0.0
 40
0.0
 40
0.0
 40
0.0
 40
1.0
 40
1.0
 40
1.0
 40
2.0
 40
2.0
 40
2.0
 40
2.0
 10
171.9370776299125
 20
57.47180981786848
 30
0.0
 10
171.9157180238131
 20
58.69206344373851
 30
0.0
 10
170.1849009102131
 20
59.67081571677542
 30
0.0
 10
168.0713334357037
 20
59.65841336484677
 30
0.0
 10
166.525862581482
 20
59.68149551982511
 30
0.0
 10
164.9328493782006
 20
59.01590263298691
 30
0.0
 10
164.4880872576477
 20
58.16117387923661
 30
0.0
  0
ENDBLK
  5
106
330
103
100
AcDbEntity
  8
0
100
AcDbBlockEnd
  0
BLOCK
  5
10A
330
108
100
AcDbEntity
  8
0
100
AcDbBlockBegin
  2
block 38
 70
     0
 71
     0
 10
0.0
 20
0.0
 30
0.0
  3
block 38
  1

  0
SPLINE
  5
10C
330
108
100
AcDbEntity
  8
PIEZA
 62
     7
370
     9
100
AcDbSpline
210
0.0
220
0.0
230
1.0
 70
    11
 71
     3
 72
    20
 73
    16
 74
     0
 42
0.0000000001
 43
0.0000000001
 40
0.0
 40
0.0
 40
0.0
 40
0.0
 40
1.0
 40
1.0
 40
1.0
 40
2.0
 40
2.0
 40
2.0
 40
3.0
 40
3.0
 40
3.0
 40
4.0
 40
4.0
 40
4.0
 40
5.0
 40
5.0
 40
5.0
 40
5.0
 10
146.0640489578444
 20
68.81927281304269
 30
0.0
 10
146.0640489578444
 20
60.78254876326966
 30
0.0
 10
157.3481221542721
 20
54.26786890296411
 30
0.0
 10
171.2676951355405
 20
54.26786890296411
 30
0.0
 10
185.1872681168089
 20
54.26786890296411
 30
0.0
 10
196.4713413132366
 20
60.78254876326966
 30
0.0
 10
196.4713413132366
 20
68.81927281304269
 30
0.0
 10
196.4713413132366
 20
76.85565235303991
 30
0.0
 10
185.1872681168089
 20
83.37033221334548
 30
0.0
 10
171.2676951355405
 20
83.37033221334548
 30
0.0
 10
157.3481221542721
 20
83.37033221334548
 30
0.0
 10
146.0640489578444
 20
76.85565235303991
 30
0.0
 10
146.0640489578444
 20
68.81927281304269
 30
0.0
 10
146.0640489578444
 20
68.81927281304269
 30
0.0
 10
146.0640489578444
 20
68.81927281304269
 30
0.0
 10
146.0640489578444
 20
68.81927281304269
 30
0.0
  0
ENDBLK
  5
10B
330
108
100
AcDbEntity
  8
0
100
AcDbBlockEnd
  0
BLOCK
  5
10F
330
10D
100
AcDbEntity
  8
0
100
AcDbBlockBegin
  2
block 39
 70
     0
 71
     0
 10
0.0
 20
0.0
 30
0.0
  3
block 39
  1

  0
SPLINE
  5
111
330
10D
100
AcDbEntity
  8
PIEZA
 62
     7
370
     9
100
AcDbSpline
210
0.0
220
0.0
230
1.0
 70
    11
 71
     3
 72
    20
 73
    16
 74
     0
 42
0.0000000001
 43
0.0000000001
 40
0.0
 40
0.0
 40
0.0
 40
0.0
 40
1.0
 40
1.0
 40
1.0
 40
2.0
 40
2.0
 40
2.0
 40
3.0
 40
3.0
 40
3.0
 40
4.0
 40
4.0
 40
4.0
 40
5.0
 40
5.0
 40
5.0
 40
5.0
 10
151.6020436037678
 20
68.81927281304269
 30
0.0
 10
151.6020436037678
 20
62.54850587400082
 30
0.0
 10
160.4066799437905
 20
57.46526413212835
 30
0.0
 10
171.2676951355405
 20
57.46526413212835
 30
0.0
 10
182.1287103272905
 20
57.46526413212835
 30
0.0
 10
190.9333466673132
 20
62.54850587400082
 30
0.0
 10
190.9333466673132
 20
68.81927281304269
 30
0.0
 10
190.9333466673132
 20
75.08969524230876
 30
0.0
 10
182.1287103272905
 20
80.17328149395702
 30
0.0
 10
171.2676951355405
 20
80.17328149395702
 30
0.0
 10
160.4066799437905
 20
80.17328149395702
 30
0.0
 10
151.6020436037678
 20
75.08969524230876
 30
0.0
 10
151.6020436037678
 20
68.81927281304269
 30
0.0
 10
151.6020436037678
 20
68.81927281304269
 30
0.0
 10
151.6020436037678
 20
68.81927281304269
 30
0.0
 10
151.6020436037678
 20
68.81927281304269
 30
0.0
  0
ENDBLK
  5
110
330
10D
100
AcDbEntity
  8
0
100
AcDbBlockEnd
  0
BLOCK
  5
115
330
113
100
AcDbEntity
  8
0
100
AcDbBlockBegin
  2
block 40
 70
     0
 71
     0
 10
0.0
 20
0.0
 30
0.0
  3
block 40
  1

  0
POLYLINE
  5
117
330
113
100
AcDbEntity
  8
EJES
  6
AI-Linetype-1
 62
     7
370
     9
100
AcDb2dPolyline
 66
     1
 10
0.0
 20
0.0
 30
0.0
  0
VERTEX
  5
118
330
117
100
AcDbEntity
  8
EJES
  6
AI-Linetype-1
 62
     7
370
     9
100
AcDbVertex
100
AcDb2dVertex
 10
106.5529117913334
 20
149.9272093287347
 30
0.0
  0
VERTEX
  5
119
330
117
100
AcDbEntity
  8
EJES
  6
AI-Linetype-1
 62
     7
370
     9
100
AcDbVertex
100
AcDb2dVertex
 10
106.5529117913334
 20
97.47490694421641
 30
0.0
  0
SEQEND
  5
11A
330
117
100
AcDbEntity
  8
EJES
  6
AI-Linetype-1
370
     9
  0
ENDBLK
  5
116
330
113
100
AcDbEntity
  8
0
100
AcDbBlockEnd
  0
BLOCK
  5
11E
330
11C
100
AcDbEntity
  8
0
100
AcDbBlockBegin
  2
block 41
 70
     0
 71
     0
 10
0.0
 20
0.0
 30
0.0
  3
block 41
  1

  0
POLYLINE
  5
120
330
11C
100
AcDbEntity
  8
EJES
  6
AI-Linetype-2
 62
     7
370
     9
100
AcDb2dPolyline
 66
     1
 10
0.0
 20
0.0
 30
0.0
  0
VERTEX
  5
121
330
120
100
AcDbEntity
  8
EJES
  6
AI-Linetype-2
 62
     7
370
     9
100
AcDbVertex
100
AcDb2dVertex
 10
80.32676059907422
 20
123.7010581364756
 30
0.0
  0
VERTEX
  5
122
330
120
100
AcDbEntity
  8
EJES
  6
AI-Linetype-2
 62
     7
370
     9
100
AcDbVertex
100
AcDb2dVertex
 10
132.7790629835925
 20
123.7010581364756
 30
0.0
  0
SEQEND
  5
123
330
120
100
AcDbEntity
  8
EJES
  6
AI-Linetype-2
370
     9
  0
ENDBLK
  5
11F
330
11C
100
AcDbEntity
  8
0
100
AcDbBlockEnd
  0
BLOCK
  5
127
330
125
100
AcDbEntity
  8
0
100
AcDbBlockBegin
  2
block 42
 70
     0
 71
     0
 10
0.0
 20
0.0
 30
0.0
  3
block 42
  1

  0
POLYLINE
  5
129
330
125
100
AcDbEntity
  8
EJES
  6
AI-Linetype-3
 62
     7
370
     9
100
AcDb2dPolyline
 66
     1
 10
0.0
 20
0.0
 30
0.0
  0
VERTEX
  5
12A
330
129
100
AcDbEntity
  8
EJES
  6
AI-Linetype-3
 62
     7
370
     9
100
AcDbVertex
100
AcDb2dVertex
 10
106.5529117913334
 20
176.1631790496041
 30
0.0
  0
VERTEX
  5
12B
330
129
100
AcDbEntity
  8
EJES
  6
AI-Linetype-3
 62
     7
370
     9
100
AcDbVertex
100
AcDb2dVertex
 10
106.5529117913334
 20
205.7844740823344
 30
0.0
  0
SEQEND
  5
12C
330
129
100
AcDbEntity
  8
EJES
  6
AI-Linetype-3
370
     9
  0
ENDBLK
  5
128
330
125
100
AcDbEntity
  8
0
100
AcDbBlockEnd
  0
BLOCK
  5
131
330
12F
100
AcDbEntity
  8
0
100
AcDbBlockBegin
  2
block 43
 70
     0
 71
     0
 10
0.0
 20
0.0
 30
0.0
  3
block 43
  1

  0
POLYLINE
  5
133
330
12F
100
AcDbEntity
  8
COTAS
 62
     7
370
     9
100
AcDb2dPolyline
 66
     1
 10
0.0
 20
0.0
 30
0.0
  0
VERTEX
  5
134
330
133
100
AcDbEntity
  8
COTAS
 62
     7
370
     9
100
AcDbVertex
100
AcDb2dVertex
 10
110.7797022305766
 20
182.1423184634345
 30
0.0
  0
VERTEX
  5
135
330
133
100
AcDbEntity
  8
COTAS
 62
     7
370
     9
100
AcDbVertex
100
AcDb2dVertex
 10
109.9959424906403
 20
182.1423184634345
 30
0.0
  0
SEQEND
  5
136
330
133
100
AcDbEntity
  8
COTAS
370
     9
  0
ENDBLK
  5
132
330
12F
100
AcDbEntity
  8
0
100
AcDbBlockEnd
  0
BLOCK
  5
139
330
137
100
AcDbEntity
  8
0
100
AcDbBlockBegin
  2
block 44
 70
     0
 71
     0
 10
0.0
 20
0.0
 30
0.0
  3
block 44
  1

  0
INSERT
  5
13C
330
137
100
AcDbEntity
  8
COTAS
100
AcDbBlockReference
  2
block 45
 10
0.0
 20
0.0
 30
0.0
  0
INSERT
  5
144
330
137
100
AcDbEntity
  8
COTAS
100
AcDbBlockReference
  2
block 46
 10
0.0
 20
0.0
 30
0.0
  0
INSERT
  5
14C
330
137
100
AcDbEntity
  8
COTAS
100
AcDbBlockReference
  2
block 47
 10
0.0
 20
0.0
 30
0.0
  0
INSERT
  5
154
330
137
100
AcDbEntity
  8
COTAS
100
AcDbBlockReference
  2
block 48
 10
0.0
 20
0.0
 30
0.0
  0
INSERT
  5
15C
330
137
100
AcDbEntity
  8
COTAS
100
AcDbBlockReference
  2
block 49
 10
0.0
 20
0.0
 30
0.0
  0
INSERT
  5
167
330
137
100
AcDbEntity
  8
COTAS
100
AcDbBlockReference
  2
block 50
 10
0.0
 20
0.0
 30
0.0
  0
INSERT
  5
172
330
137
100
AcDbEntity
  8
COTAS
100
AcDbBlockReference
  2
block 51
 10
0.0
 20
0.0
 30
0.0
  0
INSERT
  5
177
330
137
100
AcDbEntity
  8
COTAS
100
AcDbBlockReference
  2
block 52
 10
0.0
 20
0.0
 30
0.0
  0
INSERT
  5
17F
330
137
100
AcDbEntity
  8
COTAS
100
AcDbBlockReference
  2
block 53
 10
0.0
 20
0.0
 30
0.0
  0
INSERT
  5
187
330
137
100
AcDbEntity
  8
COTAS
100
AcDbBlockReference
  2
block 54
 10
0.0
 20
0.0
 30
0.0
  0
ENDBLK
  5
13A
330
137
100
AcDbEntity
  8
0
100
AcDbBlockEnd
  0
BLOCK
  5
13D
330
13B
100
AcDbEntity
  8
0
100
AcDbBlockBegin
  2
block 45
 70
     0
 71
     0
 10
0.0
 20
0.0
 30
0.0
  3
block 45
  1

  0
POLYLINE
  5
13F
330
13B
100
AcDbEntity
  8
COTAS
 62
     7
370
     9
100
AcDb2dPolyline
 66
     1
 10
0.0
 20
0.0
 30
0.0
  0
VERTEX
  5
140
330
13F
100
AcDbEntity
  8
COTAS
 62
     7
370
     9
100
AcDbVertex
100
AcDb2dVertex
 10
82.52680002730855
 20
122.7402203717801
 30
0.0
  0
VERTEX
  5
141
330
13F
100
AcDbEntity
  8
COTAS
 62
     7
370
     9
100
AcDbVertex
100
AcDb2dVertex
 10
82.52680002730855
 20
93.62673274857322
 30
0.0
  0
SEQEND
  5
142
330
13F
100
AcDbEntity
  8
COTAS
370
     9
  0
ENDBLK
  5
13E
330
13B
100
AcDbEntity
  8
0
100
AcDbBlockEnd
  0
BLOCK
  5
145
330
143
100
AcDbEntity
  8
0
100
AcDbBlockBegin
  2
block 46
 70
     0
 71
     0
 10
0.0
 20
0.0
 30
0.0
  3
block 46
  1

  0
POLYLINE
  5
147
330
143
100
AcDbEntity
  8
COTAS
 62
     7
370
     9
100
AcDb2dPolyline
 66
     1
 10
0.0
 20
0.0
 30
0.0
  0
VERTEX
  5
148
330
147
100
AcDbEntity
  8
COTAS
 62
     7
370
     9
100
AcDbVertex
100
AcDb2dVertex
 10
130.5790235553582
 20
122.7402203717801
 30
0.0
  0
VERTEX
  5
149
330
147
100
AcDbEntity
  8
COTAS
 62
     7
370
     9
100
AcDbVertex
100
AcDb2dVertex
 10
130.5790235553582
 20
93.62673274857322
 30
0.0
  0
SEQEND
  5
14A
330
147
100
AcDbEntity
  8
COTAS
370
     9
  0
ENDBLK
  5
146
330
143
100
AcDbEntity
  8
0
100
AcDbBlockEnd
  0
BLOCK
  5
14D
330
14B
100
AcDbEntity
  8
0
100
AcDbBlockBegin
  2
block 47
 70
     0
 71
     0
 10
0.0
 20
0.0
 30
0.0
  3
block 47
  1

  0
POLYLINE
  5
14F
330
14B
100
AcDbEntity
  8
COTAS
 62
     7
370
     9
100
AcDb2dPolyline
 66
     1
 10
0.0
 20
0.0
 30
0.0
  0
VERTEX
  5
150
330
14F
100
AcDbEntity
  8
COTAS
 62
     7
370
     9
100
AcDbVertex
100
AcDb2dVertex
 10
84.25658361158112
 20
94.58757051326873
 30
0.0
  0
VERTEX
  5
151
330
14F
100
AcDbEntity
  8
COTAS
 62
     7
370
     9
100
AcDbVertex
100
AcDb2dVertex
 10
102.2510182209666
 20
94.58757051326873
 30
0.0
  0
SEQEND
  5
152
330
14F
100
AcDbEntity
  8
COTAS
370
     9
  0
ENDBLK
  5
14E
330
14B
100
AcDbEntity
  8
0
100
AcDbBlockEnd
  0
BLOCK
  5
155
330
153
100
AcDbEntity
  8
0
100
AcDbBlockBegin
  2
block 48
 70
     0
 71
     0
 10
0.0
 20
0.0
 30
0.0
  3
block 48
  1

  0
POLYLINE
  5
157
330
153
100
AcDbEntity
  8
COTAS
 62
     7
370
     9
100
AcDb2dPolyline
 66
     1
 10
0.0
 20
0.0
 30
0.0
  0
VERTEX
  5
158
330
157
100
AcDbEntity
  8
COTAS
 62
     7
370
     9
100
AcDbVertex
100
AcDb2dVertex
 10
128.8492399710856
 20
94.58757051326873
 30
0.0
  0
VERTEX
  5
159
330
157
100
AcDbEntity
  8
COTAS
 62
     7
370
     9
100
AcDbVertex
100
AcDb2dVertex
 10
110.8548053617001
 20
94.58757051326873
 30
0.0
  0
SEQEND
  5
15A
330
157
100
AcDbEntity
  8
COTAS
370
     9
  0
ENDBLK
  5
156
330
153
100
AcDbEntity
  8
0
100
AcDbBlockEnd
  0
BLOCK
  5
15D
330
15B
100
AcDbEntity
  8
0
100
AcDbBlockBegin
  2
block 49
 70
     0
 71
     0
 10
0.0
 20
0.0
 30
0.0
  3
block 49
  1

  0
POLYLINE
  5
15F
330
15B
100
AcDbEntity
  8
COTAS
370
     0
100
AcDb2dPolyline
 66
     1
 10
0.0
 20
0.0
 30
0.0
  0
VERTEX
  5
160
330
15F
100
AcDbEntity
  8
COTAS
370
     0
100
AcDbVertex
100
AcDb2dVertex
 10
84.25658361158112
 20
94.87592519561012
 30
0.0
  0
VERTEX
  5
161
330
15F
100
AcDbEntity
  8
COTAS
370
     0
100
AcDbVertex
100
AcDb2dVertex
 10
84.25658361158112
 20
94.29921583092734
 30
0.0
  0
VERTEX
  5
162
330
15F
100
AcDbEntity
  8
COTAS
370
     0
100
AcDbVertex
100
AcDb2dVertex
 10
82.52680002730855
 20
94.58757051326873
 30
0.0
  0
VERTEX
  5
163
330
15F
100
AcDbEntity
  8
COTAS
370
     0
100
AcDbVertex
100
AcDb2dVertex
 10
84.25658361158112
 20
94.87592519561012
 30
0.0
  0
SEQEND
  5
164
330
15F
100
AcDbEntity
  8
COTAS
370
     0
  0
HATCH
  5
165
330
15B
100
AcDbEntity
  8
COTAS
 62
     7
100
AcDbHatch
 10
0.0
 20
0.0
 30
0.0
210
0.0
220
0.0
230
1.0
  2
SOLID
 70
     1
 71
     0
 91
        1
 92
        1
 93
        3
 72
     1
 10
84.25658361158112
 20
94.87592519561012
 11
84.25658361158112
 21
94.29921583092734
 72
     1
 10
84.25658361158112
 20
94.29921583092734
 11
82.52680002730855
 21
94.58757051326873
 72
     1
 10
82.52680002730855
 20
94.58757051326873
 11
84.25658361158112
 21
94.87592519561012
 97
        0
 75
     2
 76
     1
 98
        0
  0
ENDBLK
  5
15E
330
15B
100
AcDbEntity
  8
0
100
AcDbBlockEnd
  0
BLOCK
  5
168
330
166
100
AcDbEntity
  8
0
100
AcDbBlockBegin
  2
block 50
 70
     0
 71
     0
 10
0.0
 20
0.0
 30
0.0
  3
block 50
  1

  0
POLYLINE
  5
16A
330
166
100
AcDbEntity
  8
COTAS
370
     0
100
AcDb2dPolyline
 66
     1
 10
0.0
 20
0.0
 30
0.0
  0
VERTEX
  5
16B
330
16A
100
AcDbEntity
  8
COTAS
370
     0
100
AcDbVertex
100
AcDb2dVertex
 10
128.8492399710856
 20
94.87592519561012
 30
0.0
  0
VERTEX
  5
16C
330
16A
100
AcDbEntity
  8
COTAS
370
     0
100
AcDbVertex
100
AcDb2dVertex
 10
128.8492399710856
 20
94.29921583092734
 30
0.0
  0
VERTEX
  5
16D
330
16A
100
AcDbEntity
  8
COTAS
370
     0
100
AcDbVertex
100
AcDb2dVertex
 10
130.5790235553582
 20
94.58757051326873
 30
0.0
  0
VERTEX
  5
16E
330
16A
100
AcDbEntity
  8
COTAS
370
     0
100
AcDbVertex
100
AcDb2dVertex
 10
128.8492399710856
 20
94.87592519561012
 30
0.0
  0
SEQEND
  5
16F
330
16A
100
AcDbEntity
  8
COTAS
370
     0
  0
HATCH
  5
170
330
166
100
AcDbEntity
  8
COTAS
 62
     7
100
AcDbHatch
 10
0.0
 20
0.0
 30
0.0
210
0.0
220
0.0
230
1.0
  2
SOLID
 70
     1
 71
     0
 91
        1
 92
        1
 93
        3
 72
     1
 10
128.8492399710856
 20
94.87592519561012
 11
128.8492399710856
 21
94.29921583092734
 72
     1
 10
128.8492399710856
 20
94.29921583092734
 11
130.5790235553582
 21
94.58757051326873
 72
     1
 10
130.5790235553582
 20
94.58757051326873
 11
128.8492399710856
 21
94.87592519561012
 97
        0
 75
     2
 76
     1
 98
        0
  0
ENDBLK
  5
169
330
166
100
AcDbEntity
  8
0
100
AcDbBlockEnd
  0
BLOCK
  5
173
330
171
100
AcDbEntity
  8
0
100
AcDbBlockBegin
  2
block 51
 70
     0
 71
     0
 10
0.0
 20
0.0
 30
0.0
  3
block 51
  1

  0
MTEXT
  5
175
330
171
100
AcDbEntity
  8
COTAS
 62
     7
100
AcDbMText
 10
102.9376262041284
 20
93.62673274857322
 30
0.0
 40
2.398890470823883
 41
0.0
 71
     7
 72
     1
  1
\fArial|b1|i0|c0|p34;\W1;\U+00D8395
 73
     1
 44
1.0
  0
ENDBLK
  5
174
330
171
100
AcDbEntity
  8
0
100
AcDbBlockEnd
  0
BLOCK
  5
178
330
176
100
AcDbEntity
  8
0
100
AcDbBlockBegin
  2
block 52
 70
     0
 71
     0
 10
0.0
 20
0.0
 30
0.0
  3
block 52
  1

  0
POLYLINE
  5
17A
330
176
100
AcDbEntity
  8
COTAS
 62
     7
370
     9
100
AcDb2dPolyline
 66
     1
 10
0.0
 20
0.0
 30
0.0
  0
VERTEX
  5
17B
330
17A
100
AcDbEntity
  8
COTAS
 62
     7
370
     9
100
AcDbVertex
100
AcDb2dVertex
 10
82.52680002730855
 20
123.7010581364756
 30
0.0
  0
VERTEX
  5
17C
330
17A
100
AcDbEntity
  8
COTAS
 62
     7
370
     9
100
AcDbVertex
100
AcDb2dVertex
 10
82.52680002730855
 20
123.7010581364756
 30
0.0
  0
SEQEND
  5
17D
330
17A
100
AcDbEntity
  8
COTAS
370
     9
  0
ENDBLK
  5
179
330
176
100
AcDbEntity
  8
0
100
AcDbBlockEnd
  0
BLOCK
  5
180
330
17E
100
AcDbEntity
  8
0
100
AcDbBlockBegin
  2
block 53
 70
     0
 71
     0
 10
0.0
 20
0.0
 30
0.0
  3
block 53
  1

  0
POLYLINE
  5
182
330
17E
100
AcDbEntity
  8
COTAS
 62
     7
370
     9
100
AcDb2dPolyline
 66
     1
 10
0.0
 20
0.0
 30
0.0
  0
VERTEX
  5
183
330
182
100
AcDbEntity
  8
COTAS
 62
     7
370
     9
100
AcDbVertex
100
AcDb2dVertex
 10
130.5790235553582
 20
123.7010581364756
 30
0.0
  0
VERTEX
  5
184
330
182
100
AcDbEntity
  8
COTAS
 62
     7
370
     9
100
AcDbVertex
100
AcDb2dVertex
 10
130.5790235553582
 20
123.7010581364756
 30
0.0
  0
SEQEND
  5
185
330
182
100
AcDbEntity
  8
COTAS
370
     9
  0
ENDBLK
  5
181
330
17E
100
AcDbEntity
  8
0
100
AcDbBlockEnd
  0
BLOCK
  5
188
330
186
100
AcDbEntity
  8
0
100
AcDbBlockBegin
  2
block 54
 70
     0
 71
     0
 10
0.0
 20
0.0
 30
0.0
  3
block 54
  1

  0
POLYLINE
  5
18A
330
186
100
AcDbEntity
  8
COTAS
 62
     7
370
     9
100
AcDb2dPolyline
 66
     1
 10
0.0
 20
0.0
 30
0.0
  0
VERTEX
  5
18B
330
18A
100
AcDbEntity
  8
COTAS
 62
     7
370
     9
100
AcDbVertex
100
AcDb2dVertex
 10
130.5790235553582
 20
94.58757051326873
 30
0.0
  0
VERTEX
  5
18C
330
18A
100
AcDbEntity
  8
COTAS
 62
     7
370
     9
100
AcDbVertex
100
AcDb2dVertex
 10
130.5790235553582
 20
94.58757051326873
 30
0.0
  0
SEQEND
  5
18D
330
18A
100
AcDbEntity
  8
COTAS
370
     9
  0
ENDBLK
  5
189
330
186
100
AcDbEntity
  8
0
100
AcDbBlockEnd
  0
BLOCK
  5
190
330
18E
100
AcDbEntity
  8
0
100
AcDbBlockBegin
  2
block 55
 70
     0
 71
     0
 10
0.0
 20
0.0
 30
0.0
  3
block 55
  1

  0
INSERT
  5
193
330
18E
100
AcDbEntity
  8
COTAS
100
AcDbBlockReference
  2
block 56
 10
0.0
 20
0.0
 30
0.0
  0
INSERT
  5
19B
330
18E
100
AcDbEntity
  8
COTAS
100
AcDbBlockReference
  2
block 57
 10
0.0
 20
0.0
 30
0.0
  0
INSERT
  5
1A3
330
18E
100
AcDbEntity
  8
COTAS
100
AcDbBlockReference
  2
block 58
 10
0.0
 20
0.0
 30
0.0
  0
INSERT
  5
1AB
330
18E
100
AcDbEntity
  8
COTAS
100
AcDbBlockReference
  2
block 59
 10
0.0
 20
0.0
 30
0.0
  0
INSERT
  5
1B3
330
18E
100
AcDbEntity
  8
COTAS
100
AcDbBlockReference
  2
block 60
 10
0.0
 20
0.0
 30
0.0
  0
INSERT
  5
1BE
330
18E
100
AcDbEntity
  8
COTAS
100
AcDbBlockReference
  2
block 61
 10
0.0
 20
0.0
 30
0.0
  0
INSERT
  5
1C9
330
18E
100
AcDbEntity
  8
COTAS
100
AcDbBlockReference
  2
block 62
 10
0.0
 20
0.0
 30
0.0
  0
INSERT
  5
1CE
330
18E
100
AcDbEntity
  8
COTAS
100
AcDbBlockReference
  2
block 63
 10
0.0
 20
0.0
 30
0.0
  0
INSERT
  5
1D6
330
18E
100
AcDbEntity
  8
COTAS
100
AcDbBlockReference
  2
block 64
 10
0.0
 20
0.0
 30
0.0
  0
INSERT
  5
1DE
330
18E
100
AcDbEntity
  8
COTAS
100
AcDbBlockReference
  2
block 65
 10
0.0
 20
0.0
 30
0.0
  0
ENDBLK
  5
191
330
18E
100
AcDbEntity
  8
0
100
AcDbBlockEnd
  0
BLOCK
  5
194
330
192
100
AcDbEntity
  8
0
100
AcDbBlockBegin
  2
block 56
 70
     0
 71
     0
 10
0.0
 20
0.0
 30
0.0
  3
block 56
  1

  0
POLYLINE
  5
196
330
192
100
AcDbEntity
  8
COTAS
 62
     7
370
     9
100
AcDb2dPolyline
 66
     1
 10
0.0
 20
0.0
 30
0.0
  0
VERTEX
  5
197
330
196
100
AcDbEntity
  8
COTAS
 62
     7
370
     9
100
AcDbVertex
100
AcDb2dVertex
 10
106.5529117913334
 20
175.2021690300207
 30
0.0
  0
VERTEX
  5
198
330
196
100
AcDbEntity
  8
COTAS
 62
     7
370
     9
100
AcDbVertex
100
AcDb2dVertex
 10
106.5529117913334
 20
171.0191313323036
 30
0.0
  0
SEQEND
  5
199
330
196
100
AcDbEntity
  8
COTAS
370
     9
  0
ENDBLK
  5
195
330
192
100
AcDbEntity
  8
0
100
AcDbBlockEnd
  0
BLOCK
  5
19C
330
19A
100
AcDbEntity
  8
0
100
AcDbBlockBegin
  2
block 57
 70
     0
 71
     0
 10
0.0
 20
0.0
 30
0.0
  3
block 57
  1

  0
POLYLINE
  5
19E
330
19A
100
AcDbEntity
  8
COTAS
 62
     7
370
     9
100
AcDb2dPolyline
 66
     1
 10
0.0
 20
0.0
 30
0.0
  0
VERTEX
  5
19F
330
19E
100
AcDbEntity
  8
COTAS
 62
     7
370
     9
100
AcDbVertex
100
AcDb2dVertex
 10
82.52680002730855
 20
199.6106866451792
 30
0.0
  0
VERTEX
  5
1A0
330
19E
100
AcDbEntity
  8
COTAS
 62
     7
370
     9
100
AcDbVertex
100
AcDb2dVertex
 10
82.52680002730855
 20
171.0191313323036
 30
0.0
  0
SEQEND
  5
1A1
330
19E
100
AcDbEntity
  8
COTAS
370
     9
  0
ENDBLK
  5
19D
330
19A
100
AcDbEntity
  8
0
100
AcDbBlockEnd
  0
BLOCK
  5
1A4
330
1A2
100
AcDbEntity
  8
0
100
AcDbBlockBegin
  2
block 58
 70
     0
 71
     0
 10
0.0
 20
0.0
 30
0.0
  3
block 58
  1

  0
POLYLINE
  5
1A6
330
1A2
100
AcDbEntity
  8
COTAS
 62
     7
370
     9
100
AcDb2dPolyline
 66
     1
 10
0.0
 20
0.0
 30
0.0
  0
VERTEX
  5
1A7
330
1A6
100
AcDbEntity
  8
COTAS
 62
     7
370
     9
100
AcDbVertex
100
AcDb2dVertex
 10
104.8229559521729
 20
171.980141351887
 30
0.0
  0
VERTEX
  5
1A8
330
1A6
100
AcDbEntity
  8
COTAS
 62
     7
370
     9
100
AcDbVertex
100
AcDb2dVertex
 10
97.83491965992341
 20
171.980141351887
 30
0.0
  0
SEQEND
  5
1A9
330
1A6
100
AcDbEntity
  8
COTAS
370
     9
  0
ENDBLK
  5
1A5
330
1A2
100
AcDbEntity
  8
0
100
AcDbBlockEnd
  0
BLOCK
  5
1AC
330
1AA
100
AcDbEntity
  8
0
100
AcDbBlockBegin
  2
block 59
 70
     0
 71
     0
 10
0.0
 20
0.0
 30
0.0
  3
block 59
  1

  0
POLYLINE
  5
1AE
330
1AA
100
AcDbEntity
  8
COTAS
 62
     7
370
     9
100
AcDb2dPolyline
 66
     1
 10
0.0
 20
0.0
 30
0.0
  0
VERTEX
  5
1AF
330
1AE
100
AcDbEntity
  8
COTAS
 62
     7
370
     9
100
AcDbVertex
100
AcDb2dVertex
 10
84.25658361158112
 20
171.980141351887
 30
0.0
  0
VERTEX
  5
1B0
330
1AE
100
AcDbEntity
  8
COTAS
 62
     7
370
     9
100
AcDbVertex
100
AcDb2dVertex
 10
91.24479215871851
 20
171.980141351887
 30
0.0
  0
SEQEND
  5
1B1
330
1AE
100
AcDbEntity
  8
COTAS
370
     9
  0
ENDBLK
  5
1AD
330
1AA
100
AcDbEntity
  8
0
100
AcDbBlockEnd
  0
BLOCK
  5
1B4
330
1B2
100
AcDbEntity
  8
0
100
AcDbBlockBegin
  2
block 60
 70
     0
 71
     0
 10
0.0
 20
0.0
 30
0.0
  3
block 60
  1

  0
POLYLINE
  5
1B6
330
1B2
100
AcDbEntity
  8
COTAS
370
     0
100
AcDb2dPolyline
 66
     1
 10
0.0
 20
0.0
 30
0.0
  0
VERTEX
  5
1B7
330
1B6
100
AcDbEntity
  8
COTAS
370
     0
100
AcDbVertex
100
AcDb2dVertex
 10
104.8229559521729
 20
172.2684960342284
 30
0.0
  0
VERTEX
  5
1B8
330
1B6
100
AcDbEntity
  8
COTAS
370
     0
100
AcDbVertex
100
AcDb2dVertex
 10
104.8229559521729
 20
171.6917866695456
 30
0.0
  0
VERTEX
  5
1B9
330
1B6
100
AcDbEntity
  8
COTAS
370
     0
100
AcDbVertex
100
AcDb2dVertex
 10
106.5529117913334
 20
171.980141351887
 30
0.0
  0
VERTEX
  5
1BA
330
1B6
100
AcDbEntity
  8
COTAS
370
     0
100
AcDbVertex
100
AcDb2dVertex
 10
104.8229559521729
 20
172.2684960342284
 30
0.0
  0
SEQEND
  5
1BB
330
1B6
100
AcDbEntity
  8
COTAS
370
     0
  0
HATCH
  5
1BC
330
1B2
100
AcDbEntity
  8
COTAS
 62
     7
100
AcDbHatch
 10
0.0
 20
0.0
 30
0.0
210
0.0
220
0.0
230
1.0
  2
SOLID
 70
     1
 71
     0
 91
        1
 92
        1
 93
        3
 72
     1
 10
104.8229559521729
 20
172.2684960342284
 11
104.8229559521729
 21
171.6917866695456
 72
     1
 10
104.8229559521729
 20
171.6917866695456
 11
106.5529117913334
 21
171.980141351887
 72
     1
 10
106.5529117913334
 20
171.980141351887
 11
104.8229559521729
 21
172.2684960342284
 97
        0
 75
     2
 76
     1
 98
        0
  0
ENDBLK
  5
1B5
330
1B2
100
AcDbEntity
  8
0
100
AcDbBlockEnd
  0
BLOCK
  5
1BF
330
1BD
100
AcDbEntity
  8
0
100
AcDbBlockBegin
  2
block 61
 70
     0
 71
     0
 10
0.0
 20
0.0
 30
0.0
  3
block 61
  1

  0
POLYLINE
  5
1C1
330
1BD
100
AcDbEntity
  8
COTAS
370
     0
100
AcDb2dPolyline
 66
     1
 10
0.0
 20
0.0
 30
0.0
  0
VERTEX
  5
1C2
330
1C1
100
AcDbEntity
  8
COTAS
370
     0
100
AcDbVertex
100
AcDb2dVertex
 10
84.25658361158112
 20
172.2684960342284
 30
0.0
  0
VERTEX
  5
1C3
330
1C1
100
AcDbEntity
  8
COTAS
370
     0
100
AcDbVertex
100
AcDb2dVertex
 10
84.25658361158112
 20
171.6917866695456
 30
0.0
  0
VERTEX
  5
1C4
330
1C1
100
AcDbEntity
  8
COTAS
370
     0
100
AcDbVertex
100
AcDb2dVertex
 10
82.52680002730855
 20
171.980141351887
 30
0.0
  0
VERTEX
  5
1C5
330
1C1
100
AcDbEntity
  8
COTAS
370
     0
100
AcDbVertex
100
AcDb2dVertex
 10
84.25658361158112
 20
172.2684960342284
 30
0.0
  0
SEQEND
  5
1C6
330
1C1
100
AcDbEntity
  8
COTAS
370
     0
  0
HATCH
  5
1C7
330
1BD
100
AcDbEntity
  8
COTAS
 62
     7
100
AcDbHatch
 10
0.0
 20
0.0
 30
0.0
210
0.0
220
0.0
230
1.0
  2
SOLID
 70
     1
 71
     0
 91
        1
 92
        1
 93
        3
 72
     1
 10
84.25658361158112
 20
172.2684960342284
 11
84.25658361158112
 21
171.6917866695456
 72
     1
 10
84.25658361158112
 20
171.6917866695456
 11
82.52680002730855
 21
171.980141351887
 72
     1
 10
82.52680002730855
 20
171.980141351887
 11
84.25658361158112
 21
172.2684960342284
 97
        0
 75
     2
 76
     1
 98
        0
  0
ENDBLK
  5
1C0
330
1BD
100
AcDbEntity
  8
0
100
AcDbBlockEnd
  0
BLOCK
  5
1CA
330
1C8
100
AcDbEntity
  8
0
100
AcDbBlockBegin
  2
block 62
 70
     0
 71
     0
 10
0.0
 20
0.0
 30
0.0
  3
block 62
  1

  0
MTEXT
  5
1CC
330
1C8
100
AcDbEntity
  8
COTAS
 62
     7
100
AcDbMText
 10
91.65665359568283
 20
171.0191313323036
 30
0.0
 40
2.398890470823883
 41
0.0
 71
     7
 72
     1
  1
\fArial|b1|i0|c0|p34;\W1;198
 73
     1
 44
1.0
  0
ENDBLK
  5
1CB
330
1C8
100
AcDbEntity
  8
0
100
AcDbBlockEnd
  0
BLOCK
  5
1CF
330
1CD
100
AcDbEntity
  8
0
100
AcDbBlockBegin
  2
block 63
 70
     0
 71
     0
 10
0.0
 20
0.0
 30
0.0
  3
block 63
  1

  0
POLYLINE
  5
1D1
330
1CD
100
AcDbEntity
  8
COTAS
 62
     7
370
     9
100
AcDb2dPolyline
 66
     1
 10
0.0
 20
0.0
 30
0.0
  0
VERTEX
  5
1D2
330
1D1
100
AcDbEntity
  8
COTAS
 62
     7
370
     9
100
AcDbVertex
100
AcDb2dVertex
 10
106.5529117913334
 20
176.1631790496041
 30
0.0
  0
VERTEX
  5
1D3
330
1D1
100
AcDbEntity
  8
COTAS
 62
     7
370
     9
100
AcDbVertex
100
AcDb2dVertex
 10
106.5529117913334
 20
176.1631790496041
 30
0.0
  0
SEQEND
  5
1D4
330
1D1
100
AcDbEntity
  8
COTAS
370
     9
  0
ENDBLK
  5
1D0
330
1CD
100
AcDbEntity
  8
0
100
AcDbBlockEnd
  0
BLOCK
  5
1D7
330
1D5
100
AcDbEntity
  8
0
100
AcDbBlockBegin
  2
block 64
 70
     0
 71
     0
 10
0.0
 20
0.0
 30
0.0
  3
block 64
  1

  0
POLYLINE
  5
1D9
330
1D5
100
AcDbEntity
  8
COTAS
 62
     7
370
     9
100
AcDb2dPolyline
 66
     1
 10
0.0
 20
0.0
 30
0.0
  0
VERTEX
  5
1DA
330
1D9
100
AcDbEntity
  8
COTAS
 62
     7
370
     9
100
AcDbVertex
100
AcDb2dVertex
 10
82.52680002730855
 20
200.5716966647626
 30
0.0
  0
VERTEX
  5
1DB
330
1D9
100
AcDbEntity
  8
COTAS
 62
     7
370
     9
100
AcDbVertex
100
AcDb2dVertex
 10
82.52680002730855
 20
200.5716966647626
 30
0.0
  0
SEQEND
  5
1DC
330
1D9
100
AcDbEntity
  8
COTAS
370
     9
  0
ENDBLK
  5
1D8
330
1D5
100
AcDbEntity
  8
0
100
AcDbBlockEnd
  0
BLOCK
  5
1DF
330
1DD
100
AcDbEntity
  8
0
100
AcDbBlockBegin
  2
block 65
 70
     0
 71
     0
 10
0.0
 20
0.0
 30
0.0
  3
block 65
  1

  0
POLYLINE
  5
1E1
330
1DD
100
AcDbEntity
  8
COTAS
 62
     7
370
     9
100
AcDb2dPolyline
 66
     1
 10
0.0
 20
0.0
 30
0.0
  0
VERTEX
  5
1E2
330
1E1
100
AcDbEntity
  8
COTAS
 62
     7
370
     9
100
AcDbVertex
100
AcDb2dVertex
 10
82.52680002730855
 20
171.980141351887
 30
0.0
  0
VERTEX
  5
1E3
330
1E1
100
AcDbEntity
  8
COTAS
 62
     7
370
     9
100
AcDbVertex
100
AcDb2dVertex
 10
82.52680002730855
 20
171.980141351887
 30
0.0
  0
SEQEND
  5
1E4
330
1E1
100
AcDbEntity
  8
COTAS
370
     9
  0
ENDBLK
  5
1E0
330
1DD
100
AcDbEntity
  8
0
100
AcDbBlockEnd
  0
BLOCK
  5
1E7
330
1E5
100
AcDbEntity
  8
0
100
AcDbBlockBegin
  2
block 66
 70
     0
 71
     0
 10
0.0
 20
0.0
 30
0.0
  3
block 66
  1

  0
INSERT
  5
1EA
330
1E5
100
AcDbEntity
  8
COTAS
100
AcDbBlockReference
  2
block 67
 10
0.0
 20
0.0
 30
0.0
  0
INSERT
  5
1F2
330
1E5
100
AcDbEntity
  8
COTAS
100
AcDbBlockReference
  2
block 68
 10
0.0
 20
0.0
 30
0.0
  0
INSERT
  5
1FA
330
1E5
100
AcDbEntity
  8
COTAS
100
AcDbBlockReference
  2
block 69
 10
0.0
 20
0.0
 30
0.0
  0
INSERT
  5
202
330
1E5
100
AcDbEntity
  8
COTAS
100
AcDbBlockReference
  2
block 70
 10
0.0
 20
0.0
 30
0.0
  0
INSERT
  5
20A
330
1E5
100
AcDbEntity
  8
COTAS
100
AcDbBlockReference
  2
block 71
 10
0.0
 20
0.0
 30
0.0
  0
INSERT
  5
215
330
1E5
100
AcDbEntity
  8
COTAS
100
AcDbBlockReference
  2
block 72
 10
0.0
 20
0.0
 30
0.0
  0
INSERT
  5
220
330
1E5
100
AcDbEntity
  8
COTAS
100
AcDbBlockReference
  2
block 73
 10
0.0
 20
0.0
 30
0.0
  0
INSERT
  5
225
330
1E5
100
AcDbEntity
  8
COTAS
100
AcDbBlockReference
  2
block 74
 10
0.0
 20
0.0
 30
0.0
  0
INSERT
  5
22D
330
1E5
100
AcDbEntity
  8
COTAS
100
AcDbBlockReference
  2
block 75
 10
0.0
 20
0.0
 30
0.0
  0
INSERT
  5
235
330
1E5
100
AcDbEntity
  8
COTAS
100
AcDbBlockReference
  2
block 76
 10
0.0
 20
0.0
 30
0.0
  0
ENDBLK
  5
1E8
330
1E5
100
AcDbEntity
  8
0
100
AcDbBlockEnd
  0
BLOCK
  5
1EB
330
1E9
100
AcDbEntity
  8
0
100
AcDbBlockBegin
  2
block 67
 70
     0
 71
     0
 10
0.0
 20
0.0
 30
0.0
  3
block 67
  1

  0
POLYLINE
  5
1ED
330
1E9
100
AcDbEntity
  8
COTAS
 62
     7
370
     9
100
AcDb2dPolyline
 66
     1
 10
0.0
 20
0.0
 30
0.0
  0
VERTEX
  5
1EE
330
1ED
100
AcDbEntity
  8
COTAS
 62
     7
370
     9
100
AcDbVertex
100
AcDb2dVertex
 10
101.6379630749373
 20
177.733454607683
 30
0.0
  0
VERTEX
  5
1EF
330
1ED
100
AcDbEntity
  8
COTAS
 62
     7
370
     9
100
AcDbVertex
100
AcDb2dVertex
 10
71.91331510946809
 20
177.733454607683
 30
0.0
  0
SEQEND
  5
1F0
330
1ED
100
AcDbEntity
  8
COTAS
370
     9
  0
ENDBLK
  5
1EC
330
1E9
100
AcDbEntity
  8
0
100
AcDbBlockEnd
  0
BLOCK
  5
1F3
330
1F1
100
AcDbEntity
  8
0
100
AcDbBlockBegin
  2
block 68
 70
     0
 71
     0
 10
0.0
 20
0.0
 30
0.0
  3
block 68
  1

  0
POLYLINE
  5
1F5
330
1F1
100
AcDbEntity
  8
COTAS
 62
     7
370
     9
100
AcDb2dPolyline
 66
     1
 10
0.0
 20
0.0
 30
0.0
  0
VERTEX
  5
1F6
330
1F5
100
AcDbEntity
  8
COTAS
 62
     7
370
     9
100
AcDbVertex
100
AcDb2dVertex
 10
82.97948587270471
 20
201.7571548032772
 30
0.0
  0
VERTEX
  5
1F7
330
1F5
100
AcDbEntity
  8
COTAS
 62
     7
370
     9
100
AcDbVertex
100
AcDb2dVertex
 10
71.91331510946809
 20
201.7571548032772
 30
0.0
  0
SEQEND
  5
1F8
330
1F5
100
AcDbEntity
  8
COTAS
370
     9
  0
ENDBLK
  5
1F4
330
1F1
100
AcDbEntity
  8
0
100
AcDbBlockEnd
  0
BLOCK
  5
1FB
330
1F9
100
AcDbEntity
  8
0
100
AcDbBlockBegin
  2
block 69
 70
     0
 71
     0
 10
0.0
 20
0.0
 30
0.0
  3
block 69
  1

  0
POLYLINE
  5
1FD
330
1F9
100
AcDbEntity
  8
COTAS
 62
     7
370
     9
100
AcDb2dPolyline
 66
     1
 10
0.0
 20
0.0
 30
0.0
  0
VERTEX
  5
1FE
330
1FD
100
AcDbEntity
  8
COTAS
 62
     7
370
     9
100
AcDbVertex
100
AcDb2dVertex
 10
72.8743251290515
 20
179.4632381919556
 30
0.0
  0
VERTEX
  5
1FF
330
1FD
100
AcDbEntity
  8
COTAS
 62
     7
370
     9
100
AcDbVertex
100
AcDb2dVertex
 10
72.8743251290515
 20
187.8231124114254
 30
0.0
  0
SEQEND
  5
200
330
1FD
100
AcDbEntity
  8
COTAS
370
     9
  0
ENDBLK
  5
1FC
330
1F9
100
AcDbEntity
  8
0
100
AcDbBlockEnd
  0
BLOCK
  5
203
330
201
100
AcDbEntity
  8
0
100
AcDbBlockBegin
  2
block 70
 70
     0
 71
     0
 10
0.0
 20
0.0
 30
0.0
  3
block 70
  1

  0
POLYLINE
  5
205
330
201
100
AcDbEntity
  8
COTAS
 62
     7
370
     9
100
AcDb2dPolyline
 66
     1
 10
0.0
 20
0.0
 30
0.0
  0
VERTEX
  5
206
330
205
100
AcDbEntity
  8
COTAS
 62
     7
370
     9
100
AcDbVertex
100
AcDb2dVertex
 10
72.8743251290515
 20
200.0271989641168
 30
0.0
  0
VERTEX
  5
207
330
205
100
AcDbEntity
  8
COTAS
 62
     7
370
     9
100
AcDbVertex
100
AcDb2dVertex
 10
72.8743251290515
 20
191.6673247446469
 30
0.0
  0
SEQEND
  5
208
330
205
100
AcDbEntity
  8
COTAS
370
     9
  0
ENDBLK
  5
204
330
201
100
AcDbEntity
  8
0
100
AcDbBlockEnd
  0
BLOCK
  5
20B
330
209
100
AcDbEntity
  8
0
100
AcDbBlockBegin
  2
block 71
 70
     0
 71
     0
 10
0.0
 20
0.0
 30
0.0
  3
block 71
  1

  0
POLYLINE
  5
20D
330
209
100
AcDbEntity
  8
COTAS
370
     0
100
AcDb2dPolyline
 66
     1
 10
0.0
 20
0.0
 30
0.0
  0
VERTEX
  5
20E
330
20D
100
AcDbEntity
  8
COTAS
370
     0
100
AcDbVertex
100
AcDb2dVertex
 10
72.5859704467101
 20
179.4632381919556
 30
0.0
  0
VERTEX
  5
20F
330
20D
100
AcDbEntity
  8
COTAS
370
     0
100
AcDbVertex
100
AcDb2dVertex
 10
73.16267981139289
 20
179.4632381919556
 30
0.0
  0
VERTEX
  5
210
330
20D
100
AcDbEntity
  8
COTAS
370
     0
100
AcDbVertex
100
AcDb2dVertex
 10
72.8743251290515
 20
177.733454607683
 30
0.0
  0
VERTEX
  5
211
330
20D
100
AcDbEntity
  8
COTAS
370
     0
100
AcDbVertex
100
AcDb2dVertex
 10
72.5859704467101
 20
179.4632381919556
 30
0.0
  0
SEQEND
  5
212
330
20D
100
AcDbEntity
  8
COTAS
370
     0
  0
HATCH
  5
213
330
209
100
AcDbEntity
  8
COTAS
 62
     7
100
AcDbHatch
 10
0.0
 20
0.0
 30
0.0
210
0.0
220
0.0
230
1.0
  2
SOLID
 70
     1
 71
     0
 91
        1
 92
        1
 93
        3
 72
     1
 10
72.5859704467101
 20
179.4632381919556
 11
73.16267981139289
 21
179.4632381919556
 72
     1
 10
73.16267981139289
 20
179.4632381919556
 11
72.8743251290515
 21
177.733454607683
 72
     1
 10
72.8743251290515
 20
177.733454607683
 11
72.5859704467101
 21
179.4632381919556
 97
        0
 75
     2
 76
     1
 98
        0
  0
ENDBLK
  5
20C
330
209
100
AcDbEntity
  8
0
100
AcDbBlockEnd
  0
BLOCK
  5
216
330
214
100
AcDbEntity
  8
0
100
AcDbBlockBegin
  2
block 72
 70
     0
 71
     0
 10
0.0
 20
0.0
 30
0.0
  3
block 72
  1

  0
POLYLINE
  5
218
330
214
100
AcDbEntity
  8
COTAS
370
     0
100
AcDb2dPolyline
 66
     1
 10
0.0
 20
0.0
 30
0.0
  0
VERTEX
  5
219
330
218
100
AcDbEntity
  8
COTAS
370
     0
100
AcDbVertex
100
AcDb2dVertex
 10
72.5859704467101
 20
200.0271989641168
 30
0.0
  0
VERTEX
  5
21A
330
218
100
AcDbEntity
  8
COTAS
370
     0
100
AcDbVertex
100
AcDb2dVertex
 10
73.16267981139289
 20
200.0271989641168
 30
0.0
  0
VERTEX
  5
21B
330
218
100
AcDbEntity
  8
COTAS
370
     0
100
AcDbVertex
100
AcDb2dVertex
 10
72.8743251290515
 20
201.7571548032772
 30
0.0
  0
VERTEX
  5
21C
330
218
100
AcDbEntity
  8
COTAS
370
     0
100
AcDbVertex
100
AcDb2dVertex
 10
72.5859704467101
 20
200.0271989641168
 30
0.0
  0
SEQEND
  5
21D
330
218
100
AcDbEntity
  8
COTAS
370
     0
  0
HATCH
  5
21E
330
214
100
AcDbEntity
  8
COTAS
 62
     7
100
AcDbHatch
 10
0.0
 20
0.0
 30
0.0
210
0.0
220
0.0
230
1.0
  2
SOLID
 70
     1
 71
     0
 91
        1
 92
        1
 93
        3
 72
     1
 10
72.5859704467101
 20
200.0271989641168
 11
73.16267981139289
 21
200.0271989641168
 72
     1
 10
73.16267981139289
 20
200.0271989641168
 11
72.8743251290515
 21
201.7571548032772
 72
     1
 10
72.8743251290515
 20
201.7571548032772
 11
72.5859704467101
 21
200.0271989641168
 97
        0
 75
     2
 76
     1
 98
        0
  0
ENDBLK
  5
217
330
214
100
AcDbEntity
  8
0
100
AcDbBlockEnd
  0
BLOCK
  5
221
330
21F
100
AcDbEntity
  8
0
100
AcDbBlockBegin
  2
block 73
 70
     0
 71
     0
 10
0.0
 20
0.0
 30
0.0
  3
block 73
  1

  0
MTEXT
  5
223
330
21F
100
AcDbEntity
  8
COTAS
 62
     7
100
AcDbMText
 10
70.12858221595603
 20
188.7841224310088
 30
0.0
 40
2.398890470823883
 41
0.0
 71
     7
 72
     1
  1
\fArial|b1|i0|c0|p34;\W1;200
 73
     1
 44
1.0
  0
ENDBLK
  5
222
330
21F
100
AcDbEntity
  8
0
100
AcDbBlockEnd
  0
BLOCK
  5
226
330
224
100
AcDbEntity
  8
0
100
AcDbBlockBegin
  2
block 74
 70
     0
 71
     0
 10
0.0
 20
0.0
 30
0.0
  3
block 74
  1

  0
POLYLINE
  5
228
330
224
100
AcDbEntity
  8
COTAS
 62
     7
370
     9
100
AcDb2dPolyline
 66
     1
 10
0.0
 20
0.0
 30
0.0
  0
VERTEX
  5
229
330
228
100
AcDbEntity
  8
COTAS
 62
     7
370
     9
100
AcDbVertex
100
AcDb2dVertex
 10
102.5989730945207
 20
177.733454607683
 30
0.0
  0
VERTEX
  5
22A
330
228
100
AcDbEntity
  8
COTAS
 62
     7
370
     9
100
AcDbVertex
100
AcDb2dVertex
 10
102.5989730945207
 20
177.733454607683
 30
0.0
  0
SEQEND
  5
22B
330
228
100
AcDbEntity
  8
COTAS
370
     9
  0
ENDBLK
  5
227
330
224
100
AcDbEntity
  8
0
100
AcDbBlockEnd
  0
BLOCK
  5
22E
330
22C
100
AcDbEntity
  8
0
100
AcDbBlockBegin
  2
block 75
 70
     0
 71
     0
 10
0.0
 20
0.0
 30
0.0
  3
block 75
  1

  0
POLYLINE
  5
230
330
22C
100
AcDbEntity
  8
COTAS
 62
     7
370
     9
100
AcDb2dPolyline
 66
     1
 10
0.0
 20
0.0
 30
0.0
  0
VERTEX
  5
231
330
230
100
AcDbEntity
  8
COTAS
 62
     7
370
     9
100
AcDbVertex
100
AcDb2dVertex
 10
83.94049589228813
 20
201.7571548032772
 30
0.0
  0
VERTEX
  5
232
330
230
100
AcDbEntity
  8
COTAS
 62
     7
370
     9
100
AcDbVertex
100
AcDb2dVertex
 10
83.94049589228813
 20
201.7571548032772
 30
0.0
  0
SEQEND
  5
233
330
230
100
AcDbEntity
  8
COTAS
370
     9
  0
ENDBLK
  5
22F
330
22C
100
AcDbEntity
  8
0
100
AcDbBlockEnd
  0
BLOCK
  5
236
330
234
100
AcDbEntity
  8
0
100
AcDbBlockBegin
  2
block 76
 70
     0
 71
     0
 10
0.0
 20
0.0
 30
0.0
  3
block 76
  1

  0
POLYLINE
  5
238
330
234
100
AcDbEntity
  8
COTAS
 62
     7
370
     9
100
AcDb2dPolyline
 66
     1
 10
0.0
 20
0.0
 30
0.0
  0
VERTEX
  5
239
330
238
100
AcDbEntity
  8
COTAS
 62
     7
370
     9
100
AcDbVertex
100
AcDb2dVertex
 10
72.8743251290515
 20
201.7571548032772
 30
0.0
  0
VERTEX
  5
23A
330
238
100
AcDbEntity
  8
COTAS
 62
     7
370
     9
100
AcDbVertex
100
AcDb2dVertex
 10
72.8743251290515
 20
201.7571548032772
 30
0.0
  0
SEQEND
  5
23B
330
238
100
AcDbEntity
  8
COTAS
370
     9
  0
ENDBLK
  5
237
330
234
100
AcDbEntity
  8
0
100
AcDbBlockEnd
  0
BLOCK
  5
243
330
241
100
AcDbEntity
  8
0
100
AcDbBlockBegin
  2
block 77
 70
     0
 71
     0
 10
0.0
 20
0.0
 30
0.0
  3
block 77
  1

  0
SPLINE
  5
245
330
241
100
AcDbEntity
  8
trama-1
370
     0
100
AcDbSpline
210
0.0
220
0.0
230
1.0
 70
    11
 71
     3
 72
    26
 73
    22
 74
     0
 42
0.0000000001
 43
0.0000000001
 40
0.0
 40
0.0
 40
0.0
 40
0.0
 40
1.0
 40
1.0
 40
1.0
 40
2.0
 40
2.0
 40
2.0
 40
3.0
 40
3.0
 40
3.0
 40
4.0
 40
4.0
 40
4.0
 40
5.0
 40
5.0
 40
5.0
 40
6.0
 40
6.0
 40
6.0
 40
7.0
 40
7.0
 40
7.0
 40
7.0
 10
154.456307096239
 20
70.46602954134838
 30
0.0
 10
154.3763808282544
 20
69.83798822007196
 30
0.0
 10
154.7202015844989
 20
69.48968883674203
 30
0.0
 10
155.2242193864887
 20
69.68847097737643
 30
0.0
 10
155.7282371884785
 20
69.88725311801082
 30
0.0
 10
156.2019381301982
 20
70.55766914171015
 30
0.0
 10
156.2815198884072
 20
71.18605497276236
 30
0.0
 10
156.297022828318
 20
71.2821732002095
 30
0.0
 10
156.297022828318
 20
71.44133671662733
 30
0.0
 10
156.2815198884072
 20
71.51988494550886
 30
0.0
 10
156.2815198884072
 20
71.51988494550886
 30
0.0
 10
156.2815198884072
 20
71.51988494550886
 30
0.0
 10
156.2815198884072
 20
71.51988494550886
 30
0.0
 10
156.2346665588989
 20
71.05445223840823
 30
0.0
 10
155.8932573710849
 20
70.46292895336622
 30
0.0
 10
155.5136075981575
 20
70.18973270115985
 30
0.0
 10
155.0095897961677
 20
69.80629332069871
 30
0.0
 10
154.5362333642238
 20
69.92997233020954
 30
0.0
 10
154.456307096239
 20
70.46602954134838
 30
0.0
 10
154.456307096239
 20
70.46602954134838
 30
0.0
 10
154.456307096239
 20
70.46602954134838
 30
0.0
 10
154.456307096239
 20
70.46602954134838
 30
0.0
  0
HATCH
  5
246
330
241
100
AcDbEntity
  8
trama-1
 62
     7
100
AcDbHatch
 10
0.0
 20
0.0
 30
0.0
210
0.0
220
0.0
230
1.0
  2
SOLID
 70
     1
 71
     0
 91
        1
 92
        1
 93
        1
 72
     4
 94
        3
 73
     0
 74
     1
 95
       26
 96
       22
 40
0.0
 40
0.0
 40
0.0
 40
0.0
 40
1.0
 40
1.0
 40
1.0
 40
2.0
 40
2.0
 40
2.0
 40
3.0
 40
3.0
 40
3.0
 40
4.0
 40
4.0
 40
4.0
 40
5.0
 40
5.0
 40
5.0
 40
6.0
 40
6.0
 40
6.0
 40
7.0
 40
7.0
 40
7.0
 40
7.0
 10
154.456307096239
 20
70.46602954134838
 10
154.3763808282544
 20
69.83798822007196
 10
154.7202015844989
 20
69.48968883674203
 10
155.2242193864887
 20
69.68847097737643
 10
155.7282371884785
 20
69.88725311801082
 10
156.2019381301982
 20
70.55766914171015
 10
156.2815198884072
 20
71.18605497276236
 10
156.297022828318
 20
71.2821732002095
 10
156.297022828318
 20
71.44133671662733
 10
156.2815198884072
 20
71.51988494550886
 10
156.2815198884072
 20
71.51988494550886
 10
156.2815198884072
 20
71.51988494550886
 10
156.2815198884072
 20
71.51988494550886
 10
156.2346665588989
 20
71.05445223840823
 10
155.8932573710849
 20
70.46292895336622
 10
155.5136075981575
 20
70.18973270115985
 10
155.0095897961677
 20
69.80629332069871
 10
154.5362333642238
 20
69.92997233020954
 10
154.456307096239
 20
70.46602954134838
 10
154.456307096239
 20
70.46602954134838
 10
154.456307096239
 20
70.46602954134838
 10
154.456307096239
 20
70.46602954134838
 97
        0
 75
     0
 76
     1
 98
        0
  0
ENDBLK
  5
244
330
241
100
AcDbEntity
  8
0
100
AcDbBlockEnd
  0
BLOCK
  5
249
330
247
100
AcDbEntity
  8
0
100
AcDbBlockBegin
  2
block 78
 70
     0
 71
     0
 10
0.0
 20
0.0
 30
0.0
  3
block 78
  1

  0
SPLINE
  5
24B
330
247
100
AcDbEntity
  8
trama-1
370
     0
100
AcDbSpline
210
0.0
220
0.0
230
1.0
 70
    11
 71
     3
 72
    23
 73
    19
 74
     0
 42
0.0000000001
 43
0.0000000001
 40
0.0
 40
0.0
 40
0.0
 40
0.0
 40
1.0
 40
1.0
 40
1.0
 40
2.0
 40
2.0
 40
2.0
 40
3.0
 40
3.0
 40
3.0
 40
4.0
 40
4.0
 40
4.0
 40
5.0
 40
5.0
 40
5.0
 40
6.0
 40
6.0
 40
6.0
 40
6.0
 10
146.0640489578444
 20
68.81927281304269
 30
0.0
 10
146.0640489578444
 20
60.78254876326966
 30
0.0
 10
157.3481221542721
 20
54.26786890296411
 30
0.0
 10
171.2676951355405
 20
54.26786890296411
 30
0.0
 10
185.1872681168089
 20
54.26786890296411
 30
0.0
 10
196.4709968034608
 20
60.78254876326966
 30
0.0
 10
196.4709968034608
 20
68.81927281304269
 30
0.0
 10
196.4709968034608
 20
76.85565235303991
 30
0.0
 10
185.1872681168089
 20
83.37067672312126
 30
0.0
 10
171.2676951355405
 20
83.37067672312126
 30
0.0
 10
157.3481221542721
 20
83.37067672312126
 30
0.0
 10
146.0640489578444
 20
76.85565235303991
 30
0.0
 10
146.0640489578444
 20
68.81927281304269
 30
0.0
 10
146.0640489578444
 20
68.81927281304269
 30
0.0
 10
146.0640489578444
 20
68.81927281304269
 30
0.0
 10
146.0640489578444
 20
68.81927281304269
 30
0.0
 10
146.0640489578444
 20
68.81927281304269
 30
0.0
 10
146.0640489578444
 20
68.81927281304269
 30
0.0
 10
146.0640489578444
 20
68.81927281304269
 30
0.0
  0
SPLINE
  5
24C
330
247
100
AcDbEntity
  8
trama-1
370
     0
100
AcDbSpline
210
0.0
220
0.0
230
1.0
 70
    11
 71
     3
 72
    23
 73
    19
 74
     0
 42
0.0000000001
 43
0.0000000001
 40
0.0
 40
0.0
 40
0.0
 40
0.0
 40
1.0
 40
1.0
 40
1.0
 40
2.0
 40
2.0
 40
2.0
 40
3.0
 40
3.0
 40
3.0
 40
4.0
 40
4.0
 40
4.0
 40
5.0
 40
5.0
 40
5.0
 40
6.0
 40
6.0
 40
6.0
 40
6.0
 10
151.6020436037678
 20
68.81927281304269
 30
0.0
 10
151.6020436037678
 20
62.54850587400082
 30
0.0
 10
160.4066799437905
 20
57.46526413212835
 30
0.0
 10
171.2676951355405
 20
57.46526413212835
 30
0.0
 10
182.1287103272905
 20
57.46526413212835
 30
0.0
 10
190.9333466673132
 20
62.54850587400082
 30
0.0
 10
190.9333466673132
 20
68.81927281304269
 30
0.0
 10
190.9333466673132
 20
75.08969524230876
 30
0.0
 10
182.1287103272905
 20
80.17328149395702
 30
0.0
 10
171.2676951355405
 20
80.17328149395702
 30
0.0
 10
160.4066799437905
 20
80.17328149395702
 30
0.0
 10
151.6020436037678
 20
75.08969524230876
 30
0.0
 10
151.6020436037678
 20
68.81927281304269
 30
0.0
 10
151.6020436037678
 20
68.81927281304269
 30
0.0
 10
151.6020436037678
 20
68.81927281304269
 30
0.0
 10
151.6020436037678
 20
68.81927281304269
 30
0.0
 10
151.6020436037678
 20
68.81927281304269
 30
0.0
 10
151.6020436037678
 20
68.81927281304269
 30
0.0
 10
151.6020436037678
 20
68.81927281304269
 30
0.0
  0
SPLINE
  5
24D
330
247
100
AcDbEntity
  8
trama-1
370
     0
100
AcDbSpline
210
0.0
220
0.0
230
1.0
 70
    11
 71
     3
 72
    23
 73
    19
 74
     0
 42
0.0000000001
 43
0.0000000001
 40
0.0
 40
0.0
 40
0.0
 40
0.0
 40
1.0
 40
1.0
 40
1.0
 40
2.0
 40
2.0
 40
2.0
 40
3.0
 40
3.0
 40
3.0
 40
4.0
 40
4.0
 40
4.0
 40
5.0
 40
5.0
 40
5.0
 40
6.0
 40
6.0
 40
6.0
 40
6.0
 10
154.7153784476378
 20
69.69432764356496
 30
0.0
 10
155.0764246926722
 20
69.48589922920827
 30
0.0
 10
155.661402291974
 20
69.82351880948852
 30
0.0
 10
156.0224485370084
 20
70.44880405255857
 30
0.0
 10
156.383150272267
 20
71.07374478585282
 30
0.0
 10
156.383150272267
 20
71.7493284561891
 30
0.0
 10
156.0224485370084
 20
71.9577568705458
 30
0.0
 10
155.661402291974
 20
72.16618528490247
 30
0.0
 10
155.0764246926722
 20
71.82822119484642
 30
0.0
 10
154.7153784476378
 20
71.20328046155218
 30
0.0
 10
154.3546767123792
 20
70.57833972825793
 30
0.0
 10
154.3546767123792
 20
69.90241154814585
 30
0.0
 10
154.7153784476378
 20
69.69432764356496
 30
0.0
 10
154.7153784476378
 20
69.69432764356496
 30
0.0
 10
154.7153784476378
 20
69.69432764356496
 30
0.0
 10
154.7153784476378
 20
69.69432764356496
 30
0.0
 10
154.7153784476378
 20
69.69432764356496
 30
0.0
 10
154.7153784476378
 20
69.69432764356496
 30
0.0
 10
154.7153784476378
 20
69.69432764356496
 30
0.0
  0
HATCH
  5
24E
330
247
100
AcDbEntity
  8
trama-1
 62
     7
100
AcDbHatch
 10
0.0
 20
0.0
 30
0.0
210
0.0
220
0.0
230
1.0
  2
SOLID
 70
     1
 71
     0
 91
        3
 92
        1
 93
        1
 72
     4
 94
        3
 73
     0
 74
     1
 95
       23
 96
       19
 40
0.0
 40
0.0
 40
0.0
 40
0.0
 40
1.0
 40
1.0
 40
1.0
 40
2.0
 40
2.0
 40
2.0
 40
3.0
 40
3.0
 40
3.0
 40
4.0
 40
4.0
 40
4.0
 40
5.0
 40
5.0
 40
5.0
 40
6.0
 40
6.0
 40
6.0
 40
6.0
 10
146.0640489578444
 20
68.81927281304269
 10
146.0640489578444
 20
60.78254876326966
 10
157.3481221542721
 20
54.26786890296411
 10
171.2676951355405
 20
54.26786890296411
 10
185.1872681168089
 20
54.26786890296411
 10
196.4709968034608
 20
60.78254876326966
 10
196.4709968034608
 20
68.81927281304269
 10
196.4709968034608
 20
76.85565235303991
 10
185.1872681168089
 20
83.37067672312126
 10
171.2676951355405
 20
83.37067672312126
 10
157.3481221542721
 20
83.37067672312126
 10
146.0640489578444
 20
76.85565235303991
 10
146.0640489578444
 20
68.81927281304269
 10
146.0640489578444
 20
68.81927281304269
 10
146.0640489578444
 20
68.81927281304269
 10
146.0640489578444
 20
68.81927281304269
 10
146.0640489578444
 20
68.81927281304269
 10
146.0640489578444
 20
68.81927281304269
 10
146.0640489578444
 20
68.81927281304269
 97
        0
 92
        1
 93
        1
 72
     4
 94
        3
 73
     0
 74
     1
 95
       23
 96
       19
 40
0.0
 40
0.0
 40
0.0
 40
0.0
 40
1.0
 40
1.0
 40
1.0
 40
2.0
 40
2.0
 40
2.0
 40
3.0
 40
3.0
 40
3.0
 40
4.0
 40
4.0
 40
4.0
 40
5.0
 40
5.0
 40
5.0
 40
6.0
 40
6.0
 40
6.0
 40
6.0
 10
151.6020436037678
 20
68.81927281304269
 10
151.6020436037678
 20
62.54850587400082
 10
160.4066799437905
 20
57.46526413212835
 10
171.2676951355405
 20
57.46526413212835
 10
182.1287103272905
 20
57.46526413212835
 10
190.9333466673132
 20
62.54850587400082
 10
190.9333466673132
 20
68.81927281304269
 10
190.9333466673132
 20
75.08969524230876
 10
182.1287103272905
 20
80.17328149395702
 10
171.2676951355405
 20
80.17328149395702
 10
160.4066799437905
 20
80.17328149395702
 10
151.6020436037678
 20
75.08969524230876
 10
151.6020436037678
 20
68.81927281304269
 10
151.6020436037678
 20
68.81927281304269
 10
151.6020436037678
 20
68.81927281304269
 10
151.6020436037678
 20
68.81927281304269
 10
151.6020436037678
 20
68.81927281304269
 10
151.6020436037678
 20
68.81927281304269
 10
151.6020436037678
 20
68.81927281304269
 97
        0
 92
        1
 93
        1
 72
     4
 94
        3
 73
     0
 74
     1
 95
       23
 96
       19
 40
0.0
 40
0.0
 40
0.0
 40
0.0
 40
1.0
 40
1.0
 40
1.0
 40
2.0
 40
2.0
 40
2.0
 40
3.0
 40
3.0
 40
3.0
 40
4.0
 40
4.0
 40
4.0
 40
5.0
 40
5.0
 40
5.0
 40
6.0
 40
6.0
 40
6.0
 40
6.0
 10
154.7153784476378
 20
69.69432764356496
 10
155.0764246926722
 20
69.48589922920827
 10
155.661402291974
 20
69.82351880948852
 10
156.0224485370084
 20
70.44880405255857
 10
156.383150272267
 20
71.07374478585282
 10
156.383150272267
 20
71.7493284561891
 10
156.0224485370084
 20
71.9577568705458
 10
155.661402291974
 20
72.16618528490247
 10
155.0764246926722
 20
71.82822119484642
 10
154.7153784476378
 20
71.20328046155218
 10
154.3546767123792
 20
70.57833972825793
 10
154.3546767123792
 20
69.90241154814585
 10
154.7153784476378
 20
69.69432764356496
 10
154.7153784476378
 20
69.69432764356496
 10
154.7153784476378
 20
69.69432764356496
 10
154.7153784476378
 20
69.69432764356496
 10
154.7153784476378
 20
69.69432764356496
 10
154.7153784476378
 20
69.69432764356496
 10
154.7153784476378
 20
69.69432764356496
 97
        0
 75
     0
 76
     1
 98
        0
  0
ENDBLK
  5
24A
330
247
100
AcDbEntity
  8
0
100
AcDbBlockEnd
  0
BLOCK
  5
251
330
24F
100
AcDbEntity
  8
0
100
AcDbBlockBegin
  2
block 79
 70
     0
 71
     0
 10
0.0
 20
0.0
 30
0.0
  3
block 79
  1

  0
SPLINE
  5
253
330
24F
100
AcDbEntity
  8
trama-1
370
     0
100
AcDbSpline
210
0.0
220
0.0
230
1.0
 70
    11
 71
     3
 72
    32
 73
    28
 74
     0
 42
0.0000000001
 43
0.0000000001
 40
0.0
 40
0.0
 40
0.0
 40
0.0
 40
1.0
 40
1.0
 40
1.0
 40
2.0
 40
2.0
 40
2.0
 40
3.0
 40
3.0
 40
3.0
 40
4.0
 40
4.0
 40
4.0
 40
5.0
 40
5.0
 40
5.0
 40
6.0
 40
6.0
 40
6.0
 40
7.0
 40
7.0
 40
7.0
 40
8.0
 40
8.0
 40
8.0
 40
9.0
 40
9.0
 40
9.0
 40
9.0
 10
167.0663984197062
 20
57.72743607150924
 30
0.0
 10
167.8904658034106
 20
57.97617212963407
 30
0.0
 10
169.0835031569928
 20
57.87488625555
 30
0.0
 10
169.7480625145036
 20
57.49902609015638
 30
0.0
 10
169.7480625145036
 20
57.49902609015638
 30
0.0
 10
169.7480625145036
 20
57.49902609015638
 30
0.0
 10
169.7480625145036
 20
57.49902609015638
 30
0.0
 10
170.3041012926386
 20
57.46870922988631
 30
0.0
 10
171.3793163028985
 20
57.45527334863026
 30
0.0
 10
171.9374221396883
 20
57.47180981786848
 30
0.0
 10
171.9374221396883
 20
57.47180981786848
 30
0.0
 10
171.9374221396883
 20
57.47180981786848
 30
0.0
 10
171.9374221396883
 20
57.47180981786848
 30
0.0
 10
171.9157180238131
 20
58.69206344373851
 30
0.0
 10
170.1849009102131
 20
59.67081571677542
 30
0.0
 10
168.0713334357037
 20
59.65841336484677
 30
0.0
 10
166.525862581482
 20
59.68149551982511
 30
0.0
 10
164.9328493782006
 20
59.01590263298691
 30
0.0
 10
164.4880872576477
 20
58.16117387923661
 30
0.0
 10
164.4880872576477
 20
58.16117387923661
 30
0.0
 10
164.4880872576477
 20
58.16117387923661
 30
0.0
 10
164.4880872576477
 20
58.16117387923661
 30
0.0
 10
165.1292199504044
 20
58.01647977340222
 30
0.0
 10
166.3904702395942
 20
57.80426175151178
 30
0.0
 10
167.0663984197062
 20
57.72743607150924
 30
0.0
 10
167.0663984197062
 20
57.72743607150924
 30
0.0
 10
167.0663984197062
 20
57.72743607150924
 30
0.0
 10
167.0663984197062
 20
57.72743607150924
 30
0.0
  0
HATCH
  5
254
330
24F
100
AcDbEntity
  8
trama-1
 62
     7
100
AcDbHatch
 10
0.0
 20
0.0
 30
0.0
210
0.0
220
0.0
230
1.0
  2
SOLID
 70
     1
 71
     0
 91
        1
 92
        1
 93
        1
 72
     4
 94
        3
 73
     0
 74
     1
 95
       32
 96
       28
 40
0.0
 40
0.0
 40
0.0
 40
0.0
 40
1.0
 40
1.0
 40
1.0
 40
2.0
 40
2.0
 40
2.0
 40
3.0
 40
3.0
 40
3.0
 40
4.0
 40
4.0
 40
4.0
 40
5.0
 40
5.0
 40
5.0
 40
6.0
 40
6.0
 40
6.0
 40
7.0
 40
7.0
 40
7.0
 40
8.0
 40
8.0
 40
8.0
 40
9.0
 40
9.0
 40
9.0
 40
9.0
 10
167.0663984197062
 20
57.72743607150924
 10
167.8904658034106
 20
57.97617212963407
 10
169.0835031569928
 20
57.87488625555
 10
169.7480625145036
 20
57.49902609015638
 10
169.7480625145036
 20
57.49902609015638
 10
169.7480625145036
 20
57.49902609015638
 10
169.7480625145036
 20
57.49902609015638
 10
170.3041012926386
 20
57.46870922988631
 10
171.3793163028985
 20
57.45527334863026
 10
171.9374221396883
 20
57.47180981786848
 10
171.9374221396883
 20
57.47180981786848
 10
171.9374221396883
 20
57.47180981786848
 10
171.9374221396883
 20
57.47180981786848
 10
171.9157180238131
 20
58.69206344373851
 10
170.1849009102131
 20
59.67081571677542
 10
168.0713334357037
 20
59.65841336484677
 10
166.525862581482
 20
59.68149551982511
 10
164.9328493782006
 20
59.01590263298691
 10
164.4880872576477
 20
58.16117387923661
 10
164.4880872576477
 20
58.16117387923661
 10
164.4880872576477
 20
58.16117387923661
 10
164.4880872576477
 20
58.16117387923661
 10
165.1292199504044
 20
58.01647977340222
 10
166.3904702395942
 20
57.80426175151178
 10
167.0663984197062
 20
57.72743607150924
 10
167.0663984197062
 20
57.72743607150924
 10
167.0663984197062
 20
57.72743607150924
 10
167.0663984197062
 20
57.72743607150924
 97
        0
 75
     0
 76
     1
 98
        0
  0
ENDBLK
  5
252
330
24F
100
AcDbEntity
  8
0
100
AcDbBlockEnd
  0
BLOCK
  5
258
330
256
100
AcDbEntity
  8
0
100
AcDbBlockBegin
  2
block 80
 70
     0
 71
     0
 10
0.0
 20
0.0
 30
0.0
  3
block 80
  1

  0
SPLINE
  5
25A
330
256
100
AcDbEntity
  8
035
 62
     7
370
     9
100
AcDbSpline
210
0.0
220
0.0
230
1.0
 70
     8
 71
     3
 72
    11
 73
     7
 74
     0
 42
0.0000000001
 43
0.0000000001
 40
0.0
 40
0.0
 40
0.0
 40
0.0
 40
1.0
 40
1.0
 40
1.0
 40
2.0
 40
2.0
 40
2.0
 40
2.0
 10
154.456307096239
 20
70.46602954134838
 30
0.0
 10
154.535888854448
 20
69.92997233020954
 30
0.0
 10
155.0095897961677
 20
69.80629332069871
 30
0.0
 10
155.5136075981575
 20
70.18973270115985
 30
0.0
 10
155.8932573710849
 20
70.46292895336622
 30
0.0
 10
156.2346665588989
 20
71.05445223840823
 30
0.0
 10
156.2815198884072
 20
71.51988494550886
 30
0.0
  0
ENDBLK
  5
259
330
256
100
AcDbEntity
  8
0
100
AcDbBlockEnd
  0
BLOCK
  5
25D
330
25B
100
AcDbEntity
  8
0
100
AcDbBlockBegin
  2
block 81
 70
     0
 71
     0
 10
0.0
 20
0.0
 30
0.0
  3
block 81
  1

  0
SPLINE
  5
25F
330
25B
100
AcDbEntity
  8
035
 62
     7
370
     9
100
AcDbSpline
210
0.0
220
0.0
230
1.0
 70
     8
 71
     3
 72
     8
 73
     4
 74
     0
 42
0.0000000001
 43
0.0000000001
 40
0.0
 40
0.0
 40
0.0
 40
0.0
 40
1.0
 40
1.0
 40
1.0
 40
1.0
 10
169.7480625145036
 20
57.49902609015638
 30
0.0
 10
169.0835031569928
 20
57.87488625555
 30
0.0
 10
167.8904658034106
 20
57.97617212963407
 30
0.0
 10
167.0663984197062
 20
57.72743607150924
 30
0.0
  0
ENDBLK
  5
25E
330
25B
100
AcDbEntity
  8
0
100
AcDbBlockEnd
  0
BLOCK
  5
262
330
260
100
AcDbEntity
  8
0
100
AcDbBlockBegin
  2
block 82
 70
     0
 71
     0
 10
0.0
 20
0.0
 30
0.0
  3
block 82
  1

  0
SPLINE
  5
264
330
260
100
AcDbEntity
  8
035
 62
     7
370
     9
100
AcDbSpline
210
0.0
220
0.0
230
1.0
 70
     8
 71
     3
 72
     8
 73
     4
 74
     0
 42
0.0000000001
 43
0.0000000001
 40
0.0
 40
0.0
 40
0.0
 40
0.0
 40
1.0
 40
1.0
 40
1.0
 40
1.0
 10
169.5888989980858
 20
65.08788743139438
 30
0.0
 10
170.5194199025112
 20
67.95145268781214
 30
0.0
 10
170.4680879459176
 20
72.89344542160818
 30
0.0
 10
169.4783113600552
 20
75.73702911102976
 30
0.0
  0
ENDBLK
  5
263
330
260
100
AcDbEntity
  8
0
100
AcDbBlockEnd
  0
BLOCK
  5
267
330
265
100
AcDbEntity
  8
0
100
AcDbBlockBegin
  2
block 83
 70
     0
 71
     0
 10
0.0
 20
0.0
 30
0.0
  3
block 83
  1

  0
SPLINE
  5
269
330
265
100
AcDbEntity
  8
035
 62
     7
370
     9
100
AcDbSpline
210
0.0
220
0.0
230
1.0
 70
     8
 71
     3
 72
    17
 73
    13
 74
     0
 42
0.0000000001
 43
0.0000000001
 40
0.0
 40
0.0
 40
0.0
 40
0.0
 40
1.0
 40
1.0
 40
1.0
 40
2.0
 40
2.0
 40
2.0
 40
3.0
 40
3.0
 40
3.0
 40
4.0
 40
4.0
 40
4.0
 40
4.0
 10
192.6242006469208
 20
65.805156784602
 30
0.0
 10
196.0055640963602
 20
72.61473701298908
 30
0.0
 10
189.1849595551477
 20
79.71783957035449
 30
0.0
 10
177.39032287099
 20
81.67017646979139
 30
0.0
 10
165.5953416770566
 20
83.62251336922827
 30
0.0
 10
153.2922085638238
 20
79.68476663187806
 30
0.0
 10
149.9108451143844
 20
72.87484189371519
 30
0.0
 10
146.529481664945
 20
66.06491715555232
 30
0.0
 10
153.3500862061576
 20
58.96181459818691
 30
0.0
 10
165.145067400091
 20
57.00982220852582
 30
0.0
 10
166.8248970668731
 20
56.68942811703538
 30
0.0
 10
169.9764724958565
 20
56.4537834303908
 30
0.0
 10
171.7420850968118
 20
56.51579519003411
 30
0.0
  0
ENDBLK
  5
268
330
265
100
AcDbEntity
  8
0
100
AcDbBlockEnd
  0
BLOCK
  5
26D
330
26B
100
AcDbEntity
  8
0
100
AcDbBlockBegin
  2
block 84
 70
     0
 71
     0
 10
0.0
 20
0.0
 30
0.0
  3
block 84
  1

  0
SPLINE
  5
26F
330
26B
100
AcDbEntity
  8
trama-2
370
     0
100
AcDbSpline
210
0.0
220
0.0
230
1.0
 70
    11
 71
     3
 72
    29
 73
    25
 74
     0
 42
0.0000000001
 43
0.0000000001
 40
0.0
 40
0.0
 40
0.0
 40
0.0
 40
1.0
 40
1.0
 40
1.0
 40
2.0
 40
2.0
 40
2.0
 40
3.0
 40
3.0
 40
3.0
 40
4.0
 40
4.0
 40
4.0
 40
5.0
 40
5.0
 40
5.0
 40
6.0
 40
6.0
 40
6.0
 40
7.0
 40
7.0
 40
7.0
 40
8.0
 40
8.0
 40
8.0
 40
8.0
 10
171.9374221396883
 20
57.47180981786848
 30
0.0
 10
182.7918916456981
 20
57.68540587886211
 30
0.0
 10
191.2916368341412
 20
62.93883544997788
 30
0.0
 10
190.9216333349361
 20
69.20581278148599
 30
0.0
 10
190.5519743455068
 20
75.4727901129941
 30
0.0
 10
181.4527821471784
 20
80.37998735943472
 30
0.0
 10
170.5979681313927
 20
80.1663912984411
 30
0.0
 10
159.7431541156071
 20
79.95313974722328
 30
0.0
 10
151.243408927164
 20
74.6993656663317
 30
0.0
 10
151.6134124263691
 20
68.43238833482359
 30
0.0
 10
151.5675926261882
 20
64.06917202436512
 30
0.0
 10
157.2947231390237
 20
59.49993886798053
 30
0.0
 10
164.4880872576477
 20
58.16117387923661
 30
0.0
 10
164.4880872576477
 20
58.16117387923661
 30
0.0
 10
164.4880872576477
 20
58.16117387923661
 30
0.0
 10
164.4880872576477
 20
58.16117387923661
 30
0.0
 10
164.9328493782006
 20
59.01590263298691
 30
0.0
 10
166.525862581482
 20
59.68149551982511
 30
0.0
 10
168.0713334357037
 20
59.65841336484677
 30
0.0
 10
170.1849009102131
 20
59.67081571677542
 30
0.0
 10
171.9157180238131
 20
58.69206344373851
 30
0.0
 10
171.9374221396883
 20
57.47180981786848
 30
0.0
 10
171.9374221396883
 20
57.47180981786848
 30
0.0
 10
171.9374221396883
 20
57.47180981786848
 30
0.0
 10
171.9374221396883
 20
57.47180981786848
 30
0.0
  0
SPLINE
  5
270
330
26B
100
AcDbEntity
  8
trama-2
370
     0
100
AcDbSpline
210
0.0
220
0.0
230
1.0
 70
    11
 71
     3
 72
    23
 73
    19
 74
     0
 42
0.0000000001
 43
0.0000000001
 40
0.0
 40
0.0
 40
0.0
 40
0.0
 40
1.0
 40
1.0
 40
1.0
 40
2.0
 40
2.0
 40
2.0
 40
3.0
 40
3.0
 40
3.0
 40
4.0
 40
4.0
 40
4.0
 40
5.0
 40
5.0
 40
5.0
 40
6.0
 40
6.0
 40
6.0
 40
6.0
 10
154.7153784476378
 20
69.69432764356496
 30
0.0
 10
155.0764246926722
 20
69.48589922920827
 30
0.0
 10
155.661402291974
 20
69.82351880948852
 30
0.0
 10
156.0224485370084
 20
70.44880405255857
 30
0.0
 10
156.383150272267
 20
71.07374478585282
 30
0.0
 10
156.383150272267
 20
71.7493284561891
 30
0.0
 10
156.0224485370084
 20
71.9577568705458
 30
0.0
 10
155.661402291974
 20
72.16618528490247
 30
0.0
 10
155.0764246926722
 20
71.82822119484642
 30
0.0
 10
154.7153784476378
 20
71.20328046155218
 30
0.0
 10
154.3546767123792
 20
70.57833972825793
 30
0.0
 10
154.3546767123792
 20
69.90241154814585
 30
0.0
 10
154.7153784476378
 20
69.69432764356496
 30
0.0
 10
154.7153784476378
 20
69.69432764356496
 30
0.0
 10
154.7153784476378
 20
69.69432764356496
 30
0.0
 10
154.7153784476378
 20
69.69432764356496
 30
0.0
 10
154.7153784476378
 20
69.69432764356496
 30
0.0
 10
154.7153784476378
 20
69.69432764356496
 30
0.0
 10
154.7153784476378
 20
69.69432764356496
 30
0.0
  0
HATCH
  5
271
330
26B
100
AcDbEntity
  8
trama-2
 62
     7
100
AcDbHatch
 10
0.0
 20
0.0
 30
0.0
210
0.0
220
0.0
230
1.0
  2
SOLID
 70
     1
 71
     0
 91
        2
 92
        1
 93
        1
 72
     4
 94
        3
 73
     0
 74
     1
 95
       29
 96
       25
 40
0.0
 40
0.0
 40
0.0
 40
0.0
 40
1.0
 40
1.0
 40
1.0
 40
2.0
 40
2.0
 40
2.0
 40
3.0
 40
3.0
 40
3.0
 40
4.0
 40
4.0
 40
4.0
 40
5.0
 40
5.0
 40
5.0
 40
6.0
 40
6.0
 40
6.0
 40
7.0
 40
7.0
 40
7.0
 40
8.0
 40
8.0
 40
8.0
 40
8.0
 10
171.9374221396883
 20
57.47180981786848
 10
182.7918916456981
 20
57.68540587886211
 10
191.2916368341412
 20
62.93883544997788
 10
190.9216333349361
 20
69.20581278148599
 10
190.5519743455068
 20
75.4727901129941
 10
181.4527821471784
 20
80.37998735943472
 10
170.5979681313927
 20
80.1663912984411
 10
159.7431541156071
 20
79.95313974722328
 10
151.243408927164
 20
74.6993656663317
 10
151.6134124263691
 20
68.43238833482359
 10
151.5675926261882
 20
64.06917202436512
 10
157.2947231390237
 20
59.49993886798053
 10
164.4880872576477
 20
58.16117387923661
 10
164.4880872576477
 20
58.16117387923661
 10
164.4880872576477
 20
58.16117387923661
 10
164.4880872576477
 20
58.16117387923661
 10
164.9328493782006
 20
59.01590263298691
 10
166.525862581482
 20
59.68149551982511
 10
168.0713334357037
 20
59.65841336484677
 10
170.1849009102131
 20
59.67081571677542
 10
171.9157180238131
 20
58.69206344373851
 10
171.9374221396883
 20
57.47180981786848
 10
171.9374221396883
 20
57.47180981786848
 10
171.9374221396883
 20
57.47180981786848
 10
171.9374221396883
 20
57.47180981786848
 97
        0
 92
        1
 93
        1
 72
     4
 94
        3
 73
     0
 74
     1
 95
       23
 96
       19
 40
0.0
 40
0.0
 40
0.0
 40
0.0
 40
1.0
 40
1.0
 40
1.0
 40
2.0
 40
2.0
 40
2.0
 40
3.0
 40
3.0
 40
3.0
 40
4.0
 40
4.0
 40
4.0
 40
5.0
 40
5.0
 40
5.0
 40
6.0
 40
6.0
 40
6.0
 40
6.0
 10
154.7153784476378
 20
69.69432764356496
 10
155.0764246926722
 20
69.48589922920827
 10
155.661402291974
 20
69.82351880948852
 10
156.0224485370084
 20
70.44880405255857
 10
156.383150272267
 20
71.07374478585282
 10
156.383150272267
 20
71.7493284561891
 10
156.0224485370084
 20
71.9577568705458
 10
155.661402291974
 20
72.16618528490247
 10
155.0764246926722
 20
71.82822119484642
 10
154.7153784476378
 20
71.20328046155218
 10
154.3546767123792
 20
70.57833972825793
 10
154.3546767123792
 20
69.90241154814585
 10
154.7153784476378
 20
69.69432764356496
 10
154.7153784476378
 20
69.69432764356496
 10
154.7153784476378
 20
69.69432764356496
 10
154.7153784476378
 20
69.69432764356496
 10
154.7153784476378
 20
69.69432764356496
 10
154.7153784476378
 20
69.69432764356496
 10
154.7153784476378
 20
69.69432764356496
 97
        0
 75
     0
 76
     1
 98
        0
  0
ENDBLK
  5
26E
330
26B
100
AcDbEntity
  8
0
100
AcDbBlockEnd
  0
ENDSEC
  0
SECTION
  2
ENTITIES
  0
INSERT
  5
3C
330
1F
100
AcDbEntity
  8
0
100
AcDbBlockReference
  2
block 2
 10
0.0
 20
0.0
 30
0.0
  0
INSERT
  5
41
330
1F
100
AcDbEntity
  8
0
100
AcDbBlockReference
  2
block 3
 10
0.0
 20
0.0
 30
0.0
  0
INSERT
  5
46
330
1F
100
AcDbEntity
  8
0
100
AcDbBlockReference
  2
block 4
 10
0.0
 20
0.0
 30
0.0
  0
INSERT
  5
4B
330
1F
100
AcDbEntity
  8
0
100
AcDbBlockReference
  2
block 5
 10
0.0
 20
0.0
 30
0.0
  0
INSERT
  5
53
330
1F
100
AcDbEntity
  8
0
100
AcDbBlockReference
  2
block 6
 10
0.0
 20
0.0
 30
0.0
  0
INSERT
  5
5B
330
1F
100
AcDbEntity
  8
0
100
AcDbBlockReference
  2
block 7
 10
0.0
 20
0.0
 30
0.0
  0
INSERT
  5
60
330
1F
100
AcDbEntity
  8
0
100
AcDbBlockReference
  2
block 8
 10
0.0
 20
0.0
 30
0.0
  0
INSERT
  5
65
330
1F
100
AcDbEntity
  8
0
100
AcDbBlockReference
  2
block 9
 10
0.0
 20
0.0
 30
0.0
  0
INSERT
  5
6B
330
1F
100
AcDbEntity
  8
PIEZA
100
AcDbBlockReference
  2
block 10
 10
0.0
 20
0.0
 30
0.0
  0
INSERT
  5
70
330
1F
100
AcDbEntity
  8
PIEZA
100
AcDbBlockReference
  2
block 11
 10
0.0
 20
0.0
 30
0.0
  0
INSERT
  5
75
330
1F
100
AcDbEntity
  8
PIEZA
100
AcDbBlockReference
  2
block 12
 10
0.0
 20
0.0
 30
0.0
  0
INSERT
  5
7A
330
1F
100
AcDbEntity
  8
PIEZA
100
AcDbBlockReference
  2
block 13
 10
0.0
 20
0.0
 30
0.0
  0
INSERT
  5
7F
330
1F
100
AcDbEntity
  8
PIEZA
100
AcDbBlockReference
  2
block 14
 10
0.0
 20
0.0
 30
0.0
  0
INSERT
  5
87
330
1F
100
AcDbEntity
  8
PIEZA
100
AcDbBlockReference
  2
block 15
 10
0.0
 20
0.0
 30
0.0
  0
INSERT
  5
8C
330
1F
100
AcDbEntity
  8
PIEZA
100
AcDbBlockReference
  2
block 16
 10
0.0
 20
0.0
 30
0.0
  0
INSERT
  5
91
330
1F
100
AcDbEntity
  8
PIEZA
100
AcDbBlockReference
  2
block 17
 10
0.0
 20
0.0
 30
0.0
  0
INSERT
  5
96
330
1F
100
AcDbEntity
  8
PIEZA
100
AcDbBlockReference
  2
block 18
 10
0.0
 20
0.0
 30
0.0
  0
INSERT
  5
9B
330
1F
100
AcDbEntity
  8
PIEZA
100
AcDbBlockReference
  2
block 19
 10
0.0
 20
0.0
 30
0.0
  0
INSERT
  5
A0
330
1F
100
AcDbEntity
  8
PIEZA
100
AcDbBlockReference
  2
block 20
 10
0.0
 20
0.0
 30
0.0
  0
INSERT
  5
A8
330
1F
100
AcDbEntity
  8
PIEZA
100
AcDbBlockReference
  2
block 21
 10
0.0
 20
0.0
 30
0.0
  0
INSERT
  5
AD
330
1F
100
AcDbEntity
  8
PIEZA
100
AcDbBlockReference
  2
block 22
 10
0.0
 20
0.0
 30
0.0
  0
INSERT
  5
B5
330
1F
100
AcDbEntity
  8
PIEZA
100
AcDbBlockReference
  2
block 23
 10
0.0
 20
0.0
 30
0.0
  0
INSERT
  5
BA
330
1F
100
AcDbEntity
  8
PIEZA
100
AcDbBlockReference
  2
block 24
 10
0.0
 20
0.0
 30
0.0
  0
INSERT
  5
C2
330
1F
100
AcDbEntity
  8
PIEZA
100
AcDbBlockReference
  2
block 25
 10
0.0
 20
0.0
 30
0.0
  0
INSERT
  5
CA
330
1F
100
AcDbEntity
  8
PIEZA
100
AcDbBlockReference
  2
block 26
 10
0.0
 20
0.0
 30
0.0
  0
INSERT
  5
CF
330
1F
100
AcDbEntity
  8
PIEZA
100
AcDbBlockReference
  2
block 27
 10
0.0
 20
0.0
 30
0.0
  0
INSERT
  5
D4
330
1F
100
AcDbEntity
  8
PIEZA
100
AcDbBlockReference
  2
block 28
 10
0.0
 20
0.0
 30
0.0
  0
INSERT
  5
D9
330
1F
100
AcDbEntity
  8
PIEZA
100
AcDbBlockReference
  2
block 29
 10
0.0
 20
0.0
 30
0.0
  0
INSERT
  5
DE
330
1F
100
AcDbEntity
  8
PIEZA
100
AcDbBlockReference
  2
block 30
 10
0.0
 20
0.0
 30
0.0
  0
INSERT
  5
E3
330
1F
100
AcDbEntity
  8
PIEZA
100
AcDbBlockReference
  2
block 31
 10
0.0
 20
0.0
 30
0.0
  0
INSERT
  5
E8
330
1F
100
AcDbEntity
  8
PIEZA
100
AcDbBlockReference
  2
block 32
 10
0.0
 20
0.0
 30
0.0
  0
INSERT
  5
F0
330
1F
100
AcDbEntity
  8
PIEZA
100
AcDbBlockReference
  2
block 33
 10
0.0
 20
0.0
 30
0.0
  0
INSERT
  5
F5
330
1F
100
AcDbEntity
  8
PIEZA
100
AcDbBlockReference
  2
block 34
 10
0.0
 20
0.0
 30
0.0
  0
INSERT
  5
FA
330
1F
100
AcDbEntity
  8
PIEZA
100
AcDbBlockReference
  2
block 35
 10
0.0
 20
0.0
 30
0.0
  0
INSERT
  5
FF
330
1F
100
AcDbEntity
  8
PIEZA
100
AcDbBlockReference
  2
block 36
 10
0.0
 20
0.0
 30
0.0
  0
INSERT
  5
104
330
1F
100
AcDbEntity
  8
PIEZA
100
AcDbBlockReference
  2
block 37
 10
0.0
 20
0.0
 30
0.0
  0
INSERT
  5
109
330
1F
100
AcDbEntity
  8
PIEZA
100
AcDbBlockReference
  2
block 38
 10
0.0
 20
0.0
 30
0.0
  0
INSERT
  5
10E
330
1F
100
AcDbEntity
  8
PIEZA
100
AcDbBlockReference
  2
block 39
 10
0.0
 20
0.0
 30
0.0
  0
INSERT
  5
114
330
1F
100
AcDbEntity
  8
EJES
100
AcDbBlockReference
  2
block 40
 10
0.0
 20
0.0
 30
0.0
  0
INSERT
  5
11D
330
1F
100
AcDbEntity
  8
EJES
100
AcDbBlockReference
  2
block 41
 10
0.0
 20
0.0
 30
0.0
  0
INSERT
  5
126
330
1F
100
AcDbEntity
  8
EJES
100
AcDbBlockReference
  2
block 42
 10
0.0
 20
0.0
 30
0.0
  0
INSERT
  5
130
330
1F
100
AcDbEntity
  8
COTAS
100
AcDbBlockReference
  2
block 43
 10
0.0
 20
0.0
 30
0.0
  0
INSERT
  5
138
330
1F
100
AcDbEntity
  8
COTAS
100
AcDbBlockReference
  2
block 44
 10
0.0
 20
0.0
 30
0.0
  0
INSERT
  5
18F
330
1F
100
AcDbEntity
  8
COTAS
100
AcDbBlockReference
  2
block 55
 10
0.0
 20
0.0
 30
0.0
  0
INSERT
  5
1E6
330
1F
100
AcDbEntity
  8
COTAS
100
AcDbBlockReference
  2
block 66
 10
0.0
 20
0.0
 30
0.0
  0
INSERT
  5
242
330
1F
100
AcDbEntity
  8
trama-1
100
AcDbBlockReference
  2
block 77
 10
0.0
 20
0.0
 30
0.0
  0
INSERT
  5
248
330
1F
100
AcDbEntity
  8
trama-1
100
AcDbBlockReference
  2
block 78
 10
0.0
 20
0.0
 30
0.0
  0
INSERT
  5
250
330
1F
100
AcDbEntity
  8
trama-1
100
AcDbBlockReference
  2
block 79
 10
0.0
 20
0.0
 30
0.0
  0
INSERT
  5
257
330
1F
100
AcDbEntity
  8
035
100
AcDbBlockReference
  2
block 80
 10
0.0
 20
0.0
 30
0.0
  0
INSERT
  5
25C
330
1F
100
AcDbEntity
  8
035
100
AcDbBlockReference
  2
block 81
 10
0.0
 20
0.0
 30
0.0
  0
INSERT
  5
261
330
1F
100
AcDbEntity
  8
035
100
AcDbBlockReference
  2
block 82
 10
0.0
 20
0.0
 30
0.0
  0
INSERT
  5
266
330
1F
100
AcDbEntity
  8
035
100
AcDbBlockReference
  2
block 83
 10
0.0
 20
0.0
 30
0.0
  0
INSERT
  5
26C
330
1F
100
AcDbEntity
  8
trama-2
100
AcDbBlockReference
  2
block 84
 10
0.0
 20
0.0
 30
0.0
  0
ENDSEC
  0
SECTION
  2
OBJECTS
  0
DICTIONARY
  5
C
330
0
100
AcDbDictionary
281
     1
  3
ACAD_GROUP
350
D
  3
ACAD_LAYOUT
350
1A
  3
ACAD_MLINESTYLE
350
17
  3
ACAD_PLOTSETTINGS
350
19
  3
ACAD_PLOTSTYLENAME
350
E
  3
ACAD_TABLESTYLE
350
272
  3
ACAD_VISUALSTYLE
350
2A
  0
DICTIONARY
  5
D
102
{ACAD_REACTORS
330
C
102
}
330
C
100
AcDbDictionary
281
     1
  0
DICTIONARY
  5
1A
102
{ACAD_REACTORS
330
C
102
}
330
C
100
AcDbDictionary
281
     1
  3
Layout1
350
1E
  3
Layout2
350
26
  3
Model
350
22
  0
DICTIONARY
  5
17
102
{ACAD_REACTORS
330
C
102
}
330
C
100
AcDbDictionary
281
     1
  3
Standard
350
18
  0
DICTIONARY
  5
19
102
{ACAD_REACTORS
330
C
102
}
330
C
100
AcDbDictionary
281
     1
  0
ACDBDICTIONARYWDFLT
  5
E
102
{ACAD_REACTORS
330
C
102
}
330
C
100
AcDbDictionary
281
     1
  3
Normal
350
F
100
AcDbDictionaryWithDefault
340
F
  0
DICTIONARY
  5
272
102
{ACAD_REACTORS
330
C
102
}
330
C
100
AcDbDictionary
281
     1
  0
DICTIONARY
  5
2A
102
{ACAD_REACTORS
330
C
102
}
330
C
100
AcDbDictionary
281
     1
  3
2dWireframe
350
2F
  3
3D Hidden
350
31
  3
3dWireframe
350
30
  3
Basic
350
32
  3
Brighten
350
36
  3
ColorChange
350
3A
  3
Conceptual
350
34
  3
Dim
350
35
  3
Facepattern
350
39
  3
Flat
350
2B
  3
FlatWithEdges
350
2C
  3
Gouraud
350
2D
  3
GouraudWithEdges
350
2E
  3
Linepattern
350
38
  3
Realistic
350
33
  3
Thicken
350
37
  0
LAYOUT
  5
1E
102
{ACAD_REACTORS
330
1A
102
}
330
1A
100
AcDbPlotSettings
  1

  2
none_device
  4

  6

 40
0.0
 41
0.0
 42
0.0
 43
0.0
 44
0.0
 45
0.0
 46
0.0
 47
0.0
 48
0.0
 49
0.0
140
0.0
141
0.0
142
1.0
143
1.0
 70
   688
 72
     0
 73
     0
 74
     5
  7

 75
    16
 76
     0
 77
     2
 78
   300
147
1.0
148
0.0
149
0.0
100
AcDbLayout
  1
Layout1
 70
     1
 71
     1
 10
0.0
 20
0.0
 11
12.0
 21
9.0
 12
0.0
 22
0.0
 32
0.0
 14
1.000000000000000E+20
 24
1.000000000000000E+20
 34
1.000000000000000E+20
 15
-1.000000000000000E+20
 25
-1.000000000000000E+20
 35
-1.000000000000000E+20
146
0.0
 13
0.0
 23
0.0
 33
0.0
 16
1.0
 26
0.0
 36
0.0
 17
0.0
 27
1.0
 37
0.0
 76
     0
330
1B
  0
LAYOUT
  5
26
102
{ACAD_REACTORS
330
1A
102
}
330
1A
100
AcDbPlotSettings
  1

  2
none_device
  4

  6

 40
0.0
 41
0.0
 42
0.0
 43
0.0
 44
0.0
 45
0.0
 46
0.0
 47
0.0
 48
0.0
 49
0.0
140
0.0
141
0.0
142
1.0
143
1.0
 70
   688
 72
     0
 73
     0
 74
     5
  7

 75
    16
 76
     0
 77
     2
 78
   300
147
1.0
148
0.0
149
0.0
100
AcDbLayout
  1
Layout2
 70
     1
 71
     2
 10
0.0
 20
0.0
 11
0.0
 21
0.0
 12
0.0
 22
0.0
 32
0.0
 14
0.0
 24
0.0
 34
0.0
 15
0.0
 25
0.0
 35
0.0
146
0.0
 13
0.0
 23
0.0
 33
0.0
 16
1.0
 26
0.0
 36
0.0
 17
0.0
 27
1.0
 37
0.0
 76
     0
330
23
  0
LAYOUT
  5
22
102
{ACAD_REACTORS
330
1A
102
}
330
1A
100
AcDbPlotSettings
  1

  2
none_device
  4

  6

 40
0.0
 41
0.0
 42
0.0
 43
0.0
 44
0.0
 45
0.0
 46
0.0
 47
0.0
 48
0.0
 49
0.0
140
0.0
141
0.0
142
1.0
143
1.0
 70
  1712
 72
     0
 73
     0
 74
     0
  7

 75
     0
 76
     0
 77
     2
 78
   300
147
1.0
148
0.0
149
0.0
100
AcDbLayout
  1
Model
 70
     1
 71
     0
 10
0.0
 20
0.0
 11
12.0
 21
9.0
 12
0.0
 22
0.0
 32
0.0
 14
1.000000000000000E+20
 24
1.000000000000000E+20
 34
1.000000000000000E+20
 15
-1.000000000000000E+20
 25
-1.000000000000000E+20
 35
-1.000000000000000E+20
146
0.0
 13
0.0
 23
0.0
 33
0.0
 16
1.0
 26
0.0
 36
0.0
 17
0.0
 27
1.0
 37
0.0
 76
     0
330
1F
331
29
  0
MLINESTYLE
  5
18
102
{ACAD_REACTORS
330
17
102
}
330
17
100
AcDbMlineStyle
  2
Standard
 70
     0
  3

 62
   256
 51
90.0
 52
90.0
 71
     2
 49
0.5
 62
   256
  6
BYLAYER
 49
-0.5
 62
   256
  6
BYLAYER
  0
ACDBPLACEHOLDER
  5
F
102
{ACAD_REACTORS
330
E
102
}
330
E
  0
VISUALSTYLE
  5
2F
102
{ACAD_REACTORS
330
2A
102
}
330
2A
100
AcDbVisualStyle
  2
2dWireframe
 70
     4
 71
     0
 72
     2
 73
     0
 90
        0
 40
-0.6
 41
-30.0
 62
     5
 63
     7
421
 16777215
 74
     1
 91
        4
 64
     7
 65
   257
 75
     1
175
     1
 42
1.0
 92
        0
 66
   257
 43
1.0
 76
     1
 77
     6
 78
     2
 67
     7
 79
     5
170
     0
171
     0
290
     0
174
     0
 93
        1
 44
0.0
173
     0
291
     0
 45
0.0
1001
ACAD
1000
AcDbSavedByObjectVersion
1070
     0
  0
VISUALSTYLE
  5
31
102
{ACAD_REACTORS
330
2A
102
}
330
2A
100
AcDbVisualStyle
  2
3D Hidden
 70
     6
 71
     1
 72
     2
 73
     2
 90
        0
 40
-0.6
 41
-30.0
 62
     5
 63
     7
421
 16777215
 74
     2
 91
        2
 64
     7
 65
   257
 75
     2
175
     1
 42
40.0
 92
        0
 66
   257
 43
1.0
 76
     1
 77
     6
 78
     2
 67
     7
 79
     3
170
     0
171
     0
290
     0
174
     0
 93
        1
 44
0.0
173
     0
291
     0
 45
0.0
1001
ACAD
1000
AcDbSavedByObjectVersion
1070
     0
  0
VISUALSTYLE
  5
30
102
{ACAD_REACTORS
330
2A
102
}
330
2A
100
AcDbVisualStyle
  2
3dWireframe
 70
     5
 71
     0
 72
     2
 73
     0
 90
        0
 40
-0.6
 41
-30.0
 62
     5
 63
     7
421
 16777215
 74
     1
 91
        4
 64
     7
 65
   257
 75
     1
175
     1
 42
1.0
 92
        0
 66
   257
 43
1.0
 76
     1
 77
     6
 78
     2
 67
     7
 79
     5
170
     0
171
     0
290
     0
174
     0
 93
        1
 44
0.0
173
     0
291
     0
 45
0.0
1001
ACAD
1000
AcDbSavedByObjectVersion
1070
     0
  0
VISUALSTYLE
  5
32
102
{ACAD_REACTORS
330
2A
102
}
330
2A
100
AcDbVisualStyle
  2
Basic
 70
     7
 71
     1
 72
     0
 73
     1
 90
        0
 40
-0.6
 41
-30.0
 62
     5
 63
     7
421
 16777215
 74
     0
 91
        4
 64
     7
 65
   257
 75
     1
175
     1
 42
1.0
 92
        8
 66
     7
 43
1.0
 76
     1
 77
     6
 78
     2
 67
     7
 79
     5
170
     0
171
     0
290
     0
174
     0
 93
        1
 44
0.0
173
     0
291
     1
 45
0.0
1001
ACAD
1000
AcDbSavedByObjectVersion
1070
     0
  0
VISUALSTYLE
  5
36
102
{ACAD_REACTORS
330
2A
102
}
330
2A
100
AcDbVisualStyle
  2
Brighten
 70
    12
 71
     2
 72
     2
 73
     0
 90
        0
 40
-0.6
 41
-30.0
 62
     5
 63
     7
421
 16777215
 74
     1
 91
        4
 64
     7
 65
   257
 75
     1
175
     1
 42
1.0
 92
        8
 66
     7
 43
1.0
 76
     1
 77
     6
 78
     2
 67
     7
 79
     5
170
     0
171
     0
290
     0
174
     0
 93
        1
 44
50.0
173
     0
291
     1
 45
0.0
1001
ACAD
1000
AcDbSavedByObjectVersion
1070
     0
  0
VISUALSTYLE
  5
3A
102
{ACAD_REACTORS
330
2A
102
}
330
2A
100
AcDbVisualStyle
  2
ColorChange
 70
    16
 71
     2
 72
     2
 73
     3
 90
        0
 40
-0.6
 41
-30.0
 62
     5
 63
     8
421
  8421504
 74
     1
 91
        4
 64
     7
 65
   257
 75
     1
175
     1
 42
1.0
 92
        8
 66
     8
424
  8421504
 43
1.0
 76
     1
 77
     6
 78
     2
 67
     7
 79
     5
170
     0
171
     0
290
     0
174
     0
 93
        1
 44
0.0
173
     0
291
     1
 45
0.0
1001
ACAD
1000
AcDbSavedByObjectVersion
1070
     0
  0
VISUALSTYLE
  5
34
102
{ACAD_REACTORS
330
2A
102
}
330
2A
100
AcDbVisualStyle
  2
Conceptual
 70
     9
 71
     3
 72
     2
 73
     0
 90
        0
 40
-0.6
 41
-30.0
 62
     5
 63
     7
421
 16777215
 74
     2
 91
        2
 64
     7
 65
   257
 75
     1
175
     1
 42
40.0
 92
        8
 66
     7
 43
1.0
 76
     1
 77
     6
 78
     2
 67
     7
 79
     3
170
     0
171
     0
290
     0
174
     0
 93
        1
 44
0.0
173
     0
291
     0
 45
0.0
1001
ACAD
1000
AcDbSavedByObjectVersion
1070
     0
  0
VISUALSTYLE
  5
35
102
{ACAD_REACTORS
330
2A
102
}
330
2A
100
AcDbVisualStyle
  2
Dim
 70
    11
 71
     2
 72
     2
 73
     0
 90
        0
 40
-0.6
 41
-30.0
 62
     5
 63
     7
421
 16777215
 74
     1
 91
        4
 64
     7
 65
   257
 75
     1
175
     1
 42
1.0
 92
        8
 66
     7
 43
1.0
 76
     1
 77
     6
 78
     2
 67
     7
 79
     5
170
     0
171
     0
290
     0
174
     0
 93
        1
 44
-50.0
173
     0
291
     1
 45
0.0
1001
ACAD
1000
AcDbSavedByObjectVersion
1070
     0
  0
VISUALSTYLE
  5
39
102
{ACAD_REACTORS
330
2A
102
}
330
2A
100
AcDbVisualStyle
  2
Facepattern
 70
    15
 71
     2
 72
     2
 73
     0
 90
        0
 40
-0.6
 41
-30.0
 62
     5
 63
     7
421
 16777215
 74
     1
 91
        4
 64
     7
 65
   257
 75
     1
175
     1
 42
1.0
 92
        8
 66
     7
 43
1.0
 76
     1
 77
     6
 78
     2
 67
     7
 79
     5
170
     0
171
     0
290
     0
174
     0
 93
        1
 44
0.0
173
     0
291
     1
 45
0.0
1001
ACAD
1000
AcDbSavedByObjectVersion
1070
     0
  0
VISUALSTYLE
  5
2B
102
{ACAD_REACTORS
330
2A
102
}
330
2A
100
AcDbVisualStyle
  2
Flat
 70
     0
 71
     2
 72
     1
 73
     1
 90
        2
 40
-0.6
 41
30.0
 62
     5
 63
     7
421
 16777215
 74
     0
 91
        4
 64
     7
 65
   257
 75
     1
175
     1
 42
1.0
 92
        8
 66
     7
 43
1.0
 76
     1
 77
     6
 78
     2
 67
     7
 79
     5
170
     0
171
     0
290
     0
174
     0
 93
       13
 44
0.0
173
     0
291
     1
 45
0.0
1001
ACAD
1000
AcDbSavedByObjectVersion
1070
     0
  0
VISUALSTYLE
  5
2C
102
{ACAD_REACTORS
330
2A
102
}
330
2A
100
AcDbVisualStyle
  2
FlatWithEdges
 70
     1
 71
     2
 72
     1
 73
     1
 90
        2
 40
-0.6
 41
30.0
 62
     5
 63
     7
421
 16777215
 74
     1
 91
        4
 64
     7
 65
   257
 75
     1
175
     1
 42
1.0
 92
        0
 66
   257
 43
1.0
 76
     1
 77
     6
 78
     2
 67
     7
 79
     5
170
     0
171
     0
290
     0
174
     0
 93
       13
 44
0.0
173
     0
291
     1
 45
0.0
1001
ACAD
1000
AcDbSavedByObjectVersion
1070
     0
  0
VISUALSTYLE
  5
2D
102
{ACAD_REACTORS
330
2A
102
}
330
2A
100
AcDbVisualStyle
  2
Gouraud
 70
     2
 71
     2
 72
     2
 73
     1
 90
        2
 40
-0.6
 41
30.0
 62
     5
 63
     7
421
 16777215
 74
     0
 91
        4
 64
     7
 65
   257
 75
     1
175
     1
 42
1.0
 92
        0
 66
     7
 43
1.0
 76
     1
 77
     6
 78
     2
 67
     7
 79
     5
170
     0
171
     0
290
     0
174
     0
 93
       13
 44
0.0
173
     0
291
     1
 45
0.0
1001
ACAD
1000
AcDbSavedByObjectVersion
1070
     0
  0
VISUALSTYLE
  5
2E
102
{ACAD_REACTORS
330
2A
102
}
330
2A
100
AcDbVisualStyle
  2
GouraudWithEdges
 70
     3
 71
     2
 72
     2
 73
     1
 90
        2
 40
-0.6
 41
30.0
 62
     5
 63
     7
421
 16777215
 74
     1
 91
        4
 64
     7
 65
   257
 75
     1
175
     1
 42
1.0
 92
        0
 66
   257
 43
1.0
 76
     1
 77
     6
 78
     2
 67
     7
 79
     5
170
     0
171
     0
290
     0
174
     0
 93
       13
 44
0.0
173
     0
291
     1
 45
0.0
1001
ACAD
1000
AcDbSavedByObjectVersion
1070
     0
  0
VISUALSTYLE
  5
38
102
{ACAD_REACTORS
330
2A
102
}
330
2A
100
AcDbVisualStyle
  2
Linepattern
 70
    14
 71
     2
 72
     2
 73
     0
 90
        0
 40
-0.6
 41
-30.0
 62
     5
 63
     7
421
 16777215
 74
     1
 91
        4
 64
     7
 65
   257
 75
     7
175
     7
 42
1.0
 92
        8
 66
     7
 43
1.0
 76
     1
 77
     6
 78
     2
 67
     7
 79
     5
170
     0
171
     0
290
     0
174
     0
 93
        1
 44
0.0
173
     0
291
     1
 45
0.0
1001
ACAD
1000
AcDbSavedByObjectVersion
1070
     0
  0
VISUALSTYLE
  5
33
102
{ACAD_REACTORS
330
2A
102
}
330
2A
100
AcDbVisualStyle
  2
Realistic
 70
     8
 71
     2
 72
     2
 73
     0
 90
        0
 40
-0.6
 41
-30.0
 62
     5
 63
     7
421
 16777215
 74
     1
 91
        0
 64
     7
 65
   257
 75
     1
175
     1
 42
1.0
 92
        8
 66
     8
424
  7895160
 43
1.0
 76
     1
 77
     6
 78
     2
 67
     7
 79
     5
170
     0
171
     0
290
     0
174
     0
 93
       13
 44
0.0
173
     0
291
     0
 45
0.0
1001
ACAD
1000
AcDbSavedByObjectVersion
1070
     0
  0
VISUALSTYLE
  5
37
102
{ACAD_REACTORS
330
2A
102
}
330
2A
100
AcDbVisualStyle
  2
Thicken
 70
    13
 71
     2
 72
     2
 73
     0
 90
        0
 40
-0.6
 41
-30.0
 62
     5
 63
     7
421
 16777215
 74
     1
 91
        4
 64
     7
 65
   257
 75
     1
175
     1
 42
1.0
 92
       12
 66
     7
 43
1.0
 76
     1
 77
     6
 78
     2
 67
     7
 79
     5
170
     0
171
     0
290
     0
174
     0
 93
        1
 44
0.0
173
     0
291
     1
 45
0.0
1001
ACAD
1000
AcDbSavedByObjectVersion
1070
     0
  0
ENDSEC
  0
EOF
