  0
SECTION
  2
HEADER
  9
$ACADVER
  1
AC1015
  9
$ACADMAINTVER
 70
    20
  9
$DWGCODEPAGE
  3
ANSI_1252
  9
$INSBASE
 10
0.0
 20
0.0
 30
0.0
  9
$EXTMIN
 10
13.06769985334267
 20
0.0481268544576778
 30
-0.0000000349181948
  9
$EXTMAX
 10
778.4714797457115
 20
309.3570246536881
 30
0.0000000814935746
  9
$LIMMIN
 10
0.0
 20
0.0
  9
$LIMMAX
 10
420.0
 20
297.0
  9
$ORTHOMODE
 70
     1
  9
$REGENMODE
 70
     1
  9
$FILLMODE
 70
     1
  9
$QTEXTMODE
 70
     0
  9
$MIRRTEXT
 70
     0
  9
$LTSCALE
 40
1.0
  9
$ATTMODE
 70
     1
  9
$TEXTSIZE
 40
2.5
  9
$TRACEWID
 40
1.0
  9
$TEXTSTYLE
  7
Standard
  9
$CLAYER
  8
0
  9
$CELTYPE
  6
ByLayer
  9
$CECOLOR
 62
   256
  9
$CELTSCALE
 40
1.0
  9
$DISPSILH
 70
     0
  9
$DIMSCALE
 40
1.0
  9
$DIMASZ
 40
0.18
  9
$DIMEXO
 40
0.0625
  9
$DIMDLI
 40
0.38
  9
$DIMRND
 40
0.0
  9
$DIMDLE
 40
0.0
  9
$DIMEXE
 40
0.18
  9
$DIMTP
 40
0.0
  9
$DIMTM
 40
0.0
  9
$DIMTXT
 40
0.18
  9
$DIMCEN
 40
0.09
  9
$DIMTSZ
 40
0.0
  9
$DIMTOL
 70
     0
  9
$DIMLIM
 70
     0
  9
$DIMTIH
 70
     1
  9
$DIMTOH
 70
     1
  9
$DIMSE1
 70
     0
  9
$DIMSE2
 70
     0
  9
$DIMTAD
 70
     0
  9
$DIMZIN
 70
     0
  9
$DIMBLK
  1

  9
$DIMASO
 70
     1
  9
$DIMSHO
 70
     1
  9
$DIMPOST
  1

  9
$DIMAPOST
  1

  9
$DIMALT
 70
     0
  9
$DIMALTD
 70
     2
  9
$DIMALTF
 40
25.4
  9
$DIMLFAC
 40
1.0
  9
$DIMTOFL
 70
     0
  9
$DIMTVP
 40
0.0
  9
$DIMTIX
 70
     0
  9
$DIMSOXD
 70
     0
  9
$DIMSAH
 70
     0
  9
$DIMBLK1
  1

  9
$DIMBLK2
  1

  9
$DIMSTYLE
  2
STANDARD
  9
$DIMCLRD
 70
     0
  9
$DIMCLRE
 70
     0
  9
$DIMCLRT
 70
     0
  9
$DIMTFAC
 40
1.0
  9
$DIMGAP
 40
0.09
  9
$DIMJUST
 70
     0
  9
$DIMSD1
 70
     0
  9
$DIMSD2
 70
     0
  9
$DIMTOLJ
 70
     1
  9
$DIMTZIN
 70
     0
  9
$DIMALTZ
 70
     0
  9
$DIMALTTZ
 70
     0
  9
$DIMUPT
 70
     0
  9
$DIMDEC
 70
     4
  9
$DIMTDEC
 70
     4
  9
$DIMALTU
 70
     2
  9
$DIMALTTD
 70
     2
  9
$DIMTXSTY
  7
Standard
  9
$DIMAUNIT
 70
     0
  9
$DIMADEC
 70
     0
  9
$DIMALTRND
 40
0.0
  9
$DIMAZIN
 70
     0
  9
$DIMDSEP
 70
    46
  9
$DIMATFIT
 70
     3
  9
$DIMFRAC
 70
     0
  9
$DIMLDRBLK
  1

  9
$DIMLUNIT
 70
     2
  9
$DIMLWD
 70
    -2
  9
$DIMLWE
 70
    -2
  9
$DIMTMOVE
 70
     0
  9
$LUNITS
 70
     2
  9
$LUPREC
 70
     4
  9
$SKETCHINC
 40
1.0
  9
$FILLETRAD
 40
0.0
  9
$AUNITS
 70
     0
  9
$AUPREC
 70
     0
  9
$MENU
  1
.
  9
$ELEVATION
 40
0.0
  9
$PELEVATION
 40
0.0
  9
$THICKNESS
 40
0.0
  9
$LIMCHECK
 70
     0
  9
$CHAMFERA
 40
0.0
  9
$CHAMFERB
 40
0.0
  9
$CHAMFERC
 40
0.0
  9
$CHAMFERD
 40
0.0
  9
$SKPOLY
 70
     0
  9
$TDCREATE
 40
2455019.583955972
  9
$TDUCREATE
 40
2455019.500622639
  9
$TDUPDATE
 40
2455026.505246482
  9
$TDUUPDATE
 40
2455026.421913149
  9
$TDINDWG
 40
0.3290762616
  9
$TDUSRTIMER
 40
0.3290760880
  9
$USRTIMER
 70
     1
  9
$ANGBASE
 50
0.0
  9
$ANGDIR
 70
     0
  9
$PDMODE
 70
     0
  9
$PDSIZE
 40
0.0
  9
$PLINEWID
 40
0.0
  9
$SPLFRAME
 70
     0
  9
$SPLINETYPE
 70
     6
  9
$SPLINESEGS
 70
     8
  9
$HANDSEED
  5
F6A
  9
$SURFTAB1
 70
     6
  9
$SURFTAB2
 70
     6
  9
$SURFTYPE
 70
     6
  9
$SURFU
 70
     6
  9
$SURFV
 70
     6
  9
$UCSBASE
  2

  9
$UCSNAME
  2

  9
$UCSORG
 10
0.0
 20
0.0
 30
0.0
  9
$UCSXDIR
 10
1.0
 20
0.0
 30
0.0
  9
$UCSYDIR
 10
0.0
 20
1.0
 30
0.0
  9
$UCSORTHOREF
  2

  9
$UCSORTHOVIEW
 70
     0
  9
$UCSORGTOP
 10
0.0
 20
0.0
 30
0.0
  9
$UCSORGBOTTOM
 10
0.0
 20
0.0
 30
0.0
  9
$UCSORGLEFT
 10
0.0
 20
0.0
 30
0.0
  9
$UCSORGRIGHT
 10
0.0
 20
0.0
 30
0.0
  9
$UCSORGFRONT
 10
0.0
 20
0.0
 30
0.0
  9
$UCSORGBACK
 10
0.0
 20
0.0
 30
0.0
  9
$PUCSBASE
  2

  9
$PUCSNAME
  2

  9
$PUCSORG
 10
0.0
 20
0.0
 30
0.0
  9
$PUCSXDIR
 10
1.0
 20
0.0
 30
0.0
  9
$PUCSYDIR
 10
0.0
 20
1.0
 30
0.0
  9
$PUCSORTHOREF
  2

  9
$PUCSORTHOVIEW
 70
     0
  9
$PUCSORGTOP
 10
0.0
 20
0.0
 30
0.0
  9
$PUCSORGBOTTOM
 10
0.0
 20
0.0
 30
0.0
  9
$PUCSORGLEFT
 10
0.0
 20
0.0
 30
0.0
  9
$PUCSORGRIGHT
 10
0.0
 20
0.0
 30
0.0
  9
$PUCSORGFRONT
 10
0.0
 20
0.0
 30
0.0
  9
$PUCSORGBACK
 10
0.0
 20
0.0
 30
0.0
  9
$USERI1
 70
     0
  9
$USERI2
 70
     0
  9
$USERI3
 70
     0
  9
$USERI4
 70
     0
  9
$USERI5
 70
     0
  9
$USERR1
 40
0.0
  9
$USERR2
 40
0.0
  9
$USERR3
 40
0.0
  9
$USERR4
 40
0.0
  9
$USERR5
 40
0.0
  9
$WORLDVIEW
 70
     1
  9
$SHADEDGE
 70
     3
  9
$SHADEDIF
 70
    70
  9
$TILEMODE
 70
     1
  9
$MAXACTVP
 70
    64
  9
$PINSBASE
 10
0.0
 20
0.0
 30
0.0
  9
$PLIMCHECK
 70
     0
  9
$PEXTMIN
 10
1.000000000000000E+20
 20
1.000000000000000E+20
 30
1.000000000000000E+20
  9
$PEXTMAX
 10
-1.000000000000000E+20
 20
-1.000000000000000E+20
 30
-1.000000000000000E+20
  9
$PLIMMIN
 10
0.0
 20
0.0
  9
$PLIMMAX
 10
420.0
 20
297.0
  9
$UNITMODE
 70
     0
  9
$VISRETAIN
 70
     1
  9
$PLINEGEN
 70
     0
  9
$PSLTSCALE
 70
     1
  9
$TREEDEPTH
 70
  3020
  9
$CMLSTYLE
  2
Standard
  9
$CMLJUST
 70
     0
  9
$CMLSCALE
 40
20.0
  9
$PROXYGRAPHICS
 70
     1
  9
$MEASUREMENT
 70
     1
  9
$CELWEIGHT
370
    -1
  9
$ENDCAPS
280
     0
  9
$JOINSTYLE
280
     0
  9
$LWDISPLAY
290
     0
  9
$INSUNITS
 70
     4
  9
$HYPERLINKBASE
  1

  9
$STYLESHEET
  1

  9
$XEDIT
290
     1
  9
$CEPSNTYPE
380
     0
  9
$PSTYLEMODE
290
     1
  9
$FINGERPRINTGUID
  2
{A6C950DD-243C-480B-8B88-1E8CBBE87BD7}
  9
$VERSIONGUID
  2
{B22CF46F-57B4-478F-AC21-A9DDE024515B}
  9
$EXTNAMES
290
     1
  9
$PSVPSCALE
 40
0.0
  9
$OLESTARTUP
290
     0
  0
ENDSEC
  0
SECTION
  2
CLASSES
  0
CLASS
  1
ACDBDICTIONARYWDFLT
  2
AcDbDictionaryWithDefault
  3
ObjectDBX Classes
 90
        0
280
     0
281
     0
  0
CLASS
  1
TABLESTYLE
  2
AcDbTableStyle
  3
ObjectDBX Classes
 90
     2047
280
     0
281
     0
  0
CLASS
  1
SORTENTSTABLE
  2
AcDbSortentsTable
  3
ObjectDBX Classes
 90
        0
280
     0
281
     0
  0
CLASS
  1
DICTIONARYVAR
  2
AcDbDictionaryVar
  3
ObjectDBX Classes
 90
        0
280
     0
281
     0
  0
CLASS
  1
ACDBPLACEHOLDER
  2
AcDbPlaceHolder
  3
ObjectDBX Classes
 90
        0
280
     0
281
     0
  0
CLASS
  1
LAYOUT
  2
AcDbLayout
  3
ObjectDBX Classes
 90
        0
280
     0
281
     0
  0
CLASS
  1
ACAD_EVALUATION_GRAPH
  2
AcDbEvalGraph
  3
ObjectDBX Classes
 90
    33921
280
     0
281
     0
  0
CLASS
  1
ACAECUSTOBJ
  2
AcAeEditorObj
  3
AcAeEditorObj
 90
    33792
280
     0
281
     0
  0
CLASS
  1
ACDB_DYNAMICBLOCKPURGEPREVENTER_VERSION
  2
AcDbDynamicBlockPurgePreventer
  3
ObjectDBX Classes
 90
    33921
280
     0
281
     0
  0
ENDSEC
  0
SECTION
  2
TABLES
  0
TABLE
  2
VPORT
  5
8
330
0
100
AcDbSymbolTable
 70
     2
  0
VPORT
  5
F62
330
8
100
AcDbSymbolTableRecord
100
AcDbViewportTableRecord
  2
*Active
 70
     0
 10
0.0
 20
0.0
 11
1.0
 21
1.0
 12
395.7695897995272
 22
154.7025757540729
 13
0.0
 23
0.0
 14
10.0
 24
10.0
 15
10.0
 25
10.0
 16
0.0
 26
0.0
 36
1.0
 17
0.0
 27
0.0
 37
0.0
 40
503.717529236954
 41
1.525474525474525
 42
50.0
 43
0.0
 44
0.0
 50
0.0
 51
0.0
 71
     0
 72
  1000
 73
     1
 74
     3
 75
     0
 76
     0
 77
     0
 78
     0
281
     0
 65
     1
110
0.0
120
0.0
130
0.0
111
1.0
121
0.0
131
0.0
112
0.0
122
1.0
132
0.0
 79
     0
146
0.0
  0
ENDTAB
  0
TABLE
  2
LTYPE
  5
5
330
0
100
AcDbSymbolTable
 70
     1
  0
LTYPE
  5
14
330
5
100
AcDbSymbolTableRecord
100
AcDbLinetypeTableRecord
  2
ByBlock
 70
     0
  3

 72
    65
 73
     0
 40
0.0
  0
LTYPE
  5
15
330
5
100
AcDbSymbolTableRecord
100
AcDbLinetypeTableRecord
  2
ByLayer
 70
     0
  3

 72
    65
 73
     0
 40
0.0
  0
LTYPE
  5
16
330
5
100
AcDbSymbolTableRecord
100
AcDbLinetypeTableRecord
  2
Continuous
 70
     0
  3
Solid line
 72
    65
 73
     0
 40
0.0
  0
ENDTAB
  0
TABLE
  2
LAYER
  5
2
102
{ACAD_XDICTIONARY
360
35
102
}
330
0
100
AcDbSymbolTable
 70
     2
  0
LAYER
  5
10
330
2
100
AcDbSymbolTableRecord
100
AcDbLayerTableRecord
  2
0
 70
     0
 62
     7
  6
Continuous
370
    -3
390
F
  0
LAYER
  5
EF3
330
2
100
AcDbSymbolTableRecord
100
AcDbLayerTableRecord
  2
1
 70
     0
 62
     7
  6
Continuous
370
    -3
390
F
  0
ENDTAB
  0
TABLE
  2
STYLE
  5
3
330
0
100
AcDbSymbolTable
 70
     3
  0
STYLE
  5
11
330
3
100
AcDbSymbolTableRecord
100
AcDbTextStyleTableRecord
  2
Standard
 70
     0
 40
0.0
 41
1.0
 50
0.0
 71
     0
 42
2.5
  3
txt
  4

  0
STYLE
  5
EF4
330
3
100
AcDbSymbolTableRecord
100
AcDbTextStyleTableRecord
  2
ROMANS
 70
     0
 40
0.0
 41
1.0
 50
0.0
 71
     0
 42
2.0
  3
romans
  4

  0
STYLE
  5
EF5
330
3
100
AcDbSymbolTableRecord
100
AcDbTextStyleTableRecord
  2
CAJETIN
 70
     0
 40
0.0
 41
1.0
 50
0.0
 71
     0
 42
40.0
  3
TEL_____.PFB
  4

  0
ENDTAB
  0
TABLE
  2
VIEW
  5
6
330
0
100
AcDbSymbolTable
 70
     0
  0
ENDTAB
  0
TABLE
  2
UCS
  5
7
330
0
100
AcDbSymbolTable
 70
     0
  0
ENDTAB
  0
TABLE
  2
APPID
  5
9
330
0
100
AcDbSymbolTable
 70
    13
  0
APPID
  5
12
330
9
100
AcDbSymbolTableRecord
100
AcDbRegAppTableRecord
  2
ACAD
 70
     0
  0
APPID
  5
34
330
9
100
AcDbSymbolTableRecord
100
AcDbRegAppTableRecord
  2
ACAD_PSEXT
 70
     0
  0
APPID
  5
33E
330
9
100
AcDbSymbolTableRecord
100
AcDbRegAppTableRecord
  2
ACAD_DSTYLE_DIMTEXT_FILL
 70
     0
  0
APPID
  5
33F
330
9
100
AcDbSymbolTableRecord
100
AcDbRegAppTableRecord
  2
ACAD_DSTYLE_DIMEXT_LENGTH
 70
     0
  0
APPID
  5
340
330
9
100
AcDbSymbolTableRecord
100
AcDbRegAppTableRecord
  2
ACAD_DSTYLE_DIMEXT_ENABLED
 70
     0
  0
APPID
  5
341
330
9
100
AcDbSymbolTableRecord
100
AcDbRegAppTableRecord
  2
ACAD_DSTYLE_DIM_LINETYPE
 70
     0
  0
APPID
  5
342
330
9
100
AcDbSymbolTableRecord
100
AcDbRegAppTableRecord
  2
ACAD_DSTYLE_DIM_EXT1_LINETYPE
 70
     0
  0
APPID
  5
343
330
9
100
AcDbSymbolTableRecord
100
AcDbRegAppTableRecord
  2
ACAD_DSTYLE_DIM_EXT2_LINETYPE
 70
     0
  0
APPID
  5
80F
330
9
100
AcDbSymbolTableRecord
100
AcDbRegAppTableRecord
  2
ACAUTHENVIRON
 70
     0
  0
APPID
  5
861
330
9
100
AcDbSymbolTableRecord
100
AcDbRegAppTableRecord
  2
AcDbDynamicBlockTrueName
 70
     0
  0
APPID
  5
862
330
9
100
AcDbSymbolTableRecord
100
AcDbRegAppTableRecord
  2
AcDbDynamicBlockGUID
 70
     0
  0
APPID
  5
E0F
330
9
100
AcDbSymbolTableRecord
100
AcDbRegAppTableRecord
  2
ACAD_DSTYLE_DIMJOGGED_JOGANGLE_SYMBOL
 70
     0
  0
APPID
  5
E10
330
9
100
AcDbSymbolTableRecord
100
AcDbRegAppTableRecord
  2
ACAD_DSTYLE_DIMARC_LENGTH_SYMBOL
 70
     0
  0
ENDTAB
  0
TABLE
  2
DIMSTYLE
  5
A
330
0
100
AcDbSymbolTable
 70
     1
100
AcDbDimStyleTable
 71
     1
340
33
  0
DIMSTYLE
105
33
330
A
100
AcDbSymbolTableRecord
100
AcDbDimStyleTableRecord
  2
STANDARD
 70
     0
340
11
  0
ENDTAB
  0
TABLE
  2
BLOCK_RECORD
  5
1
330
0
100
AcDbSymbolTable
 70
     3
  0
BLOCK_RECORD
  5
23
102
{ACAD_XDICTIONARY
360
19E
102
}
330
1
100
AcDbSymbolTableRecord
100
AcDbBlockTableRecord
  2
*Model_Space
340
26
  0
BLOCK_RECORD
  5
1F
330
1
100
AcDbSymbolTableRecord
100
AcDbBlockTableRecord
  2
*Paper_Space
340
22
  0
BLOCK_RECORD
  5
27
330
1
100
AcDbSymbolTableRecord
100
AcDbBlockTableRecord
  2
*Paper_Space0
340
2A
  0
BLOCK_RECORD
  5
EBF
102
{ACAD_XDICTIONARY
360
EC0
102
}
330
1
100
AcDbSymbolTableRecord
100
AcDbBlockTableRecord
  2
27060_P
340
0
310
2800000020000000200000000100080000000000000400000000000000000000000000000000000000000000000080000080000000808000800000008000800080800000C0C0C000C0DCC000F0CAA6000020400000206000002080000020A0000020C0000020E00000400000004020000040400000406000004080000040A0
310
000040C0000040E00000600000006020000060400000606000006080000060A0000060C0000060E00000800000008020000080400000806000008080000080A0000080C0000080E00000A0000000A0200000A0400000A0600000A0800000A0A00000A0C00000A0E00000C0000000C0200000C0400000C0600000C0800000C0
310
A00000C0C00000C0E00000E0000000E0200000E0400000E0600000E0800000E0A00000E0C00000E0E00040000000400020004000400040006000400080004000A0004000C0004000E00040200000402020004020400040206000402080004020A0004020C0004020E000404000004040200040404000404060004040800040
310
40A0004040C0004040E00040600000406020004060400040606000406080004060A0004060C0004060E00040800000408020004080400040806000408080004080A0004080C0004080E00040A0000040A0200040A0400040A0600040A0800040A0A00040A0C00040A0E00040C0000040C0200040C0400040C0600040C08000
310
40C0A00040C0C00040C0E00040E0000040E0200040E0400040E0600040E0800040E0A00040E0C00040E0E00080000000800020008000400080006000800080008000A0008000C0008000E00080200000802020008020400080206000802080008020A0008020C0008020E00080400000804020008040400080406000804080
310
008040A0008040C0008040E00080600000806020008060400080606000806080008060A0008060C0008060E00080800000808020008080400080806000808080008080A0008080C0008080E00080A0000080A0200080A0400080A0600080A0800080A0A00080A0C00080A0E00080C0000080C0200080C0400080C0600080C0
310
800080C0A00080C0C00080C0E00080E0000080E0200080E0400080E0600080E0800080E0A00080E0C00080E0E000C0000000C0002000C0004000C0006000C0008000C000A000C000C000C000E000C0200000C0202000C0204000C0206000C0208000C020A000C020C000C020E000C0400000C0402000C0404000C0406000C0
310
408000C040A000C040C000C040E000C0600000C0602000C0604000C0606000C0608000C060A000C060C000C060E000C0800000C0802000C0804000C0806000C0808000C080A000C080C000C080E000C0A00000C0A02000C0A04000C0A06000C0A08000C0A0A000C0A0C000C0A0E000C0C00000C0C02000C0C04000C0C06000
310
C0C08000C0C0A000F0FBFF00A4A0A000808080000000FF0000FF000000FFFF00FF000000FF00FF00FFFF0000FFFFFF0000000000000000000000000000000000000000000000000000000000000000000000000000000000000000000000000000000000000000000000000000000000000000000000000000000000000000
310
000000000000000000000000000000000000000000000000000000000000000000000000000000000000000000000000000000000000000000000000000000000000000000000000000000000000000000000000FFFFFFFFFFFFFFFFFFFFFFFFFFFFFFFFFFFFFFFFFFFFFFFFFFFF0000000000FFFFFFFFFFFFFFFFFFFFFFFF
310
FFFFFFFFFFFFFFFFFFFFFFFFFFFFFFFF00000000FFFF00000000000000000000000000000000000000000000000000FFFF0000FFFF0000000000000000000000000000000000000000000000000000FFFF0000FFFF0000000000000000000000000000000000000000000000000000FFFF0000FFFF00000000000000000000
310
00000000000000000000000000000000FFFF0000FFFF0000000000000000000000000000000000000000000000000000FFFF0000FFFF0000000000000000000000000000000000000000000000000000FFFF0000FFFF0000000000000000000000000000000000000000000000000000FFFF0000FFFF000000000000000000
310
0000FFFFFFFF0000000000000000000000FFFF0000FFFF0000000000000000000000FFFFFFFF0000000000000000000000FFFF0000FFFF0000000000000000000000FFFFFFFF0000000000000000000000FFFF0000FFFF0000000000000000000000FFFFFFFF0000000000000000000000FFFF0000FFFF00FF000000000000
310
00000000FFFF00000000000000000000FF00FFFF0000FFFF00FFFFFFFFFFFFFFFFFFFFFFFFFFFFFFFFFFFFFFFFFFFFFFFF00FFFF0000FF00FF0000000000000000000000FFFF0000000000000000000000FF00FF0000FF0000FFFFFFFFFFFFFFFFFFFFFFFFFFFFFFFFFFFFFFFFFFFFFFFF0000FF0000FF0000000000000000
310
0000000000FFFF00000000000000000000000000FF0000FF00000000000000000000000000FFFF00000000000000000000000000FF0000FF00000000000000000000000000FFFF00000000000000000000000000FF0000FF00000000000000000000000000000000000000000000000000000000FF000000FFFFFFFFFFFFFF
310
FFFFFFFFFFFFFFFFFFFFFFFFFFFFFFFFFFFFFFFFFF00000000000000000000000000000000000000000000000000000000000000000000000000000000000000000000000000000000000000000000000000000000000000000000000000000000000000000000000000000000000000000000000000000000000000000000
310
0000000000000000000000000000000000000000000000000000000000000000000000000000000000000000000000000000000000000000
1001
ACAD
1000
DesignCenter Data
1002
{
1070
     1
1070
     4
1002
}
  0
BLOCK_RECORD
  5
F32
102
{ACAD_XDICTIONARY
360
F33
102
}
330
1
100
AcDbSymbolTableRecord
100
AcDbBlockTableRecord
  2
27060_L
340
0
310
2800000020000000200000000100080000000000000400000000000000000000000000000000000000000000000080000080000000808000800000008000800080800000C0C0C000C0DCC000F0CAA6000020400000206000002080000020A0000020C0000020E00000400000004020000040400000406000004080000040A0
310
000040C0000040E00000600000006020000060400000606000006080000060A0000060C0000060E00000800000008020000080400000806000008080000080A0000080C0000080E00000A0000000A0200000A0400000A0600000A0800000A0A00000A0C00000A0E00000C0000000C0200000C0400000C0600000C0800000C0
310
A00000C0C00000C0E00000E0000000E0200000E0400000E0600000E0800000E0A00000E0C00000E0E00040000000400020004000400040006000400080004000A0004000C0004000E00040200000402020004020400040206000402080004020A0004020C0004020E000404000004040200040404000404060004040800040
310
40A0004040C0004040E00040600000406020004060400040606000406080004060A0004060C0004060E00040800000408020004080400040806000408080004080A0004080C0004080E00040A0000040A0200040A0400040A0600040A0800040A0A00040A0C00040A0E00040C0000040C0200040C0400040C0600040C08000
310
40C0A00040C0C00040C0E00040E0000040E0200040E0400040E0600040E0800040E0A00040E0C00040E0E00080000000800020008000400080006000800080008000A0008000C0008000E00080200000802020008020400080206000802080008020A0008020C0008020E00080400000804020008040400080406000804080
310
008040A0008040C0008040E00080600000806020008060400080606000806080008060A0008060C0008060E00080800000808020008080400080806000808080008080A0008080C0008080E00080A0000080A0200080A0400080A0600080A0800080A0A00080A0C00080A0E00080C0000080C0200080C0400080C0600080C0
310
800080C0A00080C0C00080C0E00080E0000080E0200080E0400080E0600080E0800080E0A00080E0C00080E0E000C0000000C0002000C0004000C0006000C0008000C000A000C000C000C000E000C0200000C0202000C0204000C0206000C0208000C020A000C020C000C020E000C0400000C0402000C0404000C0406000C0
310
408000C040A000C040C000C040E000C0600000C0602000C0604000C0606000C0608000C060A000C060C000C060E000C0800000C0802000C0804000C0806000C0808000C080A000C080C000C080E000C0A00000C0A02000C0A04000C0A06000C0A08000C0A0A000C0A0C000C0A0E000C0C00000C0C02000C0C04000C0C06000
310
C0C08000C0C0A000F0FBFF00A4A0A000808080000000FF0000FF000000FFFF00FF000000FF00FF00FFFF0000FFFFFF0000000000000000000000000000000000000000000000000000000000000000000000000000000000000000000000000000000000000000000000000000000000000000000000000000000000000000
310
00000000000000000000000000000000000000000000000000000000000000000000000000000000000000000000000000000000000000000000000000000000000000000000000000000000000000000000000000000000000000000000000000000000000000000000000000000000000000000000000000000000000000
310
000000000000000000000000000000000000000000000000000000000000000000000000000000000000000000000000000000000000000000000000000000000000000000000000000000000000000000000000000000000000000000000000000000000000000000000000000000000000000000000000000000000000FF
310
FFFFFFFFFFFF000000000000000000000000000000000000000000000000FF00FF00000000FF0000000000000000000000000000000000000000000000FF00FFFFFFFFFFFFFF0000000000000000000000000000000000000000000000FF00FF000000000000FFFF0000000000000000000000000000000000000000FF00FF
310
000000000000000000FFFF000000000000000000000000000000000000FF00FF0000000000000000000000FFFF00000000000000000000FFFFFFFFFFFFFFFFFFFFFFFFFFFFFFFFFFFFFFFFFFFFFFFFFFFF000000000000FF000000000000000000000000000000000000000000000000FF000000000000FF00000000000000
310
0000000000000000000000000000000000FF00000000FFFFFFFFFFFFFFFFFFFFFFFFFFFFFFFFFFFFFFFFFFFFFFFFFFFFFFFFFFFF0000FF00000000000000000000000000000000000000000000000000000000FF0000FFFFFFFFFFFFFFFFFFFFFFFFFFFFFFFFFFFFFFFFFFFFFFFFFFFFFFFFFFFF0000000000000000000000
310
00000000000000000000000000000000000000000000000000000000000000000000000000000000000000000000000000000000000000000000000000000000000000000000000000000000000000000000000000000000000000000000000000000000000000000000000000000000000000000000000000000000000000
310
00000000000000000000000000000000000000000000000000000000000000000000000000000000000000000000000000000000000000000000000000000000000000000000000000000000000000000000000000000000000000000000000000000000000000000000000000000000000000000000000000000000000000
310
0000000000000000000000000000000000000000000000000000000000000000000000000000000000000000000000000000000000000000
102
{BLKREFS
331
F53
102
}
1001
ACAD
1000
DesignCenter Data
1002
{
1070
     1
1070
     4
1002
}
  0
ENDTAB
  0
ENDSEC
  0
SECTION
  2
BLOCKS
  0
BLOCK
  5
24
330
23
100
AcDbEntity
  8
0
100
AcDbBlockBegin
  2
*Model_Space
 70
     0
 10
0.0
 20
0.0
 30
0.0
  3
*Model_Space
  1

  0
ENDBLK
  5
25
330
23
100
AcDbEntity
  8
0
100
AcDbBlockEnd
  0
BLOCK
  5
20
330
1F
100
AcDbEntity
 67
     1
  8
0
100
AcDbBlockBegin
  2
*Paper_Space
 70
     0
 10
0.0
 20
0.0
 30
0.0
  3
*Paper_Space
  1

  0
ENDBLK
  5
21
330
1F
100
AcDbEntity
 67
     1
  8
0
100
AcDbBlockEnd
  0
BLOCK
  5
28
330
27
100
AcDbEntity
 67
     1
  8
0
100
AcDbBlockBegin
  2
*Paper_Space0
 70
     0
 10
0.0
 20
0.0
 30
0.0
  3
*Paper_Space0
  1

  0
ENDBLK
  5
29
330
27
100
AcDbEntity
 67
     1
  8
0
100
AcDbBlockEnd
  0
BLOCK
  5
EC3
330
EBF
100
AcDbEntity
  8
0
100
AcDbBlockBegin
  2
27060_P
 70
     0
 10
0.0
 20
0.0
 30
0.0
  3
27060_P
  1

  0
CIRCLE
  5
EC5
330
EBF
100
AcDbEntity
  8
0
100
AcDbCircle
 10
397.2455290490893
 20
277.1277112598353
 30
0.0
 40
23.00000000000022
  0
LINE
  5
EC6
330
EBF
100
AcDbEntity
  8
0
100
AcDbLine
 10
122.2455290490893
 20
118.747069651329
 30
0.0
 11
122.245529049082
 21
467.1277112598317
 31
0.0
  0
ARC
  5
EC7
330
EBF
100
AcDbEntity
  8
0
100
AcDbCircle
 10
137.245529049082
 20
467.1277112598317
 30
0.0
 40
15.0
100
AcDbArc
 50
90.0
 51
180.0
  0
LINE
  5
EC8
330
EBF
100
AcDbEntity
  8
0
100
AcDbLine
 10
672.2455290490874
 20
118.7470696513254
 30
0.0
 11
672.245529049082
 21
467.1277112598499
 31
0.0
  0
ARC
  5
EC9
330
EBF
100
AcDbEntity
  8
0
100
AcDbCircle
 10
657.245529049082
 20
467.1277112598499
 30
0.0
 40
15.0
100
AcDbArc
 50
0.0
 51
90.0
  0
LINE
  5
ECA
330
EBF
100
AcDbEntity
  8
0
100
AcDbLine
 10
654.2455290490875
 20
118.7470696513254
 30
0.0
 11
654.2455290490821
 21
335.1277112598208
 31
0.0
  0
ARC
  5
ECB
330
EBF
100
AcDbEntity
  8
0
100
AcDbCircle
 10
617.2455290490857
 20
335.1277112598208
 30
0.0
 40
37.0
100
AcDbArc
 50
0.0
 51
90.0
  0
LINE
  5
ECC
330
EBF
100
AcDbEntity
  8
0
100
AcDbLine
 10
617.2455290490875
 20
372.1277112598208
 30
0.0
 11
397.2455290490857
 21
372.127711259839
 31
0.0
  0
CIRCLE
  5
ECD
330
EBF
100
AcDbEntity
  8
0
100
AcDbCircle
 10
397.2455290490821
 20
417.127711259839
 30
0.0
 40
17.5
  0
LINE
  5
ECE
330
EBF
100
AcDbEntity
  8
0
100
AcDbLine
 10
657.245529049082
 20
482.1277112598498
 30
0.0
 11
137.245529049082
 21
482.1277112598316
 31
0.0
  0
LINE
  5
ECF
330
EBF
100
AcDbEntity
  8
0
100
AcDbLine
 10
602.9808823132175
 20
343.127711259839
 30
0.0
 11
397.2455290490893
 21
343.127711259839
 31
0.0
  0
ARC
  5
ED0
330
EBF
100
AcDbEntity
  8
0
100
AcDbCircle
 10
602.9808823132175
 20
315.127711259839
 30
0.0
 40
28.0
100
AcDbArc
 50
0.0
 51
90.0
  0
ARC
  5
ED1
330
EBF
100
AcDbEntity
  8
0
100
AcDbCircle
 10
397.2455290490784
 20
15062.12771125983
 30
0.0
 40
15000.0
100
AcDbArc
 50
269.1565388569257
 51
270.8434611430744
  0
ARC
  5
ED2
330
EBF
100
AcDbEntity
  8
0
100
AcDbCircle
 10
397.2455290490784
 20
15062.12771125983
 30
0.0
 40
14982.0
100
AcDbArc
 50
270.0
 51
270.8434611430744
  0
ARC
  5
ED3
330
EBF
100
AcDbEntity
  8
0
100
AcDbCircle
 10
177.2455290490857
 20
118.747069651329
 30
0.0
 40
55.0
100
AcDbArc
 50
180.0
 51
269.1565388569257
  0
ARC
  5
ED4
330
EBF
100
AcDbEntity
  8
0
100
AcDbCircle
 10
617.2455290490875
 20
118.747069651329
 30
0.0
 40
55.0
100
AcDbArc
 50
270.8434611430744
 51
0.0
  0
ARC
  5
ED5
330
EBF
100
AcDbEntity
  8
0
100
AcDbCircle
 10
617.2455290490875
 20
118.747069651329
 30
0.0
 40
37.0
100
AcDbArc
 50
270.8434611430744
 51
0.0
  0
LINE
  5
ED6
330
EBF
100
AcDbEntity
  8
0
100
AcDbLine
 10
657.2455290490839
 20
482.1277112598535
 30
0.0
 11
137.2455290490857
 21
482.1277112598353
 31
0.0
  0
ARC
  5
ED7
330
EBF
100
AcDbEntity
  8
0
100
AcDbCircle
 10
397.245529049093
 20
277.1277112598353
 30
0.0
 40
36.0
100
AcDbArc
 50
270.0
 51
90.0
  0
ARC
  5
ED8
330
EBF
100
AcDbEntity
  8
0
100
AcDbCircle
 10
397.2455290490893
 20
277.1277112598353
 30
0.0
 40
36.0
100
AcDbArc
 50
90.0
 51
270.0
  0
LINE
  5
ED9
330
EBF
100
AcDbEntity
  8
0
100
AcDbLine
 10
140.2455290490747
 20
118.7470696513254
 30
0.0
 11
140.245529049082
 21
335.1277112598208
 31
0.0
  0
ARC
  5
EDA
330
EBF
100
AcDbEntity
  8
0
100
AcDbCircle
 10
177.2455290490784
 20
335.1277112598208
 30
0.0
 40
37.0
100
AcDbArc
 50
90.0
 51
180.0
  0
LINE
  5
EDB
330
EBF
100
AcDbEntity
  8
0
100
AcDbLine
 10
177.2455290490747
 20
372.1277112598208
 30
0.0
 11
397.2455290490784
 21
372.127711259839
 31
0.0
  0
LINE
  5
EDC
330
EBF
100
AcDbEntity
  8
0
100
AcDbLine
 10
191.5101757849465
 20
343.127711259839
 30
0.0
 11
397.2455290490748
 21
343.127711259839
 31
0.0
  0
ARC
  5
EDD
330
EBF
100
AcDbEntity
  8
0
100
AcDbCircle
 10
191.5101757849465
 20
315.127711259839
 30
0.0
 40
28.0
100
AcDbArc
 50
90.0
 51
180.0
  0
ARC
  5
EDE
330
EBF
100
AcDbEntity
  8
0
100
AcDbCircle
 10
397.2455290490857
 20
15062.12771125983
 30
0.0
 40
14982.0
100
AcDbArc
 50
269.1565388569257
 51
270.0
  0
ARC
  5
EDF
330
EBF
100
AcDbEntity
  8
0
100
AcDbCircle
 10
177.2455290490747
 20
118.747069651329
 30
0.0
 40
37.0
100
AcDbArc
 50
180.0
 51
269.1565388569257
  0
SPLINE
  5
EE0
330
EBF
100
AcDbEntity
  8
0
100
AcDbSpline
210
0.0
220
0.0
230
1.0
 70
     8
 71
     3
 72
    26
 73
    22
 74
     0
 42
0.0000000001
 43
0.0000000001
 40
7.853979450876906
 40
7.853979450876906
 40
7.853979450876906
 40
7.853979450876906
 40
7.919352950397192
 40
7.919352950397192
 40
8.35700805459029
 40
8.35700805459029
 40
8.794663158783388
 40
8.794663158783388
 40
9.124586633184637
 40
9.124586633184637
 40
9.454510107585889
 40
9.454510107585889
 40
9.784433581987139
 40
9.784433581987139
 40
10.11435705638839
 40
10.11435705638839
 40
10.44428053078964
 40
10.44428053078964
 40
10.88286040666045
 40
10.88286040666045
 40
10.99557777686171
 40
10.99557777686171
 40
10.99557777686171
 40
10.99557777686171
 10
397.2455290490675
 20
348.4865181150852
 30
0.0
 10
397.4788357291459
 20
348.486447632731
 30
0.0
 10
397.7121463294011
 20
348.4917836394742
 30
0.0
 10
399.5040182717407
 20
348.57473021467
 30
0.0
 10
401.0420058539152
 20
348.8907377728064
 30
0.0
 10
403.8158355576511
 20
349.9699724549463
 30
0.0
 10
405.0516747450733
 20
350.7329139949797
 30
0.0
 10
406.7521245558078
 20
352.3816389784187
 30
0.0
 10
407.3318442323202
 20
353.1916217569086
 30
0.0
 10
408.0969494805818
 20
354.9393790803878
 30
0.0
 10
408.27944891589
 20
355.8771417581737
 30
0.0
 10
408.2010031280065
 20
357.7422342087992
 30
0.0
 10
407.9406697294821
 20
358.6655718158835
 30
0.0
 10
407.0366096346028
 20
360.3657060634795
 30
0.0
 10
406.3953264758733
 20
361.1432619538645
 30
0.0
 10
404.827891167783
 20
362.4873142386022
 30
0.0
 10
403.9016265184386
 20
363.0547425292715
 30
0.0
 10
401.5269414179333
 20
364.0872331905774
 30
0.0
 10
400.0064245070302
 20
364.4558978425774
 30
0.0
 10
398.05007556168
 20
364.6124839941803
 30
0.0
 10
397.6478017760587
 20
364.6283606792203
 30
0.0
 10
397.2455290490748
 20
364.6282318468073
 30
0.0
  0
SPLINE
  5
EE1
330
EBF
100
AcDbEntity
  8
0
100
AcDbSpline
210
0.0
220
0.0
230
1.0
 70
     8
 71
     3
 72
    26
 73
    22
 74
     0
 42
0.0000000001
 43
0.0000000001
 40
7.853979450876906
 40
7.853979450876906
 40
7.853979450876906
 40
7.853979450876906
 40
7.919352950397192
 40
7.919352950397192
 40
8.35700805459029
 40
8.35700805459029
 40
8.794663158783388
 40
8.794663158783388
 40
9.124586633184637
 40
9.124586633184637
 40
9.454510107585889
 40
9.454510107585889
 40
9.784433581987139
 40
9.784433581987139
 40
10.11435705638839
 40
10.11435705638839
 40
10.44428053078964
 40
10.44428053078964
 40
10.88286040666045
 40
10.88286040666045
 40
10.99557777686171
 40
10.99557777686171
 40
10.99557777686171
 40
10.99557777686171
 10
397.2455290490675
 20
348.4865181150852
 30
0.0
 10
397.0122223689964
 20
348.486447632731
 30
0.0
 10
396.7789117687412
 20
348.4917836394742
 30
0.0
 10
394.9870398264015
 20
348.57473021467
 30
0.0
 10
393.449052244227
 20
348.8907377728064
 30
0.0
 10
390.6752225404839
 20
349.9699724549463
 30
0.0
 10
389.4393833530616
 20
350.7329139949797
 30
0.0
 10
387.7389335423345
 20
352.3816389784187
 30
0.0
 10
387.159213865822
 20
353.1916217569086
 30
0.0
 10
386.3941086175605
 20
354.9393790803878
 30
0.0
 10
386.211609182245
 20
355.8771417581737
 30
0.0
 10
386.2900549701358
 20
357.7422342087992
 30
0.0
 10
386.5503883686529
 20
358.6655718158835
 30
0.0
 10
387.4544484635394
 20
360.3657060634795
 30
0.0
 10
388.0957316222689
 20
361.1432619538645
 30
0.0
 10
389.6631669303592
 20
362.4873142386022
 30
0.0
 10
390.5894315797036
 20
363.0547425292715
 30
0.0
 10
392.9641166802089
 20
364.0872331905774
 30
0.0
 10
394.484633591112
 20
364.4558978425774
 30
0.0
 10
396.4409825364624
 20
364.6124839941803
 30
0.0
 10
396.8432563220836
 20
364.6283606792203
 30
0.0
 10
397.2455290490675
 20
364.6282318468073
 30
0.0
  0
ENDBLK
  5
EC4
330
EBF
100
AcDbEntity
  8
0
100
AcDbBlockEnd
  0
BLOCK
  5
F36
330
F32
100
AcDbEntity
  8
0
100
AcDbBlockBegin
  2
27060_L
 70
     0
 10
0.0
 20
0.0
 30
0.0
  3
27060_L
  1

  0
ARC
  5
F38
330
F32
100
AcDbEntity
  8
0
100
AcDbCircle
 10
340.5209034342213
 20
141.5055696890305
 30
0.0
 40
6.0
100
AcDbArc
 50
5.000000000081564
 51
78.32496712297393
  0
ARC
  5
F39
330
F32
100
AcDbEntity
  8
0
100
AcDbCircle
 10
353.8767011501884
 20
206.1401012288371
 30
0.0
 40
60.0
100
AcDbArc
 50
185.0000000000815
 51
258.3249671229739
  0
LINE
  5
F3A
330
F32
100
AcDbEntity
  8
0
100
AcDbLine
 10
346.5738917777242
 20
141.1618758088044
 30
0.0
 11
346.4980716227735
 21
142.0285041455137
 31
0.0
  0
ARC
  5
F3B
330
F32
100
AcDbEntity
  8
0
100
AcDbCircle
 10
348.5662811739083
 20
141.3361872943025
 30
0.0
 40
2.0
100
AcDbArc
 50
185.0000000000815
 51
270.0
  0
LINE
  5
F3C
330
F32
100
AcDbEntity
  8
0
100
AcDbLine
 10
586.6179629575624
 20
309.3352761148527
 30
0.0
 11
186.9513484044626
 21
309.3361873621508
 31
0.0
  0
LINE
  5
F3D
330
F32
100
AcDbEntity
  8
0
100
AcDbLine
 10
416.8934290506101
 20
141.160951934041
 30
0.0
 11
419.5048878086443
 21
171.0100621248676
 31
0.0
  0
ARC
  5
F3E
330
F32
100
AcDbEntity
  8
0
100
AcDbCircle
 10
343.8212537599982
 20
206.3372583696547
 30
0.0
 40
30.5
100
AcDbArc
 50
185.0000000000815
 51
254.4214006464175
  0
ARC
  5
F3F
330
F32
100
AcDbEntity
  8
0
100
AcDbCircle
 10
332.4074516631779
 20
165.3985832360523
 30
0.0
 40
12.0
100
AcDbArc
 50
4.999999999976889
 51
74.42140064641749
  0
LINE
  5
F40
330
F32
100
AcDbEntity
  8
0
100
AcDbLine
 10
310.7551598372163
 20
234.3361873621499
 30
0.0
 11
313.4373154682005
 21
203.6790082158506
 31
0.0
  0
LINE
  5
F41
330
F32
100
AcDbEntity
  8
0
100
AcDbLine
 10
291.1806730051237
 20
234.3361873621508
 30
0.0
 11
294.1050192646842
 21
200.910756663976
 31
0.0
  0
LINE
  5
F42
330
F32
100
AcDbEntity
  8
0
100
AcDbLine
 10
575.68043024553
 20
278.8060643521204
 30
0.0
 11
573.5981875876903
 21
239.074507580932
 31
0.0
  0
ARC
  5
F43
330
F32
100
AcDbEntity
  8
0
100
AcDbCircle
 10
568.6050399139173
 20
239.3361873621472
 30
0.0
 40
5.0
100
AcDbArc
 50
270.0
 51
356.999999999996
  0
LINE
  5
F44
330
F32
100
AcDbEntity
  8
0
100
AcDbLine
 10
176.8384339255397
 20
279.3361873621399
 30
0.0
 11
177.963682591672
 21
300.8072109683345
 31
0.0
  0
ARC
  5
F45
330
F32
100
AcDbEntity
  8
0
100
AcDbCircle
 10
186.9513484044626
 20
300.3361873621508
 30
0.0
 40
9.0
100
AcDbArc
 50
90.0
 51
176.999999999996
  0
LINE
  5
F46
330
F32
100
AcDbEntity
  8
0
100
AcDbLine
 10
198.4026438880817
 20
279.3361873620717
 30
0.0
 11
199.8055682541514
 21
239.1616898786379
 31
0.0
  0
ARC
  5
F47
330
F32
100
AcDbEntity
  8
0
100
AcDbCircle
 10
204.8025223892498
 20
239.3361873621508
 30
0.0
 40
5.0
100
AcDbArc
 50
182.0000000000036
 51
270.0
  0
LINE
  5
F48
330
F32
100
AcDbEntity
  8
0
100
AcDbLine
 10
176.8384339255342
 20
279.3361873620662
 30
0.0
 11
596.7308774364853
 21
279.3361873621399
 31
0.0
  0
LINE
  5
F49
330
F32
100
AcDbEntity
  8
0
100
AcDbLine
 10
204.8025223892498
 20
234.3361873621508
 30
0.0
 11
568.6050399139173
 21
234.3361873621471
 31
0.0
  0
LINE
  5
F4A
330
F32
100
AcDbEntity
  8
0
100
AcDbLine
 10
596.7308774364853
 20
279.3361873621399
 30
0.0
 11
595.6056287703547
 21
300.80721096832
 31
0.0
  0
ARC
  5
F4B
330
F32
100
AcDbEntity
  8
0
100
AcDbCircle
 10
586.6179629575624
 20
300.3361873621362
 30
0.0
 40
9.0
100
AcDbArc
 50
3.000000000003968
 51
90.8152082751943
  0
ARC
  5
F4C
330
F32
100
AcDbEntity
  8
0
100
AcDbCircle
 10
382.4307072611889
 20
404.0114718381556
 30
0.0
 40
230.0
100
AcDbArc
 50
280.9095670215536
 51
312.462561399883
  0
ARC
  5
F4D
330
F32
100
AcDbEntity
  8
0
100
AcDbCircle
 10
577.6776893150406
 20
278.701392439638
 30
0.0
 40
2.0
100
AcDbArc
 50
147.3075347053969
 51
177.0000000002047
  0
ARC
  5
F4E
330
F32
100
AcDbEntity
  8
0
100
AcDbCircle
 10
427.4744453933806
 20
170.31281618289
 30
0.0
 40
8.0
100
AcDbArc
 50
100.9095670215536
 51
175.0000000001276
  0
LINE
  5
F4F
330
F32
100
AcDbEntity
  8
0
100
AcDbLine
 10
348.5662811739083
 20
139.3361872943025
 30
0.0
 11
414.9010117994974
 21
139.33526341973
 31
0.0
  0
ARC
  5
F50
330
F32
100
AcDbEntity
  8
0
100
AcDbCircle
 10
414.9010396544261
 20
141.3352634195363
 30
0.0
 40
2.0
100
AcDbArc
 50
269.9992020151254
 51
355.0000000000232
  0
LINE
  5
F51
330
F32
100
AcDbEntity
  8
0
100
AcDbLine
 10
345.8591303607852
 20
149.3297511105085
 30
0.0
 11
344.3617880402805
 21
166.4444521490242
 31
0.0
  0
LINE
  5
F52
330
F32
100
AcDbEntity
  8
0
100
AcDbLine
 10
418.0848905289974
 20
175.6705511464616
 30
0.0
 11
344.5706133185129
 21
175.6705511464625
 31
0.0
  0
ENDBLK
  5
F37
330
F32
100
AcDbEntity
  8
0
100
AcDbBlockEnd
  0
ENDSEC
  0
SECTION
  2
ENTITIES
  0
MTEXT
  5
6B
330
23
100
AcDbEntity
  8
0
100
AcDbMText
 10
13.67895064802198
 20
26.44333632592591
 30
0.0
 40
20.0
 41
959.8800372618139
 71
     1
 72
     5
  1
{\fTimes New Roman|b0|i0|c0|p18;\C0;LAVABO  DE 55 DE EMPOTRAR.  SERIE EMMA SQUARE }
 73
     1
 44
1.0
1001
ACAD
1000
ACAD_MTEXT_DEFINED_HEIGHT_BEGIN
1070
    46
1040
0.0
1000
ACAD_MTEXT_DEFINED_HEIGHT_END
1000
MTEXTBEGIN
1070
    73
1070
     1
1070
    44
1040
1.0
1070
    74
1070
     0
1000
MTEXTEND
  0
INSERT
  5
F53
330
23
100
AcDbEntity
  8
0
100
AcDbBlockReference
  2
27060_L
 10
0.0
 20
0.0
 30
0.0
  0
ENDSEC
  0
SECTION
  2
OBJECTS
  0
DICTIONARY
  5
C
330
0
100
AcDbDictionary
281
     1
  3
ACAD_COLOR
350
1C
  3
ACAD_GROUP
350
D
  3
ACAD_LAYOUT
350
1A
  3
ACAD_MATERIAL
350
1B
  3
ACAD_MLINESTYLE
350
17
  3
ACAD_PLOTSETTINGS
350
19
  3
ACAD_PLOTSTYLENAME
350
E
  3
ACAD_TABLESTYLE
350
1D
  3
ACDBHEADERROUNDTRIPXREC
350
F63
  3
AcDbVariableDictionary
350
111
  0
DICTIONARY
  5
35
330
2
100
AcDbDictionary
280
     1
281
     1
  3
ACAD_LAYERSTATES
360
36
  0
DICTIONARY
  5
19E
330
23
100
AcDbDictionary
280
     1
281
     1
  3
ACAD_SORTENTS
360
19F
  0
DICTIONARY
  5
EC0
330
EBF
100
AcDbDictionary
280
     1
281
     1
  3
AcDbBlockTableRecordData
360
EC1
  0
DICTIONARY
  5
F33
330
F32
100
AcDbDictionary
280
     1
281
     1
  3
AcDbBlockTableRecordData
360
F34
  0
DICTIONARY
  5
1C
102
{ACAD_REACTORS
330
C
102
}
330
C
100
AcDbDictionary
281
     1
  0
DICTIONARY
  5
D
102
{ACAD_REACTORS
330
C
102
}
330
C
100
AcDbDictionary
281
     1
  0
DICTIONARY
  5
1A
102
{ACAD_REACTORS
330
C
102
}
330
C
100
AcDbDictionary
281
     1
  3
Model
350
26
  3
Presentación1
350
22
  3
Presentación2
350
2A
  0
DICTIONARY
  5
1B
102
{ACAD_REACTORS
330
C
102
}
330
C
100
AcDbDictionary
281
     1
  0
DICTIONARY
  5
17
102
{ACAD_REACTORS
330
C
102
}
330
C
100
AcDbDictionary
281
     1
  3
Standard
350
18
  0
DICTIONARY
  5
19
102
{ACAD_REACTORS
330
C
102
}
330
C
100
AcDbDictionary
281
     1
  0
ACDBDICTIONARYWDFLT
  5
E
102
{ACAD_REACTORS
330
C
102
}
330
C
100
AcDbDictionary
281
     1
  3
Normal
350
F
100
AcDbDictionaryWithDefault
340
F
  0
DICTIONARY
  5
1D
102
{ACAD_REACTORS
330
C
102
}
330
C
100
AcDbDictionary
281
     1
  3
Standard
350
1E
  0
DICTIONARY
  5
F63
102
{ACAD_REACTORS
330
C
102
}
330
C
100
AcDbDictionary
281
     1
  0
DICTIONARY
  5
111
102
{ACAD_REACTORS
330
C
102
}
330
C
100
AcDbDictionary
281
     1
  3
CTABLESTYLE
350
112
  3
DIMASSOC
350
114
  3
HIDETEXT
350
113
  3
PROJECTNAME
350
115
  0
DICTIONARY
  5
36
102
{ACAD_REACTORS
330
35
102
}
330
35
100
AcDbDictionary
281
     1
  0
SORTENTSTABLE
  5
19F
102
{ACAD_REACTORS
330
19E
102
}
330
19E
100
AcDbSortentsTable
330
23
331
6B
  5
6B
  0
DICTIONARY
  5
EC1
102
{ACAD_REACTORS
330
EC0
102
}
330
EC0
100
AcDbDictionary
280
     1
281
     1
  3
Edit
360
EC2
  0
DICTIONARY
  5
F34
102
{ACAD_REACTORS
330
F33
102
}
330
F33
100
AcDbDictionary
280
     1
281
     1
  3
Edit
360
F35
  0
LAYOUT
  5
26
102
{ACAD_XDICTIONARY
360
F66
102
}
102
{ACAD_REACTORS
330
1A
102
}
330
1A
100
AcDbPlotSettings
  1

  2
\\CERAMICAS_GALA\PRT_BU_OT_01.ZPRINTERS.BURGOS
  4
User618
  6

 40
0.0
 41
0.0
 42
0.0
 43
0.0
 44
210.0
 45
297.0
 46
0.0
 47
0.0
 48
0.0
 49
0.0
140
0.0
141
0.0
142
1.0
143
2.781296853567831
 70
 11952
 72
     1
 73
     1
 74
     0
  7
C:\Documents and Settings\G0810\Application Data\Autodesk\AutoCAD 2006\R16.2\esp\Plot Styles\jj.stb
 75
     0
147
0.3595445048295387
148
4.771427201401365
149
47.08597890309471
100
AcDbLayout
  1
Model
 70
     1
 71
     0
 10
0.0
 20
0.0
 11
12.0
 21
9.0
 12
0.0
 22
0.0
 32
0.0
 14
0.0
 24
0.0
 34
0.0
 15
0.0
 25
0.0
 35
0.0
146
0.0
 13
0.0
 23
0.0
 33
0.0
 16
1.0
 26
0.0
 36
0.0
 17
0.0
 27
1.0
 37
0.0
 76
     0
330
23
1001
ACAD_PSEXT
1000
\\CERAMICAS_GALA\PRT_BU_OT_01.ZPRINTERS.BURGOS
1000
HP DesignJet 1050C by HP
1000
CERAMICAS_GALA
1000

1070
     0
  0
LAYOUT
  5
22
102
{ACAD_XDICTIONARY
360
F64
102
}
102
{ACAD_REACTORS
330
1A
102
}
330
1A
100
AcDbPlotSettings
  1

  2
\\CERAMICAS_GALA\PRT_BU_OT_01.ZPRINTERS.BURGOS
  4

  6

 40
0.0
 41
0.0
 42
0.0
 43
0.0
 44
0.0
 45
0.0
 46
0.0
 47
0.0
 48
0.0
 49
0.0
140
0.0
141
0.0
142
1.0
143
1.0
 70
   688
 72
     0
 73
     0
 74
     5
  7
C:\Documents and Settings\G0810\Application Data\Autodesk\AutoCAD 2006\R16.2\esp\Plot Styles\jj.stb
 75
    16
147
1.0
148
0.0
149
0.0
100
AcDbLayout
  1
Presentación1
 70
     1
 71
     1
 10
0.0
 20
0.0
 11
420.0
 21
297.0
 12
0.0
 22
0.0
 32
0.0
 14
1.000000000000000E+20
 24
1.000000000000000E+20
 34
1.000000000000000E+20
 15
-1.000000000000000E+20
 25
-1.000000000000000E+20
 35
-1.000000000000000E+20
146
0.0
 13
0.0
 23
0.0
 33
0.0
 16
1.0
 26
0.0
 36
0.0
 17
0.0
 27
1.0
 37
0.0
 76
     0
330
1F
  0
LAYOUT
  5
2A
102
{ACAD_XDICTIONARY
360
F68
102
}
102
{ACAD_REACTORS
330
1A
102
}
330
1A
100
AcDbPlotSettings
  1

  2
\\CERAMICAS_GALA\PRT_BU_OT_01.ZPRINTERS.BURGOS
  4

  6

 40
0.0
 41
0.0
 42
0.0
 43
0.0
 44
0.0
 45
0.0
 46
0.0
 47
0.0
 48
0.0
 49
0.0
140
0.0
141
0.0
142
1.0
143
1.0
 70
   688
 72
     0
 73
     0
 74
     5
  7
C:\Documents and Settings\G0810\Application Data\Autodesk\AutoCAD 2006\R16.2\esp\Plot Styles\jj.stb
 75
    16
147
1.0
148
0.0
149
0.0
100
AcDbLayout
  1
Presentación2
 70
     1
 71
     2
 10
0.0
 20
0.0
 11
12.0
 21
9.0
 12
0.0
 22
0.0
 32
0.0
 14
0.0
 24
0.0
 34
0.0
 15
0.0
 25
0.0
 35
0.0
146
0.0
 13
0.0
 23
0.0
 33
0.0
 16
1.0
 26
0.0
 36
0.0
 17
0.0
 27
1.0
 37
0.0
 76
     0
330
27
  0
MLINESTYLE
  5
18
102
{ACAD_REACTORS
330
17
102
}
330
17
100
AcDbMlineStyle
  2
STANDARD
 70
     0
  3

 62
   256
 51
90.0
 52
90.0
 71
     2
 49
0.5
 62
   256
  6
BYLAYER
 49
-0.5
 62
   256
  6
BYLAYER
  0
ACDBPLACEHOLDER
  5
F
102
{ACAD_REACTORS
330
E
102
}
330
E
  0
TABLESTYLE
  5
1E
102
{ACAD_REACTORS
330
1D
102
}
330
1D
100
AcDbTableStyle
  3
Standard
 70
     0
 71
     0
 40
1.5
 41
1.5
280
     0
281
     0
  7
Standard
140
4.5
170
     2
 62
     0
 63
     7
283
     0
274
    -2
284
     1
 64
     0
275
    -2
285
     1
 65
     0
276
    -2
286
     1
 66
     0
277
    -2
287
     1
 67
     0
278
    -2
288
     1
 68
     0
279
    -2
289
     1
 69
     0
  7
Standard
140
6.0
170
     5
 62
     0
 63
     7
283
     0
274
    -2
284
     1
 64
     0
275
    -2
285
     1
 65
     0
276
    -2
286
     1
 66
     0
277
    -2
287
     1
 67
     0
278
    -2
288
     1
 68
     0
279
    -2
289
     1
 69
     0
  7
Standard
140
4.5
170
     5
 62
     0
 63
     7
283
     0
274
    -2
284
     1
 64
     0
275
    -2
285
     1
 65
     0
276
    -2
286
     1
 66
     0
277
    -2
287
     1
 67
     0
278
    -2
288
     1
 68
     0
279
    -2
289
     1
 69
     0
  0
DICTIONARYVAR
  5
112
102
{ACAD_REACTORS
330
111
102
}
330
111
100
DictionaryVariables
280
     0
  1
STANDARD
  0
DICTIONARYVAR
  5
114
102
{ACAD_REACTORS
330
111
102
}
330
111
100
DictionaryVariables
280
     0
  1
2
  0
DICTIONARYVAR
  5
113
102
{ACAD_REACTORS
330
111
102
}
330
111
100
DictionaryVariables
280
     0
  1
1
  0
DICTIONARYVAR
  5
115
102
{ACAD_REACTORS
330
111
102
}
330
111
100
DictionaryVariables
280
     0
  1

  0
XRECORD
  5
EC2
102
{ACAD_REACTORS
330
EC1
102
}
330
EC1
100
AcDbXrecord
280
     1
1070
     0
1070
     0
1070
     0
  0
XRECORD
  5
F35
102
{ACAD_REACTORS
330
F34
102
}
330
F34
100
AcDbXrecord
280
     1
1070
     0
1070
     0
1070
     0
  0
DICTIONARY
  5
F66
330
26
100
AcDbDictionary
280
     1
281
     1
  3
ACAD_XREC_ROUNDTRIP
360
F67
  0
DICTIONARY
  5
F64
330
22
100
AcDbDictionary
280
     1
281
     1
  3
ACAD_XREC_ROUNDTRIP
360
F65
  0
DICTIONARY
  5
F68
330
2A
100
AcDbDictionary
280
     1
281
     1
  3
ACAD_XREC_ROUNDTRIP
360
F69
  0
XRECORD
  5
F67
102
{ACAD_REACTORS
330
F66
102
}
330
F66
100
AcDbXrecord
280
     1
102
SHADEPLOT
 70
     0
102
SHADEPLOTRESLEVEL
 70
     2
102
SHADEPLOTCUSTOMDPI
 70
   300
  0
XRECORD
  5
F65
102
{ACAD_REACTORS
330
F64
102
}
330
F64
100
AcDbXrecord
280
     1
102
SHADEPLOT
 70
     0
102
SHADEPLOTRESLEVEL
 70
     2
102
SHADEPLOTCUSTOMDPI
 70
   300
  0
XRECORD
  5
F69
102
{ACAD_REACTORS
330
F68
102
}
330
F68
100
AcDbXrecord
280
     1
102
SHADEPLOT
 70
     0
102
SHADEPLOTRESLEVEL
 70
     2
102
SHADEPLOTCUSTOMDPI
 70
   300
  0
ENDSEC
  0
EOF
