  0
SECTION
  2
HEADER
  9
$ACADVER
  1
AC1024
  9
$ACADMAINTVER
 70
     6
  9
$DWGCODEPAGE
  3
ANSI_1252
  9
$INSBASE
 10
0.0
 20
0.0
 30
0.0
  9
$EXTMIN
 10
1.000000000000000E+20
 20
1.000000000000000E+20
 30
1.000000000000000E+20
  9
$EXTMAX
 10
-1.000000000000000E+20
 20
-1.000000000000000E+20
 30
-1.000000000000000E+20
  9
$LIMMIN
 10
0.0
 20
0.0
  9
$LIMMAX
 10
12.0
 20
9.0
  9
$ORTHOMODE
 70
     0
  9
$REGENMODE
 70
     1
  9
$FILLMODE
 70
     1
  9
$QTEXTMODE
 70
     0
  9
$MIRRTEXT
 70
     1
  9
$LTSCALE
 40
1.0
  9
$ATTMODE
 70
     1
  9
$TEXTSIZE
 40
0.2
  9
$TRACEWID
 40
0.05
  9
$TEXTSTYLE
  7
Standard
  9
$CLAYER
  8
0
  9
$CELTYPE
  6
ByLayer
  9
$CECOLOR
 62
   256
  9
$CELTSCALE
 40
1.0
  9
$DISPSILH
 70
     0
  9
$DIMSCALE
 40
1.0
  9
$DIMASZ
 40
0.18
  9
$DIMEXO
 40
0.0625
  9
$DIMDLI
 40
0.38
  9
$DIMRND
 40
0.0
  9
$DIMDLE
 40
0.0
  9
$DIMEXE
 40
0.18
  9
$DIMTP
 40
0.0
  9
$DIMTM
 40
0.0
  9
$DIMTXT
 40
0.18
  9
$DIMCEN
 40
0.09
  9
$DIMTSZ
 40
0.0
  9
$DIMTOL
 70
     0
  9
$DIMLIM
 70
     0
  9
$DIMTIH
 70
     1
  9
$DIMTOH
 70
     1
  9
$DIMSE1
 70
     0
  9
$DIMSE2
 70
     0
  9
$DIMTAD
 70
     0
  9
$DIMZIN
 70
     0
  9
$DIMBLK
  1

  9
$DIMASO
 70
     1
  9
$DIMSHO
 70
     1
  9
$DIMPOST
  1

  9
$DIMAPOST
  1

  9
$DIMALT
 70
     0
  9
$DIMALTD
 70
     2
  9
$DIMALTF
 40
25.4
  9
$DIMLFAC
 40
1.0
  9
$DIMTOFL
 70
     0
  9
$DIMTVP
 40
0.0
  9
$DIMTIX
 70
     0
  9
$DIMSOXD
 70
     0
  9
$DIMSAH
 70
     0
  9
$DIMBLK1
  1

  9
$DIMBLK2
  1

  9
$DIMSTYLE
  2
Standard
  9
$DIMCLRD
 70
     0
  9
$DIMCLRE
 70
     0
  9
$DIMCLRT
 70
     0
  9
$DIMTFAC
 40
1.0
  9
$DIMGAP
 40
0.09
  9
$DIMJUST
 70
     0
  9
$DIMSD1
 70
     0
  9
$DIMSD2
 70
     0
  9
$DIMTOLJ
 70
     1
  9
$DIMTZIN
 70
     0
  9
$DIMALTZ
 70
     0
  9
$DIMALTTZ
 70
     0
  9
$DIMUPT
 70
     0
  9
$DIMDEC
 70
     4
  9
$DIMTDEC
 70
     4
  9
$DIMALTU
 70
     2
  9
$DIMALTTD
 70
     2
  9
$DIMTXSTY
  7
Standard
  9
$DIMAUNIT
 70
     0
  9
$DIMADEC
 70
     0
  9
$DIMALTRND
 40
0.0
  9
$DIMAZIN
 70
     0
  9
$DIMDSEP
 70
    46
  9
$DIMATFIT
 70
     3
  9
$DIMFRAC
 70
     0
  9
$DIMLDRBLK
  1

  9
$DIMLUNIT
 70
     2
  9
$DIMLWD
 70
    -2
  9
$DIMLWE
 70
    -2
  9
$DIMTMOVE
 70
     0
  9
$DIMFXL
 40
1.0
  9
$DIMFXLON
 70
     0
  9
$DIMJOGANG
 40
0.7853981633974483
  9
$DIMTFILL
 70
     0
  9
$DIMTFILLCLR
 70
     0
  9
$DIMARCSYM
 70
     0
  9
$DIMLTYPE
  6

  9
$DIMLTEX1
  6

  9
$DIMLTEX2
  6

  9
$DIMTXTDIRECTION
 70
     0
  9
$LUNITS
 70
     2
  9
$LUPREC
 70
     4
  9
$SKETCHINC
 40
0.1
  9
$FILLETRAD
 40
0.5
  9
$AUNITS
 70
     0
  9
$AUPREC
 70
     0
  9
$MENU
  1
.
  9
$ELEVATION
 40
0.0
  9
$PELEVATION
 40
0.0
  9
$THICKNESS
 40
0.0
  9
$LIMCHECK
 70
     0
  9
$CHAMFERA
 40
0.5
  9
$CHAMFERB
 40
0.5
  9
$CHAMFERC
 40
1.0
  9
$CHAMFERD
 40
0.0
  9
$SKPOLY
 70
     0
  9
$TDCREATE
 40
2459268.38077397
  9
$TDUCREATE
 40
2459268.339107303
  9
$TDUPDATE
 40
2459268.380774236
  9
$TDUUPDATE
 40
2459268.339107569
  9
$TDINDWG
 40
0.0000000116
  9
$TDUSRTIMER
 40
0.0000000116
  9
$USRTIMER
 70
     1
  9
$ANGBASE
 50
0.0
  9
$ANGDIR
 70
     0
  9
$PDMODE
 70
     0
  9
$PDSIZE
 40
0.0
  9
$PLINEWID
 40
0.0
  9
$SPLFRAME
 70
     0
  9
$SPLINETYPE
 70
     6
  9
$SPLINESEGS
 70
     8
  9
$HANDSEED
  5
3C7
  9
$SURFTAB1
 70
     6
  9
$SURFTAB2
 70
     6
  9
$SURFTYPE
 70
     6
  9
$SURFU
 70
     6
  9
$SURFV
 70
     6
  9
$UCSBASE
  2

  9
$UCSNAME
  2

  9
$UCSORG
 10
0.0
 20
0.0
 30
0.0
  9
$UCSXDIR
 10
1.0
 20
0.0
 30
0.0
  9
$UCSYDIR
 10
0.0
 20
1.0
 30
0.0
  9
$UCSORTHOREF
  2

  9
$UCSORTHOVIEW
 70
     0
  9
$UCSORGTOP
 10
0.0
 20
0.0
 30
0.0
  9
$UCSORGBOTTOM
 10
0.0
 20
0.0
 30
0.0
  9
$UCSORGLEFT
 10
0.0
 20
0.0
 30
0.0
  9
$UCSORGRIGHT
 10
0.0
 20
0.0
 30
0.0
  9
$UCSORGFRONT
 10
0.0
 20
0.0
 30
0.0
  9
$UCSORGBACK
 10
0.0
 20
0.0
 30
0.0
  9
$PUCSBASE
  2

  9
$PUCSNAME
  2

  9
$PUCSORG
 10
0.0
 20
0.0
 30
0.0
  9
$PUCSXDIR
 10
1.0
 20
0.0
 30
0.0
  9
$PUCSYDIR
 10
0.0
 20
1.0
 30
0.0
  9
$PUCSORTHOREF
  2

  9
$PUCSORTHOVIEW
 70
     0
  9
$PUCSORGTOP
 10
0.0
 20
0.0
 30
0.0
  9
$PUCSORGBOTTOM
 10
0.0
 20
0.0
 30
0.0
  9
$PUCSORGLEFT
 10
0.0
 20
0.0
 30
0.0
  9
$PUCSORGRIGHT
 10
0.0
 20
0.0
 30
0.0
  9
$PUCSORGFRONT
 10
0.0
 20
0.0
 30
0.0
  9
$PUCSORGBACK
 10
0.0
 20
0.0
 30
0.0
  9
$USERI1
 70
     0
  9
$USERI2
 70
     0
  9
$USERI3
 70
     0
  9
$USERI4
 70
     0
  9
$USERI5
 70
     0
  9
$USERR1
 40
0.0
  9
$USERR2
 40
0.0
  9
$USERR3
 40
0.0
  9
$USERR4
 40
0.0
  9
$USERR5
 40
0.0
  9
$WORLDVIEW
 70
     1
  9
$SHADEDGE
 70
     3
  9
$SHADEDIF
 70
    70
  9
$TILEMODE
 70
     1
  9
$MAXACTVP
 70
    64
  9
$PINSBASE
 10
0.0
 20
0.0
 30
0.0
  9
$PLIMCHECK
 70
     0
  9
$PEXTMIN
 10
1.000000000000000E+20
 20
1.000000000000000E+20
 30
1.000000000000000E+20
  9
$PEXTMAX
 10
-1.000000000000000E+20
 20
-1.000000000000000E+20
 30
-1.000000000000000E+20
  9
$PLIMMIN
 10
0.0
 20
0.0
  9
$PLIMMAX
 10
12.0
 20
9.0
  9
$UNITMODE
 70
     0
  9
$VISRETAIN
 70
     1
  9
$PLINEGEN
 70
     0
  9
$PSLTSCALE
 70
     1
  9
$TREEDEPTH
 70
  3020
  9
$CMLSTYLE
  2
Standard
  9
$CMLJUST
 70
     0
  9
$CMLSCALE
 40
1.0
  9
$PROXYGRAPHICS
 70
     1
  9
$MEASUREMENT
 70
     0
  9
$CELWEIGHT
370
    -1
  9
$ENDCAPS
280
     0
  9
$JOINSTYLE
280
     0
  9
$LWDISPLAY
290
     1
  9
$INSUNITS
 70
     4
  9
$HYPERLINKBASE
  1

  9
$STYLESHEET
  1

  9
$XEDIT
290
     1
  9
$CEPSNTYPE
380
     0
  9
$PSTYLEMODE
290
     1
  9
$FINGERPRINTGUID
  2
{E3173CC7-0DC3-40B4-AB32-BC681E9DFBA6}
  9
$VERSIONGUID
  2
{FAEB1C32-E019-11D5-929B-00C0DF256EC4}
  9
$EXTNAMES
290
     1
  9
$PSVPSCALE
 40
0.0
  9
$OLESTARTUP
290
     0
  9
$SORTENTS
280
   127
  9
$INDEXCTL
280
     0
  9
$HIDETEXT
280
     1
  9
$XCLIPFRAME
280
     2
  9
$HALOGAP
280
     0
  9
$OBSCOLOR
 70
   257
  9
$OBSLTYPE
280
     0
  9
$INTERSECTIONDISPLAY
280
     0
  9
$INTERSECTIONCOLOR
 70
   257
  9
$DIMASSOC
280
     2
  9
$PROJECTNAME
  1

  9
$CAMERADISPLAY
290
     0
  9
$LENSLENGTH
 40
50.0
  9
$CAMERAHEIGHT
 40
0.0
  9
$STEPSPERSEC
 40
2.0
  9
$STEPSIZE
 40
6.0
  9
$3DDWFPREC
 40
2.0
  9
$PSOLWIDTH
 40
0.25
  9
$PSOLHEIGHT
 40
4.0
  9
$LOFTANG1
 40
1.570796326794897
  9
$LOFTANG2
 40
1.570796326794897
  9
$LOFTMAG1
 40
0.0
  9
$LOFTMAG2
 40
0.0
  9
$LOFTPARAM
 70
     7
  9
$LOFTNORMALS
280
     1
  9
$LATITUDE
 40
37.795
  9
$LONGITUDE
 40
-122.394
  9
$NORTHDIRECTION
 40
0.0
  9
$TIMEZONE
 70
 -8000
  9
$LIGHTGLYPHDISPLAY
280
     1
  9
$TILEMODELIGHTSYNCH
280
     1
  9
$CMATERIAL
347
3C
  9
$SOLIDHIST
280
     1
  9
$SHOWHIST
280
     1
  9
$DWFFRAME
280
     2
  9
$DGNFRAME
280
     2
  9
$REALWORLDSCALE
290
     1
  9
$INTERFERECOLOR
 62
   256
  9
$CSHADOW
280
     0
  9
$SHADOWPLANELOCATION
 40
0.0
  0
ENDSEC
  0
SECTION
  2
CLASSES
  0
CLASS
  1
ACDBDICTIONARYWDFLT
  2
AcDbDictionaryWithDefault
  3
ObjectDBX Classes
 90
        0
 91
        4
280
     0
281
     0
  0
CLASS
  1
VISUALSTYLE
  2
AcDbVisualStyle
  3
ObjectDBX Classes
 90
     4095
 91
        4
280
     0
281
     0
  0
CLASS
  1
MATERIAL
  2
AcDbMaterial
  3
ObjectDBX Classes
 90
     1153
 91
        4
280
     0
281
     0
  0
CLASS
  1
SUN
  2
AcDbSun
  3
SCENEOE
 90
     1024
 91
        4
280
     0
281
     0
  0
ENDSEC
  0
SECTION
  2
TABLES
  0
TABLE
  2
VPORT
  5
8
330
0
100
AcDbSymbolTable
 70
     1
  0
VPORT
  5
29
330
8
100
AcDbSymbolTableRecord
100
AcDbViewportTableRecord
  2
*Active
 70
     0
 10
0.0
 20
0.0
 11
1.0
 21
1.0
 12
0.0
 22
0.0
 13
0.0
 23
0.0
 14
0.5
 24
0.5
 15
0.5
 25
0.5
 16
0.0
 26
0.0
 36
1.0
 17
104.9999999737534
 27
-148.4999999628701
 37
0.0
 40
296.9999999257402
 41
0.7070707070707533
 42
50.0
 43
0.0
 44
0.0
 50
0.0
 51
0.0
 71
     0
 72
   100
 73
     1
 74
     3
 75
     0
 76
     0
 77
     0
 78
     0
281
     0
 65
     1
110
0.0
120
0.0
130
0.0
111
1.0
121
0.0
131
0.0
112
0.0
122
1.0
132
0.0
 79
     0
146
0.0
 60
     3
 61
     5
292
     1
282
     1
141
0.0
142
0.0
 63
   250
361
3F
  0
ENDTAB
  0
TABLE
  2
LTYPE
  5
5
330
0
100
AcDbSymbolTable
 70
     3
  0
LTYPE
  5
14
330
5
100
AcDbSymbolTableRecord
100
AcDbLinetypeTableRecord
  2
ByBlock
 70
     0
  3

 72
    65
 73
     0
 40
0.0
  0
LTYPE
  5
15
330
5
100
AcDbSymbolTableRecord
100
AcDbLinetypeTableRecord
  2
ByLayer
 70
     0
  3

 72
    65
 73
     0
 40
0.0
  0
LTYPE
  5
16
330
5
100
AcDbSymbolTableRecord
100
AcDbLinetypeTableRecord
  2
Continuous
 70
     0
  3
Solid line
 72
    65
 73
     0
 40
0.0
  0
LTYPE
  5
B0
330
5
100
AcDbSymbolTableRecord
100
AcDbLinetypeTableRecord
  2
AI-Linetype-1
 70
     0
  3
Adobe Illustrator Linetype No. 1
 72
    65
 73
     2
 40
0.2935111170935653
 49
0.1467555585467826
 74
     0
 49
-0.1467555585467826
 74
     0
  0
LTYPE
  5
B5
330
5
100
AcDbSymbolTableRecord
100
AcDbLinetypeTableRecord
  2
AI-Linetype-2
 70
     0
  3
Adobe Illustrator Linetype No. 2
 72
    65
 73
     2
 40
0.3301999962166638
 49
0.1650999981083319
 74
     0
 49
-0.1650999981083319
 74
     0
  0
ENDTAB
  0
TABLE
  2
LAYER
  5
2
330
0
100
AcDbSymbolTable
 70
     2
  0
LAYER
  5
10
330
2
100
AcDbSymbolTableRecord
100
AcDbLayerTableRecord
  2
0
 70
     0
 62
     7
  6
Continuous
370
    -3
390
F
347
3E
  0
LAYER
  5
40
330
2
100
AcDbSymbolTableRecord
100
AcDbLayerTableRecord
  2
Capa 1
 70
     0
 62
     7
  6
Continuous
370
    -3
390
F
347
3E
  0
ENDTAB
  0
TABLE
  2
STYLE
  5
3
330
0
100
AcDbSymbolTable
 70
     1
  0
STYLE
  5
11
330
3
100
AcDbSymbolTableRecord
100
AcDbTextStyleTableRecord
  2
Standard
 70
     0
 40
0.0
 41
1.0
 50
0.0
 71
     0
 42
0.2
  3
txt
  4

  0
ENDTAB
  0
TABLE
  2
VIEW
  5
6
330
0
100
AcDbSymbolTable
 70
     0
  0
ENDTAB
  0
TABLE
  2
UCS
  5
7
330
0
100
AcDbSymbolTable
 70
     0
  0
ENDTAB
  0
TABLE
  2
APPID
  5
9
330
0
100
AcDbSymbolTable
 70
     1
  0
APPID
  5
12
330
9
100
AcDbSymbolTableRecord
100
AcDbRegAppTableRecord
  2
ACAD
 70
     0
  0
ENDTAB
  0
TABLE
  2
DIMSTYLE
  5
A
330
0
100
AcDbSymbolTable
 70
     1
100
AcDbDimStyleTable
  0
DIMSTYLE
105
27
330
A
100
AcDbSymbolTableRecord
100
AcDbDimStyleTableRecord
  2
Standard
 70
     0
178
     0
340
11
  0
ENDTAB
  0
TABLE
  2
BLOCK_RECORD
  5
1
330
0
100
AcDbSymbolTable
 70
    14
  0
BLOCK_RECORD
  5
1F
330
1
100
AcDbSymbolTableRecord
100
AcDbBlockTableRecord
  2
*Model_Space
340
22
 70
     0
280
     1
281
     0
  0
BLOCK_RECORD
  5
1B
330
1
100
AcDbSymbolTableRecord
100
AcDbBlockTableRecord
  2
*Paper_Space
340
1E
 70
     0
280
     1
281
     0
  0
BLOCK_RECORD
  5
23
330
1
100
AcDbSymbolTableRecord
100
AcDbBlockTableRecord
  2
*Paper_Space0
340
26
 70
     0
280
     1
281
     0
  0
BLOCK_RECORD
  5
41
330
1
100
AcDbSymbolTableRecord
100
AcDbBlockTableRecord
  2
block 2
340
0
102
{BLKREFS
331
42
102
}
 70
     0
280
     1
281
     0
  0
BLOCK_RECORD
  5
B7
330
1
100
AcDbSymbolTableRecord
100
AcDbBlockTableRecord
  2
block 3
340
0
102
{BLKREFS
331
B8
102
}
 70
     0
280
     1
281
     0
  0
BLOCK_RECORD
  5
169
330
1
100
AcDbSymbolTableRecord
100
AcDbBlockTableRecord
  2
block 4
340
0
102
{BLKREFS
331
16A
102
}
 70
     0
280
     1
281
     0
  0
BLOCK_RECORD
  5
18D
330
1
100
AcDbSymbolTableRecord
100
AcDbBlockTableRecord
  2
block 5
340
0
102
{BLKREFS
331
18E
102
}
 70
     0
280
     1
281
     0
  0
BLOCK_RECORD
  5
1D0
330
1
100
AcDbSymbolTableRecord
100
AcDbBlockTableRecord
  2
block 6
340
0
102
{BLKREFS
331
1D1
102
}
 70
     0
280
     1
281
     0
  0
BLOCK_RECORD
  5
1F4
330
1
100
AcDbSymbolTableRecord
100
AcDbBlockTableRecord
  2
block 7
340
0
102
{BLKREFS
331
1F5
102
}
 70
     0
280
     1
281
     0
  0
BLOCK_RECORD
  5
23C
330
1
100
AcDbSymbolTableRecord
100
AcDbBlockTableRecord
  2
block 8
340
0
102
{BLKREFS
331
23D
102
}
 70
     0
280
     1
281
     0
  0
BLOCK_RECORD
  5
257
330
1
100
AcDbSymbolTableRecord
100
AcDbBlockTableRecord
  2
block 9
340
0
102
{BLKREFS
331
258
102
}
 70
     0
280
     1
281
     0
  0
BLOCK_RECORD
  5
281
330
1
100
AcDbSymbolTableRecord
100
AcDbBlockTableRecord
  2
block 10
340
0
102
{BLKREFS
331
282
102
}
 70
     0
280
     1
281
     0
  0
BLOCK_RECORD
  5
2AA
330
1
100
AcDbSymbolTableRecord
100
AcDbBlockTableRecord
  2
block 11
340
0
102
{BLKREFS
331
2AB
102
}
 70
     0
280
     1
281
     0
  0
BLOCK_RECORD
  5
2D1
330
1
100
AcDbSymbolTableRecord
100
AcDbBlockTableRecord
  2
block 12
340
0
102
{BLKREFS
331
2D2
102
}
 70
     0
280
     1
281
     0
  0
BLOCK_RECORD
  5
336
330
1
100
AcDbSymbolTableRecord
100
AcDbBlockTableRecord
  2
block 13
340
0
102
{BLKREFS
331
337
102
}
 70
     0
280
     1
281
     0
  0
BLOCK_RECORD
  5
35F
330
1
100
AcDbSymbolTableRecord
100
AcDbBlockTableRecord
  2
block 14
340
0
102
{BLKREFS
331
360
102
}
 70
     0
280
     1
281
     0
  0
ENDTAB
  0
ENDSEC
  0
SECTION
  2
BLOCKS
  0
BLOCK
  5
20
330
1F
100
AcDbEntity
  8
0
100
AcDbBlockBegin
  2
*Model_Space
 70
     0
 10
0.0
 20
0.0
 30
0.0
  3
*Model_Space
  1

  0
ENDBLK
  5
21
330
1F
100
AcDbEntity
  8
0
100
AcDbBlockEnd
  0
BLOCK
  5
1C
330
1B
100
AcDbEntity
 67
     1
  8
0
100
AcDbBlockBegin
  2
*Paper_Space
 70
     0
 10
0.0
 20
0.0
 30
0.0
  3
*Paper_Space
  1

  0
ENDBLK
  5
1D
330
1B
100
AcDbEntity
 67
     1
  8
0
100
AcDbBlockEnd
  0
BLOCK
  5
24
330
23
100
AcDbEntity
  8
0
100
AcDbBlockBegin
  2
*Paper_Space0
 70
     0
 10
0.0
 20
0.0
 30
0.0
  3
*Paper_Space0
  1

  0
ENDBLK
  5
25
330
23
100
AcDbEntity
  8
0
100
AcDbBlockEnd
  0
BLOCK
  5
43
330
41
100
AcDbEntity
  8
0
100
AcDbBlockBegin
  2
block 2
 70
     0
 10
0.0
 20
0.0
 30
0.0
  3
block 2
  1

  0
POLYLINE
  5
45
330
41
100
AcDbEntity
  8
Capa 1
 62
   250
420
  2236961
370
     9
100
AcDb2dPolyline
 66
     1
 10
0.0
 20
0.0
 30
0.0
  0
VERTEX
  5
46
330
45
100
AcDbEntity
  8
Capa 1
 62
   250
420
  2236961
370
     9
100
AcDbVertex
100
AcDb2dVertex
 10
82.76693838485431
 20
-162.6213479589174
 30
0.0
  0
VERTEX
  5
47
330
45
100
AcDbEntity
  8
Capa 1
 62
   250
420
  2236961
370
     9
100
AcDbVertex
100
AcDb2dVertex
 10
97.10523604506437
 20
-162.6227609863626
 30
0.0
  0
SEQEND
  5
48
330
45
100
AcDbEntity
  8
Capa 1
 62
   250
420
  2236961
370
     9
  0
POLYLINE
  5
49
330
41
100
AcDbEntity
  8
Capa 1
 62
   250
420
  2236961
370
     9
100
AcDb2dPolyline
 66
     1
 10
0.0
 20
0.0
 30
0.0
  0
VERTEX
  5
4A
330
49
100
AcDbEntity
  8
Capa 1
 62
   250
420
  2236961
370
     9
100
AcDbVertex
100
AcDb2dVertex
 10
120.457716207039
 20
-143.069698997334
 30
0.0
  0
VERTEX
  5
4B
330
49
100
AcDbEntity
  8
Capa 1
 62
   250
420
  2236961
370
     9
100
AcDbVertex
100
AcDb2dVertex
 10
121.963368274059
 20
-141.0468735024377
 30
0.0
  0
SEQEND
  5
4C
330
49
100
AcDbEntity
  8
Capa 1
 62
   250
420
  2236961
370
     9
  0
POLYLINE
  5
4D
330
41
100
AcDbEntity
  8
Capa 1
 62
   250
420
  2236961
370
     9
100
AcDb2dPolyline
 66
     1
 10
0.0
 20
0.0
 30
0.0
  0
VERTEX
  5
4E
330
4D
100
AcDbEntity
  8
Capa 1
 62
   250
420
  2236961
370
     9
100
AcDbVertex
100
AcDb2dVertex
 10
122.5461600050059
 20
-144.1160390917447
 30
0.0
  0
VERTEX
  5
4F
330
4D
100
AcDbEntity
  8
Capa 1
 62
   250
420
  2236961
370
     9
100
AcDbVertex
100
AcDb2dVertex
 10
121.6663310647284
 20
-141.4455114222938
 30
0.0
  0
SEQEND
  5
50
330
4D
100
AcDbEntity
  8
Capa 1
 62
   250
420
  2236961
370
     9
  0
POLYLINE
  5
51
330
41
100
AcDbEntity
  8
Capa 1
 62
   250
420
  2236961
370
     9
100
AcDb2dPolyline
 66
     1
 10
0.0
 20
0.0
 30
0.0
  0
VERTEX
  5
52
330
51
100
AcDbEntity
  8
Capa 1
 62
   250
420
  2236961
370
     9
100
AcDbVertex
100
AcDb2dVertex
 10
129.9474362737041
 20
-141.6783433559992
 30
0.0
  0
VERTEX
  5
53
330
51
100
AcDbEntity
  8
Capa 1
 62
   250
420
  2236961
370
     9
100
AcDbVertex
100
AcDb2dVertex
 10
128.9780025530399
 20
-138.7368831499607
 30
0.0
  0
SEQEND
  5
54
330
51
100
AcDbEntity
  8
Capa 1
 62
   250
420
  2236961
370
     9
  0
POLYLINE
  5
55
330
41
100
AcDbEntity
  8
Capa 1
 62
   250
420
  2236961
370
     9
100
AcDb2dPolyline
 66
     1
 10
0.0
 20
0.0
 30
0.0
  0
VERTEX
  5
56
330
55
100
AcDbEntity
  8
Capa 1
 62
   250
420
  2236961
370
     9
100
AcDbVertex
100
AcDb2dVertex
 10
126.2467954478742
 20
-142.8968386398807
 30
0.0
  0
VERTEX
  5
57
330
55
100
AcDbEntity
  8
Capa 1
 62
   250
420
  2236961
370
     9
100
AcDbVertex
100
AcDb2dVertex
 10
122.5461600050059
 20
-144.1160390917447
 30
0.0
  0
SEQEND
  5
58
330
55
100
AcDbEntity
  8
Capa 1
 62
   250
420
  2236961
370
     9
  0
POLYLINE
  5
59
330
41
100
AcDbEntity
  8
Capa 1
 62
   250
420
  2236961
370
     9
100
AcDb2dPolyline
 66
     1
 10
0.0
 20
0.0
 30
0.0
  0
VERTEX
  5
5A
330
59
100
AcDbEntity
  8
Capa 1
 62
   250
420
  2236961
370
     9
100
AcDbVertex
100
AcDb2dVertex
 10
126.2467954478742
 20
-142.8968386398807
 30
0.0
  0
VERTEX
  5
5B
330
59
100
AcDbEntity
  8
Capa 1
 62
   250
420
  2236961
370
     9
100
AcDbVertex
100
AcDb2dVertex
 10
129.9474362737041
 20
-141.6783433559992
 30
0.0
  0
SEQEND
  5
5C
330
59
100
AcDbEntity
  8
Capa 1
 62
   250
420
  2236961
370
     9
  0
POLYLINE
  5
5D
330
41
100
AcDbEntity
  8
Capa 1
 62
   250
420
  2236961
370
     9
100
AcDb2dPolyline
 66
     1
 10
0.0
 20
0.0
 30
0.0
  0
VERTEX
  5
5E
330
5D
100
AcDbEntity
  8
Capa 1
 62
   250
420
  2236961
370
     9
100
AcDbVertex
100
AcDb2dVertex
 10
129.6581612951388
 20
-138.5132210915042
 30
0.0
  0
VERTEX
  5
5F
330
5D
100
AcDbEntity
  8
Capa 1
 62
   250
420
  2236961
370
     9
100
AcDbVertex
100
AcDb2dVertex
 10
121.963368274059
 20
-141.0468735024377
 30
0.0
  0
SEQEND
  5
60
330
5D
100
AcDbEntity
  8
Capa 1
 62
   250
420
  2236961
370
     9
  0
SPLINE
  5
61
330
41
100
AcDbEntity
  8
Capa 1
 62
   250
420
  2236961
370
     9
100
AcDbSpline
210
0.0
220
0.0
230
1.0
 70
     8
 71
     3
 72
    11
 73
     7
 74
     0
 42
0.0000000001
 43
0.0000000001
 12
1.0
 22
0.0
 32
0.0
 13
1.0
 23
0.0
 33
0.0
 40
0.0
 40
0.0
 40
0.0
 40
0.0
 40
1.0
 40
1.0
 40
1.0
 40
2.0
 40
2.0
 40
2.0
 40
2.0
 10
129.6581612951388
 20
-138.5132210915042
 30
0.0
 10
129.5036433796636
 20
-135.8483401488724
 30
0.0
 10
127.2190552234287
 20
-133.8142265832999
 30
0.0
 10
124.5548767572978
 20
-133.9687391158134
 30
0.0
 10
124.4130572484628
 20
-133.9772065145607
 30
0.0
 10
124.2726534585538
 20
-133.9913206401268
 30
0.0
 10
124.1322496686448
 20
-134.0117812775322
 30
0.0
  0
POLYLINE
  5
62
330
41
100
AcDbEntity
  8
Capa 1
 62
   250
420
  2236961
370
     9
100
AcDb2dPolyline
 66
     1
 10
0.0
 20
0.0
 30
0.0
  0
VERTEX
  5
63
330
62
100
AcDbEntity
  8
Capa 1
 62
   250
420
  2236961
370
     9
100
AcDbVertex
100
AcDb2dVertex
 10
102.1541930419914
 20
-134.095034163118
 30
0.0
  0
VERTEX
  5
64
330
62
100
AcDbEntity
  8
Capa 1
 62
   250
420
  2236961
370
     9
100
AcDbVertex
100
AcDb2dVertex
 10
124.1322496686448
 20
-134.0117812775322
 30
0.0
  0
SEQEND
  5
65
330
62
100
AcDbEntity
  8
Capa 1
 62
   250
420
  2236961
370
     9
  0
POLYLINE
  5
66
330
41
100
AcDbEntity
  8
Capa 1
 62
   250
420
  2236961
370
     9
100
AcDb2dPolyline
 66
     1
 10
0.0
 20
0.0
 30
0.0
  0
VERTEX
  5
67
330
66
100
AcDbEntity
  8
Capa 1
 62
   250
420
  2236961
370
     9
100
AcDbVertex
100
AcDb2dVertex
 10
89.02309855776605
 20
-126.6986940702947
 30
0.0
  0
VERTEX
  5
68
330
66
100
AcDbEntity
  8
Capa 1
 62
   250
420
  2236961
370
     9
100
AcDbVertex
100
AcDb2dVertex
 10
103.1229215946735
 20
-129.1935407103638
 30
0.0
  0
SEQEND
  5
69
330
66
100
AcDbEntity
  8
Capa 1
 62
   250
420
  2236961
370
     9
  0
POLYLINE
  5
6A
330
41
100
AcDbEntity
  8
Capa 1
 62
   250
420
  2236961
370
     9
100
AcDb2dPolyline
 66
     1
 10
0.0
 20
0.0
 30
0.0
  0
VERTEX
  5
6B
330
6A
100
AcDbEntity
  8
Capa 1
 62
   250
420
  2236961
370
     9
100
AcDbVertex
100
AcDb2dVertex
 10
104.3421220465375
 20
-122.3073169826339
 30
0.0
  0
VERTEX
  5
6C
330
6A
100
AcDbEntity
  8
Capa 1
 62
   250
420
  2236961
370
     9
100
AcDbVertex
100
AcDb2dVertex
 10
103.1229215946735
 20
-129.1935407103638
 30
0.0
  0
SEQEND
  5
6D
330
6A
100
AcDbEntity
  8
Capa 1
 62
   250
420
  2236961
370
     9
  0
POLYLINE
  5
6E
330
41
100
AcDbEntity
  8
Capa 1
 62
   250
420
  2236961
370
     9
100
AcDb2dPolyline
 66
     1
 10
0.0
 20
0.0
 30
0.0
  0
VERTEX
  5
6F
330
6E
100
AcDbEntity
  8
Capa 1
 62
   250
420
  2236961
370
     9
100
AcDbVertex
100
AcDb2dVertex
 10
90.24229900963003
 20
-119.8124757255265
 30
0.0
  0
VERTEX
  5
70
330
6E
100
AcDbEntity
  8
Capa 1
 62
   250
420
  2236961
370
     9
100
AcDbVertex
100
AcDb2dVertex
 10
89.02309855776605
 20
-126.6986940702947
 30
0.0
  0
SEQEND
  5
71
330
6E
100
AcDbEntity
  8
Capa 1
 62
   250
420
  2236961
370
     9
  0
POLYLINE
  5
72
330
41
100
AcDbEntity
  8
Capa 1
 62
   250
420
  2236961
370
     9
100
AcDb2dPolyline
 66
     1
 10
0.0
 20
0.0
 30
0.0
  0
VERTEX
  5
73
330
72
100
AcDbEntity
  8
Capa 1
 62
   250
420
  2236961
370
     9
100
AcDbVertex
100
AcDb2dVertex
 10
104.3421220465375
 20
-122.3073169826339
 30
0.0
  0
VERTEX
  5
74
330
72
100
AcDbEntity
  8
Capa 1
 62
   250
420
  2236961
370
     9
100
AcDbVertex
100
AcDb2dVertex
 10
90.24229900963003
 20
-119.8124757255265
 30
0.0
  0
SEQEND
  5
75
330
72
100
AcDbEntity
  8
Capa 1
 62
   250
420
  2236961
370
     9
  0
POLYLINE
  5
76
330
41
100
AcDbEntity
  8
Capa 1
 62
   250
420
  2236961
370
     9
100
AcDb2dPolyline
 66
     1
 10
0.0
 20
0.0
 30
0.0
  0
VERTEX
  5
77
330
76
100
AcDbEntity
  8
Capa 1
 62
   250
420
  2236961
370
     9
100
AcDbVertex
100
AcDb2dVertex
 10
98.53257678533525
 20
-128.3807404091212
 30
0.0
  0
VERTEX
  5
78
330
76
100
AcDbEntity
  8
Capa 1
 62
   250
420
  2236961
370
     9
100
AcDbVertex
100
AcDb2dVertex
 10
98.0683205624085
 20
-131.0047027684234
 30
0.0
  0
SEQEND
  5
79
330
76
100
AcDbEntity
  8
Capa 1
 62
   250
420
  2236961
370
     9
  0
POLYLINE
  5
7A
330
41
100
AcDbEntity
  8
Capa 1
 62
   250
420
  2236961
370
     9
100
AcDb2dPolyline
 66
     1
 10
0.0
 20
0.0
 30
0.0
  0
VERTEX
  5
7B
330
7A
100
AcDbEntity
  8
Capa 1
 62
   250
420
  2236961
370
     9
100
AcDbVertex
100
AcDb2dVertex
 10
93.77783632581023
 20
-127.5390120717258
 30
0.0
  0
VERTEX
  5
7C
330
7A
100
AcDbEntity
  8
Capa 1
 62
   250
420
  2236961
370
     9
100
AcDbVertex
100
AcDb2dVertex
 10
93.31358010288348
 20
-130.1629744310281
 30
0.0
  0
SEQEND
  5
7D
330
7A
100
AcDbEntity
  8
Capa 1
 62
   250
420
  2236961
370
     9
  0
POLYLINE
  5
7E
330
41
100
AcDbEntity
  8
Capa 1
 62
   250
420
  2236961
370
     9
100
AcDb2dPolyline
 66
     1
 10
0.0
 20
0.0
 30
0.0
  0
VERTEX
  5
7F
330
7E
100
AcDbEntity
  8
Capa 1
 62
   250
420
  2236961
370
     9
100
AcDbVertex
100
AcDb2dVertex
 10
90.20349323876603
 20
-126.9068370501825
 30
0.0
  0
VERTEX
  5
80
330
7E
100
AcDbEntity
  8
Capa 1
 62
   250
420
  2236961
370
     9
100
AcDbVertex
100
AcDb2dVertex
 10
89.73923701583897
 20
-129.530794026523
 30
0.0
  0
SEQEND
  5
81
330
7E
100
AcDbEntity
  8
Capa 1
 62
   250
420
  2236961
370
     9
  0
POLYLINE
  5
82
330
41
100
AcDbEntity
  8
Capa 1
 62
   250
420
  2236961
370
     9
100
AcDb2dPolyline
 66
     1
 10
0.0
 20
0.0
 30
0.0
  0
VERTEX
  5
83
330
82
100
AcDbEntity
  8
Capa 1
 62
   250
420
  2236961
370
     9
100
AcDbVertex
100
AcDb2dVertex
 10
101.943232081656
 20
-128.9846979454557
 30
0.0
  0
VERTEX
  5
84
330
82
100
AcDbEntity
  8
Capa 1
 62
   250
420
  2236961
370
     9
100
AcDbVertex
100
AcDb2dVertex
 10
101.4782706907471
 20
-131.6079497538141
 30
0.0
  0
SEQEND
  5
85
330
82
100
AcDbEntity
  8
Capa 1
 62
   250
420
  2236961
370
     9
  0
POLYLINE
  5
86
330
41
100
AcDbEntity
  8
Capa 1
 62
   250
420
  2236961
370
     9
100
AcDb2dPolyline
 66
     1
 10
0.0
 20
0.0
 30
0.0
  0
VERTEX
  5
87
330
86
100
AcDbEntity
  8
Capa 1
 62
   250
420
  2236961
370
     9
100
AcDbVertex
100
AcDb2dVertex
 10
102.5605931926127
 20
-131.7998631041893
 30
0.0
  0
VERTEX
  5
88
330
86
100
AcDbEntity
  8
Capa 1
 62
   250
420
  2236961
370
     9
100
AcDbVertex
100
AcDb2dVertex
 10
88.65762102769588
 20
-129.3388860591095
 30
0.0
  0
SEQEND
  5
89
330
86
100
AcDbEntity
  8
Capa 1
 62
   250
420
  2236961
370
     9
  0
POLYLINE
  5
8A
330
41
100
AcDbEntity
  8
Capa 1
 62
   250
420
  2236961
370
     9
100
AcDb2dPolyline
 66
     1
 10
0.0
 20
0.0
 30
0.0
  0
VERTEX
  5
8B
330
8A
100
AcDbEntity
  8
Capa 1
 62
   250
420
  2236961
370
     9
100
AcDbVertex
100
AcDb2dVertex
 10
102.4152478438671
 20
-132.619720468215
 30
0.0
  0
VERTEX
  5
8C
330
8A
100
AcDbEntity
  8
Capa 1
 62
   250
420
  2236961
370
     9
100
AcDbVertex
100
AcDb2dVertex
 10
102.5605931926127
 20
-131.7998631041893
 30
0.0
  0
SEQEND
  5
8D
330
8A
100
AcDbEntity
  8
Capa 1
 62
   250
420
  2236961
370
     9
  0
POLYLINE
  5
8E
330
41
100
AcDbEntity
  8
Capa 1
 62
   250
420
  2236961
370
     9
100
AcDb2dPolyline
 66
     1
 10
0.0
 20
0.0
 30
0.0
  0
VERTEX
  5
8F
330
8E
100
AcDbEntity
  8
Capa 1
 62
   250
420
  2236961
370
     9
100
AcDbVertex
100
AcDb2dVertex
 10
88.51227702469063
 20
-130.1587380401735
 30
0.0
  0
VERTEX
  5
90
330
8E
100
AcDbEntity
  8
Capa 1
 62
   250
420
  2236961
370
     9
100
AcDbVertex
100
AcDb2dVertex
 10
88.65762102769588
 20
-129.3388860591095
 30
0.0
  0
SEQEND
  5
91
330
8E
100
AcDbEntity
  8
Capa 1
 62
   250
420
  2236961
370
     9
  0
POLYLINE
  5
92
330
41
100
AcDbEntity
  8
Capa 1
 62
   250
420
  2236961
370
     9
100
AcDb2dPolyline
 66
     1
 10
0.0
 20
0.0
 30
0.0
  0
VERTEX
  5
93
330
92
100
AcDbEntity
  8
Capa 1
 62
   250
420
  2236961
370
     9
100
AcDbVertex
100
AcDb2dVertex
 10
82.76693838485431
 20
-162.6213479589174
 30
0.0
  0
VERTEX
  5
94
330
92
100
AcDbEntity
  8
Capa 1
 62
   250
420
  2236961
370
     9
100
AcDbVertex
100
AcDb2dVertex
 10
97.10523604506437
 20
-162.6227609863626
 30
0.0
  0
SEQEND
  5
95
330
92
100
AcDbEntity
  8
Capa 1
 62
   250
420
  2236961
370
     9
  0
POLYLINE
  5
96
330
41
100
AcDbEntity
  8
Capa 1
 62
   250
420
  2236961
370
     9
100
AcDb2dPolyline
 66
     1
 10
0.0
 20
0.0
 30
0.0
  0
VERTEX
  5
97
330
96
100
AcDbEntity
  8
Capa 1
 62
   250
420
  2236961
370
     9
100
AcDbVertex
100
AcDb2dVertex
 10
100.552581608303
 20
-143.1444898671344
 30
0.0
  0
VERTEX
  5
98
330
96
100
AcDbEntity
  8
Capa 1
 62
   250
420
  2236961
370
     9
100
AcDbVertex
100
AcDb2dVertex
 10
97.10523604506437
 20
-162.6227609863626
 30
0.0
  0
SEQEND
  5
99
330
96
100
AcDbEntity
  8
Capa 1
 62
   250
420
  2236961
370
     9
  0
POLYLINE
  5
9A
330
41
100
AcDbEntity
  8
Capa 1
 62
   250
420
  2236961
370
     9
100
AcDb2dPolyline
 66
     1
 10
0.0
 20
0.0
 30
0.0
  0
VERTEX
  5
9B
330
9A
100
AcDbEntity
  8
Capa 1
 62
   250
420
  2236961
370
     9
100
AcDbVertex
100
AcDb2dVertex
 10
102.4152478438671
 20
-132.619720468215
 30
0.0
  0
VERTEX
  5
9C
330
9A
100
AcDbEntity
  8
Capa 1
 62
   250
420
  2236961
370
     9
100
AcDbVertex
100
AcDb2dVertex
 10
102.1541930419914
 20
-134.095034163118
 30
0.0
  0
SEQEND
  5
9D
330
9A
100
AcDbEntity
  8
Capa 1
 62
   250
420
  2236961
370
     9
  0
POLYLINE
  5
9E
330
41
100
AcDbEntity
  8
Capa 1
 62
   250
420
  2236961
370
     9
100
AcDb2dPolyline
 66
     1
 10
0.0
 20
0.0
 30
0.0
  0
VERTEX
  5
9F
330
9E
100
AcDbEntity
  8
Capa 1
 62
   250
420
  2236961
370
     9
100
AcDbVertex
100
AcDb2dVertex
 10
88.51227702469063
 20
-130.1587380401735
 30
0.0
  0
VERTEX
  5
A0
330
9E
100
AcDbEntity
  8
Capa 1
 62
   250
420
  2236961
370
     9
100
AcDbVertex
100
AcDb2dVertex
 10
82.76693838485431
 20
-162.6213479589174
 30
0.0
  0
SEQEND
  5
A1
330
9E
100
AcDbEntity
  8
Capa 1
 62
   250
420
  2236961
370
     9
  0
POLYLINE
  5
A2
330
41
100
AcDbEntity
  8
Capa 1
 62
   250
420
  2236961
370
     9
100
AcDb2dPolyline
 66
     1
 10
0.0
 20
0.0
 30
0.0
  0
VERTEX
  5
A3
330
A2
100
AcDbEntity
  8
Capa 1
 62
   250
420
  2236961
370
     9
100
AcDbVertex
100
AcDb2dVertex
 10
88.51227702469063
 20
-130.1587380401735
 30
0.0
  0
VERTEX
  5
A4
330
A2
100
AcDbEntity
  8
Capa 1
 62
   250
420
  2236961
370
     9
100
AcDbVertex
100
AcDb2dVertex
 10
102.4152478438671
 20
-132.619720468215
 30
0.0
  0
SEQEND
  5
A5
330
A2
100
AcDbEntity
  8
Capa 1
 62
   250
420
  2236961
370
     9
  0
POLYLINE
  5
A6
330
41
100
AcDbEntity
  8
Capa 1
370
     0
100
AcDb2dPolyline
 66
     1
 10
0.0
 20
0.0
 30
0.0
  0
VERTEX
  5
A7
330
A6
100
AcDbEntity
  8
Capa 1
370
     0
100
AcDbVertex
100
AcDb2dVertex
 10
68.98913084528594
 20
-183.045491575468
 30
0.0
  0
VERTEX
  5
A8
330
A6
100
AcDbEntity
  8
Capa 1
370
     0
100
AcDbVertex
100
AcDb2dVertex
 10
141.5385838419462
 20
-183.045491575468
 30
0.0
  0
VERTEX
  5
A9
330
A6
100
AcDbEntity
  8
Capa 1
370
     0
100
AcDbVertex
100
AcDb2dVertex
 10
141.5385838419462
 20
-113.1228216100385
 30
0.0
  0
VERTEX
  5
AA
330
A6
100
AcDbEntity
  8
Capa 1
370
     0
100
AcDbVertex
100
AcDb2dVertex
 10
68.98913084528594
 20
-113.1228216100385
 30
0.0
  0
VERTEX
  5
AB
330
A6
100
AcDbEntity
  8
Capa 1
370
     0
100
AcDbVertex
100
AcDb2dVertex
 10
68.98913084528594
 20
-183.045491575468
 30
0.0
  0
SEQEND
  5
AC
330
A6
100
AcDbEntity
  8
Capa 1
370
     0
  0
ENDBLK
  5
44
330
41
100
AcDbEntity
  8
0
100
AcDbBlockEnd
  0
BLOCK
  5
B9
330
B7
100
AcDbEntity
  8
0
100
AcDbBlockBegin
  2
block 3
 70
     0
 10
0.0
 20
0.0
 30
0.0
  3
block 3
  1

  0
POLYLINE
  5
BB
330
B7
100
AcDbEntity
  8
Capa 1
 62
   250
420
  2236961
370
     9
100
AcDb2dPolyline
 66
     1
 10
0.0
 20
0.0
 30
0.0
  0
VERTEX
  5
BC
330
BB
100
AcDbEntity
  8
Capa 1
 62
   250
420
  2236961
370
     9
100
AcDbVertex
100
AcDb2dVertex
 10
93.38223170486962
 20
-164.0867906478109
 30
0.0
  0
VERTEX
  5
BD
330
BB
100
AcDbEntity
  8
Capa 1
 62
   250
420
  2236961
370
     9
100
AcDbVertex
100
AcDb2dVertex
 10
86.48895360583747
 20
-164.3866525662913
 30
0.0
  0
SEQEND
  5
BE
330
BB
100
AcDbEntity
  8
Capa 1
 62
   250
420
  2236961
370
     9
  0
POLYLINE
  5
BF
330
B7
100
AcDbEntity
  8
Capa 1
 62
   250
420
  2236961
370
     9
100
AcDb2dPolyline
 66
     1
 10
0.0
 20
0.0
 30
0.0
  0
VERTEX
  5
C0
330
BF
100
AcDbEntity
  8
Capa 1
 62
   250
420
  2236961
370
     9
100
AcDbVertex
100
AcDb2dVertex
 10
93.38223170486962
 20
-164.6533514035049
 30
0.0
  0
VERTEX
  5
C1
330
BF
100
AcDbEntity
  8
Capa 1
 62
   250
420
  2236961
370
     9
100
AcDbVertex
100
AcDb2dVertex
 10
86.48895360583747
 20
-164.9532133219853
 30
0.0
  0
SEQEND
  5
C2
330
BF
100
AcDbEntity
  8
Capa 1
 62
   250
420
  2236961
370
     9
  0
POLYLINE
  5
C3
330
B7
100
AcDbEntity
  8
Capa 1
 62
   250
420
  2236961
370
     9
100
AcDb2dPolyline
 66
     1
 10
0.0
 20
0.0
 30
0.0
  0
VERTEX
  5
C4
330
C3
100
AcDbEntity
  8
Capa 1
 62
   250
420
  2236961
370
     9
100
AcDbVertex
100
AcDb2dVertex
 10
93.38223170486962
 20
-165.2199135049393
 30
0.0
  0
VERTEX
  5
C5
330
C3
100
AcDbEntity
  8
Capa 1
 62
   250
420
  2236961
370
     9
100
AcDbVertex
100
AcDb2dVertex
 10
86.48895360583747
 20
-165.5197740776793
 30
0.0
  0
SEQEND
  5
C6
330
C3
100
AcDbEntity
  8
Capa 1
 62
   250
420
  2236961
370
     9
  0
POLYLINE
  5
C7
330
B7
100
AcDbEntity
  8
Capa 1
 62
   250
420
  2236961
370
     9
100
AcDb2dPolyline
 66
     1
 10
0.0
 20
0.0
 30
0.0
  0
VERTEX
  5
C8
330
C7
100
AcDbEntity
  8
Capa 1
 62
   250
420
  2236961
370
     9
100
AcDbVertex
100
AcDb2dVertex
 10
93.38223170486962
 20
-165.7857690926512
 30
0.0
  0
VERTEX
  5
C9
330
C7
100
AcDbEntity
  8
Capa 1
 62
   250
420
  2236961
370
     9
100
AcDbVertex
100
AcDb2dVertex
 10
86.48895360583747
 20
-166.084924497409
 30
0.0
  0
SEQEND
  5
CA
330
C7
100
AcDbEntity
  8
Capa 1
 62
   250
420
  2236961
370
     9
  0
POLYLINE
  5
CB
330
B7
100
AcDbEntity
  8
Capa 1
 62
   250
420
  2236961
370
     9
100
AcDb2dPolyline
 66
     1
 10
0.0
 20
0.0
 30
0.0
  0
VERTEX
  5
CC
330
CB
100
AcDbEntity
  8
Capa 1
 62
   250
420
  2236961
370
     9
100
AcDbVertex
100
AcDb2dVertex
 10
93.38223170486962
 20
-166.351624680363
 30
0.0
  0
VERTEX
  5
CD
330
CB
100
AcDbEntity
  8
Capa 1
 62
   250
420
  2236961
370
     9
100
AcDbVertex
100
AcDb2dVertex
 10
86.48895360583747
 20
-166.651485253103
 30
0.0
  0
SEQEND
  5
CE
330
CB
100
AcDbEntity
  8
Capa 1
 62
   250
420
  2236961
370
     9
  0
POLYLINE
  5
CF
330
B7
100
AcDbEntity
  8
Capa 1
 62
   250
420
  2236961
370
     9
100
AcDb2dPolyline
 66
     1
 10
0.0
 20
0.0
 30
0.0
  0
VERTEX
  5
D0
330
CF
100
AcDbEntity
  8
Capa 1
 62
   250
420
  2236961
370
     9
100
AcDbVertex
100
AcDb2dVertex
 10
93.38223170486962
 20
-166.9174802680749
 30
0.0
  0
VERTEX
  5
D1
330
CF
100
AcDbEntity
  8
Capa 1
 62
   250
420
  2236961
370
     9
100
AcDbVertex
100
AcDb2dVertex
 10
86.48895360583747
 20
-167.2173408408149
 30
0.0
  0
SEQEND
  5
D2
330
CF
100
AcDbEntity
  8
Capa 1
 62
   250
420
  2236961
370
     9
  0
POLYLINE
  5
D3
330
B7
100
AcDbEntity
  8
Capa 1
 62
   250
420
  2236961
370
     9
100
AcDb2dPolyline
 66
     1
 10
0.0
 20
0.0
 30
0.0
  0
VERTEX
  5
D4
330
D3
100
AcDbEntity
  8
Capa 1
 62
   250
420
  2236961
370
     9
100
AcDbVertex
100
AcDb2dVertex
 10
93.38223170486962
 20
-167.4840410237689
 30
0.0
  0
VERTEX
  5
D5
330
D3
100
AcDbEntity
  8
Capa 1
 62
   250
420
  2236961
370
     9
100
AcDbVertex
100
AcDb2dVertex
 10
86.48895360583747
 20
-167.7831964285268
 30
0.0
  0
SEQEND
  5
D6
330
D3
100
AcDbEntity
  8
Capa 1
 62
   250
420
  2236961
370
     9
  0
POLYLINE
  5
D7
330
B7
100
AcDbEntity
  8
Capa 1
 62
   250
420
  2236961
370
     9
100
AcDb2dPolyline
 66
     1
 10
0.0
 20
0.0
 30
0.0
  0
VERTEX
  5
D8
330
D7
100
AcDbEntity
  8
Capa 1
 62
   250
420
  2236961
370
     9
100
AcDbVertex
100
AcDb2dVertex
 10
93.38223170486962
 20
-168.0498966114808
 30
0.0
  0
VERTEX
  5
D9
330
D7
100
AcDbEntity
  8
Capa 1
 62
   250
420
  2236961
370
     9
100
AcDbVertex
100
AcDb2dVertex
 10
86.48895360583747
 20
-168.3497571842207
 30
0.0
  0
SEQEND
  5
DA
330
D7
100
AcDbEntity
  8
Capa 1
 62
   250
420
  2236961
370
     9
  0
POLYLINE
  5
DB
330
B7
100
AcDbEntity
  8
Capa 1
 62
   250
420
  2236961
370
     9
100
AcDb2dPolyline
 66
     1
 10
0.0
 20
0.0
 30
0.0
  0
VERTEX
  5
DC
330
DB
100
AcDbEntity
  8
Capa 1
 62
   250
420
  2236961
370
     9
100
AcDbVertex
100
AcDb2dVertex
 10
93.38223170486962
 20
-168.6157521991926
 30
0.0
  0
VERTEX
  5
DD
330
DB
100
AcDbEntity
  8
Capa 1
 62
   250
420
  2236961
370
     9
100
AcDbVertex
100
AcDb2dVertex
 10
86.48895360583747
 20
-168.9156127719326
 30
0.0
  0
SEQEND
  5
DE
330
DB
100
AcDbEntity
  8
Capa 1
 62
   250
420
  2236961
370
     9
  0
POLYLINE
  5
DF
330
B7
100
AcDbEntity
  8
Capa 1
 62
   250
420
  2236961
370
     9
100
AcDb2dPolyline
 66
     1
 10
0.0
 20
0.0
 30
0.0
  0
VERTEX
  5
E0
330
DF
100
AcDbEntity
  8
Capa 1
 62
   250
420
  2236961
370
     9
100
AcDbVertex
100
AcDb2dVertex
 10
93.38223170486962
 20
-169.1823129548866
 30
0.0
  0
VERTEX
  5
E1
330
DF
100
AcDbEntity
  8
Capa 1
 62
   250
420
  2236961
370
     9
100
AcDbVertex
100
AcDb2dVertex
 10
86.48895360583747
 20
-169.4821735276266
 30
0.0
  0
SEQEND
  5
E2
330
DF
100
AcDbEntity
  8
Capa 1
 62
   250
420
  2236961
370
     9
  0
POLYLINE
  5
E3
330
B7
100
AcDbEntity
  8
Capa 1
 62
   250
420
  2236961
370
     9
100
AcDb2dPolyline
 66
     1
 10
0.0
 20
0.0
 30
0.0
  0
VERTEX
  5
E4
330
E3
100
AcDbEntity
  8
Capa 1
 62
   250
420
  2236961
370
     9
100
AcDbVertex
100
AcDb2dVertex
 10
93.38223170486962
 20
-169.7481685425985
 30
0.0
  0
VERTEX
  5
E5
330
E3
100
AcDbEntity
  8
Capa 1
 62
   250
420
  2236961
370
     9
100
AcDbVertex
100
AcDb2dVertex
 10
86.48895360583747
 20
-170.0473239473563
 30
0.0
  0
SEQEND
  5
E6
330
E3
100
AcDbEntity
  8
Capa 1
 62
   250
420
  2236961
370
     9
  0
POLYLINE
  5
E7
330
B7
100
AcDbEntity
  8
Capa 1
 62
   250
420
  2236961
370
     9
100
AcDb2dPolyline
 66
     1
 10
0.0
 20
0.0
 30
0.0
  0
VERTEX
  5
E8
330
E7
100
AcDbEntity
  8
Capa 1
 62
   250
420
  2236961
370
     9
100
AcDbVertex
100
AcDb2dVertex
 10
93.38223170486962
 20
-170.3147292982925
 30
0.0
  0
VERTEX
  5
E9
330
E7
100
AcDbEntity
  8
Capa 1
 62
   250
420
  2236961
370
     9
100
AcDbVertex
100
AcDb2dVertex
 10
86.48895360583747
 20
-170.6138847030503
 30
0.0
  0
SEQEND
  5
EA
330
E7
100
AcDbEntity
  8
Capa 1
 62
   250
420
  2236961
370
     9
  0
POLYLINE
  5
EB
330
B7
100
AcDbEntity
  8
Capa 1
 62
   250
420
  2236961
370
     9
100
AcDb2dPolyline
 66
     1
 10
0.0
 20
0.0
 30
0.0
  0
VERTEX
  5
EC
330
EB
100
AcDbEntity
  8
Capa 1
 62
   250
420
  2236961
370
     9
100
AcDbVertex
100
AcDb2dVertex
 10
93.38223170486962
 20
-170.8805848860044
 30
0.0
  0
VERTEX
  5
ED
330
EB
100
AcDbEntity
  8
Capa 1
 62
   250
420
  2236961
370
     9
100
AcDbVertex
100
AcDb2dVertex
 10
86.48895360583747
 20
-171.1804468044848
 30
0.0
  0
SEQEND
  5
EE
330
EB
100
AcDbEntity
  8
Capa 1
 62
   250
420
  2236961
370
     9
  0
POLYLINE
  5
EF
330
B7
100
AcDbEntity
  8
Capa 1
 62
   250
420
  2236961
370
     9
100
AcDb2dPolyline
 66
     1
 10
0.0
 20
0.0
 30
0.0
  0
VERTEX
  5
F0
330
EF
100
AcDbEntity
  8
Capa 1
 62
   250
420
  2236961
370
     9
100
AcDbVertex
100
AcDb2dVertex
 10
93.38223170486962
 20
-171.4464404737162
 30
0.0
  0
VERTEX
  5
F1
330
EF
100
AcDbEntity
  8
Capa 1
 62
   250
420
  2236961
370
     9
100
AcDbVertex
100
AcDb2dVertex
 10
86.48895360583747
 20
-171.7463023921966
 30
0.0
  0
SEQEND
  5
F2
330
EF
100
AcDbEntity
  8
Capa 1
 62
   250
420
  2236961
370
     9
  0
POLYLINE
  5
F3
330
B7
100
AcDbEntity
  8
Capa 1
 62
   250
420
  2236961
370
     9
100
AcDb2dPolyline
 66
     1
 10
0.0
 20
0.0
 30
0.0
  0
VERTEX
  5
F4
330
F3
100
AcDbEntity
  8
Capa 1
 62
   250
420
  2236961
370
     9
100
AcDbVertex
100
AcDb2dVertex
 10
93.38223170486962
 20
-172.0130012294102
 30
0.0
  0
VERTEX
  5
F5
330
F3
100
AcDbEntity
  8
Capa 1
 62
   250
420
  2236961
370
     9
100
AcDbVertex
100
AcDb2dVertex
 10
86.48895360583747
 20
-172.3128624750204
 30
0.0
  0
SEQEND
  5
F6
330
F3
100
AcDbEntity
  8
Capa 1
 62
   250
420
  2236961
370
     9
  0
POLYLINE
  5
F7
330
B7
100
AcDbEntity
  8
Capa 1
 62
   250
420
  2236961
370
     9
100
AcDb2dPolyline
 66
     1
 10
0.0
 20
0.0
 30
0.0
  0
VERTEX
  5
F8
330
F7
100
AcDbEntity
  8
Capa 1
 62
   250
420
  2236961
370
     9
100
AcDbVertex
100
AcDb2dVertex
 10
93.38223170486962
 20
-172.5788568171221
 30
0.0
  0
VERTEX
  5
F9
330
F7
100
AcDbEntity
  8
Capa 1
 62
   250
420
  2236961
370
     9
100
AcDbVertex
100
AcDb2dVertex
 10
86.48895360583747
 20
-172.8780128947501
 30
0.0
  0
SEQEND
  5
FA
330
F7
100
AcDbEntity
  8
Capa 1
 62
   250
420
  2236961
370
     9
  0
POLYLINE
  5
FB
330
B7
100
AcDbEntity
  8
Capa 1
 62
   250
420
  2236961
370
     9
100
AcDb2dPolyline
 66
     1
 10
0.0
 20
0.0
 30
0.0
  0
VERTEX
  5
FC
330
FB
100
AcDbEntity
  8
Capa 1
 62
   250
420
  2236961
370
     9
100
AcDbVertex
100
AcDb2dVertex
 10
93.38223170486962
 20
-173.1447124048339
 30
0.0
  0
VERTEX
  5
FD
330
FB
100
AcDbEntity
  8
Capa 1
 62
   250
420
  2236961
370
     9
100
AcDbVertex
100
AcDb2dVertex
 10
86.48895360583747
 20
-173.4445743233144
 30
0.0
  0
SEQEND
  5
FE
330
FB
100
AcDbEntity
  8
Capa 1
 62
   250
420
  2236961
370
     9
  0
POLYLINE
  5
FF
330
B7
100
AcDbEntity
  8
Capa 1
 62
   250
420
  2236961
370
     9
100
AcDb2dPolyline
 66
     1
 10
0.0
 20
0.0
 30
0.0
  0
VERTEX
  5
100
330
FF
100
AcDbEntity
  8
Capa 1
 62
   250
420
  2236961
370
     9
100
AcDbVertex
100
AcDb2dVertex
 10
93.38223170486962
 20
-173.711273160528
 30
0.0
  0
VERTEX
  5
101
330
FF
100
AcDbEntity
  8
Capa 1
 62
   250
420
  2236961
370
     9
100
AcDbVertex
100
AcDb2dVertex
 10
86.48895360583747
 20
-174.0111350790083
 30
0.0
  0
SEQEND
  5
102
330
FF
100
AcDbEntity
  8
Capa 1
 62
   250
420
  2236961
370
     9
  0
POLYLINE
  5
103
330
B7
100
AcDbEntity
  8
Capa 1
 62
   250
420
  2236961
370
     9
100
AcDb2dPolyline
 66
     1
 10
0.0
 20
0.0
 30
0.0
  0
VERTEX
  5
104
330
103
100
AcDbEntity
  8
Capa 1
 62
   250
420
  2236961
370
     9
100
AcDbVertex
100
AcDb2dVertex
 10
93.38223170486962
 20
-174.2771287482398
 30
0.0
  0
VERTEX
  5
105
330
103
100
AcDbEntity
  8
Capa 1
 62
   250
420
  2236961
370
     9
100
AcDbVertex
100
AcDb2dVertex
 10
86.48895360583747
 20
-174.5769906667202
 30
0.0
  0
SEQEND
  5
106
330
103
100
AcDbEntity
  8
Capa 1
 62
   250
420
  2236961
370
     9
  0
POLYLINE
  5
107
330
B7
100
AcDbEntity
  8
Capa 1
 62
   250
420
  2236961
370
     9
100
AcDb2dPolyline
 66
     1
 10
0.0
 20
0.0
 30
0.0
  0
VERTEX
  5
108
330
107
100
AcDbEntity
  8
Capa 1
 62
   250
420
  2236961
370
     9
100
AcDbVertex
100
AcDb2dVertex
 10
93.38223170486962
 20
-174.8436908496742
 30
0.0
  0
VERTEX
  5
109
330
107
100
AcDbEntity
  8
Capa 1
 62
   250
420
  2236961
370
     9
100
AcDbVertex
100
AcDb2dVertex
 10
86.48895360583747
 20
-175.1428462544321
 30
0.0
  0
SEQEND
  5
10A
330
107
100
AcDbEntity
  8
Capa 1
 62
   250
420
  2236961
370
     9
  0
POLYLINE
  5
10B
330
B7
100
AcDbEntity
  8
Capa 1
 62
   250
420
  2236961
370
     9
100
AcDb2dPolyline
 66
     1
 10
0.0
 20
0.0
 30
0.0
  0
VERTEX
  5
10C
330
10B
100
AcDbEntity
  8
Capa 1
 62
   250
420
  2236961
370
     9
100
AcDbVertex
100
AcDb2dVertex
 10
93.38223170486962
 20
-175.4088399236635
 30
0.0
  0
VERTEX
  5
10D
330
10B
100
AcDbEntity
  8
Capa 1
 62
   250
420
  2236961
370
     9
100
AcDbVertex
100
AcDb2dVertex
 10
86.48895360583747
 20
-175.7087018421439
 30
0.0
  0
SEQEND
  5
10E
330
10B
100
AcDbEntity
  8
Capa 1
 62
   250
420
  2236961
370
     9
  0
POLYLINE
  5
10F
330
B7
100
AcDbEntity
  8
Capa 1
 62
   250
420
  2236961
370
     9
100
AcDb2dPolyline
 66
     1
 10
0.0
 20
0.0
 30
0.0
  0
VERTEX
  5
110
330
10F
100
AcDbEntity
  8
Capa 1
 62
   250
420
  2236961
370
     9
100
AcDbVertex
100
AcDb2dVertex
 10
93.38223170486962
 20
-175.975402025098
 30
0.0
  0
VERTEX
  5
111
330
10F
100
AcDbEntity
  8
Capa 1
 62
   250
420
  2236961
370
     9
100
AcDbVertex
100
AcDb2dVertex
 10
86.48895360583747
 20
-176.2752625978379
 30
0.0
  0
SEQEND
  5
112
330
10F
100
AcDbEntity
  8
Capa 1
 62
   250
420
  2236961
370
     9
  0
POLYLINE
  5
113
330
B7
100
AcDbEntity
  8
Capa 1
 62
   250
420
  2236961
370
     9
100
AcDb2dPolyline
 66
     1
 10
0.0
 20
0.0
 30
0.0
  0
VERTEX
  5
114
330
113
100
AcDbEntity
  8
Capa 1
 62
   250
420
  2236961
370
     9
100
AcDbVertex
100
AcDb2dVertex
 10
93.38223170486962
 20
-176.5419627807919
 30
0.0
  0
VERTEX
  5
115
330
113
100
AcDbEntity
  8
Capa 1
 62
   250
420
  2236961
370
     9
100
AcDbVertex
100
AcDb2dVertex
 10
86.48895360583747
 20
-176.8411181855498
 30
0.0
  0
SEQEND
  5
116
330
113
100
AcDbEntity
  8
Capa 1
 62
   250
420
  2236961
370
     9
  0
POLYLINE
  5
117
330
B7
100
AcDbEntity
  8
Capa 1
 62
   250
420
  2236961
370
     9
100
AcDb2dPolyline
 66
     1
 10
0.0
 20
0.0
 30
0.0
  0
VERTEX
  5
118
330
117
100
AcDbEntity
  8
Capa 1
 62
   250
420
  2236961
370
     9
100
AcDbVertex
100
AcDb2dVertex
 10
93.38223170486962
 20
-177.1071132005217
 30
0.0
  0
VERTEX
  5
119
330
117
100
AcDbEntity
  8
Capa 1
 62
   250
420
  2236961
370
     9
100
AcDbVertex
100
AcDb2dVertex
 10
86.48895360583747
 20
-177.4069737732617
 30
0.0
  0
SEQEND
  5
11A
330
117
100
AcDbEntity
  8
Capa 1
 62
   250
420
  2236961
370
     9
  0
POLYLINE
  5
11B
330
B7
100
AcDbEntity
  8
Capa 1
 62
   250
420
  2236961
370
     9
100
AcDb2dPolyline
 66
     1
 10
0.0
 20
0.0
 30
0.0
  0
VERTEX
  5
11C
330
11B
100
AcDbEntity
  8
Capa 1
 62
   250
420
  2236961
370
     9
100
AcDbVertex
100
AcDb2dVertex
 10
93.38223170486962
 20
-177.6736739562157
 30
0.0
  0
VERTEX
  5
11D
330
11B
100
AcDbEntity
  8
Capa 1
 62
   250
420
  2236961
370
     9
100
AcDbVertex
100
AcDb2dVertex
 10
86.48895360583747
 20
-177.9735345289556
 30
0.0
  0
SEQEND
  5
11E
330
11B
100
AcDbEntity
  8
Capa 1
 62
   250
420
  2236961
370
     9
  0
POLYLINE
  5
11F
330
B7
100
AcDbEntity
  8
Capa 1
 62
   250
420
  2236961
370
     9
100
AcDb2dPolyline
 66
     1
 10
0.0
 20
0.0
 30
0.0
  0
VERTEX
  5
120
330
11F
100
AcDbEntity
  8
Capa 1
 62
   250
420
  2236961
370
     9
100
AcDbVertex
100
AcDb2dVertex
 10
93.38223170486962
 20
-178.2395295439275
 30
0.0
  0
VERTEX
  5
121
330
11F
100
AcDbEntity
  8
Capa 1
 62
   250
420
  2236961
370
     9
100
AcDbVertex
100
AcDb2dVertex
 10
86.48895360583747
 20
-178.5400952846497
 30
0.0
  0
SEQEND
  5
122
330
11F
100
AcDbEntity
  8
Capa 1
 62
   250
420
  2236961
370
     9
  0
POLYLINE
  5
123
330
B7
100
AcDbEntity
  8
Capa 1
 62
   250
420
  2236961
370
     9
100
AcDb2dPolyline
 66
     1
 10
0.0
 20
0.0
 30
0.0
  0
VERTEX
  5
124
330
123
100
AcDbEntity
  8
Capa 1
 62
   250
420
  2236961
370
     9
100
AcDbVertex
100
AcDb2dVertex
 10
93.38223170486962
 20
-178.8060902996215
 30
0.0
  0
VERTEX
  5
125
330
123
100
AcDbEntity
  8
Capa 1
 62
   250
420
  2236961
370
     9
100
AcDbVertex
100
AcDb2dVertex
 10
86.48895360583747
 20
-179.1059508723615
 30
0.0
  0
SEQEND
  5
126
330
123
100
AcDbEntity
  8
Capa 1
 62
   250
420
  2236961
370
     9
  0
POLYLINE
  5
127
330
B7
100
AcDbEntity
  8
Capa 1
 62
   250
420
  2236961
370
     9
100
AcDb2dPolyline
 66
     1
 10
0.0
 20
0.0
 30
0.0
  0
VERTEX
  5
128
330
127
100
AcDbEntity
  8
Capa 1
 62
   250
420
  2236961
370
     9
100
AcDbVertex
100
AcDb2dVertex
 10
86.48895360583747
 20
-163.7869300750709
 30
0.0
  0
VERTEX
  5
129
330
127
100
AcDbEntity
  8
Capa 1
 62
   250
420
  2236961
370
     9
100
AcDbVertex
100
AcDb2dVertex
 10
93.38223170486962
 20
-163.7869300750709
 30
0.0
  0
SEQEND
  5
12A
330
127
100
AcDbEntity
  8
Capa 1
 62
   250
420
  2236961
370
     9
  0
SPLINE
  5
12B
330
B7
100
AcDbEntity
  8
Capa 1
 62
   250
420
  2236961
370
     9
100
AcDbSpline
210
0.0
220
0.0
230
1.0
 70
     8
 71
     3
 72
     8
 73
     4
 74
     0
 42
0.0000000001
 43
0.0000000001
 12
1.0
 22
0.0
 32
0.0
 13
1.0
 23
0.0
 33
0.0
 40
0.0
 40
0.0
 40
0.0
 40
0.0
 40
1.0
 40
1.0
 40
1.0
 40
1.0
 10
102.1544029774976
 20
-134.0950395460796
 30
0.0
 10
100.1442758892414
 20
-136.6554991062577
 30
0.0
 10
99.54314171631633
 20
-140.0499247730659
 30
0.0
 10
100.552086375827
 20
-143.1444898671344
 30
0.0
  0
POLYLINE
  5
12C
330
B7
100
AcDbEntity
  8
Capa 1
 62
   250
420
  2236961
370
     9
100
AcDb2dPolyline
 66
     1
 10
0.0
 20
0.0
 30
0.0
  0
VERTEX
  5
12D
330
12C
100
AcDbEntity
  8
Capa 1
 62
   250
420
  2236961
370
     9
100
AcDbVertex
100
AcDb2dVertex
 10
89.93559265535355
 20
-179.1059508723615
 30
0.0
  0
VERTEX
  5
12E
330
12C
100
AcDbEntity
  8
Capa 1
 62
   250
420
  2236961
370
     9
100
AcDbVertex
100
AcDb2dVertex
 10
87.43863185707878
 20
-179.1059508723615
 30
0.0
  0
SEQEND
  5
12F
330
12C
100
AcDbEntity
  8
Capa 1
 62
   250
420
  2236961
370
     9
  0
POLYLINE
  5
130
330
B7
100
AcDbEntity
  8
Capa 1
 62
   250
420
  2236961
370
     9
100
AcDb2dPolyline
 66
     1
 10
0.0
 20
0.0
 30
0.0
  0
VERTEX
  5
131
330
130
100
AcDbEntity
  8
Capa 1
 62
   250
420
  2236961
370
     9
100
AcDbVertex
100
AcDb2dVertex
 10
89.93559265535355
 20
-179.1059508723615
 30
0.0
  0
VERTEX
  5
132
330
130
100
AcDbEntity
  8
Capa 1
 62
   250
420
  2236961
370
     9
100
AcDbVertex
100
AcDb2dVertex
 10
92.43325862161078
 20
-179.1059508723615
 30
0.0
  0
SEQEND
  5
133
330
130
100
AcDbEntity
  8
Capa 1
 62
   250
420
  2236961
370
     9
  0
POLYLINE
  5
134
330
B7
100
AcDbEntity
  8
Capa 1
 62
   250
420
  2236961
370
     9
100
AcDb2dPolyline
 66
     1
 10
0.0
 20
0.0
 30
0.0
  0
VERTEX
  5
135
330
134
100
AcDbEntity
  8
Capa 1
 62
   250
420
  2236961
370
     9
100
AcDbVertex
100
AcDb2dVertex
 10
100.552086375827
 20
-143.1444898671344
 30
0.0
  0
VERTEX
  5
136
330
134
100
AcDbEntity
  8
Capa 1
 62
   250
420
  2236961
370
     9
100
AcDbVertex
100
AcDb2dVertex
 10
120.4579261425451
 20
-143.0697016888148
 30
0.0
  0
SEQEND
  5
137
330
134
100
AcDbEntity
  8
Capa 1
 62
   250
420
  2236961
370
     9
  0
POLYLINE
  5
138
330
B7
100
AcDbEntity
  8
Capa 1
 62
   250
420
  2236961
370
     9
100
AcDb2dPolyline
 66
     1
 10
0.0
 20
0.0
 30
0.0
  0
VERTEX
  5
139
330
138
100
AcDbEntity
  8
Capa 1
 62
   250
420
  2236961
370
     9
100
AcDbVertex
100
AcDb2dVertex
 10
89.93559265535355
 20
-179.1059508723615
 30
0.0
  0
VERTEX
  5
13A
330
138
100
AcDbEntity
  8
Capa 1
 62
   250
420
  2236961
370
     9
100
AcDbVertex
100
AcDb2dVertex
 10
93.38223170486962
 20
-179.1059508723615
 30
0.0
  0
SEQEND
  5
13B
330
138
100
AcDbEntity
  8
Capa 1
 62
   250
420
  2236961
370
     9
  0
POLYLINE
  5
13C
330
B7
100
AcDbEntity
  8
Capa 1
 62
   250
420
  2236961
370
     9
100
AcDb2dPolyline
 66
     1
 10
0.0
 20
0.0
 30
0.0
  0
VERTEX
  5
13D
330
13C
100
AcDbEntity
  8
Capa 1
 62
   250
420
  2236961
370
     9
100
AcDbVertex
100
AcDb2dVertex
 10
89.93559265535355
 20
-179.1059508723615
 30
0.0
  0
VERTEX
  5
13E
330
13C
100
AcDbEntity
  8
Capa 1
 62
   250
420
  2236961
370
     9
100
AcDbVertex
100
AcDb2dVertex
 10
86.48895360583747
 20
-179.1059508723615
 30
0.0
  0
SEQEND
  5
13F
330
13C
100
AcDbEntity
  8
Capa 1
 62
   250
420
  2236961
370
     9
  0
POLYLINE
  5
140
330
B7
100
AcDbEntity
  8
Capa 1
 62
   250
420
  2236961
370
     9
100
AcDb2dPolyline
 66
     1
 10
0.0
 20
0.0
 30
0.0
  0
VERTEX
  5
141
330
140
100
AcDbEntity
  8
Capa 1
 62
   250
420
  2236961
370
     9
100
AcDbVertex
100
AcDb2dVertex
 10
86.48895360583747
 20
-162.1225237017213
 30
0.0
  0
VERTEX
  5
142
330
140
100
AcDbEntity
  8
Capa 1
 62
   250
420
  2236961
370
     9
100
AcDbVertex
100
AcDb2dVertex
 10
86.48895360583747
 20
-179.1059508723615
 30
0.0
  0
SEQEND
  5
143
330
140
100
AcDbEntity
  8
Capa 1
 62
   250
420
  2236961
370
     9
  0
POLYLINE
  5
144
330
B7
100
AcDbEntity
  8
Capa 1
 62
   250
420
  2236961
370
     9
100
AcDb2dPolyline
 66
     1
 10
0.0
 20
0.0
 30
0.0
  0
VERTEX
  5
145
330
144
100
AcDbEntity
  8
Capa 1
 62
   250
420
  2236961
370
     9
100
AcDbVertex
100
AcDb2dVertex
 10
93.38223170486962
 20
-162.1225237017213
 30
0.0
  0
VERTEX
  5
146
330
144
100
AcDbEntity
  8
Capa 1
 62
   250
420
  2236961
370
     9
100
AcDbVertex
100
AcDb2dVertex
 10
93.38223170486962
 20
-179.1059508723615
 30
0.0
  0
SEQEND
  5
147
330
144
100
AcDbEntity
  8
Capa 1
 62
   250
420
  2236961
370
     9
  0
POLYLINE
  5
148
330
B7
100
AcDbEntity
  8
Capa 1
370
     0
100
AcDb2dPolyline
 66
     1
 10
0.0
 20
0.0
 30
0.0
  0
VERTEX
  5
149
330
148
100
AcDbEntity
  8
Capa 1
370
     0
100
AcDbVertex
100
AcDb2dVertex
 10
68.98913084528594
 20
-183.045491575468
 30
0.0
  0
VERTEX
  5
14A
330
148
100
AcDbEntity
  8
Capa 1
370
     0
100
AcDbVertex
100
AcDb2dVertex
 10
141.5385838419462
 20
-183.045491575468
 30
0.0
  0
VERTEX
  5
14B
330
148
100
AcDbEntity
  8
Capa 1
370
     0
100
AcDbVertex
100
AcDb2dVertex
 10
141.5385838419462
 20
-113.1228216100385
 30
0.0
  0
VERTEX
  5
14C
330
148
100
AcDbEntity
  8
Capa 1
370
     0
100
AcDbVertex
100
AcDb2dVertex
 10
68.98913084528594
 20
-113.1228216100385
 30
0.0
  0
VERTEX
  5
14D
330
148
100
AcDbEntity
  8
Capa 1
370
     0
100
AcDbVertex
100
AcDb2dVertex
 10
68.98913084528594
 20
-183.045491575468
 30
0.0
  0
SEQEND
  5
14E
330
148
100
AcDbEntity
  8
Capa 1
370
     0
  0
ENDBLK
  5
BA
330
B7
100
AcDbEntity
  8
0
100
AcDbBlockEnd
  0
BLOCK
  5
16B
330
169
100
AcDbEntity
  8
0
100
AcDbBlockBegin
  2
block 4
 70
     0
 10
0.0
 20
0.0
 30
0.0
  3
block 4
  1

  0
SPLINE
  5
16D
330
169
100
AcDbEntity
  8
Capa 1
370
     0
100
AcDbSpline
210
0.0
220
0.0
230
1.0
 70
    11
 71
     3
 72
    20
 73
    16
 74
     0
 42
0.0000000001
 43
0.0000000001
 12
1.0
 22
0.0
 32
0.0
 13
1.0
 23
0.0
 33
0.0
 40
0.0
 40
0.0
 40
0.0
 40
0.0
 40
1.0
 40
1.0
 40
1.0
 40
2.0
 40
2.0
 40
2.0
 40
3.0
 40
3.0
 40
3.0
 40
4.0
 40
4.0
 40
4.0
 40
5.0
 40
5.0
 40
5.0
 40
5.0
 10
96.18653135542046
 20
-113.8505334357572
 30
0.0
 10
96.18653135542046
 20
-113.8505334357572
 30
0.0
 10
95.92971025291847
 20
-115.2976242624896
 30
0.0
 10
95.92971025291847
 20
-115.2976242624896
 30
0.0
 10
96.16889408142448
 20
-115.3286678025887
 30
0.0
 10
96.36574360767464
 20
-115.2926880866147
 30
0.0
 10
96.52449253104261
 20
-115.1903795166261
 30
0.0
 10
96.68183111844631
 20
-115.0887814975814
 30
0.0
 10
96.78060846556247
 20
-114.9286222382492
 30
0.0
 10
96.81941423642678
 20
-114.7077808517213
 30
0.0
 10
96.85751483930898
 20
-114.4925861920122
 30
0.0
 10
96.82153243185404
 20
-114.3105559593103
 30
0.0
 10
96.71146432258116
 20
-114.160269051728
 30
0.0
 10
96.599985877344
 20
-114.0099875271073
 30
0.0
 10
96.42571518392647
 20
-113.9076789571188
 30
0.0
 10
96.18653135542046
 20
-113.8505334357572
 30
0.0
  0
SPLINE
  5
16E
330
169
100
AcDbEntity
  8
Capa 1
370
     0
100
AcDbSpline
210
0.0
220
0.0
230
1.0
 70
    11
 71
     3
 72
    20
 73
    16
 74
     0
 42
0.0000000001
 43
0.0000000001
 12
1.0
 22
0.0
 32
0.0
 13
1.0
 23
0.0
 33
0.0
 40
0.0
 40
0.0
 40
0.0
 40
0.0
 40
1.0
 40
1.0
 40
1.0
 40
2.0
 40
2.0
 40
2.0
 40
3.0
 40
3.0
 40
3.0
 40
4.0
 40
4.0
 40
4.0
 40
5.0
 40
5.0
 40
5.0
 40
5.0
 10
95.84363131244281
 20
-113.7926773634518
 30
0.0
 10
95.61432521864809
 20
-113.7616338233527
 30
0.0
 10
95.41818086038006
 20
-113.7954980353803
 30
0.0
 10
95.25590340562056
 20
-113.8956857184608
 30
0.0
 10
95.09292078287892
 20
-113.995168233559
 30
0.0
 10
94.99132007235337
 20
-114.1560380438355
 30
0.0
 10
94.95251430148905
 20
-114.3775792153835
 30
0.0
 10
94.91300336264258
 20
-114.5977154339292
 30
0.0
 10
94.95251430148905
 20
-114.7839820574856
 30
0.0
 10
95.06963678206415
 20
-114.932853246142
 30
0.0
 10
95.18534892667498
 20
-115.0831347707626
 30
0.0
 10
95.35820928412824
 20
-115.1840330047869
 30
0.0
 10
95.58822054590478
 20
-115.2348320143092
 30
0.0
 10
95.58822054590478
 20
-115.2348320143092
 30
0.0
 10
95.84363131244281
 20
-113.7926773634518
 30
0.0
 10
95.84363131244281
 20
-113.7926773634518
 30
0.0
  0
SPLINE
  5
16F
330
169
100
AcDbEntity
  8
Capa 1
370
     0
100
AcDbSpline
210
0.0
220
0.0
230
1.0
 70
    11
 71
     3
 72
    47
 73
    43
 74
     0
 42
0.0000000001
 43
0.0000000001
 12
1.0
 22
0.0
 32
0.0
 13
1.0
 23
0.0
 33
0.0
 40
0.0
 40
0.0
 40
0.0
 40
0.0
 40
1.0
 40
1.0
 40
1.0
 40
2.0
 40
2.0
 40
2.0
 40
3.0
 40
3.0
 40
3.0
 40
4.0
 40
4.0
 40
4.0
 40
5.0
 40
5.0
 40
5.0
 40
6.0
 40
6.0
 40
6.0
 40
7.0
 40
7.0
 40
7.0
 40
8.0
 40
8.0
 40
8.0
 40
9.0
 40
9.0
 40
9.0
 40
10.0
 40
10.0
 40
10.0
 40
11.0
 40
11.0
 40
11.0
 40
12.0
 40
12.0
 40
12.0
 40
13.0
 40
13.0
 40
13.0
 40
14.0
 40
14.0
 40
14.0
 40
14.0
 10
95.8993718808015
 20
-113.4772896377006
 30
0.0
 10
95.8993718808015
 20
-113.4772896377006
 30
0.0
 10
95.96216412898187
 20
-113.1231015240467
 30
0.0
 10
95.96216412898187
 20
-113.1231015240467
 30
0.0
 10
95.96216412898187
 20
-113.1231015240467
 30
0.0
 10
96.3043590039777
 20
-113.1837836512424
 30
0.0
 10
96.3043590039777
 20
-113.1837836512424
 30
0.0
 10
96.3043590039777
 20
-113.1837836512424
 30
0.0
 10
96.24156406431648
 20
-113.5386769328787
 30
0.0
 10
96.24156406431648
 20
-113.5386769328787
 30
0.0
 10
96.59010814263239
 20
-113.6184039785534
 30
0.0
 10
96.84904744056163
 20
-113.7736270620107
 30
0.0
 10
97.0183819581042
 20
-114.0029304643243
 30
0.0
 10
97.18771378416592
 20
-114.2315286986557
 30
0.0
 10
97.24627502445348
 20
-114.4890603521015
 30
0.0
 10
97.19618118291326
 20
-114.7748094907562
 30
0.0
 10
97.1467925093552
 20
-115.0563276215184
 30
0.0
 10
97.00638602796533
 20
-115.2764584571021
 30
0.0
 10
96.77496443022451
 20
-115.4373282673782
 30
0.0
 10
96.54213249651943
 20
-115.5981926946926
 30
0.0
 10
96.24226923229861
 20
-115.656048766998
 30
0.0
 10
95.8746748525416
 20
-115.6115962693149
 30
0.0
 10
95.8746748525416
 20
-115.6115962693149
 30
0.0
 10
95.8111774363791
 20
-115.968610437859
 30
0.0
 10
95.8111774363791
 20
-115.968610437859
 30
0.0
 10
95.8111774363791
 20
-115.968610437859
 30
0.0
 10
95.46898256138326
 20
-115.907933693625
 30
0.0
 10
95.46898256138326
 20
-115.907933693625
 30
0.0
 10
95.46898256138326
 20
-115.907933693625
 30
0.0
 10
95.53177480956364
 20
-115.551624693063
 30
0.0
 10
95.53177480956364
 20
-115.551624693063
 30
0.0
 10
95.20792506802708
 20
-115.4817753820996
 30
0.0
 10
94.95392732893417
 20
-115.3329041934433
 30
0.0
 10
94.76907104134204
 20
-115.1085369670047
 30
0.0
 10
94.58491992173205
 20
-114.8834645725839
 30
0.0
 10
94.52000947812441
 20
-114.6188812393167
 30
0.0
 10
94.5743370190383
 20
-114.3105559593103
 30
0.0
 10
94.62866455995217
 20
-114.0043408002885
 30
0.0
 10
94.78106428000007
 20
-113.7778580699035
 30
0.0
 10
95.02942067523556
 20
-113.6303972172114
 30
0.0
 10
95.27918740643533
 20
-113.4850518684658
 30
0.0
 10
95.56846507648154
 20
-113.4328425229791
 30
0.0
 10
95.8993718808015
 20
-113.4772896377006
 30
0.0
  0
HATCH
  5
170
330
169
100
AcDbEntity
  8
Capa 1
 62
   250
420
  2236961
100
AcDbHatch
 10
0.0
 20
0.0
 30
0.0
210
0.0
220
0.0
230
1.0
  2
SOLID
 70
     1
 71
     0
 91
        3
 92
        1
 93
        1
 72
     4
 94
        3
 73
     0
 74
     1
 95
       20
 96
       16
 40
0.0
 40
0.0
 40
0.0
 40
0.0
 40
1.0
 40
1.0
 40
1.0
 40
2.0
 40
2.0
 40
2.0
 40
3.0
 40
3.0
 40
3.0
 40
4.0
 40
4.0
 40
4.0
 40
5.0
 40
5.0
 40
5.0
 40
5.0
 10
95.84363131244281
 20
-113.7926773634518
 10
95.61432521864809
 20
-113.7616338233527
 10
95.41818086038006
 20
-113.7954980353803
 10
95.25590340562056
 20
-113.8956857184608
 10
95.09292078287892
 20
-113.995168233559
 10
94.99132007235337
 20
-114.1560380438355
 10
94.95251430148905
 20
-114.3775792153835
 10
94.91300336264258
 20
-114.5977154339292
 10
94.95251430148905
 20
-114.7839820574856
 10
95.06963678206415
 20
-114.932853246142
 10
95.18534892667498
 20
-115.0831347707626
 10
95.35820928412824
 20
-115.1840330047869
 10
95.58822054590478
 20
-115.2348320143092
 10
95.58822054590478
 20
-115.2348320143092
 10
95.84363131244281
 20
-113.7926773634518
 10
95.84363131244281
 20
-113.7926773634518
 97
        0
 97
        0
 92
        1
 93
        2
 72
     4
 94
        3
 73
     0
 74
     0
 95
       20
 96
       16
 40
0.0
 40
0.0
 40
0.0
 40
0.0
 40
0.3527777776895833
 40
0.3527777776895833
 40
0.3527777776895833
 40
0.7055555553791667
 40
0.7055555553791667
 40
0.7055555553791667
 40
1.05833333306875
 40
1.05833333306875
 40
1.05833333306875
 40
1.411111110758333
 40
1.411111110758333
 40
1.411111110758333
 40
1.763888888447917
 40
1.763888888447917
 40
1.763888888447917
 40
1.763888888447917
 10
96.18653135542046
 20
-113.8505334357572
 10
96.18653135542046
 20
-113.8505334357572
 10
95.92971025291847
 20
-115.2976242624896
 10
95.92971025291847
 20
-115.2976242624896
 10
96.16889408142448
 20
-115.3286678025887
 10
96.36574360767464
 20
-115.2926880866147
 10
96.52449253104261
 20
-115.1903795166261
 10
96.68183111844631
 20
-115.0887814975814
 10
96.78060846556247
 20
-114.9286222382492
 10
96.81941423642678
 20
-114.7077808517213
 10
96.85751483930898
 20
-114.4925861920122
 10
96.82153243185404
 20
-114.3105559593103
 10
96.71146432258116
 20
-114.160269051728
 10
96.599985877344
 20
-114.0099875271073
 10
96.42571518392647
 20
-113.9076789571188
 10
96.18653135542046
 20
-113.8505334357572
 97
        0
 72
     1
 10
96.18653135542046
 20
-113.8505334357572
 11
96.18653135542046
 21
-113.8505334357572
 97
        0
 92
        1
 93
        2
 72
     4
 94
        3
 73
     0
 74
     0
 95
       47
 96
       43
 40
0.0
 40
0.0
 40
0.0
 40
0.0
 40
0.3527777776895833
 40
0.3527777776895833
 40
0.3527777776895833
 40
0.7055555553791667
 40
0.7055555553791667
 40
0.7055555553791667
 40
1.05833333306875
 40
1.05833333306875
 40
1.05833333306875
 40
1.411111110758333
 40
1.411111110758333
 40
1.411111110758333
 40
1.763888888447917
 40
1.763888888447917
 40
1.763888888447917
 40
2.1166666661375
 40
2.1166666661375
 40
2.1166666661375
 40
2.469444443827083
 40
2.469444443827083
 40
2.469444443827083
 40
2.822222221516667
 40
2.822222221516667
 40
2.822222221516667
 40
3.17499999920625
 40
3.17499999920625
 40
3.17499999920625
 40
3.527777776895833
 40
3.527777776895833
 40
3.527777776895833
 40
3.880555554585417
 40
3.880555554585417
 40
3.880555554585417
 40
4.233333332275
 40
4.233333332275
 40
4.233333332275
 40
4.586111109964584
 40
4.586111109964584
 40
4.586111109964584
 40
4.938888887654167
 40
4.938888887654167
 40
4.938888887654167
 40
4.938888887654167
 10
95.8993718808015
 20
-113.4772896377006
 10
95.8993718808015
 20
-113.4772896377006
 10
95.96216412898187
 20
-113.1231015240467
 10
95.96216412898187
 20
-113.1231015240467
 10
95.96216412898187
 20
-113.1231015240467
 10
96.3043590039777
 20
-113.1837836512424
 10
96.3043590039777
 20
-113.1837836512424
 10
96.3043590039777
 20
-113.1837836512424
 10
96.24156406431648
 20
-113.5386769328787
 10
96.24156406431648
 20
-113.5386769328787
 10
96.59010814263239
 20
-113.6184039785534
 10
96.84904744056163
 20
-113.7736270620107
 10
97.0183819581042
 20
-114.0029304643243
 10
97.18771378416592
 20
-114.2315286986557
 10
97.24627502445348
 20
-114.4890603521015
 10
97.19618118291326
 20
-114.7748094907562
 10
97.1467925093552
 20
-115.0563276215184
 10
97.00638602796533
 20
-115.2764584571021
 10
96.77496443022451
 20
-115.4373282673782
 10
96.54213249651943
 20
-115.5981926946926
 10
96.24226923229861
 20
-115.656048766998
 10
95.8746748525416
 20
-115.6115962693149
 10
95.8746748525416
 20
-115.6115962693149
 10
95.8111774363791
 20
-115.968610437859
 10
95.8111774363791
 20
-115.968610437859
 10
95.8111774363791
 20
-115.968610437859
 10
95.46898256138326
 20
-115.907933693625
 10
95.46898256138326
 20
-115.907933693625
 10
95.46898256138326
 20
-115.907933693625
 10
95.53177480956364
 20
-115.551624693063
 10
95.53177480956364
 20
-115.551624693063
 10
95.20792506802708
 20
-115.4817753820996
 10
94.95392732893417
 20
-115.3329041934433
 10
94.76907104134204
 20
-115.1085369670047
 10
94.58491992173205
 20
-114.8834645725839
 10
94.52000947812441
 20
-114.6188812393167
 10
94.5743370190383
 20
-114.3105559593103
 10
94.62866455995217
 20
-114.0043408002885
 10
94.78106428000007
 20
-113.7778580699035
 10
95.02942067523556
 20
-113.6303972172114
 10
95.27918740643533
 20
-113.4850518684658
 10
95.56846507648154
 20
-113.4328425229791
 10
95.8993718808015
 20
-113.4772896377006
 97
        0
 72
     1
 10
95.8993718808015
 20
-113.4772896377006
 11
95.8993718808015
 21
-113.4772896377006
 97
        0
 75
     2
 76
     1
 98
        0
  0
POLYLINE
  5
171
330
169
100
AcDbEntity
  8
Capa 1
370
     0
100
AcDb2dPolyline
 66
     1
 10
0.0
 20
0.0
 30
0.0
  0
VERTEX
  5
172
330
171
100
AcDbEntity
  8
Capa 1
370
     0
100
AcDbVertex
100
AcDb2dVertex
 10
68.98913084528594
 20
-183.045491575468
 30
0.0
  0
VERTEX
  5
173
330
171
100
AcDbEntity
  8
Capa 1
370
     0
100
AcDbVertex
100
AcDb2dVertex
 10
141.5385838419462
 20
-183.045491575468
 30
0.0
  0
VERTEX
  5
174
330
171
100
AcDbEntity
  8
Capa 1
370
     0
100
AcDbVertex
100
AcDb2dVertex
 10
141.5385838419462
 20
-113.1228216100385
 30
0.0
  0
VERTEX
  5
175
330
171
100
AcDbEntity
  8
Capa 1
370
     0
100
AcDbVertex
100
AcDb2dVertex
 10
68.98913084528594
 20
-113.1228216100385
 30
0.0
  0
VERTEX
  5
176
330
171
100
AcDbEntity
  8
Capa 1
370
     0
100
AcDbVertex
100
AcDb2dVertex
 10
68.98913084528594
 20
-183.045491575468
 30
0.0
  0
SEQEND
  5
177
330
171
100
AcDbEntity
  8
Capa 1
370
     0
  0
ENDBLK
  5
16C
330
169
100
AcDbEntity
  8
0
100
AcDbBlockEnd
  0
BLOCK
  5
18F
330
18D
100
AcDbEntity
  8
0
100
AcDbBlockBegin
  2
block 5
 70
     0
 10
0.0
 20
0.0
 30
0.0
  3
block 5
  1

  0
SPLINE
  5
191
330
18D
100
AcDbEntity
  8
Capa 1
370
     0
100
AcDbSpline
210
0.0
220
0.0
230
1.0
 70
    11
 71
     3
 72
    95
 73
    91
 74
     0
 42
0.0000000001
 43
0.0000000001
 12
1.0
 22
0.0
 32
0.0
 13
1.0
 23
0.0
 33
0.0
 40
0.0
 40
0.0
 40
0.0
 40
0.0
 40
1.0
 40
1.0
 40
1.0
 40
2.0
 40
2.0
 40
2.0
 40
3.0
 40
3.0
 40
3.0
 40
4.0
 40
4.0
 40
4.0
 40
5.0
 40
5.0
 40
5.0
 40
6.0
 40
6.0
 40
6.0
 40
7.0
 40
7.0
 40
7.0
 40
8.0
 40
8.0
 40
8.0
 40
9.0
 40
9.0
 40
9.0
 40
10.0
 40
10.0
 40
10.0
 40
11.0
 40
11.0
 40
11.0
 40
12.0
 40
12.0
 40
12.0
 40
13.0
 40
13.0
 40
13.0
 40
14.0
 40
14.0
 40
14.0
 40
15.0
 40
15.0
 40
15.0
 40
16.0
 40
16.0
 40
16.0
 40
17.0
 40
17.0
 40
17.0
 40
18.0
 40
18.0
 40
18.0
 40
19.0
 40
19.0
 40
19.0
 40
20.0
 40
20.0
 40
20.0
 40
21.0
 40
21.0
 40
21.0
 40
22.0
 40
22.0
 40
22.0
 40
23.0
 40
23.0
 40
23.0
 40
24.0
 40
24.0
 40
24.0
 40
25.0
 40
25.0
 40
25.0
 40
26.0
 40
26.0
 40
26.0
 40
27.0
 40
27.0
 40
27.0
 40
28.0
 40
28.0
 40
28.0
 40
29.0
 40
29.0
 40
29.0
 40
30.0
 40
30.0
 40
30.0
 40
30.0
 10
99.54187402883699
 20
-115.8763895380882
 30
0.0
 10
99.54187402883699
 20
-115.8763895380882
 30
0.0
 10
99.88971024768992
 20
-115.8912088316365
 30
0.0
 10
99.88971024768992
 20
-115.8912088316365
 30
0.0
 10
99.8939439470639
 20
-116.0908790298152
 30
0.0
 10
99.93627824931944
 20
-116.2411659373975
 30
0.0
 10
100.0145949590302
 20
-116.3420587884601
 30
0.0
 10
100.0936168367231
 20
-116.4436568075048
 30
0.0
 10
100.1987460786402
 20
-116.5057492706647
 30
0.0
 10
100.3342110011934
 20
-116.5297357479807
 30
0.0
 10
100.4929626160422
 20
-116.5579586161516
 30
0.0
 10
100.6383052733071
 20
-116.5269150760522
 30
0.0
 10
100.7674236840211
 20
-116.4358999597012
 30
0.0
 10
100.8965394032542
 20
-116.3434691244243
 30
0.0
 10
100.9755612809471
 20
-116.2171740771198
 30
0.0
 10
101.0051944850819
 20
-116.0534889778768
 30
0.0
 10
101.0327121852704
 20
-115.8975607264374
 30
0.0
 10
101.0044893170998
 20
-115.7606827764391
 30
0.0
 10
100.9205285720511
 20
-115.6414447919176
 30
0.0
 10
100.8365678270024
 20
-115.5222014244343
 30
0.0
 10
100.7159168150357
 20
-115.4495314415423
 30
0.0
 10
100.558578227632
 20
-115.4213085733718
 30
0.0
 10
100.4950781199887
 20
-115.410725670678
 30
0.0
 10
100.4132328788863
 20
-115.4093153347138
 30
0.0
 10
100.3137503637881
 20
-115.4163723974968
 30
0.0
 10
100.3137503637881
 20
-115.4163723974968
 30
0.0
 10
100.4033551441747
 20
-115.1263868679876
 30
0.0
 10
100.4033551441747
 20
-115.1263868679876
 30
0.0
 10
100.4259339770074
 20
-115.1320335948067
 30
0.0
 10
100.4435739424842
 20
-115.1369697706814
 30
0.0
 10
100.4576826850886
 20
-115.1397904426099
 30
0.0
 10
100.60161769787
 20
-115.1651926388523
 30
0.0
 10
100.7384956478683
 20
-115.1503733453037
 30
0.0
 10
100.8676113671015
 20
-115.0953433278888
 30
0.0
 10
100.9960219183525
 20
-115.0403079275119
 30
0.0
 10
101.0743386280632
 20
-114.9344735176124
 30
0.0
 10
101.1018563282517
 20
-114.7764297622266
 30
0.0
 10
101.1237273016213
 20
-114.6529607698122
 30
0.0
 10
101.1004459922874
 20
-114.5428899690585
 30
0.0
 10
101.0305939898431
 20
-114.4462335088505
 30
0.0
 10
100.9607446788797
 20
-114.3495716656807
 30
0.0
 10
100.8598518278171
 20
-114.2896000894289
 30
0.0
 10
100.7264997177295
 20
-114.2663133971333
 30
0.0
 10
100.5945606350869
 20
-114.2423269198172
 30
0.0
 10
100.4774381545118
 20
-114.2649030611693
 30
0.0
 10
100.375134967485
 20
-114.3319317002039
 30
0.0
 10
100.2728290889773
 20
-114.3982551712567
 30
0.0
 10
100.1938072112844
 20
-114.5132567649237
 30
0.0
 10
100.1394769788897
 20
-114.675536911164
 30
0.0
 10
100.1394769788897
 20
-114.675536911164
 30
0.0
 10
99.810688369997
 20
-114.5548885906782
 30
0.0
 10
99.810688369997
 20
-114.5548885906782
 30
0.0
 10
99.89253361109931
 20
-114.3347523721328
 30
0.0
 10
100.0181234904218
 20
-114.1752982807824
 30
0.0
 10
100.1867501485013
 20
-114.0772261016483
 30
0.0
 10
100.3553794980618
 20
-113.9770384185679
 30
0.0
 10
100.5501108288847
 20
-113.9474052144331
 30
0.0
 10
100.7681288520032
 20
-113.9862109852974
 30
0.0
 10
100.9191182360871
 20
-114.013018134542
 30
0.0
 10
101.0524676546936
 20
-114.0694638708831
 30
0.0
 10
101.1667667718593
 20
-114.1562479793413
 30
0.0
 10
101.2831840844523
 20
-114.2437372557815
 30
0.0
 10
101.3650293255546
 20
-114.3495716656807
 30
0.0
 10
101.4108894677211
 20
-114.4730406580951
 30
0.0
 10
101.4588678053149
 20
-114.5965150334711
 30
0.0
 10
101.4715662119551
 20
-114.7213997448114
 30
0.0
 10
101.4496952385855
 20
-114.84627907319
 30
0.0
 10
101.428529433198
 20
-114.9655224406732
 30
0.0
 10
101.3770225642126
 20
-115.0685307956822
 30
0.0
 10
101.2958851825733
 20
-115.1546097361582
 30
0.0
 10
101.214039941471
 20
-115.2420990125984
 30
0.0
 10
101.1053848596432
 20
-115.3034809248145
 30
0.0
 10
100.9699172456092
 20
-115.3387608557682
 30
0.0
 10
101.1265506650307
 20
-115.4043737758771
 30
0.0
 10
101.2394394462322
 20
-115.5059771778835
 30
0.0
 10
101.3092887571956
 20
-115.6414447919176
 30
0.0
 10
101.3777277321948
 20
-115.7754966870256
 30
0.0
 10
101.3967780336359
 20
-115.9314249384651
 30
0.0
 10
101.3657344935367
 20
-116.1099293312563
 30
0.0
 10
101.3226950232987
 20
-116.3512313551895
 30
0.0
 10
101.1992233394036
 20
-116.5403186506745
 30
0.0
 10
100.9939064144061
 20
-116.6771966006728
 30
0.0
 10
100.7878843214264
 20
-116.8126642147069
 30
0.0
 10
100.5508159968668
 20
-116.85711671239
 30
0.0
 10
100.2820016557068
 20
-116.8098435427783
 30
0.0
 10
100.0399944637914
 20
-116.7660962130774
 30
0.0
 10
99.85161233628858
 20
-116.659556635196
 30
0.0
 10
99.71684989023666
 20
-116.4866989692236
 30
0.0
 10
99.58279530364773
 20
-116.3138359202895
 30
0.0
 10
99.52423406336017
 20
-116.1099293312563
 30
0.0
 10
99.54187402883699
 20
-115.8763895380882
 30
0.0
  0
HATCH
  5
192
330
18D
100
AcDbEntity
  8
Capa 1
 62
   250
420
  2236961
100
AcDbHatch
 10
0.0
 20
0.0
 30
0.0
210
0.0
220
0.0
230
1.0
  2
SOLID
 70
     1
 71
     0
 91
        1
 92
        1
 93
        2
 72
     4
 94
        3
 73
     0
 74
     0
 95
       95
 96
       91
 40
0.0
 40
0.0
 40
0.0
 40
0.0
 40
0.3527777776895833
 40
0.3527777776895833
 40
0.3527777776895833
 40
0.7055555553791667
 40
0.7055555553791667
 40
0.7055555553791667
 40
1.05833333306875
 40
1.05833333306875
 40
1.05833333306875
 40
1.411111110758333
 40
1.411111110758333
 40
1.411111110758333
 40
1.763888888447917
 40
1.763888888447917
 40
1.763888888447917
 40
2.1166666661375
 40
2.1166666661375
 40
2.1166666661375
 40
2.469444443827083
 40
2.469444443827083
 40
2.469444443827083
 40
2.822222221516667
 40
2.822222221516667
 40
2.822222221516667
 40
3.17499999920625
 40
3.17499999920625
 40
3.17499999920625
 40
3.527777776895833
 40
3.527777776895833
 40
3.527777776895833
 40
3.880555554585417
 40
3.880555554585417
 40
3.880555554585417
 40
4.233333332275
 40
4.233333332275
 40
4.233333332275
 40
4.586111109964584
 40
4.586111109964584
 40
4.586111109964584
 40
4.938888887654167
 40
4.938888887654167
 40
4.938888887654167
 40
5.29166666534375
 40
5.29166666534375
 40
5.29166666534375
 40
5.644444443033334
 40
5.644444443033334
 40
5.644444443033334
 40
5.997222220722917
 40
5.997222220722917
 40
5.997222220722917
 40
6.349999998412501
 40
6.349999998412501
 40
6.349999998412501
 40
6.702777776102083
 40
6.702777776102083
 40
6.702777776102083
 40
7.055555553791667
 40
7.055555553791667
 40
7.055555553791667
 40
7.40833333148125
 40
7.40833333148125
 40
7.40833333148125
 40
7.761111109170834
 40
7.761111109170834
 40
7.761111109170834
 40
8.113888886860417
 40
8.113888886860417
 40
8.113888886860417
 40
8.46666666455
 40
8.46666666455
 40
8.46666666455
 40
8.819444442239584
 40
8.819444442239584
 40
8.819444442239584
 40
9.172222219929168
 40
9.172222219929168
 40
9.172222219929168
 40
9.52499999761875
 40
9.52499999761875
 40
9.52499999761875
 40
9.877777775308333
 40
9.877777775308333
 40
9.877777775308333
 40
10.23055555299792
 40
10.23055555299792
 40
10.23055555299792
 40
10.5833333306875
 40
10.5833333306875
 40
10.5833333306875
 40
10.5833333306875
 10
99.54187402883699
 20
-115.8763895380882
 10
99.54187402883699
 20
-115.8763895380882
 10
99.88971024768992
 20
-115.8912088316365
 10
99.88971024768992
 20
-115.8912088316365
 10
99.8939439470639
 20
-116.0908790298152
 10
99.93627824931944
 20
-116.2411659373975
 10
100.0145949590302
 20
-116.3420587884601
 10
100.0936168367231
 20
-116.4436568075048
 10
100.1987460786402
 20
-116.5057492706647
 10
100.3342110011934
 20
-116.5297357479807
 10
100.4929626160422
 20
-116.5579586161516
 10
100.6383052733071
 20
-116.5269150760522
 10
100.7674236840211
 20
-116.4358999597012
 10
100.8965394032542
 20
-116.3434691244243
 10
100.9755612809471
 20
-116.2171740771198
 10
101.0051944850819
 20
-116.0534889778768
 10
101.0327121852704
 20
-115.8975607264374
 10
101.0044893170998
 20
-115.7606827764391
 10
100.9205285720511
 20
-115.6414447919176
 10
100.8365678270024
 20
-115.5222014244343
 10
100.7159168150357
 20
-115.4495314415423
 10
100.558578227632
 20
-115.4213085733718
 10
100.4950781199887
 20
-115.410725670678
 10
100.4132328788863
 20
-115.4093153347138
 10
100.3137503637881
 20
-115.4163723974968
 10
100.3137503637881
 20
-115.4163723974968
 10
100.4033551441747
 20
-115.1263868679876
 10
100.4033551441747
 20
-115.1263868679876
 10
100.4259339770074
 20
-115.1320335948067
 10
100.4435739424842
 20
-115.1369697706814
 10
100.4576826850886
 20
-115.1397904426099
 10
100.60161769787
 20
-115.1651926388523
 10
100.7384956478683
 20
-115.1503733453037
 10
100.8676113671015
 20
-115.0953433278888
 10
100.9960219183525
 20
-115.0403079275119
 10
101.0743386280632
 20
-114.9344735176124
 10
101.1018563282517
 20
-114.7764297622266
 10
101.1237273016213
 20
-114.6529607698122
 10
101.1004459922874
 20
-114.5428899690585
 10
101.0305939898431
 20
-114.4462335088505
 10
100.9607446788797
 20
-114.3495716656807
 10
100.8598518278171
 20
-114.2896000894289
 10
100.7264997177295
 20
-114.2663133971333
 10
100.5945606350869
 20
-114.2423269198172
 10
100.4774381545118
 20
-114.2649030611693
 10
100.375134967485
 20
-114.3319317002039
 10
100.2728290889773
 20
-114.3982551712567
 10
100.1938072112844
 20
-114.5132567649237
 10
100.1394769788897
 20
-114.675536911164
 10
100.1394769788897
 20
-114.675536911164
 10
99.810688369997
 20
-114.5548885906782
 10
99.810688369997
 20
-114.5548885906782
 10
99.89253361109931
 20
-114.3347523721328
 10
100.0181234904218
 20
-114.1752982807824
 10
100.1867501485013
 20
-114.0772261016483
 10
100.3553794980618
 20
-113.9770384185679
 10
100.5501108288847
 20
-113.9474052144331
 10
100.7681288520032
 20
-113.9862109852974
 10
100.9191182360871
 20
-114.013018134542
 10
101.0524676546936
 20
-114.0694638708831
 10
101.1667667718593
 20
-114.1562479793413
 10
101.2831840844523
 20
-114.2437372557815
 10
101.3650293255546
 20
-114.3495716656807
 10
101.4108894677211
 20
-114.4730406580951
 10
101.4588678053149
 20
-114.5965150334711
 10
101.4715662119551
 20
-114.7213997448114
 10
101.4496952385855
 20
-114.84627907319
 10
101.428529433198
 20
-114.9655224406732
 10
101.3770225642126
 20
-115.0685307956822
 10
101.2958851825733
 20
-115.1546097361582
 10
101.214039941471
 20
-115.2420990125984
 10
101.1053848596432
 20
-115.3034809248145
 10
100.9699172456092
 20
-115.3387608557682
 10
101.1265506650307
 20
-115.4043737758771
 10
101.2394394462322
 20
-115.5059771778835
 10
101.3092887571956
 20
-115.6414447919176
 10
101.3777277321948
 20
-115.7754966870256
 10
101.3967780336359
 20
-115.9314249384651
 10
101.3657344935367
 20
-116.1099293312563
 10
101.3226950232987
 20
-116.3512313551895
 10
101.1992233394036
 20
-116.5403186506745
 10
100.9939064144061
 20
-116.6771966006728
 10
100.7878843214264
 20
-116.8126642147069
 10
100.5508159968668
 20
-116.85711671239
 10
100.2820016557068
 20
-116.8098435427783
 10
100.0399944637914
 20
-116.7660962130774
 10
99.85161233628858
 20
-116.659556635196
 10
99.71684989023666
 20
-116.4866989692236
 10
99.58279530364773
 20
-116.3138359202895
 10
99.52423406336017
 20
-116.1099293312563
 10
99.54187402883699
 20
-115.8763895380882
 97
        0
 72
     1
 10
99.54187402883699
 20
-115.8763895380882
 11
99.54187402883699
 21
-115.8763895380882
 97
        0
 75
     2
 76
     1
 98
        0
  0
POLYLINE
  5
193
330
18D
100
AcDbEntity
  8
Capa 1
370
     0
100
AcDb2dPolyline
 66
     1
 10
0.0
 20
0.0
 30
0.0
  0
VERTEX
  5
194
330
193
100
AcDbEntity
  8
Capa 1
370
     0
100
AcDbVertex
100
AcDb2dVertex
 10
68.98913084528594
 20
-183.045491575468
 30
0.0
  0
VERTEX
  5
195
330
193
100
AcDbEntity
  8
Capa 1
370
     0
100
AcDbVertex
100
AcDb2dVertex
 10
141.5385838419462
 20
-183.045491575468
 30
0.0
  0
VERTEX
  5
196
330
193
100
AcDbEntity
  8
Capa 1
370
     0
100
AcDbVertex
100
AcDb2dVertex
 10
141.5385838419462
 20
-113.1228216100385
 30
0.0
  0
VERTEX
  5
197
330
193
100
AcDbEntity
  8
Capa 1
370
     0
100
AcDbVertex
100
AcDb2dVertex
 10
68.98913084528594
 20
-113.1228216100385
 30
0.0
  0
VERTEX
  5
198
330
193
100
AcDbEntity
  8
Capa 1
370
     0
100
AcDbVertex
100
AcDb2dVertex
 10
68.98913084528594
 20
-183.045491575468
 30
0.0
  0
SEQEND
  5
199
330
193
100
AcDbEntity
  8
Capa 1
370
     0
  0
ENDBLK
  5
190
330
18D
100
AcDbEntity
  8
0
100
AcDbBlockEnd
  0
BLOCK
  5
1D2
330
1D0
100
AcDbEntity
  8
0
100
AcDbBlockBegin
  2
block 6
 70
     0
 10
0.0
 20
0.0
 30
0.0
  3
block 6
  1

  0
SPLINE
  5
1D4
330
1D0
100
AcDbEntity
  8
Capa 1
370
     0
100
AcDbSpline
210
0.0
220
0.0
230
1.0
 70
    11
 71
     3
 72
    20
 73
    16
 74
     0
 42
0.0000000001
 43
0.0000000001
 12
1.0
 22
0.0
 32
0.0
 13
1.0
 23
0.0
 33
0.0
 40
0.0
 40
0.0
 40
0.0
 40
0.0
 40
1.0
 40
1.0
 40
1.0
 40
2.0
 40
2.0
 40
2.0
 40
3.0
 40
3.0
 40
3.0
 40
4.0
 40
4.0
 40
4.0
 40
5.0
 40
5.0
 40
5.0
 40
5.0
 10
88.35592351927725
 20
-146.8732136041305
 30
0.0
 10
88.35592351927725
 20
-146.8732136041305
 30
0.0
 10
88.0998075847574
 20
-148.3196019543616
 30
0.0
 10
88.0998075847574
 20
-148.3196019543616
 30
0.0
 10
88.33899141326341
 20
-148.3499403264786
 30
0.0
 10
88.53654610749571
 20
-148.3139579190237
 30
0.0
 10
88.69388469489941
 20
-148.2123572084984
 30
0.0
 10
88.85192979602567
 20
-148.1114643574356
 30
0.0
 10
88.95070714314181
 20
-147.9505972386403
 30
0.0
 10
88.98951291400614
 20
-147.7304637115754
 30
0.0
 10
89.02761351688832
 20
-147.5152690518663
 30
0.0
 10
88.99092459571084
 20
-147.3318231002384
 30
0.0
 10
88.88085783217838
 20
-147.1822467436
 30
0.0
 10
88.77008455492336
 20
-147.0319625274985
 30
0.0
 10
88.59510734778327
 20
-146.9296566489908
 30
0.0
 10
88.35592351927725
 20
-146.8732136041305
 30
0.0
  0
SPLINE
  5
1D5
330
1D0
100
AcDbEntity
  8
Capa 1
370
     0
100
AcDbSpline
210
0.0
220
0.0
230
1.0
 70
    11
 71
     3
 72
    20
 73
    16
 74
     0
 42
0.0000000001
 43
0.0000000001
 12
1.0
 22
0.0
 32
0.0
 13
1.0
 23
0.0
 33
0.0
 40
0.0
 40
0.0
 40
0.0
 40
0.0
 40
1.0
 40
1.0
 40
1.0
 40
2.0
 40
2.0
 40
2.0
 40
3.0
 40
3.0
 40
3.0
 40
4.0
 40
4.0
 40
4.0
 40
5.0
 40
5.0
 40
5.0
 40
5.0
 10
88.01372999002184
 20
-146.8139471958611
 30
0.0
 10
87.7837187282453
 20
-146.7836088237438
 30
0.0
 10
87.58827953795942
 20
-146.8188860632166
 30
0.0
 10
87.42529691521777
 20
-146.9176634103328
 30
0.0
 10
87.2623129467357
 20
-147.017145925431
 30
0.0
 10
87.16212391791487
 20
-147.1780130442263
 30
0.0
 10
87.1226129790684
 20
-147.4002620752379
 30
0.0
 10
87.08380720820377
 20
-147.6196904343204
 30
0.0
 10
87.1226129790684
 20
-147.8052518898947
 30
0.0
 10
87.23903029166136
 20
-147.9555361059961
 30
0.0
 10
87.35544625851391
 20
-148.1051124626347
 30
0.0
 10
87.5283079617076
 20
-148.2053028371959
 30
0.0
 10
87.7583178777437
 20
-148.2568070147004
 30
0.0
 10
87.7583178777437
 20
-148.2568070147004
 30
0.0
 10
88.01372999002184
 20
-146.8139471958611
 30
0.0
 10
88.01372999002184
 20
-146.8139471958611
 30
0.0
  0
SPLINE
  5
1D6
330
1D0
100
AcDbEntity
  8
Capa 1
370
     0
100
AcDbSpline
210
0.0
220
0.0
230
1.0
 70
    11
 71
     3
 72
    47
 73
    43
 74
     0
 42
0.0000000001
 43
0.0000000001
 12
1.0
 22
0.0
 32
0.0
 13
1.0
 23
0.0
 33
0.0
 40
0.0
 40
0.0
 40
0.0
 40
0.0
 40
1.0
 40
1.0
 40
1.0
 40
2.0
 40
2.0
 40
2.0
 40
3.0
 40
3.0
 40
3.0
 40
4.0
 40
4.0
 40
4.0
 40
5.0
 40
5.0
 40
5.0
 40
6.0
 40
6.0
 40
6.0
 40
7.0
 40
7.0
 40
7.0
 40
8.0
 40
8.0
 40
8.0
 40
9.0
 40
9.0
 40
9.0
 40
10.0
 40
10.0
 40
10.0
 40
11.0
 40
11.0
 40
11.0
 40
12.0
 40
12.0
 40
12.0
 40
13.0
 40
13.0
 40
13.0
 40
14.0
 40
14.0
 40
14.0
 40
14.0
 10
88.06946921264043
 20
-146.4992673295726
 30
0.0
 10
88.06946921264043
 20
-146.4992673295726
 30
0.0
 10
88.13226280656122
 20
-146.1450792159187
 30
0.0
 10
88.13226280656122
 20
-146.1450792159187
 30
0.0
 10
88.13226280656122
 20
-146.1450792159187
 30
0.0
 10
88.47375251357491
 20
-146.2064638196157
 30
0.0
 10
88.47375251357491
 20
-146.2064638196157
 30
0.0
 10
88.47375251357491
 20
-146.2064638196157
 30
0.0
 10
88.41095757391369
 20
-146.5606519332695
 30
0.0
 10
88.41095757391369
 20
-146.5606519332695
 30
0.0
 10
88.75950165222929
 20
-146.6403789789446
 30
0.0
 10
89.01844095015885
 20
-146.796307230384
 30
0.0
 10
89.18847928994313
 20
-147.0249081561963
 30
0.0
 10
89.35710729376315
 20
-147.2542142499906
 30
0.0
 10
89.41637370203283
 20
-147.5110353524926
 30
0.0
 10
89.36627986049263
 20
-147.7967844911473
 30
0.0
 10
89.31689118693455
 20
-148.0775974539271
 30
0.0
 10
89.17648470554468
 20
-148.297730980992
 30
0.0
 10
88.94435793982174
 20
-148.4593032677693
 30
0.0
 10
88.71222982835836
 20
-148.6201676950837
 30
0.0
 10
88.41236790987828
 20
-148.6780237673891
 30
0.0
 10
88.04406836213882
 20
-148.6335739611869
 30
0.0
 10
88.04406836213882
 20
-148.6335739611869
 30
0.0
 10
87.98127476821803
 20
-148.989880270268
 30
0.0
 10
87.98127476821803
 20
-148.989880270268
 30
0.0
 10
87.98127476821803
 20
-148.989880270268
 30
0.0
 10
87.63907989322219
 20
-148.9299086940162
 30
0.0
 10
87.63907989322219
 20
-148.9299086940162
 30
0.0
 10
87.63907989322219
 20
-148.9299086940162
 30
0.0
 10
87.70187348714299
 20
-148.5728972169529
 30
0.0
 10
87.70187348714299
 20
-148.5728972169529
 30
0.0
 10
87.37731857762398
 20
-148.5030452145086
 30
0.0
 10
87.12331814705054
 20
-148.3548791938344
 30
0.0
 10
86.93987354116311
 20
-148.1305119673958
 30
0.0
 10
86.75431343132927
 20
-147.9054395729754
 30
0.0
 10
86.6894016419812
 20
-147.6401510717258
 30
0.0
 10
86.74372918289508
 20
-147.3332361276836
 30
0.0
 10
86.7980580695494
 20
-147.0263184921605
 30
0.0
 10
86.95045778959728
 20
-146.7991305937934
 30
0.0
 10
87.20022452079705
 20
-146.6523749090834
 30
0.0
 10
87.44857957029211
 20
-146.5063243923556
 30
0.0
 10
87.73785724033834
 20
-146.4548175233703
 30
0.0
 10
88.06946921264043
 20
-146.4992673295726
 30
0.0
  0
HATCH
  5
1D7
330
1D0
100
AcDbEntity
  8
Capa 1
 62
   250
420
  2236961
100
AcDbHatch
 10
0.0
 20
0.0
 30
0.0
210
0.0
220
0.0
230
1.0
  2
SOLID
 70
     1
 71
     0
 91
        3
 92
        1
 93
        1
 72
     4
 94
        3
 73
     0
 74
     1
 95
       20
 96
       16
 40
0.0
 40
0.0
 40
0.0
 40
0.0
 40
1.0
 40
1.0
 40
1.0
 40
2.0
 40
2.0
 40
2.0
 40
3.0
 40
3.0
 40
3.0
 40
4.0
 40
4.0
 40
4.0
 40
5.0
 40
5.0
 40
5.0
 40
5.0
 10
88.01372999002184
 20
-146.8139471958611
 10
87.7837187282453
 20
-146.7836088237438
 10
87.58827953795942
 20
-146.8188860632166
 10
87.42529691521777
 20
-146.9176634103328
 10
87.2623129467357
 20
-147.017145925431
 10
87.16212391791487
 20
-147.1780130442263
 10
87.1226129790684
 20
-147.4002620752379
 10
87.08380720820377
 20
-147.6196904343204
 10
87.1226129790684
 20
-147.8052518898947
 10
87.23903029166136
 20
-147.9555361059961
 10
87.35544625851391
 20
-148.1051124626347
 10
87.5283079617076
 20
-148.2053028371959
 10
87.7583178777437
 20
-148.2568070147004
 10
87.7583178777437
 20
-148.2568070147004
 10
88.01372999002184
 20
-146.8139471958611
 10
88.01372999002184
 20
-146.8139471958611
 97
        0
 97
        0
 92
        1
 93
        2
 72
     4
 94
        3
 73
     0
 74
     0
 95
       20
 96
       16
 40
0.0
 40
0.0
 40
0.0
 40
0.0
 40
0.3527777776895833
 40
0.3527777776895833
 40
0.3527777776895833
 40
0.7055555553791667
 40
0.7055555553791667
 40
0.7055555553791667
 40
1.05833333306875
 40
1.05833333306875
 40
1.05833333306875
 40
1.411111110758333
 40
1.411111110758333
 40
1.411111110758333
 40
1.763888888447917
 40
1.763888888447917
 40
1.763888888447917
 40
1.763888888447917
 10
88.35592351927725
 20
-146.8732136041305
 10
88.35592351927725
 20
-146.8732136041305
 10
88.0998075847574
 20
-148.3196019543616
 10
88.0998075847574
 20
-148.3196019543616
 10
88.33899141326341
 20
-148.3499403264786
 10
88.53654610749571
 20
-148.3139579190237
 10
88.69388469489941
 20
-148.2123572084984
 10
88.85192979602567
 20
-148.1114643574356
 10
88.95070714314181
 20
-147.9505972386403
 10
88.98951291400614
 20
-147.7304637115754
 10
89.02761351688832
 20
-147.5152690518663
 10
88.99092459571084
 20
-147.3318231002384
 10
88.88085783217838
 20
-147.1822467436
 10
88.77008455492336
 20
-147.0319625274985
 10
88.59510734778327
 20
-146.9296566489908
 10
88.35592351927725
 20
-146.8732136041305
 97
        0
 72
     1
 10
88.35592351927725
 20
-146.8732136041305
 11
88.35592351927725
 21
-146.8732136041305
 97
        0
 92
        1
 93
        2
 72
     4
 94
        3
 73
     0
 74
     0
 95
       47
 96
       43
 40
0.0
 40
0.0
 40
0.0
 40
0.0
 40
0.3527777776895833
 40
0.3527777776895833
 40
0.3527777776895833
 40
0.7055555553791667
 40
0.7055555553791667
 40
0.7055555553791667
 40
1.05833333306875
 40
1.05833333306875
 40
1.05833333306875
 40
1.411111110758333
 40
1.411111110758333
 40
1.411111110758333
 40
1.763888888447917
 40
1.763888888447917
 40
1.763888888447917
 40
2.1166666661375
 40
2.1166666661375
 40
2.1166666661375
 40
2.469444443827083
 40
2.469444443827083
 40
2.469444443827083
 40
2.822222221516667
 40
2.822222221516667
 40
2.822222221516667
 40
3.17499999920625
 40
3.17499999920625
 40
3.17499999920625
 40
3.527777776895833
 40
3.527777776895833
 40
3.527777776895833
 40
3.880555554585417
 40
3.880555554585417
 40
3.880555554585417
 40
4.233333332275
 40
4.233333332275
 40
4.233333332275
 40
4.586111109964584
 40
4.586111109964584
 40
4.586111109964584
 40
4.938888887654167
 40
4.938888887654167
 40
4.938888887654167
 40
4.938888887654167
 10
88.06946921264043
 20
-146.4992673295726
 10
88.06946921264043
 20
-146.4992673295726
 10
88.13226280656122
 20
-146.1450792159187
 10
88.13226280656122
 20
-146.1450792159187
 10
88.13226280656122
 20
-146.1450792159187
 10
88.47375251357491
 20
-146.2064638196157
 10
88.47375251357491
 20
-146.2064638196157
 10
88.47375251357491
 20
-146.2064638196157
 10
88.41095757391369
 20
-146.5606519332695
 10
88.41095757391369
 20
-146.5606519332695
 10
88.75950165222929
 20
-146.6403789789446
 10
89.01844095015885
 20
-146.796307230384
 10
89.18847928994313
 20
-147.0249081561963
 10
89.35710729376315
 20
-147.2542142499906
 10
89.41637370203283
 20
-147.5110353524926
 10
89.36627986049263
 20
-147.7967844911473
 10
89.31689118693455
 20
-148.0775974539271
 10
89.17648470554468
 20
-148.297730980992
 10
88.94435793982174
 20
-148.4593032677693
 10
88.71222982835836
 20
-148.6201676950837
 10
88.41236790987828
 20
-148.6780237673891
 10
88.04406836213882
 20
-148.6335739611869
 10
88.04406836213882
 20
-148.6335739611869
 10
87.98127476821803
 20
-148.989880270268
 10
87.98127476821803
 20
-148.989880270268
 10
87.98127476821803
 20
-148.989880270268
 10
87.63907989322219
 20
-148.9299086940162
 10
87.63907989322219
 20
-148.9299086940162
 10
87.63907989322219
 20
-148.9299086940162
 10
87.70187348714299
 20
-148.5728972169529
 10
87.70187348714299
 20
-148.5728972169529
 10
87.37731857762398
 20
-148.5030452145086
 10
87.12331814705054
 20
-148.3548791938344
 10
86.93987354116311
 20
-148.1305119673958
 10
86.75431343132927
 20
-147.9054395729754
 10
86.6894016419812
 20
-147.6401510717258
 10
86.74372918289508
 20
-147.3332361276836
 10
86.7980580695494
 20
-147.0263184921605
 10
86.95045778959728
 20
-146.7991305937934
 10
87.20022452079705
 20
-146.6523749090834
 10
87.44857957029211
 20
-146.5063243923556
 10
87.73785724033834
 20
-146.4548175233703
 10
88.06946921264043
 20
-146.4992673295726
 97
        0
 72
     1
 10
88.06946921264043
 20
-146.4992673295726
 11
88.06946921264043
 21
-146.4992673295726
 97
        0
 75
     2
 76
     1
 98
        0
  0
POLYLINE
  5
1D8
330
1D0
100
AcDbEntity
  8
Capa 1
370
     0
100
AcDb2dPolyline
 66
     1
 10
0.0
 20
0.0
 30
0.0
  0
VERTEX
  5
1D9
330
1D8
100
AcDbEntity
  8
Capa 1
370
     0
100
AcDbVertex
100
AcDb2dVertex
 10
68.98913084528594
 20
-183.045491575468
 30
0.0
  0
VERTEX
  5
1DA
330
1D8
100
AcDbEntity
  8
Capa 1
370
     0
100
AcDbVertex
100
AcDb2dVertex
 10
141.5385838419462
 20
-183.045491575468
 30
0.0
  0
VERTEX
  5
1DB
330
1D8
100
AcDbEntity
  8
Capa 1
370
     0
100
AcDbVertex
100
AcDb2dVertex
 10
141.5385838419462
 20
-113.1228216100385
 30
0.0
  0
VERTEX
  5
1DC
330
1D8
100
AcDbEntity
  8
Capa 1
370
     0
100
AcDbVertex
100
AcDb2dVertex
 10
68.98913084528594
 20
-113.1228216100385
 30
0.0
  0
VERTEX
  5
1DD
330
1D8
100
AcDbEntity
  8
Capa 1
370
     0
100
AcDbVertex
100
AcDb2dVertex
 10
68.98913084528594
 20
-183.045491575468
 30
0.0
  0
SEQEND
  5
1DE
330
1D8
100
AcDbEntity
  8
Capa 1
370
     0
  0
ENDBLK
  5
1D3
330
1D0
100
AcDbEntity
  8
0
100
AcDbBlockEnd
  0
BLOCK
  5
1F6
330
1F4
100
AcDbEntity
  8
0
100
AcDbBlockBegin
  2
block 7
 70
     0
 10
0.0
 20
0.0
 30
0.0
  3
block 7
  1

  0
SPLINE
  5
1F8
330
1F4
100
AcDbEntity
  8
Capa 1
370
     0
100
AcDbSpline
210
0.0
220
0.0
230
1.0
 70
    11
 71
     3
 72
    71
 73
    67
 74
     0
 42
0.0000000001
 43
0.0000000001
 12
1.0
 22
0.0
 32
0.0
 13
1.0
 23
0.0
 33
0.0
 40
0.0
 40
0.0
 40
0.0
 40
0.0
 40
1.0
 40
1.0
 40
1.0
 40
2.0
 40
2.0
 40
2.0
 40
3.0
 40
3.0
 40
3.0
 40
4.0
 40
4.0
 40
4.0
 40
5.0
 40
5.0
 40
5.0
 40
6.0
 40
6.0
 40
6.0
 40
7.0
 40
7.0
 40
7.0
 40
8.0
 40
8.0
 40
8.0
 40
9.0
 40
9.0
 40
9.0
 40
10.0
 40
10.0
 40
10.0
 40
11.0
 40
11.0
 40
11.0
 40
12.0
 40
12.0
 40
12.0
 40
13.0
 40
13.0
 40
13.0
 40
14.0
 40
14.0
 40
14.0
 40
15.0
 40
15.0
 40
15.0
 40
16.0
 40
16.0
 40
16.0
 40
17.0
 40
17.0
 40
17.0
 40
18.0
 40
18.0
 40
18.0
 40
19.0
 40
19.0
 40
19.0
 40
20.0
 40
20.0
 40
20.0
 40
21.0
 40
21.0
 40
21.0
 40
22.0
 40
22.0
 40
22.0
 40
22.0
 10
93.42019235074773
 20
-149.6164812349755
 30
0.0
 10
93.42019235074773
 20
-149.6164812349755
 30
0.0
 10
93.36233627844231
 20
-149.9424491719396
 30
0.0
 10
93.36233627844231
 20
-149.9424491719396
 30
0.0
 10
93.36233627844231
 20
-149.9424491719396
 30
0.0
 10
91.53706413203787
 20
-149.6193045983848
 30
0.0
 10
91.53706413203787
 20
-149.6193045983848
 30
0.0
 10
91.54976388441845
 20
-149.5374593572825
 30
0.0
 10
91.5765737251439
 20
-149.461260842999
 30
0.0
 10
91.61820285941762
 20
-149.3907036725726
 30
0.0
 10
91.68734700239892
 20
-149.2749942194426
 30
0.0
 10
91.78330098610569
 20
-149.1656312781519
 30
0.0
 10
91.90748052946385
 20
-149.063328091125
 30
0.0
 10
92.03095221335903
 20
-148.9610222126173
 30
0.0
 10
92.20310740283016
 20
-148.8481334314159
 30
0.0
 10
92.42394609787722
 20
-148.7232487200756
 30
0.0
 10
92.76825647681946
 20
-148.5306328931991
 30
0.0
 10
93.0060299693612
 20
-148.3718812783503
 30
0.0
 10
93.13726388402158
 20
-148.2462940905087
 30
0.0
 10
93.26849779868198
 20
-148.1214093791684
 30
0.0
 10
93.34399114498336
 20
-147.9951170233446
 30
0.0
 10
93.36727514579812
 20
-147.8667037806128
 30
0.0
 10
93.39055645513204
 20
-147.7326491940239
 30
0.0
 10
93.36233627844231
 20
-147.610587846093
 30
0.0
 10
93.28331440074939
 20
-147.5012275962831
 30
0.0
 10
93.20358466359349
 20
-147.3925725144553
 30
0.0
 10
93.08646218301838
 20
-147.3241335394561
 30
0.0
 10
92.93194695902409
 20
-147.2959106712856
 30
0.0
 10
92.76896433628244
 20
-147.2669826351328
 30
0.0
 10
92.62855785489258
 20
-147.2930873078762
 30
0.0
 10
92.51355087826389
 20
-147.3735222130142
 30
0.0
 10
92.39925176109817
 20
-147.4539544266714
 30
0.0
 10
92.3258739187432
 20
-147.5809546419581
 30
0.0
 10
92.29342004267981
 20
-147.7538149994117
 30
0.0
 10
92.29342004267981
 20
-147.7538149994117
 30
0.0
 10
91.95122516768399
 20
-147.6571558477225
 30
0.0
 10
91.95122516768399
 20
-147.6571558477225
 30
0.0
 10
92.02036931066529
 20
-147.4010372217221
 30
0.0
 10
92.14525133052474
 20
-147.2190042975394
 30
0.0
 10
92.32516875076107
 20
-147.1103492157113
 30
0.0
 10
92.50579133897953
 20
-147.0016941338835
 30
0.0
 10
92.72663003402658
 20
-146.9706479023036
 30
0.0
 10
92.98839000388438
 20
-147.016510735951
 30
0.0
 10
93.25438636459668
 20
-147.0630760460996
 30
0.0
 10
93.45053072286471
 20
-147.1745544913368
 30
0.0
 10
93.5789412741157
 20
-147.348122708253
 30
0.0
 10
93.70805699334883
 20
-147.5230985696527
 30
0.0
 10
93.7525067995511
 20
-147.7185377599386
 30
0.0
 10
93.71440888814976
 20
-147.9358479235941
 30
0.0
 10
93.69465341872653
 20
-148.0466212008491
 30
0.0
 10
93.65302428445281
 20
-148.1510425833032
 30
0.0
 10
93.58952417680945
 20
-148.2498226219005
 30
0.0
 10
93.52531890118395
 20
-148.3485999690164
 30
0.0
 10
93.43007008545935
 20
-148.4473773161325
 30
0.0
 10
93.30306987017262
 20
-148.5468598312308
 30
0.0
 10
93.17747999085019
 20
-148.6463423463291
 30
0.0
 10
92.97569159724422
 20
-148.7775762609895
 30
0.0
 10
92.69487863446449
 20
-148.939853715749
 30
0.0
 10
92.46134153277727
 20
-149.075321329783
 30
0.0
 10
92.3096469807115
 20
-149.1677494735791
 30
0.0
 10
92.24191317369448
 20
-149.2185484831014
 30
0.0
 10
92.17347419869532
 20
-149.2700553520868
 30
0.0
 10
92.11491295840776
 20
-149.3222646975734
 30
0.0
 10
92.06622945283182
 20
-149.3765949299681
 30
0.0
 10
92.06622945283182
 20
-149.3765949299681
 30
0.0
 10
93.42019235074773
 20
-149.6164812349755
 30
0.0
 10
93.42019235074773
 20
-149.6164812349755
 30
0.0
  0
HATCH
  5
1F9
330
1F4
100
AcDbEntity
  8
Capa 1
 62
   250
420
  2236961
100
AcDbHatch
 10
0.0
 20
0.0
 30
0.0
210
0.0
220
0.0
230
1.0
  2
SOLID
 70
     1
 71
     0
 91
        1
 92
        1
 93
        1
 72
     4
 94
        3
 73
     0
 74
     1
 95
       71
 96
       67
 40
0.0
 40
0.0
 40
0.0
 40
0.0
 40
1.0
 40
1.0
 40
1.0
 40
2.0
 40
2.0
 40
2.0
 40
3.0
 40
3.0
 40
3.0
 40
4.0
 40
4.0
 40
4.0
 40
5.0
 40
5.0
 40
5.0
 40
6.0
 40
6.0
 40
6.0
 40
7.0
 40
7.0
 40
7.0
 40
8.0
 40
8.0
 40
8.0
 40
9.0
 40
9.0
 40
9.0
 40
10.0
 40
10.0
 40
10.0
 40
11.0
 40
11.0
 40
11.0
 40
12.0
 40
12.0
 40
12.0
 40
13.0
 40
13.0
 40
13.0
 40
14.0
 40
14.0
 40
14.0
 40
15.0
 40
15.0
 40
15.0
 40
16.0
 40
16.0
 40
16.0
 40
17.0
 40
17.0
 40
17.0
 40
18.0
 40
18.0
 40
18.0
 40
19.0
 40
19.0
 40
19.0
 40
20.0
 40
20.0
 40
20.0
 40
21.0
 40
21.0
 40
21.0
 40
22.0
 40
22.0
 40
22.0
 40
22.0
 10
93.42019235074773
 20
-149.6164812349755
 10
93.42019235074773
 20
-149.6164812349755
 10
93.36233627844231
 20
-149.9424491719396
 10
93.36233627844231
 20
-149.9424491719396
 10
93.36233627844231
 20
-149.9424491719396
 10
91.53706413203787
 20
-149.6193045983848
 10
91.53706413203787
 20
-149.6193045983848
 10
91.54976388441845
 20
-149.5374593572825
 10
91.5765737251439
 20
-149.461260842999
 10
91.61820285941762
 20
-149.3907036725726
 10
91.68734700239892
 20
-149.2749942194426
 10
91.78330098610569
 20
-149.1656312781519
 10
91.90748052946385
 20
-149.063328091125
 10
92.03095221335903
 20
-148.9610222126173
 10
92.20310740283016
 20
-148.8481334314159
 10
92.42394609787722
 20
-148.7232487200756
 10
92.76825647681946
 20
-148.5306328931991
 10
93.0060299693612
 20
-148.3718812783503
 10
93.13726388402158
 20
-148.2462940905087
 10
93.26849779868198
 20
-148.1214093791684
 10
93.34399114498336
 20
-147.9951170233446
 10
93.36727514579812
 20
-147.8667037806128
 10
93.39055645513204
 20
-147.7326491940239
 10
93.36233627844231
 20
-147.610587846093
 10
93.28331440074939
 20
-147.5012275962831
 10
93.20358466359349
 20
-147.3925725144553
 10
93.08646218301838
 20
-147.3241335394561
 10
92.93194695902409
 20
-147.2959106712856
 10
92.76896433628244
 20
-147.2669826351328
 10
92.62855785489258
 20
-147.2930873078762
 10
92.51355087826389
 20
-147.3735222130142
 10
92.39925176109817
 20
-147.4539544266714
 10
92.3258739187432
 20
-147.5809546419581
 10
92.29342004267981
 20
-147.7538149994117
 10
92.29342004267981
 20
-147.7538149994117
 10
91.95122516768399
 20
-147.6571558477225
 10
91.95122516768399
 20
-147.6571558477225
 10
92.02036931066529
 20
-147.4010372217221
 10
92.14525133052474
 20
-147.2190042975394
 10
92.32516875076107
 20
-147.1103492157113
 10
92.50579133897953
 20
-147.0016941338835
 10
92.72663003402658
 20
-146.9706479023036
 10
92.98839000388438
 20
-147.016510735951
 10
93.25438636459668
 20
-147.0630760460996
 10
93.45053072286471
 20
-147.1745544913368
 10
93.5789412741157
 20
-147.348122708253
 10
93.70805699334883
 20
-147.5230985696527
 10
93.7525067995511
 20
-147.7185377599386
 10
93.71440888814976
 20
-147.9358479235941
 10
93.69465341872653
 20
-148.0466212008491
 10
93.65302428445281
 20
-148.1510425833032
 10
93.58952417680945
 20
-148.2498226219005
 10
93.52531890118395
 20
-148.3485999690164
 10
93.43007008545935
 20
-148.4473773161325
 10
93.30306987017262
 20
-148.5468598312308
 10
93.17747999085019
 20
-148.6463423463291
 10
92.97569159724422
 20
-148.7775762609895
 10
92.69487863446449
 20
-148.939853715749
 10
92.46134153277727
 20
-149.075321329783
 10
92.3096469807115
 20
-149.1677494735791
 10
92.24191317369448
 20
-149.2185484831014
 10
92.17347419869532
 20
-149.2700553520868
 10
92.11491295840776
 20
-149.3222646975734
 10
92.06622945283182
 20
-149.3765949299681
 10
92.06622945283182
 20
-149.3765949299681
 10
93.42019235074773
 20
-149.6164812349755
 10
93.42019235074773
 20
-149.6164812349755
 97
        0
 97
        0
 75
     2
 76
     1
 98
        0
  0
POLYLINE
  5
1FA
330
1F4
100
AcDbEntity
  8
Capa 1
370
     0
100
AcDb2dPolyline
 66
     1
 10
0.0
 20
0.0
 30
0.0
  0
VERTEX
  5
1FB
330
1FA
100
AcDbEntity
  8
Capa 1
370
     0
100
AcDbVertex
100
AcDb2dVertex
 10
68.98913084528594
 20
-183.045491575468
 30
0.0
  0
VERTEX
  5
1FC
330
1FA
100
AcDbEntity
  8
Capa 1
370
     0
100
AcDbVertex
100
AcDb2dVertex
 10
141.5385838419462
 20
-183.045491575468
 30
0.0
  0
VERTEX
  5
1FD
330
1FA
100
AcDbEntity
  8
Capa 1
370
     0
100
AcDbVertex
100
AcDb2dVertex
 10
141.5385838419462
 20
-113.1228216100385
 30
0.0
  0
VERTEX
  5
1FE
330
1FA
100
AcDbEntity
  8
Capa 1
370
     0
100
AcDbVertex
100
AcDb2dVertex
 10
68.98913084528594
 20
-113.1228216100385
 30
0.0
  0
VERTEX
  5
1FF
330
1FA
100
AcDbEntity
  8
Capa 1
370
     0
100
AcDbVertex
100
AcDb2dVertex
 10
68.98913084528594
 20
-183.045491575468
 30
0.0
  0
SEQEND
  5
200
330
1FA
100
AcDbEntity
  8
Capa 1
370
     0
  0
ENDBLK
  5
1F7
330
1F4
100
AcDbEntity
  8
0
100
AcDbBlockEnd
  0
BLOCK
  5
23E
330
23C
100
AcDbEntity
  8
0
100
AcDbBlockBegin
  2
block 8
 70
     0
 10
0.0
 20
0.0
 30
0.0
  3
block 8
  1

  0
SPLINE
  5
240
330
23C
100
AcDbEntity
  8
Capa 1
370
     0
100
AcDbSpline
210
0.0
220
0.0
230
1.0
 70
    11
 71
     3
 72
    20
 73
    16
 74
     0
 42
0.0000000001
 43
0.0000000001
 12
1.0
 22
0.0
 32
0.0
 13
1.0
 23
0.0
 33
0.0
 40
0.0
 40
0.0
 40
0.0
 40
0.0
 40
1.0
 40
1.0
 40
1.0
 40
2.0
 40
2.0
 40
2.0
 40
3.0
 40
3.0
 40
3.0
 40
4.0
 40
4.0
 40
4.0
 40
5.0
 40
5.0
 40
5.0
 40
5.0
 10
115.5360420308877
 20
-145.6107610550415
 30
0.0
 10
115.5247539602118
 20
-145.3786315978377
 30
0.0
 10
115.4556098172305
 20
-145.1923649742813
 30
0.0
 10
115.3293147699259
 20
-145.0498429889451
 30
0.0
 10
115.2023145546392
 20
-144.9080261715909
 30
0.0
 10
115.0259256657944
 20
-144.8367665246635
 30
0.0
 10
114.8001481033916
 20
-144.8381768606275
 30
0.0
 10
114.5771912129172
 20
-144.8381768606275
 30
0.0
 10
114.4015074920546
 20
-144.9101443670182
 30
0.0
 10
114.27521244475
 20
-145.0526663523545
 30
0.0
 10
114.1482122294633
 20
-145.1923649742813
 30
0.0
 10
114.079775945945
 20
-145.3814549612472
 30
0.0
 10
114.0698982112334
 20
-145.6164050903795
 30
0.0
 10
114.0698982112334
 20
-145.6164050903795
 30
0.0
 10
115.5360420308877
 20
-145.6107610550415
 30
0.0
 10
115.5360420308877
 20
-145.6107610550415
 30
0.0
  0
SPLINE
  5
241
330
23C
100
AcDbEntity
  8
Capa 1
370
     0
100
AcDbSpline
210
0.0
220
0.0
230
1.0
 70
    11
 71
     3
 72
    20
 73
    16
 74
     0
 42
0.0000000001
 43
0.0000000001
 12
1.0
 22
0.0
 32
0.0
 13
1.0
 23
0.0
 33
0.0
 40
0.0
 40
0.0
 40
0.0
 40
0.0
 40
1.0
 40
1.0
 40
1.0
 40
2.0
 40
2.0
 40
2.0
 40
3.0
 40
3.0
 40
3.0
 40
4.0
 40
4.0
 40
4.0
 40
5.0
 40
5.0
 40
5.0
 40
5.0
 10
115.5388627028163
 20
-145.9578947973932
 30
0.0
 10
115.5388627028163
 20
-145.9578947973932
 30
0.0
 10
114.0698982112334
 20
-145.9635388327311
 30
0.0
 10
114.0698982112334
 20
-145.9635388327311
 30
0.0
 10
114.0818941413722
 20
-146.2048381651836
 30
0.0
 10
114.1524486203178
 20
-146.3918099567221
 30
0.0
 10
114.2808591715688
 20
-146.5293930747026
 30
0.0
 10
114.4085645548377
 20
-146.6662710247009
 30
0.0
 10
114.5842482757003
 20
-146.7347099997004
 30
0.0
 10
114.8079103341568
 20
-146.7347099997004
 30
0.0
 10
115.0266308337766
 20
-146.7332996637358
 30
0.0
 10
115.2001990506928
 20
-146.6641555207545
 30
0.0
 10
115.3279044339617
 20
-146.5293930747026
 30
0.0
 10
115.4556098172305
 20
-146.3939281521494
 30
0.0
 10
115.525459128194
 20
-146.2034278292193
 30
0.0
 10
115.5388627028163
 20
-145.9578947973932
 30
0.0
  0
SPLINE
  5
242
330
23C
100
AcDbEntity
  8
Capa 1
370
     0
100
AcDbSpline
210
0.0
220
0.0
230
1.0
 70
    11
 71
     3
 72
    47
 73
    43
 74
     0
 42
0.0000000001
 43
0.0000000001
 12
1.0
 22
0.0
 32
0.0
 13
1.0
 23
0.0
 33
0.0
 40
0.0
 40
0.0
 40
0.0
 40
0.0
 40
1.0
 40
1.0
 40
1.0
 40
2.0
 40
2.0
 40
2.0
 40
3.0
 40
3.0
 40
3.0
 40
4.0
 40
4.0
 40
4.0
 40
5.0
 40
5.0
 40
5.0
 40
6.0
 40
6.0
 40
6.0
 40
7.0
 40
7.0
 40
7.0
 40
8.0
 40
8.0
 40
8.0
 40
9.0
 40
9.0
 40
9.0
 40
10.0
 40
10.0
 40
10.0
 40
11.0
 40
11.0
 40
11.0
 40
12.0
 40
12.0
 40
12.0
 40
13.0
 40
13.0
 40
13.0
 40
14.0
 40
14.0
 40
14.0
 40
14.0
 10
115.8549555965496
 20
-145.6093480275964
 30
0.0
 10
115.8549555965496
 20
-145.6093480275964
 30
0.0
 10
116.2147850540606
 20
-145.6079376916321
 30
0.0
 10
116.2147850540606
 20
-145.6079376916321
 30
0.0
 10
116.2147850540606
 20
-145.6079376916321
 30
0.0
 10
116.2161953900249
 20
-145.9557766019659
 30
0.0
 10
116.2161953900249
 20
-145.9557766019659
 30
0.0
 10
116.2161953900249
 20
-145.9557766019659
 30
0.0
 10
115.8563659325139
 20
-145.9578947973932
 30
0.0
 10
115.8563659325139
 20
-145.9578947973932
 30
0.0
 10
115.8387259670371
 20
-146.3149035829756
 30
0.0
 10
115.7321863891557
 20
-146.5964217137375
 30
0.0
 10
115.537452366852
 20
-146.8045593106638
 30
0.0
 10
115.3427183445482
 20
-147.0112892631061
 30
0.0
 10
115.1000059846507
 20
-147.1157106455602
 30
0.0
 10
114.809320670121
 20
-147.1171209815245
 30
0.0
 10
114.5242766994485
 20
-147.1171209815245
 30
0.0
 10
114.2829746755152
 20
-147.0190488023905
 30
0.0
 10
114.0825993093544
 20
-146.8193759127309
 30
0.0
 10
113.8829264196948
 20
-146.6197057145522
 30
0.0
 10
113.7721531424398
 20
-146.3339538844167
 30
0.0
 10
113.7502821690702
 20
-145.9649491686957
 30
0.0
 10
113.7502821690702
 20
-145.9649491686957
 30
0.0
 10
113.3890369926332
 20
-145.9663595046597
 30
0.0
 10
113.3890369926332
 20
-145.9663595046597
 30
0.0
 10
113.3890369926332
 20
-145.9663595046597
 30
0.0
 10
113.387626656669
 20
-145.6185205943259
 30
0.0
 10
113.387626656669
 20
-145.6185205943259
 30
0.0
 10
113.387626656669
 20
-145.6185205943259
 30
0.0
 10
113.7488718331059
 20
-145.6164050903795
 30
0.0
 10
113.7488718331059
 20
-145.6164050903795
 30
0.0
 10
113.7608650717639
 20
-145.2847931180774
 30
0.0
 10
113.8610554463252
 20
-145.0096268821165
 30
0.0
 10
114.049437573828
 20
-144.7880830190873
 30
0.0
 10
114.23781700985
 20
-144.565833988076
 30
0.0
 10
114.4875864325306
 20
-144.455765878803
 30
0.0
 10
114.7987377674273
 20
-144.4543555428388
 30
0.0
 10
115.1112994382883
 20
-144.4529425153937
 30
0.0
 10
115.3617686459893
 20
-144.5616002887023
 30
0.0
 10
115.5501507734921
 20
-144.7803207883221
 30
0.0
 10
115.7378331159745
 20
-145.000454315387
 30
0.0
 10
115.8401363030014
 20
-145.2756205513479
 30
0.0
 10
115.8549555965496
 20
-145.6093480275964
 30
0.0
  0
HATCH
  5
243
330
23C
100
AcDbEntity
  8
Capa 1
 62
   250
420
  2236961
100
AcDbHatch
 10
0.0
 20
0.0
 30
0.0
210
0.0
220
0.0
230
1.0
  2
SOLID
 70
     1
 71
     0
 91
        3
 92
        1
 93
        1
 72
     4
 94
        3
 73
     0
 74
     1
 95
       20
 96
       16
 40
0.0
 40
0.0
 40
0.0
 40
0.0
 40
1.0
 40
1.0
 40
1.0
 40
2.0
 40
2.0
 40
2.0
 40
3.0
 40
3.0
 40
3.0
 40
4.0
 40
4.0
 40
4.0
 40
5.0
 40
5.0
 40
5.0
 40
5.0
 10
115.5360420308877
 20
-145.6107610550415
 10
115.5247539602118
 20
-145.3786315978377
 10
115.4556098172305
 20
-145.1923649742813
 10
115.3293147699259
 20
-145.0498429889451
 10
115.2023145546392
 20
-144.9080261715909
 10
115.0259256657944
 20
-144.8367665246635
 10
114.8001481033916
 20
-144.8381768606275
 10
114.5771912129172
 20
-144.8381768606275
 10
114.4015074920546
 20
-144.9101443670182
 10
114.27521244475
 20
-145.0526663523545
 10
114.1482122294633
 20
-145.1923649742813
 10
114.079775945945
 20
-145.3814549612472
 10
114.0698982112334
 20
-145.6164050903795
 10
114.0698982112334
 20
-145.6164050903795
 10
115.5360420308877
 20
-145.6107610550415
 10
115.5360420308877
 20
-145.6107610550415
 97
        0
 97
        0
 92
        1
 93
        2
 72
     4
 94
        3
 73
     0
 74
     0
 95
       20
 96
       16
 40
0.0
 40
0.0
 40
0.0
 40
0.0
 40
0.3527777776895833
 40
0.3527777776895833
 40
0.3527777776895833
 40
0.7055555553791667
 40
0.7055555553791667
 40
0.7055555553791667
 40
1.05833333306875
 40
1.05833333306875
 40
1.05833333306875
 40
1.411111110758333
 40
1.411111110758333
 40
1.411111110758333
 40
1.763888888447917
 40
1.763888888447917
 40
1.763888888447917
 40
1.763888888447917
 10
115.5388627028163
 20
-145.9578947973932
 10
115.5388627028163
 20
-145.9578947973932
 10
114.0698982112334
 20
-145.9635388327311
 10
114.0698982112334
 20
-145.9635388327311
 10
114.0818941413722
 20
-146.2048381651836
 10
114.1524486203178
 20
-146.3918099567221
 10
114.2808591715688
 20
-146.5293930747026
 10
114.4085645548377
 20
-146.6662710247009
 10
114.5842482757003
 20
-146.7347099997004
 10
114.8079103341568
 20
-146.7347099997004
 10
115.0266308337766
 20
-146.7332996637358
 10
115.2001990506928
 20
-146.6641555207545
 10
115.3279044339617
 20
-146.5293930747026
 10
115.4556098172305
 20
-146.3939281521494
 10
115.525459128194
 20
-146.2034278292193
 10
115.5388627028163
 20
-145.9578947973932
 97
        0
 72
     1
 10
115.5388627028163
 20
-145.9578947973932
 11
115.5388627028163
 21
-145.9578947973932
 97
        0
 92
        1
 93
        2
 72
     4
 94
        3
 73
     0
 74
     0
 95
       47
 96
       43
 40
0.0
 40
0.0
 40
0.0
 40
0.0
 40
0.3527777776895833
 40
0.3527777776895833
 40
0.3527777776895833
 40
0.7055555553791667
 40
0.7055555553791667
 40
0.7055555553791667
 40
1.05833333306875
 40
1.05833333306875
 40
1.05833333306875
 40
1.411111110758333
 40
1.411111110758333
 40
1.411111110758333
 40
1.763888888447917
 40
1.763888888447917
 40
1.763888888447917
 40
2.1166666661375
 40
2.1166666661375
 40
2.1166666661375
 40
2.469444443827083
 40
2.469444443827083
 40
2.469444443827083
 40
2.822222221516667
 40
2.822222221516667
 40
2.822222221516667
 40
3.17499999920625
 40
3.17499999920625
 40
3.17499999920625
 40
3.527777776895833
 40
3.527777776895833
 40
3.527777776895833
 40
3.880555554585417
 40
3.880555554585417
 40
3.880555554585417
 40
4.233333332275
 40
4.233333332275
 40
4.233333332275
 40
4.586111109964584
 40
4.586111109964584
 40
4.586111109964584
 40
4.938888887654167
 40
4.938888887654167
 40
4.938888887654167
 40
4.938888887654167
 10
115.8549555965496
 20
-145.6093480275964
 10
115.8549555965496
 20
-145.6093480275964
 10
116.2147850540606
 20
-145.6079376916321
 10
116.2147850540606
 20
-145.6079376916321
 10
116.2147850540606
 20
-145.6079376916321
 10
116.2161953900249
 20
-145.9557766019659
 10
116.2161953900249
 20
-145.9557766019659
 10
116.2161953900249
 20
-145.9557766019659
 10
115.8563659325139
 20
-145.9578947973932
 10
115.8563659325139
 20
-145.9578947973932
 10
115.8387259670371
 20
-146.3149035829756
 10
115.7321863891557
 20
-146.5964217137375
 10
115.537452366852
 20
-146.8045593106638
 10
115.3427183445482
 20
-147.0112892631061
 10
115.1000059846507
 20
-147.1157106455602
 10
114.809320670121
 20
-147.1171209815245
 10
114.5242766994485
 20
-147.1171209815245
 10
114.2829746755152
 20
-147.0190488023905
 10
114.0825993093544
 20
-146.8193759127309
 10
113.8829264196948
 20
-146.6197057145522
 10
113.7721531424398
 20
-146.3339538844167
 10
113.7502821690702
 20
-145.9649491686957
 10
113.7502821690702
 20
-145.9649491686957
 10
113.3890369926332
 20
-145.9663595046597
 10
113.3890369926332
 20
-145.9663595046597
 10
113.3890369926332
 20
-145.9663595046597
 10
113.387626656669
 20
-145.6185205943259
 10
113.387626656669
 20
-145.6185205943259
 10
113.387626656669
 20
-145.6185205943259
 10
113.7488718331059
 20
-145.6164050903795
 10
113.7488718331059
 20
-145.6164050903795
 10
113.7608650717639
 20
-145.2847931180774
 10
113.8610554463252
 20
-145.0096268821165
 10
114.049437573828
 20
-144.7880830190873
 10
114.23781700985
 20
-144.565833988076
 10
114.4875864325306
 20
-144.455765878803
 10
114.7987377674273
 20
-144.4543555428388
 10
115.1112994382883
 20
-144.4529425153937
 10
115.3617686459893
 20
-144.5616002887023
 10
115.5501507734921
 20
-144.7803207883221
 10
115.7378331159745
 20
-145.000454315387
 10
115.8401363030014
 20
-145.2756205513479
 10
115.8549555965496
 20
-145.6093480275964
 97
        0
 72
     1
 10
115.8549555965496
 20
-145.6093480275964
 11
115.8549555965496
 21
-145.6093480275964
 97
        0
 75
     2
 76
     1
 98
        0
  0
SPLINE
  5
244
330
23C
100
AcDbEntity
  8
Capa 1
370
     0
100
AcDbSpline
210
0.0
220
0.0
230
1.0
 70
    11
 71
     3
 72
    71
 73
    67
 74
     0
 42
0.0000000001
 43
0.0000000001
 12
1.0
 22
0.0
 32
0.0
 13
1.0
 23
0.0
 33
0.0
 40
0.0
 40
0.0
 40
0.0
 40
0.0
 40
1.0
 40
1.0
 40
1.0
 40
2.0
 40
2.0
 40
2.0
 40
3.0
 40
3.0
 40
3.0
 40
4.0
 40
4.0
 40
4.0
 40
5.0
 40
5.0
 40
5.0
 40
6.0
 40
6.0
 40
6.0
 40
7.0
 40
7.0
 40
7.0
 40
8.0
 40
8.0
 40
8.0
 40
9.0
 40
9.0
 40
9.0
 40
10.0
 40
10.0
 40
10.0
 40
11.0
 40
11.0
 40
11.0
 40
12.0
 40
12.0
 40
12.0
 40
13.0
 40
13.0
 40
13.0
 40
14.0
 40
14.0
 40
14.0
 40
15.0
 40
15.0
 40
15.0
 40
16.0
 40
16.0
 40
16.0
 40
17.0
 40
17.0
 40
17.0
 40
18.0
 40
18.0
 40
18.0
 40
19.0
 40
19.0
 40
19.0
 40
20.0
 40
20.0
 40
20.0
 40
21.0
 40
21.0
 40
21.0
 40
22.0
 40
22.0
 40
22.0
 40
22.0
 10
113.7319370356112
 20
-149.2511450076498
 30
0.0
 10
113.7319370356112
 20
-149.2511450076498
 30
0.0
 10
113.4010302312913
 20
-149.2525580350949
 30
0.0
 10
113.4010302312913
 20
-149.2525580350949
 30
0.0
 10
113.4010302312913
 20
-149.2525580350949
 30
0.0
 10
113.3946810279712
 20
-147.3997695342425
 30
0.0
 10
113.3946810279712
 20
-147.3997695342425
 30
0.0
 10
113.4772314370556
 20
-147.3969461708331
 30
0.0
 10
113.5569584827307
 20
-147.4103524369362
 30
0.0
 10
113.6338621649963
 20
-147.4385753051068
 30
0.0
 10
113.7601572123009
 20
-147.4858457832376
 30
0.0
 10
113.8843367556591
 20
-147.5606339615568
 30
0.0
 10
114.0071032715721
 20
-147.6643528675096
 30
0.0
 10
114.1298697874852
 20
-147.7673639139995
 30
0.0
 10
114.2723917728215
 20
-147.9176454386201
 30
0.0
 10
114.433961368118
 20
-148.1123794609238
 30
0.0
 10
114.6851411267629
 20
-148.4178840690018
 30
0.0
 10
114.8834009889773
 20
-148.6232009939993
 30
0.0
 10
115.0301566736872
 20
-148.7290354038988
 30
0.0
 10
115.1762071904151
 20
-148.8355749817802
 30
0.0
 10
115.3144954763777
 20
-148.8877843272664
 30
0.0
 10
115.4450215315751
 20
-148.8877843272664
 30
0.0
 10
115.5818994815734
 20
-148.8877843272664
 30
0.0
 10
115.69620129022
 20
-148.8376904857262
 30
0.0
 10
115.7893319105173
 20
-148.7403234745744
 30
0.0
 10
115.8831730817585
 20
-148.6422512954404
 30
0.0
 10
115.929741083388
 20
-148.5145459121715
 30
0.0
 10
115.9283307474238
 20
-148.3579124927503
 30
0.0
 10
115.9283307474238
 20
-148.1914013386168
 30
0.0
 10
115.8775263549397
 20
-148.0608752834194
 30
0.0
 10
115.7780438398414
 20
-147.9606849088581
 30
0.0
 10
115.6785613247431
 20
-147.8626127297241
 30
0.0
 10
115.5402730387805
 20
-147.8118137202017
 30
0.0
 10
115.3638841499357
 20
-147.8104006927569
 30
0.0
 10
115.3638841499357
 20
-147.8104006927569
 30
0.0
 10
115.3991640808894
 20
-147.4576229150673
 30
0.0
 10
115.3991640808894
 20
-147.4576229150673
 30
0.0
 10
115.6630422461744
 20
-147.4802017478997
 30
0.0
 10
115.8648279482995
 20
-147.5705116962685
 30
0.0
 10
116.0038214022443
 20
-147.7285581431351
 30
0.0
 10
116.1428202391507
 20
-147.886601898521
 30
0.0
 10
116.2126695501142
 20
-148.0975628588564
 30
0.0
 10
116.2133747180963
 20
-148.36426169607
 30
0.0
 10
116.2147850540606
 20
-148.633783896693
 30
0.0
 10
116.1414045202248
 20
-148.8461578844736
 30
0.0
 10
115.9925333315684
 20
-149.0042016398594
 30
0.0
 10
115.843662142912
 20
-149.1615402272631
 30
0.0
 10
115.6588058553199
 20
-149.240562104956
 30
0.0
 10
115.4386750197358
 20
-149.2419751324012
 30
0.0
 10
115.3264887150357
 20
-149.2419751324012
 30
0.0
 10
115.2157181292615
 20
-149.2201014675507
 30
0.0
 10
115.1077682154159
 20
-149.173536157402
 30
0.0
 10
114.9991131335881
 20
-149.1290863511997
 30
0.0
 10
114.8841061569594
 20
-149.0528851454353
 30
0.0
 10
114.7641630044558
 20
-148.946345567554
 30
0.0
 10
114.6442198519521
 20
-148.8405138491356
 30
0.0
 10
114.4784138658011
 20
-148.664830128273
 30
0.0
 10
114.2681553819669
 20
-148.4178840690018
 30
0.0
 10
114.0945925480124
 20
-148.2125698354854
 30
0.0
 10
113.9760570399922
 20
-148.0799228933796
 30
0.0
 10
113.9139699597939
 20
-148.022069512555
 30
0.0
 10
113.8518801881148
 20
-147.9635082722675
 30
0.0
 10
113.7897904164358
 20
-147.9148247666915
 30
0.0
 10
113.7269954767745
 20
-147.8760189958272
 30
0.0
 10
113.7269954767745
 20
-147.8760189958272
 30
0.0
 10
113.7319370356112
 20
-149.2511450076498
 30
0.0
 10
113.7319370356112
 20
-149.2511450076498
 30
0.0
  0
HATCH
  5
245
330
23C
100
AcDbEntity
  8
Capa 1
 62
   250
420
  2236961
100
AcDbHatch
 10
0.0
 20
0.0
 30
0.0
210
0.0
220
0.0
230
1.0
  2
SOLID
 70
     1
 71
     0
 91
        1
 92
        1
 93
        1
 72
     4
 94
        3
 73
     0
 74
     1
 95
       71
 96
       67
 40
0.0
 40
0.0
 40
0.0
 40
0.0
 40
1.0
 40
1.0
 40
1.0
 40
2.0
 40
2.0
 40
2.0
 40
3.0
 40
3.0
 40
3.0
 40
4.0
 40
4.0
 40
4.0
 40
5.0
 40
5.0
 40
5.0
 40
6.0
 40
6.0
 40
6.0
 40
7.0
 40
7.0
 40
7.0
 40
8.0
 40
8.0
 40
8.0
 40
9.0
 40
9.0
 40
9.0
 40
10.0
 40
10.0
 40
10.0
 40
11.0
 40
11.0
 40
11.0
 40
12.0
 40
12.0
 40
12.0
 40
13.0
 40
13.0
 40
13.0
 40
14.0
 40
14.0
 40
14.0
 40
15.0
 40
15.0
 40
15.0
 40
16.0
 40
16.0
 40
16.0
 40
17.0
 40
17.0
 40
17.0
 40
18.0
 40
18.0
 40
18.0
 40
19.0
 40
19.0
 40
19.0
 40
20.0
 40
20.0
 40
20.0
 40
21.0
 40
21.0
 40
21.0
 40
22.0
 40
22.0
 40
22.0
 40
22.0
 10
113.7319370356112
 20
-149.2511450076498
 10
113.7319370356112
 20
-149.2511450076498
 10
113.4010302312913
 20
-149.2525580350949
 10
113.4010302312913
 20
-149.2525580350949
 10
113.4010302312913
 20
-149.2525580350949
 10
113.3946810279712
 20
-147.3997695342425
 10
113.3946810279712
 20
-147.3997695342425
 10
113.4772314370556
 20
-147.3969461708331
 10
113.5569584827307
 20
-147.4103524369362
 10
113.6338621649963
 20
-147.4385753051068
 10
113.7601572123009
 20
-147.4858457832376
 10
113.8843367556591
 20
-147.5606339615568
 10
114.0071032715721
 20
-147.6643528675096
 10
114.1298697874852
 20
-147.7673639139995
 10
114.2723917728215
 20
-147.9176454386201
 10
114.433961368118
 20
-148.1123794609238
 10
114.6851411267629
 20
-148.4178840690018
 10
114.8834009889773
 20
-148.6232009939993
 10
115.0301566736872
 20
-148.7290354038988
 10
115.1762071904151
 20
-148.8355749817802
 10
115.3144954763777
 20
-148.8877843272664
 10
115.4450215315751
 20
-148.8877843272664
 10
115.5818994815734
 20
-148.8877843272664
 10
115.69620129022
 20
-148.8376904857262
 10
115.7893319105173
 20
-148.7403234745744
 10
115.8831730817585
 20
-148.6422512954404
 10
115.929741083388
 20
-148.5145459121715
 10
115.9283307474238
 20
-148.3579124927503
 10
115.9283307474238
 20
-148.1914013386168
 10
115.8775263549397
 20
-148.0608752834194
 10
115.7780438398414
 20
-147.9606849088581
 10
115.6785613247431
 20
-147.8626127297241
 10
115.5402730387805
 20
-147.8118137202017
 10
115.3638841499357
 20
-147.8104006927569
 10
115.3638841499357
 20
-147.8104006927569
 10
115.3991640808894
 20
-147.4576229150673
 10
115.3991640808894
 20
-147.4576229150673
 10
115.6630422461744
 20
-147.4802017478997
 10
115.8648279482995
 20
-147.5705116962685
 10
116.0038214022443
 20
-147.7285581431351
 10
116.1428202391507
 20
-147.886601898521
 10
116.2126695501142
 20
-148.0975628588564
 10
116.2133747180963
 20
-148.36426169607
 10
116.2147850540606
 20
-148.633783896693
 10
116.1414045202248
 20
-148.8461578844736
 10
115.9925333315684
 20
-149.0042016398594
 10
115.843662142912
 20
-149.1615402272631
 10
115.6588058553199
 20
-149.240562104956
 10
115.4386750197358
 20
-149.2419751324012
 10
115.3264887150357
 20
-149.2419751324012
 10
115.2157181292615
 20
-149.2201014675507
 10
115.1077682154159
 20
-149.173536157402
 10
114.9991131335881
 20
-149.1290863511997
 10
114.8841061569594
 20
-149.0528851454353
 10
114.7641630044558
 20
-148.946345567554
 10
114.6442198519521
 20
-148.8405138491356
 10
114.4784138658011
 20
-148.664830128273
 10
114.2681553819669
 20
-148.4178840690018
 10
114.0945925480124
 20
-148.2125698354854
 10
113.9760570399922
 20
-148.0799228933796
 10
113.9139699597939
 20
-148.022069512555
 10
113.8518801881148
 20
-147.9635082722675
 10
113.7897904164358
 20
-147.9148247666915
 10
113.7269954767745
 20
-147.8760189958272
 10
113.7269954767745
 20
-147.8760189958272
 10
113.7319370356112
 20
-149.2511450076498
 10
113.7319370356112
 20
-149.2511450076498
 97
        0
 97
        0
 75
     2
 76
     1
 98
        0
  0
SPLINE
  5
246
330
23C
100
AcDbEntity
  8
Capa 1
370
     0
100
AcDbSpline
210
0.0
220
0.0
230
1.0
 70
    11
 71
     3
 72
    38
 73
    34
 74
     0
 42
0.0000000001
 43
0.0000000001
 12
1.0
 22
0.0
 32
0.0
 13
1.0
 23
0.0
 33
0.0
 40
0.0
 40
0.0
 40
0.0
 40
0.0
 40
1.0
 40
1.0
 40
1.0
 40
2.0
 40
2.0
 40
2.0
 40
3.0
 40
3.0
 40
3.0
 40
4.0
 40
4.0
 40
4.0
 40
5.0
 40
5.0
 40
5.0
 40
6.0
 40
6.0
 40
6.0
 40
7.0
 40
7.0
 40
7.0
 40
8.0
 40
8.0
 40
8.0
 40
9.0
 40
9.0
 40
9.0
 40
10.0
 40
10.0
 40
10.0
 40
11.0
 40
11.0
 40
11.0
 40
11.0
 10
115.8397110490274
 20
-149.6351089739234
 30
0.0
 10
115.8397110490274
 20
-149.6351089739234
 30
0.0
 10
116.1706124703856
 20
-149.6336986379592
 30
0.0
 10
116.1706124703856
 20
-149.6336986379592
 30
0.0
 10
116.1706124703856
 20
-149.6336986379592
 30
0.0
 10
116.1776695331687
 20
-151.4490943953924
 30
0.0
 10
116.1776695331687
 20
-151.4490943953924
 30
0.0
 10
116.1776695331687
 20
-151.4490943953924
 30
0.0
 10
115.910265527973
 20
-151.4505047313567
 30
0.0
 10
115.910265527973
 20
-151.4505047313567
 30
0.0
 10
115.7190573455799
 20
-151.2720003385655
 30
0.0
 10
115.4657620829886
 20
-151.0963166177028
 30
0.0
 10
115.1503797401991
 20
-150.9227484007866
 30
0.0
 10
114.8349973974095
 20
-150.748477707369
 30
0.0
 10
114.5104424878905
 20
-150.6144204292993
 30
0.0
 10
114.176715011642
 20
-150.5191716135746
 30
0.0
 10
113.9424700504918
 20
-150.4521429745398
 30
0.0
 10
113.6849437800077
 20
-150.4091035043018
 30
0.0
 10
113.4055438446731
 20
-150.3907610623237
 30
0.0
 10
113.4055438446731
 20
-150.3907610623237
 30
0.0
 10
113.404130817228
 20
-150.0365702571889
 30
0.0
 10
113.404130817228
 20
-150.0365702571889
 30
0.0
 10
113.6249722037559
 20
-150.0400987885805
 30
0.0
 10
113.8916710409695
 20
-150.0831382588185
 30
0.0
 10
114.2042327118305
 20
-150.1635704724757
 30
0.0
 10
114.5174995506736
 20
-150.245415713578
 30
0.0
 10
114.8194729358791
 20
-150.3625381941531
 30
0.0
 10
115.1094584653883
 20
-150.5177612776104
 30
0.0
 10
115.4001491628797
 20
-150.6708661656404
 30
0.0
 10
115.6456821947058
 20
-150.8345539563642
 30
0.0
 10
115.8446472249024
 20
-151.0088273412626
 30
0.0
 10
115.8446472249024
 20
-151.0088273412626
 30
0.0
 10
115.8397110490274
 20
-149.6351089739234
 30
0.0
 10
115.8397110490274
 20
-149.6351089739234
 30
0.0
  0
HATCH
  5
247
330
23C
100
AcDbEntity
  8
Capa 1
 62
   250
420
  2236961
100
AcDbHatch
 10
0.0
 20
0.0
 30
0.0
210
0.0
220
0.0
230
1.0
  2
SOLID
 70
     1
 71
     0
 91
        1
 92
        1
 93
        1
 72
     4
 94
        3
 73
     0
 74
     1
 95
       38
 96
       34
 40
0.0
 40
0.0
 40
0.0
 40
0.0
 40
1.0
 40
1.0
 40
1.0
 40
2.0
 40
2.0
 40
2.0
 40
3.0
 40
3.0
 40
3.0
 40
4.0
 40
4.0
 40
4.0
 40
5.0
 40
5.0
 40
5.0
 40
6.0
 40
6.0
 40
6.0
 40
7.0
 40
7.0
 40
7.0
 40
8.0
 40
8.0
 40
8.0
 40
9.0
 40
9.0
 40
9.0
 40
10.0
 40
10.0
 40
10.0
 40
11.0
 40
11.0
 40
11.0
 40
11.0
 10
115.8397110490274
 20
-149.6351089739234
 10
115.8397110490274
 20
-149.6351089739234
 10
116.1706124703856
 20
-149.6336986379592
 10
116.1706124703856
 20
-149.6336986379592
 10
116.1706124703856
 20
-149.6336986379592
 10
116.1776695331687
 20
-151.4490943953924
 10
116.1776695331687
 20
-151.4490943953924
 10
116.1776695331687
 20
-151.4490943953924
 10
115.910265527973
 20
-151.4505047313567
 10
115.910265527973
 20
-151.4505047313567
 10
115.7190573455799
 20
-151.2720003385655
 10
115.4657620829886
 20
-151.0963166177028
 10
115.1503797401991
 20
-150.9227484007866
 10
114.8349973974095
 20
-150.748477707369
 10
114.5104424878905
 20
-150.6144204292993
 10
114.176715011642
 20
-150.5191716135746
 10
113.9424700504918
 20
-150.4521429745398
 10
113.6849437800077
 20
-150.4091035043018
 10
113.4055438446731
 20
-150.3907610623237
 10
113.4055438446731
 20
-150.3907610623237
 10
113.404130817228
 20
-150.0365702571889
 10
113.404130817228
 20
-150.0365702571889
 10
113.6249722037559
 20
-150.0400987885805
 10
113.8916710409695
 20
-150.0831382588185
 10
114.2042327118305
 20
-150.1635704724757
 10
114.5174995506736
 20
-150.245415713578
 10
114.8194729358791
 20
-150.3625381941531
 10
115.1094584653883
 20
-150.5177612776104
 10
115.4001491628797
 20
-150.6708661656404
 10
115.6456821947058
 20
-150.8345539563642
 10
115.8446472249024
 20
-151.0088273412626
 10
115.8446472249024
 20
-151.0088273412626
 10
115.8397110490274
 20
-149.6351089739234
 10
115.8397110490274
 20
-149.6351089739234
 97
        0
 97
        0
 75
     2
 76
     1
 98
        0
  0
POLYLINE
  5
248
330
23C
100
AcDbEntity
  8
Capa 1
370
     0
100
AcDb2dPolyline
 66
     1
 10
0.0
 20
0.0
 30
0.0
  0
VERTEX
  5
249
330
248
100
AcDbEntity
  8
Capa 1
370
     0
100
AcDbVertex
100
AcDb2dVertex
 10
68.98913084528594
 20
-183.045491575468
 30
0.0
  0
VERTEX
  5
24A
330
248
100
AcDbEntity
  8
Capa 1
370
     0
100
AcDbVertex
100
AcDb2dVertex
 10
141.5385838419462
 20
-183.045491575468
 30
0.0
  0
VERTEX
  5
24B
330
248
100
AcDbEntity
  8
Capa 1
370
     0
100
AcDbVertex
100
AcDb2dVertex
 10
141.5385838419462
 20
-113.1228216100385
 30
0.0
  0
VERTEX
  5
24C
330
248
100
AcDbEntity
  8
Capa 1
370
     0
100
AcDbVertex
100
AcDb2dVertex
 10
68.98913084528594
 20
-113.1228216100385
 30
0.0
  0
VERTEX
  5
24D
330
248
100
AcDbEntity
  8
Capa 1
370
     0
100
AcDbVertex
100
AcDb2dVertex
 10
68.98913084528594
 20
-183.045491575468
 30
0.0
  0
SEQEND
  5
24E
330
248
100
AcDbEntity
  8
Capa 1
370
     0
  0
ENDBLK
  5
23F
330
23C
100
AcDbEntity
  8
0
100
AcDbBlockEnd
  0
BLOCK
  5
259
330
257
100
AcDbEntity
  8
0
100
AcDbBlockBegin
  2
block 9
 70
     0
 10
0.0
 20
0.0
 30
0.0
  3
block 9
  1

  0
SPLINE
  5
25B
330
257
100
AcDbEntity
  8
Capa 1
370
     0
100
AcDbSpline
210
0.0
220
0.0
230
1.0
 70
    11
 71
     3
 72
    32
 73
    28
 74
     0
 42
0.0000000001
 43
0.0000000001
 12
1.0
 22
0.0
 32
0.0
 13
1.0
 23
0.0
 33
0.0
 40
0.0
 40
0.0
 40
0.0
 40
0.0
 40
1.0
 40
1.0
 40
1.0
 40
2.0
 40
2.0
 40
2.0
 40
3.0
 40
3.0
 40
3.0
 40
4.0
 40
4.0
 40
4.0
 40
5.0
 40
5.0
 40
5.0
 40
6.0
 40
6.0
 40
6.0
 40
7.0
 40
7.0
 40
7.0
 40
8.0
 40
8.0
 40
8.0
 40
9.0
 40
9.0
 40
9.0
 40
9.0
 10
114.3251663292861
 20
-153.2664603168063
 30
0.0
 10
114.2066281297851
 20
-153.2664603168063
 30
0.0
 10
114.0930368720823
 20
-153.2932728490126
 30
0.0
 10
113.9850869582367
 20
-153.3440718585349
 30
0.0
 10
113.8771370443911
 20
-153.3941657000751
 30
0.0
 10
113.7945866353066
 20
-153.4640177025194
 30
0.0
 10
113.7381435904463
 20
-153.5564458463155
 30
0.0
 10
113.6816978541052
 20
-153.6460506267022
 30
0.0
 10
113.6534776774155
 20
-153.7412994424268
 30
0.0
 10
113.6541828453976
 20
-153.8407846490059
 30
0.0
 10
113.6541828453976
 20
-153.9868324742529
 30
0.0
 10
113.7134492536673
 20
-154.1117171855932
 30
0.0
 10
113.8312769022245
 20
-154.2161385680473
 30
0.0
 10
113.9491045507818
 20
-154.3184444465549
 30
0.0
 10
114.1085586421319
 20
-154.3706564835224
 30
0.0
 10
114.3103470357379
 20
-154.3706564835224
 30
0.0
 10
114.5036707220773
 20
-154.3692434560773
 30
0.0
 10
114.6567729186265
 20
-154.3170341105907
 30
0.0
 10
114.7675488873624
 20
-154.2133178961187
 30
0.0
 10
114.8790246411187
 20
-154.1103068496289
 30
0.0
 10
114.9347652094777
 20
-153.9790729349685
 30
0.0
 10
114.9340600414956
 20
-153.8231446835291
 30
0.0
 10
114.9326497055313
 20
-153.6665112641075
 30
0.0
 10
114.8769091371723
 20
-153.5359825174293
 30
0.0
 10
114.7647228324721
 20
-153.4273274356015
 30
0.0
 10
114.6525419107337
 20
-153.320082689738
 30
0.0
 10
114.5064913940059
 20
-153.2664603168063
 30
0.0
 10
114.3251663292861
 20
-153.2664603168063
 30
0.0
  0
SPLINE
  5
25C
330
257
100
AcDbEntity
  8
Capa 1
370
     0
100
AcDbSpline
210
0.0
220
0.0
230
1.0
 70
    11
 71
     3
 72
    62
 73
    58
 74
     0
 42
0.0000000001
 43
0.0000000001
 12
1.0
 22
0.0
 32
0.0
 13
1.0
 23
0.0
 33
0.0
 40
0.0
 40
0.0
 40
0.0
 40
0.0
 40
1.0
 40
1.0
 40
1.0
 40
2.0
 40
2.0
 40
2.0
 40
3.0
 40
3.0
 40
3.0
 40
4.0
 40
4.0
 40
4.0
 40
5.0
 40
5.0
 40
5.0
 40
6.0
 40
6.0
 40
6.0
 40
7.0
 40
7.0
 40
7.0
 40
8.0
 40
8.0
 40
8.0
 40
9.0
 40
9.0
 40
9.0
 40
10.0
 40
10.0
 40
10.0
 40
11.0
 40
11.0
 40
11.0
 40
12.0
 40
12.0
 40
12.0
 40
13.0
 40
13.0
 40
13.0
 40
14.0
 40
14.0
 40
14.0
 40
15.0
 40
15.0
 40
15.0
 40
16.0
 40
16.0
 40
16.0
 40
17.0
 40
17.0
 40
17.0
 40
18.0
 40
18.0
 40
18.0
 40
19.0
 40
19.0
 40
19.0
 40
19.0
 10
115.5394279137943
 20
-154.6683988608351
 30
0.0
 10
115.5394279137943
 20
-154.6683988608351
 30
0.0
 10
115.5112050456237
 20
-154.3262066773202
 30
0.0
 10
115.5112050456237
 20
-154.3262066773202
 30
0.0
 10
115.6466672766961
 20
-154.2951604457402
 30
0.0
 10
115.7447394558301
 20
-154.2500054715558
 30
0.0
 10
115.8054215830258
 20
-154.1949727626598
 30
0.0
 10
115.9034937621598
 20
-154.1011342828994
 30
0.0
 10
115.9521772677357
 20
-153.9854221382886
 30
0.0
 10
115.9514720997536
 20
-153.8499545242545
 30
0.0
 10
115.9507615488098
 20
-153.7398891064625
 30
0.0
 10
115.9197180087106
 20
-153.6432272632928
 30
0.0
 10
115.8583360964945
 20
-153.5613847136713
 30
0.0
 10
115.7793142188016
 20
-153.4527269403627
 30
0.0
 10
115.6636020741908
 20
-153.3673558593497
 30
0.0
 10
115.5119102136059
 20
-153.3052660876706
 30
0.0
 10
115.3595078020771
 20
-153.2438841754545
 30
0.0
 10
115.1429028064038
 20
-153.2128379438745
 30
0.0
 10
114.8627950116062
 20
-153.2114276079103
 30
0.0
 10
114.9890900589107
 20
-153.2932728490126
 30
0.0
 10
115.0829312301519
 20
-153.3941657000751
 30
0.0
 10
115.1450183103502
 20
-153.5134063760775
 30
0.0
 10
115.2064056055279
 20
-153.6340546965633
 30
0.0
 10
115.2374491456271
 20
-153.7589394079036
 30
0.0
 10
115.2381543136092
 20
-153.890173322564
 30
0.0
 10
115.2388594815913
 20
-154.1208897523227
 30
0.0
 10
115.1548960450618
 20
-154.3156210831455
 30
0.0
 10
114.9869745549643
 20
-154.4779012293859
 30
0.0
 10
114.8183478968847
 20
-154.6401786841454
 30
0.0
 10
114.6003325652471
 20
-154.7206108978026
 30
0.0
 10
114.3322180091075
 20
-154.7220212337669
 30
0.0
 10
114.1565342882449
 20
-154.7220212337669
 30
0.0
 10
113.9928491890019
 20
-154.6846284903477
 30
0.0
 10
113.8418598049183
 20
-154.6105454800106
 30
0.0
 10
113.6901652528525
 20
-154.5343442742462
 30
0.0
 10
113.5737479402596
 20
-154.4306280597743
 30
0.0
 10
113.4933157266024
 20
-154.2993941451139
 30
0.0
 10
113.4121756534822
 20
-154.1667498944892
 30
0.0
 10
113.3712543786715
 20
-154.0164656783877
 30
0.0
 10
113.3705492106893
 20
-153.847133852326
 30
0.0
 10
113.3698440427072
 20
-153.5613847136713
 30
0.0
 10
113.4742654251613
 20
-153.325726725076
 30
0.0
 10
113.6845212175146
 20
-153.1443989688754
 30
0.0
 10
113.89548217785
 20
-152.9630712126748
 30
0.0
 10
114.2426132287208
 20
-152.8706457603595
 30
0.0
 10
114.7273327805338
 20
-152.8692327329144
 30
0.0
 10
115.2691978537083
 20
-152.8678223969501
 30
0.0
 10
115.6636020741908
 20
-152.9658945760842
 30
0.0
 10
115.9105454419812
 20
-153.1655674657437
 30
0.0
 10
116.1257401016903
 20
-153.3377226552148
 30
0.0
 10
116.2336900155359
 20
-153.5733779523293
 30
0.0
 10
116.234395183518
 20
-153.8690048256956
 30
0.0
 10
116.235810902444
 20
-154.0912565481878
 30
0.0
 10
116.1744236072662
 20
-154.2711712769433
 30
0.0
 10
116.0509546148519
 20
-154.4122829263153
 30
0.0
 10
115.9274802394758
 20
-154.5540997436694
 30
0.0
 10
115.757443245432
 20
-154.6387656567003
 30
0.0
 10
115.5394279137943
 20
-154.6683988608351
 30
0.0
  0
HATCH
  5
25D
330
257
100
AcDbEntity
  8
Capa 1
 62
   250
420
  2236961
100
AcDbHatch
 10
0.0
 20
0.0
 30
0.0
210
0.0
220
0.0
230
1.0
  2
SOLID
 70
     1
 71
     0
 91
        2
 92
        1
 93
        2
 72
     4
 94
        3
 73
     0
 74
     0
 95
       32
 96
       28
 40
0.0
 40
0.0
 40
0.0
 40
0.0
 40
0.3527777776895833
 40
0.3527777776895833
 40
0.3527777776895833
 40
0.7055555553791667
 40
0.7055555553791667
 40
0.7055555553791667
 40
1.05833333306875
 40
1.05833333306875
 40
1.05833333306875
 40
1.411111110758333
 40
1.411111110758333
 40
1.411111110758333
 40
1.763888888447917
 40
1.763888888447917
 40
1.763888888447917
 40
2.1166666661375
 40
2.1166666661375
 40
2.1166666661375
 40
2.469444443827083
 40
2.469444443827083
 40
2.469444443827083
 40
2.822222221516667
 40
2.822222221516667
 40
2.822222221516667
 40
3.17499999920625
 40
3.17499999920625
 40
3.17499999920625
 40
3.17499999920625
 10
114.3251663292861
 20
-153.2664603168063
 10
114.2066281297851
 20
-153.2664603168063
 10
114.0930368720823
 20
-153.2932728490126
 10
113.9850869582367
 20
-153.3440718585349
 10
113.8771370443911
 20
-153.3941657000751
 10
113.7945866353066
 20
-153.4640177025194
 10
113.7381435904463
 20
-153.5564458463155
 10
113.6816978541052
 20
-153.6460506267022
 10
113.6534776774155
 20
-153.7412994424268
 10
113.6541828453976
 20
-153.8407846490059
 10
113.6541828453976
 20
-153.9868324742529
 10
113.7134492536673
 20
-154.1117171855932
 10
113.8312769022245
 20
-154.2161385680473
 10
113.9491045507818
 20
-154.3184444465549
 10
114.1085586421319
 20
-154.3706564835224
 10
114.3103470357379
 20
-154.3706564835224
 10
114.5036707220773
 20
-154.3692434560773
 10
114.6567729186265
 20
-154.3170341105907
 10
114.7675488873624
 20
-154.2133178961187
 10
114.8790246411187
 20
-154.1103068496289
 10
114.9347652094777
 20
-153.9790729349685
 10
114.9340600414956
 20
-153.8231446835291
 10
114.9326497055313
 20
-153.6665112641075
 10
114.8769091371723
 20
-153.5359825174293
 10
114.7647228324721
 20
-153.4273274356015
 10
114.6525419107337
 20
-153.320082689738
 10
114.5064913940059
 20
-153.2664603168063
 10
114.3251663292861
 20
-153.2664603168063
 97
        0
 72
     1
 10
114.3251663292861
 20
-153.2664603168063
 11
114.3251663292861
 21
-153.2664603168063
 97
        0
 92
        1
 93
        2
 72
     4
 94
        3
 73
     0
 74
     0
 95
       62
 96
       58
 40
0.0
 40
0.0
 40
0.0
 40
0.0
 40
0.3527777776895833
 40
0.3527777776895833
 40
0.3527777776895833
 40
0.7055555553791667
 40
0.7055555553791667
 40
0.7055555553791667
 40
1.05833333306875
 40
1.05833333306875
 40
1.05833333306875
 40
1.411111110758333
 40
1.411111110758333
 40
1.411111110758333
 40
1.763888888447917
 40
1.763888888447917
 40
1.763888888447917
 40
2.1166666661375
 40
2.1166666661375
 40
2.1166666661375
 40
2.469444443827083
 40
2.469444443827083
 40
2.469444443827083
 40
2.822222221516667
 40
2.822222221516667
 40
2.822222221516667
 40
3.17499999920625
 40
3.17499999920625
 40
3.17499999920625
 40
3.527777776895833
 40
3.527777776895833
 40
3.527777776895833
 40
3.880555554585417
 40
3.880555554585417
 40
3.880555554585417
 40
4.233333332275
 40
4.233333332275
 40
4.233333332275
 40
4.586111109964584
 40
4.586111109964584
 40
4.586111109964584
 40
4.938888887654167
 40
4.938888887654167
 40
4.938888887654167
 40
5.29166666534375
 40
5.29166666534375
 40
5.29166666534375
 40
5.644444443033334
 40
5.644444443033334
 40
5.644444443033334
 40
5.997222220722917
 40
5.997222220722917
 40
5.997222220722917
 40
6.349999998412501
 40
6.349999998412501
 40
6.349999998412501
 40
6.702777776102083
 40
6.702777776102083
 40
6.702777776102083
 40
6.702777776102083
 10
115.5394279137943
 20
-154.6683988608351
 10
115.5394279137943
 20
-154.6683988608351
 10
115.5112050456237
 20
-154.3262066773202
 10
115.5112050456237
 20
-154.3262066773202
 10
115.6466672766961
 20
-154.2951604457402
 10
115.7447394558301
 20
-154.2500054715558
 10
115.8054215830258
 20
-154.1949727626598
 10
115.9034937621598
 20
-154.1011342828994
 10
115.9521772677357
 20
-153.9854221382886
 10
115.9514720997536
 20
-153.8499545242545
 10
115.9507615488098
 20
-153.7398891064625
 10
115.9197180087106
 20
-153.6432272632928
 10
115.8583360964945
 20
-153.5613847136713
 10
115.7793142188016
 20
-153.4527269403627
 10
115.6636020741908
 20
-153.3673558593497
 10
115.5119102136059
 20
-153.3052660876706
 10
115.3595078020771
 20
-153.2438841754545
 10
115.1429028064038
 20
-153.2128379438745
 10
114.8627950116062
 20
-153.2114276079103
 10
114.9890900589107
 20
-153.2932728490126
 10
115.0829312301519
 20
-153.3941657000751
 10
115.1450183103502
 20
-153.5134063760775
 10
115.2064056055279
 20
-153.6340546965633
 10
115.2374491456271
 20
-153.7589394079036
 10
115.2381543136092
 20
-153.890173322564
 10
115.2388594815913
 20
-154.1208897523227
 10
115.1548960450618
 20
-154.3156210831455
 10
114.9869745549643
 20
-154.4779012293859
 10
114.8183478968847
 20
-154.6401786841454
 10
114.6003325652471
 20
-154.7206108978026
 10
114.3322180091075
 20
-154.7220212337669
 10
114.1565342882449
 20
-154.7220212337669
 10
113.9928491890019
 20
-154.6846284903477
 10
113.8418598049183
 20
-154.6105454800106
 10
113.6901652528525
 20
-154.5343442742462
 10
113.5737479402596
 20
-154.4306280597743
 10
113.4933157266024
 20
-154.2993941451139
 10
113.4121756534822
 20
-154.1667498944892
 10
113.3712543786715
 20
-154.0164656783877
 10
113.3705492106893
 20
-153.847133852326
 10
113.3698440427072
 20
-153.5613847136713
 10
113.4742654251613
 20
-153.325726725076
 10
113.6845212175146
 20
-153.1443989688754
 10
113.89548217785
 20
-152.9630712126748
 10
114.2426132287208
 20
-152.8706457603595
 10
114.7273327805338
 20
-152.8692327329144
 10
115.2691978537083
 20
-152.8678223969501
 10
115.6636020741908
 20
-152.9658945760842
 10
115.9105454419812
 20
-153.1655674657437
 10
116.1257401016903
 20
-153.3377226552148
 10
116.2336900155359
 20
-153.5733779523293
 10
116.234395183518
 20
-153.8690048256956
 10
116.235810902444
 20
-154.0912565481878
 10
116.1744236072662
 20
-154.2711712769433
 10
116.0509546148519
 20
-154.4122829263153
 10
115.9274802394758
 20
-154.5540997436694
 10
115.757443245432
 20
-154.6387656567003
 10
115.5394279137943
 20
-154.6683988608351
 97
        0
 72
     1
 10
115.5394279137943
 20
-154.6683988608351
 11
115.5394279137943
 21
-154.6683988608351
 97
        0
 75
     2
 76
     1
 98
        0
  0
POLYLINE
  5
25E
330
257
100
AcDbEntity
  8
Capa 1
370
     0
100
AcDb2dPolyline
 66
     1
 10
0.0
 20
0.0
 30
0.0
  0
VERTEX
  5
25F
330
25E
100
AcDbEntity
  8
Capa 1
370
     0
100
AcDbVertex
100
AcDb2dVertex
 10
68.98913084528594
 20
-183.045491575468
 30
0.0
  0
VERTEX
  5
260
330
25E
100
AcDbEntity
  8
Capa 1
370
     0
100
AcDbVertex
100
AcDb2dVertex
 10
141.5385838419462
 20
-183.045491575468
 30
0.0
  0
VERTEX
  5
261
330
25E
100
AcDbEntity
  8
Capa 1
370
     0
100
AcDbVertex
100
AcDb2dVertex
 10
141.5385838419462
 20
-113.1228216100385
 30
0.0
  0
VERTEX
  5
262
330
25E
100
AcDbEntity
  8
Capa 1
370
     0
100
AcDbVertex
100
AcDb2dVertex
 10
68.98913084528594
 20
-113.1228216100385
 30
0.0
  0
VERTEX
  5
263
330
25E
100
AcDbEntity
  8
Capa 1
370
     0
100
AcDbVertex
100
AcDb2dVertex
 10
68.98913084528594
 20
-183.045491575468
 30
0.0
  0
SEQEND
  5
264
330
25E
100
AcDbEntity
  8
Capa 1
370
     0
  0
ENDBLK
  5
25A
330
257
100
AcDbEntity
  8
0
100
AcDbBlockEnd
  0
BLOCK
  5
283
330
281
100
AcDbEntity
  8
0
100
AcDbBlockBegin
  2
block 10
 70
     0
 10
0.0
 20
0.0
 30
0.0
  3
block 10
  1

  0
POLYLINE
  5
285
330
281
100
AcDbEntity
  8
Capa 1
 62
   250
420
  2236961
370
     9
100
AcDb2dPolyline
 66
     1
 10
0.0
 20
0.0
 30
0.0
  0
VERTEX
  5
286
330
285
100
AcDbEntity
  8
Capa 1
 62
   250
420
  2236961
370
     9
100
AcDbVertex
100
AcDb2dVertex
 10
93.38251431035866
 20
-182.5881504397096
 30
0.0
  0
VERTEX
  5
287
330
285
100
AcDbEntity
  8
Capa 1
 62
   250
420
  2236961
370
     9
100
AcDbVertex
100
AcDb2dVertex
 10
102.7007870470156
 20
-182.5881504397096
 30
0.0
  0
SEQEND
  5
288
330
285
100
AcDbEntity
  8
Capa 1
 62
   250
420
  2236961
370
     9
  0
POLYLINE
  5
289
330
281
100
AcDbEntity
  8
Capa 1
 62
   250
420
  2236961
370
     9
100
AcDb2dPolyline
 66
     1
 10
0.0
 20
0.0
 30
0.0
  0
VERTEX
  5
28A
330
289
100
AcDbEntity
  8
Capa 1
 62
   250
420
  2236961
370
     9
100
AcDbVertex
100
AcDb2dVertex
 10
88.15434775265827
 20
-182.5881504397096
 30
0.0
  0
VERTEX
  5
28B
330
289
100
AcDbEntity
  8
Capa 1
 62
   250
420
  2236961
370
     9
100
AcDbVertex
100
AcDb2dVertex
 10
91.71740276902689
 20
-182.5881504397096
 30
0.0
  0
SEQEND
  5
28C
330
289
100
AcDbEntity
  8
Capa 1
 62
   250
420
  2236961
370
     9
  0
POLYLINE
  5
28D
330
281
100
AcDbEntity
  8
Capa 1
 62
   250
420
  2236961
370
     9
100
AcDb2dPolyline
 66
     1
 10
0.0
 20
0.0
 30
0.0
  0
VERTEX
  5
28E
330
28D
100
AcDbEntity
  8
Capa 1
 62
   250
420
  2236961
370
     9
100
AcDbVertex
100
AcDb2dVertex
 10
93.38251431035866
 20
-179.3136672525349
 30
0.0
  0
VERTEX
  5
28F
330
28D
100
AcDbEntity
  8
Capa 1
 62
   250
420
  2236961
370
     9
100
AcDbVertex
100
AcDb2dVertex
 10
93.38251431035866
 20
-183.0037228206253
 30
0.0
  0
SEQEND
  5
290
330
28D
100
AcDbEntity
  8
Capa 1
 62
   250
420
  2236961
370
     9
  0
POLYLINE
  5
291
330
281
100
AcDbEntity
  8
Capa 1
 62
   250
420
  2236961
370
     9
100
AcDb2dPolyline
 66
     1
 10
0.0
 20
0.0
 30
0.0
  0
VERTEX
  5
292
330
291
100
AcDbEntity
  8
Capa 1
 62
   250
420
  2236961
370
     9
100
AcDbVertex
100
AcDb2dVertex
 10
86.48923755706691
 20
-179.3136672525349
 30
0.0
  0
VERTEX
  5
293
330
291
100
AcDbEntity
  8
Capa 1
 62
   250
420
  2236961
370
     9
100
AcDbVertex
100
AcDb2dVertex
 10
86.48923755706691
 20
-183.0037228206253
 30
0.0
  0
SEQEND
  5
294
330
291
100
AcDbEntity
  8
Capa 1
 62
   250
420
  2236961
370
     9
  0
POLYLINE
  5
295
330
281
100
AcDbEntity
  8
Capa 1
370
     0
100
AcDb2dPolyline
 66
     1
 10
0.0
 20
0.0
 30
0.0
  0
VERTEX
  5
296
330
295
100
AcDbEntity
  8
Capa 1
370
     0
100
AcDbVertex
100
AcDb2dVertex
 10
68.98913084528594
 20
-183.045491575468
 30
0.0
  0
VERTEX
  5
297
330
295
100
AcDbEntity
  8
Capa 1
370
     0
100
AcDbVertex
100
AcDb2dVertex
 10
141.5385838419462
 20
-183.045491575468
 30
0.0
  0
VERTEX
  5
298
330
295
100
AcDbEntity
  8
Capa 1
370
     0
100
AcDbVertex
100
AcDb2dVertex
 10
141.5385838419462
 20
-113.1228216100385
 30
0.0
  0
VERTEX
  5
299
330
295
100
AcDbEntity
  8
Capa 1
370
     0
100
AcDbVertex
100
AcDb2dVertex
 10
68.98913084528594
 20
-113.1228216100385
 30
0.0
  0
VERTEX
  5
29A
330
295
100
AcDbEntity
  8
Capa 1
370
     0
100
AcDbVertex
100
AcDb2dVertex
 10
68.98913084528594
 20
-183.045491575468
 30
0.0
  0
SEQEND
  5
29B
330
295
100
AcDbEntity
  8
Capa 1
370
     0
  0
ENDBLK
  5
284
330
281
100
AcDbEntity
  8
0
100
AcDbBlockEnd
  0
BLOCK
  5
2AC
330
2AA
100
AcDbEntity
  8
0
100
AcDbBlockBegin
  2
block 11
 70
     0
 10
0.0
 20
0.0
 30
0.0
  3
block 11
  1

  0
MTEXT
  5
2AE
330
2AA
100
AcDbEntity
  8
Capa 1
 62
   250
420
  2236961
100
AcDbMText
 10
95.13321123923754
 20
-182.1036132357241
 30
0.0
 40
2.49766666604225
 41
0.0
 46
0.0
 71
     7
 72
     1
  1
\fArial|b1|i0|c0|p34;\W1;G1/
 73
     1
 44
1.0
  0
MTEXT
  5
2AF
330
2AA
100
AcDbEntity
  8
Capa 1
 62
   250
420
  2236961
100
AcDbMText
 10
101.448415773249
 20
-182.1036132357241
 30
0.0
 40
2.49766666604225
 41
0.0
 46
0.0
 71
     7
 72
     1
  1
\fArial|b1|i0|c0|p34;\W1;2
 73
     1
 44
1.0
  0
POLYLINE
  5
2B0
330
2AA
100
AcDbEntity
  8
Capa 1
370
     0
100
AcDb2dPolyline
 66
     1
 10
0.0
 20
0.0
 30
0.0
  0
VERTEX
  5
2B1
330
2B0
100
AcDbEntity
  8
Capa 1
370
     0
100
AcDbVertex
100
AcDb2dVertex
 10
68.98913084528594
 20
-183.045491575468
 30
0.0
  0
VERTEX
  5
2B2
330
2B0
100
AcDbEntity
  8
Capa 1
370
     0
100
AcDbVertex
100
AcDb2dVertex
 10
141.5385838419462
 20
-183.045491575468
 30
0.0
  0
VERTEX
  5
2B3
330
2B0
100
AcDbEntity
  8
Capa 1
370
     0
100
AcDbVertex
100
AcDb2dVertex
 10
141.5385838419462
 20
-113.1228216100385
 30
0.0
  0
VERTEX
  5
2B4
330
2B0
100
AcDbEntity
  8
Capa 1
370
     0
100
AcDbVertex
100
AcDb2dVertex
 10
68.98913084528594
 20
-113.1228216100385
 30
0.0
  0
VERTEX
  5
2B5
330
2B0
100
AcDbEntity
  8
Capa 1
370
     0
100
AcDbVertex
100
AcDb2dVertex
 10
68.98913084528594
 20
-183.045491575468
 30
0.0
  0
SEQEND
  5
2B6
330
2B0
100
AcDbEntity
  8
Capa 1
370
     0
  0
ENDBLK
  5
2AD
330
2AA
100
AcDbEntity
  8
0
100
AcDbBlockEnd
  0
BLOCK
  5
2D3
330
2D1
100
AcDbEntity
  8
0
100
AcDbBlockBegin
  2
block 12
 70
     0
 10
0.0
 20
0.0
 30
0.0
  3
block 12
  1

  0
MTEXT
  5
2D5
330
2D1
100
AcDbEntity
  8
Capa 1
 62
   250
420
  2236961
100
AcDbMText
 10
71.80612519906236
 20
-152.1774467935529
 30
0.0
 40
2.49766666604225
 41
0.0
 46
0.0
 71
     7
 72
     1
  1
\fArial|b1|i0|c0|p34;\W1;180
 11
6.123233995736766E-17
 21
1.0
 31
0.0
 73
     1
 44
1.0
  0
POLYLINE
  5
2D6
330
2D1
100
AcDbEntity
  8
Capa 1
370
     0
100
AcDb2dPolyline
 66
     1
 10
0.0
 20
0.0
 30
0.0
  0
VERTEX
  5
2D7
330
2D6
100
AcDbEntity
  8
Capa 1
370
     0
100
AcDbVertex
100
AcDb2dVertex
 10
68.98913084528594
 20
-183.045491575468
 30
0.0
  0
VERTEX
  5
2D8
330
2D6
100
AcDbEntity
  8
Capa 1
370
     0
100
AcDbVertex
100
AcDb2dVertex
 10
141.5385838419462
 20
-183.045491575468
 30
0.0
  0
VERTEX
  5
2D9
330
2D6
100
AcDbEntity
  8
Capa 1
370
     0
100
AcDbVertex
100
AcDb2dVertex
 10
141.5385838419462
 20
-113.1228216100385
 30
0.0
  0
VERTEX
  5
2DA
330
2D6
100
AcDbEntity
  8
Capa 1
370
     0
100
AcDbVertex
100
AcDb2dVertex
 10
68.98913084528594
 20
-113.1228216100385
 30
0.0
  0
VERTEX
  5
2DB
330
2D6
100
AcDbEntity
  8
Capa 1
370
     0
100
AcDbVertex
100
AcDb2dVertex
 10
68.98913084528594
 20
-183.045491575468
 30
0.0
  0
SEQEND
  5
2DC
330
2D6
100
AcDbEntity
  8
Capa 1
370
     0
  0
ENDBLK
  5
2D4
330
2D1
100
AcDbEntity
  8
0
100
AcDbBlockEnd
  0
BLOCK
  5
338
330
336
100
AcDbEntity
  8
0
100
AcDbBlockBegin
  2
block 13
 70
     0
 10
0.0
 20
0.0
 30
0.0
  3
block 13
  1

  0
POLYLINE
  5
33A
330
336
100
AcDbEntity
  8
Capa 1
 62
   250
420
  2236961
370
     9
100
AcDb2dPolyline
 66
     1
 10
0.0
 20
0.0
 30
0.0
  0
VERTEX
  5
33B
330
33A
100
AcDbEntity
  8
Capa 1
 62
   250
420
  2236961
370
     9
100
AcDbVertex
100
AcDb2dVertex
 10
129.4548845126239
 20
-140.185462365602
 30
0.0
  0
VERTEX
  5
33C
330
33A
100
AcDbEntity
  8
Capa 1
 62
   250
420
  2236961
370
     9
100
AcDbVertex
100
AcDb2dVertex
 10
141.4973072916636
 20
-136.2195330385227
 30
0.0
  0
SEQEND
  5
33D
330
33A
100
AcDbEntity
  8
Capa 1
 62
   250
420
  2236961
370
     9
  0
POLYLINE
  5
33E
330
336
100
AcDbEntity
  8
Capa 1
 62
   250
420
  2236961
370
     9
100
AcDb2dPolyline
 66
     1
 10
0.0
 20
0.0
 30
0.0
  0
VERTEX
  5
33F
330
33E
100
AcDbEntity
  8
Capa 1
 62
   250
420
  2236961
370
     9
100
AcDbVertex
100
AcDb2dVertex
 10
123.6354615167101
 20
-142.1017509740978
 30
0.0
  0
VERTEX
  5
340
330
33E
100
AcDbEntity
  8
Capa 1
 62
   250
420
  2236961
370
     9
100
AcDbVertex
100
AcDb2dVertex
 10
127.8737364078217
 20
-140.706161633389
 30
0.0
  0
SEQEND
  5
341
330
33E
100
AcDbEntity
  8
Capa 1
 62
   250
420
  2236961
370
     9
  0
POLYLINE
  5
342
330
336
100
AcDbEntity
  8
Capa 1
 62
   250
420
  2236961
370
     9
100
AcDb2dPolyline
 66
     1
 10
0.0
 20
0.0
 30
0.0
  0
VERTEX
  5
343
330
342
100
AcDbEntity
  8
Capa 1
 62
   250
420
  2236961
370
     9
100
AcDbVertex
100
AcDb2dVertex
 10
129.8817479921315
 20
-141.4808613317495
 30
0.0
  0
VERTEX
  5
344
330
342
100
AcDbEntity
  8
Capa 1
 62
   250
420
  2236961
370
     9
100
AcDbVertex
100
AcDb2dVertex
 10
129.3250636254087
 20
-139.7903502856565
 30
0.0
  0
SEQEND
  5
345
330
342
100
AcDbEntity
  8
Capa 1
 62
   250
420
  2236961
370
     9
  0
POLYLINE
  5
346
330
336
100
AcDbEntity
  8
Capa 1
 62
   250
420
  2236961
370
     9
100
AcDb2dPolyline
 66
     1
 10
0.0
 20
0.0
 30
0.0
  0
VERTEX
  5
347
330
346
100
AcDbEntity
  8
Capa 1
 62
   250
420
  2236961
370
     9
100
AcDbVertex
100
AcDb2dVertex
 10
122.4804717234333
 20
-143.9178492080323
 30
0.0
  0
VERTEX
  5
348
330
346
100
AcDbEntity
  8
Capa 1
 62
   250
420
  2236961
370
     9
100
AcDbVertex
100
AcDb2dVertex
 10
121.9237873567105
 20
-142.2273381619394
 30
0.0
  0
SEQEND
  5
349
330
346
100
AcDbEntity
  8
Capa 1
 62
   250
420
  2236961
370
     9
  0
POLYLINE
  5
34A
330
336
100
AcDbEntity
  8
Capa 1
370
     0
100
AcDb2dPolyline
 66
     1
 10
0.0
 20
0.0
 30
0.0
  0
VERTEX
  5
34B
330
34A
100
AcDbEntity
  8
Capa 1
370
     0
100
AcDbVertex
100
AcDb2dVertex
 10
68.98913084528594
 20
-183.045491575468
 30
0.0
  0
VERTEX
  5
34C
330
34A
100
AcDbEntity
  8
Capa 1
370
     0
100
AcDbVertex
100
AcDb2dVertex
 10
141.5385838419462
 20
-183.045491575468
 30
0.0
  0
VERTEX
  5
34D
330
34A
100
AcDbEntity
  8
Capa 1
370
     0
100
AcDbVertex
100
AcDb2dVertex
 10
141.5385838419462
 20
-113.1228216100385
 30
0.0
  0
VERTEX
  5
34E
330
34A
100
AcDbEntity
  8
Capa 1
370
     0
100
AcDbVertex
100
AcDb2dVertex
 10
68.98913084528594
 20
-113.1228216100385
 30
0.0
  0
VERTEX
  5
34F
330
34A
100
AcDbEntity
  8
Capa 1
370
     0
100
AcDbVertex
100
AcDb2dVertex
 10
68.98913084528594
 20
-183.045491575468
 30
0.0
  0
SEQEND
  5
350
330
34A
100
AcDbEntity
  8
Capa 1
370
     0
  0
ENDBLK
  5
339
330
336
100
AcDbEntity
  8
0
100
AcDbBlockEnd
  0
BLOCK
  5
361
330
35F
100
AcDbEntity
  8
0
100
AcDbBlockBegin
  2
block 14
 70
     0
 10
0.0
 20
0.0
 30
0.0
  3
block 14
  1

  0
SPLINE
  5
363
330
35F
100
AcDbEntity
  8
Capa 1
370
     0
100
AcDbSpline
210
0.0
220
0.0
230
1.0
 70
    11
 71
     3
 72
    20
 73
    16
 74
     0
 42
0.0000000001
 43
0.0000000001
 12
1.0
 22
0.0
 32
0.0
 13
1.0
 23
0.0
 33
0.0
 40
0.0
 40
0.0
 40
0.0
 40
0.0
 40
1.0
 40
1.0
 40
1.0
 40
2.0
 40
2.0
 40
2.0
 40
3.0
 40
3.0
 40
3.0
 40
4.0
 40
4.0
 40
4.0
 40
5.0
 40
5.0
 40
5.0
 40
5.0
 10
131.446881785889
 20
-137.0530092956386
 30
0.0
 10
131.446881785889
 20
-137.0530092956386
 30
0.0
 10
131.9061991414599
 20
-138.4478934683652
 30
0.0
 10
131.9061991414599
 20
-138.4478934683652
 30
0.0
 10
132.1305663678985
 20
-138.3611093599071
 30
0.0
 10
132.2879049553022
 20
-138.2362246485668
 30
0.0
 10
132.3789254546148
 20
-138.072536857843
 30
0.0
 10
132.4699405709657
 20
-137.9088490671192
 30
0.0
 10
132.4805234736595
 20
-137.7197590801534
 30
0.0
 10
132.4106741626961
 20
-137.5088008112988
 30
0.0
 10
132.3415300197148
 20
-137.2999526634289
 30
0.0
 10
132.2229972031754
 20
-137.1560230336092
 30
0.0
 10
132.0543651621341
 20
-137.0770011559163
 30
0.0
 10
131.8864436720366
 20
-136.9965635592974
 30
0.0
 10
131.6832476339473
 20
-136.9895118794761
 30
0.0
 10
131.446881785889
 20
-137.0530092956386
 30
0.0
  0
SPLINE
  5
364
330
35F
100
AcDbEntity
  8
Capa 1
370
     0
100
AcDbSpline
210
0.0
220
0.0
230
1.0
 70
    11
 71
     3
 72
    20
 73
    16
 74
     0
 42
0.0000000001
 43
0.0000000001
 12
1.0
 22
0.0
 32
0.0
 13
1.0
 23
0.0
 33
0.0
 40
0.0
 40
0.0
 40
0.0
 40
0.0
 40
1.0
 40
1.0
 40
1.0
 40
2.0
 40
2.0
 40
2.0
 40
3.0
 40
3.0
 40
3.0
 40
4.0
 40
4.0
 40
4.0
 40
5.0
 40
5.0
 40
5.0
 40
5.0
 10
131.1166855325128
 20
-137.1630747134309
 30
0.0
 10
130.9007857048216
 20
-137.2449226460137
 30
0.0
 10
130.7448574533822
 20
-137.3683916384281
 30
0.0
 10
130.6481956102124
 20
-137.5320821206327
 30
0.0
 10
130.5522389350248
 20
-137.6978881067838
 30
0.0
 10
130.5388353604025
 20
-137.886975402269
 30
0.0
 10
130.6100950073302
 20
-138.1007597260136
 30
0.0
 10
130.6792391503116
 20
-138.3138361902954
 30
0.0
 10
130.8013031897233
 20
-138.4584763710589
 30
0.0
 10
130.97557119166
 20
-138.5353800533246
 30
0.0
 10
131.1491394085762
 20
-138.611581259089
 30
0.0
 10
131.3488096067549
 20
-138.6186356303912
 30
0.0
 10
131.5745871691578
 20
-138.5551382142287
 30
0.0
 10
131.5745871691578
 20
-138.5551382142287
 30
0.0
 10
131.1166855325128
 20
-137.1630747134309
 30
0.0
 10
131.1166855325128
 20
-137.1630747134309
 30
0.0
  0
SPLINE
  5
365
330
35F
100
AcDbEntity
  8
Capa 1
370
     0
100
AcDbSpline
210
0.0
220
0.0
230
1.0
 70
    11
 71
     3
 72
    47
 73
    43
 74
     0
 42
0.0000000001
 43
0.0000000001
 12
1.0
 22
0.0
 32
0.0
 13
1.0
 23
0.0
 33
0.0
 40
0.0
 40
0.0
 40
0.0
 40
0.0
 40
1.0
 40
1.0
 40
1.0
 40
2.0
 40
2.0
 40
2.0
 40
3.0
 40
3.0
 40
3.0
 40
4.0
 40
4.0
 40
4.0
 40
5.0
 40
5.0
 40
5.0
 40
6.0
 40
6.0
 40
6.0
 40
7.0
 40
7.0
 40
7.0
 40
8.0
 40
8.0
 40
8.0
 40
9.0
 40
9.0
 40
9.0
 40
10.0
 40
10.0
 40
10.0
 40
11.0
 40
11.0
 40
11.0
 40
12.0
 40
12.0
 40
12.0
 40
13.0
 40
13.0
 40
13.0
 40
14.0
 40
14.0
 40
14.0
 40
14.0
 10
131.0164978494324
 20
-136.8596856092991
 30
0.0
 10
131.0164978494324
 20
-136.8596856092991
 30
0.0
 10
130.9043115447323
 20
-136.5189064532292
 30
0.0
 10
130.9043115447323
 20
-136.5189064532292
 30
0.0
 10
130.9043115447323
 20
-136.5189064532292
 30
0.0
 10
131.2352183490522
 20
-136.4102513714015
 30
0.0
 10
131.2352183490522
 20
-136.4102513714015
 30
0.0
 10
131.2352183490522
 20
-136.4102513714015
 30
0.0
 10
131.3473992707907
 20
-136.7510305274713
 30
0.0
 10
131.3473992707907
 20
-136.7510305274713
 30
0.0
 10
131.6931253686589
 20
-136.6571947391918
 30
0.0
 10
131.9936884179001
 20
-136.6705983138145
 30
0.0
 10
132.251220071346
 20
-136.7926623532259
 30
0.0
 10
132.5087463418301
 20
-136.9133106737117
 30
0.0
 10
132.6823145587463
 20
-137.1129808718904
 30
0.0
 10
132.7740348430794
 20
-137.3881471078513
 30
0.0
 10
132.862934455484
 20
-137.6590823359197
 30
0.0
 10
132.8431789860607
 20
-137.919431969813
 30
0.0
 10
132.7154736027919
 20
-138.1727245409234
 30
0.0
 10
132.5870630515409
 20
-138.4224912721232
 30
0.0
 10
132.3514077544264
 20
-138.6172252944269
 30
0.0
 10
132.006392207502
 20
-138.7512825724967
 30
0.0
 10
132.006392207502
 20
-138.7512825724967
 30
0.0
 10
132.1192782972226
 20
-139.0948877834568
 30
0.0
 10
132.1192782972226
 20
-139.0948877834568
 30
0.0
 10
132.1192782972226
 20
-139.0948877834568
 30
0.0
 10
131.7883714929027
 20
-139.2035428652846
 30
0.0
 10
131.7883714929027
 20
-139.2035428652846
 30
0.0
 10
131.7883714929027
 20
-139.2035428652846
 30
0.0
 10
131.6754854031821
 20
-138.8599376543245
 30
0.0
 10
131.6754854031821
 20
-138.8599376543245
 30
0.0
 10
131.3565718375201
 20
-138.9523657981205
 30
0.0
 10
131.0623553001181
 20
-138.9417802039459
 30
0.0
 10
130.7942461269402
 20
-138.8317147861539
 30
0.0
 10
130.5247212348364
 20
-138.7202363409167
 30
0.0
 10
130.3419858341524
 20
-138.5177427793286
 30
0.0
 10
130.2446188230005
 20
-138.2214080464997
 30
0.0
 10
130.1472518118486
 20
-137.9250760051509
 30
0.0
 10
130.1733537931111
 20
-137.6527304411185
 30
0.0
 10
130.3236407006934
 20
-137.4057870733281
 30
0.0
 10
130.4739222253141
 20
-137.1588437055378
 30
0.0
 10
130.7053465145357
 20
-136.977518640818
 30
0.0
 10
131.0164978494324
 20
-136.8596856092991
 30
0.0
  0
HATCH
  5
366
330
35F
100
AcDbEntity
  8
Capa 1
 62
   250
420
  2236961
100
AcDbHatch
 10
0.0
 20
0.0
 30
0.0
210
0.0
220
0.0
230
1.0
  2
SOLID
 70
     1
 71
     0
 91
        3
 92
        1
 93
        1
 72
     4
 94
        3
 73
     0
 74
     1
 95
       20
 96
       16
 40
0.0
 40
0.0
 40
0.0
 40
0.0
 40
1.0
 40
1.0
 40
1.0
 40
2.0
 40
2.0
 40
2.0
 40
3.0
 40
3.0
 40
3.0
 40
4.0
 40
4.0
 40
4.0
 40
5.0
 40
5.0
 40
5.0
 40
5.0
 10
131.1166855325128
 20
-137.1630747134309
 10
130.9007857048216
 20
-137.2449226460137
 10
130.7448574533822
 20
-137.3683916384281
 10
130.6481956102124
 20
-137.5320821206327
 10
130.5522389350248
 20
-137.6978881067838
 10
130.5388353604025
 20
-137.886975402269
 10
130.6100950073302
 20
-138.1007597260136
 10
130.6792391503116
 20
-138.3138361902954
 10
130.8013031897233
 20
-138.4584763710589
 10
130.97557119166
 20
-138.5353800533246
 10
131.1491394085762
 20
-138.611581259089
 10
131.3488096067549
 20
-138.6186356303912
 10
131.5745871691578
 20
-138.5551382142287
 10
131.5745871691578
 20
-138.5551382142287
 10
131.1166855325128
 20
-137.1630747134309
 10
131.1166855325128
 20
-137.1630747134309
 97
        0
 97
        0
 92
        1
 93
        2
 72
     4
 94
        3
 73
     0
 74
     0
 95
       20
 96
       16
 40
0.0
 40
0.0
 40
0.0
 40
0.0
 40
0.3527777776895833
 40
0.3527777776895833
 40
0.3527777776895833
 40
0.7055555553791667
 40
0.7055555553791667
 40
0.7055555553791667
 40
1.05833333306875
 40
1.05833333306875
 40
1.05833333306875
 40
1.411111110758333
 40
1.411111110758333
 40
1.411111110758333
 40
1.763888888447917
 40
1.763888888447917
 40
1.763888888447917
 40
1.763888888447917
 10
131.446881785889
 20
-137.0530092956386
 10
131.446881785889
 20
-137.0530092956386
 10
131.9061991414599
 20
-138.4478934683652
 10
131.9061991414599
 20
-138.4478934683652
 10
132.1305663678985
 20
-138.3611093599071
 10
132.2879049553022
 20
-138.2362246485668
 10
132.3789254546148
 20
-138.072536857843
 10
132.4699405709657
 20
-137.9088490671192
 10
132.4805234736595
 20
-137.7197590801534
 10
132.4106741626961
 20
-137.5088008112988
 10
132.3415300197148
 20
-137.2999526634289
 10
132.2229972031754
 20
-137.1560230336092
 10
132.0543651621341
 20
-137.0770011559163
 10
131.8864436720366
 20
-136.9965635592974
 10
131.6832476339473
 20
-136.9895118794761
 10
131.446881785889
 20
-137.0530092956386
 97
        0
 72
     1
 10
131.446881785889
 20
-137.0530092956386
 11
131.446881785889
 21
-137.0530092956386
 97
        0
 92
        1
 93
        2
 72
     4
 94
        3
 73
     0
 74
     0
 95
       47
 96
       43
 40
0.0
 40
0.0
 40
0.0
 40
0.0
 40
0.3527777776895833
 40
0.3527777776895833
 40
0.3527777776895833
 40
0.7055555553791667
 40
0.7055555553791667
 40
0.7055555553791667
 40
1.05833333306875
 40
1.05833333306875
 40
1.05833333306875
 40
1.411111110758333
 40
1.411111110758333
 40
1.411111110758333
 40
1.763888888447917
 40
1.763888888447917
 40
1.763888888447917
 40
2.1166666661375
 40
2.1166666661375
 40
2.1166666661375
 40
2.469444443827083
 40
2.469444443827083
 40
2.469444443827083
 40
2.822222221516667
 40
2.822222221516667
 40
2.822222221516667
 40
3.17499999920625
 40
3.17499999920625
 40
3.17499999920625
 40
3.527777776895833
 40
3.527777776895833
 40
3.527777776895833
 40
3.880555554585417
 40
3.880555554585417
 40
3.880555554585417
 40
4.233333332275
 40
4.233333332275
 40
4.233333332275
 40
4.586111109964584
 40
4.586111109964584
 40
4.586111109964584
 40
4.938888887654167
 40
4.938888887654167
 40
4.938888887654167
 40
4.938888887654167
 10
131.0164978494324
 20
-136.8596856092991
 10
131.0164978494324
 20
-136.8596856092991
 10
130.9043115447323
 20
-136.5189064532292
 10
130.9043115447323
 20
-136.5189064532292
 10
130.9043115447323
 20
-136.5189064532292
 10
131.2352183490522
 20
-136.4102513714015
 10
131.2352183490522
 20
-136.4102513714015
 10
131.2352183490522
 20
-136.4102513714015
 10
131.3473992707907
 20
-136.7510305274713
 10
131.3473992707907
 20
-136.7510305274713
 10
131.6931253686589
 20
-136.6571947391918
 10
131.9936884179001
 20
-136.6705983138145
 10
132.251220071346
 20
-136.7926623532259
 10
132.5087463418301
 20
-136.9133106737117
 10
132.6823145587463
 20
-137.1129808718904
 10
132.7740348430794
 20
-137.3881471078513
 10
132.862934455484
 20
-137.6590823359197
 10
132.8431789860607
 20
-137.919431969813
 10
132.7154736027919
 20
-138.1727245409234
 10
132.5870630515409
 20
-138.4224912721232
 10
132.3514077544264
 20
-138.6172252944269
 10
132.006392207502
 20
-138.7512825724967
 10
132.006392207502
 20
-138.7512825724967
 10
132.1192782972226
 20
-139.0948877834568
 10
132.1192782972226
 20
-139.0948877834568
 10
132.1192782972226
 20
-139.0948877834568
 10
131.7883714929027
 20
-139.2035428652846
 10
131.7883714929027
 20
-139.2035428652846
 10
131.7883714929027
 20
-139.2035428652846
 10
131.6754854031821
 20
-138.8599376543245
 10
131.6754854031821
 20
-138.8599376543245
 10
131.3565718375201
 20
-138.9523657981205
 10
131.0623553001181
 20
-138.9417802039459
 10
130.7942461269402
 20
-138.8317147861539
 10
130.5247212348364
 20
-138.7202363409167
 10
130.3419858341524
 20
-138.5177427793286
 10
130.2446188230005
 20
-138.2214080464997
 10
130.1472518118486
 20
-137.9250760051509
 10
130.1733537931111
 20
-137.6527304411185
 10
130.3236407006934
 20
-137.4057870733281
 10
130.4739222253141
 20
-137.1588437055378
 10
130.7053465145357
 20
-136.977518640818
 10
131.0164978494324
 20
-136.8596856092991
 97
        0
 72
     1
 10
131.0164978494324
 20
-136.8596856092991
 11
131.0164978494324
 21
-136.8596856092991
 97
        0
 75
     2
 76
     1
 98
        0
  0
SPLINE
  5
367
330
35F
100
AcDbEntity
  8
Capa 1
370
     0
100
AcDbSpline
210
0.0
220
0.0
230
1.0
 70
    11
 71
     3
 72
    71
 73
    67
 74
     0
 42
0.0000000001
 43
0.0000000001
 12
1.0
 22
0.0
 32
0.0
 13
1.0
 23
0.0
 33
0.0
 40
0.0
 40
0.0
 40
0.0
 40
0.0
 40
1.0
 40
1.0
 40
1.0
 40
2.0
 40
2.0
 40
2.0
 40
3.0
 40
3.0
 40
3.0
 40
4.0
 40
4.0
 40
4.0
 40
5.0
 40
5.0
 40
5.0
 40
6.0
 40
6.0
 40
6.0
 40
7.0
 40
7.0
 40
7.0
 40
8.0
 40
8.0
 40
8.0
 40
9.0
 40
9.0
 40
9.0
 40
10.0
 40
10.0
 40
10.0
 40
11.0
 40
11.0
 40
11.0
 40
12.0
 40
12.0
 40
12.0
 40
13.0
 40
13.0
 40
13.0
 40
14.0
 40
14.0
 40
14.0
 40
15.0
 40
15.0
 40
15.0
 40
16.0
 40
16.0
 40
16.0
 40
17.0
 40
17.0
 40
17.0
 40
18.0
 40
18.0
 40
18.0
 40
19.0
 40
19.0
 40
19.0
 40
20.0
 40
20.0
 40
20.0
 40
21.0
 40
21.0
 40
21.0
 40
22.0
 40
22.0
 40
22.0
 40
22.0
 10
135.1375049200032
 20
-137.7526328272291
 30
0.0
 10
135.1375049200032
 20
-137.7526328272291
 30
0.0
 10
135.2412184429943
 20
-138.0666075255352
 30
0.0
 10
135.2412184429943
 20
-138.0666075255352
 30
0.0
 10
135.2412184429943
 20
-138.0666075255352
 30
0.0
 10
133.4801502264749
 20
-138.647278369574
 30
0.0
 10
133.4801502264749
 20
-138.647278369574
 30
0.0
 10
133.4519327412661
 20
-138.5696668278454
 30
0.0
 10
133.4392289516642
 20
-138.4878242782239
 30
0.0
 10
133.4434653425187
 20
-138.4073893730859
 30
0.0
 10
133.4484015183937
 20
-138.2719217590518
 30
0.0
 10
133.4815659454009
 20
-138.1308128011607
 30
0.0
 10
133.5422426896349
 20
-137.9819389210234
 30
0.0
 10
133.6022142658867
 20
-137.8330704238479
 30
0.0
 10
133.7002864450207
 20
-137.6517399761665
 30
0.0
 10
133.8378695630012
 20
-137.4372504844395
 30
0.0
 10
134.0488278318558
 20
-137.1049333441553
 30
0.0
 10
134.1821799419434
 20
-136.8523486325078
 30
0.0
 10
134.2386256782845
 20
-136.680895919538
 30
0.0
 10
134.2943608636818
 20
-136.5087434215477
 30
0.0
 10
134.3021230944471
 20
-136.3598668499297
 30
0.0
 10
134.2612018196363
 20
-136.2363978575154
 30
0.0
 10
134.2188702088613
 20
-136.1065769703001
 30
0.0
 10
134.136317108296
 20
-136.0127357990589
 30
0.0
 10
134.0149636198281
 20
-135.9534693907892
 30
0.0
 10
133.8928995804163
 20
-135.8956133184838
 30
0.0
 10
133.757437349344
 20
-135.8906717596471
 30
0.0
 10
133.6078556097438
 20
-135.9400658161672
 30
0.0
 10
133.4505170223401
 20
-135.9922751616535
 30
0.0
 10
133.3397464365659
 20
-136.0797644380941
 30
0.0
 10
133.2769541883855
 20
-136.2060594853984
 30
0.0
 10
133.2134513892613
 20
-136.3316439817591
 30
0.0
 10
133.2085152133864
 20
-136.478399666469
 30
0.0
 10
133.2621348948373
 20
-136.6470317075103
 30
0.0
 10
133.2621348948373
 20
-136.6470317075103
 30
0.0
 10
132.9150038439665
 20
-136.7211120263666
 30
0.0
 10
132.9150038439665
 20
-136.7211120263666
 30
0.0
 10
132.8550322677146
 20
-136.4635857558825
 30
0.0
 10
132.8790187450307
 20
-136.2448652562627
 30
0.0
 10
132.9855583229121
 20
-136.0635348085812
 30
0.0
 10
133.0928030687755
 20
-135.8822097438615
 30
0.0
 10
133.272717797531
 20
-135.7509731377203
 30
0.0
 10
133.5260130601223
 20
-135.6677202521345
 30
0.0
 10
133.78142382666
 20
-135.5830516476228
 30
0.0
 10
134.0072013890629
 20
-135.5872880384776
 30
0.0
 10
134.2026405793488
 20
-135.6797134907925
 30
0.0
 10
134.3987849376168
 20
-135.7714337751256
 30
0.0
 10
134.5307267117402
 20
-135.9238361866543
 30
0.0
 10
134.5998708547215
 20
-136.1319737835804
 30
0.0
 10
134.6344402347313
 20
-136.2392185294439
 30
0.0
 10
134.6471386413714
 20
-136.3506942832002
 30
0.0
 10
134.6379714576037
 20
-136.4685219317574
 30
0.0
 10
134.6287988908742
 20
-136.5856444123326
 30
0.0
 10
134.5914034559741
 20
-136.7182913544381
 30
0.0
 10
134.5279006568499
 20
-136.8657522071301
 30
0.0
 10
134.4644032406874
 20
-137.0132130598225
 30
0.0
 10
134.3472807601123
 20
-137.2241767116385
 30
0.0
 10
134.1779489340506
 20
-137.4993429475994
 30
0.0
 10
134.0361294252156
 20
-137.728646349913
 30
0.0
 10
133.9472298128111
 20
-137.8838694333703
 30
0.0
 10
133.9105395458932
 20
-137.960773115636
 30
0.0
 10
133.8745598299191
 20
-138.0369743214003
 30
0.0
 10
133.8477472977128
 20
-138.1110573317374
 30
0.0
 10
133.8308125002181
 20
-138.1830221466473
 30
0.0
 10
133.8308125002181
 20
-138.1830221466473
 30
0.0
 10
135.1375049200032
 20
-137.7526328272291
 30
0.0
 10
135.1375049200032
 20
-137.7526328272291
 30
0.0
  0
HATCH
  5
368
330
35F
100
AcDbEntity
  8
Capa 1
 62
   250
420
  2236961
100
AcDbHatch
 10
0.0
 20
0.0
 30
0.0
210
0.0
220
0.0
230
1.0
  2
SOLID
 70
     1
 71
     0
 91
        1
 92
        1
 93
        1
 72
     4
 94
        3
 73
     0
 74
     1
 95
       71
 96
       67
 40
0.0
 40
0.0
 40
0.0
 40
0.0
 40
1.0
 40
1.0
 40
1.0
 40
2.0
 40
2.0
 40
2.0
 40
3.0
 40
3.0
 40
3.0
 40
4.0
 40
4.0
 40
4.0
 40
5.0
 40
5.0
 40
5.0
 40
6.0
 40
6.0
 40
6.0
 40
7.0
 40
7.0
 40
7.0
 40
8.0
 40
8.0
 40
8.0
 40
9.0
 40
9.0
 40
9.0
 40
10.0
 40
10.0
 40
10.0
 40
11.0
 40
11.0
 40
11.0
 40
12.0
 40
12.0
 40
12.0
 40
13.0
 40
13.0
 40
13.0
 40
14.0
 40
14.0
 40
14.0
 40
15.0
 40
15.0
 40
15.0
 40
16.0
 40
16.0
 40
16.0
 40
17.0
 40
17.0
 40
17.0
 40
18.0
 40
18.0
 40
18.0
 40
19.0
 40
19.0
 40
19.0
 40
20.0
 40
20.0
 40
20.0
 40
21.0
 40
21.0
 40
21.0
 40
22.0
 40
22.0
 40
22.0
 40
22.0
 10
135.1375049200032
 20
-137.7526328272291
 10
135.1375049200032
 20
-137.7526328272291
 10
135.2412184429943
 20
-138.0666075255352
 10
135.2412184429943
 20
-138.0666075255352
 10
135.2412184429943
 20
-138.0666075255352
 10
133.4801502264749
 20
-138.647278369574
 10
133.4801502264749
 20
-138.647278369574
 10
133.4519327412661
 20
-138.5696668278454
 10
133.4392289516642
 20
-138.4878242782239
 10
133.4434653425187
 20
-138.4073893730859
 10
133.4484015183937
 20
-138.2719217590518
 10
133.4815659454009
 20
-138.1308128011607
 10
133.5422426896349
 20
-137.9819389210234
 10
133.6022142658867
 20
-137.8330704238479
 10
133.7002864450207
 20
-137.6517399761665
 10
133.8378695630012
 20
-137.4372504844395
 10
134.0488278318558
 20
-137.1049333441553
 10
134.1821799419434
 20
-136.8523486325078
 10
134.2386256782845
 20
-136.680895919538
 10
134.2943608636818
 20
-136.5087434215477
 10
134.3021230944471
 20
-136.3598668499297
 10
134.2612018196363
 20
-136.2363978575154
 10
134.2188702088613
 20
-136.1065769703001
 10
134.136317108296
 20
-136.0127357990589
 10
134.0149636198281
 20
-135.9534693907892
 10
133.8928995804163
 20
-135.8956133184838
 10
133.757437349344
 20
-135.8906717596471
 10
133.6078556097438
 20
-135.9400658161672
 10
133.4505170223401
 20
-135.9922751616535
 10
133.3397464365659
 20
-136.0797644380941
 10
133.2769541883855
 20
-136.2060594853984
 10
133.2134513892613
 20
-136.3316439817591
 10
133.2085152133864
 20
-136.478399666469
 10
133.2621348948373
 20
-136.6470317075103
 10
133.2621348948373
 20
-136.6470317075103
 10
132.9150038439665
 20
-136.7211120263666
 10
132.9150038439665
 20
-136.7211120263666
 10
132.8550322677146
 20
-136.4635857558825
 10
132.8790187450307
 20
-136.2448652562627
 10
132.9855583229121
 20
-136.0635348085812
 10
133.0928030687755
 20
-135.8822097438615
 10
133.272717797531
 20
-135.7509731377203
 10
133.5260130601223
 20
-135.6677202521345
 10
133.78142382666
 20
-135.5830516476228
 10
134.0072013890629
 20
-135.5872880384776
 10
134.2026405793488
 20
-135.6797134907925
 10
134.3987849376168
 20
-135.7714337751256
 10
134.5307267117402
 20
-135.9238361866543
 10
134.5998708547215
 20
-136.1319737835804
 10
134.6344402347313
 20
-136.2392185294439
 10
134.6471386413714
 20
-136.3506942832002
 10
134.6379714576037
 20
-136.4685219317574
 10
134.6287988908742
 20
-136.5856444123326
 10
134.5914034559741
 20
-136.7182913544381
 10
134.5279006568499
 20
-136.8657522071301
 10
134.4644032406874
 20
-137.0132130598225
 10
134.3472807601123
 20
-137.2241767116385
 10
134.1779489340506
 20
-137.4993429475994
 10
134.0361294252156
 20
-137.728646349913
 10
133.9472298128111
 20
-137.8838694333703
 10
133.9105395458932
 20
-137.960773115636
 10
133.8745598299191
 20
-138.0369743214003
 10
133.8477472977128
 20
-138.1110573317374
 10
133.8308125002181
 20
-138.1830221466473
 10
133.8308125002181
 20
-138.1830221466473
 10
135.1375049200032
 20
-137.7526328272291
 10
135.1375049200032
 20
-137.7526328272291
 97
        0
 97
        0
 75
     2
 76
     1
 98
        0
  0
SPLINE
  5
369
330
35F
100
AcDbEntity
  8
Capa 1
370
     0
100
AcDbSpline
210
0.0
220
0.0
230
1.0
 70
    11
 71
     3
 72
    95
 73
    91
 74
     0
 42
0.0000000001
 43
0.0000000001
 12
1.0
 22
0.0
 32
0.0
 13
1.0
 23
0.0
 33
0.0
 40
0.0
 40
0.0
 40
0.0
 40
0.0
 40
1.0
 40
1.0
 40
1.0
 40
2.0
 40
2.0
 40
2.0
 40
3.0
 40
3.0
 40
3.0
 40
4.0
 40
4.0
 40
4.0
 40
5.0
 40
5.0
 40
5.0
 40
6.0
 40
6.0
 40
6.0
 40
7.0
 40
7.0
 40
7.0
 40
8.0
 40
8.0
 40
8.0
 40
9.0
 40
9.0
 40
9.0
 40
10.0
 40
10.0
 40
10.0
 40
11.0
 40
11.0
 40
11.0
 40
12.0
 40
12.0
 40
12.0
 40
13.0
 40
13.0
 40
13.0
 40
14.0
 40
14.0
 40
14.0
 40
15.0
 40
15.0
 40
15.0
 40
16.0
 40
16.0
 40
16.0
 40
17.0
 40
17.0
 40
17.0
 40
18.0
 40
18.0
 40
18.0
 40
19.0
 40
19.0
 40
19.0
 40
20.0
 40
20.0
 40
20.0
 40
21.0
 40
21.0
 40
21.0
 40
22.0
 40
22.0
 40
22.0
 40
23.0
 40
23.0
 40
23.0
 40
24.0
 40
24.0
 40
24.0
 40
25.0
 40
25.0
 40
25.0
 40
26.0
 40
26.0
 40
26.0
 40
27.0
 40
27.0
 40
27.0
 40
28.0
 40
28.0
 40
28.0
 40
29.0
 40
29.0
 40
29.0
 40
30.0
 40
30.0
 40
30.0
 40
30.0
 10
135.3615168709699
 20
-137.2481631889546
 30
0.0
 10
135.3615168709699
 20
-137.2481631889546
 30
0.0
 10
135.6740731588692
 20
-137.0964713283697
 30
0.0
 10
135.6740731588692
 20
-137.0964713283697
 30
0.0
 10
135.7728505059853
 20
-137.2686292093216
 30
0.0
 10
135.8808004198309
 20
-137.3822204670244
 30
0.0
 10
135.997922900406
 20
-137.4344351954727
 30
0.0
 10
136.1150453809811
 20
-137.4859393729772
 30
0.0
 10
136.2385197563572
 20
-137.4908755488524
 30
0.0
 10
136.3683406435724
 20
-137.447838770095
 30
0.0
 10
136.5214482230833
 20
-137.3970397605726
 30
0.0
 10
136.6336291448218
 20
-137.3017882533672
 30
0.0
 10
136.7055993426933
 20
-137.160679295476
 30
0.0
 10
136.7761538216389
 20
-137.018859786641
 30
0.0
 10
136.7860315563505
 20
-136.8685782620204
 30
0.0
 10
136.7338222108639
 20
-136.7105345066346
 30
0.0
 10
136.6844335373058
 20
-136.5602475990522
 30
0.0
 10
136.5941182059753
 20
-136.4537080211709
 30
0.0
 10
136.4635921507779
 20
-136.3880951010619
 30
0.0
 10
136.3337712635626
 20
-136.3238871339556
 30
0.0
 10
136.1933620906919
 20
-136.3147145672261
 30
0.0
 10
136.041670230107
 20
-136.3655135767485
 30
0.0
 10
135.9795831499088
 20
-136.3852690461717
 30
0.0
 10
135.9069077840551
 20
-136.4219593130896
 30
0.0
 10
135.8229497304872
 20
-136.4769947134665
 30
0.0
 10
135.8229497304872
 20
-136.4769947134665
 30
0.0
 10
135.7650936581818
 20
-136.1778366172278
 30
0.0
 10
135.7650936581818
 20
-136.1778366172278
 30
0.0
 10
135.7876697995336
 20
-136.173605609335
 30
0.0
 10
135.8053097650104
 20
-136.1693692184805
 30
0.0
 10
135.8187133396327
 20
-136.1644330426055
 30
0.0
 10
135.9577067935774
 20
-136.1185702089581
 30
0.0
 10
136.0713034342419
 20
-136.0409586672295
 30
0.0
 10
136.1587927106821
 20
-135.9308932494374
 30
0.0
 10
136.2462819871224
 20
-135.8222381676097
 30
0.0
 10
136.2653322885635
 20
-135.6917121124123
 30
0.0
 10
136.2152384470232
 20
-135.5393097008835
 30
0.0
 10
136.1757275081768
 20
-135.4207768843441
 30
0.0
 10
136.102346974341
 20
-135.333992775886
 30
0.0
 10
135.9958073964596
 20
-135.2817834303994
 30
0.0
 10
135.8885626505961
 20
-135.2302792528949
 30
0.0
 10
135.7707350020389
 20
-135.2253376940583
 30
0.0
 10
135.6423244507879
 20
-135.2669641368511
 30
0.0
 10
135.514619067519
 20
-135.3107114665521
 30
0.0
 10
135.4221936152038
 20
-135.3847917854084
 30
0.0
 10
135.3636323749163
 20
-135.4920365312719
 30
0.0
 10
135.3050711346287
 20
-135.6006916130996
 30
0.0
 10
135.2902518410804
 20
-135.7389798990622
 30
0.0
 10
135.318474709251
 20
-135.9054910531954
 30
0.0
 10
135.318474709251
 20
-135.9054910531954
 30
0.0
 10
134.9727539943445
 20
-135.9562954456794
 30
0.0
 10
134.9727539943445
 20
-135.9562954456794
 30
0.0
 10
134.9403001182811
 20
-135.7227556525114
 30
0.0
 10
134.9748694982909
 20
-135.523080071371
 30
0.0
 10
135.0771726853177
 20
-135.3565689172378
 30
0.0
 10
135.1794812553063
 20
-135.1900577631046
 30
0.0
 10
135.3354095067457
 20
-135.0708197785831
 30
0.0
 10
135.5456626076182
 20
-135.0023808035839
 30
0.0
 10
135.691713124346
 20
-134.9529921300259
 30
0.0
 10
135.8356481371274
 20
-134.9409988913678
 30
0.0
 10
135.9781674309828
 20
-134.9621646967553
 30
0.0
 10
136.1213972757821
 20
-134.9861565570331
 30
0.0
 10
136.2434613151938
 20
-135.0397762384843
 30
0.0
 10
136.3436489982742
 20
-135.12585517896
 30
0.0
 10
136.4438366813547
 20
-135.211934119436
 30
0.0
 10
136.5143911603002
 20
-135.3163528104092
 30
0.0
 10
136.5539020991467
 20
-135.4370065138567
 30
0.0
 10
136.5920027020289
 20
-135.5527132755058
 30
0.0
 10
136.5955285419396
 20
-135.6663099161702
 30
0.0
 10
136.5644850018405
 20
-135.7820220607814
 30
0.0
 10
136.5341466297235
 20
-135.8970290374098
 30
0.0
 10
136.4671179906886
 20
-136.0007425604009
 30
0.0
 10
136.3648148036617
 20
-136.0974044035706
 30
0.0
 10
136.5341466297235
 20
-136.081174774058
 30
0.0
 10
136.6809023144334
 20
-136.1171598729938
 30
0.0
 10
136.8064921937559
 20
-136.2032388134698
 30
0.0
 10
136.930671737114
 20
-136.2879074179815
 30
0.0
 10
137.021686853465
 20
-136.4177283051971
 30
0.0
 10
137.0781325898061
 20
-136.5905859711695
 30
0.0
 10
137.1550389635526
 20
-136.822715428373
 30
0.0
 10
137.1352834941294
 20
-137.0470826548116
 30
0.0
 10
137.0188661815364
 20
-137.2643928184671
 30
0.0
 10
136.9024488689435
 20
-137.4817029821226
 30
0.0
 10
136.7147719094228
 20
-137.6334002256692
 30
0.0
 10
136.4551247520305
 20
-137.7201843341274
 30
0.0
 10
136.2215849588625
 20
-137.7956749889479
 30
0.0
 10
136.004274795207
 20
-137.7900336450908
 30
0.0
 10
135.8046045970283
 20
-137.7018392006684
 30
0.0
 10
135.6042238479057
 20
-137.6129395882639
 30
0.0
 10
135.4567629952136
 20
-137.4626526806815
 30
0.0
 10
135.3615168709699
 20
-137.2481631889546
 30
0.0
  0
HATCH
  5
36A
330
35F
100
AcDbEntity
  8
Capa 1
 62
   250
420
  2236961
100
AcDbHatch
 10
0.0
 20
0.0
 30
0.0
210
0.0
220
0.0
230
1.0
  2
SOLID
 70
     1
 71
     0
 91
        1
 92
        1
 93
        2
 72
     4
 94
        3
 73
     0
 74
     0
 95
       95
 96
       91
 40
0.0
 40
0.0
 40
0.0
 40
0.0
 40
0.3527777776895833
 40
0.3527777776895833
 40
0.3527777776895833
 40
0.7055555553791667
 40
0.7055555553791667
 40
0.7055555553791667
 40
1.05833333306875
 40
1.05833333306875
 40
1.05833333306875
 40
1.411111110758333
 40
1.411111110758333
 40
1.411111110758333
 40
1.763888888447917
 40
1.763888888447917
 40
1.763888888447917
 40
2.1166666661375
 40
2.1166666661375
 40
2.1166666661375
 40
2.469444443827083
 40
2.469444443827083
 40
2.469444443827083
 40
2.822222221516667
 40
2.822222221516667
 40
2.822222221516667
 40
3.17499999920625
 40
3.17499999920625
 40
3.17499999920625
 40
3.527777776895833
 40
3.527777776895833
 40
3.527777776895833
 40
3.880555554585417
 40
3.880555554585417
 40
3.880555554585417
 40
4.233333332275
 40
4.233333332275
 40
4.233333332275
 40
4.586111109964584
 40
4.586111109964584
 40
4.586111109964584
 40
4.938888887654167
 40
4.938888887654167
 40
4.938888887654167
 40
5.29166666534375
 40
5.29166666534375
 40
5.29166666534375
 40
5.644444443033334
 40
5.644444443033334
 40
5.644444443033334
 40
5.997222220722917
 40
5.997222220722917
 40
5.997222220722917
 40
6.349999998412501
 40
6.349999998412501
 40
6.349999998412501
 40
6.702777776102083
 40
6.702777776102083
 40
6.702777776102083
 40
7.055555553791667
 40
7.055555553791667
 40
7.055555553791667
 40
7.40833333148125
 40
7.40833333148125
 40
7.40833333148125
 40
7.761111109170834
 40
7.761111109170834
 40
7.761111109170834
 40
8.113888886860417
 40
8.113888886860417
 40
8.113888886860417
 40
8.46666666455
 40
8.46666666455
 40
8.46666666455
 40
8.819444442239584
 40
8.819444442239584
 40
8.819444442239584
 40
9.172222219929168
 40
9.172222219929168
 40
9.172222219929168
 40
9.52499999761875
 40
9.52499999761875
 40
9.52499999761875
 40
9.877777775308333
 40
9.877777775308333
 40
9.877777775308333
 40
10.23055555299792
 40
10.23055555299792
 40
10.23055555299792
 40
10.5833333306875
 40
10.5833333306875
 40
10.5833333306875
 40
10.5833333306875
 10
135.3615168709699
 20
-137.2481631889546
 10
135.3615168709699
 20
-137.2481631889546
 10
135.6740731588692
 20
-137.0964713283697
 10
135.6740731588692
 20
-137.0964713283697
 10
135.7728505059853
 20
-137.2686292093216
 10
135.8808004198309
 20
-137.3822204670244
 10
135.997922900406
 20
-137.4344351954727
 10
136.1150453809811
 20
-137.4859393729772
 10
136.2385197563572
 20
-137.4908755488524
 10
136.3683406435724
 20
-137.447838770095
 10
136.5214482230833
 20
-137.3970397605726
 10
136.6336291448218
 20
-137.3017882533672
 10
136.7055993426933
 20
-137.160679295476
 10
136.7761538216389
 20
-137.018859786641
 10
136.7860315563505
 20
-136.8685782620204
 10
136.7338222108639
 20
-136.7105345066346
 10
136.6844335373058
 20
-136.5602475990522
 10
136.5941182059753
 20
-136.4537080211709
 10
136.4635921507779
 20
-136.3880951010619
 10
136.3337712635626
 20
-136.3238871339556
 10
136.1933620906919
 20
-136.3147145672261
 10
136.041670230107
 20
-136.3655135767485
 10
135.9795831499088
 20
-136.3852690461717
 10
135.9069077840551
 20
-136.4219593130896
 10
135.8229497304872
 20
-136.4769947134665
 10
135.8229497304872
 20
-136.4769947134665
 10
135.7650936581818
 20
-136.1778366172278
 10
135.7650936581818
 20
-136.1778366172278
 10
135.7876697995336
 20
-136.173605609335
 10
135.8053097650104
 20
-136.1693692184805
 10
135.8187133396327
 20
-136.1644330426055
 10
135.9577067935774
 20
-136.1185702089581
 10
136.0713034342419
 20
-136.0409586672295
 10
136.1587927106821
 20
-135.9308932494374
 10
136.2462819871224
 20
-135.8222381676097
 10
136.2653322885635
 20
-135.6917121124123
 10
136.2152384470232
 20
-135.5393097008835
 10
136.1757275081768
 20
-135.4207768843441
 10
136.102346974341
 20
-135.333992775886
 10
135.9958073964596
 20
-135.2817834303994
 10
135.8885626505961
 20
-135.2302792528949
 10
135.7707350020389
 20
-135.2253376940583
 10
135.6423244507879
 20
-135.2669641368511
 10
135.514619067519
 20
-135.3107114665521
 10
135.4221936152038
 20
-135.3847917854084
 10
135.3636323749163
 20
-135.4920365312719
 10
135.3050711346287
 20
-135.6006916130996
 10
135.2902518410804
 20
-135.7389798990622
 10
135.318474709251
 20
-135.9054910531954
 10
135.318474709251
 20
-135.9054910531954
 10
134.9727539943445
 20
-135.9562954456794
 10
134.9727539943445
 20
-135.9562954456794
 10
134.9403001182811
 20
-135.7227556525114
 10
134.9748694982909
 20
-135.523080071371
 10
135.0771726853177
 20
-135.3565689172378
 10
135.1794812553063
 20
-135.1900577631046
 10
135.3354095067457
 20
-135.0708197785831
 10
135.5456626076182
 20
-135.0023808035839
 10
135.691713124346
 20
-134.9529921300259
 10
135.8356481371274
 20
-134.9409988913678
 10
135.9781674309828
 20
-134.9621646967553
 10
136.1213972757821
 20
-134.9861565570331
 10
136.2434613151938
 20
-135.0397762384843
 10
136.3436489982742
 20
-135.12585517896
 10
136.4438366813547
 20
-135.211934119436
 10
136.5143911603002
 20
-135.3163528104092
 10
136.5539020991467
 20
-135.4370065138567
 10
136.5920027020289
 20
-135.5527132755058
 10
136.5955285419396
 20
-135.6663099161702
 10
136.5644850018405
 20
-135.7820220607814
 10
136.5341466297235
 20
-135.8970290374098
 10
136.4671179906886
 20
-136.0007425604009
 10
136.3648148036617
 20
-136.0974044035706
 10
136.5341466297235
 20
-136.081174774058
 10
136.6809023144334
 20
-136.1171598729938
 10
136.8064921937559
 20
-136.2032388134698
 10
136.930671737114
 20
-136.2879074179815
 10
137.021686853465
 20
-136.4177283051971
 10
137.0781325898061
 20
-136.5905859711695
 10
137.1550389635526
 20
-136.822715428373
 10
137.1352834941294
 20
-137.0470826548116
 10
137.0188661815364
 20
-137.2643928184671
 10
136.9024488689435
 20
-137.4817029821226
 10
136.7147719094228
 20
-137.6334002256692
 10
136.4551247520305
 20
-137.7201843341274
 10
136.2215849588625
 20
-137.7956749889479
 10
136.004274795207
 20
-137.7900336450908
 10
135.8046045970283
 20
-137.7018392006684
 10
135.6042238479057
 20
-137.6129395882639
 10
135.4567629952136
 20
-137.4626526806815
 10
135.3615168709699
 20
-137.2481631889546
 97
        0
 72
     1
 10
135.3615168709699
 20
-137.2481631889546
 11
135.3615168709699
 21
-137.2481631889546
 97
        0
 75
     2
 76
     1
 98
        0
  0
POLYLINE
  5
36B
330
35F
100
AcDbEntity
  8
Capa 1
370
     0
100
AcDb2dPolyline
 66
     1
 10
0.0
 20
0.0
 30
0.0
  0
VERTEX
  5
36C
330
36B
100
AcDbEntity
  8
Capa 1
370
     0
100
AcDbVertex
100
AcDb2dVertex
 10
68.98913084528594
 20
-183.045491575468
 30
0.0
  0
VERTEX
  5
36D
330
36B
100
AcDbEntity
  8
Capa 1
370
     0
100
AcDbVertex
100
AcDb2dVertex
 10
141.5385838419462
 20
-183.045491575468
 30
0.0
  0
VERTEX
  5
36E
330
36B
100
AcDbEntity
  8
Capa 1
370
     0
100
AcDbVertex
100
AcDb2dVertex
 10
141.5385838419462
 20
-113.1228216100385
 30
0.0
  0
VERTEX
  5
36F
330
36B
100
AcDbEntity
  8
Capa 1
370
     0
100
AcDbVertex
100
AcDb2dVertex
 10
68.98913084528594
 20
-113.1228216100385
 30
0.0
  0
VERTEX
  5
370
330
36B
100
AcDbEntity
  8
Capa 1
370
     0
100
AcDbVertex
100
AcDb2dVertex
 10
68.98913084528594
 20
-183.045491575468
 30
0.0
  0
SEQEND
  5
371
330
36B
100
AcDbEntity
  8
Capa 1
370
     0
  0
ENDBLK
  5
362
330
35F
100
AcDbEntity
  8
0
100
AcDbBlockEnd
  0
ENDSEC
  0
SECTION
  2
ENTITIES
  0
INSERT
  5
42
330
1F
100
AcDbEntity
  8
Capa 1
100
AcDbBlockReference
  2
block 2
 10
0.0
 20
0.0
 30
0.0
  0
POLYLINE
  5
AD
330
1F
100
AcDbEntity
  8
Capa 1
  6
AI-Linetype-1
 62
   250
420
  2236961
370
     9
100
AcDb2dPolyline
 66
     1
 10
0.0
 20
0.0
 30
0.0
  0
VERTEX
  5
AE
330
AD
100
AcDbEntity
  8
Capa 1
  6
AI-Linetype-1
 62
   250
420
  2236961
370
     9
100
AcDbVertex
100
AcDb2dVertex
 10
97.19378576495868
 20
-162.1225237017213
 30
0.0
  0
VERTEX
  5
AF
330
AD
100
AcDbEntity
  8
Capa 1
  6
AI-Linetype-1
 62
   250
420
  2236961
370
     9
100
AcDbVertex
100
AcDb2dVertex
 10
93.38237435335456
 20
-162.1225237017213
 30
0.0
  0
SEQEND
  5
B1
330
AD
100
AcDbEntity
  8
Capa 1
  6
AI-Linetype-1
 62
   250
420
  2236961
370
     9
  0
POLYLINE
  5
B2
330
1F
100
AcDbEntity
  8
Capa 1
  6
AI-Linetype-2
 62
   250
420
  2236961
370
     9
100
AcDb2dPolyline
 66
     1
 10
0.0
 20
0.0
 30
0.0
  0
VERTEX
  5
B3
330
B2
100
AcDbEntity
  8
Capa 1
  6
AI-Linetype-2
 62
   250
420
  2236961
370
     9
100
AcDbVertex
100
AcDb2dVertex
 10
86.48923755706691
 20
-162.1225237017213
 30
0.0
  0
VERTEX
  5
B4
330
B2
100
AcDbEntity
  8
Capa 1
  6
AI-Linetype-2
 62
   250
420
  2236961
370
     9
100
AcDbVertex
100
AcDb2dVertex
 10
82.85492020228973
 20
-162.1225237017213
 30
0.0
  0
SEQEND
  5
B6
330
B2
100
AcDbEntity
  8
Capa 1
  6
AI-Linetype-2
 62
   250
420
  2236961
370
     9
  0
INSERT
  5
B8
330
1F
100
AcDbEntity
  8
Capa 1
100
AcDbBlockReference
  2
block 3
 10
0.0
 20
0.0
 30
0.0
  0
POLYLINE
  5
14F
330
1F
100
AcDbEntity
  8
Capa 1
 62
   250
420
  2236961
370
     9
100
AcDb2dPolyline
 66
     1
 10
0.0
 20
0.0
 30
0.0
  0
VERTEX
  5
150
330
14F
100
AcDbEntity
  8
Capa 1
 62
   250
420
  2236961
370
     9
100
AcDbVertex
100
AcDb2dVertex
 10
92.67554572753437
 20
-115.6175928886439
 30
0.0
  0
VERTEX
  5
151
330
14F
100
AcDbEntity
  8
Capa 1
 62
   250
420
  2236961
370
     9
100
AcDbVertex
100
AcDb2dVertex
 10
103.4959473827815
 20
-117.5331790206387
 30
0.0
  0
SEQEND
  5
152
330
14F
100
AcDbEntity
  8
Capa 1
 62
   250
420
  2236961
370
     9
  0
POLYLINE
  5
153
330
1F
100
AcDbEntity
  8
Capa 1
 62
   250
420
  2236961
370
     9
100
AcDb2dPolyline
 66
     1
 10
0.0
 20
0.0
 30
0.0
  0
VERTEX
  5
154
330
153
100
AcDbEntity
  8
Capa 1
 62
   250
420
  2236961
370
     9
100
AcDbVertex
100
AcDb2dVertex
 10
104.3785969949879
 20
-122.1023553331083
 30
0.0
  0
VERTEX
  5
155
330
153
100
AcDbEntity
  8
Capa 1
 62
   250
420
  2236961
370
     9
100
AcDbVertex
100
AcDb2dVertex
 10
105.208329402244
 20
-117.4132358681348
 30
0.0
  0
SEQEND
  5
156
330
153
100
AcDbEntity
  8
Capa 1
 62
   250
420
  2236961
370
     9
  0
POLYLINE
  5
157
330
1F
100
AcDbEntity
  8
Capa 1
 62
   250
420
  2236961
370
     9
100
AcDb2dPolyline
 66
     1
 10
0.0
 20
0.0
 30
0.0
  0
VERTEX
  5
158
330
157
100
AcDbEntity
  8
Capa 1
 62
   250
420
  2236961
370
     9
100
AcDbVertex
100
AcDb2dVertex
 10
90.2780701358384
 20
-119.6068035250571
 30
0.0
  0
VERTEX
  5
159
330
157
100
AcDbEntity
  8
Capa 1
 62
   250
420
  2236961
370
     9
100
AcDbVertex
100
AcDb2dVertex
 10
91.10850905681745
 20
-114.9169788921014
 30
0.0
  0
SEQEND
  5
15A
330
157
100
AcDbEntity
  8
Capa 1
 62
   250
420
  2236961
370
     9
  0
POLYLINE
  5
15B
330
1F
100
AcDbEntity
  8
Capa 1
370
     0
100
AcDb2dPolyline
 66
     1
 10
0.0
 20
0.0
 30
0.0
  0
VERTEX
  5
15C
330
15B
100
AcDbEntity
  8
Capa 1
370
     0
100
AcDbVertex
100
AcDb2dVertex
 10
92.62700487044337
 20
-115.8904336851523
 30
0.0
  0
VERTEX
  5
15D
330
15B
100
AcDbEntity
  8
Capa 1
370
     0
100
AcDbVertex
100
AcDb2dVertex
 10
92.72366402213225
 20
-115.3443376040853
 30
0.0
  0
VERTEX
  5
15E
330
15B
100
AcDbEntity
  8
Capa 1
370
     0
100
AcDbVertex
100
AcDb2dVertex
 10
91.03597633944871
 20
-115.3274028065902
 30
0.0
  0
VERTEX
  5
15F
330
15B
100
AcDbEntity
  8
Capa 1
370
     0
100
AcDbVertex
100
AcDb2dVertex
 10
92.62700487044337
 20
-115.8904336851523
 30
0.0
  0
SEQEND
  5
161
330
15B
100
AcDbEntity
  8
Capa 1
370
     0
  0
HATCH
  5
160
330
1F
100
AcDbEntity
  8
Capa 1
 62
   250
420
  2236961
100
AcDbHatch
 10
0.0
 20
0.0
 30
0.0
210
0.0
220
0.0
230
1.0
  2
SOLID
 70
     1
 71
     0
 91
        1
 92
        1
 93
        3
 72
     1
 10
92.62700487044337
 20
-115.8904336851523
 11
92.72366402213225
 21
-115.3443376040853
 72
     1
 10
92.72366402213225
 20
-115.3443376040853
 11
91.03597633944871
 21
-115.3274028065902
 72
     1
 10
91.03597633944871
 20
-115.3274028065902
 11
92.62700487044337
 21
-115.8904336851523
 97
        0
 75
     2
 76
     1
 98
        0
  0
POLYLINE
  5
162
330
1F
100
AcDbEntity
  8
Capa 1
370
     0
100
AcDb2dPolyline
 66
     1
 10
0.0
 20
0.0
 30
0.0
  0
VERTEX
  5
163
330
162
100
AcDbEntity
  8
Capa 1
370
     0
100
AcDbVertex
100
AcDb2dVertex
 10
103.4480417151706
 20
-117.8062243696913
 30
0.0
  0
VERTEX
  5
164
330
162
100
AcDbEntity
  8
Capa 1
370
     0
100
AcDbVertex
100
AcDb2dVertex
 10
105.1357293978541
 20
-117.8231591671859
 30
0.0
  0
VERTEX
  5
165
330
162
100
AcDbEntity
  8
Capa 1
370
     0
100
AcDbVertex
100
AcDb2dVertex
 10
103.5447008668594
 20
-117.2587179526596
 30
0.0
  0
VERTEX
  5
166
330
162
100
AcDbEntity
  8
Capa 1
370
     0
100
AcDbVertex
100
AcDb2dVertex
 10
103.4480417151706
 20
-117.8062243696913
 30
0.0
  0
SEQEND
  5
168
330
162
100
AcDbEntity
  8
Capa 1
370
     0
  0
HATCH
  5
167
330
1F
100
AcDbEntity
  8
Capa 1
 62
   250
420
  2236961
100
AcDbHatch
 10
0.0
 20
0.0
 30
0.0
210
0.0
220
0.0
230
1.0
  2
SOLID
 70
     1
 71
     0
 91
        1
 92
        1
 93
        3
 72
     1
 10
103.4480417151706
 20
-117.8062243696913
 11
105.1357293978541
 21
-117.8231591671859
 72
     1
 10
105.1357293978541
 20
-117.8231591671859
 11
103.5447008668594
 21
-117.2587179526596
 72
     1
 10
103.5447008668594
 20
-117.2587179526596
 11
103.4480417151706
 21
-117.8062243696913
 97
        0
 75
     2
 76
     1
 98
        0
  0
INSERT
  5
16A
330
1F
100
AcDbEntity
  8
Capa 1
100
AcDbBlockReference
  2
block 4
 10
0.0
 20
0.0
 30
0.0
  0
POLYLINE
  5
178
330
1F
100
AcDbEntity
  8
Capa 1
370
     0
100
AcDb2dPolyline
 66
     1
 10
0.0
 20
0.0
 30
0.0
  0
VERTEX
  5
179
330
178
100
AcDbEntity
  8
Capa 1
370
     0
100
AcDbVertex
100
AcDb2dVertex
 10
98.52495720305498
 20
-115.4466354081501
 30
0.0
  0
VERTEX
  5
17A
330
178
100
AcDbEntity
  8
Capa 1
370
     0
100
AcDbVertex
100
AcDb2dVertex
 10
98.74509073012022
 20
-114.2006251155606
 30
0.0
  0
VERTEX
  5
17B
330
178
100
AcDbEntity
  8
Capa 1
370
     0
100
AcDbVertex
100
AcDb2dVertex
 10
97.65994486484486
 20
-115.2928280436187
 30
0.0
  0
VERTEX
  5
17C
330
178
100
AcDbEntity
  8
Capa 1
370
     0
100
AcDbVertex
100
AcDb2dVertex
 10
98.52495720305498
 20
-115.4466354081501
 30
0.0
  0
SEQEND
  5
17D
330
178
100
AcDbEntity
  8
Capa 1
370
     0
  0
POLYLINE
  5
17E
330
1F
100
AcDbEntity
  8
Capa 1
370
     0
100
AcDb2dPolyline
 66
     1
 10
0.0
 20
0.0
 30
0.0
  0
VERTEX
  5
17F
330
17E
100
AcDbEntity
  8
Capa 1
370
     0
100
AcDbVertex
100
AcDb2dVertex
 10
98.35280201358385
 20
-116.4181846327607
 30
0.0
  0
VERTEX
  5
180
330
17E
100
AcDbEntity
  8
Capa 1
370
     0
100
AcDbVertex
100
AcDb2dVertex
 10
98.46992180267812
 20
-115.7570815750646
 30
0.0
  0
VERTEX
  5
181
330
17E
100
AcDbEntity
  8
Capa 1
370
     0
100
AcDbVertex
100
AcDb2dVertex
 10
97.27118467970034
 20
-115.5447075872841
 30
0.0
  0
VERTEX
  5
182
330
17E
100
AcDbEntity
  8
Capa 1
370
     0
100
AcDbVertex
100
AcDb2dVertex
 10
97.3269225565785
 20
-115.2335616353491
 30
0.0
  0
VERTEX
  5
183
330
17E
100
AcDbEntity
  8
Capa 1
370
     0
100
AcDbVertex
100
AcDb2dVertex
 10
98.90383965348788
 20
-113.6679326091156
 30
0.0
  0
VERTEX
  5
184
330
17E
100
AcDbEntity
  8
Capa 1
370
     0
100
AcDbVertex
100
AcDb2dVertex
 10
99.17971105743095
 20
-113.7166161146918
 30
0.0
  0
VERTEX
  5
185
330
17E
100
AcDbEntity
  8
Capa 1
370
     0
100
AcDbVertex
100
AcDb2dVertex
 10
98.86362354665928
 20
-115.5059018164198
 30
0.0
  0
VERTEX
  5
186
330
17E
100
AcDbEntity
  8
Capa 1
370
     0
100
AcDbVertex
100
AcDb2dVertex
 10
99.2361567937721
 20
-115.5715201194904
 30
0.0
  0
VERTEX
  5
187
330
17E
100
AcDbEntity
  8
Capa 1
370
     0
100
AcDbVertex
100
AcDb2dVertex
 10
99.18112408487607
 20
-115.8826714543871
 30
0.0
  0
VERTEX
  5
188
330
17E
100
AcDbEntity
  8
Capa 1
370
     0
100
AcDbVertex
100
AcDb2dVertex
 10
98.80788297830027
 20
-115.8170531513165
 30
0.0
  0
VERTEX
  5
189
330
17E
100
AcDbEntity
  8
Capa 1
370
     0
100
AcDbVertex
100
AcDb2dVertex
 10
98.69146835718816
 20
-116.4774564239921
 30
0.0
  0
VERTEX
  5
18A
330
17E
100
AcDbEntity
  8
Capa 1
370
     0
100
AcDbVertex
100
AcDb2dVertex
 10
98.35280201358385
 20
-116.4181846327607
 30
0.0
  0
SEQEND
  5
18B
330
17E
100
AcDbEntity
  8
Capa 1
370
     0
  0
HATCH
  5
18C
330
1F
100
AcDbEntity
  8
Capa 1
 62
   250
420
  2236961
100
AcDbHatch
 10
0.0
 20
0.0
 30
0.0
210
0.0
220
0.0
230
1.0
  2
SOLID
 70
     1
 71
     0
 91
        2
 92
        1
 93
        3
 72
     1
 10
98.52495720305498
 20
-115.4466354081501
 11
98.74509073012022
 21
-114.2006251155606
 72
     1
 10
98.74509073012022
 20
-114.2006251155606
 11
97.65994486484486
 21
-115.2928280436187
 72
     1
 10
97.65994486484486
 20
-115.2928280436187
 11
98.52495720305498
 21
-115.4466354081501
 97
        0
 92
        1
 93
       11
 72
     1
 10
98.35280201358385
 20
-116.4181846327607
 11
98.46992180267812
 21
-115.7570815750646
 72
     1
 10
98.46992180267812
 20
-115.7570815750646
 11
97.27118467970034
 21
-115.5447075872841
 72
     1
 10
97.27118467970034
 20
-115.5447075872841
 11
97.3269225565785
 21
-115.2335616353491
 72
     1
 10
97.3269225565785
 20
-115.2335616353491
 11
98.90383965348788
 21
-113.6679326091156
 72
     1
 10
98.90383965348788
 20
-113.6679326091156
 11
99.17971105743095
 21
-113.7166161146918
 72
     1
 10
99.17971105743095
 20
-113.7166161146918
 11
98.86362354665928
 21
-115.5059018164198
 72
     1
 10
98.86362354665928
 20
-115.5059018164198
 11
99.2361567937721
 21
-115.5715201194904
 72
     1
 10
99.2361567937721
 20
-115.5715201194904
 11
99.18112408487607
 21
-115.8826714543871
 72
     1
 10
99.18112408487607
 20
-115.8826714543871
 11
98.80788297830027
 21
-115.8170531513165
 72
     1
 10
98.80788297830027
 20
-115.8170531513165
 11
98.69146835718816
 21
-116.4774564239921
 72
     1
 10
98.69146835718816
 20
-116.4774564239921
 11
98.35280201358385
 21
-116.4181846327607
 97
        0
 75
     2
 76
     1
 98
        0
  0
INSERT
  5
18E
330
1F
100
AcDbEntity
  8
Capa 1
100
AcDbBlockReference
  2
block 5
 10
0.0
 20
0.0
 30
0.0
  0
POLYLINE
  5
19A
330
1F
100
AcDbEntity
  8
Capa 1
 62
   250
420
  2236961
370
     9
100
AcDb2dPolyline
 66
     1
 10
0.0
 20
0.0
 30
0.0
  0
VERTEX
  5
19B
330
19A
100
AcDbEntity
  8
Capa 1
 62
   250
420
  2236961
370
     9
100
AcDbVertex
100
AcDb2dVertex
 10
108.4310951120571
 20
-124.7221566630198
 30
0.0
  0
VERTEX
  5
19C
330
19A
100
AcDbEntity
  8
Capa 1
 62
   250
420
  2236961
370
     9
100
AcDbVertex
100
AcDb2dVertex
 10
107.7925681957128
 20
-128.3296614855907
 30
0.0
  0
SEQEND
  5
19D
330
19A
100
AcDbEntity
  8
Capa 1
 62
   250
420
  2236961
370
     9
  0
POLYLINE
  5
19E
330
1F
100
AcDbEntity
  8
Capa 1
 62
   250
420
  2236961
370
     9
100
AcDb2dPolyline
 66
     1
 10
0.0
 20
0.0
 30
0.0
  0
VERTEX
  5
19F
330
19E
100
AcDbEntity
  8
Capa 1
 62
   250
420
  2236961
370
     9
100
AcDbVertex
100
AcDb2dVertex
 10
103.327813265697
 20
-129.2299510632736
 30
0.0
  0
VERTEX
  5
1A0
330
19E
100
AcDbEntity
  8
Capa 1
 62
   250
420
  2236961
370
     9
100
AcDbVertex
100
AcDb2dVertex
 10
107.9125113482165
 20
-130.041341028552
 30
0.0
  0
SEQEND
  5
1A1
330
19E
100
AcDbEntity
  8
Capa 1
 62
   250
420
  2236961
370
     9
  0
POLYLINE
  5
1A2
330
1F
100
AcDbEntity
  8
Capa 1
 62
   250
420
  2236961
370
     9
100
AcDb2dPolyline
 66
     1
 10
0.0
 20
0.0
 30
0.0
  0
VERTEX
  5
1A3
330
1A2
100
AcDbEntity
  8
Capa 1
 62
   250
420
  2236961
370
     9
100
AcDbVertex
100
AcDb2dVertex
 10
104.547013717561
 20
-122.3437273355436
 30
0.0
  0
VERTEX
  5
1A4
330
1A2
100
AcDbEntity
  8
Capa 1
 62
   250
420
  2236961
370
     9
100
AcDbVertex
100
AcDb2dVertex
 10
109.1310066320983
 20
-123.1558224688041
 30
0.0
  0
SEQEND
  5
1A5
330
1A2
100
AcDbEntity
  8
Capa 1
 62
   250
420
  2236961
370
     9
  0
POLYLINE
  5
1A6
330
1F
100
AcDbEntity
  8
Capa 1
370
     0
100
AcDb2dPolyline
 66
     1
 10
0.0
 20
0.0
 30
0.0
  0
VERTEX
  5
1A7
330
1A6
100
AcDbEntity
  8
Capa 1
370
     0
100
AcDbVertex
100
AcDb2dVertex
 10
108.1578371360173
 20
-124.673753071452
 30
0.0
  0
VERTEX
  5
1A8
330
1A6
100
AcDbEntity
  8
Capa 1
370
     0
100
AcDbVertex
100
AcDb2dVertex
 10
108.7046410765477
 20
-124.7704149146218
 30
0.0
  0
VERTEX
  5
1A9
330
1A6
100
AcDbEntity
  8
Capa 1
370
     0
100
AcDbVertex
100
AcDb2dVertex
 10
108.7208680145794
 20
-123.0827272319382
 30
0.0
  0
VERTEX
  5
1AA
330
1A6
100
AcDbEntity
  8
Capa 1
370
     0
100
AcDbVertex
100
AcDb2dVertex
 10
108.1578371360173
 20
-124.673753071452
 30
0.0
  0
SEQEND
  5
1AC
330
1A6
100
AcDbEntity
  8
Capa 1
370
     0
  0
HATCH
  5
1AB
330
1F
100
AcDbEntity
  8
Capa 1
 62
   250
420
  2236961
100
AcDbHatch
 10
0.0
 20
0.0
 30
0.0
210
0.0
220
0.0
230
1.0
  2
SOLID
 70
     1
 71
     0
 91
        1
 92
        1
 93
        3
 72
     1
 10
108.1578371360173
 20
-124.673753071452
 11
108.7046410765477
 21
-124.7704149146218
 72
     1
 10
108.7046410765477
 20
-124.7704149146218
 11
108.7208680145794
 21
-123.0827272319382
 72
     1
 10
108.7208680145794
 20
-123.0827272319382
 11
108.1578371360173
 21
-124.673753071452
 97
        0
 75
     2
 76
     1
 98
        0
  0
POLYLINE
  5
1AD
330
1F
100
AcDbEntity
  8
Capa 1
370
     0
100
AcDb2dPolyline
 66
     1
 10
0.0
 20
0.0
 30
0.0
  0
VERTEX
  5
1AE
330
1AD
100
AcDbEntity
  8
Capa 1
370
     0
100
AcDbVertex
100
AcDb2dVertex
 10
107.5025153791824
 20
-129.9690155552085
 30
0.0
  0
VERTEX
  5
1AF
330
1AD
100
AcDbEntity
  8
Capa 1
370
     0
100
AcDbVertex
100
AcDb2dVertex
 10
108.0655462577445
 20
-128.3779897156947
 30
0.0
  0
VERTEX
  5
1B0
330
1AD
100
AcDbEntity
  8
Capa 1
370
     0
100
AcDbVertex
100
AcDb2dVertex
 10
107.5194474851963
 20
-128.2813278725249
 30
0.0
  0
VERTEX
  5
1B1
330
1AD
100
AcDbEntity
  8
Capa 1
370
     0
100
AcDbVertex
100
AcDb2dVertex
 10
107.5025153791824
 20
-129.9690155552085
 30
0.0
  0
SEQEND
  5
1B3
330
1AD
100
AcDbEntity
  8
Capa 1
370
     0
  0
HATCH
  5
1B2
330
1F
100
AcDbEntity
  8
Capa 1
 62
   250
420
  2236961
100
AcDbHatch
 10
0.0
 20
0.0
 30
0.0
210
0.0
220
0.0
230
1.0
  2
SOLID
 70
     1
 71
     0
 91
        1
 92
        1
 93
        3
 72
     1
 10
107.5025153791824
 20
-129.9690155552085
 11
108.0655462577445
 21
-128.3779897156947
 72
     1
 10
108.0655462577445
 20
-128.3779897156947
 11
107.5194474851963
 21
-128.2813278725249
 72
     1
 10
107.5194474851963
 20
-128.2813278725249
 11
107.5025153791824
 21
-129.9690155552085
 97
        0
 75
     2
 76
     1
 98
        0
  0
MTEXT
  5
1B4
330
1F
100
AcDbEntity
  8
Capa 1
 62
   250
420
  2236961
100
AcDbMText
 10
107.6033296406501
 20
-128.2787212318108
 30
0.0
 40
2.49767608157586
 41
0.0
 46
0.0
 71
     7
 72
     1
  1
\fArial|b1|i0|c0|p34;\W1;2
 11
0.174279345726801
 21
0.9846962524824791
 31
0.0
 73
     1
 44
1.0
  0
MTEXT
  5
1B5
330
1F
100
AcDbEntity
  8
Capa 1
 62
   250
420
  2236961
100
AcDbMText
 10
107.9825103535614
 20
-126.1343343780152
 30
0.0
 40
2.49767608157586
 41
0.0
 46
0.0
 71
     7
 72
     1
  1
\fArial|b1|i0|c0|p34;\W1;1
 11
0.174279345726801
 21
0.9846962524824791
 31
0.0
 73
     1
 44
1.0
  0
POLYLINE
  5
1B6
330
1F
100
AcDbEntity
  8
Capa 1
 62
   250
420
  2236961
370
     9
100
AcDb2dPolyline
 66
     1
 10
0.0
 20
0.0
 30
0.0
  0
VERTEX
  5
1B7
330
1B6
100
AcDbEntity
  8
Capa 1
 62
   250
420
  2236961
370
     9
100
AcDbVertex
100
AcDb2dVertex
 10
86.8686138942354
 20
-148.9970745985743
 30
0.0
  0
VERTEX
  5
1B8
330
1B6
100
AcDbEntity
  8
Capa 1
 62
   250
420
  2236961
370
     9
100
AcDbVertex
100
AcDb2dVertex
 10
97.49286849973363
 20
-150.8780859675973
 30
0.0
  0
SEQEND
  5
1B9
330
1B6
100
AcDbEntity
  8
Capa 1
 62
   250
420
  2236961
370
     9
  0
POLYLINE
  5
1BA
330
1F
100
AcDbEntity
  8
Capa 1
 62
   250
420
  2236961
370
     9
100
AcDb2dPolyline
 66
     1
 10
0.0
 20
0.0
 30
0.0
  0
VERTEX
  5
1BB
330
1BA
100
AcDbEntity
  8
Capa 1
 62
   250
420
  2236961
370
     9
100
AcDbVertex
100
AcDb2dVertex
 10
99.16856294375914
 20
-150.962754572109
 30
0.0
  0
VERTEX
  5
1BC
330
1BA
100
AcDbEntity
  8
Capa 1
 62
   250
420
  2236961
370
     9
100
AcDbVertex
100
AcDb2dVertex
 10
99.20525321067706
 20
-150.7581428150937
 30
0.0
  0
SEQEND
  5
1BD
330
1BA
100
AcDbEntity
  8
Capa 1
 62
   250
420
  2236961
370
     9
  0
POLYLINE
  5
1BE
330
1F
100
AcDbEntity
  8
Capa 1
 62
   250
420
  2236961
370
     9
100
AcDb2dPolyline
 66
     1
 10
0.0
 20
0.0
 30
0.0
  0
VERTEX
  5
1BF
330
1BE
100
AcDbEntity
  8
Capa 1
 62
   250
420
  2236961
370
     9
100
AcDbVertex
100
AcDb2dVertex
 10
85.26559212458271
 20
-148.5024800035306
 30
0.0
  0
VERTEX
  5
1C0
330
1BE
100
AcDbEntity
  8
Capa 1
 62
   250
420
  2236961
370
     9
100
AcDbVertex
100
AcDb2dVertex
 10
85.30157453203763
 20
-148.2971657700139
 30
0.0
  0
SEQEND
  5
1C1
330
1BE
100
AcDbEntity
  8
Capa 1
 62
   250
420
  2236961
370
     9
  0
POLYLINE
  5
1C2
330
1F
100
AcDbEntity
  8
Capa 1
370
     0
100
AcDb2dPolyline
 66
     1
 10
0.0
 20
0.0
 30
0.0
  0
VERTEX
  5
1C3
330
1C2
100
AcDbEntity
  8
Capa 1
370
     0
100
AcDbVertex
100
AcDb2dVertex
 10
86.82056557813955
 20
-149.2704779145799
 30
0.0
  0
VERTEX
  5
1C4
330
1C2
100
AcDbEntity
  8
Capa 1
370
     0
100
AcDbVertex
100
AcDb2dVertex
 10
86.91722607556886
 20
-148.7243791420317
 30
0.0
  0
VERTEX
  5
1C5
330
1C2
100
AcDbEntity
  8
Capa 1
370
     0
100
AcDbVertex
100
AcDb2dVertex
 10
85.22953704714489
 20
-148.7074470360179
 30
0.0
  0
VERTEX
  5
1C6
330
1C2
100
AcDbEntity
  8
Capa 1
370
     0
100
AcDbVertex
100
AcDb2dVertex
 10
86.82056557813955
 20
-149.2704779145799
 30
0.0
  0
SEQEND
  5
1C8
330
1C2
100
AcDbEntity
  8
Capa 1
370
     0
  0
HATCH
  5
1C7
330
1F
100
AcDbEntity
  8
Capa 1
 62
   250
420
  2236961
100
AcDbHatch
 10
0.0
 20
0.0
 30
0.0
210
0.0
220
0.0
230
1.0
  2
SOLID
 70
     1
 71
     0
 91
        1
 92
        1
 93
        3
 72
     1
 10
86.82056557813955
 20
-149.2704779145799
 11
86.91722607556886
 21
-148.7243791420317
 72
     1
 10
86.91722607556886
 20
-148.7243791420317
 11
85.22953704714489
 21
-148.7074470360179
 72
     1
 10
85.22953704714489
 20
-148.7074470360179
 11
86.82056557813955
 21
-149.2704779145799
 97
        0
 75
     2
 76
     1
 98
        0
  0
POLYLINE
  5
1C9
330
1F
100
AcDbEntity
  8
Capa 1
370
     0
100
AcDb2dPolyline
 66
     1
 10
0.0
 20
0.0
 30
0.0
  0
VERTEX
  5
1CA
330
1C9
100
AcDbEntity
  8
Capa 1
370
     0
100
AcDbVertex
100
AcDb2dVertex
 10
97.44475020513573
 20
-151.1507114456379
 30
0.0
  0
VERTEX
  5
1CB
330
1C9
100
AcDbEntity
  8
Capa 1
370
     0
100
AcDbVertex
100
AcDb2dVertex
 10
99.1324378878193
 20
-151.1676462431326
 30
0.0
  0
VERTEX
  5
1CC
330
1C9
100
AcDbEntity
  8
Capa 1
370
     0
100
AcDbVertex
100
AcDb2dVertex
 10
97.54140935682463
 20
-150.6046126730897
 30
0.0
  0
VERTEX
  5
1CD
330
1C9
100
AcDbEntity
  8
Capa 1
370
     0
100
AcDbVertex
100
AcDb2dVertex
 10
97.44475020513573
 20
-151.1507114456379
 30
0.0
  0
SEQEND
  5
1CF
330
1C9
100
AcDbEntity
  8
Capa 1
370
     0
  0
HATCH
  5
1CE
330
1F
100
AcDbEntity
  8
Capa 1
 62
   250
420
  2236961
100
AcDbHatch
 10
0.0
 20
0.0
 30
0.0
210
0.0
220
0.0
230
1.0
  2
SOLID
 70
     1
 71
     0
 91
        1
 92
        1
 93
        3
 72
     1
 10
97.44475020513573
 20
-151.1507114456379
 11
99.1324378878193
 21
-151.1676462431326
 72
     1
 10
99.1324378878193
 20
-151.1676462431326
 11
97.54140935682463
 21
-150.6046126730897
 72
     1
 10
97.54140935682463
 20
-150.6046126730897
 11
97.44475020513573
 21
-151.1507114456379
 97
        0
 75
     2
 76
     1
 98
        0
  0
INSERT
  5
1D1
330
1F
100
AcDbEntity
  8
Capa 1
100
AcDbBlockReference
  2
block 6
 10
0.0
 20
0.0
 30
0.0
  0
POLYLINE
  5
1DF
330
1F
100
AcDbEntity
  8
Capa 1
370
     0
100
AcDb2dPolyline
 66
     1
 10
0.0
 20
0.0
 30
0.0
  0
VERTEX
  5
1E0
330
1DF
100
AcDbEntity
  8
Capa 1
370
     0
100
AcDbVertex
100
AcDb2dVertex
 10
90.69505318915348
 20
-148.4686131000221
 30
0.0
  0
VERTEX
  5
1E1
330
1DF
100
AcDbEntity
  8
Capa 1
370
     0
100
AcDbVertex
100
AcDb2dVertex
 10
90.9151867162184
 20
-147.2226028074327
 30
0.0
  0
VERTEX
  5
1E2
330
1DF
100
AcDbEntity
  8
Capa 1
370
     0
100
AcDbVertex
100
AcDb2dVertex
 10
89.83074736466592
 20
-148.3148030440102
 30
0.0
  0
VERTEX
  5
1E3
330
1DF
100
AcDbEntity
  8
Capa 1
370
     0
100
AcDbVertex
100
AcDb2dVertex
 10
90.69505318915348
 20
-148.4686131000221
 30
0.0
  0
SEQEND
  5
1E4
330
1DF
100
AcDbEntity
  8
Capa 1
370
     0
  0
POLYLINE
  5
1E5
330
1F
100
AcDbEntity
  8
Capa 1
370
     0
100
AcDb2dPolyline
 66
     1
 10
0.0
 20
0.0
 30
0.0
  0
VERTEX
  5
1E6
330
1E5
100
AcDbEntity
  8
Capa 1
370
     0
100
AcDbVertex
100
AcDb2dVertex
 10
90.52289799968237
 20
-149.4401623246327
 30
0.0
  0
VERTEX
  5
1E7
330
1E5
100
AcDbEntity
  8
Capa 1
370
     0
100
AcDbVertex
100
AcDb2dVertex
 10
90.64001913451705
 20
-148.7783514074737
 30
0.0
  0
VERTEX
  5
1E8
330
1E5
100
AcDbEntity
  8
Capa 1
370
     0
100
AcDbVertex
100
AcDb2dVertex
 10
89.44198583378099
 20
-148.5666852791564
 30
0.0
  0
VERTEX
  5
1E9
330
1E5
100
AcDbEntity
  8
Capa 1
370
     0
100
AcDbVertex
100
AcDb2dVertex
 10
89.49701988841743
 20
-148.2555366357402
 30
0.0
  0
VERTEX
  5
1EA
330
1E5
100
AcDbEntity
  8
Capa 1
370
     0
100
AcDbVertex
100
AcDb2dVertex
 10
91.07464215330894
 20
-146.6899076095067
 30
0.0
  0
VERTEX
  5
1EB
330
1E5
100
AcDbEntity
  8
Capa 1
370
     0
100
AcDbVertex
100
AcDb2dVertex
 10
91.35051355725201
 20
-146.7392962830648
 30
0.0
  0
VERTEX
  5
1EC
330
1E5
100
AcDbEntity
  8
Capa 1
370
     0
100
AcDbVertex
100
AcDb2dVertex
 10
91.03371953275779
 20
-148.5278795082918
 30
0.0
  0
VERTEX
  5
1ED
330
1E5
100
AcDbEntity
  8
Capa 1
370
     0
100
AcDbVertex
100
AcDb2dVertex
 10
91.40695794785273
 20
-148.5942029793445
 30
0.0
  0
VERTEX
  5
1EE
330
1E5
100
AcDbEntity
  8
Capa 1
370
     0
100
AcDbVertex
100
AcDb2dVertex
 10
91.35192523895671
 20
-148.9046464547782
 30
0.0
  0
VERTEX
  5
1EF
330
1E5
100
AcDbEntity
  8
Capa 1
370
     0
100
AcDbVertex
100
AcDb2dVertex
 10
90.97868682386176
 20
-148.8390308431885
 30
0.0
  0
VERTEX
  5
1F0
330
1E5
100
AcDbEntity
  8
Capa 1
370
     0
100
AcDbVertex
100
AcDb2dVertex
 10
90.86156434328666
 20
-149.4994314243832
 30
0.0
  0
VERTEX
  5
1F1
330
1E5
100
AcDbEntity
  8
Capa 1
370
     0
100
AcDbVertex
100
AcDb2dVertex
 10
90.52289799968237
 20
-149.4401623246327
 30
0.0
  0
SEQEND
  5
1F2
330
1E5
100
AcDbEntity
  8
Capa 1
370
     0
  0
HATCH
  5
1F3
330
1F
100
AcDbEntity
  8
Capa 1
 62
   250
420
  2236961
100
AcDbHatch
 10
0.0
 20
0.0
 30
0.0
210
0.0
220
0.0
230
1.0
  2
SOLID
 70
     1
 71
     0
 91
        2
 92
        1
 93
        3
 72
     1
 10
90.69505318915348
 20
-148.4686131000221
 11
90.9151867162184
 21
-147.2226028074327
 72
     1
 10
90.9151867162184
 20
-147.2226028074327
 11
89.83074736466592
 21
-148.3148030440102
 72
     1
 10
89.83074736466592
 20
-148.3148030440102
 11
90.69505318915348
 21
-148.4686131000221
 97
        0
 92
        1
 93
       11
 72
     1
 10
90.52289799968237
 20
-149.4401623246327
 11
90.64001913451705
 21
-148.7783514074737
 72
     1
 10
90.64001913451705
 20
-148.7783514074737
 11
89.44198583378099
 21
-148.5666852791564
 72
     1
 10
89.44198583378099
 20
-148.5666852791564
 11
89.49701988841743
 21
-148.2555366357402
 72
     1
 10
89.49701988841743
 20
-148.2555366357402
 11
91.07464215330894
 21
-146.6899076095067
 72
     1
 10
91.07464215330894
 20
-146.6899076095067
 11
91.35051355725201
 21
-146.7392962830648
 72
     1
 10
91.35051355725201
 20
-146.7392962830648
 11
91.03371953275779
 21
-148.5278795082918
 72
     1
 10
91.03371953275779
 20
-148.5278795082918
 11
91.40695794785273
 21
-148.5942029793445
 72
     1
 10
91.40695794785273
 20
-148.5942029793445
 11
91.35192523895671
 21
-148.9046464547782
 72
     1
 10
91.35192523895671
 20
-148.9046464547782
 11
90.97868682386176
 21
-148.8390308431885
 72
     1
 10
90.97868682386176
 20
-148.8390308431885
 11
90.86156434328666
 21
-149.4994314243832
 72
     1
 10
90.86156434328666
 20
-149.4994314243832
 11
90.52289799968237
 21
-149.4401623246327
 97
        0
 75
     2
 76
     1
 98
        0
  0
INSERT
  5
1F5
330
1F
100
AcDbEntity
  8
Capa 1
100
AcDbBlockReference
  2
block 7
 10
0.0
 20
0.0
 30
0.0
  0
POLYLINE
  5
201
330
1F
100
AcDbEntity
  8
Capa 1
370
     0
100
AcDb2dPolyline
 66
     1
 10
0.0
 20
0.0
 30
0.0
  0
VERTEX
  5
202
330
201
100
AcDbEntity
  8
Capa 1
370
     0
100
AcDbVertex
100
AcDb2dVertex
 10
93.91605463327079
 20
-150.0407312865797
 30
0.0
  0
VERTEX
  5
203
330
201
100
AcDbEntity
  8
Capa 1
370
     0
100
AcDbVertex
100
AcDb2dVertex
 10
94.30269662298804
 20
-150.1091702615789
 30
0.0
  0
VERTEX
  5
204
330
201
100
AcDbEntity
  8
Capa 1
370
     0
100
AcDbVertex
100
AcDb2dVertex
 10
94.37043043000507
 20
-149.7225282718616
 30
0.0
  0
VERTEX
  5
205
330
201
100
AcDbEntity
  8
Capa 1
370
     0
100
AcDbVertex
100
AcDb2dVertex
 10
93.98449091678911
 20
-149.6547944648446
 30
0.0
  0
VERTEX
  5
206
330
201
100
AcDbEntity
  8
Capa 1
370
     0
100
AcDbVertex
100
AcDb2dVertex
 10
93.91605463327079
 20
-150.0407312865797
 30
0.0
  0
SEQEND
  5
208
330
201
100
AcDbEntity
  8
Capa 1
370
     0
  0
HATCH
  5
207
330
1F
100
AcDbEntity
  8
Capa 1
 62
   250
420
  2236961
100
AcDbHatch
 10
0.0
 20
0.0
 30
0.0
210
0.0
220
0.0
230
1.0
  2
SOLID
 70
     1
 71
     0
 91
        1
 92
        1
 93
        4
 72
     1
 10
93.91605463327079
 20
-150.0407312865797
 11
94.30269662298804
 21
-150.1091702615789
 72
     1
 10
94.30269662298804
 20
-150.1091702615789
 11
94.37043043000507
 21
-149.7225282718616
 72
     1
 10
94.37043043000507
 20
-149.7225282718616
 11
93.98449091678911
 21
-149.6547944648446
 72
     1
 10
93.98449091678911
 20
-149.6547944648446
 11
93.91605463327079
 21
-150.0407312865797
 97
        0
 75
     2
 76
     1
 98
        0
  0
POLYLINE
  5
209
330
1F
100
AcDbEntity
  8
Capa 1
370
     0
100
AcDb2dPolyline
 66
     1
 10
0.0
 20
0.0
 30
0.0
  0
VERTEX
  5
20A
330
209
100
AcDbEntity
  8
Capa 1
370
     0
100
AcDbVertex
100
AcDb2dVertex
 10
96.05734565768527
 20
-149.4173735562939
 30
0.0
  0
VERTEX
  5
20B
330
209
100
AcDbEntity
  8
Capa 1
370
     0
100
AcDbVertex
100
AcDb2dVertex
 10
96.2774791847502
 20
-148.1720684316867
 30
0.0
  0
VERTEX
  5
20C
330
209
100
AcDbEntity
  8
Capa 1
370
     0
100
AcDbVertex
100
AcDb2dVertex
 10
95.1930384874573
 20
-149.2635635002818
 30
0.0
  0
VERTEX
  5
20D
330
209
100
AcDbEntity
  8
Capa 1
370
     0
100
AcDbVertex
100
AcDb2dVertex
 10
96.05734565768527
 20
-149.4173735562939
 30
0.0
  0
SEQEND
  5
20E
330
209
100
AcDbEntity
  8
Capa 1
370
     0
  0
POLYLINE
  5
20F
330
1F
100
AcDbEntity
  8
Capa 1
370
     0
100
AcDb2dPolyline
 66
     1
 10
0.0
 20
0.0
 30
0.0
  0
VERTEX
  5
210
330
20F
100
AcDbEntity
  8
Capa 1
370
     0
100
AcDbVertex
100
AcDb2dVertex
 10
95.88519046821416
 20
-150.3889227809046
 30
0.0
  0
VERTEX
  5
211
330
20F
100
AcDbEntity
  8
Capa 1
370
     0
100
AcDbVertex
100
AcDb2dVertex
 10
96.00231025730841
 20
-149.7271118637455
 30
0.0
  0
VERTEX
  5
212
330
20F
100
AcDbEntity
  8
Capa 1
370
     0
100
AcDbVertex
100
AcDb2dVertex
 10
94.80427830231278
 20
-149.515445735428
 30
0.0
  0
VERTEX
  5
213
330
20F
100
AcDbEntity
  8
Capa 1
370
     0
100
AcDbVertex
100
AcDb2dVertex
 10
94.8593110112088
 20
-149.2050022599942
 30
0.0
  0
VERTEX
  5
214
330
20F
100
AcDbEntity
  8
Capa 1
370
     0
100
AcDbVertex
100
AcDb2dVertex
 10
96.43622810811817
 20
-147.6386680657786
 30
0.0
  0
VERTEX
  5
215
330
20F
100
AcDbEntity
  8
Capa 1
370
     0
100
AcDbVertex
100
AcDb2dVertex
 10
96.71280468004339
 20
-147.6880567393367
 30
0.0
  0
VERTEX
  5
216
330
20F
100
AcDbEntity
  8
Capa 1
370
     0
100
AcDbVertex
100
AcDb2dVertex
 10
96.39601200128958
 20
-149.4766399645636
 30
0.0
  0
VERTEX
  5
217
330
20F
100
AcDbEntity
  8
Capa 1
370
     0
100
AcDbVertex
100
AcDb2dVertex
 10
96.76995558436667
 20
-149.5429634356164
 30
0.0
  0
VERTEX
  5
218
330
20F
100
AcDbEntity
  8
Capa 1
370
     0
100
AcDbVertex
100
AcDb2dVertex
 10
96.71421770748852
 20
-149.8541120790322
 30
0.0
  0
VERTEX
  5
219
330
20F
100
AcDbEntity
  8
Capa 1
370
     0
100
AcDbVertex
100
AcDb2dVertex
 10
96.34097929239356
 20
-149.7877912994603
 30
0.0
  0
VERTEX
  5
21A
330
20F
100
AcDbEntity
  8
Capa 1
370
     0
100
AcDbVertex
100
AcDb2dVertex
 10
96.22385681181846
 20
-150.4488970486372
 30
0.0
  0
VERTEX
  5
21B
330
20F
100
AcDbEntity
  8
Capa 1
370
     0
100
AcDbVertex
100
AcDb2dVertex
 10
95.88519046821416
 20
-150.3889227809046
 30
0.0
  0
SEQEND
  5
21C
330
20F
100
AcDbEntity
  8
Capa 1
370
     0
  0
HATCH
  5
21D
330
1F
100
AcDbEntity
  8
Capa 1
 62
   250
420
  2236961
100
AcDbHatch
 10
0.0
 20
0.0
 30
0.0
210
0.0
220
0.0
230
1.0
  2
SOLID
 70
     1
 71
     0
 91
        2
 92
        1
 93
        3
 72
     1
 10
96.05734565768527
 20
-149.4173735562939
 11
96.2774791847502
 21
-148.1720684316867
 72
     1
 10
96.2774791847502
 20
-148.1720684316867
 11
95.1930384874573
 21
-149.2635635002818
 72
     1
 10
95.1930384874573
 20
-149.2635635002818
 11
96.05734565768527
 21
-149.4173735562939
 97
        0
 92
        1
 93
       11
 72
     1
 10
95.88519046821416
 20
-150.3889227809046
 11
96.00231025730841
 21
-149.7271118637455
 72
     1
 10
96.00231025730841
 20
-149.7271118637455
 11
94.80427830231278
 21
-149.515445735428
 72
     1
 10
94.80427830231278
 20
-149.515445735428
 11
94.8593110112088
 21
-149.2050022599942
 72
     1
 10
94.8593110112088
 20
-149.2050022599942
 11
96.43622810811817
 21
-147.6386680657786
 72
     1
 10
96.43622810811817
 20
-147.6386680657786
 11
96.71280468004339
 21
-147.6880567393367
 72
     1
 10
96.71280468004339
 20
-147.6880567393367
 11
96.39601200128958
 21
-149.4766399645636
 72
     1
 10
96.39601200128958
 20
-149.4766399645636
 11
96.76995558436667
 21
-149.5429634356164
 72
     1
 10
96.76995558436667
 20
-149.5429634356164
 11
96.71421770748852
 21
-149.8541120790322
 72
     1
 10
96.71421770748852
 20
-149.8541120790322
 11
96.34097929239356
 21
-149.7877912994603
 72
     1
 10
96.34097929239356
 20
-149.7877912994603
 11
96.22385681181846
 21
-150.4488970486372
 72
     1
 10
96.22385681181846
 20
-150.4488970486372
 11
95.88519046821416
 21
-150.3889227809046
 97
        0
 75
     2
 76
     1
 98
        0
  0
POLYLINE
  5
21E
330
1F
100
AcDbEntity
  8
Capa 1
 62
   250
420
  2236961
370
     9
100
AcDb2dPolyline
 66
     1
 10
0.0
 20
0.0
 30
0.0
  0
VERTEX
  5
21F
330
21E
100
AcDbEntity
  8
Capa 1
 62
   250
420
  2236961
370
     9
100
AcDbVertex
100
AcDb2dVertex
 10
113.1772981943328
 20
-143.0973593460074
 30
0.0
  0
VERTEX
  5
220
330
21E
100
AcDbEntity
  8
Capa 1
 62
   250
420
  2236961
370
     9
100
AcDbVertex
100
AcDb2dVertex
 10
113.2252765319266
 20
-155.7162192697122
 30
0.0
  0
SEQEND
  5
221
330
21E
100
AcDbEntity
  8
Capa 1
 62
   250
420
  2236961
370
     9
  0
POLYLINE
  5
222
330
1F
100
AcDbEntity
  8
Capa 1
 62
   250
420
  2236961
370
     9
100
AcDb2dPolyline
 66
     1
 10
0.0
 20
0.0
 30
0.0
  0
VERTEX
  5
223
330
222
100
AcDbEntity
  8
Capa 1
 62
   250
420
  2236961
370
     9
100
AcDbVertex
100
AcDb2dVertex
 10
113.1497804941443
 20
-135.7179540506788
 30
0.0
  0
VERTEX
  5
224
330
222
100
AcDbEntity
  8
Capa 1
 62
   250
420
  2236961
370
     9
100
AcDbVertex
100
AcDb2dVertex
 10
113.1709489910127
 20
-141.4322478046756
 30
0.0
  0
SEQEND
  5
225
330
222
100
AcDbEntity
  8
Capa 1
 62
   250
420
  2236961
370
     9
  0
POLYLINE
  5
226
330
1F
100
AcDbEntity
  8
Capa 1
 62
   250
420
  2236961
370
     9
100
AcDb2dPolyline
 66
     1
 10
0.0
 20
0.0
 30
0.0
  0
VERTEX
  5
227
330
226
100
AcDbEntity
  8
Capa 1
 62
   250
420
  2236961
370
     9
100
AcDbVertex
100
AcDb2dVertex
 10
112.9698657653888
 20
-143.0980645139895
 30
0.0
  0
VERTEX
  5
228
330
226
100
AcDbEntity
  8
Capa 1
 62
   250
420
  2236961
370
     9
100
AcDbVertex
100
AcDb2dVertex
 10
112.7610203089998
 20
-143.0987696819716
 30
0.0
  0
SEQEND
  5
229
330
226
100
AcDbEntity
  8
Capa 1
 62
   250
420
  2236961
370
     9
  0
POLYLINE
  5
22A
330
1F
100
AcDbEntity
  8
Capa 1
 62
   250
420
  2236961
370
     9
100
AcDb2dPolyline
 66
     1
 10
0.0
 20
0.0
 30
0.0
  0
VERTEX
  5
22B
330
22A
100
AcDbEntity
  8
Capa 1
 62
   250
420
  2236961
370
     9
100
AcDbVertex
100
AcDb2dVertex
 10
112.9352936938982
 20
-134.0542528453113
 30
0.0
  0
VERTEX
  5
22C
330
22A
100
AcDbEntity
  8
Capa 1
 62
   250
420
  2236961
370
     9
100
AcDbVertex
100
AcDb2dVertex
 10
112.7271534054913
 20
-134.0549633962551
 30
0.0
  0
SEQEND
  5
22D
330
22A
100
AcDbEntity
  8
Capa 1
 62
   250
420
  2236961
370
     9
  0
POLYLINE
  5
22E
330
1F
100
AcDbEntity
  8
Capa 1
370
     0
100
AcDb2dPolyline
 66
     1
 10
0.0
 20
0.0
 30
0.0
  0
VERTEX
  5
22F
330
22E
100
AcDbEntity
  8
Capa 1
370
     0
100
AcDbVertex
100
AcDb2dVertex
 10
112.8720761917439
 20
-135.7195743221492
 30
0.0
  0
VERTEX
  5
230
330
22E
100
AcDbEntity
  8
Capa 1
370
     0
100
AcDbVertex
100
AcDb2dVertex
 10
113.4273475310216
 20
-135.7174588182028
 30
0.0
  0
VERTEX
  5
231
330
22E
100
AcDbEntity
  8
Capa 1
370
     0
100
AcDbVertex
100
AcDb2dVertex
 10
113.1430087283311
 20
-134.0530524448532
 30
0.0
  0
VERTEX
  5
232
330
22E
100
AcDbEntity
  8
Capa 1
370
     0
100
AcDbVertex
100
AcDb2dVertex
 10
112.8720761917439
 20
-135.7195743221492
 30
0.0
  0
SEQEND
  5
234
330
22E
100
AcDbEntity
  8
Capa 1
370
     0
  0
HATCH
  5
233
330
1F
100
AcDbEntity
  8
Capa 1
 62
   250
420
  2236961
100
AcDbHatch
 10
0.0
 20
0.0
 30
0.0
210
0.0
220
0.0
230
1.0
  2
SOLID
 70
     1
 71
     0
 91
        1
 92
        1
 93
        3
 72
     1
 10
112.8720761917439
 20
-135.7195743221492
 11
113.4273475310216
 21
-135.7174588182028
 72
     1
 10
113.4273475310216
 20
-135.7174588182028
 11
113.1430087283311
 21
-134.0530524448532
 72
     1
 10
113.1430087283311
 20
-134.0530524448532
 11
112.8720761917439
 21
-135.7195743221492
 97
        0
 75
     2
 76
     1
 98
        0
  0
POLYLINE
  5
235
330
1F
100
AcDbEntity
  8
Capa 1
370
     0
100
AcDb2dPolyline
 66
     1
 10
0.0
 20
0.0
 30
0.0
  0
VERTEX
  5
236
330
235
100
AcDbEntity
  8
Capa 1
370
     0
100
AcDbVertex
100
AcDb2dVertex
 10
112.8936645596245
 20
-141.4333055566488
 30
0.0
  0
VERTEX
  5
237
330
235
100
AcDbEntity
  8
Capa 1
370
     0
100
AcDbVertex
100
AcDb2dVertex
 10
113.1772955028519
 20
-143.0970067620163
 30
0.0
  0
VERTEX
  5
238
330
235
100
AcDbEntity
  8
Capa 1
370
     0
100
AcDbVertex
100
AcDb2dVertex
 10
113.4489358989022
 20
-141.4304848847202
 30
0.0
  0
VERTEX
  5
239
330
235
100
AcDbEntity
  8
Capa 1
370
     0
100
AcDbVertex
100
AcDb2dVertex
 10
112.8936645596245
 20
-141.4333055566488
 30
0.0
  0
SEQEND
  5
23B
330
235
100
AcDbEntity
  8
Capa 1
370
     0
  0
HATCH
  5
23A
330
1F
100
AcDbEntity
  8
Capa 1
 62
   250
420
  2236961
100
AcDbHatch
 10
0.0
 20
0.0
 30
0.0
210
0.0
220
0.0
230
1.0
  2
SOLID
 70
     1
 71
     0
 91
        1
 92
        1
 93
        3
 72
     1
 10
112.8936645596245
 20
-141.4333055566488
 11
113.1772955028519
 21
-143.0970067620163
 72
     1
 10
113.1772955028519
 20
-143.0970067620163
 11
113.4489358989022
 21
-141.4304848847202
 72
     1
 10
113.4489358989022
 20
-141.4304848847202
 11
112.8936645596245
 21
-141.4333055566488
 97
        0
 75
     2
 76
     1
 98
        0
  0
INSERT
  5
23D
330
1F
100
AcDbEntity
  8
Capa 1
100
AcDbBlockReference
  2
block 8
 10
0.0
 20
0.0
 30
0.0
  0
POLYLINE
  5
24F
330
1F
100
AcDbEntity
  8
Capa 1
370
     0
100
AcDb2dPolyline
 66
     1
 10
0.0
 20
0.0
 30
0.0
  0
VERTEX
  5
250
330
24F
100
AcDbEntity
  8
Capa 1
370
     0
100
AcDbVertex
100
AcDb2dVertex
 10
113.411825760972
 20
-151.9939927674825
 30
0.0
  0
VERTEX
  5
251
330
24F
100
AcDbEntity
  8
Capa 1
370
     0
100
AcDbVertex
100
AcDb2dVertex
 10
113.4132360969363
 20
-152.3848711480542
 30
0.0
  0
VERTEX
  5
252
330
24F
100
AcDbEntity
  8
Capa 1
370
     0
100
AcDbVertex
100
AcDb2dVertex
 10
113.8055248134723
 20
-152.3841659800721
 30
0.0
  0
VERTEX
  5
253
330
24F
100
AcDbEntity
  8
Capa 1
370
     0
100
AcDbVertex
100
AcDb2dVertex
 10
113.803406618045
 20
-151.9925824315182
 30
0.0
  0
VERTEX
  5
254
330
24F
100
AcDbEntity
  8
Capa 1
370
     0
100
AcDbVertex
100
AcDb2dVertex
 10
113.411825760972
 20
-151.9939927674825
 30
0.0
  0
SEQEND
  5
256
330
24F
100
AcDbEntity
  8
Capa 1
370
     0
  0
HATCH
  5
255
330
1F
100
AcDbEntity
  8
Capa 1
 62
   250
420
  2236961
100
AcDbHatch
 10
0.0
 20
0.0
 30
0.0
210
0.0
220
0.0
230
1.0
  2
SOLID
 70
     1
 71
     0
 91
        1
 92
        1
 93
        4
 72
     1
 10
113.411825760972
 20
-151.9939927674825
 11
113.4132360969363
 21
-152.3848711480542
 72
     1
 10
113.4132360969363
 20
-152.3848711480542
 11
113.8055248134723
 21
-152.3841659800721
 72
     1
 10
113.8055248134723
 20
-152.3841659800721
 11
113.803406618045
 21
-151.9925824315182
 72
     1
 10
113.803406618045
 20
-151.9925824315182
 11
113.411825760972
 21
-151.9939927674825
 97
        0
 75
     2
 76
     1
 98
        0
  0
INSERT
  5
258
330
1F
100
AcDbEntity
  8
Capa 1
100
AcDbBlockReference
  2
block 9
 10
0.0
 20
0.0
 30
0.0
  0
POLYLINE
  5
265
330
1F
100
AcDbEntity
  8
Capa 1
 62
   250
420
  2236961
370
     9
100
AcDb2dPolyline
 66
     1
 10
0.0
 20
0.0
 30
0.0
  0
VERTEX
  5
266
330
265
100
AcDbEntity
  8
Capa 1
 62
   250
420
  2236961
370
     9
100
AcDbVertex
100
AcDb2dVertex
 10
79.95988534939615
 20
-177.4409113281424
 30
0.0
  0
VERTEX
  5
267
330
265
100
AcDbEntity
  8
Capa 1
 62
   250
420
  2236961
370
     9
100
AcDbVertex
100
AcDb2dVertex
 10
79.95988534939615
 20
-164.2865335159725
 30
0.0
  0
SEQEND
  5
268
330
265
100
AcDbEntity
  8
Capa 1
 62
   250
420
  2236961
370
     9
  0
POLYLINE
  5
269
330
1F
100
AcDbEntity
  8
Capa 1
 62
   250
420
  2236961
370
     9
100
AcDb2dPolyline
 66
     1
 10
0.0
 20
0.0
 30
0.0
  0
VERTEX
  5
26A
330
269
100
AcDbEntity
  8
Capa 1
 62
   250
420
  2236961
370
     9
100
AcDbVertex
100
AcDb2dVertex
 10
82.55844551245636
 20
-162.6214219746408
 30
0.0
  0
VERTEX
  5
26B
330
269
100
AcDbEntity
  8
Capa 1
 62
   250
420
  2236961
370
     9
100
AcDbVertex
100
AcDb2dVertex
 10
79.5436074640632
 20
-162.6214219746408
 30
0.0
  0
SEQEND
  5
26C
330
269
100
AcDbEntity
  8
Capa 1
 62
   250
420
  2236961
370
     9
  0
POLYLINE
  5
26D
330
1F
100
AcDbEntity
  8
Capa 1
 62
   250
420
  2236961
370
     9
100
AcDb2dPolyline
 66
     1
 10
0.0
 20
0.0
 30
0.0
  0
VERTEX
  5
26E
330
26D
100
AcDbEntity
  8
Capa 1
 62
   250
420
  2236961
370
     9
100
AcDbVertex
100
AcDb2dVertex
 10
86.28095731165594
 20
-179.106022196604
 30
0.0
  0
VERTEX
  5
26F
330
26D
100
AcDbEntity
  8
Capa 1
 62
   250
420
  2236961
370
     9
100
AcDbVertex
100
AcDb2dVertex
 10
79.5436074640632
 20
-179.106022196604
 30
0.0
  0
SEQEND
  5
270
330
26D
100
AcDbEntity
  8
Capa 1
 62
   250
420
  2236961
370
     9
  0
POLYLINE
  5
271
330
1F
100
AcDbEntity
  8
Capa 1
370
     0
100
AcDb2dPolyline
 66
     1
 10
0.0
 20
0.0
 30
0.0
  0
VERTEX
  5
272
330
271
100
AcDbEntity
  8
Capa 1
370
     0
100
AcDbVertex
100
AcDb2dVertex
 10
79.6825309395059
 20
-177.4409816430796
 30
0.0
  0
VERTEX
  5
273
330
271
100
AcDbEntity
  8
Capa 1
370
     0
100
AcDbVertex
100
AcDb2dVertex
 10
79.95981402515368
 20
-179.1060928479762
 30
0.0
  0
VERTEX
  5
274
330
271
100
AcDbEntity
  8
Capa 1
370
     0
100
AcDbVertex
100
AcDb2dVertex
 10
80.2378029516538
 20
-177.4409816430796
 30
0.0
  0
VERTEX
  5
275
330
271
100
AcDbEntity
  8
Capa 1
370
     0
100
AcDbVertex
100
AcDb2dVertex
 10
79.6825309395059
 20
-177.4409816430796
 30
0.0
  0
SEQEND
  5
277
330
271
100
AcDbEntity
  8
Capa 1
370
     0
  0
HATCH
  5
276
330
1F
100
AcDbEntity
  8
Capa 1
 62
   250
420
  2236961
100
AcDbHatch
 10
0.0
 20
0.0
 30
0.0
210
0.0
220
0.0
230
1.0
  2
SOLID
 70
     1
 71
     0
 91
        1
 92
        1
 93
        3
 72
     1
 10
79.6825309395059
 20
-177.4409816430796
 11
79.95981402515368
 21
-179.1060928479762
 72
     1
 10
79.95981402515368
 20
-179.1060928479762
 11
80.2378029516538
 21
-177.4409816430796
 72
     1
 10
80.2378029516538
 20
-177.4409816430796
 11
79.6825309395059
 21
-177.4409816430796
 97
        0
 75
     2
 76
     1
 98
        0
  0
POLYLINE
  5
278
330
1F
100
AcDbEntity
  8
Capa 1
370
     0
100
AcDb2dPolyline
 66
     1
 10
0.0
 20
0.0
 30
0.0
  0
VERTEX
  5
279
330
278
100
AcDbEntity
  8
Capa 1
370
     0
100
AcDbVertex
100
AcDb2dVertex
 10
79.6825309395059
 20
-164.286322234726
 30
0.0
  0
VERTEX
  5
27A
330
278
100
AcDbEntity
  8
Capa 1
370
     0
100
AcDbVertex
100
AcDb2dVertex
 10
80.2378029516538
 20
-164.286322234726
 30
0.0
  0
VERTEX
  5
27B
330
278
100
AcDbEntity
  8
Capa 1
370
     0
100
AcDbVertex
100
AcDb2dVertex
 10
79.95981402515368
 20
-162.6212120391346
 30
0.0
  0
VERTEX
  5
27C
330
278
100
AcDbEntity
  8
Capa 1
370
     0
100
AcDbVertex
100
AcDb2dVertex
 10
79.6825309395059
 20
-164.286322234726
 30
0.0
  0
SEQEND
  5
27E
330
278
100
AcDbEntity
  8
Capa 1
370
     0
  0
HATCH
  5
27D
330
1F
100
AcDbEntity
  8
Capa 1
 62
   250
420
  2236961
100
AcDbHatch
 10
0.0
 20
0.0
 30
0.0
210
0.0
220
0.0
230
1.0
  2
SOLID
 70
     1
 71
     0
 91
        1
 92
        1
 93
        3
 72
     1
 10
79.6825309395059
 20
-164.286322234726
 11
80.2378029516538
 21
-164.286322234726
 72
     1
 10
80.2378029516538
 20
-164.286322234726
 11
79.95981402515368
 21
-162.6212120391346
 72
     1
 10
79.95981402515368
 20
-162.6212120391346
 11
79.6825309395059
 21
-164.286322234726
 97
        0
 75
     2
 76
     1
 98
        0
  0
MTEXT
  5
27F
330
1F
100
AcDbEntity
  8
Capa 1
 62
   250
420
  2236961
100
AcDbMText
 10
79.75154891669406
 20
-174.7431667314878
 30
0.0
 40
2.49766666604225
 41
0.0
 46
0.0
 71
     7
 72
     1
  1
\fArial|b1|i0|c0|p34;\W1;49.
 11
6.123233995736766E-17
 21
1.0
 31
0.0
 73
     1
 44
1.0
  0
MTEXT
  5
280
330
1F
100
AcDbEntity
  8
Capa 1
 62
   250
420
  2236961
100
AcDbMText
 10
79.75120440714554
 20
-169.298537826599
 30
0.0
 40
2.49766666604225
 41
0.0
 46
0.0
 71
     7
 72
     1
  1
\fArial|b1|i0|c0|p34;\W1;5
 11
6.123233995736766E-17
 21
1.0
 31
0.0
 73
     1
 44
1.0
  0
INSERT
  5
282
330
1F
100
AcDbEntity
  8
Capa 1
100
AcDbBlockReference
  2
block 10
 10
0.0
 20
0.0
 30
0.0
  0
POLYLINE
  5
29C
330
1F
100
AcDbEntity
  8
Capa 1
370
     0
100
AcDb2dPolyline
 66
     1
 10
0.0
 20
0.0
 30
0.0
  0
VERTEX
  5
29D
330
29C
100
AcDbEntity
  8
Capa 1
370
     0
100
AcDbVertex
100
AcDb2dVertex
 10
86.4890962543224
 20
-182.5876565950284
 30
0.0
  0
VERTEX
  5
29E
330
29C
100
AcDbEntity
  8
Capa 1
370
     0
100
AcDbVertex
100
AcDb2dVertex
 10
88.15420644991376
 20
-182.8642343655037
 30
0.0
  0
VERTEX
  5
29F
330
29C
100
AcDbEntity
  8
Capa 1
370
     0
100
AcDbVertex
100
AcDb2dVertex
 10
88.15420644991376
 20
-182.3103732991087
 30
0.0
  0
VERTEX
  5
2A0
330
29C
100
AcDbEntity
  8
Capa 1
370
     0
100
AcDbVertex
100
AcDb2dVertex
 10
86.4890962543224
 20
-182.5876565950284
 30
0.0
  0
SEQEND
  5
2A2
330
29C
100
AcDbEntity
  8
Capa 1
370
     0
  0
HATCH
  5
2A1
330
1F
100
AcDbEntity
  8
Capa 1
 62
   250
420
  2236961
100
AcDbHatch
 10
0.0
 20
0.0
 30
0.0
210
0.0
220
0.0
230
1.0
  2
SOLID
 70
     1
 71
     0
 91
        1
 92
        1
 93
        3
 72
     1
 10
86.4890962543224
 20
-182.5876565950284
 11
88.15420644991376
 21
-182.8642343655037
 72
     1
 10
88.15420644991376
 20
-182.8642343655037
 11
88.15420644991376
 21
-182.3103732991087
 72
     1
 10
88.15420644991376
 20
-182.3103732991087
 11
86.4890962543224
 21
-182.5876565950284
 97
        0
 75
     2
 76
     1
 98
        0
  0
POLYLINE
  5
2A3
330
1F
100
AcDbEntity
  8
Capa 1
370
     0
100
AcDb2dPolyline
 66
     1
 10
0.0
 20
0.0
 30
0.0
  0
VERTEX
  5
2A4
330
2A3
100
AcDbEntity
  8
Capa 1
370
     0
100
AcDbVertex
100
AcDb2dVertex
 10
91.71705018503582
 20
-182.864516571476
 30
0.0
  0
VERTEX
  5
2A5
330
2A3
100
AcDbEntity
  8
Capa 1
370
     0
100
AcDbVertex
100
AcDb2dVertex
 10
93.38215903488674
 20
-182.587938822028
 30
0.0
  0
VERTEX
  5
2A6
330
2A3
100
AcDbEntity
  8
Capa 1
370
     0
100
AcDbVertex
100
AcDb2dVertex
 10
91.71705018503582
 20
-182.3099498955278
 30
0.0
  0
VERTEX
  5
2A7
330
2A3
100
AcDbEntity
  8
Capa 1
370
     0
100
AcDbVertex
100
AcDb2dVertex
 10
91.71705018503582
 20
-182.864516571476
 30
0.0
  0
SEQEND
  5
2A9
330
2A3
100
AcDbEntity
  8
Capa 1
370
     0
  0
HATCH
  5
2A8
330
1F
100
AcDbEntity
  8
Capa 1
 62
   250
420
  2236961
100
AcDbHatch
 10
0.0
 20
0.0
 30
0.0
210
0.0
220
0.0
230
1.0
  2
SOLID
 70
     1
 71
     0
 91
        1
 92
        1
 93
        3
 72
     1
 10
91.71705018503582
 20
-182.864516571476
 11
93.38215903488674
 21
-182.587938822028
 72
     1
 10
93.38215903488674
 20
-182.587938822028
 11
91.71705018503582
 21
-182.3099498955278
 72
     1
 10
91.71705018503582
 20
-182.3099498955278
 11
91.71705018503582
 21
-182.864516571476
 97
        0
 75
     2
 76
     1
 98
        0
  0
INSERT
  5
2AB
330
1F
100
AcDbEntity
  8
Capa 1
100
AcDbBlockReference
  2
block 11
 10
0.0
 20
0.0
 30
0.0
  0
POLYLINE
  5
2B7
330
1F
100
AcDbEntity
  8
Capa 1
 62
   250
420
  2236961
370
     9
100
AcDb2dPolyline
 66
     1
 10
0.0
 20
0.0
 30
0.0
  0
VERTEX
  5
2B8
330
2B7
100
AcDbEntity
  8
Capa 1
 62
   250
420
  2236961
370
     9
100
AcDbVertex
100
AcDb2dVertex
 10
72.01448316361123
 20
-121.4765968019062
 30
0.0
  0
VERTEX
  5
2B9
330
2B7
100
AcDbEntity
  8
Capa 1
 62
   250
420
  2236961
370
     9
100
AcDbVertex
100
AcDb2dVertex
 10
72.01448316361123
 20
-177.439852903299
 30
0.0
  0
SEQEND
  5
2BA
330
2B7
100
AcDbEntity
  8
Capa 1
 62
   250
420
  2236961
370
     9
  0
POLYLINE
  5
2BB
330
1F
100
AcDbEntity
  8
Capa 1
 62
   250
420
  2236961
370
     9
100
AcDb2dPolyline
 66
     1
 10
0.0
 20
0.0
 30
0.0
  0
VERTEX
  5
2BC
330
2BB
100
AcDbEntity
  8
Capa 1
 62
   250
420
  2236961
370
     9
100
AcDbVertex
100
AcDb2dVertex
 10
86.30551034569046
 20
-179.1042592766486
 30
0.0
  0
VERTEX
  5
2BD
330
2BB
100
AcDbEntity
  8
Capa 1
 62
   250
420
  2236961
370
     9
100
AcDbVertex
100
AcDb2dVertex
 10
71.59820527827829
 20
-179.1042592766486
 30
0.0
  0
SEQEND
  5
2BE
330
2BB
100
AcDbEntity
  8
Capa 1
 62
   250
420
  2236961
370
     9
  0
POLYLINE
  5
2BF
330
1F
100
AcDbEntity
  8
Capa 1
 62
   250
420
  2236961
370
     9
100
AcDb2dPolyline
 66
     1
 10
0.0
 20
0.0
 30
0.0
  0
VERTEX
  5
2C0
330
2BF
100
AcDbEntity
  8
Capa 1
 62
   250
420
  2236961
370
     9
100
AcDbVertex
100
AcDb2dVertex
 10
90.03366618022798
 20
-119.8121904285566
 30
0.0
  0
VERTEX
  5
2C1
330
2BF
100
AcDbEntity
  8
Capa 1
 62
   250
420
  2236961
370
     9
100
AcDbVertex
100
AcDb2dVertex
 10
71.59820527827829
 20
-119.8121904285566
 30
0.0
  0
SEQEND
  5
2C2
330
2BF
100
AcDbEntity
  8
Capa 1
 62
   250
420
  2236961
370
     9
  0
POLYLINE
  5
2C3
330
1F
100
AcDbEntity
  8
Capa 1
370
     0
100
AcDb2dPolyline
 66
     1
 10
0.0
 20
0.0
 30
0.0
  0
VERTEX
  5
2C4
330
2C3
100
AcDbEntity
  8
Capa 1
370
     0
100
AcDbVertex
100
AcDb2dVertex
 10
71.73741085455735
 20
-121.4765268234042
 30
0.0
  0
VERTEX
  5
2C5
330
2C3
100
AcDbEntity
  8
Capa 1
370
     0
100
AcDbVertex
100
AcDb2dVertex
 10
72.2926830349228
 20
-121.4765268234042
 30
0.0
  0
VERTEX
  5
2C6
330
2C3
100
AcDbEntity
  8
Capa 1
370
     0
100
AcDbVertex
100
AcDb2dVertex
 10
72.01469410842267
 20
-119.8121258330163
 30
0.0
  0
VERTEX
  5
2C7
330
2C3
100
AcDbEntity
  8
Capa 1
370
     0
100
AcDbVertex
100
AcDb2dVertex
 10
71.73741085455735
 20
-121.4765268234042
 30
0.0
  0
SEQEND
  5
2C9
330
2C3
100
AcDbEntity
  8
Capa 1
370
     0
  0
HATCH
  5
2C8
330
1F
100
AcDbEntity
  8
Capa 1
 62
   250
420
  2236961
100
AcDbHatch
 10
0.0
 20
0.0
 30
0.0
210
0.0
220
0.0
230
1.0
  2
SOLID
 70
     1
 71
     0
 91
        1
 92
        1
 93
        3
 72
     1
 10
71.73741085455735
 20
-121.4765268234042
 11
72.2926830349228
 21
-121.4765268234042
 72
     1
 10
72.2926830349228
 20
-121.4765268234042
 11
72.01469410842267
 21
-119.8121258330163
 72
     1
 10
72.01469410842267
 20
-119.8121258330163
 11
71.73741085455735
 21
-121.4765268234042
 97
        0
 75
     2
 76
     1
 98
        0
  0
POLYLINE
  5
2CA
330
1F
100
AcDbEntity
  8
Capa 1
370
     0
100
AcDb2dPolyline
 66
     1
 10
0.0
 20
0.0
 30
0.0
  0
VERTEX
  5
2CB
330
2CA
100
AcDbEntity
  8
Capa 1
370
     0
100
AcDbVertex
100
AcDb2dVertex
 10
71.73741085455735
 20
-177.4397116005545
 30
0.0
  0
VERTEX
  5
2CC
330
2CA
100
AcDbEntity
  8
Capa 1
370
     0
100
AcDbVertex
100
AcDb2dVertex
 10
72.01469410842267
 20
-179.1048228054512
 30
0.0
  0
VERTEX
  5
2CD
330
2CA
100
AcDbEntity
  8
Capa 1
370
     0
100
AcDbVertex
100
AcDb2dVertex
 10
72.2926830349228
 20
-177.4397116005545
 30
0.0
  0
VERTEX
  5
2CE
330
2CA
100
AcDbEntity
  8
Capa 1
370
     0
100
AcDbVertex
100
AcDb2dVertex
 10
71.73741085455735
 20
-177.4397116005545
 30
0.0
  0
SEQEND
  5
2D0
330
2CA
100
AcDbEntity
  8
Capa 1
370
     0
  0
HATCH
  5
2CF
330
1F
100
AcDbEntity
  8
Capa 1
 62
   250
420
  2236961
100
AcDbHatch
 10
0.0
 20
0.0
 30
0.0
210
0.0
220
0.0
230
1.0
  2
SOLID
 70
     1
 71
     0
 91
        1
 92
        1
 93
        3
 72
     1
 10
71.73741085455735
 20
-177.4397116005545
 11
72.01469410842267
 21
-179.1048228054512
 72
     1
 10
72.01469410842267
 20
-179.1048228054512
 11
72.2926830349228
 21
-177.4397116005545
 72
     1
 10
72.2926830349228
 20
-177.4397116005545
 11
71.73741085455735
 21
-177.4397116005545
 97
        0
 75
     2
 76
     1
 98
        0
  0
INSERT
  5
2D2
330
1F
100
AcDbEntity
  8
Capa 1
100
AcDbBlockReference
  2
block 12
 10
0.0
 20
0.0
 30
0.0
  0
POLYLINE
  5
2DD
330
1F
100
AcDbEntity
  8
Capa 1
 62
   250
420
  2236961
370
     9
100
AcDb2dPolyline
 66
     1
 10
0.0
 20
0.0
 30
0.0
  0
VERTEX
  5
2DE
330
2DD
100
AcDbEntity
  8
Capa 1
 62
   250
420
  2236961
370
     9
100
AcDbVertex
100
AcDb2dVertex
 10
130.4818244130833
 20
-144.5620228511954
 30
0.0
  0
VERTEX
  5
2DF
330
2DD
100
AcDbEntity
  8
Capa 1
 62
   250
420
  2236961
370
     9
100
AcDbVertex
100
AcDb2dVertex
 10
130.4818244130833
 20
-160.9577221150137
 30
0.0
  0
SEQEND
  5
2E0
330
2DD
100
AcDbEntity
  8
Capa 1
 62
   250
420
  2236961
370
     9
  0
POLYLINE
  5
2E1
330
1F
100
AcDbEntity
  8
Capa 1
 62
   250
420
  2236961
370
     9
100
AcDb2dPolyline
 66
     1
 10
0.0
 20
0.0
 30
0.0
  0
VERTEX
  5
2E2
330
2E1
100
AcDbEntity
  8
Capa 1
 62
   250
420
  2236961
370
     9
100
AcDbVertex
100
AcDb2dVertex
 10
97.3129510794973
 20
-162.6228336563454
 30
0.0
  0
VERTEX
  5
2E3
330
2E1
100
AcDbEntity
  8
Capa 1
 62
   250
420
  2236961
370
     9
100
AcDbVertex
100
AcDb2dVertex
 10
130.8973944389533
 20
-162.6228336563454
 30
0.0
  0
SEQEND
  5
2E4
330
2E1
100
AcDbEntity
  8
Capa 1
 62
   250
420
  2236961
370
     9
  0
POLYLINE
  5
2E5
330
1F
100
AcDbEntity
  8
Capa 1
 62
   250
420
  2236961
370
     9
100
AcDb2dPolyline
 66
     1
 10
0.0
 20
0.0
 30
0.0
  0
VERTEX
  5
2E6
330
2E5
100
AcDbEntity
  8
Capa 1
 62
   250
420
  2236961
370
     9
100
AcDbVertex
100
AcDb2dVertex
 10
126.454513173788
 20
-142.8969113098636
 30
0.0
  0
VERTEX
  5
2E7
330
2E5
100
AcDbEntity
  8
Capa 1
 62
   250
420
  2236961
370
     9
100
AcDbVertex
100
AcDb2dVertex
 10
130.8973944389533
 20
-142.8969113098636
 30
0.0
  0
SEQEND
  5
2E8
330
2E5
100
AcDbEntity
  8
Capa 1
 62
   250
420
  2236961
370
     9
  0
POLYLINE
  5
2E9
330
1F
100
AcDbEntity
  8
Capa 1
370
     0
100
AcDb2dPolyline
 66
     1
 10
0.0
 20
0.0
 30
0.0
  0
VERTEX
  5
2EA
330
2E9
100
AcDbEntity
  8
Capa 1
370
     0
100
AcDbVertex
100
AcDb2dVertex
 10
130.2037675266918
 20
-144.5619528726934
 30
0.0
  0
VERTEX
  5
2EB
330
2E9
100
AcDbEntity
  8
Capa 1
370
     0
100
AcDbVertex
100
AcDb2dVertex
 10
130.7590361744886
 20
-144.5619528726934
 30
0.0
  0
VERTEX
  5
2EC
330
2E9
100
AcDbEntity
  8
Capa 1
370
     0
100
AcDbVertex
100
AcDb2dVertex
 10
130.4810492665992
 20
-142.8968440228424
 30
0.0
  0
VERTEX
  5
2ED
330
2E9
100
AcDbEntity
  8
Capa 1
370
     0
100
AcDbVertex
100
AcDb2dVertex
 10
130.2037675266918
 20
-144.5619528726934
 30
0.0
  0
SEQEND
  5
2EF
330
2E9
100
AcDbEntity
  8
Capa 1
370
     0
  0
HATCH
  5
2EE
330
1F
100
AcDbEntity
  8
Capa 1
 62
   250
420
  2236961
100
AcDbHatch
 10
0.0
 20
0.0
 30
0.0
210
0.0
220
0.0
230
1.0
  2
SOLID
 70
     1
 71
     0
 91
        1
 92
        1
 93
        3
 72
     1
 10
130.2037675266918
 20
-144.5619528726934
 11
130.7590361744886
 21
-144.5619528726934
 72
     1
 10
130.7590361744886
 20
-144.5619528726934
 11
130.4810492665992
 21
-142.8968440228424
 72
     1
 10
130.4810492665992
 20
-142.8968440228424
 11
130.2037675266918
 21
-144.5619528726934
 97
        0
 75
     2
 76
     1
 98
        0
  0
POLYLINE
  5
2F0
330
1F
100
AcDbEntity
  8
Capa 1
370
     0
100
AcDb2dPolyline
 66
     1
 10
0.0
 20
0.0
 30
0.0
  0
VERTEX
  5
2F1
330
2F0
100
AcDbEntity
  8
Capa 1
370
     0
100
AcDbVertex
100
AcDb2dVertex
 10
130.2037675266918
 20
-160.9576521365116
 30
0.0
  0
VERTEX
  5
2F2
330
2F0
100
AcDbEntity
  8
Capa 1
370
     0
100
AcDbVertex
100
AcDb2dVertex
 10
130.4810492665992
 20
-162.6227636778434
 30
0.0
  0
VERTEX
  5
2F3
330
2F0
100
AcDbEntity
  8
Capa 1
370
     0
100
AcDbVertex
100
AcDb2dVertex
 10
130.7590361744886
 20
-160.9576521365116
 30
0.0
  0
VERTEX
  5
2F4
330
2F0
100
AcDbEntity
  8
Capa 1
370
     0
100
AcDbVertex
100
AcDb2dVertex
 10
130.2037675266918
 20
-160.9576521365116
 30
0.0
  0
SEQEND
  5
2F6
330
2F0
100
AcDbEntity
  8
Capa 1
370
     0
  0
HATCH
  5
2F5
330
1F
100
AcDbEntity
  8
Capa 1
 62
   250
420
  2236961
100
AcDbHatch
 10
0.0
 20
0.0
 30
0.0
210
0.0
220
0.0
230
1.0
  2
SOLID
 70
     1
 71
     0
 91
        1
 92
        1
 93
        3
 72
     1
 10
130.2037675266918
 20
-160.9576521365116
 11
130.4810492665992
 21
-162.6227636778434
 72
     1
 10
130.4810492665992
 20
-162.6227636778434
 11
130.7590361744886
 21
-160.9576521365116
 72
     1
 10
130.7590361744886
 20
-160.9576521365116
 11
130.2037675266918
 21
-160.9576521365116
 97
        0
 75
     2
 76
     1
 98
        0
  0
MTEXT
  5
2F7
330
1F
100
AcDbEntity
  8
Capa 1
 62
   250
420
  2236961
100
AcDbMText
 10
130.2724961696888
 20
-154.6561929951901
 30
0.0
 40
2.49766666604225
 41
0.0
 46
0.0
 71
     7
 72
     1
  1
\fArial|b1|i0|c0|p34;\W1;60
 11
6.123233995736766E-17
 21
1.0
 31
0.0
 73
     1
 44
1.0
  0
POLYLINE
  5
2F8
330
1F
100
AcDbEntity
  8
Capa 1
 62
   250
420
  2236961
370
     9
100
AcDb2dPolyline
 66
     1
 10
0.0
 20
0.0
 30
0.0
  0
VERTEX
  5
2F9
330
2F8
100
AcDbEntity
  8
Capa 1
 62
   250
420
  2236961
370
     9
100
AcDbVertex
100
AcDb2dVertex
 10
84.75759126343584
 20
-126.1071604095543
 30
0.0
  0
VERTEX
  5
2FA
330
2F8
100
AcDbEntity
  8
Capa 1
 62
   250
420
  2236961
370
     9
100
AcDbVertex
100
AcDb2dVertex
 10
84.39211373336599
 20
-128.7480521833892
 30
0.0
  0
SEQEND
  5
2FB
330
2F8
100
AcDbEntity
  8
Capa 1
 62
   250
420
  2236961
370
     9
  0
POLYLINE
  5
2FC
330
1F
100
AcDbEntity
  8
Capa 1
 62
   250
420
  2236961
370
     9
100
AcDb2dPolyline
 66
     1
 10
0.0
 20
0.0
 30
0.0
  0
VERTEX
  5
2FD
330
2FC
100
AcDbEntity
  8
Capa 1
 62
   250
420
  2236961
370
     9
100
AcDbVertex
100
AcDb2dVertex
 10
84.1635128075534
 20
-130.3969340952084
 30
0.0
  0
VERTEX
  5
2FE
330
2FC
100
AcDbEntity
  8
Capa 1
 62
   250
420
  2236961
370
     9
100
AcDbVertex
100
AcDb2dVertex
 10
83.53980249327655
 20
-134.8948507607506
 30
0.0
  0
SEQEND
  5
2FF
330
2FC
100
AcDbEntity
  8
Capa 1
 62
   250
420
  2236961
370
     9
  0
POLYLINE
  5
300
330
1F
100
AcDbEntity
  8
Capa 1
 62
   250
420
  2236961
370
     9
100
AcDb2dPolyline
 66
     1
 10
0.0
 20
0.0
 30
0.0
  0
VERTEX
  5
301
330
300
100
AcDbEntity
  8
Capa 1
 62
   250
420
  2236961
370
     9
100
AcDbVertex
100
AcDb2dVertex
 10
84.98619084350767
 20
-124.4575679467909
 30
0.0
  0
VERTEX
  5
302
330
300
100
AcDbEntity
  8
Capa 1
 62
   250
420
  2236961
370
     9
100
AcDbVertex
100
AcDb2dVertex
 10
85.21479176931994
 20
-122.8086860349717
 30
0.0
  0
SEQEND
  5
303
330
300
100
AcDbEntity
  8
Capa 1
 62
   250
420
  2236961
370
     9
  0
POLYLINE
  5
304
330
1F
100
AcDbEntity
  8
Capa 1
 62
   250
420
  2236961
370
     9
100
AcDb2dPolyline
 66
     1
 10
0.0
 20
0.0
 30
0.0
  0
VERTEX
  5
305
330
304
100
AcDbEntity
  8
Capa 1
 62
   250
420
  2236961
370
     9
100
AcDbVertex
100
AcDb2dVertex
 10
88.81665255655288
 20
-126.6694861201342
 30
0.0
  0
VERTEX
  5
306
330
304
100
AcDbEntity
  8
Capa 1
 62
   250
420
  2236961
370
     9
100
AcDbVertex
100
AcDb2dVertex
 10
84.34554707747657
 20
-126.0500095052307
 30
0.0
  0
SEQEND
  5
307
330
304
100
AcDbEntity
  8
Capa 1
 62
   250
420
  2236961
370
     9
  0
POLYLINE
  5
308
330
1F
100
AcDbEntity
  8
Capa 1
 62
   250
420
  2236961
370
     9
100
AcDb2dPolyline
 66
     1
 10
0.0
 20
0.0
 30
0.0
  0
VERTEX
  5
309
330
308
100
AcDbEntity
  8
Capa 1
 62
   250
420
  2236961
370
     9
100
AcDbVertex
100
AcDb2dVertex
 10
88.45117502648272
 20
-129.3103778939691
 30
0.0
  0
VERTEX
  5
30A
330
308
100
AcDbEntity
  8
Capa 1
 62
   250
420
  2236961
370
     9
100
AcDbVertex
100
AcDb2dVertex
 10
83.97936303368384
 20
-128.6901961110837
 30
0.0
  0
SEQEND
  5
30B
330
308
100
AcDbEntity
  8
Capa 1
 62
   250
420
  2236961
370
     9
  0
POLYLINE
  5
30C
330
1F
100
AcDbEntity
  8
Capa 1
370
     0
100
AcDb2dPolyline
 66
     1
 10
0.0
 20
0.0
 30
0.0
  0
VERTEX
  5
30D
330
30C
100
AcDbEntity
  8
Capa 1
370
     0
100
AcDbVertex
100
AcDb2dVertex
 10
84.75745130643175
 20
-126.1069450910861
 30
0.0
  0
VERTEX
  5
30E
330
30C
100
AcDbEntity
  8
Capa 1
370
     0
100
AcDbVertex
100
AcDb2dVertex
 10
85.26121712246453
 20
-124.4961637821491
 30
0.0
  0
VERTEX
  5
30F
330
30C
100
AcDbEntity
  8
Capa 1
370
     0
100
AcDbVertex
100
AcDb2dVertex
 10
84.71158981852479
 20
-124.4199625763847
 30
0.0
  0
VERTEX
  5
310
330
30C
100
AcDbEntity
  8
Capa 1
370
     0
100
AcDbVertex
100
AcDb2dVertex
 10
84.75745130643175
 20
-126.1069450910861
 30
0.0
  0
SEQEND
  5
312
330
30C
100
AcDbEntity
  8
Capa 1
370
     0
  0
HATCH
  5
311
330
1F
100
AcDbEntity
  8
Capa 1
 62
   250
420
  2236961
100
AcDbHatch
 10
0.0
 20
0.0
 30
0.0
210
0.0
220
0.0
230
1.0
  2
SOLID
 70
     1
 71
     0
 91
        1
 92
        1
 93
        3
 72
     1
 10
84.75745130643175
 20
-126.1069450910861
 11
85.26121712246453
 21
-124.4961637821491
 72
     1
 10
85.26121712246453
 20
-124.4961637821491
 11
84.71158981852479
 21
-124.4199625763847
 72
     1
 10
84.71158981852479
 20
-124.4199625763847
 11
84.75745130643175
 21
-126.1069450910861
 97
        0
 75
     2
 76
     1
 98
        0
  0
POLYLINE
  5
313
330
1F
100
AcDbEntity
  8
Capa 1
370
     0
100
AcDb2dPolyline
 66
     1
 10
0.0
 20
0.0
 30
0.0
  0
VERTEX
  5
314
330
313
100
AcDbEntity
  8
Capa 1
370
     0
100
AcDbVertex
100
AcDb2dVertex
 10
83.88877047982601
 20
-130.35890885379
 30
0.0
  0
VERTEX
  5
315
330
313
100
AcDbEntity
  8
Capa 1
370
     0
100
AcDbVertex
100
AcDb2dVertex
 10
84.43839778376575
 20
-130.4344048915722
 30
0.0
  0
VERTEX
  5
316
330
313
100
AcDbEntity
  8
Capa 1
370
     0
100
AcDbVertex
100
AcDb2dVertex
 10
84.39183112787664
 20
-128.7481275448529
 30
0.0
  0
VERTEX
  5
317
330
313
100
AcDbEntity
  8
Capa 1
370
     0
100
AcDbVertex
100
AcDb2dVertex
 10
83.88877047982601
 20
-130.35890885379
 30
0.0
  0
SEQEND
  5
319
330
313
100
AcDbEntity
  8
Capa 1
370
     0
  0
HATCH
  5
318
330
1F
100
AcDbEntity
  8
Capa 1
 62
   250
420
  2236961
100
AcDbHatch
 10
0.0
 20
0.0
 30
0.0
210
0.0
220
0.0
230
1.0
  2
SOLID
 70
     1
 71
     0
 91
        1
 92
        1
 93
        3
 72
     1
 10
83.88877047982601
 20
-130.35890885379
 11
84.43839778376575
 21
-130.4344048915722
 72
     1
 10
84.43839778376575
 20
-130.4344048915722
 11
84.39183112787664
 21
-128.7481275448529
 72
     1
 10
84.39183112787664
 20
-128.7481275448529
 11
83.88877047982601
 21
-130.35890885379
 97
        0
 75
     2
 76
     1
 98
        0
  0
MTEXT
  5
31A
330
1F
100
AcDbEntity
  8
Capa 1
 62
   250
420
  2236961
100
AcDbMText
 10
83.35081181101846
 20
-134.8363106533783
 30
0.0
 40
2.497675540767528
 41
0.0
 46
0.0
 71
     7
 72
     1
  1
\fArial|b1|i0|c0|p34;\W1;8
 11
0.137249503621902
 21
0.9905365080377107
 31
0.0
 73
     1
 44
1.0
  0
POLYLINE
  5
31B
330
1F
100
AcDbEntity
  8
Capa 1
 62
   250
420
  2236961
370
     9
100
AcDb2dPolyline
 66
     1
 10
0.0
 20
0.0
 30
0.0
  0
VERTEX
  5
31C
330
31B
100
AcDbEntity
  8
Capa 1
 62
   250
420
  2236961
370
     9
100
AcDbVertex
100
AcDb2dVertex
 10
124.7894016324562
 20
-167.4377556276284
 30
0.0
  0
VERTEX
  5
31D
330
31B
100
AcDbEntity
  8
Capa 1
 62
   250
420
  2236961
370
     9
100
AcDbVertex
100
AcDb2dVertex
 10
91.60077552092778
 20
-167.4377556276284
 30
0.0
  0
SEQEND
  5
31E
330
31B
100
AcDbEntity
  8
Capa 1
 62
   250
420
  2236961
370
     9
  0
POLYLINE
  5
31F
330
1F
100
AcDbEntity
  8
Capa 1
 62
   250
420
  2236961
370
     9
100
AcDb2dPolyline
 66
     1
 10
0.0
 20
0.0
 30
0.0
  0
VERTEX
  5
320
330
31F
100
AcDbEntity
  8
Capa 1
 62
   250
420
  2236961
370
     9
100
AcDbVertex
100
AcDb2dVertex
 10
89.93566397959601
 20
-162.8304787122763
 30
0.0
  0
VERTEX
  5
321
330
31F
100
AcDbEntity
  8
Capa 1
 62
   250
420
  2236961
370
     9
100
AcDbVertex
100
AcDb2dVertex
 10
89.93566397959601
 20
-167.8540335129614
 30
0.0
  0
SEQEND
  5
322
330
31F
100
AcDbEntity
  8
Capa 1
 62
   250
420
  2236961
370
     9
  0
POLYLINE
  5
323
330
1F
100
AcDbEntity
  8
Capa 1
 62
   250
420
  2236961
370
     9
100
AcDb2dPolyline
 66
     1
 10
0.0
 20
0.0
 30
0.0
  0
VERTEX
  5
324
330
323
100
AcDbEntity
  8
Capa 1
 62
   250
420
  2236961
370
     9
100
AcDbVertex
100
AcDb2dVertex
 10
126.454513173788
 20
-143.105261533777
 30
0.0
  0
VERTEX
  5
325
330
323
100
AcDbEntity
  8
Capa 1
 62
   250
420
  2236961
370
     9
100
AcDbVertex
100
AcDb2dVertex
 10
126.454513173788
 20
-167.8540335129614
 30
0.0
  0
SEQEND
  5
326
330
323
100
AcDbEntity
  8
Capa 1
 62
   250
420
  2236961
370
     9
  0
POLYLINE
  5
327
330
1F
100
AcDbEntity
  8
Capa 1
370
     0
100
AcDb2dPolyline
 66
     1
 10
0.0
 20
0.0
 30
0.0
  0
VERTEX
  5
328
330
327
100
AcDbEntity
  8
Capa 1
370
     0
100
AcDbVertex
100
AcDb2dVertex
 10
124.789121718448
 20
-167.7153213187652
 30
0.0
  0
VERTEX
  5
329
330
327
100
AcDbEntity
  8
Capa 1
370
     0
100
AcDbVertex
100
AcDb2dVertex
 10
126.4549384277619
 20
-167.4380382331175
 30
0.0
  0
VERTEX
  5
32A
330
327
100
AcDbEntity
  8
Capa 1
370
     0
100
AcDbVertex
100
AcDb2dVertex
 10
124.789121718448
 20
-167.1600499794875
 30
0.0
  0
VERTEX
  5
32B
330
327
100
AcDbEntity
  8
Capa 1
370
     0
100
AcDbVertex
100
AcDb2dVertex
 10
124.789121718448
 20
-167.7153213187652
 30
0.0
  0
SEQEND
  5
32D
330
327
100
AcDbEntity
  8
Capa 1
370
     0
  0
HATCH
  5
32C
330
1F
100
AcDbEntity
  8
Capa 1
 62
   250
420
  2236961
100
AcDbHatch
 10
0.0
 20
0.0
 30
0.0
210
0.0
220
0.0
230
1.0
  2
SOLID
 70
     1
 71
     0
 91
        1
 92
        1
 93
        3
 72
     1
 10
124.789121718448
 20
-167.7153213187652
 11
126.4549384277619
 21
-167.4380382331175
 72
     1
 10
126.4549384277619
 20
-167.4380382331175
 11
124.789121718448
 21
-167.1600499794875
 72
     1
 10
124.789121718448
 20
-167.1600499794875
 11
124.789121718448
 21
-167.7153213187652
 97
        0
 75
     2
 76
     1
 98
        0
  0
POLYLINE
  5
32E
330
1F
100
AcDbEntity
  8
Capa 1
370
     0
100
AcDb2dPolyline
 66
     1
 10
0.0
 20
0.0
 30
0.0
  0
VERTEX
  5
32F
330
32E
100
AcDbEntity
  8
Capa 1
370
     0
100
AcDbVertex
100
AcDb2dVertex
 10
89.93587526084289
 20
-167.4378269518709
 30
0.0
  0
VERTEX
  5
330
330
32E
100
AcDbEntity
  8
Capa 1
370
     0
100
AcDbVertex
100
AcDb2dVertex
 10
91.60098545643392
 20
-167.7151113832591
 30
0.0
  0
VERTEX
  5
331
330
32E
100
AcDbEntity
  8
Capa 1
370
     0
100
AcDbVertex
100
AcDb2dVertex
 10
91.60098545643392
 20
-167.1605438662231
 30
0.0
  0
VERTEX
  5
332
330
32E
100
AcDbEntity
  8
Capa 1
370
     0
100
AcDbVertex
100
AcDb2dVertex
 10
89.93587526084289
 20
-167.4378269518709
 30
0.0
  0
SEQEND
  5
334
330
32E
100
AcDbEntity
  8
Capa 1
370
     0
  0
HATCH
  5
333
330
1F
100
AcDbEntity
  8
Capa 1
 62
   250
420
  2236961
100
AcDbHatch
 10
0.0
 20
0.0
 30
0.0
210
0.0
220
0.0
230
1.0
  2
SOLID
 70
     1
 71
     0
 91
        1
 92
        1
 93
        3
 72
     1
 10
89.93587526084289
 20
-167.4378269518709
 11
91.60098545643392
 21
-167.7151113832591
 72
     1
 10
91.60098545643392
 20
-167.7151113832591
 11
91.60098545643392
 21
-167.1605438662231
 72
     1
 10
91.60098545643392
 20
-167.1605438662231
 11
89.93587526084289
 21
-167.4378269518709
 97
        0
 75
     2
 76
     1
 98
        0
  0
MTEXT
  5
335
330
1F
100
AcDbEntity
  8
Capa 1
 62
   250
420
  2236961
100
AcDbMText
 10
103.819330486198
 20
-167.2297579877064
 30
0.0
 40
2.49766666604225
 41
0.0
 46
0.0
 71
     7
 72
     1
  1
\fArial|b1|i0|c0|p34;\W1;105
 73
     1
 44
1.0
  0
INSERT
  5
337
330
1F
100
AcDbEntity
  8
Capa 1
100
AcDbBlockReference
  2
block 13
 10
0.0
 20
0.0
 30
0.0
  0
POLYLINE
  5
351
330
1F
100
AcDbEntity
  8
Capa 1
370
     0
100
AcDb2dPolyline
 66
     1
 10
0.0
 20
0.0
 30
0.0
  0
VERTEX
  5
352
330
351
100
AcDbEntity
  8
Capa 1
370
     0
100
AcDbVertex
100
AcDb2dVertex
 10
123.5486128127116
 20
-141.8379427873148
 30
0.0
  0
VERTEX
  5
353
330
351
100
AcDbEntity
  8
Capa 1
370
     0
100
AcDbVertex
100
AcDb2dVertex
 10
123.7221756466662
 20
-142.3649939499027
 30
0.0
  0
VERTEX
  5
354
330
351
100
AcDbEntity
  8
Capa 1
370
     0
100
AcDbVertex
100
AcDb2dVertex
 10
122.0542434334058
 20
-142.6225229118677
 30
0.0
  0
VERTEX
  5
355
330
351
100
AcDbEntity
  8
Capa 1
370
     0
100
AcDbVertex
100
AcDb2dVertex
 10
123.5486128127116
 20
-141.8379427873148
 30
0.0
  0
SEQEND
  5
357
330
351
100
AcDbEntity
  8
Capa 1
370
     0
  0
HATCH
  5
356
330
1F
100
AcDbEntity
  8
Capa 1
 62
   250
420
  2236961
100
AcDbHatch
 10
0.0
 20
0.0
 30
0.0
210
0.0
220
0.0
230
1.0
  2
SOLID
 70
     1
 71
     0
 91
        1
 92
        1
 93
        3
 72
     1
 10
123.5486128127116
 20
-141.8379427873148
 11
123.7221756466662
 21
-142.3649939499027
 72
     1
 10
123.7221756466662
 20
-142.3649939499027
 11
122.0542434334058
 21
-142.6225229118677
 72
     1
 10
122.0542434334058
 20
-142.6225229118677
 11
123.5486128127116
 21
-141.8379427873148
 97
        0
 75
     2
 76
     1
 98
        0
  0
POLYLINE
  5
358
330
1F
100
AcDbEntity
  8
Capa 1
370
     0
100
AcDb2dPolyline
 66
     1
 10
0.0
 20
0.0
 30
0.0
  0
VERTEX
  5
359
330
358
100
AcDbEntity
  8
Capa 1
370
     0
100
AcDbVertex
100
AcDb2dVertex
 10
127.7868877038233
 20
-140.4427760090991
 30
0.0
  0
VERTEX
  5
35A
330
358
100
AcDbEntity
  8
Capa 1
370
     0
100
AcDbVertex
100
AcDb2dVertex
 10
127.9604505377778
 20
-140.9698271716871
 30
0.0
  0
VERTEX
  5
35B
330
358
100
AcDbEntity
  8
Capa 1
370
     0
100
AcDbVertex
100
AcDb2dVertex
 10
129.4555250850657
 20
-140.185249738615
 30
0.0
  0
VERTEX
  5
35C
330
358
100
AcDbEntity
  8
Capa 1
370
     0
100
AcDbVertex
100
AcDb2dVertex
 10
127.7868877038233
 20
-140.4427760090991
 30
0.0
  0
SEQEND
  5
35E
330
358
100
AcDbEntity
  8
Capa 1
370
     0
  0
HATCH
  5
35D
330
1F
100
AcDbEntity
  8
Capa 1
 62
   250
420
  2236961
100
AcDbHatch
 10
0.0
 20
0.0
 30
0.0
210
0.0
220
0.0
230
1.0
  2
SOLID
 70
     1
 71
     0
 91
        1
 92
        1
 93
        3
 72
     1
 10
127.7868877038233
 20
-140.4427760090991
 11
127.9604505377778
 21
-140.9698271716871
 72
     1
 10
127.9604505377778
 20
-140.9698271716871
 11
129.4555250850657
 21
-140.185249738615
 72
     1
 10
129.4555250850657
 20
-140.185249738615
 11
127.7868877038233
 21
-140.4427760090991
 97
        0
 75
     2
 76
     1
 98
        0
  0
INSERT
  5
360
330
1F
100
AcDbEntity
  8
Capa 1
100
AcDbBlockReference
  2
block 14
 10
0.0
 20
0.0
 30
0.0
  0
POLYLINE
  5
372
330
1F
100
AcDbEntity
  8
Capa 1
370
     0
100
AcDb2dPolyline
 66
     1
 10
0.0
 20
0.0
 30
0.0
  0
VERTEX
  5
373
330
372
100
AcDbEntity
  8
Capa 1
370
     0
100
AcDbVertex
100
AcDb2dVertex
 10
137.721531086485
 20
-136.8359090674892
 30
0.0
  0
VERTEX
  5
374
330
372
100
AcDbEntity
  8
Capa 1
370
     0
100
AcDbVertex
100
AcDb2dVertex
 10
137.8442949109172
 20
-137.2091528655461
 30
0.0
  0
VERTEX
  5
375
330
372
100
AcDbEntity
  8
Capa 1
370
     0
100
AcDbVertex
100
AcDb2dVertex
 10
138.21682815803
 20
-137.087088826134
 30
0.0
  0
VERTEX
  5
376
330
372
100
AcDbEntity
  8
Capa 1
370
     0
100
AcDbVertex
100
AcDb2dVertex
 10
138.0940643335978
 20
-136.7138504110391
 30
0.0
  0
VERTEX
  5
377
330
372
100
AcDbEntity
  8
Capa 1
370
     0
100
AcDbVertex
100
AcDb2dVertex
 10
137.721531086485
 20
-136.8359090674892
 30
0.0
  0
SEQEND
  5
379
330
372
100
AcDbEntity
  8
Capa 1
370
     0
  0
HATCH
  5
378
330
1F
100
AcDbEntity
  8
Capa 1
 62
   250
420
  2236961
100
AcDbHatch
 10
0.0
 20
0.0
 30
0.0
210
0.0
220
0.0
230
1.0
  2
SOLID
 70
     1
 71
     0
 91
        1
 92
        1
 93
        4
 72
     1
 10
137.721531086485
 20
-136.8359090674892
 11
137.8442949109172
 21
-137.2091528655461
 72
     1
 10
137.8442949109172
 20
-137.2091528655461
 11
138.21682815803
 21
-137.087088826134
 72
     1
 10
138.21682815803
 20
-137.087088826134
 11
138.0940643335978
 21
-136.7138504110391
 72
     1
 10
138.0940643335978
 20
-136.7138504110391
 11
137.721531086485
 21
-136.8359090674892
 97
        0
 75
     2
 76
     1
 98
        0
  0
POLYLINE
  5
37A
330
1F
100
AcDbEntity
  8
Capa 1
370
     0
100
AcDb2dPolyline
 66
     1
 10
0.0
 20
0.0
 30
0.0
  0
VERTEX
  5
37B
330
37A
100
AcDbEntity
  8
Capa 1
370
     0
100
AcDbVertex
100
AcDb2dVertex
 10
139.4339803929688
 20
-135.6466944037511
 30
0.0
  0
VERTEX
  5
37C
330
37A
100
AcDbEntity
  8
Capa 1
370
     0
100
AcDbVertex
100
AcDb2dVertex
 10
139.0388710045042
 20
-134.4458363938652
 30
0.0
  0
VERTEX
  5
37D
330
37A
100
AcDbEntity
  8
Capa 1
370
     0
100
AcDbVertex
100
AcDb2dVertex
 10
138.6007194543208
 20
-135.921860639712
 30
0.0
  0
VERTEX
  5
37E
330
37A
100
AcDbEntity
  8
Capa 1
370
     0
100
AcDbVertex
100
AcDb2dVertex
 10
139.4339803929688
 20
-135.6466944037511
 30
0.0
  0
SEQEND
  5
37F
330
37A
100
AcDbEntity
  8
Capa 1
370
     0
  0
POLYLINE
  5
380
330
1F
100
AcDbEntity
  8
Capa 1
370
     0
100
AcDb2dPolyline
 66
     1
 10
0.0
 20
0.0
 30
0.0
  0
VERTEX
  5
381
330
380
100
AcDbEntity
  8
Capa 1
370
     0
100
AcDbVertex
100
AcDb2dVertex
 10
139.7430162239191
 20
-136.5843740333724
 30
0.0
  0
VERTEX
  5
382
330
380
100
AcDbEntity
  8
Capa 1
370
     0
100
AcDbVertex
100
AcDb2dVertex
 10
139.5334629080671
 20
-135.9458471170281
 30
0.0
  0
VERTEX
  5
383
330
380
100
AcDbEntity
  8
Capa 1
370
     0
100
AcDbVertex
100
AcDb2dVertex
 10
138.3777625638464
 20
-136.3268477628882
 30
0.0
  0
VERTEX
  5
384
330
380
100
AcDbEntity
  8
Capa 1
370
     0
100
AcDbVertex
100
AcDb2dVertex
 10
138.2789852167303
 20
-136.0276950496113
 30
0.0
  0
VERTEX
  5
385
330
380
100
AcDbEntity
  8
Capa 1
370
     0
100
AcDbVertex
100
AcDb2dVertex
 10
138.9252743638398
 20
-133.9011506487621
 30
0.0
  0
VERTEX
  5
386
330
380
100
AcDbEntity
  8
Capa 1
370
     0
100
AcDbVertex
100
AcDb2dVertex
 10
139.1926783690355
 20
-133.8115458683755
 30
0.0
  0
VERTEX
  5
387
330
380
100
AcDbEntity
  8
Capa 1
370
     0
100
AcDbVertex
100
AcDb2dVertex
 10
139.7613559744163
 20
-135.5394496578876
 30
0.0
  0
VERTEX
  5
388
330
380
100
AcDbEntity
  8
Capa 1
370
     0
100
AcDbVertex
100
AcDb2dVertex
 10
140.121190814889
 20
-135.4202116733661
 30
0.0
  0
VERTEX
  5
389
330
380
100
AcDbEntity
  8
Capa 1
370
     0
100
AcDbVertex
100
AcDb2dVertex
 10
140.2199681620051
 20
-135.7193643866431
 30
0.0
  0
VERTEX
  5
38A
330
380
100
AcDbEntity
  8
Capa 1
370
     0
100
AcDbVertex
100
AcDb2dVertex
 10
139.8601333215325
 20
-135.8386023711646
 30
0.0
  0
VERTEX
  5
38B
330
380
100
AcDbEntity
  8
Capa 1
370
     0
100
AcDbVertex
100
AcDb2dVertex
 10
140.0703918053667
 20
-136.4757189515446
 30
0.0
  0
VERTEX
  5
38C
330
380
100
AcDbEntity
  8
Capa 1
370
     0
100
AcDbVertex
100
AcDb2dVertex
 10
139.7430162239191
 20
-136.5843740333724
 30
0.0
  0
SEQEND
  5
38D
330
380
100
AcDbEntity
  8
Capa 1
370
     0
  0
HATCH
  5
38E
330
1F
100
AcDbEntity
  8
Capa 1
 62
   250
420
  2236961
100
AcDbHatch
 10
0.0
 20
0.0
 30
0.0
210
0.0
220
0.0
230
1.0
  2
SOLID
 70
     1
 71
     0
 91
        2
 92
        1
 93
        3
 72
     1
 10
139.4339803929688
 20
-135.6466944037511
 11
139.0388710045042
 21
-134.4458363938652
 72
     1
 10
139.0388710045042
 20
-134.4458363938652
 11
138.6007194543208
 21
-135.921860639712
 72
     1
 10
138.6007194543208
 20
-135.921860639712
 11
139.4339803929688
 21
-135.6466944037511
 97
        0
 92
        1
 93
       11
 72
     1
 10
139.7430162239191
 20
-136.5843740333724
 11
139.5334629080671
 21
-135.9458471170281
 72
     1
 10
139.5334629080671
 20
-135.9458471170281
 11
138.3777625638464
 21
-136.3268477628882
 72
     1
 10
138.3777625638464
 20
-136.3268477628882
 11
138.2789852167303
 21
-136.0276950496113
 72
     1
 10
138.2789852167303
 20
-136.0276950496113
 11
138.9252743638398
 21
-133.9011506487621
 72
     1
 10
138.9252743638398
 20
-133.9011506487621
 11
139.1926783690355
 21
-133.8115458683755
 72
     1
 10
139.1926783690355
 20
-133.8115458683755
 11
139.7613559744163
 21
-135.5394496578876
 72
     1
 10
139.7613559744163
 20
-135.5394496578876
 11
140.121190814889
 21
-135.4202116733661
 72
     1
 10
140.121190814889
 20
-135.4202116733661
 11
140.2199681620051
 21
-135.7193643866431
 72
     1
 10
140.2199681620051
 20
-135.7193643866431
 11
139.8601333215325
 21
-135.8386023711646
 72
     1
 10
139.8601333215325
 20
-135.8386023711646
 11
140.0703918053667
 21
-136.4757189515446
 72
     1
 10
140.0703918053667
 20
-136.4757189515446
 11
139.7430162239191
 21
-136.5843740333724
 97
        0
 75
     2
 76
     1
 98
        0
  0
POLYLINE
  5
38F
330
1F
100
AcDbEntity
  8
Capa 1
 62
   250
420
  2236961
370
     9
100
AcDb2dPolyline
 66
     1
 10
0.0
 20
0.0
 30
0.0
  0
VERTEX
  5
390
330
38F
100
AcDbEntity
  8
Capa 1
 62
   250
420
  2236961
370
     9
100
AcDbVertex
100
AcDb2dVertex
 10
82.64847420107657
 20
-120.1758364059098
 30
0.0
  0
VERTEX
  5
391
330
38F
100
AcDbEntity
  8
Capa 1
 62
   250
420
  2236961
370
     9
100
AcDbVertex
100
AcDb2dVertex
 10
75.74602488105535
 20
-159.7045847811391
 30
0.0
  0
SEQEND
  5
392
330
38F
100
AcDbEntity
  8
Capa 1
 62
   250
420
  2236961
370
     9
  0
POLYLINE
  5
393
330
1F
100
AcDbEntity
  8
Capa 1
 62
   250
420
  2236961
370
     9
100
AcDb2dPolyline
 66
     1
 10
0.0
 20
0.0
 30
0.0
  0
VERTEX
  5
394
330
393
100
AcDbEntity
  8
Capa 1
 62
   250
420
  2236961
370
     9
100
AcDbVertex
100
AcDb2dVertex
 10
82.56169009261843
 20
-162.5853682429434
 30
0.0
  0
VERTEX
  5
395
330
393
100
AcDbEntity
  8
Capa 1
 62
   250
420
  2236961
370
     9
100
AcDbVertex
100
AcDb2dVertex
 10
75.04964054666523
 20
-161.2737396472833
 30
0.0
  0
SEQEND
  5
396
330
393
100
AcDbEntity
  8
Capa 1
 62
   250
420
  2236961
370
     9
  0
POLYLINE
  5
397
330
1F
100
AcDbEntity
  8
Capa 1
 62
   250
420
  2236961
370
     9
100
AcDb2dPolyline
 66
     1
 10
0.0
 20
0.0
 30
0.0
  0
VERTEX
  5
398
330
397
100
AcDbEntity
  8
Capa 1
 62
   250
420
  2236961
370
     9
100
AcDbVertex
100
AcDb2dVertex
 10
90.03705206313458
 20
-119.7764906265907
 30
0.0
  0
VERTEX
  5
399
330
397
100
AcDbEntity
  8
Capa 1
 62
   250
420
  2236961
370
     9
100
AcDbVertex
100
AcDb2dVertex
 10
82.52429600345882
 20
-118.4648674138924
 30
0.0
  0
SEQEND
  5
39A
330
397
100
AcDbEntity
  8
Capa 1
 62
   250
420
  2236961
370
     9
  0
POLYLINE
  5
39B
330
1F
100
AcDbEntity
  8
Capa 1
370
     0
100
AcDb2dPolyline
 66
     1
 10
0.0
 20
0.0
 30
0.0
  0
VERTEX
  5
39C
330
39B
100
AcDbEntity
  8
Capa 1
370
     0
100
AcDbVertex
100
AcDb2dVertex
 10
82.37493092806687
 20
-120.1284232792941
 30
0.0
  0
VERTEX
  5
39D
330
39B
100
AcDbEntity
  8
Capa 1
370
     0
100
AcDbVertex
100
AcDb2dVertex
 10
82.92173621433764
 20
-120.2236747864995
 30
0.0
  0
VERTEX
  5
39E
330
39B
100
AcDbEntity
  8
Capa 1
370
     0
100
AcDbVertex
100
AcDb2dVertex
 10
82.93514113470037
 20
-118.535987103816
 30
0.0
  0
VERTEX
  5
39F
330
39B
100
AcDbEntity
  8
Capa 1
370
     0
100
AcDbVertex
100
AcDb2dVertex
 10
82.37493092806687
 20
-120.1284232792941
 30
0.0
  0
SEQEND
  5
3A1
330
39B
100
AcDbEntity
  8
Capa 1
370
     0
  0
HATCH
  5
3A0
330
1F
100
AcDbEntity
  8
Capa 1
 62
   250
420
  2236961
100
AcDbHatch
 10
0.0
 20
0.0
 30
0.0
210
0.0
220
0.0
230
1.0
  2
SOLID
 70
     1
 71
     0
 91
        1
 92
        1
 93
        3
 72
     1
 10
82.37493092806687
 20
-120.1284232792941
 11
82.92173621433764
 21
-120.2236747864995
 72
     1
 10
82.92173621433764
 20
-120.2236747864995
 11
82.93514113470037
 21
-118.535987103816
 72
     1
 10
82.93514113470037
 20
-118.535987103816
 11
82.37493092806687
 21
-120.1284232792941
 97
        0
 75
     2
 76
     1
 98
        0
  0
POLYLINE
  5
3A2
330
1F
100
AcDbEntity
  8
Capa 1
370
     0
100
AcDb2dPolyline
 66
     1
 10
0.0
 20
0.0
 30
0.0
  0
VERTEX
  5
3A3
330
3A2
100
AcDbEntity
  8
Capa 1
370
     0
100
AcDbVertex
100
AcDb2dVertex
 10
75.45914599331478
 20
-161.345637175172
 30
0.0
  0
VERTEX
  5
3A4
330
3A2
100
AcDbEntity
  8
Capa 1
370
     0
100
AcDbVertex
100
AcDb2dVertex
 10
76.01935687281848
 20
-159.7524931402309
 30
0.0
  0
VERTEX
  5
3A5
330
3A2
100
AcDbEntity
  8
Capa 1
370
     0
100
AcDbVertex
100
AcDb2dVertex
 10
75.4725509136775
 20
-159.6572443245063
 30
0.0
  0
VERTEX
  5
3A6
330
3A2
100
AcDbEntity
  8
Capa 1
370
     0
100
AcDbVertex
100
AcDb2dVertex
 10
75.45914599331478
 20
-161.345637175172
 30
0.0
  0
SEQEND
  5
3A8
330
3A2
100
AcDbEntity
  8
Capa 1
370
     0
  0
HATCH
  5
3A7
330
1F
100
AcDbEntity
  8
Capa 1
 62
   250
420
  2236961
100
AcDbHatch
 10
0.0
 20
0.0
 30
0.0
210
0.0
220
0.0
230
1.0
  2
SOLID
 70
     1
 71
     0
 91
        1
 92
        1
 93
        3
 72
     1
 10
75.45914599331478
 20
-161.345637175172
 11
76.01935687281848
 21
-159.7524931402309
 72
     1
 10
76.01935687281848
 20
-159.7524931402309
 11
75.4725509136775
 21
-159.6572443245063
 72
     1
 10
75.4725509136775
 20
-159.6572443245063
 11
75.45914599331478
 21
-161.345637175172
 97
        0
 75
     2
 76
     1
 98
        0
  0
MTEXT
  5
3A9
330
1F
100
AcDbEntity
  8
Capa 1
 62
   250
420
  2236961
100
AcDbMText
 10
78.5053098158088
 20
-142.7579156001568
 30
0.0
 40
2.497678398927924
 41
0.0
 46
0.0
 71
     7
 72
     1
  1
\fArial|b1|i0|c0|p34;\W1;131
 11
0.1720091965005693
 21
0.9850953437709614
 31
0.0
 73
     1
 44
1.0
  0
POLYLINE
  5
3AA
330
1F
100
AcDbEntity
  8
Capa 1
 62
   250
420
  2236961
370
     9
100
AcDb2dPolyline
 66
     1
 10
0.0
 20
0.0
 30
0.0
  0
VERTEX
  5
3AB
330
3AA
100
AcDbEntity
  8
Capa 1
 62
   250
420
  2236961
370
     9
100
AcDbVertex
100
AcDb2dVertex
 10
86.19974591429329
 20
-131.4451797580594
 30
0.0
  0
VERTEX
  5
3AC
330
3AA
100
AcDbEntity
  8
Capa 1
 62
   250
420
  2236961
370
     9
100
AcDbVertex
100
AcDb2dVertex
 10
81.10140158954859
 20
-160.640361533801
 30
0.0
  0
SEQEND
  5
3AD
330
3AA
100
AcDbEntity
  8
Capa 1
 62
   250
420
  2236961
370
     9
  0
POLYLINE
  5
3AE
330
1F
100
AcDbEntity
  8
Capa 1
 62
   250
420
  2236961
370
     9
100
AcDb2dPolyline
 66
     1
 10
0.0
 20
0.0
 30
0.0
  0
VERTEX
  5
3AF
330
3AE
100
AcDbEntity
  8
Capa 1
 62
   250
420
  2236961
370
     9
100
AcDbVertex
100
AcDb2dVertex
 10
82.63598572994253
 20
-162.5989844445526
 30
0.0
  0
VERTEX
  5
3B0
330
3AE
100
AcDbEntity
  8
Capa 1
 62
   250
420
  2236961
370
     9
100
AcDbVertex
100
AcDb2dVertex
 10
80.40572376888103
 20
-162.2088139234438
 30
0.0
  0
SEQEND
  5
3B1
330
3AE
100
AcDbEntity
  8
Capa 1
 62
   250
420
  2236961
370
     9
  0
POLYLINE
  5
3B2
330
1F
100
AcDbEntity
  8
Capa 1
 62
   250
420
  2236961
370
     9
100
AcDb2dPolyline
 66
     1
 10
0.0
 20
0.0
 30
0.0
  0
VERTEX
  5
3B3
330
3B2
100
AcDbEntity
  8
Capa 1
 62
   250
420
  2236961
370
     9
100
AcDbVertex
100
AcDb2dVertex
 10
88.30724135944173
 20
-130.1229682597056
 30
0.0
  0
VERTEX
  5
3B4
330
3B2
100
AcDbEntity
  8
Capa 1
 62
   250
420
  2236961
370
     9
100
AcDbVertex
100
AcDb2dVertex
 10
86.0762742303981
 20
-129.7328004300776
 30
0.0
  0
SEQEND
  5
3B5
330
3B2
100
AcDbEntity
  8
Capa 1
 62
   250
420
  2236961
370
     9
  0
POLYLINE
  5
3B6
330
1F
100
AcDbEntity
  8
Capa 1
370
     0
100
AcDb2dPolyline
 66
     1
 10
0.0
 20
0.0
 30
0.0
  0
VERTEX
  5
3B7
330
3B6
100
AcDbEntity
  8
Capa 1
370
     0
100
AcDbVertex
100
AcDb2dVertex
 10
85.92712043625272
 20
-131.3977666314436
 30
0.0
  0
VERTEX
  5
3B8
330
3B6
100
AcDbEntity
  8
Capa 1
370
     0
100
AcDbVertex
100
AcDb2dVertex
 10
86.47321920880093
 20
-131.4930181386491
 30
0.0
  0
VERTEX
  5
3B9
330
3B6
100
AcDbEntity
  8
Capa 1
370
     0
100
AcDbVertex
100
AcDb2dVertex
 10
86.4866254749044
 20
-129.8046252879834
 30
0.0
  0
VERTEX
  5
3BA
330
3B6
100
AcDbEntity
  8
Capa 1
370
     0
100
AcDbVertex
100
AcDb2dVertex
 10
85.92712043625272
 20
-131.3977666314436
 30
0.0
  0
SEQEND
  5
3BC
330
3B6
100
AcDbEntity
  8
Capa 1
370
     0
  0
HATCH
  5
3BB
330
1F
100
AcDbEntity
  8
Capa 1
 62
   250
420
  2236961
100
AcDbHatch
 10
0.0
 20
0.0
 30
0.0
210
0.0
220
0.0
230
1.0
  2
SOLID
 70
     1
 71
     0
 91
        1
 92
        1
 93
        3
 72
     1
 10
85.92712043625272
 20
-131.3977666314436
 11
86.47321920880093
 21
-131.4930181386491
 72
     1
 10
86.47321920880093
 20
-131.4930181386491
 11
86.4866254749044
 21
-129.8046252879834
 72
     1
 10
86.4866254749044
 20
-129.8046252879834
 11
85.92712043625272
 21
-131.3977666314436
 97
        0
 75
     2
 76
     1
 98
        0
  0
POLYLINE
  5
3BD
330
1F
100
AcDbEntity
  8
Capa 1
370
     0
100
AcDb2dPolyline
 66
     1
 10
0.0
 20
0.0
 30
0.0
  0
VERTEX
  5
3BE
330
3BD
100
AcDbEntity
  8
Capa 1
370
     0
100
AcDbVertex
100
AcDb2dVertex
 10
80.8153711911453
 20
-162.2809913653407
 30
0.0
  0
VERTEX
  5
3BF
330
3BD
100
AcDbEntity
  8
Capa 1
370
     0
100
AcDbVertex
100
AcDb2dVertex
 10
81.37558139777879
 20
-160.6878473303996
 30
0.0
  0
VERTEX
  5
3C0
330
3BD
100
AcDbEntity
  8
Capa 1
370
     0
100
AcDbVertex
100
AcDb2dVertex
 10
80.82877611150802
 20
-160.5925971689346
 30
0.0
  0
VERTEX
  5
3C1
330
3BD
100
AcDbEntity
  8
Capa 1
370
     0
100
AcDbVertex
100
AcDb2dVertex
 10
80.8153711911453
 20
-162.2809913653407
 30
0.0
  0
SEQEND
  5
3C3
330
3BD
100
AcDbEntity
  8
Capa 1
370
     0
  0
HATCH
  5
3C2
330
1F
100
AcDbEntity
  8
Capa 1
 62
   250
420
  2236961
100
AcDbHatch
 10
0.0
 20
0.0
 30
0.0
210
0.0
220
0.0
230
1.0
  2
SOLID
 70
     1
 71
     0
 91
        1
 92
        1
 93
        3
 72
     1
 10
80.8153711911453
 20
-162.2809913653407
 11
81.37558139777879
 21
-160.6878473303996
 72
     1
 10
81.37558139777879
 20
-160.6878473303996
 11
80.82877611150802
 21
-160.5925971689346
 72
     1
 10
80.82877611150802
 20
-160.5925971689346
 11
80.8153711911453
 21
-162.2809913653407
 97
        0
 75
     2
 76
     1
 98
        0
  0
MTEXT
  5
3C4
330
1F
100
AcDbEntity
  8
Capa 1
 62
   250
420
  2236961
100
AcDbMText
 10
83.13034337039812
 20
-147.8775936343027
 30
0.0
 40
2.497678398927924
 41
0.0
 46
0.0
 71
     7
 72
     1
  1
\fArial|b1|i0|c0|p34;\W1;99
 11
0.1720091965005693
 21
0.9850953437709614
 31
0.0
 73
     1
 44
1.0
  0
ENDSEC
  0
SECTION
  2
OBJECTS
  0
DICTIONARY
  5
C
330
0
100
AcDbDictionary
281
     1
  3
ACAD_GROUP
350
D
  3
ACAD_LAYOUT
350
1A
  3
ACAD_MATERIAL
350
3B
  3
ACAD_MLEADERSTYLE
350
3C6
  3
ACAD_MLINESTYLE
350
17
  3
ACAD_PLOTSETTINGS
350
19
  3
ACAD_PLOTSTYLENAME
350
E
  3
ACAD_TABLESTYLE
350
3C5
  3
ACAD_VISUALSTYLE
350
2A
  0
SUN
  5
3F
330
29
100
AcDbSun
 90
        1
290
     0
 63
     7
421
 16777215
 40
1.0
291
     1
 91
  2455826
 92
 54000000
292
     0
 70
     2
 71
   256
280
     1
  0
DICTIONARY
  5
D
102
{ACAD_REACTORS
330
C
102
}
330
C
100
AcDbDictionary
281
     1
  0
DICTIONARY
  5
1A
102
{ACAD_REACTORS
330
C
102
}
330
C
100
AcDbDictionary
281
     1
  3
Layout1
350
1E
  3
Layout2
350
26
  3
Model
350
22
  0
DICTIONARY
  5
3B
102
{ACAD_REACTORS
330
C
102
}
330
C
100
AcDbDictionary
281
     1
  3
ByBlock
350
3D
  3
ByLayer
350
3C
  3
Global
350
3E
  0
DICTIONARY
  5
3C6
102
{ACAD_REACTORS
330
C
102
}
330
C
100
AcDbDictionary
281
     1
  0
DICTIONARY
  5
17
102
{ACAD_REACTORS
330
C
102
}
330
C
100
AcDbDictionary
281
     1
  3
Standard
350
18
  0
DICTIONARY
  5
19
102
{ACAD_REACTORS
330
C
102
}
330
C
100
AcDbDictionary
281
     1
  0
ACDBDICTIONARYWDFLT
  5
E
102
{ACAD_REACTORS
330
C
102
}
330
C
100
AcDbDictionary
281
     1
  3
Normal
350
F
100
AcDbDictionaryWithDefault
340
F
  0
DICTIONARY
  5
3C5
102
{ACAD_REACTORS
330
C
102
}
330
C
100
AcDbDictionary
281
     1
  0
DICTIONARY
  5
2A
102
{ACAD_REACTORS
330
C
102
}
330
C
100
AcDbDictionary
281
     1
  3
2dWireframe
350
2F
  3
3D Hidden
350
31
  3
3dWireframe
350
30
  3
Basic
350
32
  3
Brighten
350
36
  3
ColorChange
350
3A
  3
Conceptual
350
34
  3
Dim
350
35
  3
Facepattern
350
39
  3
Flat
350
2B
  3
FlatWithEdges
350
2C
  3
Gouraud
350
2D
  3
GouraudWithEdges
350
2E
  3
Linepattern
350
38
  3
Realistic
350
33
  3
Thicken
350
37
  0
LAYOUT
  5
1E
102
{ACAD_REACTORS
330
1A
102
}
330
1A
100
AcDbPlotSettings
  1

  2
none_device
  4

  6

 40
0.0
 41
0.0
 42
0.0
 43
0.0
 44
0.0
 45
0.0
 46
0.0
 47
0.0
 48
0.0
 49
0.0
140
0.0
141
0.0
142
1.0
143
1.0
 70
   688
 72
     0
 73
     0
 74
     5
  7

 75
    16
 76
     0
 77
     2
 78
   300
147
1.0
148
0.0
149
0.0
100
AcDbLayout
  1
Layout1
 70
     1
 71
     1
 10
0.0
 20
0.0
 11
12.0
 21
9.0
 12
0.0
 22
0.0
 32
0.0
 14
1.000000000000000E+20
 24
1.000000000000000E+20
 34
1.000000000000000E+20
 15
-1.000000000000000E+20
 25
-1.000000000000000E+20
 35
-1.000000000000000E+20
146
0.0
 13
0.0
 23
0.0
 33
0.0
 16
1.0
 26
0.0
 36
0.0
 17
0.0
 27
1.0
 37
0.0
 76
     0
330
1B
  0
LAYOUT
  5
26
102
{ACAD_REACTORS
330
1A
102
}
330
1A
100
AcDbPlotSettings
  1

  2
none_device
  4

  6

 40
0.0
 41
0.0
 42
0.0
 43
0.0
 44
0.0
 45
0.0
 46
0.0
 47
0.0
 48
0.0
 49
0.0
140
0.0
141
0.0
142
1.0
143
1.0
 70
   688
 72
     0
 73
     0
 74
     5
  7

 75
    16
 76
     0
 77
     2
 78
   300
147
1.0
148
0.0
149
0.0
100
AcDbLayout
  1
Layout2
 70
     1
 71
     2
 10
0.0
 20
0.0
 11
0.0
 21
0.0
 12
0.0
 22
0.0
 32
0.0
 14
0.0
 24
0.0
 34
0.0
 15
0.0
 25
0.0
 35
0.0
146
0.0
 13
0.0
 23
0.0
 33
0.0
 16
1.0
 26
0.0
 36
0.0
 17
0.0
 27
1.0
 37
0.0
 76
     0
330
23
  0
LAYOUT
  5
22
102
{ACAD_REACTORS
330
1A
102
}
330
1A
100
AcDbPlotSettings
  1

  2
none_device
  4

  6

 40
0.0
 41
0.0
 42
0.0
 43
0.0
 44
0.0
 45
0.0
 46
0.0
 47
0.0
 48
0.0
 49
0.0
140
0.0
141
0.0
142
1.0
143
1.0
 70
  1712
 72
     0
 73
     0
 74
     0
  7

 75
     0
 76
     0
 77
     2
 78
   300
147
1.0
148
0.0
149
0.0
100
AcDbLayout
  1
Model
 70
     1
 71
     0
 10
0.0
 20
0.0
 11
12.0
 21
9.0
 12
0.0
 22
0.0
 32
0.0
 14
1.000000000000000E+20
 24
1.000000000000000E+20
 34
1.000000000000000E+20
 15
-1.000000000000000E+20
 25
-1.000000000000000E+20
 35
-1.000000000000000E+20
146
0.0
 13
0.0
 23
0.0
 33
0.0
 16
1.0
 26
0.0
 36
0.0
 17
0.0
 27
1.0
 37
0.0
 76
     0
330
1F
331
29
  0
MATERIAL
  5
3D
102
{ACAD_REACTORS
330
3B
102
}
330
3B
100
AcDbMaterial
  1
ByBlock
 72
     1
 94
      127
  0
MATERIAL
  5
3C
102
{ACAD_REACTORS
330
3B
102
}
330
3B
100
AcDbMaterial
  1
ByLayer
 72
     1
 94
      127
  0
MATERIAL
  5
3E
102
{ACAD_REACTORS
330
3B
102
}
330
3B
100
AcDbMaterial
  1
Global
 72
     1
 94
      127
  0
MLINESTYLE
  5
18
102
{ACAD_REACTORS
330
17
102
}
330
17
100
AcDbMlineStyle
  2
Standard
 70
     0
  3

 62
   256
 51
90.0
 52
90.0
 71
     2
 49
0.5
 62
   256
  6
BYLAYER
 49
-0.5
 62
   256
  6
BYLAYER
  0
ACDBPLACEHOLDER
  5
F
102
{ACAD_REACTORS
330
E
102
}
330
E
  0
VISUALSTYLE
  5
2F
102
{ACAD_REACTORS
330
2A
102
}
330
2A
100
AcDbVisualStyle
  2
2dWireframe
 70
     4
177
     2
291
     0
 71
     0
176
     1
 72
     2
176
     1
 73
     0
176
     1
 90
        0
176
     1
 40
-0.6
176
     1
 41
-30.0
176
     1
 62
     5
 63
     7
421
 16777215
176
     1
 74
     1
176
     1
 91
        4
176
     1
 64
     7
176
     1
 65
   257
176
     1
 75
     1
176
     1
175
     1
176
     1
 42
1.0
176
     1
 92
        0
176
     1
 66
   257
176
     1
 43
1.0
176
     1
 76
     1
176
     1
 77
     6
176
     1
 78
     2
176
     1
 67
     7
176
     1
 79
     5
176
     1
170
     0
176
     1
171
     0
176
     1
290
     0
176
     1
 93
        1
176
     1
 44
0.0
176
     1
173
     0
176
     1
  0
VISUALSTYLE
  5
31
102
{ACAD_REACTORS
330
2A
102
}
330
2A
100
AcDbVisualStyle
  2
3D Hidden
 70
     6
177
     2
291
     0
 71
     1
176
     1
 72
     2
176
     1
 73
     2
176
     1
 90
        0
176
     1
 40
-0.6
176
     1
 41
-30.0
176
     1
 62
     5
 63
     7
421
 16777215
176
     1
 74
     2
176
     1
 91
        2
176
     1
 64
     7
176
     1
 65
   257
176
     1
 75
     2
176
     1
175
     1
176
     1
 42
40.0
176
     1
 92
        0
176
     1
 66
   257
176
     1
 43
1.0
176
     1
 76
     1
176
     1
 77
     6
176
     1
 78
     2
176
     1
 67
     7
176
     1
 79
     3
176
     1
170
     0
176
     1
171
     0
176
     1
290
     0
176
     1
 93
        1
176
     1
 44
0.0
176
     1
173
     0
176
     1
  0
VISUALSTYLE
  5
30
102
{ACAD_REACTORS
330
2A
102
}
330
2A
100
AcDbVisualStyle
  2
3dWireframe
 70
     5
177
     2
291
     0
 71
     0
176
     1
 72
     2
176
     1
 73
     0
176
     1
 90
        0
176
     1
 40
-0.6
176
     1
 41
-30.0
176
     1
 62
     5
 63
     7
421
 16777215
176
     1
 74
     1
176
     1
 91
        4
176
     1
 64
     7
176
     1
 65
   257
176
     1
 75
     1
176
     1
175
     1
176
     1
 42
1.0
176
     1
 92
        0
176
     1
 66
   257
176
     1
 43
1.0
176
     1
 76
     1
176
     1
 77
     6
176
     1
 78
     2
176
     1
 67
     7
176
     1
 79
     5
176
     1
170
     0
176
     1
171
     0
176
     1
290
     0
176
     1
 93
        1
176
     1
 44
0.0
176
     1
173
     0
176
     1
  0
VISUALSTYLE
  5
32
102
{ACAD_REACTORS
330
2A
102
}
330
2A
100
AcDbVisualStyle
  2
Basic
 70
     7
177
     2
291
     1
 71
     1
176
     1
 72
     0
176
     1
 73
     1
176
     1
 90
        0
176
     1
 40
-0.6
176
     1
 41
-30.0
176
     1
 62
     5
 63
     7
421
 16777215
176
     1
 74
     0
176
     1
 91
        4
176
     1
 64
     7
176
     1
 65
   257
176
     1
 75
     1
176
     1
175
     1
176
     1
 42
1.0
176
     1
 92
        8
176
     1
 66
     7
176
     1
 43
1.0
176
     1
 76
     1
176
     1
 77
     6
176
     1
 78
     2
176
     1
 67
     7
176
     1
 79
     5
176
     1
170
     0
176
     1
171
     0
176
     1
290
     0
176
     1
 93
        1
176
     1
 44
0.0
176
     1
173
     0
176
     1
  0
VISUALSTYLE
  5
36
102
{ACAD_REACTORS
330
2A
102
}
330
2A
100
AcDbVisualStyle
  2
Brighten
 70
    12
177
     2
291
     1
 71
     2
176
     1
 72
     2
176
     1
 73
     0
176
     1
 90
        0
176
     1
 40
-0.6
176
     1
 41
-30.0
176
     1
 62
     5
 63
     7
421
 16777215
176
     1
 74
     1
176
     1
 91
        4
176
     1
 64
     7
176
     1
 65
   257
176
     1
 75
     1
176
     1
175
     1
176
     1
 42
1.0
176
     1
 92
        8
176
     1
 66
     7
176
     1
 43
1.0
176
     1
 76
     1
176
     1
 77
     6
176
     1
 78
     2
176
     1
 67
     7
176
     1
 79
     5
176
     1
170
     0
176
     1
171
     0
176
     1
290
     0
176
     1
 93
        1
176
     1
 44
50.0
176
     1
173
     0
176
     1
  0
VISUALSTYLE
  5
3A
102
{ACAD_REACTORS
330
2A
102
}
330
2A
100
AcDbVisualStyle
  2
ColorChange
 70
    16
177
     2
291
     1
 71
     2
176
     1
 72
     2
176
     1
 73
     3
176
     1
 90
        0
176
     1
 40
-0.6
176
     1
 41
-30.0
176
     1
 62
     5
 63
     8
421
  8421504
176
     1
 74
     1
176
     1
 91
        4
176
     1
 64
     7
176
     1
 65
   257
176
     1
 75
     1
176
     1
175
     1
176
     1
 42
1.0
176
     1
 92
        8
176
     1
 66
     8
424
  8421504
176
     1
 43
1.0
176
     1
 76
     1
176
     1
 77
     6
176
     1
 78
     2
176
     1
 67
     7
176
     1
 79
     5
176
     1
170
     0
176
     1
171
     0
176
     1
290
     0
176
     1
 93
        1
176
     1
 44
0.0
176
     1
173
     0
176
     1
  0
VISUALSTYLE
  5
34
102
{ACAD_REACTORS
330
2A
102
}
330
2A
100
AcDbVisualStyle
  2
Conceptual
 70
     9
177
     2
291
     0
 71
     3
176
     1
 72
     2
176
     1
 73
     0
176
     1
 90
        0
176
     1
 40
-0.6
176
     1
 41
-30.0
176
     1
 62
     5
 63
     7
421
 16777215
176
     1
 74
     2
176
     1
 91
        2
176
     1
 64
     7
176
     1
 65
   257
176
     1
 75
     1
176
     1
175
     1
176
     1
 42
40.0
176
     1
 92
        8
176
     1
 66
     7
176
     1
 43
1.0
176
     1
 76
     1
176
     1
 77
     6
176
     1
 78
     2
176
     1
 67
     7
176
     1
 79
     3
176
     1
170
     0
176
     1
171
     0
176
     1
290
     0
176
     1
 93
        1
176
     1
 44
0.0
176
     1
173
     0
176
     1
  0
VISUALSTYLE
  5
35
102
{ACAD_REACTORS
330
2A
102
}
330
2A
100
AcDbVisualStyle
  2
Dim
 70
    11
177
     2
291
     1
 71
     2
176
     1
 72
     2
176
     1
 73
     0
176
     1
 90
        0
176
     1
 40
-0.6
176
     1
 41
-30.0
176
     1
 62
     5
 63
     7
421
 16777215
176
     1
 74
     1
176
     1
 91
        4
176
     1
 64
     7
176
     1
 65
   257
176
     1
 75
     1
176
     1
175
     1
176
     1
 42
1.0
176
     1
 92
        8
176
     1
 66
     7
176
     1
 43
1.0
176
     1
 76
     1
176
     1
 77
     6
176
     1
 78
     2
176
     1
 67
     7
176
     1
 79
     5
176
     1
170
     0
176
     1
171
     0
176
     1
290
     0
176
     1
 93
        1
176
     1
 44
-50.0
176
     1
173
     0
176
     1
  0
VISUALSTYLE
  5
39
102
{ACAD_REACTORS
330
2A
102
}
330
2A
100
AcDbVisualStyle
  2
Facepattern
 70
    15
177
     2
291
     1
 71
     2
176
     1
 72
     2
176
     1
 73
     0
176
     1
 90
        0
176
     1
 40
-0.6
176
     1
 41
-30.0
176
     1
 62
     5
 63
     7
421
 16777215
176
     1
 74
     1
176
     1
 91
        4
176
     1
 64
     7
176
     1
 65
   257
176
     1
 75
     1
176
     1
175
     1
176
     1
 42
1.0
176
     1
 92
        8
176
     1
 66
     7
176
     1
 43
1.0
176
     1
 76
     1
176
     1
 77
     6
176
     1
 78
     2
176
     1
 67
     7
176
     1
 79
     5
176
     1
170
     0
176
     1
171
     0
176
     1
290
     0
176
     1
 93
        1
176
     1
 44
0.0
176
     1
173
     0
176
     1
  0
VISUALSTYLE
  5
2B
102
{ACAD_REACTORS
330
2A
102
}
330
2A
100
AcDbVisualStyle
  2
Flat
 70
     0
177
     2
291
     1
 71
     2
176
     1
 72
     1
176
     1
 73
     1
176
     1
 90
        2
176
     1
 40
-0.6
176
     1
 41
30.0
176
     1
 62
     5
 63
     7
421
 16777215
176
     1
 74
     0
176
     1
 91
        4
176
     1
 64
     7
176
     1
 65
   257
176
     1
 75
     1
176
     1
175
     1
176
     1
 42
1.0
176
     1
 92
        8
176
     1
 66
     7
176
     1
 43
1.0
176
     1
 76
     1
176
     1
 77
     6
176
     1
 78
     2
176
     1
 67
     7
176
     1
 79
     5
176
     1
170
     0
176
     1
171
     0
176
     1
290
     0
176
     1
 93
       13
176
     1
 44
0.0
176
     1
173
     0
176
     1
  0
VISUALSTYLE
  5
2C
102
{ACAD_REACTORS
330
2A
102
}
330
2A
100
AcDbVisualStyle
  2
FlatWithEdges
 70
     1
177
     2
291
     1
 71
     2
176
     1
 72
     1
176
     1
 73
     1
176
     1
 90
        2
176
     1
 40
-0.6
176
     1
 41
30.0
176
     1
 62
     5
 63
     7
421
 16777215
176
     1
 74
     1
176
     1
 91
        4
176
     1
 64
     7
176
     1
 65
   257
176
     1
 75
     1
176
     1
175
     1
176
     1
 42
1.0
176
     1
 92
        0
176
     1
 66
   257
176
     1
 43
1.0
176
     1
 76
     1
176
     1
 77
     6
176
     1
 78
     2
176
     1
 67
     7
176
     1
 79
     5
176
     1
170
     0
176
     1
171
     0
176
     1
290
     0
176
     1
 93
       13
176
     1
 44
0.0
176
     1
173
     0
176
     1
  0
VISUALSTYLE
  5
2D
102
{ACAD_REACTORS
330
2A
102
}
330
2A
100
AcDbVisualStyle
  2
Gouraud
 70
     2
177
     2
291
     1
 71
     2
176
     1
 72
     2
176
     1
 73
     1
176
     1
 90
        2
176
     1
 40
-0.6
176
     1
 41
30.0
176
     1
 62
     5
 63
     7
421
 16777215
176
     1
 74
     0
176
     1
 91
        4
176
     1
 64
     7
176
     1
 65
   257
176
     1
 75
     1
176
     1
175
     1
176
     1
 42
1.0
176
     1
 92
        0
176
     1
 66
     7
176
     1
 43
1.0
176
     1
 76
     1
176
     1
 77
     6
176
     1
 78
     2
176
     1
 67
     7
176
     1
 79
     5
176
     1
170
     0
176
     1
171
     0
176
     1
290
     0
176
     1
 93
       13
176
     1
 44
0.0
176
     1
173
     0
176
     1
  0
VISUALSTYLE
  5
2E
102
{ACAD_REACTORS
330
2A
102
}
330
2A
100
AcDbVisualStyle
  2
GouraudWithEdges
 70
     3
177
     2
291
     1
 71
     2
176
     1
 72
     2
176
     1
 73
     1
176
     1
 90
        2
176
     1
 40
-0.6
176
     1
 41
30.0
176
     1
 62
     5
 63
     7
421
 16777215
176
     1
 74
     1
176
     1
 91
        4
176
     1
 64
     7
176
     1
 65
   257
176
     1
 75
     1
176
     1
175
     1
176
     1
 42
1.0
176
     1
 92
        0
176
     1
 66
   257
176
     1
 43
1.0
176
     1
 76
     1
176
     1
 77
     6
176
     1
 78
     2
176
     1
 67
     7
176
     1
 79
     5
176
     1
170
     0
176
     1
171
     0
176
     1
290
     0
176
     1
 93
       13
176
     1
 44
0.0
176
     1
173
     0
176
     1
  0
VISUALSTYLE
  5
38
102
{ACAD_REACTORS
330
2A
102
}
330
2A
100
AcDbVisualStyle
  2
Linepattern
 70
    14
177
     2
291
     1
 71
     2
176
     1
 72
     2
176
     1
 73
     0
176
     1
 90
        0
176
     1
 40
-0.6
176
     1
 41
-30.0
176
     1
 62
     5
 63
     7
421
 16777215
176
     1
 74
     1
176
     1
 91
        4
176
     1
 64
     7
176
     1
 65
   257
176
     1
 75
     7
176
     1
175
     7
176
     1
 42
1.0
176
     1
 92
        8
176
     1
 66
     7
176
     1
 43
1.0
176
     1
 76
     1
176
     1
 77
     6
176
     1
 78
     2
176
     1
 67
     7
176
     1
 79
     5
176
     1
170
     0
176
     1
171
     0
176
     1
290
     0
176
     1
 93
        1
176
     1
 44
0.0
176
     1
173
     0
176
     1
  0
VISUALSTYLE
  5
33
102
{ACAD_REACTORS
330
2A
102
}
330
2A
100
AcDbVisualStyle
  2
Realistic
 70
     8
177
     2
291
     0
 71
     2
176
     1
 72
     2
176
     1
 73
     0
176
     1
 90
        0
176
     1
 40
-0.6
176
     1
 41
-30.0
176
     1
 62
     5
 63
     7
421
 16777215
176
     1
 74
     1
176
     1
 91
        0
176
     1
 64
     7
176
     1
 65
   257
176
     1
 75
     1
176
     1
175
     1
176
     1
 42
1.0
176
     1
 92
        8
176
     1
 66
     8
424
  7895160
176
     1
 43
1.0
176
     1
 76
     1
176
     1
 77
     6
176
     1
 78
     2
176
     1
 67
     7
176
     1
 79
     5
176
     1
170
     0
176
     1
171
     0
176
     1
290
     0
176
     1
 93
       13
176
     1
 44
0.0
176
     1
173
     0
176
     1
  0
VISUALSTYLE
  5
37
102
{ACAD_REACTORS
330
2A
102
}
330
2A
100
AcDbVisualStyle
  2
Thicken
 70
    13
177
     2
291
     1
 71
     2
176
     1
 72
     2
176
     1
 73
     0
176
     1
 90
        0
176
     1
 40
-0.6
176
     1
 41
-30.0
176
     1
 62
     5
 63
     7
421
 16777215
176
     1
 74
     1
176
     1
 91
        4
176
     1
 64
     7
176
     1
 65
   257
176
     1
 75
     1
176
     1
175
     1
176
     1
 42
1.0
176
     1
 92
       12
176
     1
 66
     7
176
     1
 43
1.0
176
     1
 76
     1
176
     1
 77
     6
176
     1
 78
     2
176
     1
 67
     7
176
     1
 79
     5
176
     1
170
     0
176
     1
171
     0
176
     1
290
     0
176
     1
 93
        1
176
     1
 44
0.0
176
     1
173
     0
176
     1
  0
ENDSEC
  0
EOF
