  0
SECTION
  2
HEADER
  9
$ACADVER
  1
AC1018
  9
$ACADMAINTVER
 70
     0
  9
$DWGCODEPAGE
  3
ASCII
  9
$INSBASE
 10
0.0
 20
0.0
 30
0.0
  9
$EXTMIN
 10
1.000000000000000E+20
 20
1.000000000000000E+20
 30
1.000000000000000E+20
  9
$EXTMAX
 10
-1.000000000000000E+20
 20
-1.000000000000000E+20
 30
-1.000000000000000E+20
  9
$LIMMIN
 10
0.0
 20
0.0
  9
$LIMMAX
 10
12.0
 20
9.0
  9
$ORTHOMODE
 70
     0
  9
$REGENMODE
 70
     1
  9
$FILLMODE
 70
     1
  9
$QTEXTMODE
 70
     0
  9
$MIRRTEXT
 70
     1
  9
$LTSCALE
 40
1.0
  9
$ATTMODE
 70
     1
  9
$TEXTSIZE
 40
0.2
  9
$TRACEWID
 40
0.05
  9
$TEXTSTYLE
  7
Standard
  9
$CLAYER
  8
0
  9
$CELTYPE
  6
ByLayer
  9
$CECOLOR
 62
   256
  9
$CELTSCALE
 40
1.0
  9
$DISPSILH
 70
     0
  9
$DIMSCALE
 40
1.0
  9
$DIMASZ
 40
0.18
  9
$DIMEXO
 40
0.0625
  9
$DIMDLI
 40
0.38
  9
$DIMRND
 40
0.0
  9
$DIMDLE
 40
0.0
  9
$DIMEXE
 40
0.18
  9
$DIMTP
 40
0.0
  9
$DIMTM
 40
0.0
  9
$DIMTXT
 40
0.18
  9
$DIMCEN
 40
0.09
  9
$DIMTSZ
 40
0.0
  9
$DIMTOL
 70
     0
  9
$DIMLIM
 70
     0
  9
$DIMTIH
 70
     1
  9
$DIMTOH
 70
     1
  9
$DIMSE1
 70
     0
  9
$DIMSE2
 70
     0
  9
$DIMTAD
 70
     0
  9
$DIMZIN
 70
     0
  9
$DIMBLK
  1

  9
$DIMASO
 70
     1
  9
$DIMSHO
 70
     1
  9
$DIMPOST
  1

  9
$DIMAPOST
  1

  9
$DIMALT
 70
     0
  9
$DIMALTD
 70
     2
  9
$DIMALTF
 40
25.4
  9
$DIMLFAC
 40
1.0
  9
$DIMTOFL
 70
     0
  9
$DIMTVP
 40
0.0
  9
$DIMTIX
 70
     0
  9
$DIMSOXD
 70
     0
  9
$DIMSAH
 70
     0
  9
$DIMBLK1
  1

  9
$DIMBLK2
  1

  9
$DIMSTYLE
  2
Standard
  9
$DIMCLRD
 70
     0
  9
$DIMCLRE
 70
     0
  9
$DIMCLRT
 70
     0
  9
$DIMTFAC
 40
1.0
  9
$DIMGAP
 40
0.09
  9
$DIMJUST
 70
     0
  9
$DIMSD1
 70
     0
  9
$DIMSD2
 70
     0
  9
$DIMTOLJ
 70
     1
  9
$DIMTZIN
 70
     0
  9
$DIMALTZ
 70
     0
  9
$DIMALTTZ
 70
     0
  9
$DIMUPT
 70
     0
  9
$DIMDEC
 70
     4
  9
$DIMTDEC
 70
     4
  9
$DIMALTU
 70
     2
  9
$DIMALTTD
 70
     2
  9
$DIMTXSTY
  7
Standard
  9
$DIMAUNIT
 70
     0
  9
$DIMADEC
 70
     0
  9
$DIMALTRND
 40
0.0
  9
$DIMAZIN
 70
     0
  9
$DIMDSEP
 70
    46
  9
$DIMATFIT
 70
     3
  9
$DIMFRAC
 70
     0
  9
$DIMLDRBLK
  1

  9
$DIMLUNIT
 70
     2
  9
$DIMLWD
 70
    -2
  9
$DIMLWE
 70
    -2
  9
$DIMTMOVE
 70
     0
  9
$LUNITS
 70
     2
  9
$LUPREC
 70
     4
  9
$SKETCHINC
 40
0.1
  9
$FILLETRAD
 40
0.5
  9
$AUNITS
 70
     0
  9
$AUPREC
 70
     0
  9
$MENU
  1
.
  9
$ELEVATION
 40
0.0
  9
$PELEVATION
 40
0.0
  9
$THICKNESS
 40
0.0
  9
$LIMCHECK
 70
     0
  9
$CHAMFERA
 40
0.5
  9
$CHAMFERB
 40
0.5
  9
$CHAMFERC
 40
1.0
  9
$CHAMFERD
 40
0.0
  9
$SKPOLY
 70
     0
  9
$TDCREATE
 40
2455219.315509259
  9
$TDUCREATE
 40
2455219.273842593
  9
$TDUPDATE
 40
2455219.315509271
  9
$TDUUPDATE
 40
2455219.273842604
  9
$TDINDWG
 40
0.0000000116
  9
$TDUSRTIMER
 40
0.0000000116
  9
$USRTIMER
 70
     1
  9
$ANGBASE
 50
0.0
  9
$ANGDIR
 70
     0
  9
$PDMODE
 70
     0
  9
$PDSIZE
 40
0.0
  9
$PLINEWID
 40
0.0
  9
$SPLFRAME
 70
     0
  9
$SPLINETYPE
 70
     6
  9
$SPLINESEGS
 70
     8
  9
$HANDSEED
  5
84F
  9
$SURFTAB1
 70
     6
  9
$SURFTAB2
 70
     6
  9
$SURFTYPE
 70
     6
  9
$SURFU
 70
     6
  9
$SURFV
 70
     6
  9
$UCSBASE
  2

  9
$UCSNAME
  2

  9
$UCSORG
 10
0.0
 20
0.0
 30
0.0
  9
$UCSXDIR
 10
1.0
 20
0.0
 30
0.0
  9
$UCSYDIR
 10
0.0
 20
1.0
 30
0.0
  9
$UCSORTHOREF
  2

  9
$UCSORTHOVIEW
 70
     0
  9
$UCSORGTOP
 10
0.0
 20
0.0
 30
0.0
  9
$UCSORGBOTTOM
 10
0.0
 20
0.0
 30
0.0
  9
$UCSORGLEFT
 10
0.0
 20
0.0
 30
0.0
  9
$UCSORGRIGHT
 10
0.0
 20
0.0
 30
0.0
  9
$UCSORGFRONT
 10
0.0
 20
0.0
 30
0.0
  9
$UCSORGBACK
 10
0.0
 20
0.0
 30
0.0
  9
$PUCSBASE
  2

  9
$PUCSNAME
  2

  9
$PUCSORG
 10
0.0
 20
0.0
 30
0.0
  9
$PUCSXDIR
 10
1.0
 20
0.0
 30
0.0
  9
$PUCSYDIR
 10
0.0
 20
1.0
 30
0.0
  9
$PUCSORTHOREF
  2

  9
$PUCSORTHOVIEW
 70
     0
  9
$PUCSORGTOP
 10
0.0
 20
0.0
 30
0.0
  9
$PUCSORGBOTTOM
 10
0.0
 20
0.0
 30
0.0
  9
$PUCSORGLEFT
 10
0.0
 20
0.0
 30
0.0
  9
$PUCSORGRIGHT
 10
0.0
 20
0.0
 30
0.0
  9
$PUCSORGFRONT
 10
0.0
 20
0.0
 30
0.0
  9
$PUCSORGBACK
 10
0.0
 20
0.0
 30
0.0
  9
$USERI1
 70
     0
  9
$USERI2
 70
     0
  9
$USERI3
 70
     0
  9
$USERI4
 70
     0
  9
$USERI5
 70
     0
  9
$USERR1
 40
0.0
  9
$USERR2
 40
0.0
  9
$USERR3
 40
0.0
  9
$USERR4
 40
0.0
  9
$USERR5
 40
0.0
  9
$WORLDVIEW
 70
     1
  9
$SHADEDGE
 70
     3
  9
$SHADEDIF
 70
    70
  9
$TILEMODE
 70
     1
  9
$MAXACTVP
 70
    64
  9
$PINSBASE
 10
0.0
 20
0.0
 30
0.0
  9
$PLIMCHECK
 70
     0
  9
$PEXTMIN
 10
1.000000000000000E+20
 20
1.000000000000000E+20
 30
1.000000000000000E+20
  9
$PEXTMAX
 10
-1.000000000000000E+20
 20
-1.000000000000000E+20
 30
-1.000000000000000E+20
  9
$PLIMMIN
 10
0.0
 20
0.0
  9
$PLIMMAX
 10
12.0
 20
9.0
  9
$UNITMODE
 70
     0
  9
$VISRETAIN
 70
     1
  9
$PLINEGEN
 70
     0
  9
$PSLTSCALE
 70
     1
  9
$TREEDEPTH
 70
  3020
  9
$CMLSTYLE
  2
Standard
  9
$CMLJUST
 70
     0
  9
$CMLSCALE
 40
1.0
  9
$PROXYGRAPHICS
 70
     1
  9
$MEASUREMENT
 70
     0
  9
$CELWEIGHT
370
    -1
  9
$ENDCAPS
280
     0
  9
$JOINSTYLE
280
     0
  9
$LWDISPLAY
290
     1
  9
$INSUNITS
 70
     1
  9
$HYPERLINKBASE
  1

  9
$STYLESHEET
  1

  9
$XEDIT
290
     1
  9
$CEPSNTYPE
380
     0
  9
$PSTYLEMODE
290
     1
  9
$FINGERPRINTGUID
  2
{4358EC59-627C-2BA8-1E92-1B6BA04C5DC6}
  9
$VERSIONGUID
  2
{FAEB1C32-E019-11D5-929B-00C0DF256EC4}
  9
$EXTNAMES
290
     1
  9
$PSVPSCALE
 40
0.0
  9
$OLESTARTUP
290
     0
  9
$SORTENTS
280
   127
  9
$INDEXCTL
280
     0
  9
$HIDETEXT
280
     1
  9
$XCLIPFRAME
290
     0
  9
$HALOGAP
280
     0
  9
$OBSCOLOR
 70
   257
  9
$OBSLTYPE
280
     0
  9
$INTERSECTIONDISPLAY
280
     0
  9
$INTERSECTIONCOLOR
 70
   257
  9
$DIMASSOC
280
     2
  9
$PROJECTNAME
  1

  0
ENDSEC
  0
SECTION
  2
CLASSES
  0
CLASS
  1
ACDBDICTIONARYWDFLT
  2
AcDbDictionaryWithDefault
  3
ObjectDBX Classes
 90
        0
 91
        3
280
     0
281
     0
  0
CLASS
  1
VISUALSTYLE
  2
AcDbVisualStyle
  3
ObjectDBX Classes
 90
     4095
 91
        3
280
     0
281
     0
  0
ENDSEC
  0
SECTION
  2
TABLES
  0
TABLE
  2
VPORT
  5
8
330
0
100
AcDbSymbolTable
 70
     1
  0
VPORT
  5
29
330
8
100
AcDbSymbolTableRecord
100
AcDbViewportTableRecord
  2
*Active
 70
     0
 10
0.0
 20
0.0
 11
1.0
 21
1.0
 12
0.0
 22
0.0
 13
0.0
 23
0.0
 14
0.5
 24
0.5
 15
0.5
 25
0.5
 16
0.0
 26
0.0
 36
1.0
 17
105.0008091239277
 27
148.5001637099431
 37
0.0
 40
297.0003274198861
 41
0.7070753762199199
 42
50.0
 43
0.0
 44
0.0
 50
0.0
 51
0.0
 71
     0
 72
   100
 73
     1
 74
     3
 75
     0
 76
     0
 77
     0
 78
     0
281
     0
 65
     1
110
0.0
120
0.0
130
0.0
111
1.0
121
0.0
131
0.0
112
0.0
122
1.0
132
0.0
 79
     0
146
0.0
  0
ENDTAB
  0
TABLE
  2
LTYPE
  5
5
330
0
100
AcDbSymbolTable
 70
    22
  0
LTYPE
  5
14
330
5
100
AcDbSymbolTableRecord
100
AcDbLinetypeTableRecord
  2
ByBlock
 70
     0
  3

 72
    65
 73
     0
 40
0.0
  0
LTYPE
  5
15
330
5
100
AcDbSymbolTableRecord
100
AcDbLinetypeTableRecord
  2
ByLayer
 70
     0
  3

 72
    65
 73
     0
 40
0.0
  0
LTYPE
  5
16
330
5
100
AcDbSymbolTableRecord
100
AcDbLinetypeTableRecord
  2
Continuous
 70
     0
  3
Solid line
 72
    65
 73
     0
 40
0.0
  0
LTYPE
  5
793
330
5
100
AcDbSymbolTableRecord
100
AcDbLinetypeTableRecord
  2
AI-Linetype-1
 70
     0
  3
Adobe Illustrator Linetype No. 1
 72
    65
 73
     4
 40
5.075699156201283
 49
3.172311956855396
 74
     0
 49
-0.6344623997819624
 74
     0
 49
0.6344623997819624
 74
     0
 49
-0.6344623997819624
 74
     0
  0
LTYPE
  5
799
330
5
100
AcDbSymbolTableRecord
100
AcDbLinetypeTableRecord
  2
AI-Linetype-2
 70
     0
  3
Adobe Illustrator Linetype No. 2
 72
    65
 73
     4
 40
5.075699156201283
 49
3.172311956855396
 74
     0
 49
-0.6344623997819624
 74
     0
 49
0.6344623997819624
 74
     0
 49
-0.6344623997819624
 74
     0
  0
LTYPE
  5
7A2
330
5
100
AcDbSymbolTableRecord
100
AcDbLinetypeTableRecord
  2
AI-Linetype-3
 70
     0
  3
Adobe Illustrator Linetype No. 3
 72
    65
 73
     4
 40
5.075699156201283
 49
3.172311956855396
 74
     0
 49
-0.6344623997819624
 74
     0
 49
0.6344623997819624
 74
     0
 49
-0.6344623997819624
 74
     0
  0
LTYPE
  5
7AB
330
5
100
AcDbSymbolTableRecord
100
AcDbLinetypeTableRecord
  2
AI-Linetype-4
 70
     0
  3
Adobe Illustrator Linetype No. 4
 72
    65
 73
     4
 40
5.075699156201283
 49
3.172311956855396
 74
     0
 49
-0.6344623997819624
 74
     0
 49
0.6344623997819624
 74
     0
 49
-0.6344623997819624
 74
     0
  0
LTYPE
  5
7B4
330
5
100
AcDbSymbolTableRecord
100
AcDbLinetypeTableRecord
  2
AI-Linetype-5
 70
     0
  3
Adobe Illustrator Linetype No. 5
 72
    65
 73
     4
 40
5.075699156201283
 49
3.172311956855396
 74
     0
 49
-0.6344623997819624
 74
     0
 49
0.6344623997819624
 74
     0
 49
-0.6344623997819624
 74
     0
  0
LTYPE
  5
7BD
330
5
100
AcDbSymbolTableRecord
100
AcDbLinetypeTableRecord
  2
AI-Linetype-6
 70
     0
  3
Adobe Illustrator Linetype No. 6
 72
    65
 73
     4
 40
5.075699156201283
 49
3.172311956855396
 74
     0
 49
-0.6344623997819624
 74
     0
 49
0.6344623997819624
 74
     0
 49
-0.6344623997819624
 74
     0
  0
LTYPE
  5
7C6
330
5
100
AcDbSymbolTableRecord
100
AcDbLinetypeTableRecord
  2
AI-Linetype-7
 70
     0
  3
Adobe Illustrator Linetype No. 7
 72
    65
 73
     4
 40
5.075699156201283
 49
3.172311956855396
 74
     0
 49
-0.6344623997819624
 74
     0
 49
0.6344623997819624
 74
     0
 49
-0.6344623997819624
 74
     0
  0
LTYPE
  5
7CF
330
5
100
AcDbSymbolTableRecord
100
AcDbLinetypeTableRecord
  2
AI-Linetype-8
 70
     0
  3
Adobe Illustrator Linetype No. 8
 72
    65
 73
     4
 40
5.075699156201283
 49
3.172311956855396
 74
     0
 49
-0.6344623997819624
 74
     0
 49
0.6344623997819624
 74
     0
 49
-0.6344623997819624
 74
     0
  0
LTYPE
  5
7D8
330
5
100
AcDbSymbolTableRecord
100
AcDbLinetypeTableRecord
  2
AI-Linetype-9
 70
     0
  3
Adobe Illustrator Linetype No. 9
 72
    65
 73
     4
 40
5.075699156201283
 49
3.172311956855396
 74
     0
 49
-0.6344623997819624
 74
     0
 49
0.6344623997819624
 74
     0
 49
-0.6344623997819624
 74
     0
  0
LTYPE
  5
7E1
330
5
100
AcDbSymbolTableRecord
100
AcDbLinetypeTableRecord
  2
AI-Linetype-10
 70
     0
  3
Adobe Illustrator Linetype No. 10
 72
    65
 73
     4
 40
5.075699156201283
 49
3.172311956855396
 74
     0
 49
-0.6344623997819624
 74
     0
 49
0.6344623997819624
 74
     0
 49
-0.6344623997819624
 74
     0
  0
LTYPE
  5
7EA
330
5
100
AcDbSymbolTableRecord
100
AcDbLinetypeTableRecord
  2
AI-Linetype-11
 70
     0
  3
Adobe Illustrator Linetype No. 11
 72
    65
 73
     4
 40
5.075699156201283
 49
3.172311956855396
 74
     0
 49
-0.6344623997819624
 74
     0
 49
0.6344623997819624
 74
     0
 49
-0.6344623997819624
 74
     0
  0
LTYPE
  5
7F3
330
5
100
AcDbSymbolTableRecord
100
AcDbLinetypeTableRecord
  2
AI-Linetype-12
 70
     0
  3
Adobe Illustrator Linetype No. 12
 72
    65
 73
     4
 40
5.075699156201283
 49
3.172311956855396
 74
     0
 49
-0.6344623997819624
 74
     0
 49
0.6344623997819624
 74
     0
 49
-0.6344623997819624
 74
     0
  0
LTYPE
  5
7FC
330
5
100
AcDbSymbolTableRecord
100
AcDbLinetypeTableRecord
  2
AI-Linetype-13
 70
     0
  3
Adobe Illustrator Linetype No. 13
 72
    65
 73
     4
 40
5.075699156201283
 49
3.172311956855396
 74
     0
 49
-0.6344623997819624
 74
     0
 49
0.6344623997819624
 74
     0
 49
-0.6344623997819624
 74
     0
  0
LTYPE
  5
805
330
5
100
AcDbSymbolTableRecord
100
AcDbLinetypeTableRecord
  2
AI-Linetype-14
 70
     0
  3
Adobe Illustrator Linetype No. 14
 72
    65
 73
     4
 40
5.075699156201283
 49
3.172311956855396
 74
     0
 49
-0.6344623997819624
 74
     0
 49
0.6344623997819624
 74
     0
 49
-0.6344623997819624
 74
     0
  0
LTYPE
  5
80E
330
5
100
AcDbSymbolTableRecord
100
AcDbLinetypeTableRecord
  2
AI-Linetype-15
 70
     0
  3
Adobe Illustrator Linetype No. 15
 72
    65
 73
     4
 40
5.075699156201283
 49
3.172311956855396
 74
     0
 49
-0.6344623997819624
 74
     0
 49
0.6344623997819624
 74
     0
 49
-0.6344623997819624
 74
     0
  0
LTYPE
  5
817
330
5
100
AcDbSymbolTableRecord
100
AcDbLinetypeTableRecord
  2
AI-Linetype-16
 70
     0
  3
Adobe Illustrator Linetype No. 16
 72
    65
 73
     4
 40
5.075699156201283
 49
3.172311956855396
 74
     0
 49
-0.6344623997819624
 74
     0
 49
0.6344623997819624
 74
     0
 49
-0.6344623997819624
 74
     0
  0
LTYPE
  5
81E
330
5
100
AcDbSymbolTableRecord
100
AcDbLinetypeTableRecord
  2
AI-Linetype-17
 70
     0
  3
Adobe Illustrator Linetype No. 17
 72
    65
 73
     2
 40
2.248095093495789
 49
1.498730062330526
 74
     0
 49
-0.7493650311652629
 74
     0
  0
LTYPE
  5
824
330
5
100
AcDbSymbolTableRecord
100
AcDbLinetypeTableRecord
  2
AI-Linetype-18
 70
     0
  3
Adobe Illustrator Linetype No. 18
 72
    65
 73
     2
 40
2.248095093495789
 49
1.498730062330526
 74
     0
 49
-0.7493650311652629
 74
     0
  0
LTYPE
  5
82A
330
5
100
AcDbSymbolTableRecord
100
AcDbLinetypeTableRecord
  2
AI-Linetype-19
 70
     0
  3
Adobe Illustrator Linetype No. 19
 72
    65
 73
     2
 40
2.248095093495789
 49
1.498730062330526
 74
     0
 49
-0.7493650311652629
 74
     0
  0
LTYPE
  5
830
330
5
100
AcDbSymbolTableRecord
100
AcDbLinetypeTableRecord
  2
AI-Linetype-20
 70
     0
  3
Adobe Illustrator Linetype No. 20
 72
    65
 73
     2
 40
2.435436414368728
 49
1.623624276245819
 74
     0
 49
-0.8118121381229094
 74
     0
  0
LTYPE
  5
836
330
5
100
AcDbSymbolTableRecord
100
AcDbLinetypeTableRecord
  2
AI-Linetype-21
 70
     0
  3
Adobe Illustrator Linetype No. 21
 72
    65
 73
     2
 40
2.248095093495789
 49
1.498730062330526
 74
     0
 49
-0.7493650311652629
 74
     0
  0
ENDTAB
  0
TABLE
  2
LAYER
  5
2
330
0
100
AcDbSymbolTable
 70
     8
  0
LAYER
  5
10
330
2
100
AcDbSymbolTableRecord
100
AcDbLayerTableRecord
  2
0
 70
     0
 62
     7
  6
Continuous
370
    -3
390
F
  0
LAYER
  5
3B
330
2
100
AcDbSymbolTableRecord
100
AcDbLayerTableRecord
  2
CAJETIN
 70
     0
 62
     7
  6
Continuous
370
    -3
390
F
  0
LAYER
  5
3C
330
2
100
AcDbSymbolTableRecord
100
AcDbLayerTableRecord
  2
COTAS
 70
     0
 62
     7
  6
Continuous
370
    -3
390
F
  0
LAYER
  5
55D
330
2
100
AcDbSymbolTableRecord
100
AcDbLayerTableRecord
  2
1
 70
     0
 62
     7
  6
Continuous
370
    -3
390
F
  0
LAYER
  5
78A
330
2
100
AcDbSymbolTableRecord
100
AcDbLayerTableRecord
  2
EJES
 70
     0
 62
     7
  6
Continuous
370
    -3
390
F
  0
LAYER
  5
818
330
2
100
AcDbSymbolTableRecord
100
AcDbLayerTableRecord
  2
OCULTO
 70
     0
 62
     7
  6
Continuous
370
    -3
390
F
  0
LAYER
  5
837
330
2
100
AcDbSymbolTableRecord
100
AcDbLayerTableRecord
  2
PC-SHOP
 70
     0
 62
     7
  6
Continuous
370
    -3
390
F
  0
LAYER
  5
838
330
2
100
AcDbSymbolTableRecord
100
AcDbLayerTableRecord
  2
SOMBREA
 70
     0
 62
     7
  6
Continuous
370
    -3
390
F
  0
ENDTAB
  0
TABLE
  2
STYLE
  5
3
330
0
100
AcDbSymbolTable
 70
     1
  0
STYLE
  5
11
330
3
100
AcDbSymbolTableRecord
100
AcDbTextStyleTableRecord
  2
Standard
 70
     0
 40
0.0
 41
1.0
 50
0.0
 71
     0
 42
0.2
  3
txt
  4

  0
ENDTAB
  0
TABLE
  2
VIEW
  5
6
330
0
100
AcDbSymbolTable
 70
     0
  0
ENDTAB
  0
TABLE
  2
UCS
  5
7
330
0
100
AcDbSymbolTable
 70
     0
  0
ENDTAB
  0
TABLE
  2
APPID
  5
9
330
0
100
AcDbSymbolTable
 70
     1
  0
APPID
  5
12
330
9
100
AcDbSymbolTableRecord
100
AcDbRegAppTableRecord
  2
ACAD
 70
     0
  0
ENDTAB
  0
TABLE
  2
DIMSTYLE
  5
A
330
0
100
AcDbSymbolTable
 70
     1
100
AcDbDimStyleTable
  0
DIMSTYLE
105
27
330
A
100
AcDbSymbolTableRecord
100
AcDbDimStyleTableRecord
  2
Standard
 70
     0
340
11
  0
ENDTAB
  0
TABLE
  2
BLOCK_RECORD
  5
1
330
0
100
AcDbSymbolTable
 70
   229
  0
BLOCK_RECORD
  5
1F
330
1
100
AcDbSymbolTableRecord
100
AcDbBlockTableRecord
  2
*Model_Space
340
22
  0
BLOCK_RECORD
  5
1B
330
1
100
AcDbSymbolTableRecord
100
AcDbBlockTableRecord
  2
*Paper_Space
340
1E
  0
BLOCK_RECORD
  5
23
330
1
100
AcDbSymbolTableRecord
100
AcDbBlockTableRecord
  2
*Paper_Space0
340
26
  0
BLOCK_RECORD
  5
3D
330
1
100
AcDbSymbolTableRecord
100
AcDbBlockTableRecord
  2
block 2
340
0
102
{BLKREFS
331
3E
102
}
  0
BLOCK_RECORD
  5
45
330
1
100
AcDbSymbolTableRecord
100
AcDbBlockTableRecord
  2
block 3
340
0
102
{BLKREFS
331
46
102
}
  0
BLOCK_RECORD
  5
DA
330
1
100
AcDbSymbolTableRecord
100
AcDbBlockTableRecord
  2
block 4
340
0
102
{BLKREFS
331
DB
102
}
  0
BLOCK_RECORD
  5
DE
330
1
100
AcDbSymbolTableRecord
100
AcDbBlockTableRecord
  2
block 5
340
0
102
{BLKREFS
331
DF
102
}
  0
BLOCK_RECORD
  5
E6
330
1
100
AcDbSymbolTableRecord
100
AcDbBlockTableRecord
  2
block 6
340
0
102
{BLKREFS
331
E7
102
}
  0
BLOCK_RECORD
  5
EE
330
1
100
AcDbSymbolTableRecord
100
AcDbBlockTableRecord
  2
block 7
340
0
102
{BLKREFS
331
EF
102
}
  0
BLOCK_RECORD
  5
F6
330
1
100
AcDbSymbolTableRecord
100
AcDbBlockTableRecord
  2
block 8
340
0
102
{BLKREFS
331
F7
102
}
  0
BLOCK_RECORD
  5
FE
330
1
100
AcDbSymbolTableRecord
100
AcDbBlockTableRecord
  2
block 9
340
0
102
{BLKREFS
331
FF
102
}
  0
BLOCK_RECORD
  5
109
330
1
100
AcDbSymbolTableRecord
100
AcDbBlockTableRecord
  2
block 10
340
0
102
{BLKREFS
331
10A
102
}
  0
BLOCK_RECORD
  5
114
330
1
100
AcDbSymbolTableRecord
100
AcDbBlockTableRecord
  2
block 11
340
0
102
{BLKREFS
331
115
102
}
  0
BLOCK_RECORD
  5
119
330
1
100
AcDbSymbolTableRecord
100
AcDbBlockTableRecord
  2
block 12
340
0
102
{BLKREFS
331
11A
102
}
  0
BLOCK_RECORD
  5
121
330
1
100
AcDbSymbolTableRecord
100
AcDbBlockTableRecord
  2
block 13
340
0
102
{BLKREFS
331
122
102
}
  0
BLOCK_RECORD
  5
129
330
1
100
AcDbSymbolTableRecord
100
AcDbBlockTableRecord
  2
block 14
340
0
102
{BLKREFS
331
12A
102
}
  0
BLOCK_RECORD
  5
131
330
1
100
AcDbSymbolTableRecord
100
AcDbBlockTableRecord
  2
block 15
340
0
102
{BLKREFS
331
132
102
}
  0
BLOCK_RECORD
  5
135
330
1
100
AcDbSymbolTableRecord
100
AcDbBlockTableRecord
  2
block 16
340
0
102
{BLKREFS
331
136
102
}
  0
BLOCK_RECORD
  5
13D
330
1
100
AcDbSymbolTableRecord
100
AcDbBlockTableRecord
  2
block 17
340
0
102
{BLKREFS
331
13E
102
}
  0
BLOCK_RECORD
  5
145
330
1
100
AcDbSymbolTableRecord
100
AcDbBlockTableRecord
  2
block 18
340
0
102
{BLKREFS
331
146
102
}
  0
BLOCK_RECORD
  5
14D
330
1
100
AcDbSymbolTableRecord
100
AcDbBlockTableRecord
  2
block 19
340
0
102
{BLKREFS
331
14E
102
}
  0
BLOCK_RECORD
  5
155
330
1
100
AcDbSymbolTableRecord
100
AcDbBlockTableRecord
  2
block 20
340
0
102
{BLKREFS
331
156
102
}
  0
BLOCK_RECORD
  5
160
330
1
100
AcDbSymbolTableRecord
100
AcDbBlockTableRecord
  2
block 21
340
0
102
{BLKREFS
331
161
102
}
  0
BLOCK_RECORD
  5
16B
330
1
100
AcDbSymbolTableRecord
100
AcDbBlockTableRecord
  2
block 22
340
0
102
{BLKREFS
331
16C
102
}
  0
BLOCK_RECORD
  5
170
330
1
100
AcDbSymbolTableRecord
100
AcDbBlockTableRecord
  2
block 23
340
0
102
{BLKREFS
331
171
102
}
  0
BLOCK_RECORD
  5
178
330
1
100
AcDbSymbolTableRecord
100
AcDbBlockTableRecord
  2
block 24
340
0
102
{BLKREFS
331
179
102
}
  0
BLOCK_RECORD
  5
180
330
1
100
AcDbSymbolTableRecord
100
AcDbBlockTableRecord
  2
block 25
340
0
102
{BLKREFS
331
181
102
}
  0
BLOCK_RECORD
  5
188
330
1
100
AcDbSymbolTableRecord
100
AcDbBlockTableRecord
  2
block 26
340
0
102
{BLKREFS
331
189
102
}
  0
BLOCK_RECORD
  5
18C
330
1
100
AcDbSymbolTableRecord
100
AcDbBlockTableRecord
  2
block 27
340
0
102
{BLKREFS
331
18D
102
}
  0
BLOCK_RECORD
  5
194
330
1
100
AcDbSymbolTableRecord
100
AcDbBlockTableRecord
  2
block 28
340
0
102
{BLKREFS
331
195
102
}
  0
BLOCK_RECORD
  5
19C
330
1
100
AcDbSymbolTableRecord
100
AcDbBlockTableRecord
  2
block 29
340
0
102
{BLKREFS
331
19D
102
}
  0
BLOCK_RECORD
  5
1A4
330
1
100
AcDbSymbolTableRecord
100
AcDbBlockTableRecord
  2
block 30
340
0
102
{BLKREFS
331
1A5
102
}
  0
BLOCK_RECORD
  5
1AC
330
1
100
AcDbSymbolTableRecord
100
AcDbBlockTableRecord
  2
block 31
340
0
102
{BLKREFS
331
1AD
102
}
  0
BLOCK_RECORD
  5
1B7
330
1
100
AcDbSymbolTableRecord
100
AcDbBlockTableRecord
  2
block 32
340
0
102
{BLKREFS
331
1B8
102
}
  0
BLOCK_RECORD
  5
1C2
330
1
100
AcDbSymbolTableRecord
100
AcDbBlockTableRecord
  2
block 33
340
0
102
{BLKREFS
331
1C3
102
}
  0
BLOCK_RECORD
  5
1C7
330
1
100
AcDbSymbolTableRecord
100
AcDbBlockTableRecord
  2
block 34
340
0
102
{BLKREFS
331
1C8
102
}
  0
BLOCK_RECORD
  5
1CF
330
1
100
AcDbSymbolTableRecord
100
AcDbBlockTableRecord
  2
block 35
340
0
102
{BLKREFS
331
1D0
102
}
  0
BLOCK_RECORD
  5
1D7
330
1
100
AcDbSymbolTableRecord
100
AcDbBlockTableRecord
  2
block 36
340
0
102
{BLKREFS
331
1D8
102
}
  0
BLOCK_RECORD
  5
1DF
330
1
100
AcDbSymbolTableRecord
100
AcDbBlockTableRecord
  2
block 37
340
0
102
{BLKREFS
331
1E0
102
}
  0
BLOCK_RECORD
  5
1E5
330
1
100
AcDbSymbolTableRecord
100
AcDbBlockTableRecord
  2
block 38
340
0
102
{BLKREFS
331
1E6
102
}
  0
BLOCK_RECORD
  5
1EB
330
1
100
AcDbSymbolTableRecord
100
AcDbBlockTableRecord
  2
block 39
340
0
102
{BLKREFS
331
1EC
102
}
  0
BLOCK_RECORD
  5
1FF
330
1
100
AcDbSymbolTableRecord
100
AcDbBlockTableRecord
  2
block 40
340
0
102
{BLKREFS
331
200
102
}
  0
BLOCK_RECORD
  5
203
330
1
100
AcDbSymbolTableRecord
100
AcDbBlockTableRecord
  2
block 41
340
0
102
{BLKREFS
331
204
102
}
  0
BLOCK_RECORD
  5
20B
330
1
100
AcDbSymbolTableRecord
100
AcDbBlockTableRecord
  2
block 42
340
0
102
{BLKREFS
331
20C
102
}
  0
BLOCK_RECORD
  5
213
330
1
100
AcDbSymbolTableRecord
100
AcDbBlockTableRecord
  2
block 43
340
0
102
{BLKREFS
331
214
102
}
  0
BLOCK_RECORD
  5
21B
330
1
100
AcDbSymbolTableRecord
100
AcDbBlockTableRecord
  2
block 44
340
0
102
{BLKREFS
331
21C
102
}
  0
BLOCK_RECORD
  5
223
330
1
100
AcDbSymbolTableRecord
100
AcDbBlockTableRecord
  2
block 45
340
0
102
{BLKREFS
331
224
102
}
  0
BLOCK_RECORD
  5
22E
330
1
100
AcDbSymbolTableRecord
100
AcDbBlockTableRecord
  2
block 46
340
0
102
{BLKREFS
331
22F
102
}
  0
BLOCK_RECORD
  5
239
330
1
100
AcDbSymbolTableRecord
100
AcDbBlockTableRecord
  2
block 47
340
0
102
{BLKREFS
331
23A
102
}
  0
BLOCK_RECORD
  5
23E
330
1
100
AcDbSymbolTableRecord
100
AcDbBlockTableRecord
  2
block 48
340
0
102
{BLKREFS
331
23F
102
}
  0
BLOCK_RECORD
  5
246
330
1
100
AcDbSymbolTableRecord
100
AcDbBlockTableRecord
  2
block 49
340
0
102
{BLKREFS
331
247
102
}
  0
BLOCK_RECORD
  5
24E
330
1
100
AcDbSymbolTableRecord
100
AcDbBlockTableRecord
  2
block 50
340
0
102
{BLKREFS
331
24F
102
}
  0
BLOCK_RECORD
  5
256
330
1
100
AcDbSymbolTableRecord
100
AcDbBlockTableRecord
  2
block 51
340
0
102
{BLKREFS
331
257
102
}
  0
BLOCK_RECORD
  5
25A
330
1
100
AcDbSymbolTableRecord
100
AcDbBlockTableRecord
  2
block 52
340
0
102
{BLKREFS
331
25B
102
}
  0
BLOCK_RECORD
  5
262
330
1
100
AcDbSymbolTableRecord
100
AcDbBlockTableRecord
  2
block 53
340
0
102
{BLKREFS
331
263
102
}
  0
BLOCK_RECORD
  5
26A
330
1
100
AcDbSymbolTableRecord
100
AcDbBlockTableRecord
  2
block 54
340
0
102
{BLKREFS
331
26B
102
}
  0
BLOCK_RECORD
  5
272
330
1
100
AcDbSymbolTableRecord
100
AcDbBlockTableRecord
  2
block 55
340
0
102
{BLKREFS
331
273
102
}
  0
BLOCK_RECORD
  5
27A
330
1
100
AcDbSymbolTableRecord
100
AcDbBlockTableRecord
  2
block 56
340
0
102
{BLKREFS
331
27B
102
}
  0
BLOCK_RECORD
  5
285
330
1
100
AcDbSymbolTableRecord
100
AcDbBlockTableRecord
  2
block 57
340
0
102
{BLKREFS
331
286
102
}
  0
BLOCK_RECORD
  5
290
330
1
100
AcDbSymbolTableRecord
100
AcDbBlockTableRecord
  2
block 58
340
0
102
{BLKREFS
331
291
102
}
  0
BLOCK_RECORD
  5
295
330
1
100
AcDbSymbolTableRecord
100
AcDbBlockTableRecord
  2
block 59
340
0
102
{BLKREFS
331
296
102
}
  0
BLOCK_RECORD
  5
29D
330
1
100
AcDbSymbolTableRecord
100
AcDbBlockTableRecord
  2
block 60
340
0
102
{BLKREFS
331
29E
102
}
  0
BLOCK_RECORD
  5
2A5
330
1
100
AcDbSymbolTableRecord
100
AcDbBlockTableRecord
  2
block 61
340
0
102
{BLKREFS
331
2A6
102
}
  0
BLOCK_RECORD
  5
2AD
330
1
100
AcDbSymbolTableRecord
100
AcDbBlockTableRecord
  2
block 62
340
0
102
{BLKREFS
331
2AE
102
}
  0
BLOCK_RECORD
  5
2B1
330
1
100
AcDbSymbolTableRecord
100
AcDbBlockTableRecord
  2
block 63
340
0
102
{BLKREFS
331
2B2
102
}
  0
BLOCK_RECORD
  5
2B9
330
1
100
AcDbSymbolTableRecord
100
AcDbBlockTableRecord
  2
block 64
340
0
102
{BLKREFS
331
2BA
102
}
  0
BLOCK_RECORD
  5
2C1
330
1
100
AcDbSymbolTableRecord
100
AcDbBlockTableRecord
  2
block 65
340
0
102
{BLKREFS
331
2C2
102
}
  0
BLOCK_RECORD
  5
2C9
330
1
100
AcDbSymbolTableRecord
100
AcDbBlockTableRecord
  2
block 66
340
0
102
{BLKREFS
331
2CA
102
}
  0
BLOCK_RECORD
  5
2D1
330
1
100
AcDbSymbolTableRecord
100
AcDbBlockTableRecord
  2
block 67
340
0
102
{BLKREFS
331
2D2
102
}
  0
BLOCK_RECORD
  5
2DC
330
1
100
AcDbSymbolTableRecord
100
AcDbBlockTableRecord
  2
block 68
340
0
102
{BLKREFS
331
2DD
102
}
  0
BLOCK_RECORD
  5
2E7
330
1
100
AcDbSymbolTableRecord
100
AcDbBlockTableRecord
  2
block 69
340
0
102
{BLKREFS
331
2E8
102
}
  0
BLOCK_RECORD
  5
2EC
330
1
100
AcDbSymbolTableRecord
100
AcDbBlockTableRecord
  2
block 70
340
0
102
{BLKREFS
331
2ED
102
}
  0
BLOCK_RECORD
  5
2F4
330
1
100
AcDbSymbolTableRecord
100
AcDbBlockTableRecord
  2
block 71
340
0
102
{BLKREFS
331
2F5
102
}
  0
BLOCK_RECORD
  5
2FC
330
1
100
AcDbSymbolTableRecord
100
AcDbBlockTableRecord
  2
block 72
340
0
102
{BLKREFS
331
2FD
102
}
  0
BLOCK_RECORD
  5
304
330
1
100
AcDbSymbolTableRecord
100
AcDbBlockTableRecord
  2
block 73
340
0
102
{BLKREFS
331
305
102
}
  0
BLOCK_RECORD
  5
308
330
1
100
AcDbSymbolTableRecord
100
AcDbBlockTableRecord
  2
block 74
340
0
102
{BLKREFS
331
309
102
}
  0
BLOCK_RECORD
  5
310
330
1
100
AcDbSymbolTableRecord
100
AcDbBlockTableRecord
  2
block 75
340
0
102
{BLKREFS
331
311
102
}
  0
BLOCK_RECORD
  5
318
330
1
100
AcDbSymbolTableRecord
100
AcDbBlockTableRecord
  2
block 76
340
0
102
{BLKREFS
331
319
102
}
  0
BLOCK_RECORD
  5
320
330
1
100
AcDbSymbolTableRecord
100
AcDbBlockTableRecord
  2
block 77
340
0
102
{BLKREFS
331
321
102
}
  0
BLOCK_RECORD
  5
328
330
1
100
AcDbSymbolTableRecord
100
AcDbBlockTableRecord
  2
block 78
340
0
102
{BLKREFS
331
329
102
}
  0
BLOCK_RECORD
  5
333
330
1
100
AcDbSymbolTableRecord
100
AcDbBlockTableRecord
  2
block 79
340
0
102
{BLKREFS
331
334
102
}
  0
BLOCK_RECORD
  5
33E
330
1
100
AcDbSymbolTableRecord
100
AcDbBlockTableRecord
  2
block 80
340
0
102
{BLKREFS
331
33F
102
}
  0
BLOCK_RECORD
  5
343
330
1
100
AcDbSymbolTableRecord
100
AcDbBlockTableRecord
  2
block 81
340
0
102
{BLKREFS
331
344
102
}
  0
BLOCK_RECORD
  5
34B
330
1
100
AcDbSymbolTableRecord
100
AcDbBlockTableRecord
  2
block 82
340
0
102
{BLKREFS
331
34C
102
}
  0
BLOCK_RECORD
  5
353
330
1
100
AcDbSymbolTableRecord
100
AcDbBlockTableRecord
  2
block 83
340
0
102
{BLKREFS
331
354
102
}
  0
BLOCK_RECORD
  5
35B
330
1
100
AcDbSymbolTableRecord
100
AcDbBlockTableRecord
  2
block 84
340
0
102
{BLKREFS
331
35C
102
}
  0
BLOCK_RECORD
  5
35F
330
1
100
AcDbSymbolTableRecord
100
AcDbBlockTableRecord
  2
block 85
340
0
102
{BLKREFS
331
360
102
}
  0
BLOCK_RECORD
  5
367
330
1
100
AcDbSymbolTableRecord
100
AcDbBlockTableRecord
  2
block 86
340
0
102
{BLKREFS
331
368
102
}
  0
BLOCK_RECORD
  5
36F
330
1
100
AcDbSymbolTableRecord
100
AcDbBlockTableRecord
  2
block 87
340
0
102
{BLKREFS
331
370
102
}
  0
BLOCK_RECORD
  5
377
330
1
100
AcDbSymbolTableRecord
100
AcDbBlockTableRecord
  2
block 88
340
0
102
{BLKREFS
331
378
102
}
  0
BLOCK_RECORD
  5
37F
330
1
100
AcDbSymbolTableRecord
100
AcDbBlockTableRecord
  2
block 89
340
0
102
{BLKREFS
331
380
102
}
  0
BLOCK_RECORD
  5
38A
330
1
100
AcDbSymbolTableRecord
100
AcDbBlockTableRecord
  2
block 90
340
0
102
{BLKREFS
331
38B
102
}
  0
BLOCK_RECORD
  5
395
330
1
100
AcDbSymbolTableRecord
100
AcDbBlockTableRecord
  2
block 91
340
0
102
{BLKREFS
331
396
102
}
  0
BLOCK_RECORD
  5
39A
330
1
100
AcDbSymbolTableRecord
100
AcDbBlockTableRecord
  2
block 92
340
0
102
{BLKREFS
331
39B
102
}
  0
BLOCK_RECORD
  5
3A2
330
1
100
AcDbSymbolTableRecord
100
AcDbBlockTableRecord
  2
block 93
340
0
102
{BLKREFS
331
3A3
102
}
  0
BLOCK_RECORD
  5
3AA
330
1
100
AcDbSymbolTableRecord
100
AcDbBlockTableRecord
  2
block 94
340
0
102
{BLKREFS
331
3AB
102
}
  0
BLOCK_RECORD
  5
3B2
330
1
100
AcDbSymbolTableRecord
100
AcDbBlockTableRecord
  2
block 95
340
0
102
{BLKREFS
331
3B3
102
}
  0
BLOCK_RECORD
  5
3B6
330
1
100
AcDbSymbolTableRecord
100
AcDbBlockTableRecord
  2
block 96
340
0
102
{BLKREFS
331
3B7
102
}
  0
BLOCK_RECORD
  5
3BE
330
1
100
AcDbSymbolTableRecord
100
AcDbBlockTableRecord
  2
block 97
340
0
102
{BLKREFS
331
3BF
102
}
  0
BLOCK_RECORD
  5
3C6
330
1
100
AcDbSymbolTableRecord
100
AcDbBlockTableRecord
  2
block 98
340
0
102
{BLKREFS
331
3C7
102
}
  0
BLOCK_RECORD
  5
3CE
330
1
100
AcDbSymbolTableRecord
100
AcDbBlockTableRecord
  2
block 99
340
0
102
{BLKREFS
331
3CF
102
}
  0
BLOCK_RECORD
  5
3D6
330
1
100
AcDbSymbolTableRecord
100
AcDbBlockTableRecord
  2
block 100
340
0
102
{BLKREFS
331
3D7
102
}
  0
BLOCK_RECORD
  5
3E1
330
1
100
AcDbSymbolTableRecord
100
AcDbBlockTableRecord
  2
block 101
340
0
102
{BLKREFS
331
3E2
102
}
  0
BLOCK_RECORD
  5
3EC
330
1
100
AcDbSymbolTableRecord
100
AcDbBlockTableRecord
  2
block 102
340
0
102
{BLKREFS
331
3ED
102
}
  0
BLOCK_RECORD
  5
3F1
330
1
100
AcDbSymbolTableRecord
100
AcDbBlockTableRecord
  2
block 103
340
0
102
{BLKREFS
331
3F2
102
}
  0
BLOCK_RECORD
  5
3F9
330
1
100
AcDbSymbolTableRecord
100
AcDbBlockTableRecord
  2
block 104
340
0
102
{BLKREFS
331
3FA
102
}
  0
BLOCK_RECORD
  5
401
330
1
100
AcDbSymbolTableRecord
100
AcDbBlockTableRecord
  2
block 105
340
0
102
{BLKREFS
331
402
102
}
  0
BLOCK_RECORD
  5
409
330
1
100
AcDbSymbolTableRecord
100
AcDbBlockTableRecord
  2
block 106
340
0
102
{BLKREFS
331
40A
102
}
  0
BLOCK_RECORD
  5
448
330
1
100
AcDbSymbolTableRecord
100
AcDbBlockTableRecord
  2
block 107
340
0
102
{BLKREFS
331
449
102
}
  0
BLOCK_RECORD
  5
450
330
1
100
AcDbSymbolTableRecord
100
AcDbBlockTableRecord
  2
block 108
340
0
102
{BLKREFS
331
451
102
}
  0
BLOCK_RECORD
  5
458
330
1
100
AcDbSymbolTableRecord
100
AcDbBlockTableRecord
  2
block 109
340
0
102
{BLKREFS
331
459
102
}
  0
BLOCK_RECORD
  5
45C
330
1
100
AcDbSymbolTableRecord
100
AcDbBlockTableRecord
  2
block 110
340
0
102
{BLKREFS
331
45D
102
}
  0
BLOCK_RECORD
  5
464
330
1
100
AcDbSymbolTableRecord
100
AcDbBlockTableRecord
  2
block 111
340
0
102
{BLKREFS
331
465
102
}
  0
BLOCK_RECORD
  5
46C
330
1
100
AcDbSymbolTableRecord
100
AcDbBlockTableRecord
  2
block 112
340
0
102
{BLKREFS
331
46D
102
}
  0
BLOCK_RECORD
  5
474
330
1
100
AcDbSymbolTableRecord
100
AcDbBlockTableRecord
  2
block 113
340
0
102
{BLKREFS
331
475
102
}
  0
BLOCK_RECORD
  5
47C
330
1
100
AcDbSymbolTableRecord
100
AcDbBlockTableRecord
  2
block 114
340
0
102
{BLKREFS
331
47D
102
}
  0
BLOCK_RECORD
  5
487
330
1
100
AcDbSymbolTableRecord
100
AcDbBlockTableRecord
  2
block 115
340
0
102
{BLKREFS
331
488
102
}
  0
BLOCK_RECORD
  5
492
330
1
100
AcDbSymbolTableRecord
100
AcDbBlockTableRecord
  2
block 116
340
0
102
{BLKREFS
331
493
102
}
  0
BLOCK_RECORD
  5
497
330
1
100
AcDbSymbolTableRecord
100
AcDbBlockTableRecord
  2
block 117
340
0
102
{BLKREFS
331
498
102
}
  0
BLOCK_RECORD
  5
49F
330
1
100
AcDbSymbolTableRecord
100
AcDbBlockTableRecord
  2
block 118
340
0
102
{BLKREFS
331
4A0
102
}
  0
BLOCK_RECORD
  5
4A7
330
1
100
AcDbSymbolTableRecord
100
AcDbBlockTableRecord
  2
block 119
340
0
102
{BLKREFS
331
4A8
102
}
  0
BLOCK_RECORD
  5
4AF
330
1
100
AcDbSymbolTableRecord
100
AcDbBlockTableRecord
  2
block 120
340
0
102
{BLKREFS
331
4B0
102
}
  0
BLOCK_RECORD
  5
4B3
330
1
100
AcDbSymbolTableRecord
100
AcDbBlockTableRecord
  2
block 121
340
0
102
{BLKREFS
331
4B4
102
}
  0
BLOCK_RECORD
  5
4BB
330
1
100
AcDbSymbolTableRecord
100
AcDbBlockTableRecord
  2
block 122
340
0
102
{BLKREFS
331
4BC
102
}
  0
BLOCK_RECORD
  5
4C3
330
1
100
AcDbSymbolTableRecord
100
AcDbBlockTableRecord
  2
block 123
340
0
102
{BLKREFS
331
4C4
102
}
  0
BLOCK_RECORD
  5
4CB
330
1
100
AcDbSymbolTableRecord
100
AcDbBlockTableRecord
  2
block 124
340
0
102
{BLKREFS
331
4CC
102
}
  0
BLOCK_RECORD
  5
4D3
330
1
100
AcDbSymbolTableRecord
100
AcDbBlockTableRecord
  2
block 125
340
0
102
{BLKREFS
331
4D4
102
}
  0
BLOCK_RECORD
  5
4DE
330
1
100
AcDbSymbolTableRecord
100
AcDbBlockTableRecord
  2
block 126
340
0
102
{BLKREFS
331
4DF
102
}
  0
BLOCK_RECORD
  5
4E9
330
1
100
AcDbSymbolTableRecord
100
AcDbBlockTableRecord
  2
block 127
340
0
102
{BLKREFS
331
4EA
102
}
  0
BLOCK_RECORD
  5
4EE
330
1
100
AcDbSymbolTableRecord
100
AcDbBlockTableRecord
  2
block 128
340
0
102
{BLKREFS
331
4EF
102
}
  0
BLOCK_RECORD
  5
4F6
330
1
100
AcDbSymbolTableRecord
100
AcDbBlockTableRecord
  2
block 129
340
0
102
{BLKREFS
331
4F7
102
}
  0
BLOCK_RECORD
  5
4FE
330
1
100
AcDbSymbolTableRecord
100
AcDbBlockTableRecord
  2
block 130
340
0
102
{BLKREFS
331
4FF
102
}
  0
BLOCK_RECORD
  5
506
330
1
100
AcDbSymbolTableRecord
100
AcDbBlockTableRecord
  2
block 131
340
0
102
{BLKREFS
331
507
102
}
  0
BLOCK_RECORD
  5
50A
330
1
100
AcDbSymbolTableRecord
100
AcDbBlockTableRecord
  2
block 132
340
0
102
{BLKREFS
331
50B
102
}
  0
BLOCK_RECORD
  5
512
330
1
100
AcDbSymbolTableRecord
100
AcDbBlockTableRecord
  2
block 133
340
0
102
{BLKREFS
331
513
102
}
  0
BLOCK_RECORD
  5
51A
330
1
100
AcDbSymbolTableRecord
100
AcDbBlockTableRecord
  2
block 134
340
0
102
{BLKREFS
331
51B
102
}
  0
BLOCK_RECORD
  5
522
330
1
100
AcDbSymbolTableRecord
100
AcDbBlockTableRecord
  2
block 135
340
0
102
{BLKREFS
331
523
102
}
  0
BLOCK_RECORD
  5
52A
330
1
100
AcDbSymbolTableRecord
100
AcDbBlockTableRecord
  2
block 136
340
0
102
{BLKREFS
331
52B
102
}
  0
BLOCK_RECORD
  5
535
330
1
100
AcDbSymbolTableRecord
100
AcDbBlockTableRecord
  2
block 137
340
0
102
{BLKREFS
331
536
102
}
  0
BLOCK_RECORD
  5
540
330
1
100
AcDbSymbolTableRecord
100
AcDbBlockTableRecord
  2
block 138
340
0
102
{BLKREFS
331
541
102
}
  0
BLOCK_RECORD
  5
545
330
1
100
AcDbSymbolTableRecord
100
AcDbBlockTableRecord
  2
block 139
340
0
102
{BLKREFS
331
546
102
}
  0
BLOCK_RECORD
  5
54D
330
1
100
AcDbSymbolTableRecord
100
AcDbBlockTableRecord
  2
block 140
340
0
102
{BLKREFS
331
54E
102
}
  0
BLOCK_RECORD
  5
555
330
1
100
AcDbSymbolTableRecord
100
AcDbBlockTableRecord
  2
block 141
340
0
102
{BLKREFS
331
556
102
}
  0
BLOCK_RECORD
  5
55E
330
1
100
AcDbSymbolTableRecord
100
AcDbBlockTableRecord
  2
block 142
340
0
102
{BLKREFS
331
55F
102
}
  0
BLOCK_RECORD
  5
566
330
1
100
AcDbSymbolTableRecord
100
AcDbBlockTableRecord
  2
block 143
340
0
102
{BLKREFS
331
567
102
}
  0
BLOCK_RECORD
  5
56B
330
1
100
AcDbSymbolTableRecord
100
AcDbBlockTableRecord
  2
block 144
340
0
102
{BLKREFS
331
56C
102
}
  0
BLOCK_RECORD
  5
570
330
1
100
AcDbSymbolTableRecord
100
AcDbBlockTableRecord
  2
block 145
340
0
102
{BLKREFS
331
571
102
}
  0
BLOCK_RECORD
  5
578
330
1
100
AcDbSymbolTableRecord
100
AcDbBlockTableRecord
  2
block 146
340
0
102
{BLKREFS
331
579
102
}
  0
BLOCK_RECORD
  5
580
330
1
100
AcDbSymbolTableRecord
100
AcDbBlockTableRecord
  2
block 147
340
0
102
{BLKREFS
331
581
102
}
  0
BLOCK_RECORD
  5
585
330
1
100
AcDbSymbolTableRecord
100
AcDbBlockTableRecord
  2
block 148
340
0
102
{BLKREFS
331
586
102
}
  0
BLOCK_RECORD
  5
58D
330
1
100
AcDbSymbolTableRecord
100
AcDbBlockTableRecord
  2
block 149
340
0
102
{BLKREFS
331
58E
102
}
  0
BLOCK_RECORD
  5
592
330
1
100
AcDbSymbolTableRecord
100
AcDbBlockTableRecord
  2
block 150
340
0
102
{BLKREFS
331
593
102
}
  0
BLOCK_RECORD
  5
597
330
1
100
AcDbSymbolTableRecord
100
AcDbBlockTableRecord
  2
block 151
340
0
102
{BLKREFS
331
598
102
}
  0
BLOCK_RECORD
  5
59C
330
1
100
AcDbSymbolTableRecord
100
AcDbBlockTableRecord
  2
block 152
340
0
102
{BLKREFS
331
59D
102
}
  0
BLOCK_RECORD
  5
5A4
330
1
100
AcDbSymbolTableRecord
100
AcDbBlockTableRecord
  2
block 153
340
0
102
{BLKREFS
331
5A5
102
}
  0
BLOCK_RECORD
  5
5AC
330
1
100
AcDbSymbolTableRecord
100
AcDbBlockTableRecord
  2
block 154
340
0
102
{BLKREFS
331
5AD
102
}
  0
BLOCK_RECORD
  5
5B1
330
1
100
AcDbSymbolTableRecord
100
AcDbBlockTableRecord
  2
block 155
340
0
102
{BLKREFS
331
5B2
102
}
  0
BLOCK_RECORD
  5
5B9
330
1
100
AcDbSymbolTableRecord
100
AcDbBlockTableRecord
  2
block 156
340
0
102
{BLKREFS
331
5BA
102
}
  0
BLOCK_RECORD
  5
5BE
330
1
100
AcDbSymbolTableRecord
100
AcDbBlockTableRecord
  2
block 157
340
0
102
{BLKREFS
331
5BF
102
}
  0
BLOCK_RECORD
  5
5C3
330
1
100
AcDbSymbolTableRecord
100
AcDbBlockTableRecord
  2
block 158
340
0
102
{BLKREFS
331
5C4
102
}
  0
BLOCK_RECORD
  5
5C8
330
1
100
AcDbSymbolTableRecord
100
AcDbBlockTableRecord
  2
block 159
340
0
102
{BLKREFS
331
5C9
102
}
  0
BLOCK_RECORD
  5
5CD
330
1
100
AcDbSymbolTableRecord
100
AcDbBlockTableRecord
  2
block 160
340
0
102
{BLKREFS
331
5CE
102
}
  0
BLOCK_RECORD
  5
5D5
330
1
100
AcDbSymbolTableRecord
100
AcDbBlockTableRecord
  2
block 161
340
0
102
{BLKREFS
331
5D6
102
}
  0
BLOCK_RECORD
  5
5DD
330
1
100
AcDbSymbolTableRecord
100
AcDbBlockTableRecord
  2
block 162
340
0
102
{BLKREFS
331
5DE
102
}
  0
BLOCK_RECORD
  5
5E5
330
1
100
AcDbSymbolTableRecord
100
AcDbBlockTableRecord
  2
block 163
340
0
102
{BLKREFS
331
5E6
102
}
  0
BLOCK_RECORD
  5
5ED
330
1
100
AcDbSymbolTableRecord
100
AcDbBlockTableRecord
  2
block 164
340
0
102
{BLKREFS
331
5EE
102
}
  0
BLOCK_RECORD
  5
5F5
330
1
100
AcDbSymbolTableRecord
100
AcDbBlockTableRecord
  2
block 165
340
0
102
{BLKREFS
331
5F6
102
}
  0
BLOCK_RECORD
  5
648
330
1
100
AcDbSymbolTableRecord
100
AcDbBlockTableRecord
  2
block 166
340
0
102
{BLKREFS
331
649
102
}
  0
BLOCK_RECORD
  5
675
330
1
100
AcDbSymbolTableRecord
100
AcDbBlockTableRecord
  2
block 167
340
0
102
{BLKREFS
331
676
102
}
  0
BLOCK_RECORD
  5
6BD
330
1
100
AcDbSymbolTableRecord
100
AcDbBlockTableRecord
  2
block 168
340
0
102
{BLKREFS
331
6BE
102
}
  0
BLOCK_RECORD
  5
6C5
330
1
100
AcDbSymbolTableRecord
100
AcDbBlockTableRecord
  2
block 169
340
0
102
{BLKREFS
331
6C6
102
}
  0
BLOCK_RECORD
  5
6CA
330
1
100
AcDbSymbolTableRecord
100
AcDbBlockTableRecord
  2
block 170
340
0
102
{BLKREFS
331
6CB
102
}
  0
BLOCK_RECORD
  5
6CF
330
1
100
AcDbSymbolTableRecord
100
AcDbBlockTableRecord
  2
block 171
340
0
102
{BLKREFS
331
6D0
102
}
  0
BLOCK_RECORD
  5
6D4
330
1
100
AcDbSymbolTableRecord
100
AcDbBlockTableRecord
  2
block 172
340
0
102
{BLKREFS
331
6D5
102
}
  0
BLOCK_RECORD
  5
6DC
330
1
100
AcDbSymbolTableRecord
100
AcDbBlockTableRecord
  2
block 173
340
0
102
{BLKREFS
331
6DD
102
}
  0
BLOCK_RECORD
  5
6E4
330
1
100
AcDbSymbolTableRecord
100
AcDbBlockTableRecord
  2
block 174
340
0
102
{BLKREFS
331
6E5
102
}
  0
BLOCK_RECORD
  5
6E9
330
1
100
AcDbSymbolTableRecord
100
AcDbBlockTableRecord
  2
block 175
340
0
102
{BLKREFS
331
6EA
102
}
  0
BLOCK_RECORD
  5
6EE
330
1
100
AcDbSymbolTableRecord
100
AcDbBlockTableRecord
  2
block 176
340
0
102
{BLKREFS
331
6EF
102
}
  0
BLOCK_RECORD
  5
6F3
330
1
100
AcDbSymbolTableRecord
100
AcDbBlockTableRecord
  2
block 177
340
0
102
{BLKREFS
331
6F4
102
}
  0
BLOCK_RECORD
  5
6F8
330
1
100
AcDbSymbolTableRecord
100
AcDbBlockTableRecord
  2
block 178
340
0
102
{BLKREFS
331
6F9
102
}
  0
BLOCK_RECORD
  5
700
330
1
100
AcDbSymbolTableRecord
100
AcDbBlockTableRecord
  2
block 179
340
0
102
{BLKREFS
331
701
102
}
  0
BLOCK_RECORD
  5
705
330
1
100
AcDbSymbolTableRecord
100
AcDbBlockTableRecord
  2
block 180
340
0
102
{BLKREFS
331
706
102
}
  0
BLOCK_RECORD
  5
70A
330
1
100
AcDbSymbolTableRecord
100
AcDbBlockTableRecord
  2
block 181
340
0
102
{BLKREFS
331
70B
102
}
  0
BLOCK_RECORD
  5
70F
330
1
100
AcDbSymbolTableRecord
100
AcDbBlockTableRecord
  2
block 182
340
0
102
{BLKREFS
331
710
102
}
  0
BLOCK_RECORD
  5
714
330
1
100
AcDbSymbolTableRecord
100
AcDbBlockTableRecord
  2
block 183
340
0
102
{BLKREFS
331
715
102
}
  0
BLOCK_RECORD
  5
719
330
1
100
AcDbSymbolTableRecord
100
AcDbBlockTableRecord
  2
block 184
340
0
102
{BLKREFS
331
71A
102
}
  0
BLOCK_RECORD
  5
71E
330
1
100
AcDbSymbolTableRecord
100
AcDbBlockTableRecord
  2
block 185
340
0
102
{BLKREFS
331
71F
102
}
  0
BLOCK_RECORD
  5
723
330
1
100
AcDbSymbolTableRecord
100
AcDbBlockTableRecord
  2
block 186
340
0
102
{BLKREFS
331
724
102
}
  0
BLOCK_RECORD
  5
728
330
1
100
AcDbSymbolTableRecord
100
AcDbBlockTableRecord
  2
block 187
340
0
102
{BLKREFS
331
729
102
}
  0
BLOCK_RECORD
  5
72D
330
1
100
AcDbSymbolTableRecord
100
AcDbBlockTableRecord
  2
block 188
340
0
102
{BLKREFS
331
72E
102
}
  0
BLOCK_RECORD
  5
732
330
1
100
AcDbSymbolTableRecord
100
AcDbBlockTableRecord
  2
block 189
340
0
102
{BLKREFS
331
733
102
}
  0
BLOCK_RECORD
  5
737
330
1
100
AcDbSymbolTableRecord
100
AcDbBlockTableRecord
  2
block 190
340
0
102
{BLKREFS
331
738
102
}
  0
BLOCK_RECORD
  5
73C
330
1
100
AcDbSymbolTableRecord
100
AcDbBlockTableRecord
  2
block 191
340
0
102
{BLKREFS
331
73D
102
}
  0
BLOCK_RECORD
  5
741
330
1
100
AcDbSymbolTableRecord
100
AcDbBlockTableRecord
  2
block 192
340
0
102
{BLKREFS
331
742
102
}
  0
BLOCK_RECORD
  5
746
330
1
100
AcDbSymbolTableRecord
100
AcDbBlockTableRecord
  2
block 193
340
0
102
{BLKREFS
331
747
102
}
  0
BLOCK_RECORD
  5
74B
330
1
100
AcDbSymbolTableRecord
100
AcDbBlockTableRecord
  2
block 194
340
0
102
{BLKREFS
331
74C
102
}
  0
BLOCK_RECORD
  5
750
330
1
100
AcDbSymbolTableRecord
100
AcDbBlockTableRecord
  2
block 195
340
0
102
{BLKREFS
331
751
102
}
  0
BLOCK_RECORD
  5
755
330
1
100
AcDbSymbolTableRecord
100
AcDbBlockTableRecord
  2
block 196
340
0
102
{BLKREFS
331
756
102
}
  0
BLOCK_RECORD
  5
75D
330
1
100
AcDbSymbolTableRecord
100
AcDbBlockTableRecord
  2
block 197
340
0
102
{BLKREFS
331
75E
102
}
  0
BLOCK_RECORD
  5
762
330
1
100
AcDbSymbolTableRecord
100
AcDbBlockTableRecord
  2
block 198
340
0
102
{BLKREFS
331
763
102
}
  0
BLOCK_RECORD
  5
767
330
1
100
AcDbSymbolTableRecord
100
AcDbBlockTableRecord
  2
block 199
340
0
102
{BLKREFS
331
768
102
}
  0
BLOCK_RECORD
  5
76C
330
1
100
AcDbSymbolTableRecord
100
AcDbBlockTableRecord
  2
block 200
340
0
102
{BLKREFS
331
76D
102
}
  0
BLOCK_RECORD
  5
771
330
1
100
AcDbSymbolTableRecord
100
AcDbBlockTableRecord
  2
block 201
340
0
102
{BLKREFS
331
772
102
}
  0
BLOCK_RECORD
  5
776
330
1
100
AcDbSymbolTableRecord
100
AcDbBlockTableRecord
  2
block 202
340
0
102
{BLKREFS
331
777
102
}
  0
BLOCK_RECORD
  5
77B
330
1
100
AcDbSymbolTableRecord
100
AcDbBlockTableRecord
  2
block 203
340
0
102
{BLKREFS
331
77C
102
}
  0
BLOCK_RECORD
  5
780
330
1
100
AcDbSymbolTableRecord
100
AcDbBlockTableRecord
  2
block 204
340
0
102
{BLKREFS
331
781
102
}
  0
BLOCK_RECORD
  5
785
330
1
100
AcDbSymbolTableRecord
100
AcDbBlockTableRecord
  2
block 205
340
0
102
{BLKREFS
331
786
102
}
  0
BLOCK_RECORD
  5
78B
330
1
100
AcDbSymbolTableRecord
100
AcDbBlockTableRecord
  2
block 206
340
0
102
{BLKREFS
331
78C
102
}
  0
BLOCK_RECORD
  5
794
330
1
100
AcDbSymbolTableRecord
100
AcDbBlockTableRecord
  2
block 207
340
0
102
{BLKREFS
331
795
102
}
  0
BLOCK_RECORD
  5
79A
330
1
100
AcDbSymbolTableRecord
100
AcDbBlockTableRecord
  2
block 208
340
0
102
{BLKREFS
331
79B
102
}
  0
BLOCK_RECORD
  5
7A3
330
1
100
AcDbSymbolTableRecord
100
AcDbBlockTableRecord
  2
block 209
340
0
102
{BLKREFS
331
7A4
102
}
  0
BLOCK_RECORD
  5
7AC
330
1
100
AcDbSymbolTableRecord
100
AcDbBlockTableRecord
  2
block 210
340
0
102
{BLKREFS
331
7AD
102
}
  0
BLOCK_RECORD
  5
7B5
330
1
100
AcDbSymbolTableRecord
100
AcDbBlockTableRecord
  2
block 211
340
0
102
{BLKREFS
331
7B6
102
}
  0
BLOCK_RECORD
  5
7BE
330
1
100
AcDbSymbolTableRecord
100
AcDbBlockTableRecord
  2
block 212
340
0
102
{BLKREFS
331
7BF
102
}
  0
BLOCK_RECORD
  5
7C7
330
1
100
AcDbSymbolTableRecord
100
AcDbBlockTableRecord
  2
block 213
340
0
102
{BLKREFS
331
7C8
102
}
  0
BLOCK_RECORD
  5
7D0
330
1
100
AcDbSymbolTableRecord
100
AcDbBlockTableRecord
  2
block 214
340
0
102
{BLKREFS
331
7D1
102
}
  0
BLOCK_RECORD
  5
7D9
330
1
100
AcDbSymbolTableRecord
100
AcDbBlockTableRecord
  2
block 215
340
0
102
{BLKREFS
331
7DA
102
}
  0
BLOCK_RECORD
  5
7E2
330
1
100
AcDbSymbolTableRecord
100
AcDbBlockTableRecord
  2
block 216
340
0
102
{BLKREFS
331
7E3
102
}
  0
BLOCK_RECORD
  5
7EB
330
1
100
AcDbSymbolTableRecord
100
AcDbBlockTableRecord
  2
block 217
340
0
102
{BLKREFS
331
7EC
102
}
  0
BLOCK_RECORD
  5
7F4
330
1
100
AcDbSymbolTableRecord
100
AcDbBlockTableRecord
  2
block 218
340
0
102
{BLKREFS
331
7F5
102
}
  0
BLOCK_RECORD
  5
7FD
330
1
100
AcDbSymbolTableRecord
100
AcDbBlockTableRecord
  2
block 219
340
0
102
{BLKREFS
331
7FE
102
}
  0
BLOCK_RECORD
  5
806
330
1
100
AcDbSymbolTableRecord
100
AcDbBlockTableRecord
  2
block 220
340
0
102
{BLKREFS
331
807
102
}
  0
BLOCK_RECORD
  5
80F
330
1
100
AcDbSymbolTableRecord
100
AcDbBlockTableRecord
  2
block 221
340
0
102
{BLKREFS
331
810
102
}
  0
BLOCK_RECORD
  5
819
330
1
100
AcDbSymbolTableRecord
100
AcDbBlockTableRecord
  2
block 222
340
0
102
{BLKREFS
331
81A
102
}
  0
BLOCK_RECORD
  5
81F
330
1
100
AcDbSymbolTableRecord
100
AcDbBlockTableRecord
  2
block 223
340
0
102
{BLKREFS
331
820
102
}
  0
BLOCK_RECORD
  5
825
330
1
100
AcDbSymbolTableRecord
100
AcDbBlockTableRecord
  2
block 224
340
0
102
{BLKREFS
331
826
102
}
  0
BLOCK_RECORD
  5
82B
330
1
100
AcDbSymbolTableRecord
100
AcDbBlockTableRecord
  2
block 225
340
0
102
{BLKREFS
331
82C
102
}
  0
BLOCK_RECORD
  5
831
330
1
100
AcDbSymbolTableRecord
100
AcDbBlockTableRecord
  2
block 226
340
0
102
{BLKREFS
331
832
102
}
  0
BLOCK_RECORD
  5
839
330
1
100
AcDbSymbolTableRecord
100
AcDbBlockTableRecord
  2
block 227
340
0
102
{BLKREFS
331
83A
102
}
  0
BLOCK_RECORD
  5
841
330
1
100
AcDbSymbolTableRecord
100
AcDbBlockTableRecord
  2
block 228
340
0
102
{BLKREFS
331
842
102
}
  0
BLOCK_RECORD
  5
849
330
1
100
AcDbSymbolTableRecord
100
AcDbBlockTableRecord
  2
block 229
340
0
102
{BLKREFS
331
84A
102
}
  0
ENDTAB
  0
ENDSEC
  0
SECTION
  2
BLOCKS
  0
BLOCK
  5
20
330
1F
100
AcDbEntity
  8
0
100
AcDbBlockBegin
  2
*Model_Space
 70
     0
 71
     0
 10
0.0
 20
0.0
 30
0.0
  3
*Model_Space
  1

  0
ENDBLK
  5
21
330
1F
100
AcDbEntity
  8
0
100
AcDbBlockEnd
  0
BLOCK
  5
1C
330
1B
100
AcDbEntity
 67
     1
  8
0
100
AcDbBlockBegin
  2
*Paper_Space
 70
     0
 71
     0
 10
0.0
 20
0.0
 30
0.0
  3
*Paper_Space
  1

  0
ENDBLK
  5
1D
330
1B
100
AcDbEntity
 67
     1
  8
0
100
AcDbBlockEnd
  0
BLOCK
  5
24
330
23
100
AcDbEntity
  8
0
100
AcDbBlockBegin
  2
*Paper_Space0
 70
     0
 71
     0
 10
0.0
 20
0.0
 30
0.0
  3
*Paper_Space0
  1

  0
ENDBLK
  5
25
330
23
100
AcDbEntity
  8
0
100
AcDbBlockEnd
  0
BLOCK
  5
3F
330
3D
100
AcDbEntity
  8
0
100
AcDbBlockBegin
  2
block 2
 70
     0
 71
     0
 10
0.0
 20
0.0
 30
0.0
  3
block 2
  1

  0
POLYLINE
  5
41
330
3D
100
AcDbEntity
  8
COTAS
 62
     6
420
 16711935
370
    25
100
AcDb2dPolyline
 66
     1
 10
0.0
 20
0.0
 30
0.0
  0
VERTEX
  5
42
330
41
100
AcDbEntity
  8
COTAS
 62
     6
420
 16711935
370
    25
100
AcDbVertex
100
AcDb2dVertex
 10
119.574692296877
 20
193.7448909475857
 30
0.0
  0
VERTEX
  5
43
330
41
100
AcDbEntity
  8
COTAS
 62
     6
420
 16711935
370
    25
100
AcDbVertex
100
AcDb2dVertex
 10
119.574692296877
 20
253.7466083040134
 30
0.0
  0
SEQEND
  5
44
330
41
100
AcDbEntity
  8
COTAS
370
    25
  0
ENDBLK
  5
40
330
3D
100
AcDbEntity
  8
0
100
AcDbBlockEnd
  0
BLOCK
  5
47
330
45
100
AcDbEntity
  8
0
100
AcDbBlockBegin
  2
block 3
 70
     0
 71
     0
 10
0.0
 20
0.0
 30
0.0
  3
block 3
  1

  0
POLYLINE
  5
49
330
45
100
AcDbEntity
  8
COTAS
 62
     7
420
 16777215
370
    35
100
AcDb2dPolyline
 66
     1
 10
0.0
 20
0.0
 30
0.0
  0
VERTEX
  5
4A
330
49
100
AcDbEntity
  8
COTAS
 62
     7
420
 16777215
370
    35
100
AcDbVertex
100
AcDb2dVertex
 10
188.1796800293744
 20
193.7448909475857
 30
0.0
  0
VERTEX
  5
4B
330
49
100
AcDbEntity
  8
COTAS
 62
     7
420
 16777215
370
    35
100
AcDbVertex
100
AcDb2dVertex
 10
134.5636236222167
 20
193.7448909475857
 30
0.0
  0
VERTEX
  5
4C
330
49
100
AcDbEntity
  8
COTAS
 62
     7
420
 16777215
370
    35
100
AcDbVertex
100
AcDb2dVertex
 10
134.5636236222167
 20
188.7491546887655
 30
0.0
  0
VERTEX
  5
4D
330
49
100
AcDbEntity
  8
COTAS
 62
     7
420
 16777215
370
    35
100
AcDbVertex
100
AcDb2dVertex
 10
188.1796800293744
 20
188.7491546887655
 30
0.0
  0
VERTEX
  5
4E
330
49
100
AcDbEntity
  8
COTAS
 62
     7
420
 16777215
370
    35
100
AcDbVertex
100
AcDb2dVertex
 10
188.1796800293744
 20
193.7448909475857
 30
0.0
  0
SEQEND
  5
4F
330
49
100
AcDbEntity
  8
COTAS
370
    35
  0
POLYLINE
  5
50
330
45
100
AcDbEntity
  8
COTAS
 62
     7
420
 16777215
370
    35
100
AcDb2dPolyline
 66
     1
 10
0.0
 20
0.0
 30
0.0
  0
VERTEX
  5
51
330
50
100
AcDbEntity
  8
COTAS
 62
     7
420
 16777215
370
    35
100
AcDbVertex
100
AcDb2dVertex
 10
134.5636236222167
 20
193.7448909475857
 30
0.0
  0
VERTEX
  5
52
330
50
100
AcDbEntity
  8
COTAS
 62
     7
420
 16777215
370
    35
100
AcDbVertex
100
AcDb2dVertex
 10
125.5712294543851
 20
193.7448909475857
 30
0.0
  0
VERTEX
  5
53
330
50
100
AcDbEntity
  8
COTAS
 62
     7
420
 16777215
370
    35
100
AcDbVertex
100
AcDb2dVertex
 10
119.574692296877
 20
193.7448909475857
 30
0.0
  0
VERTEX
  5
54
330
50
100
AcDbEntity
  8
COTAS
 62
     7
420
 16777215
370
    35
100
AcDbVertex
100
AcDb2dVertex
 10
119.574692296877
 20
251.494203389858
 30
0.0
  0
VERTEX
  5
55
330
50
100
AcDbEntity
  8
COTAS
 62
     7
420
 16777215
370
    35
100
AcDbVertex
100
AcDb2dVertex
 10
114.5789560380567
 20
251.494203389858
 30
0.0
  0
VERTEX
  5
56
330
50
100
AcDbEntity
  8
COTAS
 62
     7
420
 16777215
370
    35
100
AcDbVertex
100
AcDb2dVertex
 10
114.5789560380567
 20
188.7491546887655
 30
0.0
  0
VERTEX
  5
57
330
50
100
AcDbEntity
  8
COTAS
 62
     7
420
 16777215
370
    35
100
AcDbVertex
100
AcDb2dVertex
 10
134.5636236222167
 20
188.7491546887655
 30
0.0
  0
VERTEX
  5
58
330
50
100
AcDbEntity
  8
COTAS
 62
     7
420
 16777215
370
    35
100
AcDbVertex
100
AcDb2dVertex
 10
134.5636236222167
 20
193.7448909475857
 30
0.0
  0
SEQEND
  5
59
330
50
100
AcDbEntity
  8
COTAS
370
    35
  0
POLYLINE
  5
5A
330
45
100
AcDbEntity
  8
COTAS
370
     0
100
AcDb2dPolyline
 66
     1
 10
0.0
 20
0.0
 30
0.0
  0
VERTEX
  5
5B
330
5A
100
AcDbEntity
  8
COTAS
370
     0
100
AcDbVertex
100
AcDb2dVertex
 10
114.5789560380567
 20
249.7508116694415
 30
0.0
  0
VERTEX
  5
5C
330
5A
100
AcDbEntity
  8
COTAS
370
     0
100
AcDbVertex
100
AcDb2dVertex
 10
118.3096524001534
 20
253.4813357766503
 30
0.0
  0
SEQEND
  5
5D
330
5A
100
AcDbEntity
  8
COTAS
370
     0
  0
POLYLINE
  5
5E
330
45
100
AcDbEntity
  8
COTAS
370
     0
100
AcDb2dPolyline
 66
     1
 10
0.0
 20
0.0
 30
0.0
  0
VERTEX
  5
5F
330
5E
100
AcDbEntity
  8
COTAS
370
     0
100
AcDbVertex
100
AcDb2dVertex
 10
114.5789560380567
 20
245.3350576181741
 30
0.0
  0
VERTEX
  5
60
330
5E
100
AcDbEntity
  8
COTAS
370
     0
100
AcDbVertex
100
AcDb2dVertex
 10
119.574692296877
 20
250.3307938769944
 30
0.0
  0
SEQEND
  5
61
330
5E
100
AcDbEntity
  8
COTAS
370
     0
  0
POLYLINE
  5
62
330
45
100
AcDbEntity
  8
COTAS
370
     0
100
AcDb2dPolyline
 66
     1
 10
0.0
 20
0.0
 30
0.0
  0
VERTEX
  5
63
330
62
100
AcDbEntity
  8
COTAS
370
     0
100
AcDbVertex
100
AcDb2dVertex
 10
114.5789560380567
 20
240.9194758217946
 30
0.0
  0
VERTEX
  5
64
330
62
100
AcDbEntity
  8
COTAS
370
     0
100
AcDbVertex
100
AcDb2dVertex
 10
119.574692296877
 20
245.9152120806149
 30
0.0
  0
SEQEND
  5
65
330
62
100
AcDbEntity
  8
COTAS
370
     0
  0
POLYLINE
  5
66
330
45
100
AcDbEntity
  8
COTAS
370
     0
100
AcDb2dPolyline
 66
     1
 10
0.0
 20
0.0
 30
0.0
  0
VERTEX
  5
67
330
66
100
AcDbEntity
  8
COTAS
370
     0
100
AcDbVertex
100
AcDb2dVertex
 10
114.5789560380567
 20
236.5037217705272
 30
0.0
  0
VERTEX
  5
68
330
66
100
AcDbEntity
  8
COTAS
370
     0
100
AcDbVertex
100
AcDb2dVertex
 10
119.574692296877
 20
241.4994580293475
 30
0.0
  0
SEQEND
  5
69
330
66
100
AcDbEntity
  8
COTAS
370
     0
  0
POLYLINE
  5
6A
330
45
100
AcDbEntity
  8
COTAS
370
     0
100
AcDb2dPolyline
 66
     1
 10
0.0
 20
0.0
 30
0.0
  0
VERTEX
  5
6B
330
6A
100
AcDbEntity
  8
COTAS
370
     0
100
AcDbVertex
100
AcDb2dVertex
 10
114.5789560380567
 20
232.0879677192598
 30
0.0
  0
VERTEX
  5
6C
330
6A
100
AcDbEntity
  8
COTAS
370
     0
100
AcDbVertex
100
AcDb2dVertex
 10
119.574692296877
 20
237.083876232968
 30
0.0
  0
SEQEND
  5
6D
330
6A
100
AcDbEntity
  8
COTAS
370
     0
  0
POLYLINE
  5
6E
330
45
100
AcDbEntity
  8
COTAS
370
     0
100
AcDb2dPolyline
 66
     1
 10
0.0
 20
0.0
 30
0.0
  0
VERTEX
  5
6F
330
6E
100
AcDbEntity
  8
COTAS
370
     0
100
AcDbVertex
100
AcDb2dVertex
 10
114.5789560380567
 20
227.6723859228804
 30
0.0
  0
VERTEX
  5
70
330
6E
100
AcDbEntity
  8
COTAS
370
     0
100
AcDbVertex
100
AcDb2dVertex
 10
119.574692296877
 20
232.6681221817006
 30
0.0
  0
SEQEND
  5
71
330
6E
100
AcDbEntity
  8
COTAS
370
     0
  0
POLYLINE
  5
72
330
45
100
AcDbEntity
  8
COTAS
370
     0
100
AcDb2dPolyline
 66
     1
 10
0.0
 20
0.0
 30
0.0
  0
VERTEX
  5
73
330
72
100
AcDbEntity
  8
COTAS
370
     0
100
AcDbVertex
100
AcDb2dVertex
 10
114.5789560380567
 20
223.2568041265008
 30
0.0
  0
VERTEX
  5
74
330
72
100
AcDbEntity
  8
COTAS
370
     0
100
AcDbVertex
100
AcDb2dVertex
 10
119.574692296877
 20
228.2525403853211
 30
0.0
  0
SEQEND
  5
75
330
72
100
AcDbEntity
  8
COTAS
370
     0
  0
POLYLINE
  5
76
330
45
100
AcDbEntity
  8
COTAS
370
     0
100
AcDb2dPolyline
 66
     1
 10
0.0
 20
0.0
 30
0.0
  0
VERTEX
  5
77
330
76
100
AcDbEntity
  8
COTAS
370
     0
100
AcDbVertex
100
AcDb2dVertex
 10
114.5789560380567
 20
218.8410500752335
 30
0.0
  0
VERTEX
  5
78
330
76
100
AcDbEntity
  8
COTAS
370
     0
100
AcDbVertex
100
AcDb2dVertex
 10
119.574692296877
 20
223.8367863340537
 30
0.0
  0
SEQEND
  5
79
330
76
100
AcDbEntity
  8
COTAS
370
     0
  0
POLYLINE
  5
7A
330
45
100
AcDbEntity
  8
COTAS
370
     0
100
AcDb2dPolyline
 66
     1
 10
0.0
 20
0.0
 30
0.0
  0
VERTEX
  5
7B
330
7A
100
AcDbEntity
  8
COTAS
370
     0
100
AcDbVertex
100
AcDb2dVertex
 10
114.5789560380567
 20
214.4252960239661
 30
0.0
  0
VERTEX
  5
7C
330
7A
100
AcDbEntity
  8
COTAS
370
     0
100
AcDbVertex
100
AcDb2dVertex
 10
119.574692296877
 20
219.4210322827863
 30
0.0
  0
SEQEND
  5
7D
330
7A
100
AcDbEntity
  8
COTAS
370
     0
  0
POLYLINE
  5
7E
330
45
100
AcDbEntity
  8
COTAS
370
     0
100
AcDb2dPolyline
 66
     1
 10
0.0
 20
0.0
 30
0.0
  0
VERTEX
  5
7F
330
7E
100
AcDbEntity
  8
COTAS
370
     0
100
AcDbVertex
100
AcDb2dVertex
 10
114.5789560380567
 20
210.0097142275866
 30
0.0
  0
VERTEX
  5
80
330
7E
100
AcDbEntity
  8
COTAS
370
     0
100
AcDbVertex
100
AcDb2dVertex
 10
119.574692296877
 20
215.0054504864068
 30
0.0
  0
SEQEND
  5
81
330
7E
100
AcDbEntity
  8
COTAS
370
     0
  0
POLYLINE
  5
82
330
45
100
AcDbEntity
  8
COTAS
370
     0
100
AcDb2dPolyline
 66
     1
 10
0.0
 20
0.0
 30
0.0
  0
VERTEX
  5
83
330
82
100
AcDbEntity
  8
COTAS
370
     0
100
AcDbVertex
100
AcDb2dVertex
 10
114.5789560380567
 20
205.5939601763192
 30
0.0
  0
VERTEX
  5
84
330
82
100
AcDbEntity
  8
COTAS
370
     0
100
AcDbVertex
100
AcDb2dVertex
 10
119.574692296877
 20
210.5898686900273
 30
0.0
  0
SEQEND
  5
85
330
82
100
AcDbEntity
  8
COTAS
370
     0
  0
POLYLINE
  5
86
330
45
100
AcDbEntity
  8
COTAS
370
     0
100
AcDb2dPolyline
 66
     1
 10
0.0
 20
0.0
 30
0.0
  0
VERTEX
  5
87
330
86
100
AcDbEntity
  8
COTAS
370
     0
100
AcDbVertex
100
AcDb2dVertex
 10
114.5789560380567
 20
201.1783783799397
 30
0.0
  0
VERTEX
  5
88
330
86
100
AcDbEntity
  8
COTAS
370
     0
100
AcDbVertex
100
AcDb2dVertex
 10
119.574692296877
 20
206.1741146387599
 30
0.0
  0
SEQEND
  5
89
330
86
100
AcDbEntity
  8
COTAS
370
     0
  0
POLYLINE
  5
8A
330
45
100
AcDbEntity
  8
COTAS
370
     0
100
AcDb2dPolyline
 66
     1
 10
0.0
 20
0.0
 30
0.0
  0
VERTEX
  5
8B
330
8A
100
AcDbEntity
  8
COTAS
370
     0
100
AcDbVertex
100
AcDb2dVertex
 10
114.5789560380567
 20
196.7626243286723
 30
0.0
  0
VERTEX
  5
8C
330
8A
100
AcDbEntity
  8
COTAS
370
     0
100
AcDbVertex
100
AcDb2dVertex
 10
119.574692296877
 20
201.7583605874925
 30
0.0
  0
SEQEND
  5
8D
330
8A
100
AcDbEntity
  8
COTAS
370
     0
  0
POLYLINE
  5
8E
330
45
100
AcDbEntity
  8
COTAS
370
     0
100
AcDb2dPolyline
 66
     1
 10
0.0
 20
0.0
 30
0.0
  0
VERTEX
  5
8F
330
8E
100
AcDbEntity
  8
COTAS
370
     0
100
AcDbVertex
100
AcDb2dVertex
 10
114.5789560380567
 20
192.3470425322928
 30
0.0
  0
VERTEX
  5
90
330
8E
100
AcDbEntity
  8
COTAS
370
     0
100
AcDbVertex
100
AcDb2dVertex
 10
119.574692296877
 20
197.342778791113
 30
0.0
  0
SEQEND
  5
91
330
8E
100
AcDbEntity
  8
COTAS
370
     0
  0
POLYLINE
  5
92
330
45
100
AcDbEntity
  8
COTAS
370
     0
100
AcDb2dPolyline
 66
     1
 10
0.0
 20
0.0
 30
0.0
  0
VERTEX
  5
93
330
92
100
AcDbEntity
  8
COTAS
370
     0
100
AcDbVertex
100
AcDb2dVertex
 10
115.3968222457968
 20
188.7491546887655
 30
0.0
  0
VERTEX
  5
94
330
92
100
AcDbEntity
  8
COTAS
370
     0
100
AcDbVertex
100
AcDb2dVertex
 10
120.3925585046171
 20
193.7448909475857
 30
0.0
  0
SEQEND
  5
95
330
92
100
AcDbEntity
  8
COTAS
370
     0
  0
POLYLINE
  5
96
330
45
100
AcDbEntity
  8
COTAS
370
     0
100
AcDb2dPolyline
 66
     1
 10
0.0
 20
0.0
 30
0.0
  0
VERTEX
  5
97
330
96
100
AcDbEntity
  8
COTAS
370
     0
100
AcDbVertex
100
AcDb2dVertex
 10
119.8124040421763
 20
188.7491546887655
 30
0.0
  0
VERTEX
  5
98
330
96
100
AcDbEntity
  8
COTAS
370
     0
100
AcDbVertex
100
AcDb2dVertex
 10
124.8081403009966
 20
193.7448909475857
 30
0.0
  0
SEQEND
  5
99
330
96
100
AcDbEntity
  8
COTAS
370
     0
  0
POLYLINE
  5
9A
330
45
100
AcDbEntity
  8
COTAS
370
     0
100
AcDb2dPolyline
 66
     1
 10
0.0
 20
0.0
 30
0.0
  0
VERTEX
  5
9B
330
9A
100
AcDbEntity
  8
COTAS
370
     0
100
AcDbVertex
100
AcDb2dVertex
 10
124.2279858385558
 20
188.7491546887655
 30
0.0
  0
VERTEX
  5
9C
330
9A
100
AcDbEntity
  8
COTAS
370
     0
100
AcDbVertex
100
AcDb2dVertex
 10
129.2240666071519
 20
193.7448909475857
 30
0.0
  0
SEQEND
  5
9D
330
9A
100
AcDbEntity
  8
COTAS
370
     0
  0
POLYLINE
  5
9E
330
45
100
AcDbEntity
  8
COTAS
370
     0
100
AcDb2dPolyline
 66
     1
 10
0.0
 20
0.0
 30
0.0
  0
VERTEX
  5
9F
330
9E
100
AcDbEntity
  8
COTAS
370
     0
100
AcDbVertex
100
AcDb2dVertex
 10
128.6439121447111
 20
188.7491546887655
 30
0.0
  0
VERTEX
  5
A0
330
9E
100
AcDbEntity
  8
COTAS
370
     0
100
AcDbVertex
100
AcDb2dVertex
 10
133.6396484035313
 20
193.7448909475857
 30
0.0
  0
SEQEND
  5
A1
330
9E
100
AcDbEntity
  8
COTAS
370
     0
  0
POLYLINE
  5
A2
330
45
100
AcDbEntity
  8
COTAS
370
     0
100
AcDb2dPolyline
 66
     1
 10
0.0
 20
0.0
 30
0.0
  0
VERTEX
  5
A3
330
A2
100
AcDbEntity
  8
COTAS
370
     0
100
AcDbVertex
100
AcDb2dVertex
 10
133.0594939410906
 20
188.7491546887655
 30
0.0
  0
VERTEX
  5
A4
330
A2
100
AcDbEntity
  8
COTAS
370
     0
100
AcDbVertex
100
AcDb2dVertex
 10
134.5636236222167
 20
190.2532843698916
 30
0.0
  0
SEQEND
  5
A5
330
A2
100
AcDbEntity
  8
COTAS
370
     0
  0
POLYLINE
  5
A6
330
45
100
AcDbEntity
  8
COTAS
370
     0
100
AcDb2dPolyline
 66
     1
 10
0.0
 20
0.0
 30
0.0
  0
VERTEX
  5
A7
330
A6
100
AcDbEntity
  8
COTAS
370
     0
100
AcDbVertex
100
AcDb2dVertex
 10
134.5636236222167
 20
190.2532843698916
 30
0.0
  0
VERTEX
  5
A8
330
A6
100
AcDbEntity
  8
COTAS
370
     0
100
AcDbVertex
100
AcDb2dVertex
 10
138.0552301999109
 20
193.7448909475857
 30
0.0
  0
SEQEND
  5
A9
330
A6
100
AcDbEntity
  8
COTAS
370
     0
  0
POLYLINE
  5
AA
330
45
100
AcDbEntity
  8
COTAS
370
     0
100
AcDb2dPolyline
 66
     1
 10
0.0
 20
0.0
 30
0.0
  0
VERTEX
  5
AB
330
AA
100
AcDbEntity
  8
COTAS
370
     0
100
AcDbVertex
100
AcDb2dVertex
 10
137.4750757374701
 20
188.7491546887655
 30
0.0
  0
VERTEX
  5
AC
330
AA
100
AcDbEntity
  8
COTAS
370
     0
100
AcDbVertex
100
AcDb2dVertex
 10
142.4708119962903
 20
193.7448909475857
 30
0.0
  0
SEQEND
  5
AD
330
AA
100
AcDbEntity
  8
COTAS
370
     0
  0
POLYLINE
  5
AE
330
45
100
AcDbEntity
  8
COTAS
370
     0
100
AcDb2dPolyline
 66
     1
 10
0.0
 20
0.0
 30
0.0
  0
VERTEX
  5
AF
330
AE
100
AcDbEntity
  8
COTAS
370
     0
100
AcDbVertex
100
AcDb2dVertex
 10
141.8910020436254
 20
188.7491546887655
 30
0.0
  0
VERTEX
  5
B0
330
AE
100
AcDbEntity
  8
COTAS
370
     0
100
AcDbVertex
100
AcDb2dVertex
 10
146.8867383024456
 20
193.7448909475857
 30
0.0
  0
SEQEND
  5
B1
330
AE
100
AcDbEntity
  8
COTAS
370
     0
  0
POLYLINE
  5
B2
330
45
100
AcDbEntity
  8
COTAS
370
     0
100
AcDb2dPolyline
 66
     1
 10
0.0
 20
0.0
 30
0.0
  0
VERTEX
  5
B3
330
B2
100
AcDbEntity
  8
COTAS
370
     0
100
AcDbVertex
100
AcDb2dVertex
 10
146.3065838400049
 20
188.7491546887655
 30
0.0
  0
VERTEX
  5
B4
330
B2
100
AcDbEntity
  8
COTAS
370
     0
100
AcDbVertex
100
AcDb2dVertex
 10
151.3023200988251
 20
193.7448909475857
 30
0.0
  0
SEQEND
  5
B5
330
B2
100
AcDbEntity
  8
COTAS
370
     0
  0
POLYLINE
  5
B6
330
45
100
AcDbEntity
  8
COTAS
370
     0
100
AcDb2dPolyline
 66
     1
 10
0.0
 20
0.0
 30
0.0
  0
VERTEX
  5
B7
330
B6
100
AcDbEntity
  8
COTAS
370
     0
100
AcDbVertex
100
AcDb2dVertex
 10
150.7221656363844
 20
188.7491546887655
 30
0.0
  0
VERTEX
  5
B8
330
B6
100
AcDbEntity
  8
COTAS
370
     0
100
AcDbVertex
100
AcDb2dVertex
 10
155.7179018952046
 20
193.7448909475857
 30
0.0
  0
SEQEND
  5
B9
330
B6
100
AcDbEntity
  8
COTAS
370
     0
  0
POLYLINE
  5
BA
330
45
100
AcDbEntity
  8
COTAS
370
     0
100
AcDb2dPolyline
 66
     1
 10
0.0
 20
0.0
 30
0.0
  0
VERTEX
  5
BB
330
BA
100
AcDbEntity
  8
COTAS
370
     0
100
AcDbVertex
100
AcDb2dVertex
 10
155.1380919425397
 20
188.7491546887655
 30
0.0
  0
VERTEX
  5
BC
330
BA
100
AcDbEntity
  8
COTAS
370
     0
100
AcDbVertex
100
AcDb2dVertex
 10
160.1338282013599
 20
193.7448909475857
 30
0.0
  0
SEQEND
  5
BD
330
BA
100
AcDbEntity
  8
COTAS
370
     0
  0
POLYLINE
  5
BE
330
45
100
AcDbEntity
  8
COTAS
370
     0
100
AcDb2dPolyline
 66
     1
 10
0.0
 20
0.0
 30
0.0
  0
VERTEX
  5
BF
330
BE
100
AcDbEntity
  8
COTAS
370
     0
100
AcDbVertex
100
AcDb2dVertex
 10
159.5533292291434
 20
188.7491546887655
 30
0.0
  0
VERTEX
  5
C0
330
BE
100
AcDbEntity
  8
COTAS
370
     0
100
AcDbVertex
100
AcDb2dVertex
 10
164.5494099977394
 20
193.7448909475857
 30
0.0
  0
SEQEND
  5
C1
330
BE
100
AcDbEntity
  8
COTAS
370
     0
  0
POLYLINE
  5
C2
330
45
100
AcDbEntity
  8
COTAS
370
     0
100
AcDb2dPolyline
 66
     1
 10
0.0
 20
0.0
 30
0.0
  0
VERTEX
  5
C3
330
C2
100
AcDbEntity
  8
COTAS
370
     0
100
AcDbVertex
100
AcDb2dVertex
 10
163.9692555352987
 20
188.7491546887655
 30
0.0
  0
VERTEX
  5
C4
330
C2
100
AcDbEntity
  8
COTAS
370
     0
100
AcDbVertex
100
AcDb2dVertex
 10
168.9649917941189
 20
193.7448909475857
 30
0.0
  0
SEQEND
  5
C5
330
C2
100
AcDbEntity
  8
COTAS
370
     0
  0
POLYLINE
  5
C6
330
45
100
AcDbEntity
  8
COTAS
370
     0
100
AcDb2dPolyline
 66
     1
 10
0.0
 20
0.0
 30
0.0
  0
VERTEX
  5
C7
330
C6
100
AcDbEntity
  8
COTAS
370
     0
100
AcDbVertex
100
AcDb2dVertex
 10
168.3848373316782
 20
188.7491546887655
 30
0.0
  0
VERTEX
  5
C8
330
C6
100
AcDbEntity
  8
COTAS
370
     0
100
AcDbVertex
100
AcDb2dVertex
 10
173.3805735904984
 20
193.7448909475857
 30
0.0
  0
SEQEND
  5
C9
330
C6
100
AcDbEntity
  8
COTAS
370
     0
  0
POLYLINE
  5
CA
330
45
100
AcDbEntity
  8
COTAS
370
     0
100
AcDb2dPolyline
 66
     1
 10
0.0
 20
0.0
 30
0.0
  0
VERTEX
  5
CB
330
CA
100
AcDbEntity
  8
COTAS
370
     0
100
AcDbVertex
100
AcDb2dVertex
 10
172.8004191280577
 20
188.7491546887655
 30
0.0
  0
VERTEX
  5
CC
330
CA
100
AcDbEntity
  8
COTAS
370
     0
100
AcDbVertex
100
AcDb2dVertex
 10
177.7964998966537
 20
193.7448909475857
 30
0.0
  0
SEQEND
  5
CD
330
CA
100
AcDbEntity
  8
COTAS
370
     0
  0
POLYLINE
  5
CE
330
45
100
AcDbEntity
  8
COTAS
370
     0
100
AcDb2dPolyline
 66
     1
 10
0.0
 20
0.0
 30
0.0
  0
VERTEX
  5
CF
330
CE
100
AcDbEntity
  8
COTAS
370
     0
100
AcDbVertex
100
AcDb2dVertex
 10
177.2163454342129
 20
188.7491546887655
 30
0.0
  0
VERTEX
  5
D0
330
CE
100
AcDbEntity
  8
COTAS
370
     0
100
AcDbVertex
100
AcDb2dVertex
 10
182.2120816930332
 20
193.7448909475857
 30
0.0
  0
SEQEND
  5
D1
330
CE
100
AcDbEntity
  8
COTAS
370
     0
  0
POLYLINE
  5
D2
330
45
100
AcDbEntity
  8
COTAS
370
     0
100
AcDb2dPolyline
 66
     1
 10
0.0
 20
0.0
 30
0.0
  0
VERTEX
  5
D3
330
D2
100
AcDbEntity
  8
COTAS
370
     0
100
AcDbVertex
100
AcDb2dVertex
 10
181.6319272305925
 20
188.7491546887655
 30
0.0
  0
VERTEX
  5
D4
330
D2
100
AcDbEntity
  8
COTAS
370
     0
100
AcDbVertex
100
AcDb2dVertex
 10
186.6276634894127
 20
193.7448909475857
 30
0.0
  0
SEQEND
  5
D5
330
D2
100
AcDbEntity
  8
COTAS
370
     0
  0
POLYLINE
  5
D6
330
45
100
AcDbEntity
  8
COTAS
370
     0
100
AcDb2dPolyline
 66
     1
 10
0.0
 20
0.0
 30
0.0
  0
VERTEX
  5
D7
330
D6
100
AcDbEntity
  8
COTAS
370
     0
100
AcDbVertex
100
AcDb2dVertex
 10
186.0475090269719
 20
188.7491546887655
 30
0.0
  0
VERTEX
  5
D8
330
D6
100
AcDbEntity
  8
COTAS
370
     0
100
AcDbVertex
100
AcDb2dVertex
 10
190.053124190154
 20
192.7545975970596
 30
0.0
  0
SEQEND
  5
D9
330
D6
100
AcDbEntity
  8
COTAS
370
     0
  0
ENDBLK
  5
48
330
45
100
AcDbEntity
  8
0
100
AcDbBlockEnd
  0
BLOCK
  5
DC
330
DA
100
AcDbEntity
  8
0
100
AcDbBlockBegin
  2
block 4
 70
     0
 71
     0
 10
0.0
 20
0.0
 30
0.0
  3
block 4
  1

  0
INSERT
  5
DF
330
DA
100
AcDbEntity
  8
COTAS
100
AcDbBlockReference
  2
block 5
 10
0.0
 20
0.0
 30
0.0
  0
INSERT
  5
E7
330
DA
100
AcDbEntity
  8
COTAS
100
AcDbBlockReference
  2
block 6
 10
0.0
 20
0.0
 30
0.0
  0
INSERT
  5
EF
330
DA
100
AcDbEntity
  8
COTAS
100
AcDbBlockReference
  2
block 7
 10
0.0
 20
0.0
 30
0.0
  0
INSERT
  5
F7
330
DA
100
AcDbEntity
  8
COTAS
100
AcDbBlockReference
  2
block 8
 10
0.0
 20
0.0
 30
0.0
  0
INSERT
  5
FF
330
DA
100
AcDbEntity
  8
COTAS
100
AcDbBlockReference
  2
block 9
 10
0.0
 20
0.0
 30
0.0
  0
INSERT
  5
10A
330
DA
100
AcDbEntity
  8
COTAS
100
AcDbBlockReference
  2
block 10
 10
0.0
 20
0.0
 30
0.0
  0
INSERT
  5
115
330
DA
100
AcDbEntity
  8
COTAS
100
AcDbBlockReference
  2
block 11
 10
0.0
 20
0.0
 30
0.0
  0
INSERT
  5
11A
330
DA
100
AcDbEntity
  8
COTAS
100
AcDbBlockReference
  2
block 12
 10
0.0
 20
0.0
 30
0.0
  0
INSERT
  5
122
330
DA
100
AcDbEntity
  8
COTAS
100
AcDbBlockReference
  2
block 13
 10
0.0
 20
0.0
 30
0.0
  0
INSERT
  5
12A
330
DA
100
AcDbEntity
  8
COTAS
100
AcDbBlockReference
  2
block 14
 10
0.0
 20
0.0
 30
0.0
  0
ENDBLK
  5
DD
330
DA
100
AcDbEntity
  8
0
100
AcDbBlockEnd
  0
BLOCK
  5
E0
330
DE
100
AcDbEntity
  8
0
100
AcDbBlockBegin
  2
block 5
 70
     0
 71
     0
 10
0.0
 20
0.0
 30
0.0
  3
block 5
  1

  0
POLYLINE
  5
E2
330
DE
100
AcDbEntity
  8
COTAS
 62
     3
420
    65280
370
    25
100
AcDb2dPolyline
 66
     1
 10
0.0
 20
0.0
 30
0.0
  0
VERTEX
  5
E3
330
E2
100
AcDbEntity
  8
COTAS
 62
     3
420
    65280
370
    25
100
AcDbVertex
100
AcDb2dVertex
 10
175.2274904985417
 20
233.7109532730356
 30
0.0
  0
VERTEX
  5
E4
330
E2
100
AcDbEntity
  8
COTAS
 62
     3
420
    65280
370
    25
100
AcDbVertex
100
AcDb2dVertex
 10
188.501452159968
 20
233.7109532730356
 30
0.0
  0
SEQEND
  5
E5
330
E2
100
AcDbEntity
  8
COTAS
370
    25
  0
ENDBLK
  5
E1
330
DE
100
AcDbEntity
  8
0
100
AcDbBlockEnd
  0
BLOCK
  5
E8
330
E6
100
AcDbEntity
  8
0
100
AcDbBlockBegin
  2
block 6
 70
     0
 71
     0
 10
0.0
 20
0.0
 30
0.0
  3
block 6
  1

  0
POLYLINE
  5
EA
330
E6
100
AcDbEntity
  8
COTAS
 62
     3
420
    65280
370
    25
100
AcDb2dPolyline
 66
     1
 10
0.0
 20
0.0
 30
0.0
  0
VERTEX
  5
EB
330
EA
100
AcDbEntity
  8
COTAS
 62
     3
420
    65280
370
    25
100
AcDbVertex
100
AcDb2dVertex
 10
178.7149629589263
 20
193.7448909475857
 30
0.0
  0
VERTEX
  5
EC
330
EA
100
AcDbEntity
  8
COTAS
 62
     3
420
    65280
370
    25
100
AcDbVertex
100
AcDb2dVertex
 10
188.501452159968
 20
193.7448909475857
 30
0.0
  0
SEQEND
  5
ED
330
EA
100
AcDbEntity
  8
COTAS
370
    25
  0
ENDBLK
  5
E9
330
E6
100
AcDbEntity
  8
0
100
AcDbBlockEnd
  0
BLOCK
  5
F0
330
EE
100
AcDbEntity
  8
0
100
AcDbBlockBegin
  2
block 7
 70
     0
 71
     0
 10
0.0
 20
0.0
 30
0.0
  3
block 7
  1

  0
POLYLINE
  5
F2
330
EE
100
AcDbEntity
  8
COTAS
 62
     3
420
    65280
370
    25
100
AcDb2dPolyline
 66
     1
 10
0.0
 20
0.0
 30
0.0
  0
VERTEX
  5
F3
330
F2
100
AcDbEntity
  8
COTAS
 62
     3
420
    65280
370
    25
100
AcDbVertex
100
AcDb2dVertex
 10
186.5032954603503
 20
230.713545968721
 30
0.0
  0
VERTEX
  5
F4
330
F2
100
AcDbEntity
  8
COTAS
 62
     3
420
    65280
370
    25
100
AcDbVertex
100
AcDb2dVertex
 10
186.5032954603503
 20
217.9386067175354
 30
0.0
  0
SEQEND
  5
F5
330
F2
100
AcDbEntity
  8
COTAS
370
    25
  0
ENDBLK
  5
F1
330
EE
100
AcDbEntity
  8
0
100
AcDbBlockEnd
  0
BLOCK
  5
F8
330
F6
100
AcDbEntity
  8
0
100
AcDbBlockBegin
  2
block 8
 70
     0
 71
     0
 10
0.0
 20
0.0
 30
0.0
  3
block 8
  1

  0
POLYLINE
  5
FA
330
F6
100
AcDbEntity
  8
COTAS
 62
     3
420
    65280
370
    25
100
AcDb2dPolyline
 66
     1
 10
0.0
 20
0.0
 30
0.0
  0
VERTEX
  5
FB
330
FA
100
AcDbEntity
  8
COTAS
 62
     3
420
    65280
370
    25
100
AcDbVertex
100
AcDb2dVertex
 10
186.5032954603503
 20
196.7422982519003
 30
0.0
  0
VERTEX
  5
FC
330
FA
100
AcDbEntity
  8
COTAS
 62
     3
420
    65280
370
    25
100
AcDbVertex
100
AcDb2dVertex
 10
186.5032954603503
 20
209.5172375030859
 30
0.0
  0
SEQEND
  5
FD
330
FA
100
AcDbEntity
  8
COTAS
370
    25
  0
ENDBLK
  5
F9
330
F6
100
AcDbEntity
  8
0
100
AcDbBlockEnd
  0
BLOCK
  5
100
330
FE
100
AcDbEntity
  8
0
100
AcDbBlockBegin
  2
block 9
 70
     0
 71
     0
 10
0.0
 20
0.0
 30
0.0
  3
block 9
  1

  0
POLYLINE
  5
102
330
FE
100
AcDbEntity
  8
COTAS
370
     0
100
AcDb2dPolyline
 66
     1
 10
0.0
 20
0.0
 30
0.0
  0
VERTEX
  5
103
330
102
100
AcDbEntity
  8
COTAS
370
     0
100
AcDbVertex
100
AcDb2dVertex
 10
186.0037562854458
 20
230.713545968721
 30
0.0
  0
VERTEX
  5
104
330
102
100
AcDbEntity
  8
COTAS
370
     0
100
AcDbVertex
100
AcDb2dVertex
 10
187.0028346352547
 20
230.713545968721
 30
0.0
  0
VERTEX
  5
105
330
102
100
AcDbEntity
  8
COTAS
370
     0
100
AcDbVertex
100
AcDb2dVertex
 10
186.5032954603503
 20
233.7109532730356
 30
0.0
  0
VERTEX
  5
106
330
102
100
AcDbEntity
  8
COTAS
370
     0
100
AcDbVertex
100
AcDb2dVertex
 10
186.0037562854458
 20
230.713545968721
 30
0.0
  0
SEQEND
  5
107
330
102
100
AcDbEntity
  8
COTAS
370
     0
  0
HATCH
  5
108
330
FE
100
AcDbEntity
  8
COTAS
 62
     3
420
    65280
100
AcDbHatch
 10
0.0
 20
0.0
 30
0.0
210
0.0
220
0.0
230
1.0
  2
SOLID
 70
     1
 71
     0
 91
        1
 92
        1
 93
        3
 72
     1
 10
186.0037562854458
 20
230.713545968721
 11
187.0028346352547
 21
230.713545968721
 72
     1
 10
187.0028346352547
 20
230.713545968721
 11
186.5032954603503
 21
233.7109532730356
 72
     1
 10
186.5032954603503
 20
233.7109532730356
 11
186.0037562854458
 21
230.713545968721
 97
        0
 75
     2
 76
     1
 98
        0
  0
ENDBLK
  5
101
330
FE
100
AcDbEntity
  8
0
100
AcDbBlockEnd
  0
BLOCK
  5
10B
330
109
100
AcDbEntity
  8
0
100
AcDbBlockBegin
  2
block 10
 70
     0
 71
     0
 10
0.0
 20
0.0
 30
0.0
  3
block 10
  1

  0
POLYLINE
  5
10D
330
109
100
AcDbEntity
  8
COTAS
370
     0
100
AcDb2dPolyline
 66
     1
 10
0.0
 20
0.0
 30
0.0
  0
VERTEX
  5
10E
330
10D
100
AcDbEntity
  8
COTAS
370
     0
100
AcDbVertex
100
AcDb2dVertex
 10
186.0037562854458
 20
196.7422982519003
 30
0.0
  0
VERTEX
  5
10F
330
10D
100
AcDbEntity
  8
COTAS
370
     0
100
AcDbVertex
100
AcDb2dVertex
 10
187.0028346352547
 20
196.7422982519003
 30
0.0
  0
VERTEX
  5
110
330
10D
100
AcDbEntity
  8
COTAS
370
     0
100
AcDbVertex
100
AcDb2dVertex
 10
186.5032954603503
 20
193.7448909475857
 30
0.0
  0
VERTEX
  5
111
330
10D
100
AcDbEntity
  8
COTAS
370
     0
100
AcDbVertex
100
AcDb2dVertex
 10
186.0037562854458
 20
196.7422982519003
 30
0.0
  0
SEQEND
  5
112
330
10D
100
AcDbEntity
  8
COTAS
370
     0
  0
HATCH
  5
113
330
109
100
AcDbEntity
  8
COTAS
 62
     3
420
    65280
100
AcDbHatch
 10
0.0
 20
0.0
 30
0.0
210
0.0
220
0.0
230
1.0
  2
SOLID
 70
     1
 71
     0
 91
        1
 92
        1
 93
        3
 72
     1
 10
186.0037562854458
 20
196.7422982519003
 11
187.0028346352547
 21
196.7422982519003
 72
     1
 10
187.0028346352547
 20
196.7422982519003
 11
186.5032954603503
 21
193.7448909475857
 72
     1
 10
186.5032954603503
 20
193.7448909475857
 11
186.0037562854458
 21
196.7422982519003
 97
        0
 75
     2
 76
     1
 98
        0
  0
ENDBLK
  5
10C
330
109
100
AcDbEntity
  8
0
100
AcDbBlockEnd
  0
BLOCK
  5
116
330
114
100
AcDbEntity
  8
0
100
AcDbBlockBegin
  2
block 11
 70
     0
 71
     0
 10
0.0
 20
0.0
 30
0.0
  3
block 11
  1

  0
MTEXT
  5
118
330
114
100
AcDbEntity
  8
COTAS
 62
     6
420
 16711935
100
AcDbMText
 10
187.7521433976114
 20
210.15940372517
 30
0.0
 40
2.497883457403663
 41
0.0
 71
     7
 72
     1
  1
\fMyriad Pro|b0|i0|c0|p34;\W1;400
 11
-4.371139000186241E-8
 21
0.999999999999999
 31
0.0
 73
     1
 44
1.0
  0
ENDBLK
  5
117
330
114
100
AcDbEntity
  8
0
100
AcDbBlockEnd
  0
BLOCK
  5
11B
330
119
100
AcDbEntity
  8
0
100
AcDbBlockBegin
  2
block 12
 70
     0
 71
     0
 10
0.0
 20
0.0
 30
0.0
  3
block 12
  1

  0
POLYLINE
  5
11D
330
119
100
AcDbEntity
  8
COTAS
370
     0
100
AcDb2dPolyline
 66
     1
 10
0.0
 20
0.0
 30
0.0
  0
VERTEX
  5
11E
330
11D
100
AcDbEntity
  8
COTAS
370
     0
100
AcDbVertex
100
AcDb2dVertex
 10
175.2274904985417
 20
233.7109532730356
 30
0.0
  0
VERTEX
  5
11F
330
11D
100
AcDbEntity
  8
COTAS
370
     0
100
AcDbVertex
100
AcDb2dVertex
 10
175.2274904985417
 20
233.7109532730356
 30
0.0
  0
SEQEND
  5
120
330
11D
100
AcDbEntity
  8
COTAS
370
     0
  0
ENDBLK
  5
11C
330
119
100
AcDbEntity
  8
0
100
AcDbBlockEnd
  0
BLOCK
  5
123
330
121
100
AcDbEntity
  8
0
100
AcDbBlockBegin
  2
block 13
 70
     0
 71
     0
 10
0.0
 20
0.0
 30
0.0
  3
block 13
  1

  0
POLYLINE
  5
125
330
121
100
AcDbEntity
  8
COTAS
370
     0
100
AcDb2dPolyline
 66
     1
 10
0.0
 20
0.0
 30
0.0
  0
VERTEX
  5
126
330
125
100
AcDbEntity
  8
COTAS
370
     0
100
AcDbVertex
100
AcDb2dVertex
 10
178.7149629589263
 20
193.7448909475857
 30
0.0
  0
VERTEX
  5
127
330
125
100
AcDbEntity
  8
COTAS
370
     0
100
AcDbVertex
100
AcDb2dVertex
 10
178.7149629589263
 20
193.7448909475857
 30
0.0
  0
SEQEND
  5
128
330
125
100
AcDbEntity
  8
COTAS
370
     0
  0
ENDBLK
  5
124
330
121
100
AcDbEntity
  8
0
100
AcDbBlockEnd
  0
BLOCK
  5
12B
330
129
100
AcDbEntity
  8
0
100
AcDbBlockBegin
  2
block 14
 70
     0
 71
     0
 10
0.0
 20
0.0
 30
0.0
  3
block 14
  1

  0
POLYLINE
  5
12D
330
129
100
AcDbEntity
  8
COTAS
370
     0
100
AcDb2dPolyline
 66
     1
 10
0.0
 20
0.0
 30
0.0
  0
VERTEX
  5
12E
330
12D
100
AcDbEntity
  8
COTAS
370
     0
100
AcDbVertex
100
AcDb2dVertex
 10
186.5032954603503
 20
193.7448909475857
 30
0.0
  0
VERTEX
  5
12F
330
12D
100
AcDbEntity
  8
COTAS
370
     0
100
AcDbVertex
100
AcDb2dVertex
 10
186.5032954603503
 20
193.7448909475857
 30
0.0
  0
SEQEND
  5
130
330
12D
100
AcDbEntity
  8
COTAS
370
     0
  0
ENDBLK
  5
12C
330
129
100
AcDbEntity
  8
0
100
AcDbBlockEnd
  0
BLOCK
  5
133
330
131
100
AcDbEntity
  8
0
100
AcDbBlockBegin
  2
block 15
 70
     0
 71
     0
 10
0.0
 20
0.0
 30
0.0
  3
block 15
  1

  0
INSERT
  5
136
330
131
100
AcDbEntity
  8
COTAS
100
AcDbBlockReference
  2
block 16
 10
0.0
 20
0.0
 30
0.0
  0
INSERT
  5
13E
330
131
100
AcDbEntity
  8
COTAS
100
AcDbBlockReference
  2
block 17
 10
0.0
 20
0.0
 30
0.0
  0
INSERT
  5
146
330
131
100
AcDbEntity
  8
COTAS
100
AcDbBlockReference
  2
block 18
 10
0.0
 20
0.0
 30
0.0
  0
INSERT
  5
14E
330
131
100
AcDbEntity
  8
COTAS
100
AcDbBlockReference
  2
block 19
 10
0.0
 20
0.0
 30
0.0
  0
INSERT
  5
156
330
131
100
AcDbEntity
  8
COTAS
100
AcDbBlockReference
  2
block 20
 10
0.0
 20
0.0
 30
0.0
  0
INSERT
  5
161
330
131
100
AcDbEntity
  8
COTAS
100
AcDbBlockReference
  2
block 21
 10
0.0
 20
0.0
 30
0.0
  0
INSERT
  5
16C
330
131
100
AcDbEntity
  8
COTAS
100
AcDbBlockReference
  2
block 22
 10
0.0
 20
0.0
 30
0.0
  0
INSERT
  5
171
330
131
100
AcDbEntity
  8
COTAS
100
AcDbBlockReference
  2
block 23
 10
0.0
 20
0.0
 30
0.0
  0
INSERT
  5
179
330
131
100
AcDbEntity
  8
COTAS
100
AcDbBlockReference
  2
block 24
 10
0.0
 20
0.0
 30
0.0
  0
INSERT
  5
181
330
131
100
AcDbEntity
  8
COTAS
100
AcDbBlockReference
  2
block 25
 10
0.0
 20
0.0
 30
0.0
  0
ENDBLK
  5
134
330
131
100
AcDbEntity
  8
0
100
AcDbBlockEnd
  0
BLOCK
  5
137
330
135
100
AcDbEntity
  8
0
100
AcDbBlockBegin
  2
block 16
 70
     0
 71
     0
 10
0.0
 20
0.0
 30
0.0
  3
block 16
  1

  0
POLYLINE
  5
139
330
135
100
AcDbEntity
  8
COTAS
 62
     7
420
 16777215
370
    25
100
AcDb2dPolyline
 66
     1
 10
0.0
 20
0.0
 30
0.0
  0
VERTEX
  5
13A
330
139
100
AcDbEntity
  8
COTAS
 62
     7
420
 16777215
370
    25
100
AcDbVertex
100
AcDb2dVertex
 10
119.9743236368005
 20
233.7109532730356
 30
0.0
  0
VERTEX
  5
13B
330
139
100
AcDbEntity
  8
COTAS
 62
     7
420
 16777215
370
    25
100
AcDbVertex
100
AcDb2dVertex
 10
101.0977717464889
 20
233.7109532730356
 30
0.0
  0
SEQEND
  5
13C
330
139
100
AcDbEntity
  8
COTAS
370
    25
  0
ENDBLK
  5
138
330
135
100
AcDbEntity
  8
0
100
AcDbBlockEnd
  0
BLOCK
  5
13F
330
13D
100
AcDbEntity
  8
0
100
AcDbBlockBegin
  2
block 17
 70
     0
 71
     0
 10
0.0
 20
0.0
 30
0.0
  3
block 17
  1

  0
POLYLINE
  5
141
330
13D
100
AcDbEntity
  8
COTAS
 62
     7
420
 16777215
370
    25
100
AcDb2dPolyline
 66
     1
 10
0.0
 20
0.0
 30
0.0
  0
VERTEX
  5
142
330
141
100
AcDbEntity
  8
COTAS
 62
     7
420
 16777215
370
    25
100
AcDbVertex
100
AcDb2dVertex
 10
119.574692296877
 20
193.7448909475857
 30
0.0
  0
VERTEX
  5
143
330
141
100
AcDbEntity
  8
COTAS
 62
     7
420
 16777215
370
    25
100
AcDbVertex
100
AcDb2dVertex
 10
101.0977717464889
 20
193.7448909475857
 30
0.0
  0
SEQEND
  5
144
330
141
100
AcDbEntity
  8
COTAS
370
    25
  0
ENDBLK
  5
140
330
13D
100
AcDbEntity
  8
0
100
AcDbBlockEnd
  0
BLOCK
  5
147
330
145
100
AcDbEntity
  8
0
100
AcDbBlockBegin
  2
block 18
 70
     0
 71
     0
 10
0.0
 20
0.0
 30
0.0
  3
block 18
  1

  0
POLYLINE
  5
149
330
145
100
AcDbEntity
  8
COTAS
 62
     3
420
    65280
370
    25
100
AcDb2dPolyline
 66
     1
 10
0.0
 20
0.0
 30
0.0
  0
VERTEX
  5
14A
330
149
100
AcDbEntity
  8
COTAS
 62
     3
420
    65280
370
    25
100
AcDbVertex
100
AcDb2dVertex
 10
103.0961007009946
 20
230.713545968721
 30
0.0
  0
VERTEX
  5
14B
330
149
100
AcDbEntity
  8
COTAS
 62
     3
420
    65280
370
    25
100
AcDbVertex
100
AcDb2dVertex
 10
103.0961007009946
 20
217.9386067175354
 30
0.0
  0
SEQEND
  5
14C
330
149
100
AcDbEntity
  8
COTAS
370
    25
  0
ENDBLK
  5
148
330
145
100
AcDbEntity
  8
0
100
AcDbBlockEnd
  0
BLOCK
  5
14F
330
14D
100
AcDbEntity
  8
0
100
AcDbBlockBegin
  2
block 19
 70
     0
 71
     0
 10
0.0
 20
0.0
 30
0.0
  3
block 19
  1

  0
POLYLINE
  5
151
330
14D
100
AcDbEntity
  8
COTAS
 62
     3
420
    65280
370
    25
100
AcDb2dPolyline
 66
     1
 10
0.0
 20
0.0
 30
0.0
  0
VERTEX
  5
152
330
151
100
AcDbEntity
  8
COTAS
 62
     3
420
    65280
370
    25
100
AcDbVertex
100
AcDb2dVertex
 10
103.0961007009946
 20
196.7422982519003
 30
0.0
  0
VERTEX
  5
153
330
151
100
AcDbEntity
  8
COTAS
 62
     3
420
    65280
370
    25
100
AcDbVertex
100
AcDb2dVertex
 10
103.0961007009946
 20
209.5172375030859
 30
0.0
  0
SEQEND
  5
154
330
151
100
AcDbEntity
  8
COTAS
370
    25
  0
ENDBLK
  5
150
330
14D
100
AcDbEntity
  8
0
100
AcDbBlockEnd
  0
BLOCK
  5
157
330
155
100
AcDbEntity
  8
0
100
AcDbBlockBegin
  2
block 20
 70
     0
 71
     0
 10
0.0
 20
0.0
 30
0.0
  3
block 20
  1

  0
POLYLINE
  5
159
330
155
100
AcDbEntity
  8
COTAS
370
     0
100
AcDb2dPolyline
 66
     1
 10
0.0
 20
0.0
 30
0.0
  0
VERTEX
  5
15A
330
159
100
AcDbEntity
  8
COTAS
370
     0
100
AcDbVertex
100
AcDb2dVertex
 10
102.5963892712023
 20
230.713545968721
 30
0.0
  0
VERTEX
  5
15B
330
159
100
AcDbEntity
  8
COTAS
370
     0
100
AcDbVertex
100
AcDb2dVertex
 10
103.5956398758991
 20
230.713545968721
 30
0.0
  0
VERTEX
  5
15C
330
159
100
AcDbEntity
  8
COTAS
370
     0
100
AcDbVertex
100
AcDb2dVertex
 10
103.0961007009946
 20
233.7109532730356
 30
0.0
  0
VERTEX
  5
15D
330
159
100
AcDbEntity
  8
COTAS
370
     0
100
AcDbVertex
100
AcDb2dVertex
 10
102.5963892712023
 20
230.713545968721
 30
0.0
  0
SEQEND
  5
15E
330
159
100
AcDbEntity
  8
COTAS
370
     0
  0
HATCH
  5
15F
330
155
100
AcDbEntity
  8
COTAS
 62
     3
420
    65280
100
AcDbHatch
 10
0.0
 20
0.0
 30
0.0
210
0.0
220
0.0
230
1.0
  2
SOLID
 70
     1
 71
     0
 91
        1
 92
        1
 93
        3
 72
     1
 10
102.5963892712023
 20
230.713545968721
 11
103.5956398758991
 21
230.713545968721
 72
     1
 10
103.5956398758991
 20
230.713545968721
 11
103.0961007009946
 21
233.7109532730356
 72
     1
 10
103.0961007009946
 20
233.7109532730356
 11
102.5963892712023
 21
230.713545968721
 97
        0
 75
     2
 76
     1
 98
        0
  0
ENDBLK
  5
158
330
155
100
AcDbEntity
  8
0
100
AcDbBlockEnd
  0
BLOCK
  5
162
330
160
100
AcDbEntity
  8
0
100
AcDbBlockBegin
  2
block 21
 70
     0
 71
     0
 10
0.0
 20
0.0
 30
0.0
  3
block 21
  1

  0
POLYLINE
  5
164
330
160
100
AcDbEntity
  8
COTAS
370
     0
100
AcDb2dPolyline
 66
     1
 10
0.0
 20
0.0
 30
0.0
  0
VERTEX
  5
165
330
164
100
AcDbEntity
  8
COTAS
370
     0
100
AcDbVertex
100
AcDb2dVertex
 10
102.5963892712023
 20
196.7422982519003
 30
0.0
  0
VERTEX
  5
166
330
164
100
AcDbEntity
  8
COTAS
370
     0
100
AcDbVertex
100
AcDb2dVertex
 10
103.5956398758991
 20
196.7422982519003
 30
0.0
  0
VERTEX
  5
167
330
164
100
AcDbEntity
  8
COTAS
370
     0
100
AcDbVertex
100
AcDb2dVertex
 10
103.0961007009946
 20
193.7448909475857
 30
0.0
  0
VERTEX
  5
168
330
164
100
AcDbEntity
  8
COTAS
370
     0
100
AcDbVertex
100
AcDb2dVertex
 10
102.5963892712023
 20
196.7422982519003
 30
0.0
  0
SEQEND
  5
169
330
164
100
AcDbEntity
  8
COTAS
370
     0
  0
HATCH
  5
16A
330
160
100
AcDbEntity
  8
COTAS
 62
     3
420
    65280
100
AcDbHatch
 10
0.0
 20
0.0
 30
0.0
210
0.0
220
0.0
230
1.0
  2
SOLID
 70
     1
 71
     0
 91
        1
 92
        1
 93
        3
 72
     1
 10
102.5963892712023
 20
196.7422982519003
 11
103.5956398758991
 21
196.7422982519003
 72
     1
 10
103.5956398758991
 20
196.7422982519003
 11
103.0961007009946
 21
193.7448909475857
 72
     1
 10
103.0961007009946
 20
193.7448909475857
 11
102.5963892712023
 21
196.7422982519003
 97
        0
 75
     2
 76
     1
 98
        0
  0
ENDBLK
  5
163
330
160
100
AcDbEntity
  8
0
100
AcDbBlockEnd
  0
BLOCK
  5
16D
330
16B
100
AcDbEntity
  8
0
100
AcDbBlockBegin
  2
block 22
 70
     0
 71
     0
 10
0.0
 20
0.0
 30
0.0
  3
block 22
  1

  0
MTEXT
  5
16F
330
16B
100
AcDbEntity
  8
COTAS
 62
     6
420
 16711935
100
AcDbMText
 10
104.3451208931436
 20
210.15940372517
 30
0.0
 40
2.497883457403663
 41
0.0
 71
     7
 72
     1
  1
\fMyriad Pro|b0|i0|c0|p34;\W1;400
 11
-4.371139000186241E-8
 21
0.999999999999999
 31
0.0
 73
     1
 44
1.0
  0
ENDBLK
  5
16E
330
16B
100
AcDbEntity
  8
0
100
AcDbBlockEnd
  0
BLOCK
  5
172
330
170
100
AcDbEntity
  8
0
100
AcDbBlockBegin
  2
block 23
 70
     0
 71
     0
 10
0.0
 20
0.0
 30
0.0
  3
block 23
  1

  0
POLYLINE
  5
174
330
170
100
AcDbEntity
  8
COTAS
370
     0
100
AcDb2dPolyline
 66
     1
 10
0.0
 20
0.0
 30
0.0
  0
VERTEX
  5
175
330
174
100
AcDbEntity
  8
COTAS
370
     0
100
AcDbVertex
100
AcDb2dVertex
 10
119.9743236368005
 20
233.7109532730356
 30
0.0
  0
VERTEX
  5
176
330
174
100
AcDbEntity
  8
COTAS
370
     0
100
AcDbVertex
100
AcDb2dVertex
 10
119.9743236368005
 20
233.7109532730356
 30
0.0
  0
SEQEND
  5
177
330
174
100
AcDbEntity
  8
COTAS
370
     0
  0
ENDBLK
  5
173
330
170
100
AcDbEntity
  8
0
100
AcDbBlockEnd
  0
BLOCK
  5
17A
330
178
100
AcDbEntity
  8
0
100
AcDbBlockBegin
  2
block 24
 70
     0
 71
     0
 10
0.0
 20
0.0
 30
0.0
  3
block 24
  1

  0
POLYLINE
  5
17C
330
178
100
AcDbEntity
  8
COTAS
370
     0
100
AcDb2dPolyline
 66
     1
 10
0.0
 20
0.0
 30
0.0
  0
VERTEX
  5
17D
330
17C
100
AcDbEntity
  8
COTAS
370
     0
100
AcDbVertex
100
AcDb2dVertex
 10
119.574692296877
 20
193.7448909475857
 30
0.0
  0
VERTEX
  5
17E
330
17C
100
AcDbEntity
  8
COTAS
370
     0
100
AcDbVertex
100
AcDb2dVertex
 10
119.574692296877
 20
193.7448909475857
 30
0.0
  0
SEQEND
  5
17F
330
17C
100
AcDbEntity
  8
COTAS
370
     0
  0
ENDBLK
  5
17B
330
178
100
AcDbEntity
  8
0
100
AcDbBlockEnd
  0
BLOCK
  5
182
330
180
100
AcDbEntity
  8
0
100
AcDbBlockBegin
  2
block 25
 70
     0
 71
     0
 10
0.0
 20
0.0
 30
0.0
  3
block 25
  1

  0
POLYLINE
  5
184
330
180
100
AcDbEntity
  8
COTAS
370
     0
100
AcDb2dPolyline
 66
     1
 10
0.0
 20
0.0
 30
0.0
  0
VERTEX
  5
185
330
184
100
AcDbEntity
  8
COTAS
370
     0
100
AcDbVertex
100
AcDb2dVertex
 10
103.0961007009946
 20
193.7448909475857
 30
0.0
  0
VERTEX
  5
186
330
184
100
AcDbEntity
  8
COTAS
370
     0
100
AcDbVertex
100
AcDb2dVertex
 10
103.0961007009946
 20
193.7448909475857
 30
0.0
  0
SEQEND
  5
187
330
184
100
AcDbEntity
  8
COTAS
370
     0
  0
ENDBLK
  5
183
330
180
100
AcDbEntity
  8
0
100
AcDbBlockEnd
  0
BLOCK
  5
18A
330
188
100
AcDbEntity
  8
0
100
AcDbBlockBegin
  2
block 26
 70
     0
 71
     0
 10
0.0
 20
0.0
 30
0.0
  3
block 26
  1

  0
INSERT
  5
18D
330
188
100
AcDbEntity
  8
COTAS
100
AcDbBlockReference
  2
block 27
 10
0.0
 20
0.0
 30
0.0
  0
INSERT
  5
195
330
188
100
AcDbEntity
  8
COTAS
100
AcDbBlockReference
  2
block 28
 10
0.0
 20
0.0
 30
0.0
  0
INSERT
  5
19D
330
188
100
AcDbEntity
  8
COTAS
100
AcDbBlockReference
  2
block 29
 10
0.0
 20
0.0
 30
0.0
  0
INSERT
  5
1A5
330
188
100
AcDbEntity
  8
COTAS
100
AcDbBlockReference
  2
block 30
 10
0.0
 20
0.0
 30
0.0
  0
INSERT
  5
1AD
330
188
100
AcDbEntity
  8
COTAS
100
AcDbBlockReference
  2
block 31
 10
0.0
 20
0.0
 30
0.0
  0
INSERT
  5
1B8
330
188
100
AcDbEntity
  8
COTAS
100
AcDbBlockReference
  2
block 32
 10
0.0
 20
0.0
 30
0.0
  0
INSERT
  5
1C3
330
188
100
AcDbEntity
  8
COTAS
100
AcDbBlockReference
  2
block 33
 10
0.0
 20
0.0
 30
0.0
  0
INSERT
  5
1C8
330
188
100
AcDbEntity
  8
COTAS
100
AcDbBlockReference
  2
block 34
 10
0.0
 20
0.0
 30
0.0
  0
INSERT
  5
1D0
330
188
100
AcDbEntity
  8
COTAS
100
AcDbBlockReference
  2
block 35
 10
0.0
 20
0.0
 30
0.0
  0
INSERT
  5
1D8
330
188
100
AcDbEntity
  8
COTAS
100
AcDbBlockReference
  2
block 36
 10
0.0
 20
0.0
 30
0.0
  0
ENDBLK
  5
18B
330
188
100
AcDbEntity
  8
0
100
AcDbBlockEnd
  0
BLOCK
  5
18E
330
18C
100
AcDbEntity
  8
0
100
AcDbBlockBegin
  2
block 27
 70
     0
 71
     0
 10
0.0
 20
0.0
 30
0.0
  3
block 27
  1

  0
POLYLINE
  5
190
330
18C
100
AcDbEntity
  8
COTAS
 62
     3
420
    65280
370
    25
100
AcDb2dPolyline
 66
     1
 10
0.0
 20
0.0
 30
0.0
  0
VERTEX
  5
191
330
190
100
AcDbEntity
  8
COTAS
 62
     3
420
    65280
370
    25
100
AcDbVertex
100
AcDb2dVertex
 10
158.1746011064071
 20
205.7346924197319
 30
0.0
  0
VERTEX
  5
192
330
190
100
AcDbEntity
  8
COTAS
 62
     3
420
    65280
370
    25
100
AcDbVertex
100
AcDb2dVertex
 10
172.8968818652806
 20
205.7346924197319
 30
0.0
  0
SEQEND
  5
193
330
190
100
AcDbEntity
  8
COTAS
370
    25
  0
ENDBLK
  5
18F
330
18C
100
AcDbEntity
  8
0
100
AcDbBlockEnd
  0
BLOCK
  5
196
330
194
100
AcDbEntity
  8
0
100
AcDbBlockBegin
  2
block 28
 70
     0
 71
     0
 10
0.0
 20
0.0
 30
0.0
  3
block 28
  1

  0
POLYLINE
  5
198
330
194
100
AcDbEntity
  8
COTAS
 62
     3
420
    65280
370
    25
100
AcDb2dPolyline
 66
     1
 10
0.0
 20
0.0
 30
0.0
  0
VERTEX
  5
199
330
198
100
AcDbEntity
  8
COTAS
 62
     3
420
    65280
370
    25
100
AcDbVertex
100
AcDb2dVertex
 10
170.8987251656628
 20
193.7448909475857
 30
0.0
  0
VERTEX
  5
19A
330
198
100
AcDbEntity
  8
COTAS
 62
     3
420
    65280
370
    25
100
AcDbVertex
100
AcDb2dVertex
 10
168.9002239562692
 20
193.7448909475857
 30
0.0
  0
SEQEND
  5
19B
330
198
100
AcDbEntity
  8
COTAS
370
    25
  0
ENDBLK
  5
197
330
194
100
AcDbEntity
  8
0
100
AcDbBlockEnd
  0
BLOCK
  5
19E
330
19C
100
AcDbEntity
  8
0
100
AcDbBlockBegin
  2
block 29
 70
     0
 71
     0
 10
0.0
 20
0.0
 30
0.0
  3
block 29
  1

  0
POLYLINE
  5
1A0
330
19C
100
AcDbEntity
  8
COTAS
 62
     3
420
    65280
370
    25
100
AcDb2dPolyline
 66
     1
 10
0.0
 20
0.0
 30
0.0
  0
VERTEX
  5
1A1
330
1A0
100
AcDbEntity
  8
COTAS
 62
     3
420
    65280
370
    25
100
AcDbVertex
100
AcDb2dVertex
 10
170.8987251656628
 20
208.7322719789344
 30
0.0
  0
VERTEX
  5
1A2
330
1A0
100
AcDbEntity
  8
COTAS
 62
     3
420
    65280
370
    25
100
AcDbVertex
100
AcDb2dVertex
 10
170.8987251656628
 20
211.7296792832489
 30
0.0
  0
SEQEND
  5
1A3
330
1A0
100
AcDbEntity
  8
COTAS
370
    25
  0
ENDBLK
  5
19F
330
19C
100
AcDbEntity
  8
0
100
AcDbBlockEnd
  0
BLOCK
  5
1A6
330
1A4
100
AcDbEntity
  8
0
100
AcDbBlockBegin
  2
block 30
 70
     0
 71
     0
 10
0.0
 20
0.0
 30
0.0
  3
block 30
  1

  0
POLYLINE
  5
1A8
330
1A4
100
AcDbEntity
  8
COTAS
 62
     7
420
 16777215
370
    25
100
AcDb2dPolyline
 66
     1
 10
0.0
 20
0.0
 30
0.0
  0
VERTEX
  5
1A9
330
1A8
100
AcDbEntity
  8
COTAS
 62
     7
420
 16777215
370
    25
100
AcDbVertex
100
AcDb2dVertex
 10
170.8987251656628
 20
190.7474836432712
 30
0.0
  0
VERTEX
  5
1AA
330
1A8
100
AcDbEntity
  8
COTAS
 62
     7
420
 16777215
370
    25
100
AcDbVertex
100
AcDb2dVertex
 10
170.8987251656628
 20
187.7499040840687
 30
0.0
  0
SEQEND
  5
1AB
330
1A8
100
AcDbEntity
  8
COTAS
370
    25
  0
ENDBLK
  5
1A7
330
1A4
100
AcDbEntity
  8
0
100
AcDbBlockEnd
  0
BLOCK
  5
1AE
330
1AC
100
AcDbEntity
  8
0
100
AcDbBlockBegin
  2
block 31
 70
     0
 71
     0
 10
0.0
 20
0.0
 30
0.0
  3
block 31
  1

  0
POLYLINE
  5
1B0
330
1AC
100
AcDbEntity
  8
COTAS
370
     0
100
AcDb2dPolyline
 66
     1
 10
0.0
 20
0.0
 30
0.0
  0
VERTEX
  5
1B1
330
1B0
100
AcDbEntity
  8
COTAS
370
     0
100
AcDbVertex
100
AcDb2dVertex
 10
170.3991859907584
 20
208.7322719789344
 30
0.0
  0
VERTEX
  5
1B2
330
1B0
100
AcDbEntity
  8
COTAS
370
     0
100
AcDbVertex
100
AcDb2dVertex
 10
171.3982643405672
 20
208.7322719789344
 30
0.0
  0
VERTEX
  5
1B3
330
1B0
100
AcDbEntity
  8
COTAS
370
     0
100
AcDbVertex
100
AcDb2dVertex
 10
170.8987251656628
 20
205.7346924197319
 30
0.0
  0
VERTEX
  5
1B4
330
1B0
100
AcDbEntity
  8
COTAS
370
     0
100
AcDbVertex
100
AcDb2dVertex
 10
170.3991859907584
 20
208.7322719789344
 30
0.0
  0
SEQEND
  5
1B5
330
1B0
100
AcDbEntity
  8
COTAS
370
     0
  0
HATCH
  5
1B6
330
1AC
100
AcDbEntity
  8
COTAS
 62
     3
420
    65280
100
AcDbHatch
 10
0.0
 20
0.0
 30
0.0
210
0.0
220
0.0
230
1.0
  2
SOLID
 70
     1
 71
     0
 91
        1
 92
        1
 93
        3
 72
     1
 10
170.3991859907584
 20
208.7322719789344
 11
171.3982643405672
 21
208.7322719789344
 72
     1
 10
171.3982643405672
 20
208.7322719789344
 11
170.8987251656628
 21
205.7346924197319
 72
     1
 10
170.8987251656628
 20
205.7346924197319
 11
170.3991859907584
 21
208.7322719789344
 97
        0
 75
     2
 76
     1
 98
        0
  0
ENDBLK
  5
1AF
330
1AC
100
AcDbEntity
  8
0
100
AcDbBlockEnd
  0
BLOCK
  5
1B9
330
1B7
100
AcDbEntity
  8
0
100
AcDbBlockBegin
  2
block 32
 70
     0
 71
     0
 10
0.0
 20
0.0
 30
0.0
  3
block 32
  1

  0
POLYLINE
  5
1BB
330
1B7
100
AcDbEntity
  8
COTAS
370
     0
100
AcDb2dPolyline
 66
     1
 10
0.0
 20
0.0
 30
0.0
  0
VERTEX
  5
1BC
330
1BB
100
AcDbEntity
  8
COTAS
370
     0
100
AcDbVertex
100
AcDb2dVertex
 10
170.3991859907584
 20
190.7474836432712
 30
0.0
  0
VERTEX
  5
1BD
330
1BB
100
AcDbEntity
  8
COTAS
370
     0
100
AcDbVertex
100
AcDb2dVertex
 10
171.3982643405672
 20
190.7474836432712
 30
0.0
  0
VERTEX
  5
1BE
330
1BB
100
AcDbEntity
  8
COTAS
370
     0
100
AcDbVertex
100
AcDb2dVertex
 10
170.8987251656628
 20
193.7448909475857
 30
0.0
  0
VERTEX
  5
1BF
330
1BB
100
AcDbEntity
  8
COTAS
370
     0
100
AcDbVertex
100
AcDb2dVertex
 10
170.3991859907584
 20
190.7474836432712
 30
0.0
  0
SEQEND
  5
1C0
330
1BB
100
AcDbEntity
  8
COTAS
370
     0
  0
HATCH
  5
1C1
330
1B7
100
AcDbEntity
  8
COTAS
 62
     3
420
    65280
100
AcDbHatch
 10
0.0
 20
0.0
 30
0.0
210
0.0
220
0.0
230
1.0
  2
SOLID
 70
     1
 71
     0
 91
        1
 92
        1
 93
        3
 72
     1
 10
170.3991859907584
 20
190.7474836432712
 11
171.3982643405672
 21
190.7474836432712
 72
     1
 10
171.3982643405672
 20
190.7474836432712
 11
170.8987251656628
 21
193.7448909475857
 72
     1
 10
170.8987251656628
 20
193.7448909475857
 11
170.3991859907584
 21
190.7474836432712
 97
        0
 75
     2
 76
     1
 98
        0
  0
ENDBLK
  5
1BA
330
1B7
100
AcDbEntity
  8
0
100
AcDbBlockEnd
  0
BLOCK
  5
1C4
330
1C2
100
AcDbEntity
  8
0
100
AcDbBlockBegin
  2
block 33
 70
     0
 71
     0
 10
0.0
 20
0.0
 30
0.0
  3
block 33
  1

  0
MTEXT
  5
1C6
330
1C2
100
AcDbEntity
  8
COTAS
 62
     6
420
 16711935
100
AcDbMText
 10
172.1475731029239
 20
196.1220084005793
 30
0.0
 40
2.497883457403663
 41
0.0
 71
     7
 72
     1
  1
\fMyriad Pro|b0|i0|c0|p34;\W1;120
 11
-4.371139000186241E-8
 21
0.999999999999999
 31
0.0
 73
     1
 44
1.0
  0
ENDBLK
  5
1C5
330
1C2
100
AcDbEntity
  8
0
100
AcDbBlockEnd
  0
BLOCK
  5
1C9
330
1C7
100
AcDbEntity
  8
0
100
AcDbBlockBegin
  2
block 34
 70
     0
 71
     0
 10
0.0
 20
0.0
 30
0.0
  3
block 34
  1

  0
POLYLINE
  5
1CB
330
1C7
100
AcDbEntity
  8
COTAS
370
     0
100
AcDb2dPolyline
 66
     1
 10
0.0
 20
0.0
 30
0.0
  0
VERTEX
  5
1CC
330
1CB
100
AcDbEntity
  8
COTAS
370
     0
100
AcDbVertex
100
AcDb2dVertex
 10
158.1746011064071
 20
205.7346924197319
 30
0.0
  0
VERTEX
  5
1CD
330
1CB
100
AcDbEntity
  8
COTAS
370
     0
100
AcDbVertex
100
AcDb2dVertex
 10
158.1746011064071
 20
205.7346924197319
 30
0.0
  0
SEQEND
  5
1CE
330
1CB
100
AcDbEntity
  8
COTAS
370
     0
  0
ENDBLK
  5
1CA
330
1C7
100
AcDbEntity
  8
0
100
AcDbBlockEnd
  0
BLOCK
  5
1D1
330
1CF
100
AcDbEntity
  8
0
100
AcDbBlockBegin
  2
block 35
 70
     0
 71
     0
 10
0.0
 20
0.0
 30
0.0
  3
block 35
  1

  0
POLYLINE
  5
1D3
330
1CF
100
AcDbEntity
  8
COTAS
370
     0
100
AcDb2dPolyline
 66
     1
 10
0.0
 20
0.0
 30
0.0
  0
VERTEX
  5
1D4
330
1D3
100
AcDbEntity
  8
COTAS
370
     0
100
AcDbVertex
100
AcDb2dVertex
 10
170.8987251656628
 20
193.7448909475857
 30
0.0
  0
VERTEX
  5
1D5
330
1D3
100
AcDbEntity
  8
COTAS
370
     0
100
AcDbVertex
100
AcDb2dVertex
 10
170.8987251656628
 20
193.7448909475857
 30
0.0
  0
SEQEND
  5
1D6
330
1D3
100
AcDbEntity
  8
COTAS
370
     0
  0
ENDBLK
  5
1D2
330
1CF
100
AcDbEntity
  8
0
100
AcDbBlockEnd
  0
BLOCK
  5
1D9
330
1D7
100
AcDbEntity
  8
0
100
AcDbBlockBegin
  2
block 36
 70
     0
 71
     0
 10
0.0
 20
0.0
 30
0.0
  3
block 36
  1

  0
POLYLINE
  5
1DB
330
1D7
100
AcDbEntity
  8
COTAS
370
     0
100
AcDb2dPolyline
 66
     1
 10
0.0
 20
0.0
 30
0.0
  0
VERTEX
  5
1DC
330
1DB
100
AcDbEntity
  8
COTAS
370
     0
100
AcDbVertex
100
AcDb2dVertex
 10
170.8987251656628
 20
193.7448909475857
 30
0.0
  0
VERTEX
  5
1DD
330
1DB
100
AcDbEntity
  8
COTAS
370
     0
100
AcDbVertex
100
AcDb2dVertex
 10
170.8987251656628
 20
193.7448909475857
 30
0.0
  0
SEQEND
  5
1DE
330
1DB
100
AcDbEntity
  8
COTAS
370
     0
  0
ENDBLK
  5
1DA
330
1D7
100
AcDbEntity
  8
0
100
AcDbBlockEnd
  0
BLOCK
  5
1E1
330
1DF
100
AcDbEntity
  8
0
100
AcDbBlockBegin
  2
block 37
 70
     0
 71
     0
 10
0.0
 20
0.0
 30
0.0
  3
block 37
  1

  0
SPLINE
  5
1E3
330
1DF
100
AcDbEntity
  8
COTAS
 62
     7
420
 16777215
370
    35
100
AcDbSpline
210
0.0
220
0.0
230
1.0
 70
    11
 71
     3
 72
    98
 73
    94
 74
     0
 42
0.0000000001
 43
0.0000000001
 40
0.0
 40
0.0
 40
0.0
 40
0.0
 40
1.0
 40
1.0
 40
1.0
 40
2.0
 40
2.0
 40
2.0
 40
3.0
 40
3.0
 40
3.0
 40
4.0
 40
4.0
 40
4.0
 40
5.0
 40
5.0
 40
5.0
 40
6.0
 40
6.0
 40
6.0
 40
7.0
 40
7.0
 40
7.0
 40
8.0
 40
8.0
 40
8.0
 40
9.0
 40
9.0
 40
9.0
 40
10.0
 40
10.0
 40
10.0
 40
11.0
 40
11.0
 40
11.0
 40
12.0
 40
12.0
 40
12.0
 40
13.0
 40
13.0
 40
13.0
 40
14.0
 40
14.0
 40
14.0
 40
15.0
 40
15.0
 40
15.0
 40
16.0
 40
16.0
 40
16.0
 40
17.0
 40
17.0
 40
17.0
 40
18.0
 40
18.0
 40
18.0
 40
19.0
 40
19.0
 40
19.0
 40
20.0
 40
20.0
 40
20.0
 40
21.0
 40
21.0
 40
21.0
 40
22.0
 40
22.0
 40
22.0
 40
23.0
 40
23.0
 40
23.0
 40
24.0
 40
24.0
 40
24.0
 40
25.0
 40
25.0
 40
25.0
 40
26.0
 40
26.0
 40
26.0
 40
27.0
 40
27.0
 40
27.0
 40
28.0
 40
28.0
 40
28.0
 40
29.0
 40
29.0
 40
29.0
 40
30.0
 40
30.0
 40
30.0
 40
31.0
 40
31.0
 40
31.0
 40
31.0
 10
147.7714394066902
 20
218.4266048149507
 30
0.0
 10
147.7714394066902
 20
218.4266048149507
 30
0.0
 10
147.4517343347513
 20
219.4093189504092
 30
0.0
 10
147.4517343347513
 20
219.4093189504092
 30
0.0
 10
147.4517343347513
 20
219.4093189504092
 30
0.0
 10
147.4517343347513
 20
219.4093189504092
 30
0.0
 10
147.4517343347513
 20
219.4093189504092
 30
0.0
 10
147.4517343347513
 20
219.4093189504092
 30
0.0
 10
144.1537422510546
 20
219.2232836714793
 30
0.0
 10
144.1537422510546
 20
219.2232836714793
 30
0.0
 10
144.1537422510546
 20
219.2232836714793
 30
0.0
 10
144.1537422510546
 20
219.2232836714793
 30
0.0
 10
144.1537422510546
 20
219.2232836714793
 30
0.0
 10
144.1537422510546
 20
219.2232836714793
 30
0.0
 10
142.8549403963031
 20
218.0743435691991
 30
0.0
 10
142.8549403963031
 20
218.0743435691991
 30
0.0
 10
142.8549403963031
 20
218.0743435691991
 30
0.0
 10
142.8549403963031
 20
218.0743435691991
 30
0.0
 10
142.8549403963031
 20
218.0743435691991
 30
0.0
 10
142.8549403963031
 20
218.0743435691991
 30
0.0
 10
142.8549403963031
 20
217.2749086344641
 30
0.0
 10
142.8549403963031
 20
217.2749086344641
 30
0.0
 10
142.8549403963031
 20
217.2749086344641
 30
0.0
 10
142.8549403963031
 20
217.2749086344641
 30
0.0
 10
142.8549403963031
 20
217.2749086344641
 30
0.0
 10
142.9744852885043
 20
217.2683629487239
 30
0.0
 10
143.164310174968
 20
217.3203839248692
 30
0.0
 10
143.2635289903973
 20
217.3872188213736
 30
0.0
 10
143.2635289903973
 20
217.3872188213736
 30
0.0
 10
143.2635289903973
 20
217.3872188213736
 30
0.0
 10
143.2635289903973
 20
217.3872188213736
 30
0.0
 10
143.2855776160483
 20
217.4022049966208
 30
0.0
 10
143.3269187891438
 20
217.4115067605672
 30
0.0
 10
143.3531015321043
 20
217.4077171530335
 30
0.0
 10
143.4357838782954
 20
217.4004824477418
 30
0.0
 10
143.4967621086113
 20
217.3277908850488
 30
0.0
 10
143.4895274033196
 20
217.2452807937456
 30
0.0
 10
143.4895274033196
 20
217.2452807937456
 30
0.0
 10
143.4895274033196
 20
217.2452807937456
 30
0.0
 10
143.4895274033196
 20
217.2452807937456
 30
0.0
 10
143.4895274033196
 20
217.2452807937456
 30
0.0
 10
143.333464474884
 20
215.4634762333278
 30
0.0
 10
143.333464474884
 20
215.4634762333278
 30
0.0
 10
143.333464474884
 20
215.4634762333278
 30
0.0
 10
143.333464474884
 20
215.4634762333278
 30
0.0
 10
143.333464474884
 20
215.4634762333278
 30
0.0
 10
143.3276078086954
 20
215.3868228082132
 30
0.0
 10
143.2611174219668
 20
215.3258445778972
 30
0.0
 10
143.1842917419642
 20
215.3265335974488
 30
0.0
 10
143.1842917419642
 20
215.3265335974488
 30
0.0
 10
143.1842917419642
 20
215.3265335974488
 30
0.0
 10
143.1842917419642
 20
215.3265335974488
 30
0.0
 10
143.1842917419642
 20
215.3265335974488
 30
0.0
 10
142.8549403963031
 20
215.3265335974488
 30
0.0
 10
142.8549403963031
 20
215.3265335974488
 30
0.0
 10
142.8549403963031
 20
215.3265335974488
 30
0.0
 10
142.8549403963031
 20
215.3265335974488
 30
0.0
 10
142.8549403963031
 20
215.3265335974488
 30
0.0
 10
142.8549403963031
 20
215.3265335974488
 30
0.0
 10
142.8549403963031
 20
214.5272709176017
 30
0.0
 10
142.8549403963031
 20
214.5272709176017
 30
0.0
 10
142.8549403963031
 20
214.5272709176017
 30
0.0
 10
142.8549403963031
 20
214.5272709176017
 30
0.0
 10
142.8549403963031
 20
214.5272709176017
 30
0.0
 10
142.8549403963031
 20
214.5272709176017
 30
0.0
 10
143.7792601247642
 20
214.5272709176017
 30
0.0
 10
143.7792601247642
 20
214.5272709176017
 30
0.0
 10
143.7792601247642
 20
214.5272709176017
 30
0.0
 10
143.7792601247642
 20
214.5272709176017
 30
0.0
 10
143.7792601247642
 20
214.5272709176017
 30
0.0
 10
143.9329114847693
 20
214.5257206236107
 30
0.0
 10
144.0662367680024
 20
214.6476770842425
 30
0.0
 10
144.0779501003795
 20
214.8008116795839
 30
0.0
 10
144.0779501003795
 20
214.8008116795839
 30
0.0
 10
144.0779501003795
 20
214.8008116795839
 30
0.0
 10
144.0779501003795
 20
214.8008116795839
 30
0.0
 10
144.0779501003795
 20
214.8008116795839
 30
0.0
 10
144.3029149839744
 20
217.3734384303418
 30
0.0
 10
144.3029149839744
 20
217.3734384303418
 30
0.0
 10
144.3029149839744
 20
217.3734384303418
 30
0.0
 10
144.3029149839744
 20
217.3734384303418
 30
0.0
 10
144.3029149839744
 20
217.3734384303418
 30
0.0
 10
144.337365961554
 20
217.8593694691023
 30
0.0
 10
144.7552563195947
 20
218.2648574752144
 30
0.0
 10
145.2420486327947
 20
218.2839777677711
 30
0.0
 10
145.2420486327947
 20
218.2839777677711
 30
0.0
 10
145.2420486327947
 20
218.2839777677711
 30
0.0
 10
145.2420486327947
 20
218.2839777677711
 30
0.0
 10
145.2420486327947
 20
218.2839777677711
 30
0.0
 10
147.7714394066902
 20
218.4266048149507
 30
0.0
 10
147.7714394066902
 20
218.4266048149507
 30
0.0
 10
147.7714394066902
 20
218.4266048149507
 30
0.0
 10
147.7714394066902
 20
218.4266048149507
 30
0.0
 10
147.7714394066902
 20
218.4266048149507
 30
0.0
  0
HATCH
  5
1E4
330
1DF
100
AcDbEntity
  8
COTAS
 62
     7
420
 16777215
100
AcDbHatch
 10
0.0
 20
0.0
 30
0.0
210
0.0
220
0.0
230
1.0
  2
SOLID
 70
     1
 71
     0
 91
        1
 92
        1
 93
        1
 72
     4
 94
        3
 73
     0
 74
     1
 95
       98
 96
       94
 40
0.0
 40
0.0
 40
0.0
 40
0.0
 40
1.0
 40
1.0
 40
1.0
 40
2.0
 40
2.0
 40
2.0
 40
3.0
 40
3.0
 40
3.0
 40
4.0
 40
4.0
 40
4.0
 40
5.0
 40
5.0
 40
5.0
 40
6.0
 40
6.0
 40
6.0
 40
7.0
 40
7.0
 40
7.0
 40
8.0
 40
8.0
 40
8.0
 40
9.0
 40
9.0
 40
9.0
 40
10.0
 40
10.0
 40
10.0
 40
11.0
 40
11.0
 40
11.0
 40
12.0
 40
12.0
 40
12.0
 40
13.0
 40
13.0
 40
13.0
 40
14.0
 40
14.0
 40
14.0
 40
15.0
 40
15.0
 40
15.0
 40
16.0
 40
16.0
 40
16.0
 40
17.0
 40
17.0
 40
17.0
 40
18.0
 40
18.0
 40
18.0
 40
19.0
 40
19.0
 40
19.0
 40
20.0
 40
20.0
 40
20.0
 40
21.0
 40
21.0
 40
21.0
 40
22.0
 40
22.0
 40
22.0
 40
23.0
 40
23.0
 40
23.0
 40
24.0
 40
24.0
 40
24.0
 40
25.0
 40
25.0
 40
25.0
 40
26.0
 40
26.0
 40
26.0
 40
27.0
 40
27.0
 40
27.0
 40
28.0
 40
28.0
 40
28.0
 40
29.0
 40
29.0
 40
29.0
 40
30.0
 40
30.0
 40
30.0
 40
31.0
 40
31.0
 40
31.0
 40
31.0
 10
147.7714394066902
 20
218.4266048149507
 10
147.7714394066902
 20
218.4266048149507
 10
147.4517343347513
 20
219.4093189504092
 10
147.4517343347513
 20
219.4093189504092
 10
147.4517343347513
 20
219.4093189504092
 10
147.4517343347513
 20
219.4093189504092
 10
147.4517343347513
 20
219.4093189504092
 10
147.4517343347513
 20
219.4093189504092
 10
144.1537422510546
 20
219.2232836714793
 10
144.1537422510546
 20
219.2232836714793
 10
144.1537422510546
 20
219.2232836714793
 10
144.1537422510546
 20
219.2232836714793
 10
144.1537422510546
 20
219.2232836714793
 10
144.1537422510546
 20
219.2232836714793
 10
142.8549403963031
 20
218.0743435691991
 10
142.8549403963031
 20
218.0743435691991
 10
142.8549403963031
 20
218.0743435691991
 10
142.8549403963031
 20
218.0743435691991
 10
142.8549403963031
 20
218.0743435691991
 10
142.8549403963031
 20
218.0743435691991
 10
142.8549403963031
 20
217.2749086344641
 10
142.8549403963031
 20
217.2749086344641
 10
142.8549403963031
 20
217.2749086344641
 10
142.8549403963031
 20
217.2749086344641
 10
142.8549403963031
 20
217.2749086344641
 10
142.9744852885043
 20
217.2683629487239
 10
143.164310174968
 20
217.3203839248692
 10
143.2635289903973
 20
217.3872188213736
 10
143.2635289903973
 20
217.3872188213736
 10
143.2635289903973
 20
217.3872188213736
 10
143.2635289903973
 20
217.3872188213736
 10
143.2855776160483
 20
217.4022049966208
 10
143.3269187891438
 20
217.4115067605672
 10
143.3531015321043
 20
217.4077171530335
 10
143.4357838782954
 20
217.4004824477418
 10
143.4967621086113
 20
217.3277908850488
 10
143.4895274033196
 20
217.2452807937456
 10
143.4895274033196
 20
217.2452807937456
 10
143.4895274033196
 20
217.2452807937456
 10
143.4895274033196
 20
217.2452807937456
 10
143.4895274033196
 20
217.2452807937456
 10
143.333464474884
 20
215.4634762333278
 10
143.333464474884
 20
215.4634762333278
 10
143.333464474884
 20
215.4634762333278
 10
143.333464474884
 20
215.4634762333278
 10
143.333464474884
 20
215.4634762333278
 10
143.3276078086954
 20
215.3868228082132
 10
143.2611174219668
 20
215.3258445778972
 10
143.1842917419642
 20
215.3265335974488
 10
143.1842917419642
 20
215.3265335974488
 10
143.1842917419642
 20
215.3265335974488
 10
143.1842917419642
 20
215.3265335974488
 10
143.1842917419642
 20
215.3265335974488
 10
142.8549403963031
 20
215.3265335974488
 10
142.8549403963031
 20
215.3265335974488
 10
142.8549403963031
 20
215.3265335974488
 10
142.8549403963031
 20
215.3265335974488
 10
142.8549403963031
 20
215.3265335974488
 10
142.8549403963031
 20
215.3265335974488
 10
142.8549403963031
 20
214.5272709176017
 10
142.8549403963031
 20
214.5272709176017
 10
142.8549403963031
 20
214.5272709176017
 10
142.8549403963031
 20
214.5272709176017
 10
142.8549403963031
 20
214.5272709176017
 10
142.8549403963031
 20
214.5272709176017
 10
143.7792601247642
 20
214.5272709176017
 10
143.7792601247642
 20
214.5272709176017
 10
143.7792601247642
 20
214.5272709176017
 10
143.7792601247642
 20
214.5272709176017
 10
143.7792601247642
 20
214.5272709176017
 10
143.9329114847693
 20
214.5257206236107
 10
144.0662367680024
 20
214.6476770842425
 10
144.0779501003795
 20
214.8008116795839
 10
144.0779501003795
 20
214.8008116795839
 10
144.0779501003795
 20
214.8008116795839
 10
144.0779501003795
 20
214.8008116795839
 10
144.0779501003795
 20
214.8008116795839
 10
144.3029149839744
 20
217.3734384303418
 10
144.3029149839744
 20
217.3734384303418
 10
144.3029149839744
 20
217.3734384303418
 10
144.3029149839744
 20
217.3734384303418
 10
144.3029149839744
 20
217.3734384303418
 10
144.337365961554
 20
217.8593694691023
 10
144.7552563195947
 20
218.2648574752144
 10
145.2420486327947
 20
218.2839777677711
 10
145.2420486327947
 20
218.2839777677711
 10
145.2420486327947
 20
218.2839777677711
 10
145.2420486327947
 20
218.2839777677711
 10
145.2420486327947
 20
218.2839777677711
 10
147.7714394066902
 20
218.4266048149507
 10
147.7714394066902
 20
218.4266048149507
 10
147.7714394066902
 20
218.4266048149507
 10
147.7714394066902
 20
218.4266048149507
 10
147.7714394066902
 20
218.4266048149507
 97
        0
 75
     0
 76
     1
 98
        0
  0
ENDBLK
  5
1E2
330
1DF
100
AcDbEntity
  8
0
100
AcDbBlockEnd
  0
BLOCK
  5
1E7
330
1E5
100
AcDbEntity
  8
0
100
AcDbBlockBegin
  2
block 38
 70
     0
 71
     0
 10
0.0
 20
0.0
 30
0.0
  3
block 38
  1

  0
SPLINE
  5
1E9
330
1E5
100
AcDbEntity
  8
COTAS
 62
     7
420
 16777215
370
    35
100
AcDbSpline
210
0.0
220
0.0
230
1.0
 70
    11
 71
     3
 72
    71
 73
    67
 74
     0
 42
0.0000000001
 43
0.0000000001
 40
0.0
 40
0.0
 40
0.0
 40
0.0
 40
1.0
 40
1.0
 40
1.0
 40
2.0
 40
2.0
 40
2.0
 40
3.0
 40
3.0
 40
3.0
 40
4.0
 40
4.0
 40
4.0
 40
5.0
 40
5.0
 40
5.0
 40
6.0
 40
6.0
 40
6.0
 40
7.0
 40
7.0
 40
7.0
 40
8.0
 40
8.0
 40
8.0
 40
9.0
 40
9.0
 40
9.0
 40
10.0
 40
10.0
 40
10.0
 40
11.0
 40
11.0
 40
11.0
 40
12.0
 40
12.0
 40
12.0
 40
13.0
 40
13.0
 40
13.0
 40
14.0
 40
14.0
 40
14.0
 40
15.0
 40
15.0
 40
15.0
 40
16.0
 40
16.0
 40
16.0
 40
17.0
 40
17.0
 40
17.0
 40
18.0
 40
18.0
 40
18.0
 40
19.0
 40
19.0
 40
19.0
 40
20.0
 40
20.0
 40
20.0
 40
21.0
 40
21.0
 40
21.0
 40
22.0
 40
22.0
 40
22.0
 40
22.0
 10
134.7486253718192
 20
218.5421878447303
 30
0.0
 10
134.7486253718192
 20
218.5421878447303
 30
0.0
 10
136.4970124839848
 20
218.449686969929
 30
0.0
 10
136.4970124839848
 20
218.449686969929
 30
0.0
 10
136.4970124839848
 20
218.449686969929
 30
0.0
 10
136.4970124839848
 20
218.449686969929
 30
0.0
 10
136.4970124839848
 20
218.449686969929
 30
0.0
 10
136.5745271835389
 20
218.4502037345927
 30
0.0
 10
136.6861483508969
 20
218.4045561892997
 30
0.0
 10
136.7409254052484
 20
218.349951389836
 30
0.0
 10
136.7409254052484
 20
218.349951389836
 30
0.0
 10
136.7409254052484
 20
218.349951389836
 30
0.0
 10
136.7409254052484
 20
218.349951389836
 30
0.0
 10
136.7409254052484
 20
218.349951389836
 30
0.0
 10
137.8426676682446
 20
217.3753332341087
 30
0.0
 10
137.8426676682446
 20
217.3753332341087
 30
0.0
 10
137.8426676682446
 20
217.3753332341087
 30
0.0
 10
137.8426676682446
 20
217.3753332341087
 30
0.0
 10
137.8426676682446
 20
217.3753332341087
 30
0.0
 10
137.9026123692331
 20
217.3157330428959
 30
0.0
 10
138.0231907907618
 20
217.269913242715
 30
0.0
 10
138.1075956858319
 20
217.2749086344641
 30
0.0
 10
138.1075956858319
 20
217.2749086344641
 30
0.0
 10
138.1075956858319
 20
217.2749086344641
 30
0.0
 10
138.1075956858319
 20
217.2749086344641
 30
0.0
 10
138.1075956858319
 20
217.2749086344641
 30
0.0
 10
138.2588354774064
 20
217.2749086344641
 30
0.0
 10
138.2588354774064
 20
217.2749086344641
 30
0.0
 10
138.2588354774064
 20
217.2749086344641
 30
0.0
 10
138.2588354774064
 20
217.2749086344641
 30
0.0
 10
138.2588354774064
 20
217.2749086344641
 30
0.0
 10
138.2588354774064
 20
217.2749086344641
 30
0.0
 10
138.2588354774064
 20
218.0743435691991
 30
0.0
 10
138.2588354774064
 20
218.0743435691991
 30
0.0
 10
138.2588354774064
 20
218.0743435691991
 30
0.0
 10
138.2588354774064
 20
218.0743435691991
 30
0.0
 10
138.2588354774064
 20
218.0743435691991
 30
0.0
 10
138.2588354774064
 20
218.0743435691991
 30
0.0
 10
136.9572775444485
 20
219.2258674947978
 30
0.0
 10
136.9572775444485
 20
219.2258674947978
 30
0.0
 10
136.9572775444485
 20
219.2258674947978
 30
0.0
 10
136.9572775444485
 20
219.2258674947978
 30
0.0
 10
136.9572775444485
 20
219.2258674947978
 30
0.0
 10
136.9572775444485
 20
219.2258674947978
 30
0.0
 10
134.8071920337046
 20
219.3395557208105
 30
0.0
 10
134.8071920337046
 20
219.3395557208105
 30
0.0
 10
134.8071920337046
 20
219.3395557208105
 30
0.0
 10
134.8071920337046
 20
219.3395557208105
 30
0.0
 10
134.8071920337046
 20
219.3395557208105
 30
0.0
 10
134.7513814500256
 20
219.3414505245774
 30
0.0
 10
134.6445834195288
 20
219.3529916020666
 30
0.0
 10
134.5894618554014
 20
219.3629823855647
 30
0.0
 10
134.5894618554014
 20
219.3629823855647
 30
0.0
 10
134.5894618554014
 20
219.3629823855647
 30
0.0
 10
134.5894618554014
 20
219.3629823855647
 30
0.0
 10
134.5894618554014
 20
219.3629823855647
 30
0.0
 10
134.2239369832816
 20
218.6234921518182
 30
0.0
 10
134.2239369832816
 20
218.6234921518182
 30
0.0
 10
134.2239369832816
 20
218.6234921518182
 30
0.0
 10
134.2239369832816
 20
218.6234921518182
 30
0.0
 10
134.2239369832816
 20
218.6234921518182
 30
0.0
 10
134.3562287371874
 20
218.5859405862564
 30
0.0
 10
134.6111659712765
 20
218.5464942169277
 30
0.0
 10
134.7486253718192
 20
218.5421878447303
 30
0.0
 10
134.7486253718192
 20
218.5421878447303
 30
0.0
 10
134.7486253718192
 20
218.5421878447303
 30
0.0
 10
134.7486253718192
 20
218.5421878447303
 30
0.0
  0
HATCH
  5
1EA
330
1E5
100
AcDbEntity
  8
COTAS
 62
     7
420
 16777215
100
AcDbHatch
 10
0.0
 20
0.0
 30
0.0
210
0.0
220
0.0
230
1.0
  2
SOLID
 70
     1
 71
     0
 91
        1
 92
        1
 93
        1
 72
     4
 94
        3
 73
     0
 74
     1
 95
       71
 96
       67
 40
0.0
 40
0.0
 40
0.0
 40
0.0
 40
1.0
 40
1.0
 40
1.0
 40
2.0
 40
2.0
 40
2.0
 40
3.0
 40
3.0
 40
3.0
 40
4.0
 40
4.0
 40
4.0
 40
5.0
 40
5.0
 40
5.0
 40
6.0
 40
6.0
 40
6.0
 40
7.0
 40
7.0
 40
7.0
 40
8.0
 40
8.0
 40
8.0
 40
9.0
 40
9.0
 40
9.0
 40
10.0
 40
10.0
 40
10.0
 40
11.0
 40
11.0
 40
11.0
 40
12.0
 40
12.0
 40
12.0
 40
13.0
 40
13.0
 40
13.0
 40
14.0
 40
14.0
 40
14.0
 40
15.0
 40
15.0
 40
15.0
 40
16.0
 40
16.0
 40
16.0
 40
17.0
 40
17.0
 40
17.0
 40
18.0
 40
18.0
 40
18.0
 40
19.0
 40
19.0
 40
19.0
 40
20.0
 40
20.0
 40
20.0
 40
21.0
 40
21.0
 40
21.0
 40
22.0
 40
22.0
 40
22.0
 40
22.0
 10
134.7486253718192
 20
218.5421878447303
 10
134.7486253718192
 20
218.5421878447303
 10
136.4970124839848
 20
218.449686969929
 10
136.4970124839848
 20
218.449686969929
 10
136.4970124839848
 20
218.449686969929
 10
136.4970124839848
 20
218.449686969929
 10
136.4970124839848
 20
218.449686969929
 10
136.5745271835389
 20
218.4502037345927
 10
136.6861483508969
 20
218.4045561892997
 10
136.7409254052484
 20
218.349951389836
 10
136.7409254052484
 20
218.349951389836
 10
136.7409254052484
 20
218.349951389836
 10
136.7409254052484
 20
218.349951389836
 10
136.7409254052484
 20
218.349951389836
 10
137.8426676682446
 20
217.3753332341087
 10
137.8426676682446
 20
217.3753332341087
 10
137.8426676682446
 20
217.3753332341087
 10
137.8426676682446
 20
217.3753332341087
 10
137.8426676682446
 20
217.3753332341087
 10
137.9026123692331
 20
217.3157330428959
 10
138.0231907907618
 20
217.269913242715
 10
138.1075956858319
 20
217.2749086344641
 10
138.1075956858319
 20
217.2749086344641
 10
138.1075956858319
 20
217.2749086344641
 10
138.1075956858319
 20
217.2749086344641
 10
138.1075956858319
 20
217.2749086344641
 10
138.2588354774064
 20
217.2749086344641
 10
138.2588354774064
 20
217.2749086344641
 10
138.2588354774064
 20
217.2749086344641
 10
138.2588354774064
 20
217.2749086344641
 10
138.2588354774064
 20
217.2749086344641
 10
138.2588354774064
 20
217.2749086344641
 10
138.2588354774064
 20
218.0743435691991
 10
138.2588354774064
 20
218.0743435691991
 10
138.2588354774064
 20
218.0743435691991
 10
138.2588354774064
 20
218.0743435691991
 10
138.2588354774064
 20
218.0743435691991
 10
138.2588354774064
 20
218.0743435691991
 10
136.9572775444485
 20
219.2258674947978
 10
136.9572775444485
 20
219.2258674947978
 10
136.9572775444485
 20
219.2258674947978
 10
136.9572775444485
 20
219.2258674947978
 10
136.9572775444485
 20
219.2258674947978
 10
136.9572775444485
 20
219.2258674947978
 10
134.8071920337046
 20
219.3395557208105
 10
134.8071920337046
 20
219.3395557208105
 10
134.8071920337046
 20
219.3395557208105
 10
134.8071920337046
 20
219.3395557208105
 10
134.8071920337046
 20
219.3395557208105
 10
134.7513814500256
 20
219.3414505245774
 10
134.6445834195288
 20
219.3529916020666
 10
134.5894618554014
 20
219.3629823855647
 10
134.5894618554014
 20
219.3629823855647
 10
134.5894618554014
 20
219.3629823855647
 10
134.5894618554014
 20
219.3629823855647
 10
134.5894618554014
 20
219.3629823855647
 10
134.2239369832816
 20
218.6234921518182
 10
134.2239369832816
 20
218.6234921518182
 10
134.2239369832816
 20
218.6234921518182
 10
134.2239369832816
 20
218.6234921518182
 10
134.2239369832816
 20
218.6234921518182
 10
134.3562287371874
 20
218.5859405862564
 10
134.6111659712765
 20
218.5464942169277
 10
134.7486253718192
 20
218.5421878447303
 10
134.7486253718192
 20
218.5421878447303
 10
134.7486253718192
 20
218.5421878447303
 10
134.7486253718192
 20
218.5421878447303
 97
        0
 75
     0
 76
     1
 98
        0
  0
ENDBLK
  5
1E8
330
1E5
100
AcDbEntity
  8
0
100
AcDbBlockEnd
  0
BLOCK
  5
1ED
330
1EB
100
AcDbEntity
  8
0
100
AcDbBlockBegin
  2
block 39
 70
     0
 71
     0
 10
0.0
 20
0.0
 30
0.0
  3
block 39
  1

  0
POLYLINE
  5
1EF
330
1EB
100
AcDbEntity
  8
COTAS
 62
     7
420
 16777215
370
    35
100
AcDb2dPolyline
 66
     1
 10
0.0
 20
0.0
 30
0.0
  0
VERTEX
  5
1F0
330
1EF
100
AcDbEntity
  8
COTAS
 62
     7
420
 16777215
370
    35
100
AcDbVertex
100
AcDb2dVertex
 10
136.5586797338523
 20
216.1647258819609
 30
0.0
  0
VERTEX
  5
1F1
330
1EF
100
AcDbEntity
  8
COTAS
 62
     7
420
 16777215
370
    35
100
AcDbVertex
100
AcDb2dVertex
 10
135.256088271567
 20
216.2785863628615
 30
0.0
  0
VERTEX
  5
1F2
330
1EF
100
AcDbEntity
  8
COTAS
 62
     7
420
 16777215
370
    35
100
AcDbVertex
100
AcDb2dVertex
 10
133.7206082008435
 20
216.6542742733673
 30
0.0
  0
VERTEX
  5
1F3
330
1EF
100
AcDbEntity
  8
COTAS
 62
     7
420
 16777215
370
    35
100
AcDbVertex
100
AcDb2dVertex
 10
133.6269015418269
 20
215.8326184580934
 30
0.0
  0
VERTEX
  5
1F4
330
1EF
100
AcDbEntity
  8
COTAS
 62
     7
420
 16777215
370
    35
100
AcDbVertex
100
AcDb2dVertex
 10
135.1864972968561
 20
215.4824242709966
 30
0.0
  0
VERTEX
  5
1F5
330
1EF
100
AcDbEntity
  8
COTAS
 62
     7
420
 16777215
370
    35
100
AcDbVertex
100
AcDb2dVertex
 10
136.4890887591415
 20
215.3683915352081
 30
0.0
  0
VERTEX
  5
1F6
330
1EF
100
AcDbEntity
  8
COTAS
 62
     7
420
 16777215
370
    35
100
AcDbVertex
100
AcDb2dVertex
 10
137.0351367537784
 20
214.8083908946514
 30
0.0
  0
VERTEX
  5
1F7
330
1EF
100
AcDbEntity
  8
COTAS
 62
     7
420
 16777215
370
    35
100
AcDbVertex
100
AcDb2dVertex
 10
137.3345157489453
 20
214.5272709176017
 30
0.0
  0
VERTEX
  5
1F8
330
1EF
100
AcDbEntity
  8
COTAS
 62
     7
420
 16777215
370
    35
100
AcDbVertex
100
AcDb2dVertex
 10
138.2588354774064
 20
214.5272709176017
 30
0.0
  0
VERTEX
  5
1F9
330
1EF
100
AcDbEntity
  8
COTAS
 62
     7
420
 16777215
370
    35
100
AcDbVertex
100
AcDb2dVertex
 10
138.2588354774064
 20
215.3265335974488
 30
0.0
  0
VERTEX
  5
1FA
330
1EF
100
AcDbEntity
  8
COTAS
 62
     7
420
 16777215
370
    35
100
AcDbVertex
100
AcDb2dVertex
 10
137.8457682562268
 20
215.3265335974488
 30
0.0
  0
VERTEX
  5
1FB
330
1EF
100
AcDbEntity
  8
COTAS
 62
     7
420
 16777215
370
    35
100
AcDbVertex
100
AcDb2dVertex
 10
137.6697237607949
 20
215.4319535888425
 30
0.0
  0
VERTEX
  5
1FC
330
1EF
100
AcDbEntity
  8
COTAS
 62
     7
420
 16777215
370
    35
100
AcDbVertex
100
AcDb2dVertex
 10
136.5586797338523
 20
216.1647258819609
 30
0.0
  0
SEQEND
  5
1FD
330
1EF
100
AcDbEntity
  8
COTAS
370
    35
  0
HATCH
  5
1FE
330
1EB
100
AcDbEntity
  8
COTAS
 62
     7
420
 16777215
100
AcDbHatch
 10
0.0
 20
0.0
 30
0.0
210
0.0
220
0.0
230
1.0
  2
SOLID
 70
     1
 71
     0
 91
        1
 92
        1
 93
       12
 72
     1
 10
136.5586797338523
 20
216.1647258819609
 11
135.256088271567
 21
216.2785863628615
 72
     1
 10
135.256088271567
 20
216.2785863628615
 11
133.7206082008435
 21
216.6542742733673
 72
     1
 10
133.7206082008435
 20
216.6542742733673
 11
133.6269015418269
 21
215.8326184580934
 72
     1
 10
133.6269015418269
 20
215.8326184580934
 11
135.1864972968561
 21
215.4824242709966
 72
     1
 10
135.1864972968561
 20
215.4824242709966
 11
136.4890887591415
 21
215.3683915352081
 72
     1
 10
136.4890887591415
 20
215.3683915352081
 11
137.0351367537784
 21
214.8083908946514
 72
     1
 10
137.0351367537784
 20
214.8083908946514
 11
137.3345157489453
 21
214.5272709176017
 72
     1
 10
137.3345157489453
 20
214.5272709176017
 11
138.2588354774064
 21
214.5272709176017
 72
     1
 10
138.2588354774064
 20
214.5272709176017
 11
138.2588354774064
 21
215.3265335974488
 72
     1
 10
138.2588354774064
 20
215.3265335974488
 11
137.8457682562268
 21
215.3265335974488
 72
     1
 10
137.8457682562268
 20
215.3265335974488
 11
137.6697237607949
 21
215.4319535888425
 72
     1
 10
137.6697237607949
 20
215.4319535888425
 11
136.5586797338523
 21
216.1647258819609
 97
        0
 75
     0
 76
     1
 98
        0
  0
ENDBLK
  5
1EE
330
1EB
100
AcDbEntity
  8
0
100
AcDbBlockEnd
  0
BLOCK
  5
201
330
1FF
100
AcDbEntity
  8
0
100
AcDbBlockBegin
  2
block 40
 70
     0
 71
     0
 10
0.0
 20
0.0
 30
0.0
  3
block 40
  1

  0
INSERT
  5
204
330
1FF
100
AcDbEntity
  8
COTAS
100
AcDbBlockReference
  2
block 41
 10
0.0
 20
0.0
 30
0.0
  0
INSERT
  5
20C
330
1FF
100
AcDbEntity
  8
COTAS
100
AcDbBlockReference
  2
block 42
 10
0.0
 20
0.0
 30
0.0
  0
INSERT
  5
214
330
1FF
100
AcDbEntity
  8
COTAS
100
AcDbBlockReference
  2
block 43
 10
0.0
 20
0.0
 30
0.0
  0
INSERT
  5
21C
330
1FF
100
AcDbEntity
  8
COTAS
100
AcDbBlockReference
  2
block 44
 10
0.0
 20
0.0
 30
0.0
  0
INSERT
  5
224
330
1FF
100
AcDbEntity
  8
COTAS
100
AcDbBlockReference
  2
block 45
 10
0.0
 20
0.0
 30
0.0
  0
INSERT
  5
22F
330
1FF
100
AcDbEntity
  8
COTAS
100
AcDbBlockReference
  2
block 46
 10
0.0
 20
0.0
 30
0.0
  0
INSERT
  5
23A
330
1FF
100
AcDbEntity
  8
COTAS
100
AcDbBlockReference
  2
block 47
 10
0.0
 20
0.0
 30
0.0
  0
INSERT
  5
23F
330
1FF
100
AcDbEntity
  8
COTAS
100
AcDbBlockReference
  2
block 48
 10
0.0
 20
0.0
 30
0.0
  0
INSERT
  5
247
330
1FF
100
AcDbEntity
  8
COTAS
100
AcDbBlockReference
  2
block 49
 10
0.0
 20
0.0
 30
0.0
  0
INSERT
  5
24F
330
1FF
100
AcDbEntity
  8
COTAS
100
AcDbBlockReference
  2
block 50
 10
0.0
 20
0.0
 30
0.0
  0
ENDBLK
  5
202
330
1FF
100
AcDbEntity
  8
0
100
AcDbBlockEnd
  0
BLOCK
  5
205
330
203
100
AcDbEntity
  8
0
100
AcDbBlockBegin
  2
block 41
 70
     0
 71
     0
 10
0.0
 20
0.0
 30
0.0
  3
block 41
  1

  0
POLYLINE
  5
207
330
203
100
AcDbEntity
  8
COTAS
 62
     7
420
 16777215
370
    25
100
AcDb2dPolyline
 66
     1
 10
0.0
 20
0.0
 30
0.0
  0
VERTEX
  5
208
330
207
100
AcDbEntity
  8
COTAS
 62
     7
420
 16777215
370
    25
100
AcDbVertex
100
AcDb2dVertex
 10
119.574692296877
 20
193.7448909475857
 30
0.0
  0
VERTEX
  5
209
330
207
100
AcDbEntity
  8
COTAS
 62
     7
420
 16777215
370
    25
100
AcDbVertex
100
AcDb2dVertex
 10
119.574692296877
 20
181.3618315663682
 30
0.0
  0
SEQEND
  5
20A
330
207
100
AcDbEntity
  8
COTAS
370
    25
  0
ENDBLK
  5
206
330
203
100
AcDbEntity
  8
0
100
AcDbBlockEnd
  0
BLOCK
  5
20D
330
20B
100
AcDbEntity
  8
0
100
AcDbBlockBegin
  2
block 42
 70
     0
 71
     0
 10
0.0
 20
0.0
 30
0.0
  3
block 42
  1

  0
POLYLINE
  5
20F
330
20B
100
AcDbEntity
  8
COTAS
 62
     7
420
 16777215
370
    25
100
AcDb2dPolyline
 66
     1
 10
0.0
 20
0.0
 30
0.0
  0
VERTEX
  5
210
330
20F
100
AcDbEntity
  8
COTAS
 62
     7
420
 16777215
370
    25
100
AcDbVertex
100
AcDb2dVertex
 10
140.5570601917426
 20
211.2899125544451
 30
0.0
  0
VERTEX
  5
211
330
20F
100
AcDbEntity
  8
COTAS
 62
     7
420
 16777215
370
    25
100
AcDbVertex
100
AcDb2dVertex
 10
140.5570601917426
 20
181.3618315663682
 30
0.0
  0
SEQEND
  5
212
330
20F
100
AcDbEntity
  8
COTAS
370
    25
  0
ENDBLK
  5
20E
330
20B
100
AcDbEntity
  8
0
100
AcDbBlockEnd
  0
BLOCK
  5
215
330
213
100
AcDbEntity
  8
0
100
AcDbBlockBegin
  2
block 43
 70
     0
 71
     0
 10
0.0
 20
0.0
 30
0.0
  3
block 43
  1

  0
POLYLINE
  5
217
330
213
100
AcDbEntity
  8
COTAS
 62
     3
420
    65280
370
    25
100
AcDb2dPolyline
 66
     1
 10
0.0
 20
0.0
 30
0.0
  0
VERTEX
  5
218
330
217
100
AcDbEntity
  8
COTAS
 62
     3
420
    65280
370
    25
100
AcDbVertex
100
AcDb2dVertex
 10
122.5722718560794
 20
183.3601605208739
 30
0.0
  0
VERTEX
  5
219
330
217
100
AcDbEntity
  8
COTAS
 62
     3
420
    65280
370
    25
100
AcDbVertex
100
AcDb2dVertex
 10
125.8551055096411
 20
183.3601605208739
 30
0.0
  0
SEQEND
  5
21A
330
217
100
AcDbEntity
  8
COTAS
370
    25
  0
ENDBLK
  5
216
330
213
100
AcDbEntity
  8
0
100
AcDbBlockEnd
  0
BLOCK
  5
21D
330
21B
100
AcDbEntity
  8
0
100
AcDbBlockBegin
  2
block 44
 70
     0
 71
     0
 10
0.0
 20
0.0
 30
0.0
  3
block 44
  1

  0
POLYLINE
  5
21F
330
21B
100
AcDbEntity
  8
COTAS
 62
     3
420
    65280
370
    25
100
AcDb2dPolyline
 66
     1
 10
0.0
 20
0.0
 30
0.0
  0
VERTEX
  5
220
330
21F
100
AcDbEntity
  8
COTAS
 62
     3
420
    65280
370
    25
100
AcDbVertex
100
AcDb2dVertex
 10
137.5594806325402
 20
183.3601605208739
 30
0.0
  0
VERTEX
  5
221
330
21F
100
AcDbEntity
  8
COTAS
 62
     3
420
    65280
370
    25
100
AcDbVertex
100
AcDb2dVertex
 10
134.2766469789785
 20
183.3601605208739
 30
0.0
  0
SEQEND
  5
222
330
21F
100
AcDbEntity
  8
COTAS
370
    25
  0
ENDBLK
  5
21E
330
21B
100
AcDbEntity
  8
0
100
AcDbBlockEnd
  0
BLOCK
  5
225
330
223
100
AcDbEntity
  8
0
100
AcDbBlockBegin
  2
block 45
 70
     0
 71
     0
 10
0.0
 20
0.0
 30
0.0
  3
block 45
  1

  0
POLYLINE
  5
227
330
223
100
AcDbEntity
  8
COTAS
370
     0
100
AcDb2dPolyline
 66
     1
 10
0.0
 20
0.0
 30
0.0
  0
VERTEX
  5
228
330
227
100
AcDbEntity
  8
COTAS
370
     0
100
AcDbVertex
100
AcDb2dVertex
 10
122.5722718560794
 20
183.8596996957784
 30
0.0
  0
VERTEX
  5
229
330
227
100
AcDbEntity
  8
COTAS
370
     0
100
AcDbVertex
100
AcDb2dVertex
 10
122.5722718560794
 20
182.8606213459695
 30
0.0
  0
VERTEX
  5
22A
330
227
100
AcDbEntity
  8
COTAS
370
     0
100
AcDbVertex
100
AcDb2dVertex
 10
119.574692296877
 20
183.3601605208739
 30
0.0
  0
VERTEX
  5
22B
330
227
100
AcDbEntity
  8
COTAS
370
     0
100
AcDbVertex
100
AcDb2dVertex
 10
122.5722718560794
 20
183.8596996957784
 30
0.0
  0
SEQEND
  5
22C
330
227
100
AcDbEntity
  8
COTAS
370
     0
  0
HATCH
  5
22D
330
223
100
AcDbEntity
  8
COTAS
 62
     3
420
    65280
100
AcDbHatch
 10
0.0
 20
0.0
 30
0.0
210
0.0
220
0.0
230
1.0
  2
SOLID
 70
     1
 71
     0
 91
        1
 92
        1
 93
        3
 72
     1
 10
122.5722718560794
 20
183.8596996957784
 11
122.5722718560794
 21
182.8606213459695
 72
     1
 10
122.5722718560794
 20
182.8606213459695
 11
119.574692296877
 21
183.3601605208739
 72
     1
 10
119.574692296877
 20
183.3601605208739
 11
122.5722718560794
 21
183.8596996957784
 97
        0
 75
     2
 76
     1
 98
        0
  0
ENDBLK
  5
226
330
223
100
AcDbEntity
  8
0
100
AcDbBlockEnd
  0
BLOCK
  5
230
330
22E
100
AcDbEntity
  8
0
100
AcDbBlockBegin
  2
block 46
 70
     0
 71
     0
 10
0.0
 20
0.0
 30
0.0
  3
block 46
  1

  0
POLYLINE
  5
232
330
22E
100
AcDbEntity
  8
COTAS
370
     0
100
AcDb2dPolyline
 66
     1
 10
0.0
 20
0.0
 30
0.0
  0
VERTEX
  5
233
330
232
100
AcDbEntity
  8
COTAS
370
     0
100
AcDbVertex
100
AcDb2dVertex
 10
137.5594806325402
 20
183.8596996957784
 30
0.0
  0
VERTEX
  5
234
330
232
100
AcDbEntity
  8
COTAS
370
     0
100
AcDbVertex
100
AcDb2dVertex
 10
137.5594806325402
 20
182.8606213459695
 30
0.0
  0
VERTEX
  5
235
330
232
100
AcDbEntity
  8
COTAS
370
     0
100
AcDbVertex
100
AcDb2dVertex
 10
140.5570601917426
 20
183.3601605208739
 30
0.0
  0
VERTEX
  5
236
330
232
100
AcDbEntity
  8
COTAS
370
     0
100
AcDbVertex
100
AcDb2dVertex
 10
137.5594806325402
 20
183.8596996957784
 30
0.0
  0
SEQEND
  5
237
330
232
100
AcDbEntity
  8
COTAS
370
     0
  0
HATCH
  5
238
330
22E
100
AcDbEntity
  8
COTAS
 62
     3
420
    65280
100
AcDbHatch
 10
0.0
 20
0.0
 30
0.0
210
0.0
220
0.0
230
1.0
  2
SOLID
 70
     1
 71
     0
 91
        1
 92
        1
 93
        3
 72
     1
 10
137.5594806325402
 20
183.8596996957784
 11
137.5594806325402
 21
182.8606213459695
 72
     1
 10
137.5594806325402
 20
182.8606213459695
 11
140.5570601917426
 21
183.3601605208739
 72
     1
 10
140.5570601917426
 20
183.3601605208739
 11
137.5594806325402
 21
183.8596996957784
 97
        0
 75
     2
 76
     1
 98
        0
  0
ENDBLK
  5
231
330
22E
100
AcDbEntity
  8
0
100
AcDbBlockEnd
  0
BLOCK
  5
23B
330
239
100
AcDbEntity
  8
0
100
AcDbBlockBegin
  2
block 47
 70
     0
 71
     0
 10
0.0
 20
0.0
 30
0.0
  3
block 47
  1

  0
MTEXT
  5
23D
330
239
100
AcDbEntity
  8
COTAS
 62
     6
420
 16711935
100
AcDbMText
 10
126.497616241501
 20
182.1113125836128
 30
0.0
 40
2.497883457403663
 41
0.0
 71
     7
 72
     1
  1
\fMyriad Pro|b0|i0|c0|p34;\W1;210
 73
     1
 44
1.0
  0
ENDBLK
  5
23C
330
239
100
AcDbEntity
  8
0
100
AcDbBlockEnd
  0
BLOCK
  5
240
330
23E
100
AcDbEntity
  8
0
100
AcDbBlockBegin
  2
block 48
 70
     0
 71
     0
 10
0.0
 20
0.0
 30
0.0
  3
block 48
  1

  0
POLYLINE
  5
242
330
23E
100
AcDbEntity
  8
COTAS
370
     0
100
AcDb2dPolyline
 66
     1
 10
0.0
 20
0.0
 30
0.0
  0
VERTEX
  5
243
330
242
100
AcDbEntity
  8
COTAS
370
     0
100
AcDbVertex
100
AcDb2dVertex
 10
119.574692296877
 20
193.7448909475857
 30
0.0
  0
VERTEX
  5
244
330
242
100
AcDbEntity
  8
COTAS
370
     0
100
AcDbVertex
100
AcDb2dVertex
 10
119.574692296877
 20
193.7448909475857
 30
0.0
  0
SEQEND
  5
245
330
242
100
AcDbEntity
  8
COTAS
370
     0
  0
ENDBLK
  5
241
330
23E
100
AcDbEntity
  8
0
100
AcDbBlockEnd
  0
BLOCK
  5
248
330
246
100
AcDbEntity
  8
0
100
AcDbBlockBegin
  2
block 49
 70
     0
 71
     0
 10
0.0
 20
0.0
 30
0.0
  3
block 49
  1

  0
POLYLINE
  5
24A
330
246
100
AcDbEntity
  8
COTAS
370
     0
100
AcDb2dPolyline
 66
     1
 10
0.0
 20
0.0
 30
0.0
  0
VERTEX
  5
24B
330
24A
100
AcDbEntity
  8
COTAS
370
     0
100
AcDbVertex
100
AcDb2dVertex
 10
140.5570601917426
 20
211.2899125544451
 30
0.0
  0
VERTEX
  5
24C
330
24A
100
AcDbEntity
  8
COTAS
370
     0
100
AcDbVertex
100
AcDb2dVertex
 10
140.5570601917426
 20
211.2899125544451
 30
0.0
  0
SEQEND
  5
24D
330
24A
100
AcDbEntity
  8
COTAS
370
     0
  0
ENDBLK
  5
249
330
246
100
AcDbEntity
  8
0
100
AcDbBlockEnd
  0
BLOCK
  5
250
330
24E
100
AcDbEntity
  8
0
100
AcDbBlockBegin
  2
block 50
 70
     0
 71
     0
 10
0.0
 20
0.0
 30
0.0
  3
block 50
  1

  0
POLYLINE
  5
252
330
24E
100
AcDbEntity
  8
COTAS
370
     0
100
AcDb2dPolyline
 66
     1
 10
0.0
 20
0.0
 30
0.0
  0
VERTEX
  5
253
330
252
100
AcDbEntity
  8
COTAS
370
     0
100
AcDbVertex
100
AcDb2dVertex
 10
140.5570601917426
 20
183.3601605208739
 30
0.0
  0
VERTEX
  5
254
330
252
100
AcDbEntity
  8
COTAS
370
     0
100
AcDbVertex
100
AcDb2dVertex
 10
140.5570601917426
 20
183.3601605208739
 30
0.0
  0
SEQEND
  5
255
330
252
100
AcDbEntity
  8
COTAS
370
     0
  0
ENDBLK
  5
251
330
24E
100
AcDbEntity
  8
0
100
AcDbBlockEnd
  0
BLOCK
  5
258
330
256
100
AcDbEntity
  8
0
100
AcDbBlockBegin
  2
block 51
 70
     0
 71
     0
 10
0.0
 20
0.0
 30
0.0
  3
block 51
  1

  0
INSERT
  5
25B
330
256
100
AcDbEntity
  8
COTAS
100
AcDbBlockReference
  2
block 52
 10
0.0
 20
0.0
 30
0.0
  0
INSERT
  5
263
330
256
100
AcDbEntity
  8
COTAS
100
AcDbBlockReference
  2
block 53
 10
0.0
 20
0.0
 30
0.0
  0
INSERT
  5
26B
330
256
100
AcDbEntity
  8
COTAS
100
AcDbBlockReference
  2
block 54
 10
0.0
 20
0.0
 30
0.0
  0
INSERT
  5
273
330
256
100
AcDbEntity
  8
COTAS
100
AcDbBlockReference
  2
block 55
 10
0.0
 20
0.0
 30
0.0
  0
INSERT
  5
27B
330
256
100
AcDbEntity
  8
COTAS
100
AcDbBlockReference
  2
block 56
 10
0.0
 20
0.0
 30
0.0
  0
INSERT
  5
286
330
256
100
AcDbEntity
  8
COTAS
100
AcDbBlockReference
  2
block 57
 10
0.0
 20
0.0
 30
0.0
  0
INSERT
  5
291
330
256
100
AcDbEntity
  8
COTAS
100
AcDbBlockReference
  2
block 58
 10
0.0
 20
0.0
 30
0.0
  0
INSERT
  5
296
330
256
100
AcDbEntity
  8
COTAS
100
AcDbBlockReference
  2
block 59
 10
0.0
 20
0.0
 30
0.0
  0
INSERT
  5
29E
330
256
100
AcDbEntity
  8
COTAS
100
AcDbBlockReference
  2
block 60
 10
0.0
 20
0.0
 30
0.0
  0
INSERT
  5
2A6
330
256
100
AcDbEntity
  8
COTAS
100
AcDbBlockReference
  2
block 61
 10
0.0
 20
0.0
 30
0.0
  0
ENDBLK
  5
259
330
256
100
AcDbEntity
  8
0
100
AcDbBlockEnd
  0
BLOCK
  5
25C
330
25A
100
AcDbEntity
  8
0
100
AcDbBlockBegin
  2
block 52
 70
     0
 71
     0
 10
0.0
 20
0.0
 30
0.0
  3
block 52
  1

  0
POLYLINE
  5
25E
330
25A
100
AcDbEntity
  8
COTAS
 62
     7
420
 16777215
370
    25
100
AcDb2dPolyline
 66
     1
 10
0.0
 20
0.0
 30
0.0
  0
VERTEX
  5
25F
330
25E
100
AcDbEntity
  8
COTAS
 62
     7
420
 16777215
370
    25
100
AcDbVertex
100
AcDb2dVertex
 10
138.2588354774064
 20
214.5272709176017
 30
0.0
  0
VERTEX
  5
260
330
25E
100
AcDbEntity
  8
COTAS
 62
     7
420
 16777215
370
    25
100
AcDbVertex
100
AcDb2dVertex
 10
107.9640238329945
 20
214.5272709176017
 30
0.0
  0
SEQEND
  5
261
330
25E
100
AcDbEntity
  8
COTAS
370
    25
  0
ENDBLK
  5
25D
330
25A
100
AcDbEntity
  8
0
100
AcDbBlockEnd
  0
BLOCK
  5
264
330
262
100
AcDbEntity
  8
0
100
AcDbBlockBegin
  2
block 53
 70
     0
 71
     0
 10
0.0
 20
0.0
 30
0.0
  3
block 53
  1

  0
POLYLINE
  5
266
330
262
100
AcDbEntity
  8
COTAS
 62
     7
420
 16777215
370
    25
100
AcDb2dPolyline
 66
     1
 10
0.0
 20
0.0
 30
0.0
  0
VERTEX
  5
267
330
266
100
AcDbEntity
  8
COTAS
 62
     7
420
 16777215
370
    25
100
AcDbVertex
100
AcDb2dVertex
 10
119.574692296877
 20
193.7448909475857
 30
0.0
  0
VERTEX
  5
268
330
266
100
AcDbEntity
  8
COTAS
 62
     7
420
 16777215
370
    25
100
AcDbVertex
100
AcDb2dVertex
 10
107.9640238329945
 20
193.7448909475857
 30
0.0
  0
SEQEND
  5
269
330
266
100
AcDbEntity
  8
COTAS
370
    25
  0
ENDBLK
  5
265
330
262
100
AcDbEntity
  8
0
100
AcDbBlockEnd
  0
BLOCK
  5
26C
330
26A
100
AcDbEntity
  8
0
100
AcDbBlockBegin
  2
block 54
 70
     0
 71
     0
 10
0.0
 20
0.0
 30
0.0
  3
block 54
  1

  0
POLYLINE
  5
26E
330
26A
100
AcDbEntity
  8
COTAS
 62
     3
420
    65280
370
    25
100
AcDb2dPolyline
 66
     1
 10
0.0
 20
0.0
 30
0.0
  0
VERTEX
  5
26F
330
26E
100
AcDbEntity
  8
COTAS
 62
     3
420
    65280
370
    25
100
AcDbVertex
100
AcDb2dVertex
 10
109.9625250423881
 20
211.5298636132872
 30
0.0
  0
VERTEX
  5
270
330
26E
100
AcDbEntity
  8
COTAS
 62
     3
420
    65280
370
    25
100
AcDbVertex
100
AcDb2dVertex
 10
109.9625250423881
 20
208.3467655398184
 30
0.0
  0
SEQEND
  5
271
330
26E
100
AcDbEntity
  8
COTAS
370
    25
  0
ENDBLK
  5
26D
330
26A
100
AcDbEntity
  8
0
100
AcDbBlockEnd
  0
BLOCK
  5
274
330
272
100
AcDbEntity
  8
0
100
AcDbBlockBegin
  2
block 55
 70
     0
 71
     0
 10
0.0
 20
0.0
 30
0.0
  3
block 55
  1

  0
POLYLINE
  5
276
330
272
100
AcDbEntity
  8
COTAS
 62
     3
420
    65280
370
    25
100
AcDb2dPolyline
 66
     1
 10
0.0
 20
0.0
 30
0.0
  0
VERTEX
  5
277
330
276
100
AcDbEntity
  8
COTAS
 62
     3
420
    65280
370
    25
100
AcDbVertex
100
AcDb2dVertex
 10
109.9625250423881
 20
196.7422982519003
 30
0.0
  0
VERTEX
  5
278
330
276
100
AcDbEntity
  8
COTAS
 62
     3
420
    65280
370
    25
100
AcDbVertex
100
AcDb2dVertex
 10
109.9625250423881
 20
199.925396325369
 30
0.0
  0
SEQEND
  5
279
330
276
100
AcDbEntity
  8
COTAS
370
    25
  0
ENDBLK
  5
275
330
272
100
AcDbEntity
  8
0
100
AcDbBlockEnd
  0
BLOCK
  5
27C
330
27A
100
AcDbEntity
  8
0
100
AcDbBlockBegin
  2
block 56
 70
     0
 71
     0
 10
0.0
 20
0.0
 30
0.0
  3
block 56
  1

  0
POLYLINE
  5
27E
330
27A
100
AcDbEntity
  8
COTAS
370
     0
100
AcDb2dPolyline
 66
     1
 10
0.0
 20
0.0
 30
0.0
  0
VERTEX
  5
27F
330
27E
100
AcDbEntity
  8
COTAS
370
     0
100
AcDbVertex
100
AcDb2dVertex
 10
109.4629858674836
 20
211.5298636132872
 30
0.0
  0
VERTEX
  5
280
330
27E
100
AcDbEntity
  8
COTAS
370
     0
100
AcDbVertex
100
AcDb2dVertex
 10
110.4620642172925
 20
211.5298636132872
 30
0.0
  0
VERTEX
  5
281
330
27E
100
AcDbEntity
  8
COTAS
370
     0
100
AcDbVertex
100
AcDb2dVertex
 10
109.9625250423881
 20
214.5272709176017
 30
0.0
  0
VERTEX
  5
282
330
27E
100
AcDbEntity
  8
COTAS
370
     0
100
AcDbVertex
100
AcDb2dVertex
 10
109.4629858674836
 20
211.5298636132872
 30
0.0
  0
SEQEND
  5
283
330
27E
100
AcDbEntity
  8
COTAS
370
     0
  0
HATCH
  5
284
330
27A
100
AcDbEntity
  8
COTAS
 62
     3
420
    65280
100
AcDbHatch
 10
0.0
 20
0.0
 30
0.0
210
0.0
220
0.0
230
1.0
  2
SOLID
 70
     1
 71
     0
 91
        1
 92
        1
 93
        3
 72
     1
 10
109.4629858674836
 20
211.5298636132872
 11
110.4620642172925
 21
211.5298636132872
 72
     1
 10
110.4620642172925
 20
211.5298636132872
 11
109.9625250423881
 21
214.5272709176017
 72
     1
 10
109.9625250423881
 20
214.5272709176017
 11
109.4629858674836
 21
211.5298636132872
 97
        0
 75
     2
 76
     1
 98
        0
  0
ENDBLK
  5
27D
330
27A
100
AcDbEntity
  8
0
100
AcDbBlockEnd
  0
BLOCK
  5
287
330
285
100
AcDbEntity
  8
0
100
AcDbBlockBegin
  2
block 57
 70
     0
 71
     0
 10
0.0
 20
0.0
 30
0.0
  3
block 57
  1

  0
POLYLINE
  5
289
330
285
100
AcDbEntity
  8
COTAS
370
     0
100
AcDb2dPolyline
 66
     1
 10
0.0
 20
0.0
 30
0.0
  0
VERTEX
  5
28A
330
289
100
AcDbEntity
  8
COTAS
370
     0
100
AcDbVertex
100
AcDb2dVertex
 10
109.4629858674836
 20
196.7422982519003
 30
0.0
  0
VERTEX
  5
28B
330
289
100
AcDbEntity
  8
COTAS
370
     0
100
AcDbVertex
100
AcDb2dVertex
 10
110.4620642172925
 20
196.7422982519003
 30
0.0
  0
VERTEX
  5
28C
330
289
100
AcDbEntity
  8
COTAS
370
     0
100
AcDbVertex
100
AcDb2dVertex
 10
109.9625250423881
 20
193.7448909475857
 30
0.0
  0
VERTEX
  5
28D
330
289
100
AcDbEntity
  8
COTAS
370
     0
100
AcDbVertex
100
AcDb2dVertex
 10
109.4629858674836
 20
196.7422982519003
 30
0.0
  0
SEQEND
  5
28E
330
289
100
AcDbEntity
  8
COTAS
370
     0
  0
HATCH
  5
28F
330
285
100
AcDbEntity
  8
COTAS
 62
     3
420
    65280
100
AcDbHatch
 10
0.0
 20
0.0
 30
0.0
210
0.0
220
0.0
230
1.0
  2
SOLID
 70
     1
 71
     0
 91
        1
 92
        1
 93
        3
 72
     1
 10
109.4629858674836
 20
196.7422982519003
 11
110.4620642172925
 21
196.7422982519003
 72
     1
 10
110.4620642172925
 20
196.7422982519003
 11
109.9625250423881
 21
193.7448909475857
 72
     1
 10
109.9625250423881
 20
193.7448909475857
 11
109.4629858674836
 21
196.7422982519003
 97
        0
 75
     2
 76
     1
 98
        0
  0
ENDBLK
  5
288
330
285
100
AcDbEntity
  8
0
100
AcDbBlockEnd
  0
BLOCK
  5
292
330
290
100
AcDbEntity
  8
0
100
AcDbBlockBegin
  2
block 58
 70
     0
 71
     0
 10
0.0
 20
0.0
 30
0.0
  3
block 58
  1

  0
MTEXT
  5
294
330
290
100
AcDbEntity
  8
COTAS
 62
     6
420
 16711935
100
AcDbMText
 10
111.211717489425
 20
200.5675625474531
 30
0.0
 40
2.497883457403663
 41
0.0
 71
     7
 72
     1
  1
\fMyriad Pro|b0|i0|c0|p34;\W1;210
 11
-4.371139000186241E-8
 21
0.999999999999999
 31
0.0
 73
     1
 44
1.0
  0
ENDBLK
  5
293
330
290
100
AcDbEntity
  8
0
100
AcDbBlockEnd
  0
BLOCK
  5
297
330
295
100
AcDbEntity
  8
0
100
AcDbBlockBegin
  2
block 59
 70
     0
 71
     0
 10
0.0
 20
0.0
 30
0.0
  3
block 59
  1

  0
POLYLINE
  5
299
330
295
100
AcDbEntity
  8
COTAS
370
     0
100
AcDb2dPolyline
 66
     1
 10
0.0
 20
0.0
 30
0.0
  0
VERTEX
  5
29A
330
299
100
AcDbEntity
  8
COTAS
370
     0
100
AcDbVertex
100
AcDb2dVertex
 10
138.2588354774064
 20
214.5272709176017
 30
0.0
  0
VERTEX
  5
29B
330
299
100
AcDbEntity
  8
COTAS
370
     0
100
AcDbVertex
100
AcDb2dVertex
 10
138.2588354774064
 20
214.5272709176017
 30
0.0
  0
SEQEND
  5
29C
330
299
100
AcDbEntity
  8
COTAS
370
     0
  0
ENDBLK
  5
298
330
295
100
AcDbEntity
  8
0
100
AcDbBlockEnd
  0
BLOCK
  5
29F
330
29D
100
AcDbEntity
  8
0
100
AcDbBlockBegin
  2
block 60
 70
     0
 71
     0
 10
0.0
 20
0.0
 30
0.0
  3
block 60
  1

  0
POLYLINE
  5
2A1
330
29D
100
AcDbEntity
  8
COTAS
370
     0
100
AcDb2dPolyline
 66
     1
 10
0.0
 20
0.0
 30
0.0
  0
VERTEX
  5
2A2
330
2A1
100
AcDbEntity
  8
COTAS
370
     0
100
AcDbVertex
100
AcDb2dVertex
 10
119.574692296877
 20
193.7448909475857
 30
0.0
  0
VERTEX
  5
2A3
330
2A1
100
AcDbEntity
  8
COTAS
370
     0
100
AcDbVertex
100
AcDb2dVertex
 10
119.574692296877
 20
193.7448909475857
 30
0.0
  0
SEQEND
  5
2A4
330
2A1
100
AcDbEntity
  8
COTAS
370
     0
  0
ENDBLK
  5
2A0
330
29D
100
AcDbEntity
  8
0
100
AcDbBlockEnd
  0
BLOCK
  5
2A7
330
2A5
100
AcDbEntity
  8
0
100
AcDbBlockBegin
  2
block 61
 70
     0
 71
     0
 10
0.0
 20
0.0
 30
0.0
  3
block 61
  1

  0
POLYLINE
  5
2A9
330
2A5
100
AcDbEntity
  8
COTAS
370
     0
100
AcDb2dPolyline
 66
     1
 10
0.0
 20
0.0
 30
0.0
  0
VERTEX
  5
2AA
330
2A9
100
AcDbEntity
  8
COTAS
370
     0
100
AcDbVertex
100
AcDb2dVertex
 10
109.9625250423881
 20
193.7448909475857
 30
0.0
  0
VERTEX
  5
2AB
330
2A9
100
AcDbEntity
  8
COTAS
370
     0
100
AcDbVertex
100
AcDb2dVertex
 10
109.9625250423881
 20
193.7448909475857
 30
0.0
  0
SEQEND
  5
2AC
330
2A9
100
AcDbEntity
  8
COTAS
370
     0
  0
ENDBLK
  5
2A8
330
2A5
100
AcDbEntity
  8
0
100
AcDbBlockEnd
  0
BLOCK
  5
2AF
330
2AD
100
AcDbEntity
  8
0
100
AcDbBlockBegin
  2
block 62
 70
     0
 71
     0
 10
0.0
 20
0.0
 30
0.0
  3
block 62
  1

  0
INSERT
  5
2B2
330
2AD
100
AcDbEntity
  8
COTAS
100
AcDbBlockReference
  2
block 63
 10
0.0
 20
0.0
 30
0.0
  0
INSERT
  5
2BA
330
2AD
100
AcDbEntity
  8
COTAS
100
AcDbBlockReference
  2
block 64
 10
0.0
 20
0.0
 30
0.0
  0
INSERT
  5
2C2
330
2AD
100
AcDbEntity
  8
COTAS
100
AcDbBlockReference
  2
block 65
 10
0.0
 20
0.0
 30
0.0
  0
INSERT
  5
2CA
330
2AD
100
AcDbEntity
  8
COTAS
100
AcDbBlockReference
  2
block 66
 10
0.0
 20
0.0
 30
0.0
  0
INSERT
  5
2D2
330
2AD
100
AcDbEntity
  8
COTAS
100
AcDbBlockReference
  2
block 67
 10
0.0
 20
0.0
 30
0.0
  0
INSERT
  5
2DD
330
2AD
100
AcDbEntity
  8
COTAS
100
AcDbBlockReference
  2
block 68
 10
0.0
 20
0.0
 30
0.0
  0
INSERT
  5
2E8
330
2AD
100
AcDbEntity
  8
COTAS
100
AcDbBlockReference
  2
block 69
 10
0.0
 20
0.0
 30
0.0
  0
INSERT
  5
2ED
330
2AD
100
AcDbEntity
  8
COTAS
100
AcDbBlockReference
  2
block 70
 10
0.0
 20
0.0
 30
0.0
  0
INSERT
  5
2F5
330
2AD
100
AcDbEntity
  8
COTAS
100
AcDbBlockReference
  2
block 71
 10
0.0
 20
0.0
 30
0.0
  0
INSERT
  5
2FD
330
2AD
100
AcDbEntity
  8
COTAS
100
AcDbBlockReference
  2
block 72
 10
0.0
 20
0.0
 30
0.0
  0
ENDBLK
  5
2B0
330
2AD
100
AcDbEntity
  8
0
100
AcDbBlockEnd
  0
BLOCK
  5
2B3
330
2B1
100
AcDbEntity
  8
0
100
AcDbBlockBegin
  2
block 63
 70
     0
 71
     0
 10
0.0
 20
0.0
 30
0.0
  3
block 63
  1

  0
POLYLINE
  5
2B5
330
2B1
100
AcDbEntity
  8
COTAS
 62
     3
420
    65280
370
    25
100
AcDb2dPolyline
 66
     1
 10
0.0
 20
0.0
 30
0.0
  0
VERTEX
  5
2B6
330
2B5
100
AcDbEntity
  8
COTAS
 62
     3
420
    65280
370
    25
100
AcDbVertex
100
AcDb2dVertex
 10
44.37354814209814
 20
193.7448909475857
 30
0.0
  0
VERTEX
  5
2B7
330
2B5
100
AcDbEntity
  8
COTAS
 62
     3
420
    65280
370
    25
100
AcDbVertex
100
AcDb2dVertex
 10
40.61184590017977
 20
193.7448909475857
 30
0.0
  0
SEQEND
  5
2B8
330
2B5
100
AcDbEntity
  8
COTAS
370
    25
  0
ENDBLK
  5
2B4
330
2B1
100
AcDbEntity
  8
0
100
AcDbBlockEnd
  0
BLOCK
  5
2BB
330
2B9
100
AcDbEntity
  8
0
100
AcDbBlockBegin
  2
block 64
 70
     0
 71
     0
 10
0.0
 20
0.0
 30
0.0
  3
block 64
  1

  0
POLYLINE
  5
2BD
330
2B9
100
AcDbEntity
  8
COTAS
 62
     3
420
    65280
370
    25
100
AcDb2dPolyline
 66
     1
 10
0.0
 20
0.0
 30
0.0
  0
VERTEX
  5
2BE
330
2BD
100
AcDbEntity
  8
COTAS
 62
     3
420
    65280
370
    25
100
AcDbVertex
100
AcDb2dVertex
 10
57.44511031024427
 20
207.7330213742376
 30
0.0
  0
VERTEX
  5
2BF
330
2BD
100
AcDbEntity
  8
COTAS
 62
     3
420
    65280
370
    25
100
AcDbVertex
100
AcDb2dVertex
 10
40.61184590017977
 20
207.7330213742376
 30
0.0
  0
SEQEND
  5
2C0
330
2BD
100
AcDbEntity
  8
COTAS
370
    25
  0
ENDBLK
  5
2BC
330
2B9
100
AcDbEntity
  8
0
100
AcDbBlockEnd
  0
BLOCK
  5
2C3
330
2C1
100
AcDbEntity
  8
0
100
AcDbBlockBegin
  2
block 65
 70
     0
 71
     0
 10
0.0
 20
0.0
 30
0.0
  3
block 65
  1

  0
POLYLINE
  5
2C5
330
2C1
100
AcDbEntity
  8
COTAS
 62
     3
420
    65280
370
    25
100
AcDb2dPolyline
 66
     1
 10
0.0
 20
0.0
 30
0.0
  0
VERTEX
  5
2C6
330
2C5
100
AcDbEntity
  8
COTAS
 62
     3
420
    65280
370
    25
100
AcDbVertex
100
AcDb2dVertex
 10
42.61017485468545
 20
190.7474836432712
 30
0.0
  0
VERTEX
  5
2C7
330
2C5
100
AcDbEntity
  8
COTAS
 62
     3
420
    65280
370
    25
100
AcDbVertex
100
AcDb2dVertex
 10
42.61017485468545
 20
187.7499040840687
 30
0.0
  0
SEQEND
  5
2C8
330
2C5
100
AcDbEntity
  8
COTAS
370
    25
  0
ENDBLK
  5
2C4
330
2C1
100
AcDbEntity
  8
0
100
AcDbBlockEnd
  0
BLOCK
  5
2CB
330
2C9
100
AcDbEntity
  8
0
100
AcDbBlockBegin
  2
block 66
 70
     0
 71
     0
 10
0.0
 20
0.0
 30
0.0
  3
block 66
  1

  0
POLYLINE
  5
2CD
330
2C9
100
AcDbEntity
  8
COTAS
 62
     3
420
    65280
370
    25
100
AcDb2dPolyline
 66
     1
 10
0.0
 20
0.0
 30
0.0
  0
VERTEX
  5
2CE
330
2CD
100
AcDbEntity
  8
COTAS
 62
     3
420
    65280
370
    25
100
AcDbVertex
100
AcDb2dVertex
 10
42.61017485468545
 20
210.7304286785522
 30
0.0
  0
VERTEX
  5
2CF
330
2CD
100
AcDbEntity
  8
COTAS
 62
     3
420
    65280
370
    25
100
AcDbVertex
100
AcDb2dVertex
 10
42.61017485468545
 20
213.7280082377546
 30
0.0
  0
SEQEND
  5
2D0
330
2CD
100
AcDbEntity
  8
COTAS
370
    25
  0
ENDBLK
  5
2CC
330
2C9
100
AcDbEntity
  8
0
100
AcDbBlockEnd
  0
BLOCK
  5
2D3
330
2D1
100
AcDbEntity
  8
0
100
AcDbBlockBegin
  2
block 67
 70
     0
 71
     0
 10
0.0
 20
0.0
 30
0.0
  3
block 67
  1

  0
POLYLINE
  5
2D5
330
2D1
100
AcDbEntity
  8
COTAS
370
     0
100
AcDb2dPolyline
 66
     1
 10
0.0
 20
0.0
 30
0.0
  0
VERTEX
  5
2D6
330
2D5
100
AcDbEntity
  8
COTAS
370
     0
100
AcDbVertex
100
AcDb2dVertex
 10
42.1104634248931
 20
190.7474836432712
 30
0.0
  0
VERTEX
  5
2D7
330
2D5
100
AcDbEntity
  8
COTAS
370
     0
100
AcDbVertex
100
AcDb2dVertex
 10
43.1097140295899
 20
190.7474836432712
 30
0.0
  0
VERTEX
  5
2D8
330
2D5
100
AcDbEntity
  8
COTAS
370
     0
100
AcDbVertex
100
AcDb2dVertex
 10
42.61017485468545
 20
193.7448909475857
 30
0.0
  0
VERTEX
  5
2D9
330
2D5
100
AcDbEntity
  8
COTAS
370
     0
100
AcDbVertex
100
AcDb2dVertex
 10
42.1104634248931
 20
190.7474836432712
 30
0.0
  0
SEQEND
  5
2DA
330
2D5
100
AcDbEntity
  8
COTAS
370
     0
  0
HATCH
  5
2DB
330
2D1
100
AcDbEntity
  8
COTAS
 62
     3
420
    65280
100
AcDbHatch
 10
0.0
 20
0.0
 30
0.0
210
0.0
220
0.0
230
1.0
  2
SOLID
 70
     1
 71
     0
 91
        1
 92
        1
 93
        3
 72
     1
 10
42.1104634248931
 20
190.7474836432712
 11
43.1097140295899
 21
190.7474836432712
 72
     1
 10
43.1097140295899
 20
190.7474836432712
 11
42.61017485468545
 21
193.7448909475857
 72
     1
 10
42.61017485468545
 20
193.7448909475857
 11
42.1104634248931
 21
190.7474836432712
 97
        0
 75
     2
 76
     1
 98
        0
  0
ENDBLK
  5
2D4
330
2D1
100
AcDbEntity
  8
0
100
AcDbBlockEnd
  0
BLOCK
  5
2DE
330
2DC
100
AcDbEntity
  8
0
100
AcDbBlockBegin
  2
block 68
 70
     0
 71
     0
 10
0.0
 20
0.0
 30
0.0
  3
block 68
  1

  0
POLYLINE
  5
2E0
330
2DC
100
AcDbEntity
  8
COTAS
370
     0
100
AcDb2dPolyline
 66
     1
 10
0.0
 20
0.0
 30
0.0
  0
VERTEX
  5
2E1
330
2E0
100
AcDbEntity
  8
COTAS
370
     0
100
AcDbVertex
100
AcDb2dVertex
 10
42.1104634248931
 20
210.7304286785522
 30
0.0
  0
VERTEX
  5
2E2
330
2E0
100
AcDbEntity
  8
COTAS
370
     0
100
AcDbVertex
100
AcDb2dVertex
 10
43.1097140295899
 20
210.7304286785522
 30
0.0
  0
VERTEX
  5
2E3
330
2E0
100
AcDbEntity
  8
COTAS
370
     0
100
AcDbVertex
100
AcDb2dVertex
 10
42.61017485468545
 20
207.7330213742376
 30
0.0
  0
VERTEX
  5
2E4
330
2E0
100
AcDbEntity
  8
COTAS
370
     0
100
AcDbVertex
100
AcDb2dVertex
 10
42.1104634248931
 20
210.7304286785522
 30
0.0
  0
SEQEND
  5
2E5
330
2E0
100
AcDbEntity
  8
COTAS
370
     0
  0
HATCH
  5
2E6
330
2DC
100
AcDbEntity
  8
COTAS
 62
     3
420
    65280
100
AcDbHatch
 10
0.0
 20
0.0
 30
0.0
210
0.0
220
0.0
230
1.0
  2
SOLID
 70
     1
 71
     0
 91
        1
 92
        1
 93
        3
 72
     1
 10
42.1104634248931
 20
210.7304286785522
 11
43.1097140295899
 21
210.7304286785522
 72
     1
 10
43.1097140295899
 20
210.7304286785522
 11
42.61017485468545
 21
207.7330213742376
 72
     1
 10
42.61017485468545
 20
207.7330213742376
 11
42.1104634248931
 21
210.7304286785522
 97
        0
 75
     2
 76
     1
 98
        0
  0
ENDBLK
  5
2DF
330
2DC
100
AcDbEntity
  8
0
100
AcDbBlockEnd
  0
BLOCK
  5
2E9
330
2E7
100
AcDbEntity
  8
0
100
AcDbBlockBegin
  2
block 69
 70
     0
 71
     0
 10
0.0
 20
0.0
 30
0.0
  3
block 69
  1

  0
MTEXT
  5
2EB
330
2E7
100
AcDbEntity
  8
COTAS
 62
     6
420
 16711935
100
AcDbMText
 10
43.85919504683446
 20
197.0845687141538
 30
0.0
 40
2.497883457403663
 41
0.0
 71
     7
 72
     1
  1
\fMyriad Pro|b0|i0|c0|p34;\W1;140
 11
-4.371139000186241E-8
 21
0.999999999999999
 31
0.0
 73
     1
 44
1.0
  0
ENDBLK
  5
2EA
330
2E7
100
AcDbEntity
  8
0
100
AcDbBlockEnd
  0
BLOCK
  5
2EE
330
2EC
100
AcDbEntity
  8
0
100
AcDbBlockBegin
  2
block 70
 70
     0
 71
     0
 10
0.0
 20
0.0
 30
0.0
  3
block 70
  1

  0
POLYLINE
  5
2F0
330
2EC
100
AcDbEntity
  8
COTAS
370
     0
100
AcDb2dPolyline
 66
     1
 10
0.0
 20
0.0
 30
0.0
  0
VERTEX
  5
2F1
330
2F0
100
AcDbEntity
  8
COTAS
370
     0
100
AcDbVertex
100
AcDb2dVertex
 10
44.37354814209814
 20
193.7448909475857
 30
0.0
  0
VERTEX
  5
2F2
330
2F0
100
AcDbEntity
  8
COTAS
370
     0
100
AcDbVertex
100
AcDb2dVertex
 10
44.37354814209814
 20
193.7448909475857
 30
0.0
  0
SEQEND
  5
2F3
330
2F0
100
AcDbEntity
  8
COTAS
370
     0
  0
ENDBLK
  5
2EF
330
2EC
100
AcDbEntity
  8
0
100
AcDbBlockEnd
  0
BLOCK
  5
2F6
330
2F4
100
AcDbEntity
  8
0
100
AcDbBlockBegin
  2
block 71
 70
     0
 71
     0
 10
0.0
 20
0.0
 30
0.0
  3
block 71
  1

  0
POLYLINE
  5
2F8
330
2F4
100
AcDbEntity
  8
COTAS
370
     0
100
AcDb2dPolyline
 66
     1
 10
0.0
 20
0.0
 30
0.0
  0
VERTEX
  5
2F9
330
2F8
100
AcDbEntity
  8
COTAS
370
     0
100
AcDbVertex
100
AcDb2dVertex
 10
57.44511031024427
 20
207.7330213742376
 30
0.0
  0
VERTEX
  5
2FA
330
2F8
100
AcDbEntity
  8
COTAS
370
     0
100
AcDbVertex
100
AcDb2dVertex
 10
57.44511031024427
 20
207.7330213742376
 30
0.0
  0
SEQEND
  5
2FB
330
2F8
100
AcDbEntity
  8
COTAS
370
     0
  0
ENDBLK
  5
2F7
330
2F4
100
AcDbEntity
  8
0
100
AcDbBlockEnd
  0
BLOCK
  5
2FE
330
2FC
100
AcDbEntity
  8
0
100
AcDbBlockBegin
  2
block 72
 70
     0
 71
     0
 10
0.0
 20
0.0
 30
0.0
  3
block 72
  1

  0
POLYLINE
  5
300
330
2FC
100
AcDbEntity
  8
COTAS
370
     0
100
AcDb2dPolyline
 66
     1
 10
0.0
 20
0.0
 30
0.0
  0
VERTEX
  5
301
330
300
100
AcDbEntity
  8
COTAS
370
     0
100
AcDbVertex
100
AcDb2dVertex
 10
42.61017485468545
 20
207.7330213742376
 30
0.0
  0
VERTEX
  5
302
330
300
100
AcDbEntity
  8
COTAS
370
     0
100
AcDbVertex
100
AcDb2dVertex
 10
42.61017485468545
 20
207.7330213742376
 30
0.0
  0
SEQEND
  5
303
330
300
100
AcDbEntity
  8
COTAS
370
     0
  0
ENDBLK
  5
2FF
330
2FC
100
AcDbEntity
  8
0
100
AcDbBlockEnd
  0
BLOCK
  5
306
330
304
100
AcDbEntity
  8
0
100
AcDbBlockBegin
  2
block 73
 70
     0
 71
     0
 10
0.0
 20
0.0
 30
0.0
  3
block 73
  1

  0
INSERT
  5
309
330
304
100
AcDbEntity
  8
COTAS
100
AcDbBlockReference
  2
block 74
 10
0.0
 20
0.0
 30
0.0
  0
INSERT
  5
311
330
304
100
AcDbEntity
  8
COTAS
100
AcDbBlockReference
  2
block 75
 10
0.0
 20
0.0
 30
0.0
  0
INSERT
  5
319
330
304
100
AcDbEntity
  8
COTAS
100
AcDbBlockReference
  2
block 76
 10
0.0
 20
0.0
 30
0.0
  0
INSERT
  5
321
330
304
100
AcDbEntity
  8
COTAS
100
AcDbBlockReference
  2
block 77
 10
0.0
 20
0.0
 30
0.0
  0
INSERT
  5
329
330
304
100
AcDbEntity
  8
COTAS
100
AcDbBlockReference
  2
block 78
 10
0.0
 20
0.0
 30
0.0
  0
INSERT
  5
334
330
304
100
AcDbEntity
  8
COTAS
100
AcDbBlockReference
  2
block 79
 10
0.0
 20
0.0
 30
0.0
  0
INSERT
  5
33F
330
304
100
AcDbEntity
  8
COTAS
100
AcDbBlockReference
  2
block 80
 10
0.0
 20
0.0
 30
0.0
  0
INSERT
  5
344
330
304
100
AcDbEntity
  8
COTAS
100
AcDbBlockReference
  2
block 81
 10
0.0
 20
0.0
 30
0.0
  0
INSERT
  5
34C
330
304
100
AcDbEntity
  8
COTAS
100
AcDbBlockReference
  2
block 82
 10
0.0
 20
0.0
 30
0.0
  0
INSERT
  5
354
330
304
100
AcDbEntity
  8
COTAS
100
AcDbBlockReference
  2
block 83
 10
0.0
 20
0.0
 30
0.0
  0
ENDBLK
  5
307
330
304
100
AcDbEntity
  8
0
100
AcDbBlockEnd
  0
BLOCK
  5
30A
330
308
100
AcDbEntity
  8
0
100
AcDbBlockBegin
  2
block 74
 70
     0
 71
     0
 10
0.0
 20
0.0
 30
0.0
  3
block 74
  1

  0
POLYLINE
  5
30C
330
308
100
AcDbEntity
  8
COTAS
 62
     3
420
    65280
370
    25
100
AcDb2dPolyline
 66
     1
 10
0.0
 20
0.0
 30
0.0
  0
VERTEX
  5
30D
330
30C
100
AcDbEntity
  8
COTAS
 62
     3
420
    65280
370
    25
100
AcDbVertex
100
AcDb2dVertex
 10
73.21538980708971
 20
225.7178097099008
 30
0.0
  0
VERTEX
  5
30E
330
30C
100
AcDbEntity
  8
COTAS
 62
     3
420
    65280
370
    25
100
AcDbVertex
100
AcDb2dVertex
 10
87.09276034082308
 20
225.7178097099008
 30
0.0
  0
SEQEND
  5
30F
330
30C
100
AcDbEntity
  8
COTAS
370
    25
  0
ENDBLK
  5
30B
330
308
100
AcDbEntity
  8
0
100
AcDbBlockEnd
  0
BLOCK
  5
312
330
310
100
AcDbEntity
  8
0
100
AcDbBlockBegin
  2
block 75
 70
     0
 71
     0
 10
0.0
 20
0.0
 30
0.0
  3
block 75
  1

  0
POLYLINE
  5
314
330
310
100
AcDbEntity
  8
COTAS
 62
     3
420
    65280
370
    25
100
AcDb2dPolyline
 66
     1
 10
0.0
 20
0.0
 30
0.0
  0
VERTEX
  5
315
330
314
100
AcDbEntity
  8
COTAS
 62
     3
420
    65280
370
    25
100
AcDbVertex
100
AcDb2dVertex
 10
82.847194118799
 20
193.7448909475857
 30
0.0
  0
VERTEX
  5
316
330
314
100
AcDbEntity
  8
COTAS
 62
     3
420
    65280
370
    25
100
AcDbVertex
100
AcDb2dVertex
 10
87.09276034082308
 20
193.7448909475857
 30
0.0
  0
SEQEND
  5
317
330
314
100
AcDbEntity
  8
COTAS
370
    25
  0
ENDBLK
  5
313
330
310
100
AcDbEntity
  8
0
100
AcDbBlockEnd
  0
BLOCK
  5
31A
330
318
100
AcDbEntity
  8
0
100
AcDbBlockBegin
  2
block 76
 70
     0
 71
     0
 10
0.0
 20
0.0
 30
0.0
  3
block 76
  1

  0
POLYLINE
  5
31C
330
318
100
AcDbEntity
  8
COTAS
 62
     3
420
    65280
370
    25
100
AcDb2dPolyline
 66
     1
 10
0.0
 20
0.0
 30
0.0
  0
VERTEX
  5
31D
330
31C
100
AcDbEntity
  8
COTAS
 62
     3
420
    65280
370
    25
100
AcDbVertex
100
AcDb2dVertex
 10
85.0944313863174
 20
222.7204024055862
 30
0.0
  0
VERTEX
  5
31E
330
31C
100
AcDbEntity
  8
COTAS
 62
     3
420
    65280
370
    25
100
AcDbVertex
100
AcDb2dVertex
 10
85.0944313863174
 20
213.9421210634119
 30
0.0
  0
SEQEND
  5
31F
330
31C
100
AcDbEntity
  8
COTAS
370
    25
  0
ENDBLK
  5
31B
330
318
100
AcDbEntity
  8
0
100
AcDbBlockEnd
  0
BLOCK
  5
322
330
320
100
AcDbEntity
  8
0
100
AcDbBlockBegin
  2
block 77
 70
     0
 71
     0
 10
0.0
 20
0.0
 30
0.0
  3
block 77
  1

  0
POLYLINE
  5
324
330
320
100
AcDbEntity
  8
COTAS
 62
     3
420
    65280
370
    25
100
AcDb2dPolyline
 66
     1
 10
0.0
 20
0.0
 30
0.0
  0
VERTEX
  5
325
330
324
100
AcDbEntity
  8
COTAS
 62
     3
420
    65280
370
    25
100
AcDbVertex
100
AcDb2dVertex
 10
85.0944313863174
 20
196.7422982519003
 30
0.0
  0
VERTEX
  5
326
330
324
100
AcDbEntity
  8
COTAS
 62
     3
420
    65280
370
    25
100
AcDbVertex
100
AcDb2dVertex
 10
85.0944313863174
 20
205.5205795940746
 30
0.0
  0
SEQEND
  5
327
330
324
100
AcDbEntity
  8
COTAS
370
    25
  0
ENDBLK
  5
323
330
320
100
AcDbEntity
  8
0
100
AcDbBlockEnd
  0
BLOCK
  5
32A
330
328
100
AcDbEntity
  8
0
100
AcDbBlockBegin
  2
block 78
 70
     0
 71
     0
 10
0.0
 20
0.0
 30
0.0
  3
block 78
  1

  0
POLYLINE
  5
32C
330
328
100
AcDbEntity
  8
COTAS
370
     0
100
AcDb2dPolyline
 66
     1
 10
0.0
 20
0.0
 30
0.0
  0
VERTEX
  5
32D
330
32C
100
AcDbEntity
  8
COTAS
370
     0
100
AcDbVertex
100
AcDb2dVertex
 10
84.59489221141295
 20
222.7204024055862
 30
0.0
  0
VERTEX
  5
32E
330
32C
100
AcDbEntity
  8
COTAS
370
     0
100
AcDbVertex
100
AcDb2dVertex
 10
85.59414281610974
 20
222.7204024055862
 30
0.0
  0
VERTEX
  5
32F
330
32C
100
AcDbEntity
  8
COTAS
370
     0
100
AcDbVertex
100
AcDb2dVertex
 10
85.0944313863174
 20
225.7178097099008
 30
0.0
  0
VERTEX
  5
330
330
32C
100
AcDbEntity
  8
COTAS
370
     0
100
AcDbVertex
100
AcDb2dVertex
 10
84.59489221141295
 20
222.7204024055862
 30
0.0
  0
SEQEND
  5
331
330
32C
100
AcDbEntity
  8
COTAS
370
     0
  0
HATCH
  5
332
330
328
100
AcDbEntity
  8
COTAS
 62
     3
420
    65280
100
AcDbHatch
 10
0.0
 20
0.0
 30
0.0
210
0.0
220
0.0
230
1.0
  2
SOLID
 70
     1
 71
     0
 91
        1
 92
        1
 93
        3
 72
     1
 10
84.59489221141295
 20
222.7204024055862
 11
85.59414281610974
 21
222.7204024055862
 72
     1
 10
85.59414281610974
 20
222.7204024055862
 11
85.0944313863174
 21
225.7178097099008
 72
     1
 10
85.0944313863174
 20
225.7178097099008
 11
84.59489221141295
 21
222.7204024055862
 97
        0
 75
     2
 76
     1
 98
        0
  0
ENDBLK
  5
32B
330
328
100
AcDbEntity
  8
0
100
AcDbBlockEnd
  0
BLOCK
  5
335
330
333
100
AcDbEntity
  8
0
100
AcDbBlockBegin
  2
block 79
 70
     0
 71
     0
 10
0.0
 20
0.0
 30
0.0
  3
block 79
  1

  0
POLYLINE
  5
337
330
333
100
AcDbEntity
  8
COTAS
370
     0
100
AcDb2dPolyline
 66
     1
 10
0.0
 20
0.0
 30
0.0
  0
VERTEX
  5
338
330
337
100
AcDbEntity
  8
COTAS
370
     0
100
AcDbVertex
100
AcDb2dVertex
 10
84.59489221141295
 20
196.7422982519003
 30
0.0
  0
VERTEX
  5
339
330
337
100
AcDbEntity
  8
COTAS
370
     0
100
AcDbVertex
100
AcDb2dVertex
 10
85.59414281610974
 20
196.7422982519003
 30
0.0
  0
VERTEX
  5
33A
330
337
100
AcDbEntity
  8
COTAS
370
     0
100
AcDbVertex
100
AcDb2dVertex
 10
85.0944313863174
 20
193.7448909475857
 30
0.0
  0
VERTEX
  5
33B
330
337
100
AcDbEntity
  8
COTAS
370
     0
100
AcDbVertex
100
AcDb2dVertex
 10
84.59489221141295
 20
196.7422982519003
 30
0.0
  0
SEQEND
  5
33C
330
337
100
AcDbEntity
  8
COTAS
370
     0
  0
HATCH
  5
33D
330
333
100
AcDbEntity
  8
COTAS
 62
     3
420
    65280
100
AcDbHatch
 10
0.0
 20
0.0
 30
0.0
210
0.0
220
0.0
230
1.0
  2
SOLID
 70
     1
 71
     0
 91
        1
 92
        1
 93
        3
 72
     1
 10
84.59489221141295
 20
196.7422982519003
 11
85.59414281610974
 21
196.7422982519003
 72
     1
 10
85.59414281610974
 20
196.7422982519003
 11
85.0944313863174
 21
193.7448909475857
 72
     1
 10
85.0944313863174
 20
193.7448909475857
 11
84.59489221141295
 21
196.7422982519003
 97
        0
 75
     2
 76
     1
 98
        0
  0
ENDBLK
  5
336
330
333
100
AcDbEntity
  8
0
100
AcDbBlockEnd
  0
BLOCK
  5
340
330
33E
100
AcDbEntity
  8
0
100
AcDbBlockBegin
  2
block 80
 70
     0
 71
     0
 10
0.0
 20
0.0
 30
0.0
  3
block 80
  1

  0
MTEXT
  5
342
330
33E
100
AcDbEntity
  8
COTAS
 62
     6
420
 16711935
100
AcDbMText
 10
86.34345157846641
 20
206.1630903259344
 30
0.0
 40
2.497883457403663
 41
0.0
 71
     7
 72
     1
  1
\fMyriad Pro|b0|i0|c0|p34;\W1;320
 11
-4.371139000186241E-8
 21
0.999999999999999
 31
0.0
 73
     1
 44
1.0
  0
ENDBLK
  5
341
330
33E
100
AcDbEntity
  8
0
100
AcDbBlockEnd
  0
BLOCK
  5
345
330
343
100
AcDbEntity
  8
0
100
AcDbBlockBegin
  2
block 81
 70
     0
 71
     0
 10
0.0
 20
0.0
 30
0.0
  3
block 81
  1

  0
POLYLINE
  5
347
330
343
100
AcDbEntity
  8
COTAS
370
     0
100
AcDb2dPolyline
 66
     1
 10
0.0
 20
0.0
 30
0.0
  0
VERTEX
  5
348
330
347
100
AcDbEntity
  8
COTAS
370
     0
100
AcDbVertex
100
AcDb2dVertex
 10
73.21538980708971
 20
225.7178097099008
 30
0.0
  0
VERTEX
  5
349
330
347
100
AcDbEntity
  8
COTAS
370
     0
100
AcDbVertex
100
AcDb2dVertex
 10
73.21538980708971
 20
225.7178097099008
 30
0.0
  0
SEQEND
  5
34A
330
347
100
AcDbEntity
  8
COTAS
370
     0
  0
ENDBLK
  5
346
330
343
100
AcDbEntity
  8
0
100
AcDbBlockEnd
  0
BLOCK
  5
34D
330
34B
100
AcDbEntity
  8
0
100
AcDbBlockBegin
  2
block 82
 70
     0
 71
     0
 10
0.0
 20
0.0
 30
0.0
  3
block 82
  1

  0
POLYLINE
  5
34F
330
34B
100
AcDbEntity
  8
COTAS
370
     0
100
AcDb2dPolyline
 66
     1
 10
0.0
 20
0.0
 30
0.0
  0
VERTEX
  5
350
330
34F
100
AcDbEntity
  8
COTAS
370
     0
100
AcDbVertex
100
AcDb2dVertex
 10
82.847194118799
 20
193.7448909475857
 30
0.0
  0
VERTEX
  5
351
330
34F
100
AcDbEntity
  8
COTAS
370
     0
100
AcDbVertex
100
AcDb2dVertex
 10
82.847194118799
 20
193.7448909475857
 30
0.0
  0
SEQEND
  5
352
330
34F
100
AcDbEntity
  8
COTAS
370
     0
  0
ENDBLK
  5
34E
330
34B
100
AcDbEntity
  8
0
100
AcDbBlockEnd
  0
BLOCK
  5
355
330
353
100
AcDbEntity
  8
0
100
AcDbBlockBegin
  2
block 83
 70
     0
 71
     0
 10
0.0
 20
0.0
 30
0.0
  3
block 83
  1

  0
POLYLINE
  5
357
330
353
100
AcDbEntity
  8
COTAS
370
     0
100
AcDb2dPolyline
 66
     1
 10
0.0
 20
0.0
 30
0.0
  0
VERTEX
  5
358
330
357
100
AcDbEntity
  8
COTAS
370
     0
100
AcDbVertex
100
AcDb2dVertex
 10
85.0944313863174
 20
193.7448909475857
 30
0.0
  0
VERTEX
  5
359
330
357
100
AcDbEntity
  8
COTAS
370
     0
100
AcDbVertex
100
AcDb2dVertex
 10
85.0944313863174
 20
193.7448909475857
 30
0.0
  0
SEQEND
  5
35A
330
357
100
AcDbEntity
  8
COTAS
370
     0
  0
ENDBLK
  5
356
330
353
100
AcDbEntity
  8
0
100
AcDbBlockEnd
  0
BLOCK
  5
35D
330
35B
100
AcDbEntity
  8
0
100
AcDbBlockBegin
  2
block 84
 70
     0
 71
     0
 10
0.0
 20
0.0
 30
0.0
  3
block 84
  1

  0
INSERT
  5
360
330
35B
100
AcDbEntity
  8
COTAS
100
AcDbBlockReference
  2
block 85
 10
0.0
 20
0.0
 30
0.0
  0
INSERT
  5
368
330
35B
100
AcDbEntity
  8
COTAS
100
AcDbBlockReference
  2
block 86
 10
0.0
 20
0.0
 30
0.0
  0
INSERT
  5
370
330
35B
100
AcDbEntity
  8
COTAS
100
AcDbBlockReference
  2
block 87
 10
0.0
 20
0.0
 30
0.0
  0
INSERT
  5
378
330
35B
100
AcDbEntity
  8
COTAS
100
AcDbBlockReference
  2
block 88
 10
0.0
 20
0.0
 30
0.0
  0
INSERT
  5
380
330
35B
100
AcDbEntity
  8
COTAS
100
AcDbBlockReference
  2
block 89
 10
0.0
 20
0.0
 30
0.0
  0
INSERT
  5
38B
330
35B
100
AcDbEntity
  8
COTAS
100
AcDbBlockReference
  2
block 90
 10
0.0
 20
0.0
 30
0.0
  0
INSERT
  5
396
330
35B
100
AcDbEntity
  8
COTAS
100
AcDbBlockReference
  2
block 91
 10
0.0
 20
0.0
 30
0.0
  0
INSERT
  5
39B
330
35B
100
AcDbEntity
  8
COTAS
100
AcDbBlockReference
  2
block 92
 10
0.0
 20
0.0
 30
0.0
  0
INSERT
  5
3A3
330
35B
100
AcDbEntity
  8
COTAS
100
AcDbBlockReference
  2
block 93
 10
0.0
 20
0.0
 30
0.0
  0
INSERT
  5
3AB
330
35B
100
AcDbEntity
  8
COTAS
100
AcDbBlockReference
  2
block 94
 10
0.0
 20
0.0
 30
0.0
  0
ENDBLK
  5
35E
330
35B
100
AcDbEntity
  8
0
100
AcDbBlockEnd
  0
BLOCK
  5
361
330
35F
100
AcDbEntity
  8
0
100
AcDbBlockBegin
  2
block 85
 70
     0
 71
     0
 10
0.0
 20
0.0
 30
0.0
  3
block 85
  1

  0
POLYLINE
  5
363
330
35F
100
AcDbEntity
  8
COTAS
 62
     3
420
    65280
370
    25
100
AcDb2dPolyline
 66
     1
 10
0.0
 20
0.0
 30
0.0
  0
VERTEX
  5
364
330
363
100
AcDbEntity
  8
COTAS
 62
     3
420
    65280
370
    25
100
AcDbVertex
100
AcDb2dVertex
 10
51.97808467813487
 20
228.9703265031924
 30
0.0
  0
VERTEX
  5
365
330
363
100
AcDbEntity
  8
COTAS
 62
     3
420
    65280
370
    25
100
AcDbVertex
100
AcDb2dVertex
 10
51.97808467813487
 20
241.7619744785042
 30
0.0
  0
SEQEND
  5
366
330
363
100
AcDbEntity
  8
COTAS
370
    25
  0
ENDBLK
  5
362
330
35F
100
AcDbEntity
  8
0
100
AcDbBlockEnd
  0
BLOCK
  5
369
330
367
100
AcDbEntity
  8
0
100
AcDbBlockBegin
  2
block 86
 70
     0
 71
     0
 10
0.0
 20
0.0
 30
0.0
  3
block 86
  1

  0
POLYLINE
  5
36B
330
367
100
AcDbEntity
  8
COTAS
 62
     3
420
    65280
370
    25
100
AcDb2dPolyline
 66
     1
 10
0.0
 20
0.0
 30
0.0
  0
VERTEX
  5
36C
330
36B
100
AcDbEntity
  8
COTAS
 62
     3
420
    65280
370
    25
100
AcDbVertex
100
AcDb2dVertex
 10
69.96287301379807
 20
228.9703265031924
 30
0.0
  0
VERTEX
  5
36D
330
36B
100
AcDbEntity
  8
COTAS
 62
     3
420
    65280
370
    25
100
AcDbVertex
100
AcDb2dVertex
 10
69.96287301379807
 20
241.7619744785042
 30
0.0
  0
SEQEND
  5
36E
330
36B
100
AcDbEntity
  8
COTAS
370
    25
  0
ENDBLK
  5
36A
330
367
100
AcDbEntity
  8
0
100
AcDbBlockEnd
  0
BLOCK
  5
371
330
36F
100
AcDbEntity
  8
0
100
AcDbBlockBegin
  2
block 87
 70
     0
 71
     0
 10
0.0
 20
0.0
 30
0.0
  3
block 87
  1

  0
POLYLINE
  5
373
330
36F
100
AcDbEntity
  8
COTAS
 62
     3
420
    65280
370
    25
100
AcDb2dPolyline
 66
     1
 10
0.0
 20
0.0
 30
0.0
  0
VERTEX
  5
374
330
373
100
AcDbEntity
  8
COTAS
 62
     3
420
    65280
370
    25
100
AcDbVertex
100
AcDb2dVertex
 10
54.97566423733734
 20
239.7636455239985
 30
0.0
  0
VERTEX
  5
375
330
373
100
AcDbEntity
  8
COTAS
 62
     3
420
    65280
370
    25
100
AcDbVertex
100
AcDb2dVertex
 10
56.93816417516021
 20
239.7636455239985
 30
0.0
  0
SEQEND
  5
376
330
373
100
AcDbEntity
  8
COTAS
370
    25
  0
ENDBLK
  5
372
330
36F
100
AcDbEntity
  8
0
100
AcDbBlockEnd
  0
BLOCK
  5
379
330
377
100
AcDbEntity
  8
0
100
AcDbBlockBegin
  2
block 88
 70
     0
 71
     0
 10
0.0
 20
0.0
 30
0.0
  3
block 88
  1

  0
POLYLINE
  5
37B
330
377
100
AcDbEntity
  8
COTAS
 62
     3
420
    65280
370
    25
100
AcDb2dPolyline
 66
     1
 10
0.0
 20
0.0
 30
0.0
  0
VERTEX
  5
37C
330
37B
100
AcDbEntity
  8
COTAS
 62
     3
420
    65280
370
    25
100
AcDbVertex
100
AcDb2dVertex
 10
66.96546570948351
 20
239.7636455239985
 30
0.0
  0
VERTEX
  5
37D
330
37B
100
AcDbEntity
  8
COTAS
 62
     3
420
    65280
370
    25
100
AcDbVertex
100
AcDb2dVertex
 10
65.00279351677273
 20
239.7636455239985
 30
0.0
  0
SEQEND
  5
37E
330
37B
100
AcDbEntity
  8
COTAS
370
    25
  0
ENDBLK
  5
37A
330
377
100
AcDbEntity
  8
0
100
AcDbBlockEnd
  0
BLOCK
  5
381
330
37F
100
AcDbEntity
  8
0
100
AcDbBlockBegin
  2
block 89
 70
     0
 71
     0
 10
0.0
 20
0.0
 30
0.0
  3
block 89
  1

  0
POLYLINE
  5
383
330
37F
100
AcDbEntity
  8
COTAS
370
     0
100
AcDb2dPolyline
 66
     1
 10
0.0
 20
0.0
 30
0.0
  0
VERTEX
  5
384
330
383
100
AcDbEntity
  8
COTAS
370
     0
100
AcDbVertex
100
AcDb2dVertex
 10
54.97566423733734
 20
240.2631846989029
 30
0.0
  0
VERTEX
  5
385
330
383
100
AcDbEntity
  8
COTAS
370
     0
100
AcDbVertex
100
AcDb2dVertex
 10
54.97566423733734
 20
239.264106349094
 30
0.0
  0
VERTEX
  5
386
330
383
100
AcDbEntity
  8
COTAS
370
     0
100
AcDbVertex
100
AcDb2dVertex
 10
51.97808467813487
 20
239.7636455239985
 30
0.0
  0
VERTEX
  5
387
330
383
100
AcDbEntity
  8
COTAS
370
     0
100
AcDbVertex
100
AcDb2dVertex
 10
54.97566423733734
 20
240.2631846989029
 30
0.0
  0
SEQEND
  5
388
330
383
100
AcDbEntity
  8
COTAS
370
     0
  0
HATCH
  5
389
330
37F
100
AcDbEntity
  8
COTAS
 62
     3
420
    65280
100
AcDbHatch
 10
0.0
 20
0.0
 30
0.0
210
0.0
220
0.0
230
1.0
  2
SOLID
 70
     1
 71
     0
 91
        1
 92
        1
 93
        3
 72
     1
 10
54.97566423733734
 20
240.2631846989029
 11
54.97566423733734
 21
239.264106349094
 72
     1
 10
54.97566423733734
 20
239.264106349094
 11
51.97808467813487
 21
239.7636455239985
 72
     1
 10
51.97808467813487
 20
239.7636455239985
 11
54.97566423733734
 21
240.2631846989029
 97
        0
 75
     2
 76
     1
 98
        0
  0
ENDBLK
  5
382
330
37F
100
AcDbEntity
  8
0
100
AcDbBlockEnd
  0
BLOCK
  5
38C
330
38A
100
AcDbEntity
  8
0
100
AcDbBlockBegin
  2
block 90
 70
     0
 71
     0
 10
0.0
 20
0.0
 30
0.0
  3
block 90
  1

  0
POLYLINE
  5
38E
330
38A
100
AcDbEntity
  8
COTAS
370
     0
100
AcDb2dPolyline
 66
     1
 10
0.0
 20
0.0
 30
0.0
  0
VERTEX
  5
38F
330
38E
100
AcDbEntity
  8
COTAS
370
     0
100
AcDbVertex
100
AcDb2dVertex
 10
66.96546570948351
 20
240.2631846989029
 30
0.0
  0
VERTEX
  5
390
330
38E
100
AcDbEntity
  8
COTAS
370
     0
100
AcDbVertex
100
AcDb2dVertex
 10
66.96546570948351
 20
239.264106349094
 30
0.0
  0
VERTEX
  5
391
330
38E
100
AcDbEntity
  8
COTAS
370
     0
100
AcDbVertex
100
AcDb2dVertex
 10
69.96287301379807
 20
239.7636455239985
 30
0.0
  0
VERTEX
  5
392
330
38E
100
AcDbEntity
  8
COTAS
370
     0
100
AcDbVertex
100
AcDb2dVertex
 10
66.96546570948351
 20
240.2631846989029
 30
0.0
  0
SEQEND
  5
393
330
38E
100
AcDbEntity
  8
COTAS
370
     0
  0
HATCH
  5
394
330
38A
100
AcDbEntity
  8
COTAS
 62
     3
420
    65280
100
AcDbHatch
 10
0.0
 20
0.0
 30
0.0
210
0.0
220
0.0
230
1.0
  2
SOLID
 70
     1
 71
     0
 91
        1
 92
        1
 93
        3
 72
     1
 10
66.96546570948351
 20
240.2631846989029
 11
66.96546570948351
 21
239.264106349094
 72
     1
 10
66.96546570948351
 20
239.264106349094
 11
69.96287301379807
 21
239.7636455239985
 72
     1
 10
69.96287301379807
 20
239.7636455239985
 11
66.96546570948351
 21
240.2631846989029
 97
        0
 75
     2
 76
     1
 98
        0
  0
ENDBLK
  5
38D
330
38A
100
AcDbEntity
  8
0
100
AcDbBlockEnd
  0
BLOCK
  5
397
330
395
100
AcDbEntity
  8
0
100
AcDbBlockBegin
  2
block 91
 70
     0
 71
     0
 10
0.0
 20
0.0
 30
0.0
  3
block 91
  1

  0
MTEXT
  5
399
330
395
100
AcDbEntity
  8
COTAS
 62
     6
420
 16711935
100
AcDbMText
 10
57.22376277929524
 20
238.5147975867374
 30
0.0
 40
2.497883457403663
 41
0.0
 71
     7
 72
     1
  1
\fMyriad Pro|b0|i0|c0|p34;\W1;180
 73
     1
 44
1.0
  0
ENDBLK
  5
398
330
395
100
AcDbEntity
  8
0
100
AcDbBlockEnd
  0
BLOCK
  5
39C
330
39A
100
AcDbEntity
  8
0
100
AcDbBlockBegin
  2
block 92
 70
     0
 71
     0
 10
0.0
 20
0.0
 30
0.0
  3
block 92
  1

  0
POLYLINE
  5
39E
330
39A
100
AcDbEntity
  8
COTAS
370
     0
100
AcDb2dPolyline
 66
     1
 10
0.0
 20
0.0
 30
0.0
  0
VERTEX
  5
39F
330
39E
100
AcDbEntity
  8
COTAS
370
     0
100
AcDbVertex
100
AcDb2dVertex
 10
51.97808467813487
 20
228.9703265031924
 30
0.0
  0
VERTEX
  5
3A0
330
39E
100
AcDbEntity
  8
COTAS
370
     0
100
AcDbVertex
100
AcDb2dVertex
 10
51.97808467813487
 20
228.9703265031924
 30
0.0
  0
SEQEND
  5
3A1
330
39E
100
AcDbEntity
  8
COTAS
370
     0
  0
ENDBLK
  5
39D
330
39A
100
AcDbEntity
  8
0
100
AcDbBlockEnd
  0
BLOCK
  5
3A4
330
3A2
100
AcDbEntity
  8
0
100
AcDbBlockBegin
  2
block 93
 70
     0
 71
     0
 10
0.0
 20
0.0
 30
0.0
  3
block 93
  1

  0
POLYLINE
  5
3A6
330
3A2
100
AcDbEntity
  8
COTAS
370
     0
100
AcDb2dPolyline
 66
     1
 10
0.0
 20
0.0
 30
0.0
  0
VERTEX
  5
3A7
330
3A6
100
AcDbEntity
  8
COTAS
370
     0
100
AcDbVertex
100
AcDb2dVertex
 10
69.96287301379807
 20
228.9703265031924
 30
0.0
  0
VERTEX
  5
3A8
330
3A6
100
AcDbEntity
  8
COTAS
370
     0
100
AcDbVertex
100
AcDb2dVertex
 10
69.96287301379807
 20
228.9703265031924
 30
0.0
  0
SEQEND
  5
3A9
330
3A6
100
AcDbEntity
  8
COTAS
370
     0
  0
ENDBLK
  5
3A5
330
3A2
100
AcDbEntity
  8
0
100
AcDbBlockEnd
  0
BLOCK
  5
3AC
330
3AA
100
AcDbEntity
  8
0
100
AcDbBlockBegin
  2
block 94
 70
     0
 71
     0
 10
0.0
 20
0.0
 30
0.0
  3
block 94
  1

  0
POLYLINE
  5
3AE
330
3AA
100
AcDbEntity
  8
COTAS
370
     0
100
AcDb2dPolyline
 66
     1
 10
0.0
 20
0.0
 30
0.0
  0
VERTEX
  5
3AF
330
3AE
100
AcDbEntity
  8
COTAS
370
     0
100
AcDbVertex
100
AcDb2dVertex
 10
69.96287301379807
 20
239.7636455239985
 30
0.0
  0
VERTEX
  5
3B0
330
3AE
100
AcDbEntity
  8
COTAS
370
     0
100
AcDbVertex
100
AcDb2dVertex
 10
69.96287301379807
 20
239.7636455239985
 30
0.0
  0
SEQEND
  5
3B1
330
3AE
100
AcDbEntity
  8
COTAS
370
     0
  0
ENDBLK
  5
3AD
330
3AA
100
AcDbEntity
  8
0
100
AcDbBlockEnd
  0
BLOCK
  5
3B4
330
3B2
100
AcDbEntity
  8
0
100
AcDbBlockBegin
  2
block 95
 70
     0
 71
     0
 10
0.0
 20
0.0
 30
0.0
  3
block 95
  1

  0
INSERT
  5
3B7
330
3B2
100
AcDbEntity
  8
COTAS
100
AcDbBlockReference
  2
block 96
 10
0.0
 20
0.0
 30
0.0
  0
INSERT
  5
3BF
330
3B2
100
AcDbEntity
  8
COTAS
100
AcDbBlockReference
  2
block 97
 10
0.0
 20
0.0
 30
0.0
  0
INSERT
  5
3C7
330
3B2
100
AcDbEntity
  8
COTAS
100
AcDbBlockReference
  2
block 98
 10
0.0
 20
0.0
 30
0.0
  0
INSERT
  5
3CF
330
3B2
100
AcDbEntity
  8
COTAS
100
AcDbBlockReference
  2
block 99
 10
0.0
 20
0.0
 30
0.0
  0
INSERT
  5
3D7
330
3B2
100
AcDbEntity
  8
COTAS
100
AcDbBlockReference
  2
block 100
 10
0.0
 20
0.0
 30
0.0
  0
INSERT
  5
3E2
330
3B2
100
AcDbEntity
  8
COTAS
100
AcDbBlockReference
  2
block 101
 10
0.0
 20
0.0
 30
0.0
  0
INSERT
  5
3ED
330
3B2
100
AcDbEntity
  8
COTAS
100
AcDbBlockReference
  2
block 102
 10
0.0
 20
0.0
 30
0.0
  0
INSERT
  5
3F2
330
3B2
100
AcDbEntity
  8
COTAS
100
AcDbBlockReference
  2
block 103
 10
0.0
 20
0.0
 30
0.0
  0
INSERT
  5
3FA
330
3B2
100
AcDbEntity
  8
COTAS
100
AcDbBlockReference
  2
block 104
 10
0.0
 20
0.0
 30
0.0
  0
INSERT
  5
402
330
3B2
100
AcDbEntity
  8
COTAS
100
AcDbBlockReference
  2
block 105
 10
0.0
 20
0.0
 30
0.0
  0
ENDBLK
  5
3B5
330
3B2
100
AcDbEntity
  8
0
100
AcDbBlockEnd
  0
BLOCK
  5
3B8
330
3B6
100
AcDbEntity
  8
0
100
AcDbBlockBegin
  2
block 96
 70
     0
 71
     0
 10
0.0
 20
0.0
 30
0.0
  3
block 96
  1

  0
POLYLINE
  5
3BA
330
3B6
100
AcDbEntity
  8
COTAS
 62
     3
420
    65280
370
    25
100
AcDb2dPolyline
 66
     1
 10
0.0
 20
0.0
 30
0.0
  0
VERTEX
  5
3BB
330
3BA
100
AcDbEntity
  8
COTAS
 62
     3
420
    65280
370
    25
100
AcDbVertex
100
AcDb2dVertex
 10
55.97474258714623
 20
201.1671818122263
 30
0.0
  0
VERTEX
  5
3BC
330
3BA
100
AcDbEntity
  8
COTAS
 62
     3
420
    65280
370
    25
100
AcDbVertex
100
AcDb2dVertex
 10
55.97474258714623
 20
195.0755599565985
 30
0.0
  0
SEQEND
  5
3BD
330
3BA
100
AcDbEntity
  8
COTAS
370
    25
  0
ENDBLK
  5
3B9
330
3B6
100
AcDbEntity
  8
0
100
AcDbBlockEnd
  0
BLOCK
  5
3C0
330
3BE
100
AcDbEntity
  8
0
100
AcDbBlockBegin
  2
block 97
 70
     0
 71
     0
 10
0.0
 20
0.0
 30
0.0
  3
block 97
  1

  0
POLYLINE
  5
3C2
330
3BE
100
AcDbEntity
  8
COTAS
 62
     3
420
    65280
370
    25
100
AcDb2dPolyline
 66
     1
 10
0.0
 20
0.0
 30
0.0
  0
VERTEX
  5
3C3
330
3C2
100
AcDbEntity
  8
COTAS
 62
     3
420
    65280
370
    25
100
AcDbVertex
100
AcDb2dVertex
 10
65.96621510478671
 20
201.4655272780658
 30
0.0
  0
VERTEX
  5
3C4
330
3C2
100
AcDbEntity
  8
COTAS
 62
     3
420
    65280
370
    25
100
AcDbVertex
100
AcDb2dVertex
 10
65.96621510478671
 20
195.0755599565985
 30
0.0
  0
SEQEND
  5
3C5
330
3C2
100
AcDbEntity
  8
COTAS
370
    25
  0
ENDBLK
  5
3C1
330
3BE
100
AcDbEntity
  8
0
100
AcDbBlockEnd
  0
BLOCK
  5
3C8
330
3C6
100
AcDbEntity
  8
0
100
AcDbBlockBegin
  2
block 98
 70
     0
 71
     0
 10
0.0
 20
0.0
 30
0.0
  3
block 98
  1

  0
POLYLINE
  5
3CA
330
3C6
100
AcDbEntity
  8
COTAS
 62
     3
420
    65280
370
    25
100
AcDb2dPolyline
 66
     1
 10
0.0
 20
0.0
 30
0.0
  0
VERTEX
  5
3CB
330
3CA
100
AcDbEntity
  8
COTAS
 62
     3
420
    65280
370
    25
100
AcDbVertex
100
AcDb2dVertex
 10
52.97733528283166
 20
197.0738889111041
 30
0.0
  0
VERTEX
  5
3CC
330
3CA
100
AcDbEntity
  8
COTAS
 62
     3
420
    65280
370
    25
100
AcDbVertex
100
AcDb2dVertex
 10
49.9799279785171
 20
197.0738889111041
 30
0.0
  0
SEQEND
  5
3CD
330
3CA
100
AcDbEntity
  8
COTAS
370
    25
  0
ENDBLK
  5
3C9
330
3C6
100
AcDbEntity
  8
0
100
AcDbBlockEnd
  0
BLOCK
  5
3D0
330
3CE
100
AcDbEntity
  8
0
100
AcDbBlockBegin
  2
block 99
 70
     0
 71
     0
 10
0.0
 20
0.0
 30
0.0
  3
block 99
  1

  0
POLYLINE
  5
3D2
330
3CE
100
AcDbEntity
  8
COTAS
 62
     3
420
    65280
370
    25
100
AcDb2dPolyline
 66
     1
 10
0.0
 20
0.0
 30
0.0
  0
VERTEX
  5
3D3
330
3D2
100
AcDbEntity
  8
COTAS
 62
     3
420
    65280
370
    25
100
AcDbVertex
100
AcDb2dVertex
 10
68.96379466398918
 20
197.0738889111041
 30
0.0
  0
VERTEX
  5
3D4
330
3D2
100
AcDbEntity
  8
COTAS
 62
     3
420
    65280
370
    25
100
AcDbVertex
100
AcDb2dVertex
 10
71.96120196830375
 20
197.0738889111041
 30
0.0
  0
SEQEND
  5
3D5
330
3D2
100
AcDbEntity
  8
COTAS
370
    25
  0
ENDBLK
  5
3D1
330
3CE
100
AcDbEntity
  8
0
100
AcDbBlockEnd
  0
BLOCK
  5
3D8
330
3D6
100
AcDbEntity
  8
0
100
AcDbBlockBegin
  2
block 100
 70
     0
 71
     0
 10
0.0
 20
0.0
 30
0.0
  3
block 100
  1

  0
POLYLINE
  5
3DA
330
3D6
100
AcDbEntity
  8
COTAS
370
     0
100
AcDb2dPolyline
 66
     1
 10
0.0
 20
0.0
 30
0.0
  0
VERTEX
  5
3DB
330
3DA
100
AcDbEntity
  8
COTAS
370
     0
100
AcDbVertex
100
AcDb2dVertex
 10
52.97733528283166
 20
197.5734280860086
 30
0.0
  0
VERTEX
  5
3DC
330
3DA
100
AcDbEntity
  8
COTAS
370
     0
100
AcDbVertex
100
AcDb2dVertex
 10
52.97733528283166
 20
196.5743497361997
 30
0.0
  0
VERTEX
  5
3DD
330
3DA
100
AcDbEntity
  8
COTAS
370
     0
100
AcDbVertex
100
AcDb2dVertex
 10
55.97474258714623
 20
197.0738889111041
 30
0.0
  0
VERTEX
  5
3DE
330
3DA
100
AcDbEntity
  8
COTAS
370
     0
100
AcDbVertex
100
AcDb2dVertex
 10
52.97733528283166
 20
197.5734280860086
 30
0.0
  0
SEQEND
  5
3DF
330
3DA
100
AcDbEntity
  8
COTAS
370
     0
  0
HATCH
  5
3E0
330
3D6
100
AcDbEntity
  8
COTAS
 62
     3
420
    65280
100
AcDbHatch
 10
0.0
 20
0.0
 30
0.0
210
0.0
220
0.0
230
1.0
  2
SOLID
 70
     1
 71
     0
 91
        1
 92
        1
 93
        3
 72
     1
 10
52.97733528283166
 20
197.5734280860086
 11
52.97733528283166
 21
196.5743497361997
 72
     1
 10
52.97733528283166
 20
196.5743497361997
 11
55.97474258714623
 21
197.0738889111041
 72
     1
 10
55.97474258714623
 20
197.0738889111041
 11
52.97733528283166
 21
197.5734280860086
 97
        0
 75
     2
 76
     1
 98
        0
  0
ENDBLK
  5
3D9
330
3D6
100
AcDbEntity
  8
0
100
AcDbBlockEnd
  0
BLOCK
  5
3E3
330
3E1
100
AcDbEntity
  8
0
100
AcDbBlockBegin
  2
block 101
 70
     0
 71
     0
 10
0.0
 20
0.0
 30
0.0
  3
block 101
  1

  0
POLYLINE
  5
3E5
330
3E1
100
AcDbEntity
  8
COTAS
370
     0
100
AcDb2dPolyline
 66
     1
 10
0.0
 20
0.0
 30
0.0
  0
VERTEX
  5
3E6
330
3E5
100
AcDbEntity
  8
COTAS
370
     0
100
AcDbVertex
100
AcDb2dVertex
 10
68.96379466398918
 20
197.5734280860086
 30
0.0
  0
VERTEX
  5
3E7
330
3E5
100
AcDbEntity
  8
COTAS
370
     0
100
AcDbVertex
100
AcDb2dVertex
 10
68.96379466398918
 20
196.5743497361997
 30
0.0
  0
VERTEX
  5
3E8
330
3E5
100
AcDbEntity
  8
COTAS
370
     0
100
AcDbVertex
100
AcDb2dVertex
 10
65.96621510478671
 20
197.0738889111041
 30
0.0
  0
VERTEX
  5
3E9
330
3E5
100
AcDbEntity
  8
COTAS
370
     0
100
AcDbVertex
100
AcDb2dVertex
 10
68.96379466398918
 20
197.5734280860086
 30
0.0
  0
SEQEND
  5
3EA
330
3E5
100
AcDbEntity
  8
COTAS
370
     0
  0
HATCH
  5
3EB
330
3E1
100
AcDbEntity
  8
COTAS
 62
     3
420
    65280
100
AcDbHatch
 10
0.0
 20
0.0
 30
0.0
210
0.0
220
0.0
230
1.0
  2
SOLID
 70
     1
 71
     0
 91
        1
 92
        1
 93
        3
 72
     1
 10
68.96379466398918
 20
197.5734280860086
 11
68.96379466398918
 21
196.5743497361997
 72
     1
 10
68.96379466398918
 20
196.5743497361997
 11
65.96621510478671
 21
197.0738889111041
 72
     1
 10
65.96621510478671
 20
197.0738889111041
 11
68.96379466398918
 21
197.5734280860086
 97
        0
 75
     2
 76
     1
 98
        0
  0
ENDBLK
  5
3E4
330
3E1
100
AcDbEntity
  8
0
100
AcDbBlockEnd
  0
BLOCK
  5
3EE
330
3EC
100
AcDbEntity
  8
0
100
AcDbBlockBegin
  2
block 102
 70
     0
 71
     0
 10
0.0
 20
0.0
 30
0.0
  3
block 102
  1

  0
MTEXT
  5
3F0
330
3EC
100
AcDbEntity
  8
COTAS
 62
     6
420
 16711935
100
AcDbMText
 10
57.22875817104428
 20
195.8248687189551
 30
0.0
 40
2.497883457403663
 41
0.0
 71
     7
 72
     1
  1
\fMyriad Pro|b0|i0|c0|p34;\W1;100
 73
     1
 44
1.0
  0
ENDBLK
  5
3EF
330
3EC
100
AcDbEntity
  8
0
100
AcDbBlockEnd
  0
BLOCK
  5
3F3
330
3F1
100
AcDbEntity
  8
0
100
AcDbBlockBegin
  2
block 103
 70
     0
 71
     0
 10
0.0
 20
0.0
 30
0.0
  3
block 103
  1

  0
POLYLINE
  5
3F5
330
3F1
100
AcDbEntity
  8
COTAS
370
     0
100
AcDb2dPolyline
 66
     1
 10
0.0
 20
0.0
 30
0.0
  0
VERTEX
  5
3F6
330
3F5
100
AcDbEntity
  8
COTAS
370
     0
100
AcDbVertex
100
AcDb2dVertex
 10
55.97474258714623
 20
201.1671818122263
 30
0.0
  0
VERTEX
  5
3F7
330
3F5
100
AcDbEntity
  8
COTAS
370
     0
100
AcDbVertex
100
AcDb2dVertex
 10
55.97474258714623
 20
201.1671818122263
 30
0.0
  0
SEQEND
  5
3F8
330
3F5
100
AcDbEntity
  8
COTAS
370
     0
  0
ENDBLK
  5
3F4
330
3F1
100
AcDbEntity
  8
0
100
AcDbBlockEnd
  0
BLOCK
  5
3FB
330
3F9
100
AcDbEntity
  8
0
100
AcDbBlockBegin
  2
block 104
 70
     0
 71
     0
 10
0.0
 20
0.0
 30
0.0
  3
block 104
  1

  0
POLYLINE
  5
3FD
330
3F9
100
AcDbEntity
  8
COTAS
370
     0
100
AcDb2dPolyline
 66
     1
 10
0.0
 20
0.0
 30
0.0
  0
VERTEX
  5
3FE
330
3FD
100
AcDbEntity
  8
COTAS
370
     0
100
AcDbVertex
100
AcDb2dVertex
 10
65.96621510478671
 20
201.4655272780658
 30
0.0
  0
VERTEX
  5
3FF
330
3FD
100
AcDbEntity
  8
COTAS
370
     0
100
AcDbVertex
100
AcDb2dVertex
 10
65.96621510478671
 20
201.4655272780658
 30
0.0
  0
SEQEND
  5
400
330
3FD
100
AcDbEntity
  8
COTAS
370
     0
  0
ENDBLK
  5
3FC
330
3F9
100
AcDbEntity
  8
0
100
AcDbBlockEnd
  0
BLOCK
  5
403
330
401
100
AcDbEntity
  8
0
100
AcDbBlockBegin
  2
block 105
 70
     0
 71
     0
 10
0.0
 20
0.0
 30
0.0
  3
block 105
  1

  0
POLYLINE
  5
405
330
401
100
AcDbEntity
  8
COTAS
370
     0
100
AcDb2dPolyline
 66
     1
 10
0.0
 20
0.0
 30
0.0
  0
VERTEX
  5
406
330
405
100
AcDbEntity
  8
COTAS
370
     0
100
AcDbVertex
100
AcDb2dVertex
 10
65.96621510478671
 20
197.0738889111041
 30
0.0
  0
VERTEX
  5
407
330
405
100
AcDbEntity
  8
COTAS
370
     0
100
AcDbVertex
100
AcDb2dVertex
 10
65.96621510478671
 20
197.0738889111041
 30
0.0
  0
SEQEND
  5
408
330
405
100
AcDbEntity
  8
COTAS
370
     0
  0
ENDBLK
  5
404
330
401
100
AcDbEntity
  8
0
100
AcDbBlockEnd
  0
BLOCK
  5
40B
330
409
100
AcDbEntity
  8
0
100
AcDbBlockBegin
  2
block 106
 70
     0
 71
     0
 10
0.0
 20
0.0
 30
0.0
  3
block 106
  1

  0
POLYLINE
  5
40D
330
409
100
AcDbEntity
  8
COTAS
370
     0
100
AcDb2dPolyline
 66
     1
 10
0.0
 20
0.0
 30
0.0
  0
VERTEX
  5
40E
330
40D
100
AcDbEntity
  8
COTAS
370
     0
100
AcDbVertex
100
AcDb2dVertex
 10
84.72959553374926
 20
193.7448909475857
 30
0.0
  0
VERTEX
  5
40F
330
40D
100
AcDbEntity
  8
COTAS
370
     0
100
AcDbVertex
100
AcDb2dVertex
 10
37.21153441307158
 20
193.7448909475857
 30
0.0
  0
VERTEX
  5
410
330
40D
100
AcDbEntity
  8
COTAS
370
     0
100
AcDbVertex
100
AcDb2dVertex
 10
37.21153441307158
 20
188.7491546887655
 30
0.0
  0
VERTEX
  5
411
330
40D
100
AcDbEntity
  8
COTAS
370
     0
100
AcDbVertex
100
AcDb2dVertex
 10
84.72959553374926
 20
188.7491546887655
 30
0.0
  0
VERTEX
  5
412
330
40D
100
AcDbEntity
  8
COTAS
370
     0
100
AcDbVertex
100
AcDb2dVertex
 10
84.72959553374926
 20
193.7448909475857
 30
0.0
  0
SEQEND
  5
413
330
40D
100
AcDbEntity
  8
COTAS
370
     0
  0
POLYLINE
  5
414
330
409
100
AcDbEntity
  8
COTAS
370
     0
100
AcDb2dPolyline
 66
     1
 10
0.0
 20
0.0
 30
0.0
  0
VERTEX
  5
415
330
414
100
AcDbEntity
  8
COTAS
370
     0
100
AcDbVertex
100
AcDb2dVertex
 10
34.8998738174793
 20
191.6969525853654
 30
0.0
  0
VERTEX
  5
416
330
414
100
AcDbEntity
  8
COTAS
370
     0
100
AcDbVertex
100
AcDb2dVertex
 10
36.76160464588179
 20
193.55851115888
 30
0.0
  0
SEQEND
  5
417
330
414
100
AcDbEntity
  8
COTAS
370
     0
  0
POLYLINE
  5
418
330
409
100
AcDbEntity
  8
COTAS
370
     0
100
AcDb2dPolyline
 66
     1
 10
0.0
 20
0.0
 30
0.0
  0
VERTEX
  5
419
330
418
100
AcDbEntity
  8
COTAS
370
     0
100
AcDbVertex
100
AcDb2dVertex
 10
36.61484348139262
 20
188.9961681980114
 30
0.0
  0
VERTEX
  5
41A
330
418
100
AcDbEntity
  8
COTAS
370
     0
100
AcDbVertex
100
AcDb2dVertex
 10
41.36356623096701
 20
193.7448909475857
 30
0.0
  0
SEQEND
  5
41B
330
418
100
AcDbEntity
  8
COTAS
370
     0
  0
POLYLINE
  5
41C
330
409
100
AcDbEntity
  8
COTAS
370
     0
100
AcDb2dPolyline
 66
     1
 10
0.0
 20
0.0
 30
0.0
  0
VERTEX
  5
41D
330
41C
100
AcDbEntity
  8
COTAS
370
     0
100
AcDbVertex
100
AcDb2dVertex
 10
40.78358402341416
 20
188.7491546887655
 30
0.0
  0
VERTEX
  5
41E
330
41C
100
AcDbEntity
  8
COTAS
370
     0
100
AcDbVertex
100
AcDb2dVertex
 10
45.77932028223441
 20
193.7448909475857
 30
0.0
  0
SEQEND
  5
41F
330
41C
100
AcDbEntity
  8
COTAS
370
     0
  0
POLYLINE
  5
420
330
409
100
AcDbEntity
  8
COTAS
370
     0
100
AcDb2dPolyline
 66
     1
 10
0.0
 20
0.0
 30
0.0
  0
VERTEX
  5
421
330
420
100
AcDbEntity
  8
COTAS
370
     0
100
AcDbVertex
100
AcDb2dVertex
 10
45.19916581979366
 20
188.7491546887655
 30
0.0
  0
VERTEX
  5
422
330
420
100
AcDbEntity
  8
COTAS
370
     0
100
AcDbVertex
100
AcDb2dVertex
 10
50.1949020786139
 20
193.7448909475857
 30
0.0
  0
SEQEND
  5
423
330
420
100
AcDbEntity
  8
COTAS
370
     0
  0
POLYLINE
  5
424
330
409
100
AcDbEntity
  8
COTAS
370
     0
100
AcDb2dPolyline
 66
     1
 10
0.0
 20
0.0
 30
0.0
  0
VERTEX
  5
425
330
424
100
AcDbEntity
  8
COTAS
370
     0
100
AcDbVertex
100
AcDb2dVertex
 10
49.61491987106105
 20
188.7491546887655
 30
0.0
  0
VERTEX
  5
426
330
424
100
AcDbEntity
  8
COTAS
370
     0
100
AcDbVertex
100
AcDb2dVertex
 10
54.6106561298813
 20
193.7448909475857
 30
0.0
  0
SEQEND
  5
427
330
424
100
AcDbEntity
  8
COTAS
370
     0
  0
POLYLINE
  5
428
330
409
100
AcDbEntity
  8
COTAS
370
     0
100
AcDb2dPolyline
 66
     1
 10
0.0
 20
0.0
 30
0.0
  0
VERTEX
  5
429
330
428
100
AcDbEntity
  8
COTAS
370
     0
100
AcDbVertex
100
AcDb2dVertex
 10
54.03067392232845
 20
188.7491546887655
 30
0.0
  0
VERTEX
  5
42A
330
428
100
AcDbEntity
  8
COTAS
370
     0
100
AcDbVertex
100
AcDb2dVertex
 10
59.02641018114869
 20
193.7448909475857
 30
0.0
  0
SEQEND
  5
42B
330
428
100
AcDbEntity
  8
COTAS
370
     0
  0
POLYLINE
  5
42C
330
409
100
AcDbEntity
  8
COTAS
370
     0
100
AcDb2dPolyline
 66
     1
 10
0.0
 20
0.0
 30
0.0
  0
VERTEX
  5
42D
330
42C
100
AcDbEntity
  8
COTAS
370
     0
100
AcDbVertex
100
AcDb2dVertex
 10
58.44625571870795
 20
188.7491546887655
 30
0.0
  0
VERTEX
  5
42E
330
42C
100
AcDbEntity
  8
COTAS
370
     0
100
AcDbVertex
100
AcDb2dVertex
 10
63.44199197752819
 20
193.7448909475857
 30
0.0
  0
SEQEND
  5
42F
330
42C
100
AcDbEntity
  8
COTAS
370
     0
  0
POLYLINE
  5
430
330
409
100
AcDbEntity
  8
COTAS
370
     0
100
AcDb2dPolyline
 66
     1
 10
0.0
 20
0.0
 30
0.0
  0
VERTEX
  5
431
330
430
100
AcDbEntity
  8
COTAS
370
     0
100
AcDbVertex
100
AcDb2dVertex
 10
62.86183751508744
 20
188.7491546887655
 30
0.0
  0
VERTEX
  5
432
330
430
100
AcDbEntity
  8
COTAS
370
     0
100
AcDbVertex
100
AcDb2dVertex
 10
67.85757377390769
 20
193.7448909475857
 30
0.0
  0
SEQEND
  5
433
330
430
100
AcDbEntity
  8
COTAS
370
     0
  0
POLYLINE
  5
434
330
409
100
AcDbEntity
  8
COTAS
370
     0
100
AcDb2dPolyline
 66
     1
 10
0.0
 20
0.0
 30
0.0
  0
VERTEX
  5
435
330
434
100
AcDbEntity
  8
COTAS
370
     0
100
AcDbVertex
100
AcDb2dVertex
 10
67.27759156635483
 20
188.7491546887655
 30
0.0
  0
VERTEX
  5
436
330
434
100
AcDbEntity
  8
COTAS
370
     0
100
AcDbVertex
100
AcDb2dVertex
 10
72.27332782517507
 20
193.7448909475857
 30
0.0
  0
SEQEND
  5
437
330
434
100
AcDbEntity
  8
COTAS
370
     0
  0
POLYLINE
  5
438
330
409
100
AcDbEntity
  8
COTAS
370
     0
100
AcDb2dPolyline
 66
     1
 10
0.0
 20
0.0
 30
0.0
  0
VERTEX
  5
439
330
438
100
AcDbEntity
  8
COTAS
370
     0
100
AcDbVertex
100
AcDb2dVertex
 10
71.69334561762223
 20
188.7491546887655
 30
0.0
  0
VERTEX
  5
43A
330
438
100
AcDbEntity
  8
COTAS
370
     0
100
AcDbVertex
100
AcDb2dVertex
 10
76.68908187644247
 20
193.7448909475857
 30
0.0
  0
SEQEND
  5
43B
330
438
100
AcDbEntity
  8
COTAS
370
     0
  0
POLYLINE
  5
43C
330
409
100
AcDbEntity
  8
COTAS
370
     0
100
AcDb2dPolyline
 66
     1
 10
0.0
 20
0.0
 30
0.0
  0
VERTEX
  5
43D
330
43C
100
AcDbEntity
  8
COTAS
370
     0
100
AcDbVertex
100
AcDb2dVertex
 10
76.10892741400173
 20
188.7491546887655
 30
0.0
  0
VERTEX
  5
43E
330
43C
100
AcDbEntity
  8
COTAS
370
     0
100
AcDbVertex
100
AcDb2dVertex
 10
81.10466367282197
 20
193.7448909475857
 30
0.0
  0
SEQEND
  5
43F
330
43C
100
AcDbEntity
  8
COTAS
370
     0
  0
POLYLINE
  5
440
330
409
100
AcDbEntity
  8
COTAS
370
     0
100
AcDb2dPolyline
 66
     1
 10
0.0
 20
0.0
 30
0.0
  0
VERTEX
  5
441
330
440
100
AcDbEntity
  8
COTAS
370
     0
100
AcDbVertex
100
AcDb2dVertex
 10
80.52450921038123
 20
188.7491546887655
 30
0.0
  0
VERTEX
  5
442
330
440
100
AcDbEntity
  8
COTAS
370
     0
100
AcDbVertex
100
AcDb2dVertex
 10
85.28873489986644
 20
193.5132081233628
 30
0.0
  0
SEQEND
  5
443
330
440
100
AcDbEntity
  8
COTAS
370
     0
  0
POLYLINE
  5
444
330
409
100
AcDbEntity
  8
COTAS
370
     0
100
AcDb2dPolyline
 66
     1
 10
0.0
 20
0.0
 30
0.0
  0
VERTEX
  5
445
330
444
100
AcDbEntity
  8
COTAS
370
     0
100
AcDbVertex
100
AcDb2dVertex
 10
85.08926373968046
 20
188.8981551667974
 30
0.0
  0
VERTEX
  5
446
330
444
100
AcDbEntity
  8
COTAS
370
     0
100
AcDbVertex
100
AcDb2dVertex
 10
87.07846318512753
 20
190.8873546122444
 30
0.0
  0
SEQEND
  5
447
330
444
100
AcDbEntity
  8
COTAS
370
     0
  0
ENDBLK
  5
40C
330
409
100
AcDbEntity
  8
0
100
AcDbBlockEnd
  0
BLOCK
  5
44A
330
448
100
AcDbEntity
  8
0
100
AcDbBlockBegin
  2
block 107
 70
     0
 71
     0
 10
0.0
 20
0.0
 30
0.0
  3
block 107
  1

  0
POLYLINE
  5
44C
330
448
100
AcDbEntity
  8
COTAS
 62
     6
420
 16711935
370
    25
100
AcDb2dPolyline
 66
     1
 10
0.0
 20
0.0
 30
0.0
  0
VERTEX
  5
44D
330
44C
100
AcDbEntity
  8
COTAS
 62
     6
420
 16711935
370
    25
100
AcDbVertex
100
AcDb2dVertex
 10
34.55105766948567
 20
193.7448909475857
 30
0.0
  0
VERTEX
  5
44E
330
44C
100
AcDbEntity
  8
COTAS
 62
     6
420
 16711935
370
    25
100
AcDbVertex
100
AcDb2dVertex
 10
87.35631031930714
 20
193.7448909475857
 30
0.0
  0
SEQEND
  5
44F
330
44C
100
AcDbEntity
  8
COTAS
370
    25
  0
ENDBLK
  5
44B
330
448
100
AcDbEntity
  8
0
100
AcDbBlockEnd
  0
BLOCK
  5
452
330
450
100
AcDbEntity
  8
0
100
AcDbBlockBegin
  2
block 108
 70
     0
 71
     0
 10
0.0
 20
0.0
 30
0.0
  3
block 108
  1

  0
POLYLINE
  5
454
330
450
100
AcDbEntity
  8
COTAS
 62
     6
420
 16711935
370
    25
100
AcDb2dPolyline
 66
     1
 10
0.0
 20
0.0
 30
0.0
  0
VERTEX
  5
455
330
454
100
AcDbEntity
  8
COTAS
 62
     6
420
 16711935
370
    25
100
AcDbVertex
100
AcDb2dVertex
 10
119.574692296877
 20
193.7448909475857
 30
0.0
  0
VERTEX
  5
456
330
454
100
AcDbEntity
  8
COTAS
 62
     6
420
 16711935
370
    25
100
AcDbVertex
100
AcDb2dVertex
 10
190.1116908520393
 20
193.7448909475857
 30
0.0
  0
SEQEND
  5
457
330
454
100
AcDbEntity
  8
COTAS
370
    25
  0
ENDBLK
  5
453
330
450
100
AcDbEntity
  8
0
100
AcDbBlockEnd
  0
BLOCK
  5
45A
330
458
100
AcDbEntity
  8
0
100
AcDbBlockBegin
  2
block 109
 70
     0
 71
     0
 10
0.0
 20
0.0
 30
0.0
  3
block 109
  1

  0
INSERT
  5
45D
330
458
100
AcDbEntity
  8
COTAS
100
AcDbBlockReference
  2
block 110
 10
0.0
 20
0.0
 30
0.0
  0
INSERT
  5
465
330
458
100
AcDbEntity
  8
COTAS
100
AcDbBlockReference
  2
block 111
 10
0.0
 20
0.0
 30
0.0
  0
INSERT
  5
46D
330
458
100
AcDbEntity
  8
COTAS
100
AcDbBlockReference
  2
block 112
 10
0.0
 20
0.0
 30
0.0
  0
INSERT
  5
475
330
458
100
AcDbEntity
  8
COTAS
100
AcDbBlockReference
  2
block 113
 10
0.0
 20
0.0
 30
0.0
  0
INSERT
  5
47D
330
458
100
AcDbEntity
  8
COTAS
100
AcDbBlockReference
  2
block 114
 10
0.0
 20
0.0
 30
0.0
  0
INSERT
  5
488
330
458
100
AcDbEntity
  8
COTAS
100
AcDbBlockReference
  2
block 115
 10
0.0
 20
0.0
 30
0.0
  0
INSERT
  5
493
330
458
100
AcDbEntity
  8
COTAS
100
AcDbBlockReference
  2
block 116
 10
0.0
 20
0.0
 30
0.0
  0
INSERT
  5
498
330
458
100
AcDbEntity
  8
COTAS
100
AcDbBlockReference
  2
block 117
 10
0.0
 20
0.0
 30
0.0
  0
INSERT
  5
4A0
330
458
100
AcDbEntity
  8
COTAS
100
AcDbBlockReference
  2
block 118
 10
0.0
 20
0.0
 30
0.0
  0
INSERT
  5
4A8
330
458
100
AcDbEntity
  8
COTAS
100
AcDbBlockReference
  2
block 119
 10
0.0
 20
0.0
 30
0.0
  0
ENDBLK
  5
45B
330
458
100
AcDbEntity
  8
0
100
AcDbBlockEnd
  0
BLOCK
  5
45E
330
45C
100
AcDbEntity
  8
0
100
AcDbBlockBegin
  2
block 110
 70
     0
 71
     0
 10
0.0
 20
0.0
 30
0.0
  3
block 110
  1

  0
POLYLINE
  5
460
330
45C
100
AcDbEntity
  8
COTAS
 62
     3
420
    65280
370
    25
100
AcDb2dPolyline
 66
     1
 10
0.0
 20
0.0
 30
0.0
  0
VERTEX
  5
461
330
460
100
AcDbEntity
  8
COTAS
 62
     3
420
    65280
370
    25
100
AcDbVertex
100
AcDb2dVertex
 10
45.17108827306627
 20
167.2801667355878
 30
0.0
  0
VERTEX
  5
462
330
460
100
AcDbEntity
  8
COTAS
 62
     3
420
    65280
370
    25
100
AcDbVertex
100
AcDb2dVertex
 10
31.79739103154689
 20
167.2801667355878
 30
0.0
  0
SEQEND
  5
463
330
460
100
AcDbEntity
  8
COTAS
370
    25
  0
ENDBLK
  5
45F
330
45C
100
AcDbEntity
  8
0
100
AcDbBlockEnd
  0
BLOCK
  5
466
330
464
100
AcDbEntity
  8
0
100
AcDbBlockBegin
  2
block 111
 70
     0
 71
     0
 10
0.0
 20
0.0
 30
0.0
  3
block 111
  1

  0
POLYLINE
  5
468
330
464
100
AcDbEntity
  8
COTAS
 62
     3
420
    65280
370
    25
100
AcDb2dPolyline
 66
     1
 10
0.0
 20
0.0
 30
0.0
  0
VERTEX
  5
469
330
468
100
AcDbEntity
  8
COTAS
 62
     3
420
    65280
370
    25
100
AcDbVertex
100
AcDb2dVertex
 10
60.97047884596648
 20
110.8281058540759
 30
0.0
  0
VERTEX
  5
46A
330
468
100
AcDbEntity
  8
COTAS
 62
     3
420
    65280
370
    25
100
AcDbVertex
100
AcDb2dVertex
 10
31.79739103154689
 20
110.8281058540759
 30
0.0
  0
SEQEND
  5
46B
330
468
100
AcDbEntity
  8
COTAS
370
    25
  0
ENDBLK
  5
467
330
464
100
AcDbEntity
  8
0
100
AcDbBlockEnd
  0
BLOCK
  5
46E
330
46C
100
AcDbEntity
  8
0
100
AcDbBlockBegin
  2
block 112
 70
     0
 71
     0
 10
0.0
 20
0.0
 30
0.0
  3
block 112
  1

  0
POLYLINE
  5
470
330
46C
100
AcDbEntity
  8
COTAS
 62
     3
420
    65280
370
    25
100
AcDb2dPolyline
 66
     1
 10
0.0
 20
0.0
 30
0.0
  0
VERTEX
  5
471
330
470
100
AcDbEntity
  8
COTAS
 62
     3
420
    65280
370
    25
100
AcDbVertex
100
AcDb2dVertex
 10
33.79571998605257
 20
164.2825871763853
 30
0.0
  0
VERTEX
  5
472
330
470
100
AcDbEntity
  8
COTAS
 62
     3
420
    65280
370
    25
100
AcDbVertex
100
AcDb2dVertex
 10
33.79571998605257
 20
143.2647347746126
 30
0.0
  0
SEQEND
  5
473
330
470
100
AcDbEntity
  8
COTAS
370
    25
  0
ENDBLK
  5
46F
330
46C
100
AcDbEntity
  8
0
100
AcDbBlockEnd
  0
BLOCK
  5
476
330
474
100
AcDbEntity
  8
0
100
AcDbBlockBegin
  2
block 113
 70
     0
 71
     0
 10
0.0
 20
0.0
 30
0.0
  3
block 113
  1

  0
POLYLINE
  5
478
330
474
100
AcDbEntity
  8
COTAS
 62
     3
420
    65280
370
    25
100
AcDb2dPolyline
 66
     1
 10
0.0
 20
0.0
 30
0.0
  0
VERTEX
  5
479
330
478
100
AcDbEntity
  8
COTAS
 62
     3
420
    65280
370
    25
100
AcDbVertex
100
AcDb2dVertex
 10
33.79571998605257
 20
113.8253409035026
 30
0.0
  0
VERTEX
  5
47A
330
478
100
AcDbEntity
  8
COTAS
 62
     3
420
    65280
370
    25
100
AcDbVertex
100
AcDb2dVertex
 10
33.79571998605257
 20
134.8431933052753
 30
0.0
  0
SEQEND
  5
47B
330
478
100
AcDbEntity
  8
COTAS
370
    25
  0
ENDBLK
  5
477
330
474
100
AcDbEntity
  8
0
100
AcDbBlockEnd
  0
BLOCK
  5
47E
330
47C
100
AcDbEntity
  8
0
100
AcDbBlockBegin
  2
block 114
 70
     0
 71
     0
 10
0.0
 20
0.0
 30
0.0
  3
block 114
  1

  0
POLYLINE
  5
480
330
47C
100
AcDbEntity
  8
COTAS
370
     0
100
AcDb2dPolyline
 66
     1
 10
0.0
 20
0.0
 30
0.0
  0
VERTEX
  5
481
330
480
100
AcDbEntity
  8
COTAS
370
     0
100
AcDbVertex
100
AcDb2dVertex
 10
33.29618081114813
 20
164.2825871763853
 30
0.0
  0
VERTEX
  5
482
330
480
100
AcDbEntity
  8
COTAS
370
     0
100
AcDbVertex
100
AcDb2dVertex
 10
34.29525916095702
 20
164.2825871763853
 30
0.0
  0
VERTEX
  5
483
330
480
100
AcDbEntity
  8
COTAS
370
     0
100
AcDbVertex
100
AcDb2dVertex
 10
33.79571998605257
 20
167.2801667355878
 30
0.0
  0
VERTEX
  5
484
330
480
100
AcDbEntity
  8
COTAS
370
     0
100
AcDbVertex
100
AcDb2dVertex
 10
33.29618081114813
 20
164.2825871763853
 30
0.0
  0
SEQEND
  5
485
330
480
100
AcDbEntity
  8
COTAS
370
     0
  0
HATCH
  5
486
330
47C
100
AcDbEntity
  8
COTAS
 62
     3
420
    65280
100
AcDbHatch
 10
0.0
 20
0.0
 30
0.0
210
0.0
220
0.0
230
1.0
  2
SOLID
 70
     1
 71
     0
 91
        1
 92
        1
 93
        3
 72
     1
 10
33.29618081114813
 20
164.2825871763853
 11
34.29525916095702
 21
164.2825871763853
 72
     1
 10
34.29525916095702
 20
164.2825871763853
 11
33.79571998605257
 21
167.2801667355878
 72
     1
 10
33.79571998605257
 20
167.2801667355878
 11
33.29618081114813
 21
164.2825871763853
 97
        0
 75
     2
 76
     1
 98
        0
  0
ENDBLK
  5
47F
330
47C
100
AcDbEntity
  8
0
100
AcDbBlockEnd
  0
BLOCK
  5
489
330
487
100
AcDbEntity
  8
0
100
AcDbBlockBegin
  2
block 115
 70
     0
 71
     0
 10
0.0
 20
0.0
 30
0.0
  3
block 115
  1

  0
POLYLINE
  5
48B
330
487
100
AcDbEntity
  8
COTAS
370
     0
100
AcDb2dPolyline
 66
     1
 10
0.0
 20
0.0
 30
0.0
  0
VERTEX
  5
48C
330
48B
100
AcDbEntity
  8
COTAS
370
     0
100
AcDbVertex
100
AcDb2dVertex
 10
33.29618081114813
 20
113.8253409035026
 30
0.0
  0
VERTEX
  5
48D
330
48B
100
AcDbEntity
  8
COTAS
370
     0
100
AcDbVertex
100
AcDb2dVertex
 10
34.29525916095702
 20
113.8253409035026
 30
0.0
  0
VERTEX
  5
48E
330
48B
100
AcDbEntity
  8
COTAS
370
     0
100
AcDbVertex
100
AcDb2dVertex
 10
33.79571998605257
 20
110.8281058540759
 30
0.0
  0
VERTEX
  5
48F
330
48B
100
AcDbEntity
  8
COTAS
370
     0
100
AcDbVertex
100
AcDb2dVertex
 10
33.29618081114813
 20
113.8253409035026
 30
0.0
  0
SEQEND
  5
490
330
48B
100
AcDbEntity
  8
COTAS
370
     0
  0
HATCH
  5
491
330
487
100
AcDbEntity
  8
COTAS
 62
     3
420
    65280
100
AcDbHatch
 10
0.0
 20
0.0
 30
0.0
210
0.0
220
0.0
230
1.0
  2
SOLID
 70
     1
 71
     0
 91
        1
 92
        1
 93
        3
 72
     1
 10
33.29618081114813
 20
113.8253409035026
 11
34.29525916095702
 21
113.8253409035026
 72
     1
 10
34.29525916095702
 20
113.8253409035026
 11
33.79571998605257
 21
110.8281058540759
 72
     1
 10
33.79571998605257
 20
110.8281058540759
 11
33.29618081114813
 21
113.8253409035026
 97
        0
 75
     2
 76
     1
 98
        0
  0
ENDBLK
  5
48A
330
487
100
AcDbEntity
  8
0
100
AcDbBlockEnd
  0
BLOCK
  5
494
330
492
100
AcDbEntity
  8
0
100
AcDbBlockBegin
  2
block 116
 70
     0
 71
     0
 10
0.0
 20
0.0
 30
0.0
  3
block 116
  1

  0
MTEXT
  5
496
330
492
100
AcDbEntity
  8
COTAS
 62
     6
420
 16711935
100
AcDbMText
 10
35.04456792331369
 20
135.4853595273593
 30
0.0
 40
2.497883457403663
 41
0.0
 71
     7
 72
     1
  1
\fMyriad Pro|b0|i0|c0|p34;\W1;565
 11
-4.371139000186241E-8
 21
0.999999999999999
 31
0.0
 73
     1
 44
1.0
  0
ENDBLK
  5
495
330
492
100
AcDbEntity
  8
0
100
AcDbBlockEnd
  0
BLOCK
  5
499
330
497
100
AcDbEntity
  8
0
100
AcDbBlockBegin
  2
block 117
 70
     0
 71
     0
 10
0.0
 20
0.0
 30
0.0
  3
block 117
  1

  0
POLYLINE
  5
49B
330
497
100
AcDbEntity
  8
COTAS
370
     0
100
AcDb2dPolyline
 66
     1
 10
0.0
 20
0.0
 30
0.0
  0
VERTEX
  5
49C
330
49B
100
AcDbEntity
  8
COTAS
370
     0
100
AcDbVertex
100
AcDb2dVertex
 10
45.17108827306627
 20
167.2801667355878
 30
0.0
  0
VERTEX
  5
49D
330
49B
100
AcDbEntity
  8
COTAS
370
     0
100
AcDbVertex
100
AcDb2dVertex
 10
45.17108827306627
 20
167.2801667355878
 30
0.0
  0
SEQEND
  5
49E
330
49B
100
AcDbEntity
  8
COTAS
370
     0
  0
ENDBLK
  5
49A
330
497
100
AcDbEntity
  8
0
100
AcDbBlockEnd
  0
BLOCK
  5
4A1
330
49F
100
AcDbEntity
  8
0
100
AcDbBlockBegin
  2
block 118
 70
     0
 71
     0
 10
0.0
 20
0.0
 30
0.0
  3
block 118
  1

  0
POLYLINE
  5
4A3
330
49F
100
AcDbEntity
  8
COTAS
370
     0
100
AcDb2dPolyline
 66
     1
 10
0.0
 20
0.0
 30
0.0
  0
VERTEX
  5
4A4
330
4A3
100
AcDbEntity
  8
COTAS
370
     0
100
AcDbVertex
100
AcDb2dVertex
 10
60.97047884596648
 20
110.8281058540759
 30
0.0
  0
VERTEX
  5
4A5
330
4A3
100
AcDbEntity
  8
COTAS
370
     0
100
AcDbVertex
100
AcDb2dVertex
 10
60.97047884596648
 20
110.8281058540759
 30
0.0
  0
SEQEND
  5
4A6
330
4A3
100
AcDbEntity
  8
COTAS
370
     0
  0
ENDBLK
  5
4A2
330
49F
100
AcDbEntity
  8
0
100
AcDbBlockEnd
  0
BLOCK
  5
4A9
330
4A7
100
AcDbEntity
  8
0
100
AcDbBlockBegin
  2
block 119
 70
     0
 71
     0
 10
0.0
 20
0.0
 30
0.0
  3
block 119
  1

  0
POLYLINE
  5
4AB
330
4A7
100
AcDbEntity
  8
COTAS
370
     0
100
AcDb2dPolyline
 66
     1
 10
0.0
 20
0.0
 30
0.0
  0
VERTEX
  5
4AC
330
4AB
100
AcDbEntity
  8
COTAS
370
     0
100
AcDbVertex
100
AcDb2dVertex
 10
33.79571998605257
 20
110.8281058540759
 30
0.0
  0
VERTEX
  5
4AD
330
4AB
100
AcDbEntity
  8
COTAS
370
     0
100
AcDbVertex
100
AcDb2dVertex
 10
33.79571998605257
 20
110.8281058540759
 30
0.0
  0
SEQEND
  5
4AE
330
4AB
100
AcDbEntity
  8
COTAS
370
     0
  0
ENDBLK
  5
4AA
330
4A7
100
AcDbEntity
  8
0
100
AcDbBlockEnd
  0
BLOCK
  5
4B1
330
4AF
100
AcDbEntity
  8
0
100
AcDbBlockBegin
  2
block 120
 70
     0
 71
     0
 10
0.0
 20
0.0
 30
0.0
  3
block 120
  1

  0
INSERT
  5
4B4
330
4AF
100
AcDbEntity
  8
COTAS
100
AcDbBlockReference
  2
block 121
 10
0.0
 20
0.0
 30
0.0
  0
INSERT
  5
4BC
330
4AF
100
AcDbEntity
  8
COTAS
100
AcDbBlockReference
  2
block 122
 10
0.0
 20
0.0
 30
0.0
  0
INSERT
  5
4C4
330
4AF
100
AcDbEntity
  8
COTAS
100
AcDbBlockReference
  2
block 123
 10
0.0
 20
0.0
 30
0.0
  0
INSERT
  5
4CC
330
4AF
100
AcDbEntity
  8
COTAS
100
AcDbBlockReference
  2
block 124
 10
0.0
 20
0.0
 30
0.0
  0
INSERT
  5
4D4
330
4AF
100
AcDbEntity
  8
COTAS
100
AcDbBlockReference
  2
block 125
 10
0.0
 20
0.0
 30
0.0
  0
INSERT
  5
4DF
330
4AF
100
AcDbEntity
  8
COTAS
100
AcDbBlockReference
  2
block 126
 10
0.0
 20
0.0
 30
0.0
  0
INSERT
  5
4EA
330
4AF
100
AcDbEntity
  8
COTAS
100
AcDbBlockReference
  2
block 127
 10
0.0
 20
0.0
 30
0.0
  0
INSERT
  5
4EF
330
4AF
100
AcDbEntity
  8
COTAS
100
AcDbBlockReference
  2
block 128
 10
0.0
 20
0.0
 30
0.0
  0
INSERT
  5
4F7
330
4AF
100
AcDbEntity
  8
COTAS
100
AcDbBlockReference
  2
block 129
 10
0.0
 20
0.0
 30
0.0
  0
INSERT
  5
4FF
330
4AF
100
AcDbEntity
  8
COTAS
100
AcDbBlockReference
  2
block 130
 10
0.0
 20
0.0
 30
0.0
  0
ENDBLK
  5
4B2
330
4AF
100
AcDbEntity
  8
0
100
AcDbBlockEnd
  0
BLOCK
  5
4B5
330
4B3
100
AcDbEntity
  8
0
100
AcDbBlockBegin
  2
block 121
 70
     0
 71
     0
 10
0.0
 20
0.0
 30
0.0
  3
block 121
  1

  0
POLYLINE
  5
4B7
330
4B3
100
AcDbEntity
  8
COTAS
 62
     3
420
    65280
370
    25
100
AcDb2dPolyline
 66
     1
 10
0.0
 20
0.0
 30
0.0
  0
VERTEX
  5
4B8
330
4B7
100
AcDbEntity
  8
COTAS
 62
     3
420
    65280
370
    25
100
AcDbVertex
100
AcDb2dVertex
 10
43.48540194009561
 20
137.8049438477949
 30
0.0
  0
VERTEX
  5
4B9
330
4B7
100
AcDbEntity
  8
COTAS
 62
     3
420
    65280
370
    25
100
AcDbVertex
100
AcDb2dVertex
 10
43.48540194009561
 20
99.13992269063931
 30
0.0
  0
SEQEND
  5
4BA
330
4B7
100
AcDbEntity
  8
COTAS
370
    25
  0
ENDBLK
  5
4B6
330
4B3
100
AcDbEntity
  8
0
100
AcDbBlockEnd
  0
BLOCK
  5
4BD
330
4BB
100
AcDbEntity
  8
0
100
AcDbBlockBegin
  2
block 122
 70
     0
 71
     0
 10
0.0
 20
0.0
 30
0.0
  3
block 122
  1

  0
POLYLINE
  5
4BF
330
4BB
100
AcDbEntity
  8
COTAS
 62
     3
420
    65280
370
    25
100
AcDb2dPolyline
 66
     1
 10
0.0
 20
0.0
 30
0.0
  0
VERTEX
  5
4C0
330
4BF
100
AcDbEntity
  8
COTAS
 62
     3
420
    65280
370
    25
100
AcDbVertex
100
AcDb2dVertex
 10
78.45572800672522
 20
137.8049438477949
 30
0.0
  0
VERTEX
  5
4C1
330
4BF
100
AcDbEntity
  8
COTAS
 62
     3
420
    65280
370
    25
100
AcDbVertex
100
AcDb2dVertex
 10
78.45572800672522
 20
99.13992269063931
 30
0.0
  0
SEQEND
  5
4C2
330
4BF
100
AcDbEntity
  8
COTAS
370
    25
  0
ENDBLK
  5
4BE
330
4BB
100
AcDbEntity
  8
0
100
AcDbBlockEnd
  0
BLOCK
  5
4C5
330
4C3
100
AcDbEntity
  8
0
100
AcDbBlockBegin
  2
block 123
 70
     0
 71
     0
 10
0.0
 20
0.0
 30
0.0
  3
block 123
  1

  0
POLYLINE
  5
4C7
330
4C3
100
AcDbEntity
  8
COTAS
 62
     3
420
    65280
370
    25
100
AcDb2dPolyline
 66
     1
 10
0.0
 20
0.0
 30
0.0
  0
VERTEX
  5
4C8
330
4C7
100
AcDbEntity
  8
COTAS
 62
     3
420
    65280
370
    25
100
AcDbVertex
100
AcDb2dVertex
 10
46.48280924441018
 20
101.1384239000329
 30
0.0
  0
VERTEX
  5
4C9
330
4C7
100
AcDbEntity
  8
COTAS
 62
     3
420
    65280
370
    25
100
AcDbVertex
100
AcDb2dVertex
 10
56.7598803661857
 20
101.1384239000329
 30
0.0
  0
SEQEND
  5
4CA
330
4C7
100
AcDbEntity
  8
COTAS
370
    25
  0
ENDBLK
  5
4C6
330
4C3
100
AcDbEntity
  8
0
100
AcDbBlockEnd
  0
BLOCK
  5
4CD
330
4CB
100
AcDbEntity
  8
0
100
AcDbBlockBegin
  2
block 124
 70
     0
 71
     0
 10
0.0
 20
0.0
 30
0.0
  3
block 124
  1

  0
POLYLINE
  5
4CF
330
4CB
100
AcDbEntity
  8
COTAS
 62
     3
420
    65280
370
    25
100
AcDb2dPolyline
 66
     1
 10
0.0
 20
0.0
 30
0.0
  0
VERTEX
  5
4D0
330
4CF
100
AcDbEntity
  8
COTAS
 62
     3
420
    65280
370
    25
100
AcDbVertex
100
AcDb2dVertex
 10
75.45832070241066
 20
101.1384239000329
 30
0.0
  0
VERTEX
  5
4D1
330
4CF
100
AcDbEntity
  8
COTAS
 62
     3
420
    65280
370
    25
100
AcDbVertex
100
AcDb2dVertex
 10
65.18124958063514
 20
101.1384239000329
 30
0.0
  0
SEQEND
  5
4D2
330
4CF
100
AcDbEntity
  8
COTAS
370
    25
  0
ENDBLK
  5
4CE
330
4CB
100
AcDbEntity
  8
0
100
AcDbBlockEnd
  0
BLOCK
  5
4D5
330
4D3
100
AcDbEntity
  8
0
100
AcDbBlockBegin
  2
block 125
 70
     0
 71
     0
 10
0.0
 20
0.0
 30
0.0
  3
block 125
  1

  0
POLYLINE
  5
4D7
330
4D3
100
AcDbEntity
  8
COTAS
370
     0
100
AcDb2dPolyline
 66
     1
 10
0.0
 20
0.0
 30
0.0
  0
VERTEX
  5
4D8
330
4D7
100
AcDbEntity
  8
COTAS
370
     0
100
AcDbVertex
100
AcDb2dVertex
 10
46.48280924441018
 20
101.6379630749373
 30
0.0
  0
VERTEX
  5
4D9
330
4D7
100
AcDbEntity
  8
COTAS
370
     0
100
AcDbVertex
100
AcDb2dVertex
 10
46.48280924441018
 20
100.6388847251284
 30
0.0
  0
VERTEX
  5
4DA
330
4D7
100
AcDbEntity
  8
COTAS
370
     0
100
AcDbVertex
100
AcDb2dVertex
 10
43.48540194009561
 20
101.1384239000329
 30
0.0
  0
VERTEX
  5
4DB
330
4D7
100
AcDbEntity
  8
COTAS
370
     0
100
AcDbVertex
100
AcDb2dVertex
 10
46.48280924441018
 20
101.6379630749373
 30
0.0
  0
SEQEND
  5
4DC
330
4D7
100
AcDbEntity
  8
COTAS
370
     0
  0
HATCH
  5
4DD
330
4D3
100
AcDbEntity
  8
COTAS
 62
     3
420
    65280
100
AcDbHatch
 10
0.0
 20
0.0
 30
0.0
210
0.0
220
0.0
230
1.0
  2
SOLID
 70
     1
 71
     0
 91
        1
 92
        1
 93
        3
 72
     1
 10
46.48280924441018
 20
101.6379630749373
 11
46.48280924441018
 21
100.6388847251284
 72
     1
 10
46.48280924441018
 20
100.6388847251284
 11
43.48540194009561
 21
101.1384239000329
 72
     1
 10
43.48540194009561
 20
101.1384239000329
 11
46.48280924441018
 21
101.6379630749373
 97
        0
 75
     2
 76
     1
 98
        0
  0
ENDBLK
  5
4D6
330
4D3
100
AcDbEntity
  8
0
100
AcDbBlockEnd
  0
BLOCK
  5
4E0
330
4DE
100
AcDbEntity
  8
0
100
AcDbBlockBegin
  2
block 126
 70
     0
 71
     0
 10
0.0
 20
0.0
 30
0.0
  3
block 126
  1

  0
POLYLINE
  5
4E2
330
4DE
100
AcDbEntity
  8
COTAS
370
     0
100
AcDb2dPolyline
 66
     1
 10
0.0
 20
0.0
 30
0.0
  0
VERTEX
  5
4E3
330
4E2
100
AcDbEntity
  8
COTAS
370
     0
100
AcDbVertex
100
AcDb2dVertex
 10
75.45832070241066
 20
101.6379630749373
 30
0.0
  0
VERTEX
  5
4E4
330
4E2
100
AcDbEntity
  8
COTAS
370
     0
100
AcDbVertex
100
AcDb2dVertex
 10
75.45832070241066
 20
100.6388847251284
 30
0.0
  0
VERTEX
  5
4E5
330
4E2
100
AcDbEntity
  8
COTAS
370
     0
100
AcDbVertex
100
AcDb2dVertex
 10
78.45572800672522
 20
101.1384239000329
 30
0.0
  0
VERTEX
  5
4E6
330
4E2
100
AcDbEntity
  8
COTAS
370
     0
100
AcDbVertex
100
AcDb2dVertex
 10
75.45832070241066
 20
101.6379630749373
 30
0.0
  0
SEQEND
  5
4E7
330
4E2
100
AcDbEntity
  8
COTAS
370
     0
  0
HATCH
  5
4E8
330
4DE
100
AcDbEntity
  8
COTAS
 62
     3
420
    65280
100
AcDbHatch
 10
0.0
 20
0.0
 30
0.0
210
0.0
220
0.0
230
1.0
  2
SOLID
 70
     1
 71
     0
 91
        1
 92
        1
 93
        3
 72
     1
 10
75.45832070241066
 20
101.6379630749373
 11
75.45832070241066
 21
100.6388847251284
 72
     1
 10
75.45832070241066
 20
100.6388847251284
 11
78.45572800672522
 21
101.1384239000329
 72
     1
 10
78.45572800672522
 20
101.1384239000329
 11
75.45832070241066
 21
101.6379630749373
 97
        0
 75
     2
 76
     1
 98
        0
  0
ENDBLK
  5
4E1
330
4DE
100
AcDbEntity
  8
0
100
AcDbBlockEnd
  0
BLOCK
  5
4EB
330
4E9
100
AcDbEntity
  8
0
100
AcDbBlockBegin
  2
block 127
 70
     0
 71
     0
 10
0.0
 20
0.0
 30
0.0
  3
block 127
  1

  0
MTEXT
  5
4ED
330
4E9
100
AcDbEntity
  8
COTAS
 62
     6
420
 16711935
100
AcDbMText
 10
57.40204658826976
 20
99.88923145299597
 30
0.0
 40
2.497883457403663
 41
0.0
 71
     7
 72
     1
  1
\fMyriad Pro|b0|i0|c0|p34;\W1;350
 73
     1
 44
1.0
  0
ENDBLK
  5
4EC
330
4E9
100
AcDbEntity
  8
0
100
AcDbBlockEnd
  0
BLOCK
  5
4F0
330
4EE
100
AcDbEntity
  8
0
100
AcDbBlockBegin
  2
block 128
 70
     0
 71
     0
 10
0.0
 20
0.0
 30
0.0
  3
block 128
  1

  0
POLYLINE
  5
4F2
330
4EE
100
AcDbEntity
  8
COTAS
370
     0
100
AcDb2dPolyline
 66
     1
 10
0.0
 20
0.0
 30
0.0
  0
VERTEX
  5
4F3
330
4F2
100
AcDbEntity
  8
COTAS
370
     0
100
AcDbVertex
100
AcDb2dVertex
 10
43.48540194009561
 20
137.8049438477949
 30
0.0
  0
VERTEX
  5
4F4
330
4F2
100
AcDbEntity
  8
COTAS
370
     0
100
AcDbVertex
100
AcDb2dVertex
 10
43.48540194009561
 20
137.8049438477949
 30
0.0
  0
SEQEND
  5
4F5
330
4F2
100
AcDbEntity
  8
COTAS
370
     0
  0
ENDBLK
  5
4F1
330
4EE
100
AcDbEntity
  8
0
100
AcDbBlockEnd
  0
BLOCK
  5
4F8
330
4F6
100
AcDbEntity
  8
0
100
AcDbBlockBegin
  2
block 129
 70
     0
 71
     0
 10
0.0
 20
0.0
 30
0.0
  3
block 129
  1

  0
POLYLINE
  5
4FA
330
4F6
100
AcDbEntity
  8
COTAS
370
     0
100
AcDb2dPolyline
 66
     1
 10
0.0
 20
0.0
 30
0.0
  0
VERTEX
  5
4FB
330
4FA
100
AcDbEntity
  8
COTAS
370
     0
100
AcDbVertex
100
AcDb2dVertex
 10
78.45572800672522
 20
137.8049438477949
 30
0.0
  0
VERTEX
  5
4FC
330
4FA
100
AcDbEntity
  8
COTAS
370
     0
100
AcDbVertex
100
AcDb2dVertex
 10
78.45572800672522
 20
137.8049438477949
 30
0.0
  0
SEQEND
  5
4FD
330
4FA
100
AcDbEntity
  8
COTAS
370
     0
  0
ENDBLK
  5
4F9
330
4F6
100
AcDbEntity
  8
0
100
AcDbBlockEnd
  0
BLOCK
  5
500
330
4FE
100
AcDbEntity
  8
0
100
AcDbBlockBegin
  2
block 130
 70
     0
 71
     0
 10
0.0
 20
0.0
 30
0.0
  3
block 130
  1

  0
POLYLINE
  5
502
330
4FE
100
AcDbEntity
  8
COTAS
370
     0
100
AcDb2dPolyline
 66
     1
 10
0.0
 20
0.0
 30
0.0
  0
VERTEX
  5
503
330
502
100
AcDbEntity
  8
COTAS
370
     0
100
AcDbVertex
100
AcDb2dVertex
 10
78.45572800672522
 20
101.1384239000329
 30
0.0
  0
VERTEX
  5
504
330
502
100
AcDbEntity
  8
COTAS
370
     0
100
AcDbVertex
100
AcDb2dVertex
 10
78.45572800672522
 20
101.1384239000329
 30
0.0
  0
SEQEND
  5
505
330
502
100
AcDbEntity
  8
COTAS
370
     0
  0
ENDBLK
  5
501
330
4FE
100
AcDbEntity
  8
0
100
AcDbBlockEnd
  0
BLOCK
  5
508
330
506
100
AcDbEntity
  8
0
100
AcDbBlockBegin
  2
block 131
 70
     0
 71
     0
 10
0.0
 20
0.0
 30
0.0
  3
block 131
  1

  0
INSERT
  5
50B
330
506
100
AcDbEntity
  8
COTAS
100
AcDbBlockReference
  2
block 132
 10
0.0
 20
0.0
 30
0.0
  0
INSERT
  5
513
330
506
100
AcDbEntity
  8
COTAS
100
AcDbBlockReference
  2
block 133
 10
0.0
 20
0.0
 30
0.0
  0
INSERT
  5
51B
330
506
100
AcDbEntity
  8
COTAS
100
AcDbBlockReference
  2
block 134
 10
0.0
 20
0.0
 30
0.0
  0
INSERT
  5
523
330
506
100
AcDbEntity
  8
COTAS
100
AcDbBlockReference
  2
block 135
 10
0.0
 20
0.0
 30
0.0
  0
INSERT
  5
52B
330
506
100
AcDbEntity
  8
COTAS
100
AcDbBlockReference
  2
block 136
 10
0.0
 20
0.0
 30
0.0
  0
INSERT
  5
536
330
506
100
AcDbEntity
  8
COTAS
100
AcDbBlockReference
  2
block 137
 10
0.0
 20
0.0
 30
0.0
  0
INSERT
  5
541
330
506
100
AcDbEntity
  8
COTAS
100
AcDbBlockReference
  2
block 138
 10
0.0
 20
0.0
 30
0.0
  0
INSERT
  5
546
330
506
100
AcDbEntity
  8
COTAS
100
AcDbBlockReference
  2
block 139
 10
0.0
 20
0.0
 30
0.0
  0
INSERT
  5
54E
330
506
100
AcDbEntity
  8
COTAS
100
AcDbBlockReference
  2
block 140
 10
0.0
 20
0.0
 30
0.0
  0
INSERT
  5
556
330
506
100
AcDbEntity
  8
COTAS
100
AcDbBlockReference
  2
block 141
 10
0.0
 20
0.0
 30
0.0
  0
ENDBLK
  5
509
330
506
100
AcDbEntity
  8
0
100
AcDbBlockEnd
  0
BLOCK
  5
50C
330
50A
100
AcDbEntity
  8
0
100
AcDbBlockBegin
  2
block 132
 70
     0
 71
     0
 10
0.0
 20
0.0
 30
0.0
  3
block 132
  1

  0
POLYLINE
  5
50E
330
50A
100
AcDbEntity
  8
COTAS
 62
     3
420
    65280
370
    25
100
AcDb2dPolyline
 66
     1
 10
0.0
 20
0.0
 30
0.0
  0
VERTEX
  5
50F
330
50E
100
AcDbEntity
  8
COTAS
 62
     3
420
    65280
370
    25
100
AcDbVertex
100
AcDb2dVertex
 10
77.18552046336475
 20
193.7448909475857
 30
0.0
  0
VERTEX
  5
510
330
50E
100
AcDbEntity
  8
COTAS
 62
     3
420
    65280
370
    25
100
AcDbVertex
100
AcDb2dVertex
 10
75.18719150885907
 20
193.7448909475857
 30
0.0
  0
SEQEND
  5
511
330
50E
100
AcDbEntity
  8
COTAS
370
    25
  0
ENDBLK
  5
50D
330
50A
100
AcDbEntity
  8
0
100
AcDbBlockEnd
  0
BLOCK
  5
514
330
512
100
AcDbEntity
  8
0
100
AcDbBlockBegin
  2
block 133
 70
     0
 71
     0
 10
0.0
 20
0.0
 30
0.0
  3
block 133
  1

  0
POLYLINE
  5
516
330
512
100
AcDbEntity
  8
COTAS
 62
     3
420
    65280
370
    25
100
AcDb2dPolyline
 66
     1
 10
0.0
 20
0.0
 30
0.0
  0
VERTEX
  5
517
330
516
100
AcDbEntity
  8
COTAS
 62
     3
420
    65280
370
    25
100
AcDbVertex
100
AcDb2dVertex
 10
68.53556901267454
 20
203.7363634652262
 30
0.0
  0
VERTEX
  5
518
330
516
100
AcDbEntity
  8
COTAS
 62
     3
420
    65280
370
    25
100
AcDbVertex
100
AcDb2dVertex
 10
79.18367716298253
 20
203.7363634652262
 30
0.0
  0
SEQEND
  5
519
330
516
100
AcDbEntity
  8
COTAS
370
    25
  0
ENDBLK
  5
515
330
512
100
AcDbEntity
  8
0
100
AcDbBlockEnd
  0
BLOCK
  5
51C
330
51A
100
AcDbEntity
  8
0
100
AcDbBlockBegin
  2
block 134
 70
     0
 71
     0
 10
0.0
 20
0.0
 30
0.0
  3
block 134
  1

  0
POLYLINE
  5
51E
330
51A
100
AcDbEntity
  8
COTAS
 62
     3
420
    65280
370
    25
100
AcDb2dPolyline
 66
     1
 10
0.0
 20
0.0
 30
0.0
  0
VERTEX
  5
51F
330
51E
100
AcDbEntity
  8
COTAS
 62
     3
420
    65280
370
    25
100
AcDbVertex
100
AcDb2dVertex
 10
77.18552046336475
 20
190.7474836432712
 30
0.0
  0
VERTEX
  5
520
330
51E
100
AcDbEntity
  8
COTAS
 62
     3
420
    65280
370
    25
100
AcDbVertex
100
AcDb2dVertex
 10
77.18552046336475
 20
187.7499040840687
 30
0.0
  0
SEQEND
  5
521
330
51E
100
AcDbEntity
  8
COTAS
370
    25
  0
ENDBLK
  5
51D
330
51A
100
AcDbEntity
  8
0
100
AcDbBlockEnd
  0
BLOCK
  5
524
330
522
100
AcDbEntity
  8
0
100
AcDbBlockBegin
  2
block 135
 70
     0
 71
     0
 10
0.0
 20
0.0
 30
0.0
  3
block 135
  1

  0
POLYLINE
  5
526
330
522
100
AcDbEntity
  8
COTAS
 62
     3
420
    65280
370
    25
100
AcDb2dPolyline
 66
     1
 10
0.0
 20
0.0
 30
0.0
  0
VERTEX
  5
527
330
526
100
AcDbEntity
  8
COTAS
 62
     3
420
    65280
370
    25
100
AcDbVertex
100
AcDb2dVertex
 10
77.18552046336475
 20
206.7339430244287
 30
0.0
  0
VERTEX
  5
528
330
526
100
AcDbEntity
  8
COTAS
 62
     3
420
    65280
370
    25
100
AcDbVertex
100
AcDb2dVertex
 10
77.18552046336475
 20
209.7313503287433
 30
0.0
  0
SEQEND
  5
529
330
526
100
AcDbEntity
  8
COTAS
370
    25
  0
ENDBLK
  5
525
330
522
100
AcDbEntity
  8
0
100
AcDbBlockEnd
  0
BLOCK
  5
52C
330
52A
100
AcDbEntity
  8
0
100
AcDbBlockBegin
  2
block 136
 70
     0
 71
     0
 10
0.0
 20
0.0
 30
0.0
  3
block 136
  1

  0
POLYLINE
  5
52E
330
52A
100
AcDbEntity
  8
COTAS
370
     0
100
AcDb2dPolyline
 66
     1
 10
0.0
 20
0.0
 30
0.0
  0
VERTEX
  5
52F
330
52E
100
AcDbEntity
  8
COTAS
370
     0
100
AcDbVertex
100
AcDb2dVertex
 10
76.68580903357241
 20
190.7474836432712
 30
0.0
  0
VERTEX
  5
530
330
52E
100
AcDbEntity
  8
COTAS
370
     0
100
AcDbVertex
100
AcDb2dVertex
 10
77.6850596382692
 20
190.7474836432712
 30
0.0
  0
VERTEX
  5
531
330
52E
100
AcDbEntity
  8
COTAS
370
     0
100
AcDbVertex
100
AcDb2dVertex
 10
77.18552046336475
 20
193.7448909475857
 30
0.0
  0
VERTEX
  5
532
330
52E
100
AcDbEntity
  8
COTAS
370
     0
100
AcDbVertex
100
AcDb2dVertex
 10
76.68580903357241
 20
190.7474836432712
 30
0.0
  0
SEQEND
  5
533
330
52E
100
AcDbEntity
  8
COTAS
370
     0
  0
HATCH
  5
534
330
52A
100
AcDbEntity
  8
COTAS
 62
     3
420
    65280
100
AcDbHatch
 10
0.0
 20
0.0
 30
0.0
210
0.0
220
0.0
230
1.0
  2
SOLID
 70
     1
 71
     0
 91
        1
 92
        1
 93
        3
 72
     1
 10
76.68580903357241
 20
190.7474836432712
 11
77.6850596382692
 21
190.7474836432712
 72
     1
 10
77.6850596382692
 20
190.7474836432712
 11
77.18552046336475
 21
193.7448909475857
 72
     1
 10
77.18552046336475
 20
193.7448909475857
 11
76.68580903357241
 21
190.7474836432712
 97
        0
 75
     2
 76
     1
 98
        0
  0
ENDBLK
  5
52D
330
52A
100
AcDbEntity
  8
0
100
AcDbBlockEnd
  0
BLOCK
  5
537
330
535
100
AcDbEntity
  8
0
100
AcDbBlockBegin
  2
block 137
 70
     0
 71
     0
 10
0.0
 20
0.0
 30
0.0
  3
block 137
  1

  0
POLYLINE
  5
539
330
535
100
AcDbEntity
  8
COTAS
370
     0
100
AcDb2dPolyline
 66
     1
 10
0.0
 20
0.0
 30
0.0
  0
VERTEX
  5
53A
330
539
100
AcDbEntity
  8
COTAS
370
     0
100
AcDbVertex
100
AcDb2dVertex
 10
76.68580903357241
 20
206.7339430244287
 30
0.0
  0
VERTEX
  5
53B
330
539
100
AcDbEntity
  8
COTAS
370
     0
100
AcDbVertex
100
AcDb2dVertex
 10
77.6850596382692
 20
206.7339430244287
 30
0.0
  0
VERTEX
  5
53C
330
539
100
AcDbEntity
  8
COTAS
370
     0
100
AcDbVertex
100
AcDb2dVertex
 10
77.18552046336475
 20
203.7363634652262
 30
0.0
  0
VERTEX
  5
53D
330
539
100
AcDbEntity
  8
COTAS
370
     0
100
AcDbVertex
100
AcDb2dVertex
 10
76.68580903357241
 20
206.7339430244287
 30
0.0
  0
SEQEND
  5
53E
330
539
100
AcDbEntity
  8
COTAS
370
     0
  0
HATCH
  5
53F
330
535
100
AcDbEntity
  8
COTAS
 62
     3
420
    65280
100
AcDbHatch
 10
0.0
 20
0.0
 30
0.0
210
0.0
220
0.0
230
1.0
  2
SOLID
 70
     1
 71
     0
 91
        1
 92
        1
 93
        3
 72
     1
 10
76.68580903357241
 20
206.7339430244287
 11
77.6850596382692
 21
206.7339430244287
 72
     1
 10
77.6850596382692
 20
206.7339430244287
 11
77.18552046336475
 21
203.7363634652262
 72
     1
 10
77.18552046336475
 20
203.7363634652262
 11
76.68580903357241
 21
206.7339430244287
 97
        0
 75
     2
 76
     1
 98
        0
  0
ENDBLK
  5
538
330
535
100
AcDbEntity
  8
0
100
AcDbBlockEnd
  0
BLOCK
  5
542
330
540
100
AcDbEntity
  8
0
100
AcDbBlockBegin
  2
block 138
 70
     0
 71
     0
 10
0.0
 20
0.0
 30
0.0
  3
block 138
  1

  0
MTEXT
  5
544
330
540
100
AcDbEntity
  8
COTAS
 62
     6
420
 16711935
100
AcDbMText
 10
78.43454065551376
 20
195.0616073106787
 30
0.0
 40
2.497883457403663
 41
0.0
 71
     7
 72
     1
  1
\fMyriad Pro|b0|i0|c0|p34;\W1;100
 11
-4.371139000186241E-8
 21
0.999999999999999
 31
0.0
 73
     1
 44
1.0
  0
ENDBLK
  5
543
330
540
100
AcDbEntity
  8
0
100
AcDbBlockEnd
  0
BLOCK
  5
547
330
545
100
AcDbEntity
  8
0
100
AcDbBlockBegin
  2
block 139
 70
     0
 71
     0
 10
0.0
 20
0.0
 30
0.0
  3
block 139
  1

  0
POLYLINE
  5
549
330
545
100
AcDbEntity
  8
COTAS
370
     0
100
AcDb2dPolyline
 66
     1
 10
0.0
 20
0.0
 30
0.0
  0
VERTEX
  5
54A
330
549
100
AcDbEntity
  8
COTAS
370
     0
100
AcDbVertex
100
AcDb2dVertex
 10
77.18552046336475
 20
193.7448909475857
 30
0.0
  0
VERTEX
  5
54B
330
549
100
AcDbEntity
  8
COTAS
370
     0
100
AcDbVertex
100
AcDb2dVertex
 10
77.18552046336475
 20
193.7448909475857
 30
0.0
  0
SEQEND
  5
54C
330
549
100
AcDbEntity
  8
COTAS
370
     0
  0
ENDBLK
  5
548
330
545
100
AcDbEntity
  8
0
100
AcDbBlockEnd
  0
BLOCK
  5
54F
330
54D
100
AcDbEntity
  8
0
100
AcDbBlockBegin
  2
block 140
 70
     0
 71
     0
 10
0.0
 20
0.0
 30
0.0
  3
block 140
  1

  0
POLYLINE
  5
551
330
54D
100
AcDbEntity
  8
COTAS
370
     0
100
AcDb2dPolyline
 66
     1
 10
0.0
 20
0.0
 30
0.0
  0
VERTEX
  5
552
330
551
100
AcDbEntity
  8
COTAS
370
     0
100
AcDbVertex
100
AcDb2dVertex
 10
68.53556901267454
 20
203.7363634652262
 30
0.0
  0
VERTEX
  5
553
330
551
100
AcDbEntity
  8
COTAS
370
     0
100
AcDbVertex
100
AcDb2dVertex
 10
68.53556901267454
 20
203.7363634652262
 30
0.0
  0
SEQEND
  5
554
330
551
100
AcDbEntity
  8
COTAS
370
     0
  0
ENDBLK
  5
550
330
54D
100
AcDbEntity
  8
0
100
AcDbBlockEnd
  0
BLOCK
  5
557
330
555
100
AcDbEntity
  8
0
100
AcDbBlockBegin
  2
block 141
 70
     0
 71
     0
 10
0.0
 20
0.0
 30
0.0
  3
block 141
  1

  0
POLYLINE
  5
559
330
555
100
AcDbEntity
  8
COTAS
370
     0
100
AcDb2dPolyline
 66
     1
 10
0.0
 20
0.0
 30
0.0
  0
VERTEX
  5
55A
330
559
100
AcDbEntity
  8
COTAS
370
     0
100
AcDbVertex
100
AcDb2dVertex
 10
77.18552046336475
 20
203.7363634652262
 30
0.0
  0
VERTEX
  5
55B
330
559
100
AcDbEntity
  8
COTAS
370
     0
100
AcDbVertex
100
AcDb2dVertex
 10
77.18552046336475
 20
203.7363634652262
 30
0.0
  0
SEQEND
  5
55C
330
559
100
AcDbEntity
  8
COTAS
370
     0
  0
ENDBLK
  5
558
330
555
100
AcDbEntity
  8
0
100
AcDbBlockEnd
  0
BLOCK
  5
560
330
55E
100
AcDbEntity
  8
0
100
AcDbBlockBegin
  2
block 142
 70
     0
 71
     0
 10
0.0
 20
0.0
 30
0.0
  3
block 142
  1

  0
POLYLINE
  5
562
330
55E
100
AcDbEntity
  8
1
 62
     7
420
 16777215
370
    25
100
AcDb2dPolyline
 66
     1
 10
0.0
 20
0.0
 30
0.0
  0
VERTEX
  5
563
330
562
100
AcDbEntity
  8
1
 62
     7
420
 16777215
370
    25
100
AcDbVertex
100
AcDb2dVertex
 10
119.574692296877
 20
206.1343237596555
 30
0.0
  0
VERTEX
  5
564
330
562
100
AcDbEntity
  8
1
 62
     7
420
 16777215
370
    25
100
AcDbVertex
100
AcDb2dVertex
 10
119.574692296877
 20
233.311321933112
 30
0.0
  0
SEQEND
  5
565
330
562
100
AcDbEntity
  8
1
370
    25
  0
ENDBLK
  5
561
330
55E
100
AcDbEntity
  8
0
100
AcDbBlockEnd
  0
BLOCK
  5
568
330
566
100
AcDbEntity
  8
0
100
AcDbBlockBegin
  2
block 143
 70
     0
 71
     0
 10
0.0
 20
0.0
 30
0.0
  3
block 143
  1

  0
SPLINE
  5
56A
330
566
100
AcDbEntity
  8
1
 62
     7
420
 16777215
370
    25
100
AcDbSpline
210
0.0
220
0.0
230
1.0
 70
     8
 71
     3
 72
    11
 73
     7
 74
     0
 42
0.0000000001
 43
0.0000000001
 40
0.0
 40
0.0
 40
0.0
 40
0.0
 40
1.0
 40
1.0
 40
1.0
 40
2.0
 40
2.0
 40
2.0
 40
2.0
 10
119.574692296877
 20
206.1343237596555
 30
0.0
 10
119.574692296877
 20
205.913665248258
 30
0.0
 10
119.7534928705152
 20
205.7346924197319
 30
0.0
 10
119.9743236368005
 20
205.7346924197319
 30
0.0
 10
119.9743236368005
 20
205.7346924197319
 30
0.0
 10
119.9743236368005
 20
205.7346924197319
 30
0.0
 10
119.9743236368005
 20
205.7346924197319
 30
0.0
  0
ENDBLK
  5
569
330
566
100
AcDbEntity
  8
0
100
AcDbBlockEnd
  0
BLOCK
  5
56D
330
56B
100
AcDbEntity
  8
0
100
AcDbBlockBegin
  2
block 144
 70
     0
 71
     0
 10
0.0
 20
0.0
 30
0.0
  3
block 144
  1

  0
SPLINE
  5
56F
330
56B
100
AcDbEntity
  8
1
 62
     7
420
 16777215
370
    25
100
AcDbSpline
210
0.0
220
0.0
230
1.0
 70
     8
 71
     3
 72
    11
 73
     7
 74
     0
 42
0.0000000001
 43
0.0000000001
 40
0.0
 40
0.0
 40
0.0
 40
0.0
 40
1.0
 40
1.0
 40
1.0
 40
2.0
 40
2.0
 40
2.0
 40
2.0
 10
119.9743236368005
 20
233.7109532730356
 30
0.0
 10
119.7534928705152
 20
233.7109532730356
 30
0.0
 10
119.574692296877
 20
233.5321526993974
 30
0.0
 10
119.574692296877
 20
233.311321933112
 30
0.0
 10
119.574692296877
 20
233.311321933112
 30
0.0
 10
119.574692296877
 20
233.311321933112
 30
0.0
 10
119.574692296877
 20
233.311321933112
 30
0.0
  0
ENDBLK
  5
56E
330
56B
100
AcDbEntity
  8
0
100
AcDbBlockEnd
  0
BLOCK
  5
572
330
570
100
AcDbEntity
  8
0
100
AcDbBlockBegin
  2
block 145
 70
     0
 71
     0
 10
0.0
 20
0.0
 30
0.0
  3
block 145
  1

  0
POLYLINE
  5
574
330
570
100
AcDbEntity
  8
1
 62
     7
420
 16777215
370
    25
100
AcDb2dPolyline
 66
     1
 10
0.0
 20
0.0
 30
0.0
  0
VERTEX
  5
575
330
574
100
AcDbEntity
  8
1
 62
     7
420
 16777215
370
    25
100
AcDbVertex
100
AcDb2dVertex
 10
175.2274904985417
 20
233.7109532730356
 30
0.0
  0
VERTEX
  5
576
330
574
100
AcDbEntity
  8
1
 62
     7
420
 16777215
370
    25
100
AcDbVertex
100
AcDb2dVertex
 10
119.9743236368005
 20
233.7109532730356
 30
0.0
  0
SEQEND
  5
577
330
574
100
AcDbEntity
  8
1
370
    25
  0
ENDBLK
  5
573
330
570
100
AcDbEntity
  8
0
100
AcDbBlockEnd
  0
BLOCK
  5
57A
330
578
100
AcDbEntity
  8
0
100
AcDbBlockBegin
  2
block 146
 70
     0
 71
     0
 10
0.0
 20
0.0
 30
0.0
  3
block 146
  1

  0
POLYLINE
  5
57C
330
578
100
AcDbEntity
  8
1
 62
     7
420
 16777215
370
    25
100
AcDb2dPolyline
 66
     1
 10
0.0
 20
0.0
 30
0.0
  0
VERTEX
  5
57D
330
57C
100
AcDbEntity
  8
1
 62
     7
420
 16777215
370
    25
100
AcDbVertex
100
AcDb2dVertex
 10
158.1746011064071
 20
205.7346924197319
 30
0.0
  0
VERTEX
  5
57E
330
57C
100
AcDbEntity
  8
1
 62
     7
420
 16777215
370
    25
100
AcDbVertex
100
AcDb2dVertex
 10
119.9743236368005
 20
205.7346924197319
 30
0.0
  0
SEQEND
  5
57F
330
57C
100
AcDbEntity
  8
1
370
    25
  0
ENDBLK
  5
57B
330
578
100
AcDbEntity
  8
0
100
AcDbBlockEnd
  0
BLOCK
  5
582
330
580
100
AcDbEntity
  8
0
100
AcDbBlockBegin
  2
block 147
 70
     0
 71
     0
 10
0.0
 20
0.0
 30
0.0
  3
block 147
  1

  0
SPLINE
  5
584
330
580
100
AcDbEntity
  8
1
 62
     7
420
 16777215
370
    25
100
AcDbSpline
210
0.0
220
0.0
230
1.0
 70
     8
 71
     3
 72
     8
 73
     4
 74
     0
 42
0.0000000001
 43
0.0000000001
 40
0.0
 40
0.0
 40
0.0
 40
0.0
 40
1.0
 40
1.0
 40
1.0
 40
1.0
 10
176.0267531783888
 20
232.9116905931885
 30
0.0
 10
176.0267531783888
 20
233.3531798708713
 30
0.0
 10
175.6691520311124
 20
233.7109532730356
 30
0.0
 10
175.2274904985417
 20
233.7109532730356
 30
0.0
  0
ENDBLK
  5
583
330
580
100
AcDbEntity
  8
0
100
AcDbBlockEnd
  0
BLOCK
  5
587
330
585
100
AcDbEntity
  8
0
100
AcDbBlockBegin
  2
block 148
 70
     0
 71
     0
 10
0.0
 20
0.0
 30
0.0
  3
block 148
  1

  0
POLYLINE
  5
589
330
585
100
AcDbEntity
  8
1
 62
     7
420
 16777215
370
    25
100
AcDb2dPolyline
 66
     1
 10
0.0
 20
0.0
 30
0.0
  0
VERTEX
  5
58A
330
589
100
AcDbEntity
  8
1
 62
     7
420
 16777215
370
    25
100
AcDbVertex
100
AcDb2dVertex
 10
159.1505973012376
 20
206.5203469634351
 30
0.0
  0
VERTEX
  5
58B
330
589
100
AcDbEntity
  8
1
 62
     7
420
 16777215
370
    25
100
AcDbVertex
100
AcDb2dVertex
 10
160.5100328765293
 20
212.7340975345827
 30
0.0
  0
SEQEND
  5
58C
330
589
100
AcDbEntity
  8
1
370
    25
  0
ENDBLK
  5
588
330
585
100
AcDbEntity
  8
0
100
AcDbBlockEnd
  0
BLOCK
  5
58F
330
58D
100
AcDbEntity
  8
0
100
AcDbBlockBegin
  2
block 149
 70
     0
 71
     0
 10
0.0
 20
0.0
 30
0.0
  3
block 149
  1

  0
SPLINE
  5
591
330
58D
100
AcDbEntity
  8
1
 62
     7
420
 16777215
370
    25
100
AcDbSpline
210
0.0
220
0.0
230
1.0
 70
     8
 71
     3
 72
     8
 73
     4
 74
     0
 42
0.0000000001
 43
0.0000000001
 40
0.0
 40
0.0
 40
0.0
 40
0.0
 40
1.0
 40
1.0
 40
1.0
 40
1.0
 10
162.2646211646592
 20
214.8517991264017
 30
0.0
 10
169.2171729500017
 20
217.4023772515087
 30
0.0
 10
175.3663279381875
 20
225.4239428711467
 30
0.0
 10
176.0236525904066
 20
232.8004139356063
 30
0.0
  0
ENDBLK
  5
590
330
58D
100
AcDbEntity
  8
0
100
AcDbBlockEnd
  0
BLOCK
  5
594
330
592
100
AcDbEntity
  8
0
100
AcDbBlockBegin
  2
block 150
 70
     0
 71
     0
 10
0.0
 20
0.0
 30
0.0
  3
block 150
  1

  0
SPLINE
  5
596
330
592
100
AcDbEntity
  8
1
 62
     7
420
 16777215
370
    25
100
AcDbSpline
210
0.0
220
0.0
230
1.0
 70
     8
 71
     3
 72
     8
 73
     4
 74
     0
 42
0.0000000001
 43
0.0000000001
 40
0.0
 40
0.0
 40
0.0
 40
0.0
 40
1.0
 40
1.0
 40
1.0
 40
1.0
 10
162.2646211646592
 20
214.8517991264017
 30
0.0
 10
161.4377977027484
 20
214.5519033665712
 30
0.0
 10
160.65093737483
 20
213.6020899147011
 30
0.0
 10
160.5100328765293
 20
212.7340975345827
 30
0.0
  0
ENDBLK
  5
595
330
592
100
AcDbEntity
  8
0
100
AcDbBlockEnd
  0
BLOCK
  5
599
330
597
100
AcDbEntity
  8
0
100
AcDbBlockBegin
  2
block 151
 70
     0
 71
     0
 10
0.0
 20
0.0
 30
0.0
  3
block 151
  1

  0
SPLINE
  5
59B
330
597
100
AcDbEntity
  8
1
 62
     7
420
 16777215
370
    25
100
AcDbSpline
210
0.0
220
0.0
230
1.0
 70
     8
 71
     3
 72
     8
 73
     4
 74
     0
 42
0.0000000001
 43
0.0000000001
 40
0.0
 40
0.0
 40
0.0
 40
0.0
 40
1.0
 40
1.0
 40
1.0
 40
1.0
 10
158.1746011064071
 20
205.7346924197319
 30
0.0
 10
158.6303875397854
 20
205.7234958520185
 30
0.0
 10
159.0641253475128
 20
206.0728287646758
 30
0.0
 10
159.1505973012376
 20
206.5203469634351
 30
0.0
  0
ENDBLK
  5
59A
330
597
100
AcDbEntity
  8
0
100
AcDbBlockEnd
  0
BLOCK
  5
59E
330
59C
100
AcDbEntity
  8
0
100
AcDbBlockBegin
  2
block 152
 70
     0
 71
     0
 10
0.0
 20
0.0
 30
0.0
  3
block 152
  1

  0
POLYLINE
  5
5A0
330
59C
100
AcDbEntity
  8
1
 62
     7
420
 16777215
370
    25
100
AcDb2dPolyline
 66
     1
 10
0.0
 20
0.0
 30
0.0
  0
VERTEX
  5
5A1
330
5A0
100
AcDbEntity
  8
1
 62
     7
420
 16777215
370
    25
100
AcDbVertex
100
AcDb2dVertex
 10
125.3696912355443
 20
228.7152170142153
 30
0.0
  0
VERTEX
  5
5A2
330
5A0
100
AcDbEntity
  8
1
 62
     7
420
 16777215
370
    25
100
AcDbVertex
100
AcDb2dVertex
 10
128.7737923301863
 20
228.7152170142153
 30
0.0
  0
SEQEND
  5
5A3
330
5A0
100
AcDbEntity
  8
1
370
    25
  0
ENDBLK
  5
59F
330
59C
100
AcDbEntity
  8
0
100
AcDbBlockEnd
  0
BLOCK
  5
5A6
330
5A4
100
AcDbEntity
  8
0
100
AcDbBlockBegin
  2
block 153
 70
     0
 71
     0
 10
0.0
 20
0.0
 30
0.0
  3
block 153
  1

  0
POLYLINE
  5
5A8
330
5A4
100
AcDbEntity
  8
1
 62
     7
420
 16777215
370
    25
100
AcDb2dPolyline
 66
     1
 10
0.0
 20
0.0
 30
0.0
  0
VERTEX
  5
5A9
330
5A8
100
AcDbEntity
  8
1
 62
     7
420
 16777215
370
    25
100
AcDbVertex
100
AcDb2dVertex
 10
124.3706128857354
 20
227.666184746916
 30
0.0
  0
VERTEX
  5
5AA
330
5A8
100
AcDbEntity
  8
1
 62
     7
420
 16777215
370
    25
100
AcDbVertex
100
AcDb2dVertex
 10
124.3706128857354
 20
220.2502673131277
 30
0.0
  0
SEQEND
  5
5AB
330
5A8
100
AcDbEntity
  8
1
370
    25
  0
ENDBLK
  5
5A7
330
5A4
100
AcDbEntity
  8
0
100
AcDbBlockEnd
  0
BLOCK
  5
5AE
330
5AC
100
AcDbEntity
  8
0
100
AcDbBlockBegin
  2
block 154
 70
     0
 71
     0
 10
0.0
 20
0.0
 30
0.0
  3
block 154
  1

  0
SPLINE
  5
5B0
330
5AC
100
AcDbEntity
  8
1
 62
     7
420
 16777215
370
    25
100
AcDbSpline
210
0.0
220
0.0
230
1.0
 70
     8
 71
     3
 72
    11
 73
     7
 74
     0
 42
0.0000000001
 43
0.0000000001
 40
0.0
 40
0.0
 40
0.0
 40
0.0
 40
1.0
 40
1.0
 40
1.0
 40
2.0
 40
2.0
 40
2.0
 40
2.0
 10
125.3696912355443
 20
228.7152170142153
 30
0.0
 10
124.8181310844947
 20
228.7152170142153
 30
0.0
 10
124.3706128857354
 20
228.267871070344
 30
0.0
 10
124.3706128857354
 20
227.7161386644065
 30
0.0
 10
124.3706128857354
 20
227.7161386644065
 30
0.0
 10
124.3706128857354
 20
227.7161386644065
 30
0.0
 10
124.3706128857354
 20
227.7161386644065
 30
0.0
  0
ENDBLK
  5
5AF
330
5AC
100
AcDbEntity
  8
0
100
AcDbBlockEnd
  0
BLOCK
  5
5B3
330
5B1
100
AcDbEntity
  8
0
100
AcDbBlockBegin
  2
block 155
 70
     0
 71
     0
 10
0.0
 20
0.0
 30
0.0
  3
block 155
  1

  0
POLYLINE
  5
5B5
330
5B1
100
AcDbEntity
  8
1
 62
     7
420
 16777215
370
    25
100
AcDb2dPolyline
 66
     1
 10
0.0
 20
0.0
 30
0.0
  0
VERTEX
  5
5B6
330
5B5
100
AcDbEntity
  8
1
 62
     7
420
 16777215
370
    25
100
AcDbVertex
100
AcDb2dVertex
 10
128.7958409558372
 20
219.2511889633188
 30
0.0
  0
VERTEX
  5
5B7
330
5B5
100
AcDbEntity
  8
1
 62
     7
420
 16777215
370
    25
100
AcDbVertex
100
AcDb2dVertex
 10
125.3696912355443
 20
219.2511889633188
 30
0.0
  0
SEQEND
  5
5B8
330
5B5
100
AcDbEntity
  8
1
370
    25
  0
ENDBLK
  5
5B4
330
5B1
100
AcDbEntity
  8
0
100
AcDbBlockEnd
  0
BLOCK
  5
5BB
330
5B9
100
AcDbEntity
  8
0
100
AcDbBlockBegin
  2
block 156
 70
     0
 71
     0
 10
0.0
 20
0.0
 30
0.0
  3
block 156
  1

  0
SPLINE
  5
5BD
330
5B9
100
AcDbEntity
  8
1
 62
     7
420
 16777215
370
    25
100
AcDbSpline
210
0.0
220
0.0
230
1.0
 70
     8
 71
     3
 72
    11
 73
     7
 74
     0
 42
0.0000000001
 43
0.0000000001
 40
0.0
 40
0.0
 40
0.0
 40
0.0
 40
1.0
 40
1.0
 40
1.0
 40
2.0
 40
2.0
 40
2.0
 40
2.0
 10
124.3706128857354
 20
220.2502673131277
 30
0.0
 10
124.3706128857354
 20
219.6985349071901
 30
0.0
 10
124.8181310844947
 20
219.2511889633188
 30
0.0
 10
125.3696912355443
 20
219.2511889633188
 30
0.0
 10
125.3696912355443
 20
219.2511889633188
 30
0.0
 10
125.3696912355443
 20
219.2511889633188
 30
0.0
 10
125.3696912355443
 20
219.2511889633188
 30
0.0
  0
ENDBLK
  5
5BC
330
5B9
100
AcDbEntity
  8
0
100
AcDbBlockEnd
  0
BLOCK
  5
5C0
330
5BE
100
AcDbEntity
  8
0
100
AcDbBlockBegin
  2
block 157
 70
     0
 71
     0
 10
0.0
 20
0.0
 30
0.0
  3
block 157
  1

  0
SPLINE
  5
5C2
330
5BE
100
AcDbEntity
  8
1
 62
     7
420
 16777215
370
    25
100
AcDbSpline
210
0.0
220
0.0
230
1.0
 70
     8
 71
     3
 72
     8
 73
     4
 74
     0
 42
0.0000000001
 43
0.0000000001
 40
0.0
 40
0.0
 40
0.0
 40
0.0
 40
1.0
 40
1.0
 40
1.0
 40
1.0
 10
130.6244988457633
 20
220.4435372973493
 30
0.0
 10
131.6225436662448
 20
222.3924290990283
 30
0.0
 10
131.6097968045403
 20
225.5970590334842
 30
0.0
 10
130.5955600245964
 20
227.5376826005441
 30
0.0
  0
ENDBLK
  5
5C1
330
5BE
100
AcDbEntity
  8
0
100
AcDbBlockEnd
  0
BLOCK
  5
5C5
330
5C3
100
AcDbEntity
  8
0
100
AcDbBlockBegin
  2
block 158
 70
     0
 71
     0
 10
0.0
 20
0.0
 30
0.0
  3
block 158
  1

  0
SPLINE
  5
5C7
330
5C3
100
AcDbEntity
  8
1
 62
     7
420
 16777215
370
    25
100
AcDbSpline
210
0.0
220
0.0
230
1.0
 70
     8
 71
     3
 72
     8
 73
     4
 74
     0
 42
0.0000000001
 43
0.0000000001
 40
0.0
 40
0.0
 40
0.0
 40
0.0
 40
1.0
 40
1.0
 40
1.0
 40
1.0
 10
130.5955600245964
 20
227.5376826005441
 30
0.0
 10
130.3216747528384
 20
228.2227402897147
 30
0.0
 10
129.5106987406143
 20
228.7469119135886
 30
0.0
 10
128.7737923301863
 20
228.7152170142153
 30
0.0
  0
ENDBLK
  5
5C6
330
5C3
100
AcDbEntity
  8
0
100
AcDbBlockEnd
  0
BLOCK
  5
5CA
330
5C8
100
AcDbEntity
  8
0
100
AcDbBlockBegin
  2
block 159
 70
     0
 71
     0
 10
0.0
 20
0.0
 30
0.0
  3
block 159
  1

  0
SPLINE
  5
5CC
330
5C8
100
AcDbEntity
  8
1
 62
     7
420
 16777215
370
    25
100
AcDbSpline
210
0.0
220
0.0
230
1.0
 70
     8
 71
     3
 72
     8
 73
     4
 74
     0
 42
0.0000000001
 43
0.0000000001
 40
0.0
 40
0.0
 40
0.0
 40
0.0
 40
1.0
 40
1.0
 40
1.0
 40
1.0
 10
128.7958409558372
 20
219.2511889633188
 30
0.0
 10
129.5396375617811
 20
219.2196663188334
 30
0.0
 10
130.3533696522117
 20
219.7503836284475
 30
0.0
 10
130.6244988457633
 20
220.4435372973493
 30
0.0
  0
ENDBLK
  5
5CB
330
5C8
100
AcDbEntity
  8
0
100
AcDbBlockEnd
  0
BLOCK
  5
5CF
330
5CD
100
AcDbEntity
  8
0
100
AcDbBlockBegin
  2
block 160
 70
     0
 71
     0
 10
0.0
 20
0.0
 30
0.0
  3
block 160
  1

  0
POLYLINE
  5
5D1
330
5CD
100
AcDbEntity
  8
1
 62
     7
420
 16777215
370
    25
100
AcDb2dPolyline
 66
     1
 10
0.0
 20
0.0
 30
0.0
  0
VERTEX
  5
5D2
330
5D1
100
AcDbEntity
  8
1
 62
     7
420
 16777215
370
    25
100
AcDbVertex
100
AcDb2dVertex
 10
138.2588354774064
 20
218.0743435691991
 30
0.0
  0
VERTEX
  5
5D3
330
5D1
100
AcDbEntity
  8
1
 62
     7
420
 16777215
370
    25
100
AcDbVertex
100
AcDb2dVertex
 10
142.8549403963031
 20
218.0743435691991
 30
0.0
  0
SEQEND
  5
5D4
330
5D1
100
AcDbEntity
  8
1
370
    25
  0
ENDBLK
  5
5D0
330
5CD
100
AcDbEntity
  8
0
100
AcDbBlockEnd
  0
BLOCK
  5
5D7
330
5D5
100
AcDbEntity
  8
0
100
AcDbBlockBegin
  2
block 161
 70
     0
 71
     0
 10
0.0
 20
0.0
 30
0.0
  3
block 161
  1

  0
POLYLINE
  5
5D9
330
5D5
100
AcDbEntity
  8
1
 62
     7
420
 16777215
370
    25
100
AcDb2dPolyline
 66
     1
 10
0.0
 20
0.0
 30
0.0
  0
VERTEX
  5
5DA
330
5D9
100
AcDbEntity
  8
1
 62
     7
420
 16777215
370
    25
100
AcDbVertex
100
AcDb2dVertex
 10
136.9600336226548
 20
219.2232836714793
 30
0.0
  0
VERTEX
  5
5DB
330
5D9
100
AcDbEntity
  8
1
 62
     7
420
 16777215
370
    25
100
AcDbVertex
100
AcDb2dVertex
 10
144.1537422510546
 20
219.2232836714793
 30
0.0
  0
SEQEND
  5
5DC
330
5D9
100
AcDbEntity
  8
1
370
    25
  0
ENDBLK
  5
5D8
330
5D5
100
AcDbEntity
  8
0
100
AcDbBlockEnd
  0
BLOCK
  5
5DF
330
5DD
100
AcDbEntity
  8
0
100
AcDbBlockBegin
  2
block 162
 70
     0
 71
     0
 10
0.0
 20
0.0
 30
0.0
  3
block 162
  1

  0
POLYLINE
  5
5E1
330
5DD
100
AcDbEntity
  8
1
 62
     7
420
 16777215
370
    25
100
AcDb2dPolyline
 66
     1
 10
0.0
 20
0.0
 30
0.0
  0
VERTEX
  5
5E2
330
5E1
100
AcDbEntity
  8
1
 62
     7
420
 16777215
370
    25
100
AcDbVertex
100
AcDb2dVertex
 10
138.2588354774064
 20
215.3265335974488
 30
0.0
  0
VERTEX
  5
5E3
330
5E1
100
AcDbEntity
  8
1
 62
     7
420
 16777215
370
    25
100
AcDbVertex
100
AcDb2dVertex
 10
142.8549403963031
 20
215.3265335974488
 30
0.0
  0
SEQEND
  5
5E4
330
5E1
100
AcDbEntity
  8
1
370
    25
  0
ENDBLK
  5
5E0
330
5DD
100
AcDbEntity
  8
0
100
AcDbBlockEnd
  0
BLOCK
  5
5E7
330
5E5
100
AcDbEntity
  8
0
100
AcDbBlockBegin
  2
block 163
 70
     0
 71
     0
 10
0.0
 20
0.0
 30
0.0
  3
block 163
  1

  0
POLYLINE
  5
5E9
330
5E5
100
AcDbEntity
  8
1
 62
     7
420
 16777215
370
    25
100
AcDb2dPolyline
 66
     1
 10
0.0
 20
0.0
 30
0.0
  0
VERTEX
  5
5EA
330
5E9
100
AcDbEntity
  8
1
 62
     7
420
 16777215
370
    25
100
AcDbVertex
100
AcDb2dVertex
 10
142.8549403963031
 20
214.5272709176017
 30
0.0
  0
VERTEX
  5
5EB
330
5E9
100
AcDbEntity
  8
1
 62
     7
420
 16777215
370
    25
100
AcDbVertex
100
AcDb2dVertex
 10
138.2588354774064
 20
214.5272709176017
 30
0.0
  0
SEQEND
  5
5EC
330
5E9
100
AcDbEntity
  8
1
370
    25
  0
ENDBLK
  5
5E8
330
5E5
100
AcDbEntity
  8
0
100
AcDbBlockEnd
  0
BLOCK
  5
5EF
330
5ED
100
AcDbEntity
  8
0
100
AcDbBlockBegin
  2
block 164
 70
     0
 71
     0
 10
0.0
 20
0.0
 30
0.0
  3
block 164
  1

  0
POLYLINE
  5
5F1
330
5ED
100
AcDbEntity
  8
1
 62
     7
420
 16777215
370
    25
100
AcDb2dPolyline
 66
     1
 10
0.0
 20
0.0
 30
0.0
  0
VERTEX
  5
5F2
330
5F1
100
AcDbEntity
  8
1
 62
     7
420
 16777215
370
    25
100
AcDbVertex
100
AcDb2dVertex
 10
142.8549403963031
 20
217.2749086344641
 30
0.0
  0
VERTEX
  5
5F3
330
5F1
100
AcDbEntity
  8
1
 62
     7
420
 16777215
370
    25
100
AcDbVertex
100
AcDb2dVertex
 10
138.2588354774064
 20
217.2749086344641
 30
0.0
  0
SEQEND
  5
5F4
330
5F1
100
AcDbEntity
  8
1
370
    25
  0
ENDBLK
  5
5F0
330
5ED
100
AcDbEntity
  8
0
100
AcDbBlockEnd
  0
BLOCK
  5
5F7
330
5F5
100
AcDbEntity
  8
0
100
AcDbBlockBegin
  2
block 165
 70
     0
 71
     0
 10
0.0
 20
0.0
 30
0.0
  3
block 165
  1

  0
POLYLINE
  5
5F9
330
5F5
100
AcDbEntity
  8
1
 62
     7
420
 16777215
370
    25
100
AcDb2dPolyline
 66
     1
 10
0.0
 20
0.0
 30
0.0
  0
VERTEX
  5
5FA
330
5F9
100
AcDbEntity
  8
1
 62
     7
420
 16777215
370
    25
100
AcDbVertex
100
AcDb2dVertex
 10
147.7714394066902
 20
218.4266048149507
 30
0.0
  0
VERTEX
  5
5FB
330
5F9
100
AcDbEntity
  8
1
 62
     7
420
 16777215
370
    25
100
AcDbVertex
100
AcDb2dVertex
 10
147.4517343347513
 20
219.4093189504092
 30
0.0
  0
VERTEX
  5
5FC
330
5F9
100
AcDbEntity
  8
1
 62
     7
420
 16777215
370
    25
100
AcDbVertex
100
AcDb2dVertex
 10
144.1537422510546
 20
219.2232836714793
 30
0.0
  0
VERTEX
  5
5FD
330
5F9
100
AcDbEntity
  8
1
 62
     7
420
 16777215
370
    25
100
AcDbVertex
100
AcDb2dVertex
 10
142.8549403963031
 20
218.0743435691991
 30
0.0
  0
VERTEX
  5
5FE
330
5F9
100
AcDbEntity
  8
1
 62
     7
420
 16777215
370
    25
100
AcDbVertex
100
AcDb2dVertex
 10
142.8549403963031
 20
217.2749086344641
 30
0.0
  0
SEQEND
  5
5FF
330
5F9
100
AcDbEntity
  8
1
370
    25
  0
POLYLINE
  5
600
330
5F5
100
AcDbEntity
  8
1
 62
     7
420
 16777215
370
    25
100
AcDb2dPolyline
 66
     1
 10
0.0
 20
0.0
 30
0.0
  0
VERTEX
  5
601
330
600
100
AcDbEntity
  8
1
 62
     7
420
 16777215
370
    25
100
AcDbVertex
100
AcDb2dVertex
 10
142.8549403963031
 20
217.2749086344641
 30
0.0
  0
VERTEX
  5
602
330
600
100
AcDbEntity
  8
1
 62
     7
420
 16777215
370
    25
100
AcDbVertex
100
AcDb2dVertex
 10
142.9972229337069
 20
217.2876554961685
 30
0.0
  0
VERTEX
  5
603
330
600
100
AcDbEntity
  8
1
 62
     7
420
 16777215
370
    25
100
AcDbVertex
100
AcDb2dVertex
 10
143.1346823342496
 20
217.3255515715061
 30
0.0
  0
VERTEX
  5
604
330
600
100
AcDbEntity
  8
1
 62
     7
420
 16777215
370
    25
100
AcDbVertex
100
AcDb2dVertex
 10
143.2635289903973
 20
217.3872188213736
 30
0.0
  0
SEQEND
  5
605
330
600
100
AcDbEntity
  8
1
370
    25
  0
POLYLINE
  5
606
330
5F5
100
AcDbEntity
  8
1
 62
     7
420
 16777215
370
    25
100
AcDb2dPolyline
 66
     1
 10
0.0
 20
0.0
 30
0.0
  0
VERTEX
  5
607
330
606
100
AcDbEntity
  8
1
 62
     7
420
 16777215
370
    25
100
AcDbVertex
100
AcDb2dVertex
 10
143.2635289903973
 20
217.3872188213736
 30
0.0
  0
VERTEX
  5
608
330
606
100
AcDbEntity
  8
1
 62
     7
420
 16777215
370
    25
100
AcDbVertex
100
AcDb2dVertex
 10
143.2883336942546
 20
217.3989321537507
 30
0.0
  0
VERTEX
  5
609
330
606
100
AcDbEntity
  8
1
 62
     7
420
 16777215
370
    25
100
AcDbVertex
100
AcDb2dVertex
 10
143.3145164372152
 20
217.4061668590424
 30
0.0
  0
VERTEX
  5
60A
330
606
100
AcDbEntity
  8
1
 62
     7
420
 16777215
370
    25
100
AcDbVertex
100
AcDb2dVertex
 10
143.3420772192788
 20
217.4082339176972
 30
0.0
  0
VERTEX
  5
60B
330
606
100
AcDbEntity
  8
1
 62
     7
420
 16777215
370
    25
100
AcDbVertex
100
AcDb2dVertex
 10
143.3692934915667
 20
217.4054778394908
 30
0.0
  0
VERTEX
  5
60C
330
606
100
AcDbEntity
  8
1
 62
     7
420
 16777215
370
    25
100
AcDbVertex
100
AcDb2dVertex
 10
143.3954762345273
 20
217.3977263695354
 30
0.0
  0
VERTEX
  5
60D
330
606
100
AcDbEntity
  8
1
 62
     7
420
 16777215
370
    25
100
AcDbVertex
100
AcDb2dVertex
 10
143.4199364286088
 20
217.3853240176067
 30
0.0
  0
VERTEX
  5
60E
330
606
100
AcDbEntity
  8
1
 62
     7
420
 16777215
370
    25
100
AcDbVertex
100
AcDb2dVertex
 10
143.4416405444839
 20
217.3687875483685
 30
0.0
  0
VERTEX
  5
60F
330
606
100
AcDbEntity
  8
1
 62
     7
420
 16777215
370
    25
100
AcDbVertex
100
AcDb2dVertex
 10
143.4598995626012
 20
217.3484614715966
 30
0.0
  0
VERTEX
  5
610
330
606
100
AcDbEntity
  8
1
 62
     7
420
 16777215
370
    25
100
AcDbVertex
100
AcDb2dVertex
 10
143.4743689731846
 20
217.3250348068424
 30
0.0
  0
VERTEX
  5
611
330
606
100
AcDbEntity
  8
1
 62
     7
420
 16777215
370
    25
100
AcDbVertex
100
AcDb2dVertex
 10
143.4843597566827
 20
217.2995410834335
 30
0.0
  0
VERTEX
  5
612
330
606
100
AcDbEntity
  8
1
 62
     7
420
 16777215
370
    25
100
AcDbVertex
100
AcDb2dVertex
 10
143.4891828935438
 20
217.2726693209214
 30
0.0
  0
VERTEX
  5
613
330
606
100
AcDbEntity
  8
1
 62
     7
420
 16777215
370
    25
100
AcDbVertex
100
AcDb2dVertex
 10
143.4895274033196
 20
217.2452807937456
 30
0.0
  0
SEQEND
  5
614
330
606
100
AcDbEntity
  8
1
370
    25
  0
POLYLINE
  5
615
330
5F5
100
AcDbEntity
  8
1
 62
     7
420
 16777215
370
    25
100
AcDb2dPolyline
 66
     1
 10
0.0
 20
0.0
 30
0.0
  0
VERTEX
  5
616
330
615
100
AcDbEntity
  8
1
 62
     7
420
 16777215
370
    25
100
AcDbVertex
100
AcDb2dVertex
 10
143.4895274033196
 20
217.2452807937456
 30
0.0
  0
VERTEX
  5
617
330
615
100
AcDbEntity
  8
1
 62
     7
420
 16777215
370
    25
100
AcDbVertex
100
AcDb2dVertex
 10
143.333464474884
 20
215.4634762333278
 30
0.0
  0
SEQEND
  5
618
330
615
100
AcDbEntity
  8
1
370
    25
  0
POLYLINE
  5
619
330
5F5
100
AcDbEntity
  8
1
 62
     7
420
 16777215
370
    25
100
AcDb2dPolyline
 66
     1
 10
0.0
 20
0.0
 30
0.0
  0
VERTEX
  5
61A
330
619
100
AcDbEntity
  8
1
 62
     7
420
 16777215
370
    25
100
AcDbVertex
100
AcDb2dVertex
 10
143.333464474884
 20
215.4634762333278
 30
0.0
  0
VERTEX
  5
61B
330
619
100
AcDbEntity
  8
1
 62
     7
420
 16777215
370
    25
100
AcDbVertex
100
AcDb2dVertex
 10
143.3286413380228
 20
215.436087706152
 30
0.0
  0
VERTEX
  5
61C
330
619
100
AcDbEntity
  8
1
 62
     7
420
 16777215
370
    25
100
AcDbVertex
100
AcDb2dVertex
 10
143.3186505545247
 20
215.4102494729673
 30
0.0
  0
VERTEX
  5
61D
330
619
100
AcDbEntity
  8
1
 62
     7
420
 16777215
370
    25
100
AcDbVertex
100
AcDb2dVertex
 10
143.3041811439413
 20
215.3864782984374
 30
0.0
  0
VERTEX
  5
61E
330
619
100
AcDbEntity
  8
1
 62
     7
420
 16777215
370
    25
100
AcDbVertex
100
AcDb2dVertex
 10
143.2855776160483
 20
215.3659799667775
 30
0.0
  0
VERTEX
  5
61F
330
619
100
AcDbEntity
  8
1
 62
     7
420
 16777215
370
    25
100
AcDbVertex
100
AcDb2dVertex
 10
143.2635289903973
 20
215.3492712426514
 30
0.0
  0
VERTEX
  5
620
330
619
100
AcDbEntity
  8
1
 62
     7
420
 16777215
370
    25
100
AcDbVertex
100
AcDb2dVertex
 10
143.2383797767642
 20
215.3368688907227
 30
0.0
  0
VERTEX
  5
621
330
619
100
AcDbEntity
  8
1
 62
     7
420
 16777215
370
    25
100
AcDbVertex
100
AcDb2dVertex
 10
143.2118525240279
 20
215.3291174207673
 30
0.0
  0
VERTEX
  5
622
330
619
100
AcDbEntity
  8
1
 62
     7
420
 16777215
370
    25
100
AcDbVertex
100
AcDb2dVertex
 10
143.1842917419642
 20
215.3265335974488
 30
0.0
  0
SEQEND
  5
623
330
619
100
AcDbEntity
  8
1
370
    25
  0
POLYLINE
  5
624
330
5F5
100
AcDbEntity
  8
1
 62
     7
420
 16777215
370
    25
100
AcDb2dPolyline
 66
     1
 10
0.0
 20
0.0
 30
0.0
  0
VERTEX
  5
625
330
624
100
AcDbEntity
  8
1
 62
     7
420
 16777215
370
    25
100
AcDbVertex
100
AcDb2dVertex
 10
143.1842917419642
 20
215.3265335974488
 30
0.0
  0
VERTEX
  5
626
330
624
100
AcDbEntity
  8
1
 62
     7
420
 16777215
370
    25
100
AcDbVertex
100
AcDb2dVertex
 10
142.8549403963031
 20
215.3265335974488
 30
0.0
  0
VERTEX
  5
627
330
624
100
AcDbEntity
  8
1
 62
     7
420
 16777215
370
    25
100
AcDbVertex
100
AcDb2dVertex
 10
142.8549403963031
 20
214.5272709176017
 30
0.0
  0
VERTEX
  5
628
330
624
100
AcDbEntity
  8
1
 62
     7
420
 16777215
370
    25
100
AcDbVertex
100
AcDb2dVertex
 10
143.7792601247642
 20
214.5272709176017
 30
0.0
  0
SEQEND
  5
629
330
624
100
AcDbEntity
  8
1
370
    25
  0
POLYLINE
  5
62A
330
5F5
100
AcDbEntity
  8
1
 62
     7
420
 16777215
370
    25
100
AcDb2dPolyline
 66
     1
 10
0.0
 20
0.0
 30
0.0
  0
VERTEX
  5
62B
330
62A
100
AcDbEntity
  8
1
 62
     7
420
 16777215
370
    25
100
AcDbVertex
100
AcDb2dVertex
 10
143.7792601247642
 20
214.5272709176017
 30
0.0
  0
VERTEX
  5
62C
330
62A
100
AcDbEntity
  8
1
 62
     7
420
 16777215
370
    25
100
AcDbVertex
100
AcDb2dVertex
 10
143.8347261986674
 20
214.5324385642387
 30
0.0
  0
VERTEX
  5
62D
330
62A
100
AcDbEntity
  8
1
 62
     7
420
 16777215
370
    25
100
AcDbVertex
100
AcDb2dVertex
 10
143.8881252139158
 20
214.5475969943737
 30
0.0
  0
VERTEX
  5
62E
330
62A
100
AcDbEntity
  8
1
 62
     7
420
 16777215
370
    25
100
AcDbVertex
100
AcDb2dVertex
 10
143.9377346216304
 20
214.572401698231
 30
0.0
  0
VERTEX
  5
62F
330
62A
100
AcDbEntity
  8
1
 62
     7
420
 16777215
370
    25
100
AcDbVertex
100
AcDb2dVertex
 10
143.9818318729323
 20
214.6059914013711
 30
0.0
  0
VERTEX
  5
630
330
62A
100
AcDbEntity
  8
1
 62
     7
420
 16777215
370
    25
100
AcDbVertex
100
AcDb2dVertex
 10
144.0190389287183
 20
214.6471603195788
 30
0.0
  0
VERTEX
  5
631
330
62A
100
AcDbEntity
  8
1
 62
     7
420
 16777215
370
    25
100
AcDbVertex
100
AcDb2dVertex
 10
144.048322259661
 20
214.6943581588629
 30
0.0
  0
VERTEX
  5
632
330
62A
100
AcDbEntity
  8
1
 62
     7
420
 16777215
370
    25
100
AcDbVertex
100
AcDb2dVertex
 10
144.0679593168814
 20
214.7463791350081
 30
0.0
  0
VERTEX
  5
633
330
62A
100
AcDbEntity
  8
1
 62
     7
420
 16777215
370
    25
100
AcDbVertex
100
AcDb2dVertex
 10
144.0779501003795
 20
214.8008116795839
 30
0.0
  0
SEQEND
  5
634
330
62A
100
AcDbEntity
  8
1
370
    25
  0
POLYLINE
  5
635
330
5F5
100
AcDbEntity
  8
1
 62
     7
420
 16777215
370
    25
100
AcDb2dPolyline
 66
     1
 10
0.0
 20
0.0
 30
0.0
  0
VERTEX
  5
636
330
635
100
AcDbEntity
  8
1
 62
     7
420
 16777215
370
    25
100
AcDbVertex
100
AcDb2dVertex
 10
144.0779501003795
 20
214.8008116795839
 30
0.0
  0
VERTEX
  5
637
330
635
100
AcDbEntity
  8
1
 62
     7
420
 16777215
370
    25
100
AcDbVertex
100
AcDb2dVertex
 10
144.3029149839744
 20
217.3734384303418
 30
0.0
  0
SEQEND
  5
638
330
635
100
AcDbEntity
  8
1
370
    25
  0
POLYLINE
  5
639
330
5F5
100
AcDbEntity
  8
1
 62
     7
420
 16777215
370
    25
100
AcDb2dPolyline
 66
     1
 10
0.0
 20
0.0
 30
0.0
  0
VERTEX
  5
63A
330
639
100
AcDbEntity
  8
1
 62
     7
420
 16777215
370
    25
100
AcDbVertex
100
AcDb2dVertex
 10
144.3029149839744
 20
217.3734384303418
 30
0.0
  0
VERTEX
  5
63B
330
639
100
AcDbEntity
  8
1
 62
     7
420
 16777215
370
    25
100
AcDbVertex
100
AcDb2dVertex
 10
144.3342653735718
 20
217.5486216513341
 30
0.0
  0
VERTEX
  5
63C
330
639
100
AcDbEntity
  8
1
 62
     7
420
 16777215
370
    25
100
AcDbVertex
100
AcDb2dVertex
 10
144.3959326234393
 20
217.7157088925953
 30
0.0
  0
VERTEX
  5
63D
330
639
100
AcDbEntity
  8
1
 62
     7
420
 16777215
370
    25
100
AcDbVertex
100
AcDb2dVertex
 10
144.4865386944737
 20
217.8688434879367
 30
0.0
  0
VERTEX
  5
63E
330
639
100
AcDbEntity
  8
1
 62
     7
420
 16777215
370
    25
100
AcDbVertex
100
AcDb2dVertex
 10
144.6029829986928
 20
218.0037190651609
 30
0.0
  0
VERTEX
  5
63F
330
639
100
AcDbEntity
  8
1
 62
     7
420
 16777215
370
    25
100
AcDbVertex
100
AcDb2dVertex
 10
144.7411314187871
 20
218.1156847422946
 30
0.0
  0
VERTEX
  5
640
330
639
100
AcDbEntity
  8
1
 62
     7
420
 16777215
370
    25
100
AcDbVertex
100
AcDb2dVertex
 10
144.8971943472228
 20
218.2014676764679
 30
0.0
  0
VERTEX
  5
641
330
639
100
AcDbEntity
  8
1
 62
     7
420
 16777215
370
    25
100
AcDbVertex
100
AcDb2dVertex
 10
145.0660041373629
 20
218.2581395345863
 30
0.0
  0
VERTEX
  5
642
330
639
100
AcDbEntity
  8
1
 62
     7
420
 16777215
370
    25
100
AcDbVertex
100
AcDb2dVertex
 10
145.2420486327947
 20
218.2839777677711
 30
0.0
  0
SEQEND
  5
643
330
639
100
AcDbEntity
  8
1
370
    25
  0
POLYLINE
  5
644
330
5F5
100
AcDbEntity
  8
1
 62
     7
420
 16777215
370
    25
100
AcDb2dPolyline
 66
     1
 10
0.0
 20
0.0
 30
0.0
  0
VERTEX
  5
645
330
644
100
AcDbEntity
  8
1
 62
     7
420
 16777215
370
    25
100
AcDbVertex
100
AcDb2dVertex
 10
145.2420486327947
 20
218.2839777677711
 30
0.0
  0
VERTEX
  5
646
330
644
100
AcDbEntity
  8
1
 62
     7
420
 16777215
370
    25
100
AcDbVertex
100
AcDb2dVertex
 10
147.7714394066902
 20
218.4266048149507
 30
0.0
  0
SEQEND
  5
647
330
644
100
AcDbEntity
  8
1
370
    25
  0
ENDBLK
  5
5F8
330
5F5
100
AcDbEntity
  8
0
100
AcDbBlockEnd
  0
BLOCK
  5
64A
330
648
100
AcDbEntity
  8
0
100
AcDbBlockBegin
  2
block 166
 70
     0
 71
     0
 10
0.0
 20
0.0
 30
0.0
  3
block 166
  1

  0
POLYLINE
  5
64C
330
648
100
AcDbEntity
  8
1
 62
     7
420
 16777215
370
    25
100
AcDb2dPolyline
 66
     1
 10
0.0
 20
0.0
 30
0.0
  0
VERTEX
  5
64D
330
64C
100
AcDbEntity
  8
1
 62
     7
420
 16777215
370
    25
100
AcDbVertex
100
AcDb2dVertex
 10
134.7486253718192
 20
218.5421878447303
 30
0.0
  0
VERTEX
  5
64E
330
64C
100
AcDbEntity
  8
1
 62
     7
420
 16777215
370
    25
100
AcDbVertex
100
AcDb2dVertex
 10
136.4970124839848
 20
218.449686969929
 30
0.0
  0
SEQEND
  5
64F
330
64C
100
AcDbEntity
  8
1
370
    25
  0
POLYLINE
  5
650
330
648
100
AcDbEntity
  8
1
 62
     7
420
 16777215
370
    25
100
AcDb2dPolyline
 66
     1
 10
0.0
 20
0.0
 30
0.0
  0
VERTEX
  5
651
330
650
100
AcDbEntity
  8
1
 62
     7
420
 16777215
370
    25
100
AcDbVertex
100
AcDb2dVertex
 10
136.4970124839848
 20
218.449686969929
 30
0.0
  0
VERTEX
  5
652
330
650
100
AcDbEntity
  8
1
 62
     7
420
 16777215
370
    25
100
AcDbVertex
100
AcDb2dVertex
 10
136.5635028707134
 20
218.4405574608704
 30
0.0
  0
VERTEX
  5
653
330
650
100
AcDbEntity
  8
1
 62
     7
420
 16777215
370
    25
100
AcDbVertex
100
AcDb2dVertex
 10
136.6275816890115
 20
218.4205758938742
 30
0.0
  0
VERTEX
  5
654
330
650
100
AcDbEntity
  8
1
 62
     7
420
 16777215
370
    25
100
AcDbVertex
100
AcDb2dVertex
 10
136.6871818802242
 20
218.3899145238284
 30
0.0
  0
VERTEX
  5
655
330
650
100
AcDbEntity
  8
1
 62
     7
420
 16777215
370
    25
100
AcDbVertex
100
AcDb2dVertex
 10
136.7409254052484
 20
218.349951389836
 30
0.0
  0
SEQEND
  5
656
330
650
100
AcDbEntity
  8
1
370
    25
  0
POLYLINE
  5
657
330
648
100
AcDbEntity
  8
1
 62
     7
420
 16777215
370
    25
100
AcDb2dPolyline
 66
     1
 10
0.0
 20
0.0
 30
0.0
  0
VERTEX
  5
658
330
657
100
AcDbEntity
  8
1
 62
     7
420
 16777215
370
    25
100
AcDbVertex
100
AcDb2dVertex
 10
136.7409254052484
 20
218.349951389836
 30
0.0
  0
VERTEX
  5
659
330
657
100
AcDbEntity
  8
1
 62
     7
420
 16777215
370
    25
100
AcDbVertex
100
AcDb2dVertex
 10
137.8426676682446
 20
217.3753332341087
 30
0.0
  0
SEQEND
  5
65A
330
657
100
AcDbEntity
  8
1
370
    25
  0
POLYLINE
  5
65B
330
648
100
AcDbEntity
  8
1
 62
     7
420
 16777215
370
    25
100
AcDb2dPolyline
 66
     1
 10
0.0
 20
0.0
 30
0.0
  0
VERTEX
  5
65C
330
65B
100
AcDbEntity
  8
1
 62
     7
420
 16777215
370
    25
100
AcDbVertex
100
AcDb2dVertex
 10
137.8426676682446
 20
217.3753332341087
 30
0.0
  0
VERTEX
  5
65D
330
65B
100
AcDbEntity
  8
1
 62
     7
420
 16777215
370
    25
100
AcDbVertex
100
AcDb2dVertex
 10
137.9008898203542
 20
217.332441767022
 30
0.0
  0
VERTEX
  5
65E
330
65B
100
AcDbEntity
  8
1
 62
     7
420
 16777215
370
    25
100
AcDbVertex
100
AcDb2dVertex
 10
137.9660021679796
 20
217.3009191225367
 30
0.0
  0
VERTEX
  5
65F
330
65B
100
AcDbEntity
  8
1
 62
     7
420
 16777215
370
    25
100
AcDbVertex
100
AcDb2dVertex
 10
138.0355931426905
 20
217.2814543202042
 30
0.0
  0
VERTEX
  5
660
330
65B
100
AcDbEntity
  8
1
 62
     7
420
 16777215
370
    25
100
AcDbVertex
100
AcDb2dVertex
 10
138.1075956858319
 20
217.2749086344641
 30
0.0
  0
SEQEND
  5
661
330
65B
100
AcDbEntity
  8
1
370
    25
  0
POLYLINE
  5
662
330
648
100
AcDbEntity
  8
1
 62
     7
420
 16777215
370
    25
100
AcDb2dPolyline
 66
     1
 10
0.0
 20
0.0
 30
0.0
  0
VERTEX
  5
663
330
662
100
AcDbEntity
  8
1
 62
     7
420
 16777215
370
    25
100
AcDbVertex
100
AcDb2dVertex
 10
138.1075956858319
 20
217.2749086344641
 30
0.0
  0
VERTEX
  5
664
330
662
100
AcDbEntity
  8
1
 62
     7
420
 16777215
370
    25
100
AcDbVertex
100
AcDb2dVertex
 10
138.2588354774064
 20
217.2749086344641
 30
0.0
  0
VERTEX
  5
665
330
662
100
AcDbEntity
  8
1
 62
     7
420
 16777215
370
    25
100
AcDbVertex
100
AcDb2dVertex
 10
138.2588354774064
 20
218.0743435691991
 30
0.0
  0
VERTEX
  5
666
330
662
100
AcDbEntity
  8
1
 62
     7
420
 16777215
370
    25
100
AcDbVertex
100
AcDb2dVertex
 10
136.9572775444485
 20
219.2258674947978
 30
0.0
  0
VERTEX
  5
667
330
662
100
AcDbEntity
  8
1
 62
     7
420
 16777215
370
    25
100
AcDbVertex
100
AcDb2dVertex
 10
134.8071920337046
 20
219.3395557208105
 30
0.0
  0
SEQEND
  5
668
330
662
100
AcDbEntity
  8
1
370
    25
  0
POLYLINE
  5
669
330
648
100
AcDbEntity
  8
1
 62
     7
420
 16777215
370
    25
100
AcDb2dPolyline
 66
     1
 10
0.0
 20
0.0
 30
0.0
  0
VERTEX
  5
66A
330
669
100
AcDbEntity
  8
1
 62
     7
420
 16777215
370
    25
100
AcDbVertex
100
AcDb2dVertex
 10
134.8071920337046
 20
219.3395557208105
 30
0.0
  0
VERTEX
  5
66B
330
669
100
AcDbEntity
  8
1
 62
     7
420
 16777215
370
    25
100
AcDbVertex
100
AcDb2dVertex
 10
134.5894618554014
 20
219.3629823855647
 30
0.0
  0
SEQEND
  5
66C
330
669
100
AcDbEntity
  8
1
370
    25
  0
POLYLINE
  5
66D
330
648
100
AcDbEntity
  8
1
 62
     7
420
 16777215
370
    25
100
AcDb2dPolyline
 66
     1
 10
0.0
 20
0.0
 30
0.0
  0
VERTEX
  5
66E
330
66D
100
AcDbEntity
  8
1
 62
     7
420
 16777215
370
    25
100
AcDbVertex
100
AcDb2dVertex
 10
134.5894618554014
 20
219.3629823855647
 30
0.0
  0
VERTEX
  5
66F
330
66D
100
AcDbEntity
  8
1
 62
     7
420
 16777215
370
    25
100
AcDbVertex
100
AcDb2dVertex
 10
134.2239369832816
 20
218.6234921518182
 30
0.0
  0
SEQEND
  5
670
330
66D
100
AcDbEntity
  8
1
370
    25
  0
POLYLINE
  5
671
330
648
100
AcDbEntity
  8
1
 62
     7
420
 16777215
370
    25
100
AcDb2dPolyline
 66
     1
 10
0.0
 20
0.0
 30
0.0
  0
VERTEX
  5
672
330
671
100
AcDbEntity
  8
1
 62
     7
420
 16777215
370
    25
100
AcDbVertex
100
AcDb2dVertex
 10
134.2239369832816
 20
218.6234921518182
 30
0.0
  0
VERTEX
  5
673
330
671
100
AcDbEntity
  8
1
 62
     7
420
 16777215
370
    25
100
AcDbVertex
100
AcDb2dVertex
 10
134.7486253718192
 20
218.5421878447303
 30
0.0
  0
SEQEND
  5
674
330
671
100
AcDbEntity
  8
1
370
    25
  0
ENDBLK
  5
64B
330
648
100
AcDbEntity
  8
0
100
AcDbBlockEnd
  0
BLOCK
  5
677
330
675
100
AcDbEntity
  8
0
100
AcDbBlockBegin
  2
block 167
 70
     0
 71
     0
 10
0.0
 20
0.0
 30
0.0
  3
block 167
  1

  0
POLYLINE
  5
679
330
675
100
AcDbEntity
  8
1
 62
     7
420
 16777215
370
    25
100
AcDb2dPolyline
 66
     1
 10
0.0
 20
0.0
 30
0.0
  0
VERTEX
  5
67A
330
679
100
AcDbEntity
  8
1
 62
     7
420
 16777215
370
    25
100
AcDbVertex
100
AcDb2dVertex
 10
135.256088271567
 20
216.2785863628615
 30
0.0
  0
VERTEX
  5
67B
330
679
100
AcDbEntity
  8
1
 62
     7
420
 16777215
370
    25
100
AcDbVertex
100
AcDb2dVertex
 10
134.4740510805097
 20
216.4077775287851
 30
0.0
  0
VERTEX
  5
67C
330
679
100
AcDbEntity
  8
1
 62
     7
420
 16777215
370
    25
100
AcDbVertex
100
AcDb2dVertex
 10
133.7206082008435
 20
216.6542742733673
 30
0.0
  0
SEQEND
  5
67D
330
679
100
AcDbEntity
  8
1
370
    25
  0
POLYLINE
  5
67E
330
675
100
AcDbEntity
  8
1
 62
     3
420
    65280
370
    25
100
AcDb2dPolyline
 66
     1
 10
0.0
 20
0.0
 30
0.0
  0
VERTEX
  5
67F
330
67E
100
AcDbEntity
  8
1
 62
     3
420
    65280
370
    25
100
AcDbVertex
100
AcDb2dVertex
 10
133.7206082008435
 20
216.6542742733673
 30
0.0
  0
VERTEX
  5
680
330
67E
100
AcDbEntity
  8
1
 62
     3
420
    65280
370
    25
100
AcDbVertex
100
AcDb2dVertex
 10
133.6269015418269
 20
215.8326184580934
 30
0.0
  0
SEQEND
  5
681
330
67E
100
AcDbEntity
  8
1
370
    25
  0
POLYLINE
  5
682
330
675
100
AcDbEntity
  8
1
 62
     7
420
 16777215
370
    25
100
AcDb2dPolyline
 66
     1
 10
0.0
 20
0.0
 30
0.0
  0
VERTEX
  5
683
330
682
100
AcDbEntity
  8
1
 62
     7
420
 16777215
370
    25
100
AcDbVertex
100
AcDb2dVertex
 10
133.6269015418269
 20
215.8326184580934
 30
0.0
  0
VERTEX
  5
684
330
682
100
AcDbEntity
  8
1
 62
     7
420
 16777215
370
    25
100
AcDbVertex
100
AcDb2dVertex
 10
134.3951583418524
 20
215.605242006068
 30
0.0
  0
VERTEX
  5
685
330
682
100
AcDbEntity
  8
1
 62
     7
420
 16777215
370
    25
100
AcDbVertex
100
AcDb2dVertex
 10
135.1864972968561
 20
215.4824242709966
 30
0.0
  0
SEQEND
  5
686
330
682
100
AcDbEntity
  8
1
370
    25
  0
POLYLINE
  5
687
330
675
100
AcDbEntity
  8
1
 62
     7
420
 16777215
370
    25
100
AcDb2dPolyline
 66
     1
 10
0.0
 20
0.0
 30
0.0
  0
VERTEX
  5
688
330
687
100
AcDbEntity
  8
1
 62
     7
420
 16777215
370
    25
100
AcDbVertex
100
AcDb2dVertex
 10
135.1864972968561
 20
215.4824242709966
 30
0.0
  0
VERTEX
  5
689
330
687
100
AcDbEntity
  8
1
 62
     7
420
 16777215
370
    25
100
AcDbVertex
100
AcDb2dVertex
 10
136.4890887591415
 20
215.3683915352081
 30
0.0
  0
SEQEND
  5
68A
330
687
100
AcDbEntity
  8
1
370
    25
  0
POLYLINE
  5
68B
330
675
100
AcDbEntity
  8
1
 62
     7
420
 16777215
370
    25
100
AcDb2dPolyline
 66
     1
 10
0.0
 20
0.0
 30
0.0
  0
VERTEX
  5
68C
330
68B
100
AcDbEntity
  8
1
 62
     7
420
 16777215
370
    25
100
AcDbVertex
100
AcDb2dVertex
 10
136.4890887591415
 20
215.3683915352081
 30
0.0
  0
VERTEX
  5
68D
330
68B
100
AcDbEntity
  8
1
 62
     7
420
 16777215
370
    25
100
AcDbVertex
100
AcDb2dVertex
 10
136.5938197309835
 20
215.3497880073151
 30
0.0
  0
VERTEX
  5
68E
330
68B
100
AcDbEntity
  8
1
 62
     7
420
 16777215
370
    25
100
AcDbVertex
100
AcDb2dVertex
 10
136.6937275659644
 20
215.3129254613049
 30
0.0
  0
VERTEX
  5
68F
330
68B
100
AcDbEntity
  8
1
 62
     7
420
 16777215
370
    25
100
AcDbVertex
100
AcDb2dVertex
 10
136.7853671663262
 20
215.2590096813928
 30
0.0
  0
VERTEX
  5
690
330
68B
100
AcDbEntity
  8
1
 62
     7
420
 16777215
370
    25
100
AcDbVertex
100
AcDb2dVertex
 10
136.8659824538625
 20
215.1897632164577
 30
0.0
  0
VERTEX
  5
691
330
68B
100
AcDbEntity
  8
1
 62
     7
420
 16777215
370
    25
100
AcDbVertex
100
AcDb2dVertex
 10
136.9331618601427
 20
215.1072531251546
 30
0.0
  0
VERTEX
  5
692
330
68B
100
AcDbEntity
  8
1
 62
     7
420
 16777215
370
    25
100
AcDbVertex
100
AcDb2dVertex
 10
136.9848383265121
 20
215.0142354856896
 30
0.0
  0
VERTEX
  5
693
330
68B
100
AcDbEntity
  8
1
 62
     7
420
 16777215
370
    25
100
AcDbVertex
100
AcDb2dVertex
 10
137.0192893040918
 20
214.9136386311571
 30
0.0
  0
VERTEX
  5
694
330
68B
100
AcDbEntity
  8
1
 62
     7
420
 16777215
370
    25
100
AcDbVertex
100
AcDb2dVertex
 10
137.0351367537784
 20
214.8083908946514
 30
0.0
  0
SEQEND
  5
695
330
68B
100
AcDbEntity
  8
1
370
    25
  0
POLYLINE
  5
696
330
675
100
AcDbEntity
  8
1
 62
     7
420
 16777215
370
    25
100
AcDb2dPolyline
 66
     1
 10
0.0
 20
0.0
 30
0.0
  0
VERTEX
  5
697
330
696
100
AcDbEntity
  8
1
 62
     7
420
 16777215
370
    25
100
AcDbVertex
100
AcDb2dVertex
 10
137.0351367537784
 20
214.8083908946514
 30
0.0
  0
VERTEX
  5
698
330
696
100
AcDbEntity
  8
1
 62
     7
420
 16777215
370
    25
100
AcDbVertex
100
AcDb2dVertex
 10
137.0440940079491
 20
214.7525803109724
 30
0.0
  0
VERTEX
  5
699
330
696
100
AcDbEntity
  8
1
 62
     7
420
 16777215
370
    25
100
AcDbVertex
100
AcDb2dVertex
 10
137.0630420456179
 20
214.6995258054998
 30
0.0
  0
VERTEX
  5
69A
330
696
100
AcDbEntity
  8
1
 62
     7
420
 16777215
370
    25
100
AcDbVertex
100
AcDb2dVertex
 10
137.091636357009
 20
214.6509499271125
 30
0.0
  0
VERTEX
  5
69B
330
696
100
AcDbEntity
  8
1
 62
     7
420
 16777215
370
    25
100
AcDbVertex
100
AcDb2dVertex
 10
137.1291879225707
 20
214.6085752246896
 30
0.0
  0
VERTEX
  5
69C
330
696
100
AcDbEntity
  8
1
 62
     7
420
 16777215
370
    25
100
AcDbVertex
100
AcDb2dVertex
 10
137.1736296836484
 20
214.5739519922221
 30
0.0
  0
VERTEX
  5
69D
330
696
100
AcDbEntity
  8
1
 62
     7
420
 16777215
370
    25
100
AcDbVertex
100
AcDb2dVertex
 10
137.2239281109147
 20
214.5482860139253
 30
0.0
  0
VERTEX
  5
69E
330
696
100
AcDbEntity
  8
1
 62
     7
420
 16777215
370
    25
100
AcDbVertex
100
AcDb2dVertex
 10
137.2780161457147
 20
214.5326108191266
 30
0.0
  0
VERTEX
  5
69F
330
696
100
AcDbEntity
  8
1
 62
     7
420
 16777215
370
    25
100
AcDbVertex
100
AcDb2dVertex
 10
137.3341712391695
 20
214.5272709176017
 30
0.0
  0
SEQEND
  5
6A0
330
696
100
AcDbEntity
  8
1
370
    25
  0
POLYLINE
  5
6A1
330
675
100
AcDbEntity
  8
1
 62
     7
420
 16777215
370
    25
100
AcDb2dPolyline
 66
     1
 10
0.0
 20
0.0
 30
0.0
  0
VERTEX
  5
6A2
330
6A1
100
AcDbEntity
  8
1
 62
     7
420
 16777215
370
    25
100
AcDbVertex
100
AcDb2dVertex
 10
137.3341712391695
 20
214.5272709176017
 30
0.0
  0
VERTEX
  5
6A3
330
6A1
100
AcDbEntity
  8
1
 62
     7
420
 16777215
370
    25
100
AcDbVertex
100
AcDb2dVertex
 10
138.2588354774064
 20
214.5272709176017
 30
0.0
  0
VERTEX
  5
6A4
330
6A1
100
AcDbEntity
  8
1
 62
     7
420
 16777215
370
    25
100
AcDbVertex
100
AcDb2dVertex
 10
138.2588354774064
 20
215.3265335974488
 30
0.0
  0
VERTEX
  5
6A5
330
6A1
100
AcDbEntity
  8
1
 62
     7
420
 16777215
370
    25
100
AcDbVertex
100
AcDb2dVertex
 10
137.8457682562268
 20
215.3265335974488
 30
0.0
  0
SEQEND
  5
6A6
330
6A1
100
AcDbEntity
  8
1
370
    25
  0
POLYLINE
  5
6A7
330
675
100
AcDbEntity
  8
1
 62
     7
420
 16777215
370
    25
100
AcDb2dPolyline
 66
     1
 10
0.0
 20
0.0
 30
0.0
  0
VERTEX
  5
6A8
330
6A7
100
AcDbEntity
  8
1
 62
     7
420
 16777215
370
    25
100
AcDbVertex
100
AcDb2dVertex
 10
137.8457682562268
 20
215.3265335974488
 30
0.0
  0
VERTEX
  5
6A9
330
6A7
100
AcDbEntity
  8
1
 62
     7
420
 16777215
370
    25
100
AcDbVertex
100
AcDb2dVertex
 10
137.809939239544
 20
215.3298064403189
 30
0.0
  0
VERTEX
  5
6AA
330
6A7
100
AcDbEntity
  8
1
 62
     7
420
 16777215
370
    25
100
AcDbVertex
100
AcDb2dVertex
 10
137.7754882619643
 20
215.3394527140412
 30
0.0
  0
VERTEX
  5
6AB
330
6A7
100
AcDbEntity
  8
1
 62
     7
420
 16777215
370
    25
100
AcDbVertex
100
AcDb2dVertex
 10
137.7431043430395
 20
215.354955653952
 30
0.0
  0
VERTEX
  5
6AC
330
6A7
100
AcDbEntity
  8
1
 62
     7
420
 16777215
370
    25
100
AcDbVertex
100
AcDb2dVertex
 10
137.7141655218726
 20
215.3761430051635
 30
0.0
  0
VERTEX
  5
6AD
330
6A7
100
AcDbEntity
  8
1
 62
     7
420
 16777215
370
    25
100
AcDbVertex
100
AcDb2dVertex
 10
137.6893608180153
 20
215.4019812383482
 30
0.0
  0
VERTEX
  5
6AE
330
6A7
100
AcDbEntity
  8
1
 62
     7
420
 16777215
370
    25
100
AcDbVertex
100
AcDb2dVertex
 10
137.6697237607949
 20
215.4319535888425
 30
0.0
  0
SEQEND
  5
6AF
330
6A7
100
AcDbEntity
  8
1
370
    25
  0
POLYLINE
  5
6B0
330
675
100
AcDbEntity
  8
1
 62
     7
420
 16777215
370
    25
100
AcDb2dPolyline
 66
     1
 10
0.0
 20
0.0
 30
0.0
  0
VERTEX
  5
6B1
330
6B0
100
AcDbEntity
  8
1
 62
     7
420
 16777215
370
    25
100
AcDbVertex
100
AcDb2dVertex
 10
137.6697237607949
 20
215.4319535888425
 30
0.0
  0
VERTEX
  5
6B2
330
6B0
100
AcDbEntity
  8
1
 62
     7
420
 16777215
370
    25
100
AcDbVertex
100
AcDb2dVertex
 10
137.5443222024051
 20
215.6259125926157
 30
0.0
  0
VERTEX
  5
6B3
330
6B0
100
AcDbEntity
  8
1
 62
     7
420
 16777215
370
    25
100
AcDbVertex
100
AcDb2dVertex
 10
137.3886037837453
 20
215.7962726767469
 30
0.0
  0
VERTEX
  5
6B4
330
6B0
100
AcDbEntity
  8
1
 62
     7
420
 16777215
370
    25
100
AcDbVertex
100
AcDb2dVertex
 10
137.2070471319007
 20
215.9388997239265
 30
0.0
  0
VERTEX
  5
6B5
330
6B0
100
AcDbEntity
  8
1
 62
     7
420
 16777215
370
    25
100
AcDbVertex
100
AcDb2dVertex
 10
137.0044753837325
 20
216.049659616845
 30
0.0
  0
VERTEX
  5
6B6
330
6B0
100
AcDbEntity
  8
1
 62
     7
420
 16777215
370
    25
100
AcDbVertex
100
AcDb2dVertex
 10
136.7864006956536
 20
216.1256240224081
 30
0.0
  0
VERTEX
  5
6B7
330
6B0
100
AcDbEntity
  8
1
 62
     7
420
 16777215
370
    25
100
AcDbVertex
100
AcDb2dVertex
 10
136.5586797338523
 20
216.1647258819609
 30
0.0
  0
SEQEND
  5
6B8
330
6B0
100
AcDbEntity
  8
1
370
    25
  0
POLYLINE
  5
6B9
330
675
100
AcDbEntity
  8
1
 62
     7
420
 16777215
370
    25
100
AcDb2dPolyline
 66
     1
 10
0.0
 20
0.0
 30
0.0
  0
VERTEX
  5
6BA
330
6B9
100
AcDbEntity
  8
1
 62
     7
420
 16777215
370
    25
100
AcDbVertex
100
AcDb2dVertex
 10
136.5586797338523
 20
216.1647258819609
 30
0.0
  0
VERTEX
  5
6BB
330
6B9
100
AcDbEntity
  8
1
 62
     7
420
 16777215
370
    25
100
AcDbVertex
100
AcDb2dVertex
 10
135.2409298414319
 20
216.2799644019647
 30
0.0
  0
SEQEND
  5
6BC
330
6B9
100
AcDbEntity
  8
1
370
    25
  0
ENDBLK
  5
678
330
675
100
AcDbEntity
  8
0
100
AcDbBlockEnd
  0
BLOCK
  5
6BF
330
6BD
100
AcDbEntity
  8
0
100
AcDbBlockBegin
  2
block 168
 70
     0
 71
     0
 10
0.0
 20
0.0
 30
0.0
  3
block 168
  1

  0
POLYLINE
  5
6C1
330
6BD
100
AcDbEntity
  8
1
 62
     7
420
 16777215
370
    25
100
AcDb2dPolyline
 66
     1
 10
0.0
 20
0.0
 30
0.0
  0
VERTEX
  5
6C2
330
6C1
100
AcDbEntity
  8
1
 62
     7
420
 16777215
370
    25
100
AcDbVertex
100
AcDb2dVertex
 10
77.65646532687812
 20
233.7109532730356
 30
0.0
  0
VERTEX
  5
6C3
330
6C1
100
AcDbEntity
  8
1
 62
     7
420
 16777215
370
    25
100
AcDbVertex
100
AcDb2dVertex
 10
44.28466461994273
 20
233.7109532730356
 30
0.0
  0
SEQEND
  5
6C4
330
6C1
100
AcDbEntity
  8
1
370
    25
  0
ENDBLK
  5
6C0
330
6BD
100
AcDbEntity
  8
0
100
AcDbBlockEnd
  0
BLOCK
  5
6C7
330
6C5
100
AcDbEntity
  8
0
100
AcDbBlockBegin
  2
block 169
 70
     0
 71
     0
 10
0.0
 20
0.0
 30
0.0
  3
block 169
  1

  0
SPLINE
  5
6C9
330
6C5
100
AcDbEntity
  8
1
 62
     7
420
 16777215
370
    25
100
AcDbSpline
210
0.0
220
0.0
230
1.0
 70
     8
 71
     3
 72
     8
 73
     4
 74
     0
 42
0.0000000001
 43
0.0000000001
 40
0.0
 40
0.0
 40
0.0
 40
0.0
 40
1.0
 40
1.0
 40
1.0
 40
1.0
 10
71.9212388343114
 20
216.1021973576539
 30
0.0
 10
75.27676405056607
 20
219.9767265511455
 30
0.0
 10
78.29759801963479
 20
227.7187224877249
 30
0.0
 10
78.45262741874306
 20
232.8420996184776
 30
0.0
  0
ENDBLK
  5
6C8
330
6C5
100
AcDbEntity
  8
0
100
AcDbBlockEnd
  0
BLOCK
  5
6CC
330
6CA
100
AcDbEntity
  8
0
100
AcDbBlockBegin
  2
block 170
 70
     0
 71
     0
 10
0.0
 20
0.0
 30
0.0
  3
block 170
  1

  0
SPLINE
  5
6CE
330
6CA
100
AcDbEntity
  8
1
 62
     7
420
 16777215
370
    25
100
AcDbSpline
210
0.0
220
0.0
230
1.0
 70
     8
 71
     3
 72
     8
 73
     4
 74
     0
 42
0.0000000001
 43
0.0000000001
 40
0.0
 40
0.0
 40
0.0
 40
0.0
 40
1.0
 40
1.0
 40
1.0
 40
1.0
 10
70.26483583228341
 20
205.7346924197319
 30
0.0
 10
70.80864451337767
 20
205.7334866355166
 30
0.0
 10
71.2554736925853
 20
206.1727365996567
 30
0.0
 10
71.26391418209231
 20
206.7163730258631
 30
0.0
  0
ENDBLK
  5
6CD
330
6CA
100
AcDbEntity
  8
0
100
AcDbBlockEnd
  0
BLOCK
  5
6D1
330
6CF
100
AcDbEntity
  8
0
100
AcDbBlockBegin
  2
block 171
 70
     0
 71
     0
 10
0.0
 20
0.0
 30
0.0
  3
block 171
  1

  0
SPLINE
  5
6D3
330
6CF
100
AcDbEntity
  8
1
 62
     7
420
 16777215
370
    25
100
AcDbSpline
210
0.0
220
0.0
230
1.0
 70
     8
 71
     3
 72
     8
 73
     4
 74
     0
 42
0.0000000001
 43
0.0000000001
 40
0.0
 40
0.0
 40
0.0
 40
0.0
 40
1.0
 40
1.0
 40
1.0
 40
1.0
 10
71.9212388343114
 20
216.1021973576539
 30
0.0
 10
71.62151532936872
 20
215.7573430720819
 30
0.0
 10
71.38294230962988
 20
215.0769362648845
 30
0.0
 10
71.40189034729868
 20
214.6204608119546
 30
0.0
  0
ENDBLK
  5
6D2
330
6CF
100
AcDbEntity
  8
0
100
AcDbBlockEnd
  0
BLOCK
  5
6D6
330
6D4
100
AcDbEntity
  8
0
100
AcDbBlockBegin
  2
block 172
 70
     0
 71
     0
 10
0.0
 20
0.0
 30
0.0
  3
block 172
  1

  0
POLYLINE
  5
6D8
330
6D4
100
AcDbEntity
  8
1
 62
     7
420
 16777215
370
    25
100
AcDb2dPolyline
 66
     1
 10
0.0
 20
0.0
 30
0.0
  0
VERTEX
  5
6D9
330
6D8
100
AcDbEntity
  8
1
 62
     7
420
 16777215
370
    25
100
AcDbVertex
100
AcDb2dVertex
 10
51.67612185964953
 20
205.7346924197319
 30
0.0
  0
VERTEX
  5
6DA
330
6D8
100
AcDbEntity
  8
1
 62
     7
420
 16777215
370
    25
100
AcDbVertex
100
AcDb2dVertex
 10
70.26483583228341
 20
205.7346924197319
 30
0.0
  0
SEQEND
  5
6DB
330
6D8
100
AcDbEntity
  8
1
370
    25
  0
ENDBLK
  5
6D7
330
6D4
100
AcDbEntity
  8
0
100
AcDbBlockEnd
  0
BLOCK
  5
6DE
330
6DC
100
AcDbEntity
  8
0
100
AcDbBlockBegin
  2
block 173
 70
     0
 71
     0
 10
0.0
 20
0.0
 30
0.0
  3
block 173
  1

  0
POLYLINE
  5
6E0
330
6DC
100
AcDbEntity
  8
1
 62
     7
420
 16777215
370
    25
100
AcDb2dPolyline
 66
     1
 10
0.0
 20
0.0
 30
0.0
  0
VERTEX
  5
6E1
330
6E0
100
AcDbEntity
  8
1
 62
     7
420
 16777215
370
    25
100
AcDbVertex
100
AcDb2dVertex
 10
71.26391418209231
 20
206.7163730258631
 30
0.0
  0
VERTEX
  5
6E2
330
6E0
100
AcDbEntity
  8
1
 62
     7
420
 16777215
370
    25
100
AcDbVertex
100
AcDb2dVertex
 10
71.40189034729868
 20
214.6204608119546
 30
0.0
  0
SEQEND
  5
6E3
330
6E0
100
AcDbEntity
  8
1
370
    25
  0
ENDBLK
  5
6DF
330
6DC
100
AcDbEntity
  8
0
100
AcDbBlockEnd
  0
BLOCK
  5
6E6
330
6E4
100
AcDbEntity
  8
0
100
AcDbBlockBegin
  2
block 174
 70
     0
 71
     0
 10
0.0
 20
0.0
 30
0.0
  3
block 174
  1

  0
SPLINE
  5
6E8
330
6E4
100
AcDbEntity
  8
1
 62
     7
420
 16777215
370
    25
100
AcDbSpline
210
0.0
220
0.0
230
1.0
 70
     8
 71
     3
 72
    11
 73
     7
 74
     0
 42
0.0000000001
 43
0.0000000001
 40
0.0
 40
0.0
 40
0.0
 40
0.0
 40
1.0
 40
1.0
 40
1.0
 40
2.0
 40
2.0
 40
2.0
 40
2.0
 10
78.45262741874306
 20
232.8420996184776
 30
0.0
 10
78.49104025874433
 20
233.2818663472815
 30
0.0
 10
78.16582303039274
 20
233.6696120999401
 30
0.0
 10
77.72605630158894
 20
233.7080249399413
 30
0.0
 10
77.70831404813543
 20
233.7097474888203
 30
0.0
 10
77.67403532544373
 20
233.7112977828114
 30
0.0
 10
77.65646532687812
 20
233.7109532730356
 30
0.0
  0
ENDBLK
  5
6E7
330
6E4
100
AcDbEntity
  8
0
100
AcDbBlockEnd
  0
BLOCK
  5
6EB
330
6E9
100
AcDbEntity
  8
0
100
AcDbBlockBegin
  2
block 175
 70
     0
 71
     0
 10
0.0
 20
0.0
 30
0.0
  3
block 175
  1

  0
SPLINE
  5
6ED
330
6E9
100
AcDbEntity
  8
1
 62
     7
420
 16777215
370
    25
100
AcDbSpline
210
0.0
220
0.0
230
1.0
 70
     8
 71
     3
 72
     8
 73
     4
 74
     0
 42
0.0000000001
 43
0.0000000001
 40
0.0
 40
0.0
 40
0.0
 40
0.0
 40
1.0
 40
1.0
 40
1.0
 40
1.0
 10
43.48833027318988
 20
232.8420996184776
 30
0.0
 10
43.64353192718606
 20
227.7187224877249
 30
0.0
 10
46.66419364136686
 20
219.9767265511455
 30
0.0
 10
50.01989111250945
 20
216.1021973576539
 30
0.0
  0
ENDBLK
  5
6EC
330
6E9
100
AcDbEntity
  8
0
100
AcDbBlockEnd
  0
BLOCK
  5
6F0
330
6EE
100
AcDbEntity
  8
0
100
AcDbBlockBegin
  2
block 176
 70
     0
 71
     0
 10
0.0
 20
0.0
 30
0.0
  3
block 176
  1

  0
SPLINE
  5
6F2
330
6EE
100
AcDbEntity
  8
1
 62
     7
420
 16777215
370
    25
100
AcDbSpline
210
0.0
220
0.0
230
1.0
 70
     8
 71
     3
 72
     8
 73
     4
 74
     0
 42
0.0000000001
 43
0.0000000001
 40
0.0
 40
0.0
 40
0.0
 40
0.0
 40
1.0
 40
1.0
 40
1.0
 40
1.0
 10
50.67721576472854
 20
206.7163730258631
 30
0.0
 10
50.68548399934765
 20
206.1727365996567
 30
0.0
 10
51.13231317855528
 20
205.7334866355166
 30
0.0
 10
51.67612185964953
 20
205.7346924197319
 30
0.0
  0
ENDBLK
  5
6F1
330
6EE
100
AcDbEntity
  8
0
100
AcDbBlockEnd
  0
BLOCK
  5
6F5
330
6F3
100
AcDbEntity
  8
0
100
AcDbBlockBegin
  2
block 177
 70
     0
 71
     0
 10
0.0
 20
0.0
 30
0.0
  3
block 177
  1

  0
SPLINE
  5
6F7
330
6F3
100
AcDbEntity
  8
1
 62
     7
420
 16777215
370
    25
100
AcDbSpline
210
0.0
220
0.0
230
1.0
 70
     8
 71
     3
 72
     8
 73
     4
 74
     0
 42
0.0000000001
 43
0.0000000001
 40
0.0
 40
0.0
 40
0.0
 40
0.0
 40
1.0
 40
1.0
 40
1.0
 40
1.0
 10
50.53923959952218
 20
214.6204608119546
 30
0.0
 10
50.55801538230306
 20
215.0769362648845
 30
0.0
 10
50.31961461745212
 20
215.7573430720819
 30
0.0
 10
50.01989111250945
 20
216.1021973576539
 30
0.0
  0
ENDBLK
  5
6F6
330
6F3
100
AcDbEntity
  8
0
100
AcDbBlockEnd
  0
BLOCK
  5
6FA
330
6F8
100
AcDbEntity
  8
0
100
AcDbBlockBegin
  2
block 178
 70
     0
 71
     0
 10
0.0
 20
0.0
 30
0.0
  3
block 178
  1

  0
POLYLINE
  5
6FC
330
6F8
100
AcDbEntity
  8
1
 62
     7
420
 16777215
370
    25
100
AcDb2dPolyline
 66
     1
 10
0.0
 20
0.0
 30
0.0
  0
VERTEX
  5
6FD
330
6FC
100
AcDbEntity
  8
1
 62
     7
420
 16777215
370
    25
100
AcDbVertex
100
AcDb2dVertex
 10
50.67721576472854
 20
206.7163730258631
 30
0.0
  0
VERTEX
  5
6FE
330
6FC
100
AcDbEntity
  8
1
 62
     7
420
 16777215
370
    25
100
AcDbVertex
100
AcDb2dVertex
 10
50.53923959952218
 20
214.6204608119546
 30
0.0
  0
SEQEND
  5
6FF
330
6FC
100
AcDbEntity
  8
1
370
    25
  0
ENDBLK
  5
6FB
330
6F8
100
AcDbEntity
  8
0
100
AcDbBlockEnd
  0
BLOCK
  5
702
330
700
100
AcDbEntity
  8
0
100
AcDbBlockBegin
  2
block 179
 70
     0
 71
     0
 10
0.0
 20
0.0
 30
0.0
  3
block 179
  1

  0
SPLINE
  5
704
330
700
100
AcDbEntity
  8
1
 62
     7
420
 16777215
370
    25
100
AcDbSpline
210
0.0
220
0.0
230
1.0
 70
     8
 71
     3
 72
    11
 73
     7
 74
     0
 42
0.0000000001
 43
0.0000000001
 40
0.0
 40
0.0
 40
0.0
 40
0.0
 40
1.0
 40
1.0
 40
1.0
 40
2.0
 40
2.0
 40
2.0
 40
2.0
 10
44.28466461994273
 20
233.7109532730356
 30
0.0
 10
43.84317534225994
 20
233.7109532730356
 30
0.0
 10
43.48540194009561
 20
233.3531798708713
 30
0.0
 10
43.48540194009561
 20
232.9116905931885
 30
0.0
 10
43.48505743031982
 20
232.893948339735
 30
0.0
 10
43.4866077243109
 20
232.8596696170433
 30
0.0
 10
43.48833027318988
 20
232.8420996184776
 30
0.0
  0
ENDBLK
  5
703
330
700
100
AcDbEntity
  8
0
100
AcDbBlockEnd
  0
BLOCK
  5
707
330
705
100
AcDbEntity
  8
0
100
AcDbBlockBegin
  2
block 180
 70
     0
 71
     0
 10
0.0
 20
0.0
 30
0.0
  3
block 180
  1

  0
SPLINE
  5
709
330
705
100
AcDbEntity
  8
1
 62
     7
420
 16777215
370
    25
100
AcDbSpline
210
0.0
220
0.0
230
1.0
 70
     8
 71
     3
 72
     8
 73
     4
 74
     0
 42
0.0000000001
 43
0.0000000001
 40
0.0
 40
0.0
 40
0.0
 40
0.0
 40
1.0
 40
1.0
 40
1.0
 40
1.0
 10
45.76812371452103
 20
116.5752179339076
 30
0.0
 10
54.19862243802908
 20
108.9122869908734
 30
0.0
 10
67.74233525390386
 20
108.9122869908734
 30
0.0
 10
76.17300623229981
 20
116.5752179339076
 30
0.0
  0
ENDBLK
  5
708
330
705
100
AcDbEntity
  8
0
100
AcDbBlockEnd
  0
BLOCK
  5
70C
330
70A
100
AcDbEntity
  8
0
100
AcDbBlockBegin
  2
block 181
 70
     0
 71
     0
 10
0.0
 20
0.0
 30
0.0
  3
block 181
  1

  0
SPLINE
  5
70E
330
70A
100
AcDbEntity
  8
1
 62
     7
420
 16777215
370
    25
100
AcDbSpline
210
0.0
220
0.0
230
1.0
 70
     8
 71
     3
 72
     8
 73
     4
 74
     0
 42
0.0000000001
 43
0.0000000001
 40
0.0
 40
0.0
 40
0.0
 40
0.0
 40
1.0
 40
1.0
 40
1.0
 40
1.0
 10
78.13016626859785
 20
120.7003779892909
 30
0.0
 10
78.32068017461313
 20
125.0012380303303
 30
0.0
 10
78.48225525946152
 20
133.5002941992218
 30
0.0
 10
78.45572800672522
 20
137.8049438477949
 30
0.0
  0
ENDBLK
  5
70D
330
70A
100
AcDbEntity
  8
0
100
AcDbBlockEnd
  0
BLOCK
  5
711
330
70F
100
AcDbEntity
  8
0
100
AcDbBlockBegin
  2
block 182
 70
     0
 71
     0
 10
0.0
 20
0.0
 30
0.0
  3
block 182
  1

  0
SPLINE
  5
713
330
70F
100
AcDbEntity
  8
1
 62
     7
420
 16777215
370
    25
100
AcDbSpline
210
0.0
220
0.0
230
1.0
 70
     8
 71
     3
 72
     8
 73
     4
 74
     0
 42
0.0000000001
 43
0.0000000001
 40
0.0
 40
0.0
 40
0.0
 40
0.0
 40
1.0
 40
1.0
 40
1.0
 40
1.0
 10
78.45572800672522
 20
137.8049438477949
 30
0.0
 10
78.55821966502458
 20
145.2053583416724
 30
0.0
 10
77.92363265800805
 20
159.5533292291434
 30
0.0
 10
77.16812271968705
 20
166.9156753927954
 30
0.0
  0
ENDBLK
  5
712
330
70F
100
AcDbEntity
  8
0
100
AcDbBlockEnd
  0
BLOCK
  5
716
330
714
100
AcDbEntity
  8
0
100
AcDbBlockBegin
  2
block 183
 70
     0
 71
     0
 10
0.0
 20
0.0
 30
0.0
  3
block 183
  1

  0
SPLINE
  5
718
330
714
100
AcDbEntity
  8
1
 62
     7
420
 16777215
370
    25
100
AcDbSpline
210
0.0
220
0.0
230
1.0
 70
     8
 71
     3
 72
     8
 73
     4
 74
     0
 42
0.0000000001
 43
0.0000000001
 40
0.0
 40
0.0
 40
0.0
 40
0.0
 40
1.0
 40
1.0
 40
1.0
 40
1.0
 10
77.16812271968705
 20
166.9156753927954
 30
0.0
 10
77.15227527000042
 20
167.1197974349546
 30
0.0
 10
76.97468048057749
 20
167.2822337942425
 30
0.0
 10
76.77004167375458
 20
167.2801667355878
 30
0.0
  0
ENDBLK
  5
717
330
714
100
AcDbEntity
  8
0
100
AcDbBlockEnd
  0
BLOCK
  5
71B
330
719
100
AcDbEntity
  8
0
100
AcDbBlockBegin
  2
block 184
 70
     0
 71
     0
 10
0.0
 20
0.0
 30
0.0
  3
block 184
  1

  0
SPLINE
  5
71D
330
719
100
AcDbEntity
  8
1
 62
     7
420
 16777215
370
    25
100
AcDbSpline
210
0.0
220
0.0
230
1.0
 70
     8
 71
     3
 72
     8
 73
     4
 74
     0
 42
0.0000000001
 43
0.0000000001
 40
0.0
 40
0.0
 40
0.0
 40
0.0
 40
1.0
 40
1.0
 40
1.0
 40
1.0
 10
71.97084824202604
 20
153.3659336558442
 30
0.0
 10
66.3370798784313
 20
153.9335135114684
 30
0.0
 10
55.60405006838955
 20
153.9335135114684
 30
0.0
 10
49.9702817047948
 20
153.3659336558442
 30
0.0
  0
ENDBLK
  5
71C
330
719
100
AcDbEntity
  8
0
100
AcDbBlockEnd
  0
BLOCK
  5
720
330
71E
100
AcDbEntity
  8
0
100
AcDbBlockBegin
  2
block 185
 70
     0
 71
     0
 10
0.0
 20
0.0
 30
0.0
  3
block 185
  1

  0
SPLINE
  5
722
330
71E
100
AcDbEntity
  8
1
 62
     7
420
 16777215
370
    25
100
AcDbSpline
210
0.0
220
0.0
230
1.0
 70
    11
 71
     3
 72
    23
 73
    19
 74
     0
 42
0.0000000001
 43
0.0000000001
 40
0.0
 40
0.0
 40
0.0
 40
0.0
 40
1.0
 40
1.0
 40
1.0
 40
2.0
 40
2.0
 40
2.0
 40
3.0
 40
3.0
 40
3.0
 40
4.0
 40
4.0
 40
4.0
 40
5.0
 40
5.0
 40
5.0
 40
6.0
 40
6.0
 40
6.0
 40
6.0
 10
63.26853130541482
 20
146.2977988407221
 30
0.0
 10
63.26853130541482
 20
147.5669728547552
 30
0.0
 10
62.23965285999956
 20
148.5960235550583
 30
0.0
 10
60.97047884596648
 20
148.5960235550583
 30
0.0
 10
59.70130483193338
 20
148.5960235550583
 30
0.0
 10
58.67242638651813
 20
147.5669728547552
 30
0.0
 10
58.67242638651813
 20
146.2977988407221
 30
0.0
 10
58.67242638651813
 20
145.028624826689
 30
0.0
 10
59.70130483193338
 20
143.9999186361616
 30
0.0
 10
60.97047884596648
 20
143.9999186361616
 30
0.0
 10
62.23965285999956
 20
143.9999186361616
 30
0.0
 10
63.26853130541482
 20
145.028624826689
 30
0.0
 10
63.26853130541482
 20
146.2977988407221
 30
0.0
 10
63.26853130541482
 20
146.2977988407221
 30
0.0
 10
63.26853130541482
 20
146.2977988407221
 30
0.0
 10
63.26853130541482
 20
146.2977988407221
 30
0.0
 10
63.26853130541482
 20
146.2977988407221
 30
0.0
 10
63.26853130541482
 20
146.2977988407221
 30
0.0
 10
63.26853130541482
 20
146.2977988407221
 30
0.0
  0
ENDBLK
  5
721
330
71E
100
AcDbEntity
  8
0
100
AcDbBlockEnd
  0
BLOCK
  5
725
330
723
100
AcDbEntity
  8
0
100
AcDbBlockBegin
  2
block 186
 70
     0
 71
     0
 10
0.0
 20
0.0
 30
0.0
  3
block 186
  1

  0
SPLINE
  5
727
330
723
100
AcDbEntity
  8
1
 62
     7
420
 16777215
370
    25
100
AcDbSpline
210
0.0
220
0.0
230
1.0
 70
    11
 71
     3
 72
    23
 73
    19
 74
     0
 42
0.0000000001
 43
0.0000000001
 40
0.0
 40
0.0
 40
0.0
 40
0.0
 40
1.0
 40
1.0
 40
1.0
 40
2.0
 40
2.0
 40
2.0
 40
3.0
 40
3.0
 40
3.0
 40
4.0
 40
4.0
 40
4.0
 40
5.0
 40
5.0
 40
5.0
 40
6.0
 40
6.0
 40
6.0
 40
6.0
 10
62.71903821301993
 20
160.5858250272045
 30
0.0
 10
62.71903821301993
 20
161.5514859287611
 30
0.0
 10
61.93613974752314
 20
162.3343843942579
 30
0.0
 10
60.97047884596648
 20
162.3343843942579
 30
0.0
 10
60.00481794440981
 20
162.3343843942579
 30
0.0
 10
59.22209173380092
 20
161.5514859287611
 30
0.0
 10
59.22209173380092
 20
160.5858250272045
 30
0.0
 10
59.22209173380092
 20
159.6201641256478
 30
0.0
 10
60.00481794440981
 20
158.837265660151
 30
0.0
 10
60.97047884596648
 20
158.837265660151
 30
0.0
 10
61.93613974752314
 20
158.837265660151
 30
0.0
 10
62.71903821301993
 20
159.6201641256478
 30
0.0
 10
62.71903821301993
 20
160.5858250272045
 30
0.0
 10
62.71903821301993
 20
160.5858250272045
 30
0.0
 10
62.71903821301993
 20
160.5858250272045
 30
0.0
 10
62.71903821301993
 20
160.5858250272045
 30
0.0
 10
62.71903821301993
 20
160.5858250272045
 30
0.0
 10
62.71903821301993
 20
160.5858250272045
 30
0.0
 10
62.71903821301993
 20
160.5858250272045
 30
0.0
  0
ENDBLK
  5
726
330
723
100
AcDbEntity
  8
0
100
AcDbBlockEnd
  0
BLOCK
  5
72A
330
728
100
AcDbEntity
  8
0
100
AcDbBlockBegin
  2
block 187
 70
     0
 71
     0
 10
0.0
 20
0.0
 30
0.0
  3
block 187
  1

  0
SPLINE
  5
72C
330
728
100
AcDbEntity
  8
1
 62
     8
420
  8421504
370
    25
100
AcDbSpline
210
0.0
220
0.0
230
1.0
 70
     8
 71
     3
 72
    17
 73
    13
 74
     0
 42
0.0000000001
 43
0.0000000001
 40
0.0
 40
0.0
 40
0.0
 40
0.0
 40
1.0
 40
1.0
 40
1.0
 40
2.0
 40
2.0
 40
2.0
 40
3.0
 40
3.0
 40
3.0
 40
4.0
 40
4.0
 40
4.0
 40
4.0
 10
60.93964522103271
 20
149.8664033533067
 30
0.0
 10
58.96887704859073
 20
149.8493501194048
 30
0.0
 10
57.38499335436784
 20
148.2377333882303
 30
0.0
 10
57.40204658826976
 20
146.2671374706762
 30
0.0
 10
57.41909982217167
 20
144.2961970433464
 30
0.0
 10
59.03054429845825
 20
142.7124856040114
 30
0.0
 10
61.00131247090023
 20
142.7293665830254
 30
0.0
 10
62.97208064334221
 20
142.7462475620394
 30
0.0
 10
64.5559643375651
 20
144.3578642932139
 30
0.0
 10
64.53908335855108
 20
146.3288047205437
 30
0.0
 10
64.52426943819185
 20
148.2852757372902
 30
0.0
 10
62.92729437248871
 20
149.8686426668494
 30
0.0
 10
60.97047884596648
 20
149.8664033533067
 30
0.0
  0
ENDBLK
  5
72B
330
728
100
AcDbEntity
  8
0
100
AcDbBlockEnd
  0
BLOCK
  5
72F
330
72D
100
AcDbEntity
  8
0
100
AcDbBlockBegin
  2
block 188
 70
     0
 71
     0
 10
0.0
 20
0.0
 30
0.0
  3
block 188
  1

  0
SPLINE
  5
731
330
72D
100
AcDbEntity
  8
1
 62
     7
420
 16777215
370
    25
100
AcDbSpline
210
0.0
220
0.0
230
1.0
 70
     8
 71
     3
 72
     8
 73
     4
 74
     0
 42
0.0000000001
 43
0.0000000001
 40
0.0
 40
0.0
 40
0.0
 40
0.0
 40
1.0
 40
1.0
 40
1.0
 40
1.0
 10
70.32650308215092
 20
165.4985344300578
 30
0.0
 10
65.55848778513194
 20
165.8757726345547
 30
0.0
 10
56.38264216168889
 20
165.8757726345547
 30
0.0
 10
51.61462686466992
 20
165.4985344300578
 30
0.0
  0
ENDBLK
  5
730
330
72D
100
AcDbEntity
  8
0
100
AcDbBlockEnd
  0
BLOCK
  5
734
330
732
100
AcDbEntity
  8
0
100
AcDbBlockBegin
  2
block 189
 70
     0
 71
     0
 10
0.0
 20
0.0
 30
0.0
  3
block 189
  1

  0
SPLINE
  5
736
330
732
100
AcDbEntity
  8
1
 62
     7
420
 16777215
370
    25
100
AcDbSpline
210
0.0
220
0.0
230
1.0
 70
     8
 71
     3
 72
     8
 73
     4
 74
     0
 42
0.0000000001
 43
0.0000000001
 40
0.0
 40
0.0
 40
0.0
 40
0.0
 40
1.0
 40
1.0
 40
1.0
 40
1.0
 10
73.65980741786676
 20
137.8049438477949
 30
0.0
 10
73.73938917607568
 20
144.2472766551833
 30
0.0
 10
73.24863500045403
 20
156.7841596512938
 30
0.0
 10
72.66589671469481
 20
163.2004819706095
 30
0.0
  0
ENDBLK
  5
735
330
732
100
AcDbEntity
  8
0
100
AcDbBlockEnd
  0
BLOCK
  5
739
330
737
100
AcDbEntity
  8
0
100
AcDbBlockBegin
  2
block 190
 70
     0
 71
     0
 10
0.0
 20
0.0
 30
0.0
  3
block 190
  1

  0
SPLINE
  5
73B
330
737
100
AcDbEntity
  8
1
 62
     7
420
 16777215
370
    25
100
AcDbSpline
210
0.0
220
0.0
230
1.0
 70
     8
 71
     3
 72
     8
 73
     4
 74
     0
 42
0.0000000001
 43
0.0000000001
 40
0.0
 40
0.0
 40
0.0
 40
0.0
 40
1.0
 40
1.0
 40
1.0
 40
1.0
 10
73.35233244296867
 20
151.9369071058417
 30
0.0
 10
73.33062832709352
 20
152.6824262606646
 30
0.0
 10
72.71516161263366
 20
153.3190803263359
 30
0.0
 10
71.97084824202604
 20
153.3659336558442
 30
0.0
  0
ENDBLK
  5
73A
330
737
100
AcDbEntity
  8
0
100
AcDbBlockEnd
  0
BLOCK
  5
73E
330
73C
100
AcDbEntity
  8
0
100
AcDbBlockBegin
  2
block 191
 70
     0
 71
     0
 10
0.0
 20
0.0
 30
0.0
  3
block 191
  1

  0
SPLINE
  5
740
330
73C
100
AcDbEntity
  8
1
 62
     7
420
 16777215
370
    25
100
AcDbSpline
210
0.0
220
0.0
230
1.0
 70
     8
 71
     3
 72
     8
 73
     4
 74
     0
 42
0.0000000001
 43
0.0000000001
 40
0.0
 40
0.0
 40
0.0
 40
0.0
 40
1.0
 40
1.0
 40
1.0
 40
1.0
 10
73.32701097444766
 20
120.6032262325164
 30
0.0
 10
73.52165899777249
 20
124.9288909774131
 30
0.0
 10
73.68702369015466
 20
133.4751449855887
 30
0.0
 10
73.65980741786676
 20
137.8049438477949
 30
0.0
  0
ENDBLK
  5
73F
330
73C
100
AcDbEntity
  8
0
100
AcDbBlockEnd
  0
BLOCK
  5
743
330
741
100
AcDbEntity
  8
0
100
AcDbBlockBegin
  2
block 192
 70
     0
 71
     0
 10
0.0
 20
0.0
 30
0.0
  3
block 192
  1

  0
SPLINE
  5
745
330
741
100
AcDbEntity
  8
1
 62
     7
420
 16777215
370
    25
100
AcDbSpline
210
0.0
220
0.0
230
1.0
 70
     8
 71
     3
 72
     8
 73
     4
 74
     0
 42
0.0000000001
 43
0.0000000001
 40
0.0
 40
0.0
 40
0.0
 40
0.0
 40
1.0
 40
1.0
 40
1.0
 40
1.0
 10
72.66589671469481
 20
163.2004819706095
 30
0.0
 10
72.59027681890755
 20
164.4214246160311
 30
0.0
 10
71.54865151178784
 20
165.4446186501458
 30
0.0
 10
70.32650308215092
 20
165.4985344300578
 30
0.0
  0
ENDBLK
  5
744
330
741
100
AcDbEntity
  8
0
100
AcDbBlockEnd
  0
BLOCK
  5
748
330
746
100
AcDbEntity
  8
0
100
AcDbBlockBegin
  2
block 193
 70
     0
 71
     0
 10
0.0
 20
0.0
 30
0.0
  3
block 193
  1

  0
SPLINE
  5
74A
330
746
100
AcDbEntity
  8
1
 62
     7
420
 16777215
370
    25
100
AcDbSpline
210
0.0
220
0.0
230
1.0
 70
     8
 71
     3
 72
     8
 73
     4
 74
     0
 42
0.0000000001
 43
0.0000000001
 40
0.0
 40
0.0
 40
0.0
 40
0.0
 40
1.0
 40
1.0
 40
1.0
 40
1.0
 10
50.58092528239351
 20
117.208426901821
 30
0.0
 10
56.34181775325705
 20
113.2307170304784
 30
0.0
 10
65.5991399386759
 20
113.2307170304784
 30
0.0
 10
71.36003240953943
 20
117.208426901821
 30
0.0
  0
ENDBLK
  5
749
330
746
100
AcDbEntity
  8
0
100
AcDbBlockEnd
  0
BLOCK
  5
74D
330
74B
100
AcDbEntity
  8
0
100
AcDbBlockBegin
  2
block 194
 70
     0
 71
     0
 10
0.0
 20
0.0
 30
0.0
  3
block 194
  1

  0
SPLINE
  5
74F
330
74B
100
AcDbEntity
  8
1
 62
     7
420
 16777215
370
    25
100
AcDbSpline
210
0.0
220
0.0
230
1.0
 70
     8
 71
     3
 72
     8
 73
     4
 74
     0
 42
0.0000000001
 43
0.0000000001
 40
0.0
 40
0.0
 40
0.0
 40
0.0
 40
1.0
 40
1.0
 40
1.0
 40
1.0
 10
71.36003240953943
 20
117.208426901821
 30
0.0
 10
72.46453075074196
 20
117.8195872440834
 30
0.0
 10
73.34578675722855
 20
119.3409424139993
 30
0.0
 10
73.32701097444766
 20
120.6032262325164
 30
0.0
  0
ENDBLK
  5
74E
330
74B
100
AcDbEntity
  8
0
100
AcDbBlockEnd
  0
BLOCK
  5
752
330
750
100
AcDbEntity
  8
0
100
AcDbBlockBegin
  2
block 195
 70
     0
 71
     0
 10
0.0
 20
0.0
 30
0.0
  3
block 195
  1

  0
SPLINE
  5
754
330
750
100
AcDbEntity
  8
1
 62
     7
420
 16777215
370
    25
100
AcDbSpline
210
0.0
220
0.0
230
1.0
 70
     8
 71
     3
 72
     8
 73
     4
 74
     0
 42
0.0000000001
 43
0.0000000001
 40
0.0
 40
0.0
 40
0.0
 40
0.0
 40
1.0
 40
1.0
 40
1.0
 40
1.0
 10
76.17300623229981
 20
116.5752179339076
 30
0.0
 10
77.27319820130488
 20
117.4361478636222
 30
0.0
 10
78.15910508976472
 20
119.3037353582133
 30
0.0
 10
78.13016626859785
 20
120.7003779892909
 30
0.0
  0
ENDBLK
  5
753
330
750
100
AcDbEntity
  8
0
100
AcDbBlockEnd
  0
BLOCK
  5
757
330
755
100
AcDbEntity
  8
0
100
AcDbBlockBegin
  2
block 196
 70
     0
 71
     0
 10
0.0
 20
0.0
 30
0.0
  3
block 196
  1

  0
POLYLINE
  5
759
330
755
100
AcDbEntity
  8
1
 62
     7
420
 16777215
370
    25
100
AcDb2dPolyline
 66
     1
 10
0.0
 20
0.0
 30
0.0
  0
VERTEX
  5
75A
330
759
100
AcDbEntity
  8
1
 62
     7
420
 16777215
370
    25
100
AcDbVertex
100
AcDb2dVertex
 10
45.17108827306627
 20
167.2801667355878
 30
0.0
  0
VERTEX
  5
75B
330
759
100
AcDbEntity
  8
1
 62
     7
420
 16777215
370
    25
100
AcDbVertex
100
AcDb2dVertex
 10
76.77004167375458
 20
167.2801667355878
 30
0.0
  0
SEQEND
  5
75C
330
759
100
AcDbEntity
  8
1
370
    25
  0
ENDBLK
  5
758
330
755
100
AcDbEntity
  8
0
100
AcDbBlockEnd
  0
BLOCK
  5
75F
330
75D
100
AcDbEntity
  8
0
100
AcDbBlockBegin
  2
block 197
 70
     0
 71
     0
 10
0.0
 20
0.0
 30
0.0
  3
block 197
  1

  0
SPLINE
  5
761
330
75D
100
AcDbEntity
  8
1
 62
     7
420
 16777215
370
    25
100
AcDbSpline
210
0.0
220
0.0
230
1.0
 70
     8
 71
     3
 72
     8
 73
     4
 74
     0
 42
0.0000000001
 43
0.0000000001
 40
0.0
 40
0.0
 40
0.0
 40
0.0
 40
1.0
 40
1.0
 40
1.0
 40
1.0
 10
43.48540194009561
 20
137.8049438477949
 30
0.0
 10
43.45870243247141
 20
133.5002941992218
 30
0.0
 10
43.62044977220771
 20
125.0012380303303
 30
0.0
 10
43.8107914233351
 20
120.7003779892909
 30
0.0
  0
ENDBLK
  5
760
330
75D
100
AcDbEntity
  8
0
100
AcDbBlockEnd
  0
BLOCK
  5
764
330
762
100
AcDbEntity
  8
0
100
AcDbBlockBegin
  2
block 198
 70
     0
 71
     0
 10
0.0
 20
0.0
 30
0.0
  3
block 198
  1

  0
SPLINE
  5
766
330
762
100
AcDbEntity
  8
1
 62
     7
420
 16777215
370
    25
100
AcDbSpline
210
0.0
220
0.0
230
1.0
 70
     8
 71
     3
 72
     8
 73
     4
 74
     0
 42
0.0000000001
 43
0.0000000001
 40
0.0
 40
0.0
 40
0.0
 40
0.0
 40
1.0
 40
1.0
 40
1.0
 40
1.0
 10
44.7730072271338
 20
166.9156753927954
 30
0.0
 10
44.0174972888128
 20
159.5533292291434
 30
0.0
 10
43.38291028179626
 20
145.2053583416724
 30
0.0
 10
43.48540194009561
 20
137.8049438477949
 30
0.0
  0
ENDBLK
  5
765
330
762
100
AcDbEntity
  8
0
100
AcDbBlockEnd
  0
BLOCK
  5
769
330
767
100
AcDbEntity
  8
0
100
AcDbBlockBegin
  2
block 199
 70
     0
 71
     0
 10
0.0
 20
0.0
 30
0.0
  3
block 199
  1

  0
SPLINE
  5
76B
330
767
100
AcDbEntity
  8
1
 62
     7
420
 16777215
370
    25
100
AcDbSpline
210
0.0
220
0.0
230
1.0
 70
     8
 71
     3
 72
     8
 73
     4
 74
     0
 42
0.0000000001
 43
0.0000000001
 40
0.0
 40
0.0
 40
0.0
 40
0.0
 40
1.0
 40
1.0
 40
1.0
 40
1.0
 10
45.17108827306627
 20
167.2801667355878
 30
0.0
 10
44.96644946624335
 20
167.2822337942425
 30
0.0
 10
44.78885467682042
 20
167.1197974349546
 30
0.0
 10
44.7730072271338
 20
166.9156753927954
 30
0.0
  0
ENDBLK
  5
76A
330
767
100
AcDbEntity
  8
0
100
AcDbBlockEnd
  0
BLOCK
  5
76E
330
76C
100
AcDbEntity
  8
0
100
AcDbBlockBegin
  2
block 200
 70
     0
 71
     0
 10
0.0
 20
0.0
 30
0.0
  3
block 200
  1

  0
SPLINE
  5
770
330
76C
100
AcDbEntity
  8
1
 62
     7
420
 16777215
370
    25
100
AcDbSpline
210
0.0
220
0.0
230
1.0
 70
     8
 71
     3
 72
     8
 73
     4
 74
     0
 42
0.0000000001
 43
0.0000000001
 40
0.0
 40
0.0
 40
0.0
 40
0.0
 40
1.0
 40
1.0
 40
1.0
 40
1.0
 10
49.27523323212603
 20
163.2004819706095
 30
0.0
 10
48.69249494636681
 20
156.7841596512938
 30
0.0
 10
48.20174077074517
 20
144.2472766551833
 30
0.0
 10
48.28132252895409
 20
137.8049438477949
 30
0.0
  0
ENDBLK
  5
76F
330
76C
100
AcDbEntity
  8
0
100
AcDbBlockEnd
  0
BLOCK
  5
773
330
771
100
AcDbEntity
  8
0
100
AcDbBlockBegin
  2
block 201
 70
     0
 71
     0
 10
0.0
 20
0.0
 30
0.0
  3
block 201
  1

  0
SPLINE
  5
775
330
771
100
AcDbEntity
  8
1
 62
     7
420
 16777215
370
    25
100
AcDbSpline
210
0.0
220
0.0
230
1.0
 70
     8
 71
     3
 72
     8
 73
     4
 74
     0
 42
0.0000000001
 43
0.0000000001
 40
0.0
 40
0.0
 40
0.0
 40
0.0
 40
1.0
 40
1.0
 40
1.0
 40
1.0
 10
49.9702817047948
 20
153.3659336558442
 30
0.0
 10
49.22596833418718
 20
153.3190803263359
 30
0.0
 10
48.61050161972732
 20
152.6824262606646
 30
0.0
 10
48.58879750385216
 20
151.9369071058417
 30
0.0
  0
ENDBLK
  5
774
330
771
100
AcDbEntity
  8
0
100
AcDbBlockEnd
  0
BLOCK
  5
778
330
776
100
AcDbEntity
  8
0
100
AcDbBlockBegin
  2
block 202
 70
     0
 71
     0
 10
0.0
 20
0.0
 30
0.0
  3
block 202
  1

  0
SPLINE
  5
77A
330
776
100
AcDbEntity
  8
1
 62
     7
420
 16777215
370
    25
100
AcDbSpline
210
0.0
220
0.0
230
1.0
 70
     8
 71
     3
 72
     8
 73
     4
 74
     0
 42
0.0000000001
 43
0.0000000001
 40
0.0
 40
0.0
 40
0.0
 40
0.0
 40
1.0
 40
1.0
 40
1.0
 40
1.0
 10
48.28132252895409
 20
137.8049438477949
 30
0.0
 10
48.25410625666618
 20
133.4751449855887
 30
0.0
 10
48.41947094904835
 20
124.9288909774131
 30
0.0
 10
48.61394671748528
 20
120.6032262325164
 30
0.0
  0
ENDBLK
  5
779
330
776
100
AcDbEntity
  8
0
100
AcDbBlockEnd
  0
BLOCK
  5
77D
330
77B
100
AcDbEntity
  8
0
100
AcDbBlockBegin
  2
block 203
 70
     0
 71
     0
 10
0.0
 20
0.0
 30
0.0
  3
block 203
  1

  0
SPLINE
  5
77F
330
77B
100
AcDbEntity
  8
1
 62
     7
420
 16777215
370
    25
100
AcDbSpline
210
0.0
220
0.0
230
1.0
 70
     8
 71
     3
 72
     8
 73
     4
 74
     0
 42
0.0000000001
 43
0.0000000001
 40
0.0
 40
0.0
 40
0.0
 40
0.0
 40
1.0
 40
1.0
 40
1.0
 40
1.0
 10
51.61462686466992
 20
165.4985344300578
 30
0.0
 10
50.39247843503301
 20
165.4446186501458
 30
0.0
 10
49.35085312791329
 20
164.4214246160311
 30
0.0
 10
49.27523323212603
 20
163.2004819706095
 30
0.0
  0
ENDBLK
  5
77E
330
77B
100
AcDbEntity
  8
0
100
AcDbBlockEnd
  0
BLOCK
  5
782
330
780
100
AcDbEntity
  8
0
100
AcDbBlockBegin
  2
block 204
 70
     0
 71
     0
 10
0.0
 20
0.0
 30
0.0
  3
block 204
  1

  0
SPLINE
  5
784
330
780
100
AcDbEntity
  8
1
 62
     7
420
 16777215
370
    25
100
AcDbSpline
210
0.0
220
0.0
230
1.0
 70
     8
 71
     3
 72
     8
 73
     4
 74
     0
 42
0.0000000001
 43
0.0000000001
 40
0.0
 40
0.0
 40
0.0
 40
0.0
 40
1.0
 40
1.0
 40
1.0
 40
1.0
 10
48.61394671748528
 20
120.6032262325164
 30
0.0
 10
48.59517093470439
 20
119.3409424139993
 30
0.0
 10
49.47659919607889
 20
117.8195872440834
 30
0.0
 10
50.58092528239351
 20
117.208426901821
 30
0.0
  0
ENDBLK
  5
783
330
780
100
AcDbEntity
  8
0
100
AcDbBlockEnd
  0
BLOCK
  5
787
330
785
100
AcDbEntity
  8
0
100
AcDbBlockBegin
  2
block 205
 70
     0
 71
     0
 10
0.0
 20
0.0
 30
0.0
  3
block 205
  1

  0
SPLINE
  5
789
330
785
100
AcDbEntity
  8
1
 62
     7
420
 16777215
370
    25
100
AcDbSpline
210
0.0
220
0.0
230
1.0
 70
     8
 71
     3
 72
     8
 73
     4
 74
     0
 42
0.0000000001
 43
0.0000000001
 40
0.0
 40
0.0
 40
0.0
 40
0.0
 40
1.0
 40
1.0
 40
1.0
 40
1.0
 10
43.8107914233351
 20
120.7003779892909
 30
0.0
 10
43.78185260216822
 20
119.3037353582133
 30
0.0
 10
44.66775949062806
 20
117.4361478636222
 30
0.0
 10
45.76812371452103
 20
116.5752179339076
 30
0.0
  0
ENDBLK
  5
788
330
785
100
AcDbEntity
  8
0
100
AcDbBlockEnd
  0
BLOCK
  5
78D
330
78B
100
AcDbEntity
  8
0
100
AcDbBlockBegin
  2
block 206
 70
     0
 71
     0
 10
0.0
 20
0.0
 30
0.0
  3
block 206
  1

  0
POLYLINE
  5
78F
330
78B
100
AcDbEntity
  8
EJES
  6
AI-Linetype-1
 62
     7
420
 16777215
370
    25
100
AcDb2dPolyline
 66
     1
 10
0.0
 20
0.0
 30
0.0
  0
VERTEX
  5
790
330
78F
100
AcDbEntity
  8
EJES
  6
AI-Linetype-1
 62
     7
420
 16777215
370
    25
100
AcDbVertex
100
AcDb2dVertex
 10
140.5570601917426
 20
222.1809000966894
 30
0.0
  0
VERTEX
  5
791
330
78F
100
AcDbEntity
  8
EJES
  6
AI-Linetype-1
 62
     7
420
 16777215
370
    25
100
AcDbVertex
100
AcDb2dVertex
 10
140.5570601917426
 20
211.2899125544451
 30
0.0
  0
SEQEND
  5
792
330
78F
100
AcDbEntity
  8
EJES
  6
AI-Linetype-1
370
    25
  0
ENDBLK
  5
78E
330
78B
100
AcDbEntity
  8
0
100
AcDbBlockEnd
  0
BLOCK
  5
796
330
794
100
AcDbEntity
  8
0
100
AcDbBlockBegin
  2
block 207
 70
     0
 71
     0
 10
0.0
 20
0.0
 30
0.0
  3
block 207
  1

  0
SPLINE
  5
798
330
794
100
AcDbEntity
  8
EJES
  6
AI-Linetype-2
 62
     7
420
 16777215
370
    25
100
AcDbSpline
210
0.0
220
0.0
230
1.0
 70
    11
 71
     3
 72
    68
 73
    64
 74
     0
 42
0.0000000001
 43
0.0000000001
 40
0.0
 40
0.0
 40
0.0
 40
0.0
 40
1.0
 40
1.0
 40
1.0
 40
2.0
 40
2.0
 40
2.0
 40
3.0
 40
3.0
 40
3.0
 40
4.0
 40
4.0
 40
4.0
 40
5.0
 40
5.0
 40
5.0
 40
6.0
 40
6.0
 40
6.0
 40
7.0
 40
7.0
 40
7.0
 40
8.0
 40
8.0
 40
8.0
 40
9.0
 40
9.0
 40
9.0
 40
10.0
 40
10.0
 40
10.0
 40
11.0
 40
11.0
 40
11.0
 40
12.0
 40
12.0
 40
12.0
 40
13.0
 40
13.0
 40
13.0
 40
14.0
 40
14.0
 40
14.0
 40
15.0
 40
15.0
 40
15.0
 40
16.0
 40
16.0
 40
16.0
 40
17.0
 40
17.0
 40
17.0
 40
18.0
 40
18.0
 40
18.0
 40
19.0
 40
19.0
 40
19.0
 40
20.0
 40
20.0
 40
20.0
 40
21.0
 40
21.0
 40
21.0
 40
21.0
 10
144.7466435751998
 20
222.0034775621544
 30
0.0
 10
143.3527570223285
 20
222.1068304948932
 30
0.0
 10
142.0088243869477
 20
222.2797744023429
 30
0.0
 10
140.5570601917426
 20
222.1809000966894
 30
0.0
 10
140.5570601917426
 20
222.1809000966894
 30
0.0
 10
140.5570601917426
 20
222.1809000966894
 30
0.0
 10
140.5570601917426
 20
222.1809000966894
 30
0.0
 10
138.2719268488866
 20
222.0253539329175
 30
0.0
 10
135.7187649004612
 20
221.1964634123519
 30
0.0
 10
134.5894618554014
 20
219.3629823855647
 30
0.0
 10
134.5894618554014
 20
219.3629823855647
 30
0.0
 10
134.5894618554014
 20
219.3629823855647
 30
0.0
 10
134.5894618554014
 20
219.3629823855647
 30
0.0
 10
134.1026695422014
 20
218.5726769598882
 30
0.0
 10
133.8804607368129
 20
217.5958194906182
 30
0.0
 10
133.7206082008435
 20
216.6542742733673
 30
0.0
 10
133.7206082008435
 20
216.6542742733673
 30
0.0
 10
133.7206082008435
 20
216.6542742733673
 30
0.0
 10
133.7206082008435
 20
216.6542742733673
 30
0.0
 10
133.674099381111
 20
216.3807335113851
 30
0.0
 10
133.6331027177912
 20
216.1099488276093
 30
0.0
 10
133.6269015418269
 20
215.8326184580934
 30
0.0
 10
133.6269015418269
 20
215.8326184580934
 30
0.0
 10
133.6269015418269
 20
215.8326184580934
 30
0.0
 10
133.6269015418269
 20
215.8326184580934
 30
0.0
 10
133.5859048785071
 20
213.9388482205419
 30
0.0
 10
135.1868418066319
 20
211.7372584983165
 30
0.0
 10
136.9376404872281
 20
211.2564951061929
 30
0.0
 10
136.9376404872281
 20
211.2564951061929
 30
0.0
 10
136.9376404872281
 20
211.2564951061929
 30
0.0
 10
136.9376404872281
 20
211.2564951061929
 30
0.0
 10
138.0597088269962
 20
210.9481588568553
 30
0.0
 10
139.243099906856
 20
211.3465844125636
 30
0.0
 10
140.5570601917426
 20
211.2899125544451
 30
0.0
 10
140.5570601917426
 20
211.2899125544451
 30
0.0
 10
140.5570601917426
 20
211.2899125544451
 30
0.0
 10
140.5570601917426
 20
211.2899125544451
 30
0.0
 10
142.0422418351999
 20
211.2256614812592
 30
0.0
 10
143.6941662101425
 20
210.5795333967534
 30
0.0
 10
144.6460467206674
 20
211.1307490380273
 30
0.0
 10
144.6460467206674
 20
211.1307490380273
 30
0.0
 10
144.6460467206674
 20
211.1307490380273
 30
0.0
 10
144.6460467206674
 20
211.1307490380273
 30
0.0
 10
145.5338484128941
 20
211.6445853686273
 30
0.0
 10
145.812901331289
 20
213.1993579867954
 30
0.0
 10
146.384098539559
 20
214.5272709176017
 30
0.0
 10
146.384098539559
 20
214.5272709176017
 30
0.0
 10
146.384098539559
 20
214.5272709176017
 30
0.0
 10
146.384098539559
 20
214.5272709176017
 30
0.0
 10
147.0038716262163
 20
215.9676662902055
 30
0.0
 10
147.9671209593424
 20
217.1414110963431
 30
0.0
 10
147.7714394066902
 20
218.4266048149507
 30
0.0
 10
147.7714394066902
 20
218.4266048149507
 30
0.0
 10
147.7714394066902
 20
218.4266048149507
 30
0.0
 10
147.7714394066902
 20
218.4266048149507
 30
0.0
 10
147.7225190185272
 20
218.7475156711048
 30
0.0
 10
147.6012515774469
 20
219.0754889776628
 30
0.0
 10
147.4517343347513
 20
219.4093189504092
 30
0.0
 10
147.4517343347513
 20
219.4093189504092
 30
0.0
 10
147.4517343347513
 20
219.4093189504092
 30
0.0
 10
147.4517343347513
 20
219.4093189504092
 30
0.0
 10
146.9091314378724
 20
220.6204430672207
 30
0.0
 10
145.9927354342546
 20
221.9113211971289
 30
0.0
 10
144.7466435751998
 20
222.0034775621544
 30
0.0
  0
ENDBLK
  5
797
330
794
100
AcDbEntity
  8
0
100
AcDbBlockEnd
  0
BLOCK
  5
79C
330
79A
100
AcDbEntity
  8
0
100
AcDbBlockBegin
  2
block 208
 70
     0
 71
     0
 10
0.0
 20
0.0
 30
0.0
  3
block 208
  1

  0
POLYLINE
  5
79E
330
79A
100
AcDbEntity
  8
EJES
  6
AI-Linetype-3
 62
     2
420
 16776960
370
    25
100
AcDb2dPolyline
 66
     1
 10
0.0
 20
0.0
 30
0.0
  0
VERTEX
  5
79F
330
79E
100
AcDbEntity
  8
EJES
  6
AI-Linetype-3
 62
     2
420
 16776960
370
    25
100
AcDbVertex
100
AcDb2dVertex
 10
69.96287301379807
 20
222.4652929166091
 30
0.0
  0
VERTEX
  5
7A0
330
79E
100
AcDbEntity
  8
EJES
  6
AI-Linetype-3
 62
     2
420
 16776960
370
    25
100
AcDbVertex
100
AcDb2dVertex
 10
69.96287301379807
 20
228.9703265031924
 30
0.0
  0
SEQEND
  5
7A1
330
79E
100
AcDbEntity
  8
EJES
  6
AI-Linetype-3
370
    25
  0
ENDBLK
  5
79D
330
79A
100
AcDbEntity
  8
0
100
AcDbBlockEnd
  0
BLOCK
  5
7A5
330
7A3
100
AcDbEntity
  8
0
100
AcDbBlockBegin
  2
block 209
 70
     0
 71
     0
 10
0.0
 20
0.0
 30
0.0
  3
block 209
  1

  0
POLYLINE
  5
7A7
330
7A3
100
AcDbEntity
  8
EJES
  6
AI-Linetype-4
 62
     2
420
 16776960
370
    25
100
AcDb2dPolyline
 66
     1
 10
0.0
 20
0.0
 30
0.0
  0
VERTEX
  5
7A8
330
7A7
100
AcDbEntity
  8
EJES
  6
AI-Linetype-4
 62
     2
420
 16776960
370
    25
100
AcDbVertex
100
AcDb2dVertex
 10
66.71052847539434
 20
225.7178097099008
 30
0.0
  0
VERTEX
  5
7A9
330
7A7
100
AcDbEntity
  8
EJES
  6
AI-Linetype-4
 62
     2
420
 16776960
370
    25
100
AcDbVertex
100
AcDb2dVertex
 10
73.21538980708971
 20
225.7178097099008
 30
0.0
  0
SEQEND
  5
7AA
330
7A7
100
AcDbEntity
  8
EJES
  6
AI-Linetype-4
370
    25
  0
ENDBLK
  5
7A6
330
7A3
100
AcDbEntity
  8
0
100
AcDbBlockEnd
  0
BLOCK
  5
7AE
330
7AC
100
AcDbEntity
  8
0
100
AcDbBlockBegin
  2
block 210
 70
     0
 71
     0
 10
0.0
 20
0.0
 30
0.0
  3
block 210
  1

  0
POLYLINE
  5
7B0
330
7AC
100
AcDbEntity
  8
EJES
  6
AI-Linetype-5
 62
     2
420
 16776960
370
    25
100
AcDb2dPolyline
 66
     1
 10
0.0
 20
0.0
 30
0.0
  0
VERTEX
  5
7B1
330
7B0
100
AcDbEntity
  8
EJES
  6
AI-Linetype-5
 62
     2
420
 16776960
370
    25
100
AcDbVertex
100
AcDb2dVertex
 10
51.97808467813487
 20
222.4652929166091
 30
0.0
  0
VERTEX
  5
7B2
330
7B0
100
AcDbEntity
  8
EJES
  6
AI-Linetype-5
 62
     2
420
 16776960
370
    25
100
AcDbVertex
100
AcDb2dVertex
 10
51.97808467813487
 20
228.9703265031924
 30
0.0
  0
SEQEND
  5
7B3
330
7B0
100
AcDbEntity
  8
EJES
  6
AI-Linetype-5
370
    25
  0
ENDBLK
  5
7AF
330
7AC
100
AcDbEntity
  8
0
100
AcDbBlockEnd
  0
BLOCK
  5
7B7
330
7B5
100
AcDbEntity
  8
0
100
AcDbBlockBegin
  2
block 211
 70
     0
 71
     0
 10
0.0
 20
0.0
 30
0.0
  3
block 211
  1

  0
POLYLINE
  5
7B9
330
7B5
100
AcDbEntity
  8
EJES
  6
AI-Linetype-6
 62
     2
420
 16776960
370
    25
100
AcDb2dPolyline
 66
     1
 10
0.0
 20
0.0
 30
0.0
  0
VERTEX
  5
7BA
330
7B9
100
AcDbEntity
  8
EJES
  6
AI-Linetype-6
 62
     2
420
 16776960
370
    25
100
AcDbVertex
100
AcDb2dVertex
 10
55.2306014714265
 20
225.7178097099008
 30
0.0
  0
VERTEX
  5
7BB
330
7B9
100
AcDbEntity
  8
EJES
  6
AI-Linetype-6
 62
     2
420
 16776960
370
    25
100
AcDbVertex
100
AcDb2dVertex
 10
48.72574013973114
 20
225.7178097099008
 30
0.0
  0
SEQEND
  5
7BC
330
7B9
100
AcDbEntity
  8
EJES
  6
AI-Linetype-6
370
    25
  0
ENDBLK
  5
7B8
330
7B5
100
AcDbEntity
  8
0
100
AcDbBlockEnd
  0
BLOCK
  5
7C0
330
7BE
100
AcDbEntity
  8
0
100
AcDbBlockBegin
  2
block 212
 70
     0
 71
     0
 10
0.0
 20
0.0
 30
0.0
  3
block 212
  1

  0
POLYLINE
  5
7C2
330
7BE
100
AcDbEntity
  8
EJES
  6
AI-Linetype-7
 62
     2
420
 16776960
370
    25
100
AcDb2dPolyline
 66
     1
 10
0.0
 20
0.0
 30
0.0
  0
VERTEX
  5
7C3
330
7C2
100
AcDbEntity
  8
EJES
  6
AI-Linetype-7
 62
     2
420
 16776960
370
    25
100
AcDbVertex
100
AcDb2dVertex
 10
60.97047884596648
 20
211.2583899099598
 30
0.0
  0
VERTEX
  5
7C4
330
7C2
100
AcDbEntity
  8
EJES
  6
AI-Linetype-7
 62
     2
420
 16776960
370
    25
100
AcDbVertex
100
AcDb2dVertex
 10
60.97047884596648
 20
204.2076528385154
 30
0.0
  0
SEQEND
  5
7C5
330
7C2
100
AcDbEntity
  8
EJES
  6
AI-Linetype-7
370
    25
  0
ENDBLK
  5
7C1
330
7BE
100
AcDbEntity
  8
0
100
AcDbBlockEnd
  0
BLOCK
  5
7C9
330
7C7
100
AcDbEntity
  8
0
100
AcDbBlockBegin
  2
block 213
 70
     0
 71
     0
 10
0.0
 20
0.0
 30
0.0
  3
block 213
  1

  0
POLYLINE
  5
7CB
330
7C7
100
AcDbEntity
  8
EJES
  6
AI-Linetype-8
 62
     2
420
 16776960
370
    25
100
AcDb2dPolyline
 66
     1
 10
0.0
 20
0.0
 30
0.0
  0
VERTEX
  5
7CC
330
7CB
100
AcDbEntity
  8
EJES
  6
AI-Linetype-8
 62
     2
420
 16776960
370
    25
100
AcDbVertex
100
AcDb2dVertex
 10
63.39703345178679
 20
203.7363634652262
 30
0.0
  0
VERTEX
  5
7CD
330
7CB
100
AcDbEntity
  8
EJES
  6
AI-Linetype-8
 62
     2
420
 16776960
370
    25
100
AcDbVertex
100
AcDb2dVertex
 10
68.53556901267454
 20
203.7363634652262
 30
0.0
  0
SEQEND
  5
7CE
330
7CB
100
AcDbEntity
  8
EJES
  6
AI-Linetype-8
370
    25
  0
ENDBLK
  5
7CA
330
7C7
100
AcDbEntity
  8
0
100
AcDbBlockEnd
  0
BLOCK
  5
7D2
330
7D0
100
AcDbEntity
  8
0
100
AcDbBlockBegin
  2
block 214
 70
     0
 71
     0
 10
0.0
 20
0.0
 30
0.0
  3
block 214
  1

  0
POLYLINE
  5
7D4
330
7D0
100
AcDbEntity
  8
EJES
  6
AI-Linetype-9
 62
     2
420
 16776960
370
    25
100
AcDb2dPolyline
 66
     1
 10
0.0
 20
0.0
 30
0.0
  0
VERTEX
  5
7D5
330
7D4
100
AcDbEntity
  8
EJES
  6
AI-Linetype-9
 62
     2
420
 16776960
370
    25
100
AcDbVertex
100
AcDb2dVertex
 10
57.44511031024427
 20
207.7330213742376
 30
0.0
  0
VERTEX
  5
7D6
330
7D4
100
AcDbEntity
  8
EJES
  6
AI-Linetype-9
 62
     2
420
 16776960
370
    25
100
AcDbVertex
100
AcDb2dVertex
 10
64.49601963657656
 20
207.7330213742376
 30
0.0
  0
SEQEND
  5
7D7
330
7D4
100
AcDbEntity
  8
EJES
  6
AI-Linetype-9
370
    25
  0
ENDBLK
  5
7D3
330
7D0
100
AcDbEntity
  8
0
100
AcDbBlockEnd
  0
BLOCK
  5
7DB
330
7D9
100
AcDbEntity
  8
0
100
AcDbBlockBegin
  2
block 215
 70
     0
 71
     0
 10
0.0
 20
0.0
 30
0.0
  3
block 215
  1

  0
POLYLINE
  5
7DD
330
7D9
100
AcDbEntity
  8
EJES
  6
AI-Linetype-10
 62
     2
420
 16776960
370
    25
100
AcDb2dPolyline
 66
     1
 10
0.0
 20
0.0
 30
0.0
  0
VERTEX
  5
7DE
330
7DD
100
AcDbEntity
  8
EJES
  6
AI-Linetype-10
 62
     2
420
 16776960
370
    25
100
AcDbVertex
100
AcDb2dVertex
 10
55.97474258714623
 20
206.305717373114
 30
0.0
  0
VERTEX
  5
7DF
330
7DD
100
AcDbEntity
  8
EJES
  6
AI-Linetype-10
 62
     2
420
 16776960
370
    25
100
AcDbVertex
100
AcDb2dVertex
 10
55.97474258714623
 20
201.1671818122263
 30
0.0
  0
SEQEND
  5
7E0
330
7DD
100
AcDbEntity
  8
EJES
  6
AI-Linetype-10
370
    25
  0
ENDBLK
  5
7DC
330
7D9
100
AcDbEntity
  8
0
100
AcDbBlockEnd
  0
BLOCK
  5
7E4
330
7E2
100
AcDbEntity
  8
0
100
AcDbBlockBegin
  2
block 216
 70
     0
 71
     0
 10
0.0
 20
0.0
 30
0.0
  3
block 216
  1

  0
POLYLINE
  5
7E6
330
7E2
100
AcDbEntity
  8
EJES
  6
AI-Linetype-11
 62
     2
420
 16776960
370
    25
100
AcDb2dPolyline
 66
     1
 10
0.0
 20
0.0
 30
0.0
  0
VERTEX
  5
7E7
330
7E6
100
AcDbEntity
  8
EJES
  6
AI-Linetype-11
 62
     2
420
 16776960
370
    25
100
AcDbVertex
100
AcDb2dVertex
 10
65.96621510478671
 20
206.0490575901459
 30
0.0
  0
VERTEX
  5
7E8
330
7E6
100
AcDbEntity
  8
EJES
  6
AI-Linetype-11
 62
     2
420
 16776960
370
    25
100
AcDbVertex
100
AcDb2dVertex
 10
65.96621510478671
 20
201.4655272780658
 30
0.0
  0
SEQEND
  5
7E9
330
7E6
100
AcDbEntity
  8
EJES
  6
AI-Linetype-11
370
    25
  0
ENDBLK
  5
7E5
330
7E2
100
AcDbEntity
  8
0
100
AcDbBlockEnd
  0
BLOCK
  5
7ED
330
7EB
100
AcDbEntity
  8
0
100
AcDbBlockBegin
  2
block 217
 70
     0
 71
     0
 10
0.0
 20
0.0
 30
0.0
  3
block 217
  1

  0
POLYLINE
  5
7EF
330
7EB
100
AcDbEntity
  8
EJES
  6
AI-Linetype-12
 62
     2
420
 16776960
370
    25
100
AcDb2dPolyline
 66
     1
 10
0.0
 20
0.0
 30
0.0
  0
VERTEX
  5
7F0
330
7EF
100
AcDbEntity
  8
EJES
  6
AI-Linetype-12
 62
     2
420
 16776960
370
    25
100
AcDbVertex
100
AcDb2dVertex
 10
66.30865782192811
 20
146.2977988407221
 30
0.0
  0
VERTEX
  5
7F1
330
7EF
100
AcDbEntity
  8
EJES
  6
AI-Linetype-12
 62
     2
420
 16776960
370
    25
100
AcDbVertex
100
AcDb2dVertex
 10
55.63247212489274
 20
146.2977988407221
 30
0.0
  0
SEQEND
  5
7F2
330
7EF
100
AcDbEntity
  8
EJES
  6
AI-Linetype-12
370
    25
  0
ENDBLK
  5
7EE
330
7EB
100
AcDbEntity
  8
0
100
AcDbBlockEnd
  0
BLOCK
  5
7F6
330
7F4
100
AcDbEntity
  8
0
100
AcDbBlockBegin
  2
block 218
 70
     0
 71
     0
 10
0.0
 20
0.0
 30
0.0
  3
block 218
  1

  0
POLYLINE
  5
7F8
330
7F4
100
AcDbEntity
  8
EJES
  6
AI-Linetype-13
 62
     2
420
 16776960
370
    25
100
AcDb2dPolyline
 66
     1
 10
0.0
 20
0.0
 30
0.0
  0
VERTEX
  5
7F9
330
7F8
100
AcDbEntity
  8
EJES
  6
AI-Linetype-13
 62
     2
420
 16776960
370
    25
100
AcDbVertex
100
AcDb2dVertex
 10
60.97047884596648
 20
151.6359778166837
 30
0.0
  0
VERTEX
  5
7FA
330
7F8
100
AcDbEntity
  8
EJES
  6
AI-Linetype-13
 62
     2
420
 16776960
370
    25
100
AcDbVertex
100
AcDb2dVertex
 10
60.97047884596648
 20
140.9596198647604
 30
0.0
  0
SEQEND
  5
7FB
330
7F8
100
AcDbEntity
  8
EJES
  6
AI-Linetype-13
370
    25
  0
ENDBLK
  5
7F7
330
7F4
100
AcDbEntity
  8
0
100
AcDbBlockEnd
  0
BLOCK
  5
7FF
330
7FD
100
AcDbEntity
  8
0
100
AcDbBlockBegin
  2
block 219
 70
     0
 71
     0
 10
0.0
 20
0.0
 30
0.0
  3
block 219
  1

  0
POLYLINE
  5
801
330
7FD
100
AcDbEntity
  8
EJES
  6
AI-Linetype-14
 62
     2
420
 16776960
370
    25
100
AcDb2dPolyline
 66
     1
 10
0.0
 20
0.0
 30
0.0
  0
VERTEX
  5
802
330
801
100
AcDbEntity
  8
EJES
  6
AI-Linetype-14
 62
     2
420
 16776960
370
    25
100
AcDbVertex
100
AcDb2dVertex
 10
66.30865782192811
 20
160.5858250272045
 30
0.0
  0
VERTEX
  5
803
330
801
100
AcDbEntity
  8
EJES
  6
AI-Linetype-14
 62
     2
420
 16776960
370
    25
100
AcDbVertex
100
AcDb2dVertex
 10
55.63247212489274
 20
160.5858250272045
 30
0.0
  0
SEQEND
  5
804
330
801
100
AcDbEntity
  8
EJES
  6
AI-Linetype-14
370
    25
  0
ENDBLK
  5
800
330
7FD
100
AcDbEntity
  8
0
100
AcDbBlockEnd
  0
BLOCK
  5
808
330
806
100
AcDbEntity
  8
0
100
AcDbBlockBegin
  2
block 220
 70
     0
 71
     0
 10
0.0
 20
0.0
 30
0.0
  3
block 220
  1

  0
POLYLINE
  5
80A
330
806
100
AcDbEntity
  8
EJES
  6
AI-Linetype-15
 62
     2
420
 16776960
370
    25
100
AcDb2dPolyline
 66
     1
 10
0.0
 20
0.0
 30
0.0
  0
VERTEX
  5
80B
330
80A
100
AcDbEntity
  8
EJES
  6
AI-Linetype-15
 62
     2
420
 16776960
370
    25
100
AcDbVertex
100
AcDb2dVertex
 10
60.97047884596648
 20
165.9238317482782
 30
0.0
  0
VERTEX
  5
80C
330
80A
100
AcDbEntity
  8
EJES
  6
AI-Linetype-15
 62
     2
420
 16776960
370
    25
100
AcDbVertex
100
AcDb2dVertex
 10
60.97047884596648
 20
155.2476460512429
 30
0.0
  0
SEQEND
  5
80D
330
80A
100
AcDbEntity
  8
EJES
  6
AI-Linetype-15
370
    25
  0
ENDBLK
  5
809
330
806
100
AcDbEntity
  8
0
100
AcDbBlockEnd
  0
BLOCK
  5
811
330
80F
100
AcDbEntity
  8
0
100
AcDbBlockBegin
  2
block 221
 70
     0
 71
     0
 10
0.0
 20
0.0
 30
0.0
  3
block 221
  1

  0
POLYLINE
  5
813
330
80F
100
AcDbEntity
  8
EJES
  6
AI-Linetype-16
 62
     2
420
 16776960
370
    25
100
AcDb2dPolyline
 66
     1
 10
0.0
 20
0.0
 30
0.0
  0
VERTEX
  5
814
330
813
100
AcDbEntity
  8
EJES
  6
AI-Linetype-16
 62
     2
420
 16776960
370
    25
100
AcDbVertex
100
AcDb2dVertex
 10
53.4053886792584
 20
203.7363634652262
 30
0.0
  0
VERTEX
  5
815
330
813
100
AcDbEntity
  8
EJES
  6
AI-Linetype-16
 62
     2
420
 16776960
370
    25
100
AcDbVertex
100
AcDb2dVertex
 10
58.54409649503405
 20
203.7363634652262
 30
0.0
  0
SEQEND
  5
816
330
813
100
AcDbEntity
  8
EJES
  6
AI-Linetype-16
370
    25
  0
ENDBLK
  5
812
330
80F
100
AcDbEntity
  8
0
100
AcDbBlockEnd
  0
BLOCK
  5
81B
330
819
100
AcDbEntity
  8
0
100
AcDbBlockBegin
  2
block 222
 70
     0
 71
     0
 10
0.0
 20
0.0
 30
0.0
  3
block 222
  1

  0
SPLINE
  5
81D
330
819
100
AcDbEntity
  8
OCULTO
  6
AI-Linetype-17
 62
     1
420
 16711680
370
    25
100
AcDbSpline
210
0.0
220
0.0
230
1.0
 70
    11
 71
     3
 72
    23
 73
    19
 74
     0
 42
0.0000000001
 43
0.0000000001
 40
0.0
 40
0.0
 40
0.0
 40
0.0
 40
1.0
 40
1.0
 40
1.0
 40
2.0
 40
2.0
 40
2.0
 40
3.0
 40
3.0
 40
3.0
 40
4.0
 40
4.0
 40
4.0
 40
5.0
 40
5.0
 40
5.0
 40
6.0
 40
6.0
 40
6.0
 40
6.0
 10
71.21189320594708
 20
225.7178097099008
 30
0.0
 10
71.21189320594708
 20
226.4075182810447
 30
0.0
 10
70.6527538398299
 20
226.9668299020498
 30
0.0
 10
69.96287301379807
 20
226.9668299020498
 30
0.0
 10
69.27316444265414
 20
226.9668299020498
 30
0.0
 10
68.71402507653696
 20
226.4075182810447
 30
0.0
 10
68.71402507653696
 20
225.7178097099008
 30
0.0
 10
68.71402507653696
 20
225.027928883869
 30
0.0
 10
69.27316444265414
 20
224.4687895177518
 30
0.0
 10
69.96287301379807
 20
224.4687895177518
 30
0.0
 10
70.6527538398299
 20
224.4687895177518
 30
0.0
 10
71.21189320594708
 20
225.027928883869
 30
0.0
 10
71.21189320594708
 20
225.7178097099008
 30
0.0
 10
71.21189320594708
 20
225.7178097099008
 30
0.0
 10
71.21189320594708
 20
225.7178097099008
 30
0.0
 10
71.21189320594708
 20
225.7178097099008
 30
0.0
 10
71.21189320594708
 20
225.7178097099008
 30
0.0
 10
71.21189320594708
 20
225.7178097099008
 30
0.0
 10
71.21189320594708
 20
225.7178097099008
 30
0.0
  0
ENDBLK
  5
81C
330
819
100
AcDbEntity
  8
0
100
AcDbBlockEnd
  0
BLOCK
  5
821
330
81F
100
AcDbEntity
  8
0
100
AcDbBlockBegin
  2
block 223
 70
     0
 71
     0
 10
0.0
 20
0.0
 30
0.0
  3
block 223
  1

  0
SPLINE
  5
823
330
81F
100
AcDbEntity
  8
OCULTO
  6
AI-Linetype-18
 62
     1
420
 16711680
370
    25
100
AcDbSpline
210
0.0
220
0.0
230
1.0
 70
    11
 71
     3
 72
    23
 73
    19
 74
     0
 42
0.0000000001
 43
0.0000000001
 40
0.0
 40
0.0
 40
0.0
 40
0.0
 40
1.0
 40
1.0
 40
1.0
 40
2.0
 40
2.0
 40
2.0
 40
3.0
 40
3.0
 40
3.0
 40
4.0
 40
4.0
 40
4.0
 40
5.0
 40
5.0
 40
5.0
 40
6.0
 40
6.0
 40
6.0
 40
6.0
 10
53.22710487028388
 20
225.7178097099008
 30
0.0
 10
53.22710487028388
 20
226.4075182810447
 30
0.0
 10
52.6679655041667
 20
226.9668299020498
 30
0.0
 10
51.97808467813487
 20
226.9668299020498
 30
0.0
 10
51.28837610699095
 20
226.9668299020498
 30
0.0
 10
50.72923674087376
 20
226.4075182810447
 30
0.0
 10
50.72923674087376
 20
225.7178097099008
 30
0.0
 10
50.72923674087376
 20
225.027928883869
 30
0.0
 10
51.28837610699095
 20
224.4687895177518
 30
0.0
 10
51.97808467813487
 20
224.4687895177518
 30
0.0
 10
52.6679655041667
 20
224.4687895177518
 30
0.0
 10
53.22710487028388
 20
225.027928883869
 30
0.0
 10
53.22710487028388
 20
225.7178097099008
 30
0.0
 10
53.22710487028388
 20
225.7178097099008
 30
0.0
 10
53.22710487028388
 20
225.7178097099008
 30
0.0
 10
53.22710487028388
 20
225.7178097099008
 30
0.0
 10
53.22710487028388
 20
225.7178097099008
 30
0.0
 10
53.22710487028388
 20
225.7178097099008
 30
0.0
 10
53.22710487028388
 20
225.7178097099008
 30
0.0
  0
ENDBLK
  5
822
330
81F
100
AcDbEntity
  8
0
100
AcDbBlockEnd
  0
BLOCK
  5
827
330
825
100
AcDbEntity
  8
0
100
AcDbBlockBegin
  2
block 224
 70
     0
 71
     0
 10
0.0
 20
0.0
 30
0.0
  3
block 224
  1

  0
SPLINE
  5
829
330
825
100
AcDbEntity
  8
OCULTO
  6
AI-Linetype-19
 62
     1
420
 16711680
370
    25
100
AcDbSpline
210
0.0
220
0.0
230
1.0
 70
    11
 71
     3
 72
    23
 73
    19
 74
     0
 42
0.0000000001
 43
0.0000000001
 40
0.0
 40
0.0
 40
0.0
 40
0.0
 40
1.0
 40
1.0
 40
1.0
 40
2.0
 40
2.0
 40
2.0
 40
3.0
 40
3.0
 40
3.0
 40
4.0
 40
4.0
 40
4.0
 40
5.0
 40
5.0
 40
5.0
 40
6.0
 40
6.0
 40
6.0
 40
6.0
 10
66.96546570948351
 20
203.7363634652262
 30
0.0
 10
66.96546570948351
 20
204.2882681260517
 30
0.0
 10
66.51811976561218
 20
204.735614069923
 30
0.0
 10
65.96621510478671
 20
204.735614069923
 30
0.0
 10
65.41448269884916
 20
204.735614069923
 30
0.0
 10
64.96713675497783
 20
204.2882681260517
 30
0.0
 10
64.96713675497783
 20
203.7363634652262
 30
0.0
 10
64.96713675497783
 20
203.1846310592887
 30
0.0
 10
65.41448269884916
 20
202.7372851154173
 30
0.0
 10
65.96621510478671
 20
202.7372851154173
 30
0.0
 10
66.51811976561218
 20
202.7372851154173
 30
0.0
 10
66.96546570948351
 20
203.1846310592887
 30
0.0
 10
66.96546570948351
 20
203.7363634652262
 30
0.0
 10
66.96546570948351
 20
203.7363634652262
 30
0.0
 10
66.96546570948351
 20
203.7363634652262
 30
0.0
 10
66.96546570948351
 20
203.7363634652262
 30
0.0
 10
66.96546570948351
 20
203.7363634652262
 30
0.0
 10
66.96546570948351
 20
203.7363634652262
 30
0.0
 10
66.96546570948351
 20
203.7363634652262
 30
0.0
  0
ENDBLK
  5
828
330
825
100
AcDbEntity
  8
0
100
AcDbBlockEnd
  0
BLOCK
  5
82D
330
82B
100
AcDbEntity
  8
0
100
AcDbBlockBegin
  2
block 225
 70
     0
 71
     0
 10
0.0
 20
0.0
 30
0.0
  3
block 225
  1

  0
SPLINE
  5
82F
330
82B
100
AcDbEntity
  8
OCULTO
  6
AI-Linetype-20
 62
     1
420
 16711680
370
    25
100
AcDbSpline
210
0.0
220
0.0
230
1.0
 70
    11
 71
     3
 72
    23
 73
    19
 74
     0
 42
0.0000000001
 43
0.0000000001
 40
0.0
 40
0.0
 40
0.0
 40
0.0
 40
1.0
 40
1.0
 40
1.0
 40
2.0
 40
2.0
 40
2.0
 40
3.0
 40
3.0
 40
3.0
 40
4.0
 40
4.0
 40
4.0
 40
5.0
 40
5.0
 40
5.0
 40
6.0
 40
6.0
 40
6.0
 40
6.0
 10
62.96880780047215
 20
207.7330213742376
 30
0.0
 10
62.96880780047215
 20
208.8366584410006
 30
0.0
 10
62.0741159127295
 20
209.7313503287433
 30
0.0
 10
60.97047884596648
 20
209.7313503287433
 30
0.0
 10
59.86684177920345
 20
209.7313503287433
 30
0.0
 10
58.97214989146079
 20
208.8366584410006
 30
0.0
 10
58.97214989146079
 20
207.7330213742376
 30
0.0
 10
58.97214989146079
 20
206.6293843074746
 30
0.0
 10
59.86684177920345
 20
205.7346924197319
 30
0.0
 10
60.97047884596648
 20
205.7346924197319
 30
0.0
 10
62.0741159127295
 20
205.7346924197319
 30
0.0
 10
62.96880780047215
 20
206.6293843074746
 30
0.0
 10
62.96880780047215
 20
207.7330213742376
 30
0.0
 10
62.96880780047215
 20
207.7330213742376
 30
0.0
 10
62.96880780047215
 20
207.7330213742376
 30
0.0
 10
62.96880780047215
 20
207.7330213742376
 30
0.0
 10
62.96880780047215
 20
207.7330213742376
 30
0.0
 10
62.96880780047215
 20
207.7330213742376
 30
0.0
 10
62.96880780047215
 20
207.7330213742376
 30
0.0
  0
ENDBLK
  5
82E
330
82B
100
AcDbEntity
  8
0
100
AcDbBlockEnd
  0
BLOCK
  5
833
330
831
100
AcDbEntity
  8
0
100
AcDbBlockBegin
  2
block 226
 70
     0
 71
     0
 10
0.0
 20
0.0
 30
0.0
  3
block 226
  1

  0
SPLINE
  5
835
330
831
100
AcDbEntity
  8
OCULTO
  6
AI-Linetype-21
 62
     1
420
 16711680
370
    25
100
AcDbSpline
210
0.0
220
0.0
230
1.0
 70
    11
 71
     3
 72
    23
 73
    19
 74
     0
 42
0.0000000001
 43
0.0000000001
 40
0.0
 40
0.0
 40
0.0
 40
0.0
 40
1.0
 40
1.0
 40
1.0
 40
2.0
 40
2.0
 40
2.0
 40
3.0
 40
3.0
 40
3.0
 40
4.0
 40
4.0
 40
4.0
 40
5.0
 40
5.0
 40
5.0
 40
6.0
 40
6.0
 40
6.0
 40
6.0
 10
56.97399319184301
 20
203.7363634652262
 30
0.0
 10
56.97399319184301
 20
204.2882681260517
 30
0.0
 10
56.52664724797169
 20
204.735614069923
 30
0.0
 10
55.97474258714623
 20
204.735614069923
 30
0.0
 10
55.42301018120866
 20
204.735614069923
 30
0.0
 10
54.97566423733734
 20
204.2882681260517
 30
0.0
 10
54.97566423733734
 20
203.7363634652262
 30
0.0
 10
54.97566423733734
 20
203.1846310592887
 30
0.0
 10
55.42301018120866
 20
202.7372851154173
 30
0.0
 10
55.97474258714623
 20
202.7372851154173
 30
0.0
 10
56.52664724797169
 20
202.7372851154173
 30
0.0
 10
56.97399319184301
 20
203.1846310592887
 30
0.0
 10
56.97399319184301
 20
203.7363634652262
 30
0.0
 10
56.97399319184301
 20
203.7363634652262
 30
0.0
 10
56.97399319184301
 20
203.7363634652262
 30
0.0
 10
56.97399319184301
 20
203.7363634652262
 30
0.0
 10
56.97399319184301
 20
203.7363634652262
 30
0.0
 10
56.97399319184301
 20
203.7363634652262
 30
0.0
 10
56.97399319184301
 20
203.7363634652262
 30
0.0
  0
ENDBLK
  5
834
330
831
100
AcDbEntity
  8
0
100
AcDbBlockEnd
  0
BLOCK
  5
83B
330
839
100
AcDbEntity
  8
0
100
AcDbBlockBegin
  2
block 227
 70
     0
 71
     0
 10
0.0
 20
0.0
 30
0.0
  3
block 227
  1

  0
POLYLINE
  5
83D
330
839
100
AcDbEntity
  8
SOMBREA
 62
     7
420
 16777215
370
    25
100
AcDb2dPolyline
 66
     1
 10
0.0
 20
0.0
 30
0.0
  0
VERTEX
  5
83E
330
83D
100
AcDbEntity
  8
SOMBREA
 62
     7
420
 16777215
370
    25
100
AcDbVertex
100
AcDb2dVertex
 10
157.8676428961727
 20
214.1164430099648
 30
0.0
  0
VERTEX
  5
83F
330
83D
100
AcDbEntity
  8
SOMBREA
 62
     7
420
 16777215
370
    25
100
AcDbVertex
100
AcDb2dVertex
 10
146.3816869711285
 20
214.5215865063011
 30
0.0
  0
SEQEND
  5
840
330
83D
100
AcDbEntity
  8
SOMBREA
370
    25
  0
ENDBLK
  5
83C
330
839
100
AcDbEntity
  8
0
100
AcDbBlockEnd
  0
BLOCK
  5
843
330
841
100
AcDbEntity
  8
0
100
AcDbBlockBegin
  2
block 228
 70
     0
 71
     0
 10
0.0
 20
0.0
 30
0.0
  3
block 228
  1

  0
POLYLINE
  5
845
330
841
100
AcDbEntity
  8
SOMBREA
 62
     7
420
 16777215
370
    25
100
AcDb2dPolyline
 66
     1
 10
0.0
 20
0.0
 30
0.0
  0
VERTEX
  5
846
330
845
100
AcDbEntity
  8
SOMBREA
 62
     7
420
 16777215
370
    25
100
AcDbVertex
100
AcDb2dVertex
 10
133.7140625151033
 20
214.9682434306208
 30
0.0
  0
VERTEX
  5
847
330
845
100
AcDbEntity
  8
SOMBREA
 62
     7
420
 16777215
370
    25
100
AcDbVertex
100
AcDb2dVertex
 10
121.3802680318247
 20
215.4031870225635
 30
0.0
  0
SEQEND
  5
848
330
845
100
AcDbEntity
  8
SOMBREA
370
    25
  0
ENDBLK
  5
844
330
841
100
AcDbEntity
  8
0
100
AcDbBlockEnd
  0
BLOCK
  5
84B
330
849
100
AcDbEntity
  8
0
100
AcDbBlockBegin
  2
block 229
 70
     0
 71
     0
 10
0.0
 20
0.0
 30
0.0
  3
block 229
  1

  0
SPLINE
  5
84D
330
849
100
AcDbEntity
  8
SOMBREA
 62
     8
420
  8421504
370
    25
100
AcDbSpline
210
0.0
220
0.0
230
1.0
 70
     8
 71
     3
 72
     8
 73
     4
 74
     0
 42
0.0000000001
 43
0.0000000001
 40
0.0
 40
0.0
 40
0.0
 40
0.0
 40
1.0
 40
1.0
 40
1.0
 40
1.0
 10
51.46476511219858
 20
215.147044004259
 30
0.0
 10
56.51303911182774
 20
213.727319218203
 30
0.0
 10
65.4280908349931
 20
213.727319218203
 30
0.0
 10
70.47619257973436
 20
215.147044004259
 30
0.0
  0
ENDBLK
  5
84C
330
849
100
AcDbEntity
  8
0
100
AcDbBlockEnd
  0
ENDSEC
  0
SECTION
  2
ENTITIES
  0
INSERT
  5
3E
330
1F
100
AcDbEntity
  8
COTAS
100
AcDbBlockReference
  2
block 2
 10
0.0
 20
0.0
 30
0.0
  0
INSERT
  5
46
330
1F
100
AcDbEntity
  8
COTAS
100
AcDbBlockReference
  2
block 3
 10
0.0
 20
0.0
 30
0.0
  0
INSERT
  5
DB
330
1F
100
AcDbEntity
  8
COTAS
100
AcDbBlockReference
  2
block 4
 10
0.0
 20
0.0
 30
0.0
  0
INSERT
  5
132
330
1F
100
AcDbEntity
  8
COTAS
100
AcDbBlockReference
  2
block 15
 10
0.0
 20
0.0
 30
0.0
  0
INSERT
  5
189
330
1F
100
AcDbEntity
  8
COTAS
100
AcDbBlockReference
  2
block 26
 10
0.0
 20
0.0
 30
0.0
  0
INSERT
  5
1E0
330
1F
100
AcDbEntity
  8
COTAS
100
AcDbBlockReference
  2
block 37
 10
0.0
 20
0.0
 30
0.0
  0
INSERT
  5
1E6
330
1F
100
AcDbEntity
  8
COTAS
100
AcDbBlockReference
  2
block 38
 10
0.0
 20
0.0
 30
0.0
  0
INSERT
  5
1EC
330
1F
100
AcDbEntity
  8
COTAS
100
AcDbBlockReference
  2
block 39
 10
0.0
 20
0.0
 30
0.0
  0
INSERT
  5
200
330
1F
100
AcDbEntity
  8
COTAS
100
AcDbBlockReference
  2
block 40
 10
0.0
 20
0.0
 30
0.0
  0
INSERT
  5
257
330
1F
100
AcDbEntity
  8
COTAS
100
AcDbBlockReference
  2
block 51
 10
0.0
 20
0.0
 30
0.0
  0
INSERT
  5
2AE
330
1F
100
AcDbEntity
  8
COTAS
100
AcDbBlockReference
  2
block 62
 10
0.0
 20
0.0
 30
0.0
  0
INSERT
  5
305
330
1F
100
AcDbEntity
  8
COTAS
100
AcDbBlockReference
  2
block 73
 10
0.0
 20
0.0
 30
0.0
  0
INSERT
  5
35C
330
1F
100
AcDbEntity
  8
COTAS
100
AcDbBlockReference
  2
block 84
 10
0.0
 20
0.0
 30
0.0
  0
INSERT
  5
3B3
330
1F
100
AcDbEntity
  8
COTAS
100
AcDbBlockReference
  2
block 95
 10
0.0
 20
0.0
 30
0.0
  0
INSERT
  5
40A
330
1F
100
AcDbEntity
  8
COTAS
100
AcDbBlockReference
  2
block 106
 10
0.0
 20
0.0
 30
0.0
  0
INSERT
  5
449
330
1F
100
AcDbEntity
  8
COTAS
100
AcDbBlockReference
  2
block 107
 10
0.0
 20
0.0
 30
0.0
  0
INSERT
  5
451
330
1F
100
AcDbEntity
  8
COTAS
100
AcDbBlockReference
  2
block 108
 10
0.0
 20
0.0
 30
0.0
  0
INSERT
  5
459
330
1F
100
AcDbEntity
  8
COTAS
100
AcDbBlockReference
  2
block 109
 10
0.0
 20
0.0
 30
0.0
  0
INSERT
  5
4B0
330
1F
100
AcDbEntity
  8
COTAS
100
AcDbBlockReference
  2
block 120
 10
0.0
 20
0.0
 30
0.0
  0
INSERT
  5
507
330
1F
100
AcDbEntity
  8
COTAS
100
AcDbBlockReference
  2
block 131
 10
0.0
 20
0.0
 30
0.0
  0
INSERT
  5
55F
330
1F
100
AcDbEntity
  8
1
100
AcDbBlockReference
  2
block 142
 10
0.0
 20
0.0
 30
0.0
  0
INSERT
  5
567
330
1F
100
AcDbEntity
  8
1
100
AcDbBlockReference
  2
block 143
 10
0.0
 20
0.0
 30
0.0
  0
INSERT
  5
56C
330
1F
100
AcDbEntity
  8
1
100
AcDbBlockReference
  2
block 144
 10
0.0
 20
0.0
 30
0.0
  0
INSERT
  5
571
330
1F
100
AcDbEntity
  8
1
100
AcDbBlockReference
  2
block 145
 10
0.0
 20
0.0
 30
0.0
  0
INSERT
  5
579
330
1F
100
AcDbEntity
  8
1
100
AcDbBlockReference
  2
block 146
 10
0.0
 20
0.0
 30
0.0
  0
INSERT
  5
581
330
1F
100
AcDbEntity
  8
1
100
AcDbBlockReference
  2
block 147
 10
0.0
 20
0.0
 30
0.0
  0
INSERT
  5
586
330
1F
100
AcDbEntity
  8
1
100
AcDbBlockReference
  2
block 148
 10
0.0
 20
0.0
 30
0.0
  0
INSERT
  5
58E
330
1F
100
AcDbEntity
  8
1
100
AcDbBlockReference
  2
block 149
 10
0.0
 20
0.0
 30
0.0
  0
INSERT
  5
593
330
1F
100
AcDbEntity
  8
1
100
AcDbBlockReference
  2
block 150
 10
0.0
 20
0.0
 30
0.0
  0
INSERT
  5
598
330
1F
100
AcDbEntity
  8
1
100
AcDbBlockReference
  2
block 151
 10
0.0
 20
0.0
 30
0.0
  0
INSERT
  5
59D
330
1F
100
AcDbEntity
  8
1
100
AcDbBlockReference
  2
block 152
 10
0.0
 20
0.0
 30
0.0
  0
INSERT
  5
5A5
330
1F
100
AcDbEntity
  8
1
100
AcDbBlockReference
  2
block 153
 10
0.0
 20
0.0
 30
0.0
  0
INSERT
  5
5AD
330
1F
100
AcDbEntity
  8
1
100
AcDbBlockReference
  2
block 154
 10
0.0
 20
0.0
 30
0.0
  0
INSERT
  5
5B2
330
1F
100
AcDbEntity
  8
1
100
AcDbBlockReference
  2
block 155
 10
0.0
 20
0.0
 30
0.0
  0
INSERT
  5
5BA
330
1F
100
AcDbEntity
  8
1
100
AcDbBlockReference
  2
block 156
 10
0.0
 20
0.0
 30
0.0
  0
INSERT
  5
5BF
330
1F
100
AcDbEntity
  8
1
100
AcDbBlockReference
  2
block 157
 10
0.0
 20
0.0
 30
0.0
  0
INSERT
  5
5C4
330
1F
100
AcDbEntity
  8
1
100
AcDbBlockReference
  2
block 158
 10
0.0
 20
0.0
 30
0.0
  0
INSERT
  5
5C9
330
1F
100
AcDbEntity
  8
1
100
AcDbBlockReference
  2
block 159
 10
0.0
 20
0.0
 30
0.0
  0
INSERT
  5
5CE
330
1F
100
AcDbEntity
  8
1
100
AcDbBlockReference
  2
block 160
 10
0.0
 20
0.0
 30
0.0
  0
INSERT
  5
5D6
330
1F
100
AcDbEntity
  8
1
100
AcDbBlockReference
  2
block 161
 10
0.0
 20
0.0
 30
0.0
  0
INSERT
  5
5DE
330
1F
100
AcDbEntity
  8
1
100
AcDbBlockReference
  2
block 162
 10
0.0
 20
0.0
 30
0.0
  0
INSERT
  5
5E6
330
1F
100
AcDbEntity
  8
1
100
AcDbBlockReference
  2
block 163
 10
0.0
 20
0.0
 30
0.0
  0
INSERT
  5
5EE
330
1F
100
AcDbEntity
  8
1
100
AcDbBlockReference
  2
block 164
 10
0.0
 20
0.0
 30
0.0
  0
INSERT
  5
5F6
330
1F
100
AcDbEntity
  8
1
100
AcDbBlockReference
  2
block 165
 10
0.0
 20
0.0
 30
0.0
  0
INSERT
  5
649
330
1F
100
AcDbEntity
  8
1
100
AcDbBlockReference
  2
block 166
 10
0.0
 20
0.0
 30
0.0
  0
INSERT
  5
676
330
1F
100
AcDbEntity
  8
1
100
AcDbBlockReference
  2
block 167
 10
0.0
 20
0.0
 30
0.0
  0
INSERT
  5
6BE
330
1F
100
AcDbEntity
  8
1
100
AcDbBlockReference
  2
block 168
 10
0.0
 20
0.0
 30
0.0
  0
INSERT
  5
6C6
330
1F
100
AcDbEntity
  8
1
100
AcDbBlockReference
  2
block 169
 10
0.0
 20
0.0
 30
0.0
  0
INSERT
  5
6CB
330
1F
100
AcDbEntity
  8
1
100
AcDbBlockReference
  2
block 170
 10
0.0
 20
0.0
 30
0.0
  0
INSERT
  5
6D0
330
1F
100
AcDbEntity
  8
1
100
AcDbBlockReference
  2
block 171
 10
0.0
 20
0.0
 30
0.0
  0
INSERT
  5
6D5
330
1F
100
AcDbEntity
  8
1
100
AcDbBlockReference
  2
block 172
 10
0.0
 20
0.0
 30
0.0
  0
INSERT
  5
6DD
330
1F
100
AcDbEntity
  8
1
100
AcDbBlockReference
  2
block 173
 10
0.0
 20
0.0
 30
0.0
  0
INSERT
  5
6E5
330
1F
100
AcDbEntity
  8
1
100
AcDbBlockReference
  2
block 174
 10
0.0
 20
0.0
 30
0.0
  0
INSERT
  5
6EA
330
1F
100
AcDbEntity
  8
1
100
AcDbBlockReference
  2
block 175
 10
0.0
 20
0.0
 30
0.0
  0
INSERT
  5
6EF
330
1F
100
AcDbEntity
  8
1
100
AcDbBlockReference
  2
block 176
 10
0.0
 20
0.0
 30
0.0
  0
INSERT
  5
6F4
330
1F
100
AcDbEntity
  8
1
100
AcDbBlockReference
  2
block 177
 10
0.0
 20
0.0
 30
0.0
  0
INSERT
  5
6F9
330
1F
100
AcDbEntity
  8
1
100
AcDbBlockReference
  2
block 178
 10
0.0
 20
0.0
 30
0.0
  0
INSERT
  5
701
330
1F
100
AcDbEntity
  8
1
100
AcDbBlockReference
  2
block 179
 10
0.0
 20
0.0
 30
0.0
  0
INSERT
  5
706
330
1F
100
AcDbEntity
  8
1
100
AcDbBlockReference
  2
block 180
 10
0.0
 20
0.0
 30
0.0
  0
INSERT
  5
70B
330
1F
100
AcDbEntity
  8
1
100
AcDbBlockReference
  2
block 181
 10
0.0
 20
0.0
 30
0.0
  0
INSERT
  5
710
330
1F
100
AcDbEntity
  8
1
100
AcDbBlockReference
  2
block 182
 10
0.0
 20
0.0
 30
0.0
  0
INSERT
  5
715
330
1F
100
AcDbEntity
  8
1
100
AcDbBlockReference
  2
block 183
 10
0.0
 20
0.0
 30
0.0
  0
INSERT
  5
71A
330
1F
100
AcDbEntity
  8
1
100
AcDbBlockReference
  2
block 184
 10
0.0
 20
0.0
 30
0.0
  0
INSERT
  5
71F
330
1F
100
AcDbEntity
  8
1
100
AcDbBlockReference
  2
block 185
 10
0.0
 20
0.0
 30
0.0
  0
INSERT
  5
724
330
1F
100
AcDbEntity
  8
1
100
AcDbBlockReference
  2
block 186
 10
0.0
 20
0.0
 30
0.0
  0
INSERT
  5
729
330
1F
100
AcDbEntity
  8
1
100
AcDbBlockReference
  2
block 187
 10
0.0
 20
0.0
 30
0.0
  0
INSERT
  5
72E
330
1F
100
AcDbEntity
  8
1
100
AcDbBlockReference
  2
block 188
 10
0.0
 20
0.0
 30
0.0
  0
INSERT
  5
733
330
1F
100
AcDbEntity
  8
1
100
AcDbBlockReference
  2
block 189
 10
0.0
 20
0.0
 30
0.0
  0
INSERT
  5
738
330
1F
100
AcDbEntity
  8
1
100
AcDbBlockReference
  2
block 190
 10
0.0
 20
0.0
 30
0.0
  0
INSERT
  5
73D
330
1F
100
AcDbEntity
  8
1
100
AcDbBlockReference
  2
block 191
 10
0.0
 20
0.0
 30
0.0
  0
INSERT
  5
742
330
1F
100
AcDbEntity
  8
1
100
AcDbBlockReference
  2
block 192
 10
0.0
 20
0.0
 30
0.0
  0
INSERT
  5
747
330
1F
100
AcDbEntity
  8
1
100
AcDbBlockReference
  2
block 193
 10
0.0
 20
0.0
 30
0.0
  0
INSERT
  5
74C
330
1F
100
AcDbEntity
  8
1
100
AcDbBlockReference
  2
block 194
 10
0.0
 20
0.0
 30
0.0
  0
INSERT
  5
751
330
1F
100
AcDbEntity
  8
1
100
AcDbBlockReference
  2
block 195
 10
0.0
 20
0.0
 30
0.0
  0
INSERT
  5
756
330
1F
100
AcDbEntity
  8
1
100
AcDbBlockReference
  2
block 196
 10
0.0
 20
0.0
 30
0.0
  0
INSERT
  5
75E
330
1F
100
AcDbEntity
  8
1
100
AcDbBlockReference
  2
block 197
 10
0.0
 20
0.0
 30
0.0
  0
INSERT
  5
763
330
1F
100
AcDbEntity
  8
1
100
AcDbBlockReference
  2
block 198
 10
0.0
 20
0.0
 30
0.0
  0
INSERT
  5
768
330
1F
100
AcDbEntity
  8
1
100
AcDbBlockReference
  2
block 199
 10
0.0
 20
0.0
 30
0.0
  0
INSERT
  5
76D
330
1F
100
AcDbEntity
  8
1
100
AcDbBlockReference
  2
block 200
 10
0.0
 20
0.0
 30
0.0
  0
INSERT
  5
772
330
1F
100
AcDbEntity
  8
1
100
AcDbBlockReference
  2
block 201
 10
0.0
 20
0.0
 30
0.0
  0
INSERT
  5
777
330
1F
100
AcDbEntity
  8
1
100
AcDbBlockReference
  2
block 202
 10
0.0
 20
0.0
 30
0.0
  0
INSERT
  5
77C
330
1F
100
AcDbEntity
  8
1
100
AcDbBlockReference
  2
block 203
 10
0.0
 20
0.0
 30
0.0
  0
INSERT
  5
781
330
1F
100
AcDbEntity
  8
1
100
AcDbBlockReference
  2
block 204
 10
0.0
 20
0.0
 30
0.0
  0
INSERT
  5
786
330
1F
100
AcDbEntity
  8
1
100
AcDbBlockReference
  2
block 205
 10
0.0
 20
0.0
 30
0.0
  0
INSERT
  5
78C
330
1F
100
AcDbEntity
  8
EJES
100
AcDbBlockReference
  2
block 206
 10
0.0
 20
0.0
 30
0.0
  0
INSERT
  5
795
330
1F
100
AcDbEntity
  8
EJES
100
AcDbBlockReference
  2
block 207
 10
0.0
 20
0.0
 30
0.0
  0
INSERT
  5
79B
330
1F
100
AcDbEntity
  8
EJES
100
AcDbBlockReference
  2
block 208
 10
0.0
 20
0.0
 30
0.0
  0
INSERT
  5
7A4
330
1F
100
AcDbEntity
  8
EJES
100
AcDbBlockReference
  2
block 209
 10
0.0
 20
0.0
 30
0.0
  0
INSERT
  5
7AD
330
1F
100
AcDbEntity
  8
EJES
100
AcDbBlockReference
  2
block 210
 10
0.0
 20
0.0
 30
0.0
  0
INSERT
  5
7B6
330
1F
100
AcDbEntity
  8
EJES
100
AcDbBlockReference
  2
block 211
 10
0.0
 20
0.0
 30
0.0
  0
INSERT
  5
7BF
330
1F
100
AcDbEntity
  8
EJES
100
AcDbBlockReference
  2
block 212
 10
0.0
 20
0.0
 30
0.0
  0
INSERT
  5
7C8
330
1F
100
AcDbEntity
  8
EJES
100
AcDbBlockReference
  2
block 213
 10
0.0
 20
0.0
 30
0.0
  0
INSERT
  5
7D1
330
1F
100
AcDbEntity
  8
EJES
100
AcDbBlockReference
  2
block 214
 10
0.0
 20
0.0
 30
0.0
  0
INSERT
  5
7DA
330
1F
100
AcDbEntity
  8
EJES
100
AcDbBlockReference
  2
block 215
 10
0.0
 20
0.0
 30
0.0
  0
INSERT
  5
7E3
330
1F
100
AcDbEntity
  8
EJES
100
AcDbBlockReference
  2
block 216
 10
0.0
 20
0.0
 30
0.0
  0
INSERT
  5
7EC
330
1F
100
AcDbEntity
  8
EJES
100
AcDbBlockReference
  2
block 217
 10
0.0
 20
0.0
 30
0.0
  0
INSERT
  5
7F5
330
1F
100
AcDbEntity
  8
EJES
100
AcDbBlockReference
  2
block 218
 10
0.0
 20
0.0
 30
0.0
  0
INSERT
  5
7FE
330
1F
100
AcDbEntity
  8
EJES
100
AcDbBlockReference
  2
block 219
 10
0.0
 20
0.0
 30
0.0
  0
INSERT
  5
807
330
1F
100
AcDbEntity
  8
EJES
100
AcDbBlockReference
  2
block 220
 10
0.0
 20
0.0
 30
0.0
  0
INSERT
  5
810
330
1F
100
AcDbEntity
  8
EJES
100
AcDbBlockReference
  2
block 221
 10
0.0
 20
0.0
 30
0.0
  0
INSERT
  5
81A
330
1F
100
AcDbEntity
  8
OCULTO
100
AcDbBlockReference
  2
block 222
 10
0.0
 20
0.0
 30
0.0
  0
INSERT
  5
820
330
1F
100
AcDbEntity
  8
OCULTO
100
AcDbBlockReference
  2
block 223
 10
0.0
 20
0.0
 30
0.0
  0
INSERT
  5
826
330
1F
100
AcDbEntity
  8
OCULTO
100
AcDbBlockReference
  2
block 224
 10
0.0
 20
0.0
 30
0.0
  0
INSERT
  5
82C
330
1F
100
AcDbEntity
  8
OCULTO
100
AcDbBlockReference
  2
block 225
 10
0.0
 20
0.0
 30
0.0
  0
INSERT
  5
832
330
1F
100
AcDbEntity
  8
OCULTO
100
AcDbBlockReference
  2
block 226
 10
0.0
 20
0.0
 30
0.0
  0
INSERT
  5
83A
330
1F
100
AcDbEntity
  8
SOMBREA
100
AcDbBlockReference
  2
block 227
 10
0.0
 20
0.0
 30
0.0
  0
INSERT
  5
842
330
1F
100
AcDbEntity
  8
SOMBREA
100
AcDbBlockReference
  2
block 228
 10
0.0
 20
0.0
 30
0.0
  0
INSERT
  5
84A
330
1F
100
AcDbEntity
  8
SOMBREA
100
AcDbBlockReference
  2
block 229
 10
0.0
 20
0.0
 30
0.0
  0
ENDSEC
  0
SECTION
  2
OBJECTS
  0
DICTIONARY
  5
C
330
0
100
AcDbDictionary
281
     1
  3
ACAD_GROUP
350
D
  3
ACAD_LAYOUT
350
1A
  3
ACAD_MLINESTYLE
350
17
  3
ACAD_PLOTSETTINGS
350
19
  3
ACAD_PLOTSTYLENAME
350
E
  3
ACAD_TABLESTYLE
350
84E
  3
ACAD_VISUALSTYLE
350
2A
  0
DICTIONARY
  5
D
102
{ACAD_REACTORS
330
C
102
}
330
C
100
AcDbDictionary
281
     1
  0
DICTIONARY
  5
1A
102
{ACAD_REACTORS
330
C
102
}
330
C
100
AcDbDictionary
281
     1
  3
Layout1
350
1E
  3
Layout2
350
26
  3
Model
350
22
  0
DICTIONARY
  5
17
102
{ACAD_REACTORS
330
C
102
}
330
C
100
AcDbDictionary
281
     1
  3
Standard
350
18
  0
DICTIONARY
  5
19
102
{ACAD_REACTORS
330
C
102
}
330
C
100
AcDbDictionary
281
     1
  0
ACDBDICTIONARYWDFLT
  5
E
102
{ACAD_REACTORS
330
C
102
}
330
C
100
AcDbDictionary
281
     1
  3
Normal
350
F
100
AcDbDictionaryWithDefault
340
F
  0
DICTIONARY
  5
84E
102
{ACAD_REACTORS
330
C
102
}
330
C
100
AcDbDictionary
281
     1
  0
DICTIONARY
  5
2A
102
{ACAD_REACTORS
330
C
102
}
330
C
100
AcDbDictionary
281
     1
  3
2dWireframe
350
2F
  3
3D Hidden
350
31
  3
3dWireframe
350
30
  3
Basic
350
32
  3
Brighten
350
36
  3
ColorChange
350
3A
  3
Conceptual
350
34
  3
Dim
350
35
  3
Facepattern
350
39
  3
Flat
350
2B
  3
FlatWithEdges
350
2C
  3
Gouraud
350
2D
  3
GouraudWithEdges
350
2E
  3
Linepattern
350
38
  3
Realistic
350
33
  3
Thicken
350
37
  0
LAYOUT
  5
1E
102
{ACAD_REACTORS
330
1A
102
}
330
1A
100
AcDbPlotSettings
  1

  2
none_device
  4

  6

 40
0.0
 41
0.0
 42
0.0
 43
0.0
 44
0.0
 45
0.0
 46
0.0
 47
0.0
 48
0.0
 49
0.0
140
0.0
141
0.0
142
1.0
143
1.0
 70
   688
 72
     0
 73
     0
 74
     5
  7

 75
    16
 76
     0
 77
     2
 78
   300
147
1.0
148
0.0
149
0.0
100
AcDbLayout
  1
Layout1
 70
     1
 71
     1
 10
0.0
 20
0.0
 11
12.0
 21
9.0
 12
0.0
 22
0.0
 32
0.0
 14
1.000000000000000E+20
 24
1.000000000000000E+20
 34
1.000000000000000E+20
 15
-1.000000000000000E+20
 25
-1.000000000000000E+20
 35
-1.000000000000000E+20
146
0.0
 13
0.0
 23
0.0
 33
0.0
 16
1.0
 26
0.0
 36
0.0
 17
0.0
 27
1.0
 37
0.0
 76
     0
330
1B
  0
LAYOUT
  5
26
102
{ACAD_REACTORS
330
1A
102
}
330
1A
100
AcDbPlotSettings
  1

  2
none_device
  4

  6

 40
0.0
 41
0.0
 42
0.0
 43
0.0
 44
0.0
 45
0.0
 46
0.0
 47
0.0
 48
0.0
 49
0.0
140
0.0
141
0.0
142
1.0
143
1.0
 70
   688
 72
     0
 73
     0
 74
     5
  7

 75
    16
 76
     0
 77
     2
 78
   300
147
1.0
148
0.0
149
0.0
100
AcDbLayout
  1
Layout2
 70
     1
 71
     2
 10
0.0
 20
0.0
 11
0.0
 21
0.0
 12
0.0
 22
0.0
 32
0.0
 14
0.0
 24
0.0
 34
0.0
 15
0.0
 25
0.0
 35
0.0
146
0.0
 13
0.0
 23
0.0
 33
0.0
 16
1.0
 26
0.0
 36
0.0
 17
0.0
 27
1.0
 37
0.0
 76
     0
330
23
  0
LAYOUT
  5
22
102
{ACAD_REACTORS
330
1A
102
}
330
1A
100
AcDbPlotSettings
  1

  2
none_device
  4

  6

 40
0.0
 41
0.0
 42
0.0
 43
0.0
 44
0.0
 45
0.0
 46
0.0
 47
0.0
 48
0.0
 49
0.0
140
0.0
141
0.0
142
1.0
143
1.0
 70
  1712
 72
     0
 73
     0
 74
     0
  7

 75
     0
 76
     0
 77
     2
 78
   300
147
1.0
148
0.0
149
0.0
100
AcDbLayout
  1
Model
 70
     1
 71
     0
 10
0.0
 20
0.0
 11
12.0
 21
9.0
 12
0.0
 22
0.0
 32
0.0
 14
1.000000000000000E+20
 24
1.000000000000000E+20
 34
1.000000000000000E+20
 15
-1.000000000000000E+20
 25
-1.000000000000000E+20
 35
-1.000000000000000E+20
146
0.0
 13
0.0
 23
0.0
 33
0.0
 16
1.0
 26
0.0
 36
0.0
 17
0.0
 27
1.0
 37
0.0
 76
     0
330
1F
331
29
  0
MLINESTYLE
  5
18
102
{ACAD_REACTORS
330
17
102
}
330
17
100
AcDbMlineStyle
  2
Standard
 70
     0
  3

 62
   256
 51
90.0
 52
90.0
 71
     2
 49
0.5
 62
   256
  6
BYLAYER
 49
-0.5
 62
   256
  6
BYLAYER
  0
ACDBPLACEHOLDER
  5
F
102
{ACAD_REACTORS
330
E
102
}
330
E
  0
VISUALSTYLE
  5
2F
102
{ACAD_REACTORS
330
2A
102
}
330
2A
100
AcDbVisualStyle
  2
2dWireframe
 70
     4
 71
     0
 72
     2
 73
     0
 90
        0
 40
-0.6
 41
-30.0
 62
     5
 63
     7
421
 16777215
 74
     1
 91
        4
 64
     7
 65
   257
 75
     1
175
     1
 42
1.0
 92
        0
 66
   257
 43
1.0
 76
     1
 77
     6
 78
     2
 67
     7
 79
     5
170
     0
171
     0
290
     0
174
     0
 93
        1
 44
0.0
173
     0
291
     0
 45
0.0
1001
ACAD
1000
AcDbSavedByObjectVersion
1070
     0
  0
VISUALSTYLE
  5
31
102
{ACAD_REACTORS
330
2A
102
}
330
2A
100
AcDbVisualStyle
  2
3D Hidden
 70
     6
 71
     1
 72
     2
 73
     2
 90
        0
 40
-0.6
 41
-30.0
 62
     5
 63
     7
421
 16777215
 74
     2
 91
        2
 64
     7
 65
   257
 75
     2
175
     1
 42
40.0
 92
        0
 66
   257
 43
1.0
 76
     1
 77
     6
 78
     2
 67
     7
 79
     3
170
     0
171
     0
290
     0
174
     0
 93
        1
 44
0.0
173
     0
291
     0
 45
0.0
1001
ACAD
1000
AcDbSavedByObjectVersion
1070
     0
  0
VISUALSTYLE
  5
30
102
{ACAD_REACTORS
330
2A
102
}
330
2A
100
AcDbVisualStyle
  2
3dWireframe
 70
     5
 71
     0
 72
     2
 73
     0
 90
        0
 40
-0.6
 41
-30.0
 62
     5
 63
     7
421
 16777215
 74
     1
 91
        4
 64
     7
 65
   257
 75
     1
175
     1
 42
1.0
 92
        0
 66
   257
 43
1.0
 76
     1
 77
     6
 78
     2
 67
     7
 79
     5
170
     0
171
     0
290
     0
174
     0
 93
        1
 44
0.0
173
     0
291
     0
 45
0.0
1001
ACAD
1000
AcDbSavedByObjectVersion
1070
     0
  0
VISUALSTYLE
  5
32
102
{ACAD_REACTORS
330
2A
102
}
330
2A
100
AcDbVisualStyle
  2
Basic
 70
     7
 71
     1
 72
     0
 73
     1
 90
        0
 40
-0.6
 41
-30.0
 62
     5
 63
     7
421
 16777215
 74
     0
 91
        4
 64
     7
 65
   257
 75
     1
175
     1
 42
1.0
 92
        8
 66
     7
 43
1.0
 76
     1
 77
     6
 78
     2
 67
     7
 79
     5
170
     0
171
     0
290
     0
174
     0
 93
        1
 44
0.0
173
     0
291
     1
 45
0.0
1001
ACAD
1000
AcDbSavedByObjectVersion
1070
     0
  0
VISUALSTYLE
  5
36
102
{ACAD_REACTORS
330
2A
102
}
330
2A
100
AcDbVisualStyle
  2
Brighten
 70
    12
 71
     2
 72
     2
 73
     0
 90
        0
 40
-0.6
 41
-30.0
 62
     5
 63
     7
421
 16777215
 74
     1
 91
        4
 64
     7
 65
   257
 75
     1
175
     1
 42
1.0
 92
        8
 66
     7
 43
1.0
 76
     1
 77
     6
 78
     2
 67
     7
 79
     5
170
     0
171
     0
290
     0
174
     0
 93
        1
 44
50.0
173
     0
291
     1
 45
0.0
1001
ACAD
1000
AcDbSavedByObjectVersion
1070
     0
  0
VISUALSTYLE
  5
3A
102
{ACAD_REACTORS
330
2A
102
}
330
2A
100
AcDbVisualStyle
  2
ColorChange
 70
    16
 71
     2
 72
     2
 73
     3
 90
        0
 40
-0.6
 41
-30.0
 62
     5
 63
     8
421
  8421504
 74
     1
 91
        4
 64
     7
 65
   257
 75
     1
175
     1
 42
1.0
 92
        8
 66
     8
424
  8421504
 43
1.0
 76
     1
 77
     6
 78
     2
 67
     7
 79
     5
170
     0
171
     0
290
     0
174
     0
 93
        1
 44
0.0
173
     0
291
     1
 45
0.0
1001
ACAD
1000
AcDbSavedByObjectVersion
1070
     0
  0
VISUALSTYLE
  5
34
102
{ACAD_REACTORS
330
2A
102
}
330
2A
100
AcDbVisualStyle
  2
Conceptual
 70
     9
 71
     3
 72
     2
 73
     0
 90
        0
 40
-0.6
 41
-30.0
 62
     5
 63
     7
421
 16777215
 74
     2
 91
        2
 64
     7
 65
   257
 75
     1
175
     1
 42
40.0
 92
        8
 66
     7
 43
1.0
 76
     1
 77
     6
 78
     2
 67
     7
 79
     3
170
     0
171
     0
290
     0
174
     0
 93
        1
 44
0.0
173
     0
291
     0
 45
0.0
1001
ACAD
1000
AcDbSavedByObjectVersion
1070
     0
  0
VISUALSTYLE
  5
35
102
{ACAD_REACTORS
330
2A
102
}
330
2A
100
AcDbVisualStyle
  2
Dim
 70
    11
 71
     2
 72
     2
 73
     0
 90
        0
 40
-0.6
 41
-30.0
 62
     5
 63
     7
421
 16777215
 74
     1
 91
        4
 64
     7
 65
   257
 75
     1
175
     1
 42
1.0
 92
        8
 66
     7
 43
1.0
 76
     1
 77
     6
 78
     2
 67
     7
 79
     5
170
     0
171
     0
290
     0
174
     0
 93
        1
 44
-50.0
173
     0
291
     1
 45
0.0
1001
ACAD
1000
AcDbSavedByObjectVersion
1070
     0
  0
VISUALSTYLE
  5
39
102
{ACAD_REACTORS
330
2A
102
}
330
2A
100
AcDbVisualStyle
  2
Facepattern
 70
    15
 71
     2
 72
     2
 73
     0
 90
        0
 40
-0.6
 41
-30.0
 62
     5
 63
     7
421
 16777215
 74
     1
 91
        4
 64
     7
 65
   257
 75
     1
175
     1
 42
1.0
 92
        8
 66
     7
 43
1.0
 76
     1
 77
     6
 78
     2
 67
     7
 79
     5
170
     0
171
     0
290
     0
174
     0
 93
        1
 44
0.0
173
     0
291
     1
 45
0.0
1001
ACAD
1000
AcDbSavedByObjectVersion
1070
     0
  0
VISUALSTYLE
  5
2B
102
{ACAD_REACTORS
330
2A
102
}
330
2A
100
AcDbVisualStyle
  2
Flat
 70
     0
 71
     2
 72
     1
 73
     1
 90
        2
 40
-0.6
 41
30.0
 62
     5
 63
     7
421
 16777215
 74
     0
 91
        4
 64
     7
 65
   257
 75
     1
175
     1
 42
1.0
 92
        8
 66
     7
 43
1.0
 76
     1
 77
     6
 78
     2
 67
     7
 79
     5
170
     0
171
     0
290
     0
174
     0
 93
       13
 44
0.0
173
     0
291
     1
 45
0.0
1001
ACAD
1000
AcDbSavedByObjectVersion
1070
     0
  0
VISUALSTYLE
  5
2C
102
{ACAD_REACTORS
330
2A
102
}
330
2A
100
AcDbVisualStyle
  2
FlatWithEdges
 70
     1
 71
     2
 72
     1
 73
     1
 90
        2
 40
-0.6
 41
30.0
 62
     5
 63
     7
421
 16777215
 74
     1
 91
        4
 64
     7
 65
   257
 75
     1
175
     1
 42
1.0
 92
        0
 66
   257
 43
1.0
 76
     1
 77
     6
 78
     2
 67
     7
 79
     5
170
     0
171
     0
290
     0
174
     0
 93
       13
 44
0.0
173
     0
291
     1
 45
0.0
1001
ACAD
1000
AcDbSavedByObjectVersion
1070
     0
  0
VISUALSTYLE
  5
2D
102
{ACAD_REACTORS
330
2A
102
}
330
2A
100
AcDbVisualStyle
  2
Gouraud
 70
     2
 71
     2
 72
     2
 73
     1
 90
        2
 40
-0.6
 41
30.0
 62
     5
 63
     7
421
 16777215
 74
     0
 91
        4
 64
     7
 65
   257
 75
     1
175
     1
 42
1.0
 92
        0
 66
     7
 43
1.0
 76
     1
 77
     6
 78
     2
 67
     7
 79
     5
170
     0
171
     0
290
     0
174
     0
 93
       13
 44
0.0
173
     0
291
     1
 45
0.0
1001
ACAD
1000
AcDbSavedByObjectVersion
1070
     0
  0
VISUALSTYLE
  5
2E
102
{ACAD_REACTORS
330
2A
102
}
330
2A
100
AcDbVisualStyle
  2
GouraudWithEdges
 70
     3
 71
     2
 72
     2
 73
     1
 90
        2
 40
-0.6
 41
30.0
 62
     5
 63
     7
421
 16777215
 74
     1
 91
        4
 64
     7
 65
   257
 75
     1
175
     1
 42
1.0
 92
        0
 66
   257
 43
1.0
 76
     1
 77
     6
 78
     2
 67
     7
 79
     5
170
     0
171
     0
290
     0
174
     0
 93
       13
 44
0.0
173
     0
291
     1
 45
0.0
1001
ACAD
1000
AcDbSavedByObjectVersion
1070
     0
  0
VISUALSTYLE
  5
38
102
{ACAD_REACTORS
330
2A
102
}
330
2A
100
AcDbVisualStyle
  2
Linepattern
 70
    14
 71
     2
 72
     2
 73
     0
 90
        0
 40
-0.6
 41
-30.0
 62
     5
 63
     7
421
 16777215
 74
     1
 91
        4
 64
     7
 65
   257
 75
     7
175
     7
 42
1.0
 92
        8
 66
     7
 43
1.0
 76
     1
 77
     6
 78
     2
 67
     7
 79
     5
170
     0
171
     0
290
     0
174
     0
 93
        1
 44
0.0
173
     0
291
     1
 45
0.0
1001
ACAD
1000
AcDbSavedByObjectVersion
1070
     0
  0
VISUALSTYLE
  5
33
102
{ACAD_REACTORS
330
2A
102
}
330
2A
100
AcDbVisualStyle
  2
Realistic
 70
     8
 71
     2
 72
     2
 73
     0
 90
        0
 40
-0.6
 41
-30.0
 62
     5
 63
     7
421
 16777215
 74
     1
 91
        0
 64
     7
 65
   257
 75
     1
175
     1
 42
1.0
 92
        8
 66
     8
424
  7895160
 43
1.0
 76
     1
 77
     6
 78
     2
 67
     7
 79
     5
170
     0
171
     0
290
     0
174
     0
 93
       13
 44
0.0
173
     0
291
     0
 45
0.0
1001
ACAD
1000
AcDbSavedByObjectVersion
1070
     0
  0
VISUALSTYLE
  5
37
102
{ACAD_REACTORS
330
2A
102
}
330
2A
100
AcDbVisualStyle
  2
Thicken
 70
    13
 71
     2
 72
     2
 73
     0
 90
        0
 40
-0.6
 41
-30.0
 62
     5
 63
     7
421
 16777215
 74
     1
 91
        4
 64
     7
 65
   257
 75
     1
175
     1
 42
1.0
 92
       12
 66
     7
 43
1.0
 76
     1
 77
     6
 78
     2
 67
     7
 79
     5
170
     0
171
     0
290
     0
174
     0
 93
        1
 44
0.0
173
     0
291
     1
 45
0.0
1001
ACAD
1000
AcDbSavedByObjectVersion
1070
     0
  0
ENDSEC
  0
EOF
