  0
SECTION
  2
HEADER
  9
$ACADVER
  1
AC1024
  9
$ACADMAINTVER
 70
     6
  9
$DWGCODEPAGE
  3
ANSI_1252
  9
$INSBASE
 10
0.0
 20
0.0
 30
0.0
  9
$EXTMIN
 10
1.000000000000000E+20
 20
1.000000000000000E+20
 30
1.000000000000000E+20
  9
$EXTMAX
 10
-1.000000000000000E+20
 20
-1.000000000000000E+20
 30
-1.000000000000000E+20
  9
$LIMMIN
 10
0.0
 20
0.0
  9
$LIMMAX
 10
12.0
 20
9.0
  9
$ORTHOMODE
 70
     0
  9
$REGENMODE
 70
     1
  9
$FILLMODE
 70
     1
  9
$QTEXTMODE
 70
     0
  9
$MIRRTEXT
 70
     1
  9
$LTSCALE
 40
1.0
  9
$ATTMODE
 70
     1
  9
$TEXTSIZE
 40
0.2
  9
$TRACEWID
 40
0.05
  9
$TEXTSTYLE
  7
Standard
  9
$CLAYER
  8
0
  9
$CELTYPE
  6
ByLayer
  9
$CECOLOR
 62
   256
  9
$CELTSCALE
 40
1.0
  9
$DISPSILH
 70
     0
  9
$DIMSCALE
 40
1.0
  9
$DIMASZ
 40
0.18
  9
$DIMEXO
 40
0.0625
  9
$DIMDLI
 40
0.38
  9
$DIMRND
 40
0.0
  9
$DIMDLE
 40
0.0
  9
$DIMEXE
 40
0.18
  9
$DIMTP
 40
0.0
  9
$DIMTM
 40
0.0
  9
$DIMTXT
 40
0.18
  9
$DIMCEN
 40
0.09
  9
$DIMTSZ
 40
0.0
  9
$DIMTOL
 70
     0
  9
$DIMLIM
 70
     0
  9
$DIMTIH
 70
     1
  9
$DIMTOH
 70
     1
  9
$DIMSE1
 70
     0
  9
$DIMSE2
 70
     0
  9
$DIMTAD
 70
     0
  9
$DIMZIN
 70
     0
  9
$DIMBLK
  1

  9
$DIMASO
 70
     1
  9
$DIMSHO
 70
     1
  9
$DIMPOST
  1

  9
$DIMAPOST
  1

  9
$DIMALT
 70
     0
  9
$DIMALTD
 70
     2
  9
$DIMALTF
 40
25.4
  9
$DIMLFAC
 40
1.0
  9
$DIMTOFL
 70
     0
  9
$DIMTVP
 40
0.0
  9
$DIMTIX
 70
     0
  9
$DIMSOXD
 70
     0
  9
$DIMSAH
 70
     0
  9
$DIMBLK1
  1

  9
$DIMBLK2
  1

  9
$DIMSTYLE
  2
Standard
  9
$DIMCLRD
 70
     0
  9
$DIMCLRE
 70
     0
  9
$DIMCLRT
 70
     0
  9
$DIMTFAC
 40
1.0
  9
$DIMGAP
 40
0.09
  9
$DIMJUST
 70
     0
  9
$DIMSD1
 70
     0
  9
$DIMSD2
 70
     0
  9
$DIMTOLJ
 70
     1
  9
$DIMTZIN
 70
     0
  9
$DIMALTZ
 70
     0
  9
$DIMALTTZ
 70
     0
  9
$DIMUPT
 70
     0
  9
$DIMDEC
 70
     4
  9
$DIMTDEC
 70
     4
  9
$DIMALTU
 70
     2
  9
$DIMALTTD
 70
     2
  9
$DIMTXSTY
  7
Standard
  9
$DIMAUNIT
 70
     0
  9
$DIMADEC
 70
     0
  9
$DIMALTRND
 40
0.0
  9
$DIMAZIN
 70
     0
  9
$DIMDSEP
 70
    46
  9
$DIMATFIT
 70
     3
  9
$DIMFRAC
 70
     0
  9
$DIMLDRBLK
  1

  9
$DIMLUNIT
 70
     2
  9
$DIMLWD
 70
    -2
  9
$DIMLWE
 70
    -2
  9
$DIMTMOVE
 70
     0
  9
$DIMFXL
 40
1.0
  9
$DIMFXLON
 70
     0
  9
$DIMJOGANG
 40
0.7853981633974483
  9
$DIMTFILL
 70
     0
  9
$DIMTFILLCLR
 70
     0
  9
$DIMARCSYM
 70
     0
  9
$DIMLTYPE
  6

  9
$DIMLTEX1
  6

  9
$DIMLTEX2
  6

  9
$DIMTXTDIRECTION
 70
     0
  9
$LUNITS
 70
     2
  9
$LUPREC
 70
     4
  9
$SKETCHINC
 40
0.1
  9
$FILLETRAD
 40
0.5
  9
$AUNITS
 70
     0
  9
$AUPREC
 70
     0
  9
$MENU
  1
.
  9
$ELEVATION
 40
0.0
  9
$PELEVATION
 40
0.0
  9
$THICKNESS
 40
0.0
  9
$LIMCHECK
 70
     0
  9
$CHAMFERA
 40
0.5
  9
$CHAMFERB
 40
0.5
  9
$CHAMFERC
 40
1.0
  9
$CHAMFERD
 40
0.0
  9
$SKPOLY
 70
     0
  9
$TDCREATE
 40
2458078.484771401
  9
$TDUCREATE
 40
2458078.443104734
  9
$TDUPDATE
 40
2458078.48477162
  9
$TDUUPDATE
 40
2458078.443104954
  9
$TDINDWG
 40
0.0000000116
  9
$TDUSRTIMER
 40
0.0000000116
  9
$USRTIMER
 70
     1
  9
$ANGBASE
 50
0.0
  9
$ANGDIR
 70
     0
  9
$PDMODE
 70
     0
  9
$PDSIZE
 40
0.0
  9
$PLINEWID
 40
0.0
  9
$SPLFRAME
 70
     0
  9
$SPLINETYPE
 70
     6
  9
$SPLINESEGS
 70
     8
  9
$HANDSEED
  5
413
  9
$SURFTAB1
 70
     6
  9
$SURFTAB2
 70
     6
  9
$SURFTYPE
 70
     6
  9
$SURFU
 70
     6
  9
$SURFV
 70
     6
  9
$UCSBASE
  2

  9
$UCSNAME
  2

  9
$UCSORG
 10
0.0
 20
0.0
 30
0.0
  9
$UCSXDIR
 10
1.0
 20
0.0
 30
0.0
  9
$UCSYDIR
 10
0.0
 20
1.0
 30
0.0
  9
$UCSORTHOREF
  2

  9
$UCSORTHOVIEW
 70
     0
  9
$UCSORGTOP
 10
0.0
 20
0.0
 30
0.0
  9
$UCSORGBOTTOM
 10
0.0
 20
0.0
 30
0.0
  9
$UCSORGLEFT
 10
0.0
 20
0.0
 30
0.0
  9
$UCSORGRIGHT
 10
0.0
 20
0.0
 30
0.0
  9
$UCSORGFRONT
 10
0.0
 20
0.0
 30
0.0
  9
$UCSORGBACK
 10
0.0
 20
0.0
 30
0.0
  9
$PUCSBASE
  2

  9
$PUCSNAME
  2

  9
$PUCSORG
 10
0.0
 20
0.0
 30
0.0
  9
$PUCSXDIR
 10
1.0
 20
0.0
 30
0.0
  9
$PUCSYDIR
 10
0.0
 20
1.0
 30
0.0
  9
$PUCSORTHOREF
  2

  9
$PUCSORTHOVIEW
 70
     0
  9
$PUCSORGTOP
 10
0.0
 20
0.0
 30
0.0
  9
$PUCSORGBOTTOM
 10
0.0
 20
0.0
 30
0.0
  9
$PUCSORGLEFT
 10
0.0
 20
0.0
 30
0.0
  9
$PUCSORGRIGHT
 10
0.0
 20
0.0
 30
0.0
  9
$PUCSORGFRONT
 10
0.0
 20
0.0
 30
0.0
  9
$PUCSORGBACK
 10
0.0
 20
0.0
 30
0.0
  9
$USERI1
 70
     0
  9
$USERI2
 70
     0
  9
$USERI3
 70
     0
  9
$USERI4
 70
     0
  9
$USERI5
 70
     0
  9
$USERR1
 40
0.0
  9
$USERR2
 40
0.0
  9
$USERR3
 40
0.0
  9
$USERR4
 40
0.0
  9
$USERR5
 40
0.0
  9
$WORLDVIEW
 70
     1
  9
$SHADEDGE
 70
     3
  9
$SHADEDIF
 70
    70
  9
$TILEMODE
 70
     1
  9
$MAXACTVP
 70
    64
  9
$PINSBASE
 10
0.0
 20
0.0
 30
0.0
  9
$PLIMCHECK
 70
     0
  9
$PEXTMIN
 10
1.000000000000000E+20
 20
1.000000000000000E+20
 30
1.000000000000000E+20
  9
$PEXTMAX
 10
-1.000000000000000E+20
 20
-1.000000000000000E+20
 30
-1.000000000000000E+20
  9
$PLIMMIN
 10
0.0
 20
0.0
  9
$PLIMMAX
 10
12.0
 20
9.0
  9
$UNITMODE
 70
     0
  9
$VISRETAIN
 70
     1
  9
$PLINEGEN
 70
     0
  9
$PSLTSCALE
 70
     1
  9
$TREEDEPTH
 70
  3020
  9
$CMLSTYLE
  2
Standard
  9
$CMLJUST
 70
     0
  9
$CMLSCALE
 40
1.0
  9
$PROXYGRAPHICS
 70
     1
  9
$MEASUREMENT
 70
     0
  9
$CELWEIGHT
370
    -1
  9
$ENDCAPS
280
     0
  9
$JOINSTYLE
280
     0
  9
$LWDISPLAY
290
     1
  9
$INSUNITS
 70
     1
  9
$HYPERLINKBASE
  1

  9
$STYLESHEET
  1

  9
$XEDIT
290
     1
  9
$CEPSNTYPE
380
     0
  9
$PSTYLEMODE
290
     1
  9
$FINGERPRINTGUID
  2
{4F06BCF0-C4FE-40AB-AD6F-51481D9EAE8B}
  9
$VERSIONGUID
  2
{FAEB1C32-E019-11D5-929B-00C0DF256EC4}
  9
$EXTNAMES
290
     1
  9
$PSVPSCALE
 40
0.0
  9
$OLESTARTUP
290
     0
  9
$SORTENTS
280
   127
  9
$INDEXCTL
280
     0
  9
$HIDETEXT
280
     1
  9
$XCLIPFRAME
280
     2
  9
$HALOGAP
280
     0
  9
$OBSCOLOR
 70
   257
  9
$OBSLTYPE
280
     0
  9
$INTERSECTIONDISPLAY
280
     0
  9
$INTERSECTIONCOLOR
 70
   257
  9
$DIMASSOC
280
     2
  9
$PROJECTNAME
  1

  9
$CAMERADISPLAY
290
     0
  9
$LENSLENGTH
 40
50.0
  9
$CAMERAHEIGHT
 40
0.0
  9
$STEPSPERSEC
 40
2.0
  9
$STEPSIZE
 40
6.0
  9
$3DDWFPREC
 40
2.0
  9
$PSOLWIDTH
 40
0.25
  9
$PSOLHEIGHT
 40
4.0
  9
$LOFTANG1
 40
1.570796326794897
  9
$LOFTANG2
 40
1.570796326794897
  9
$LOFTMAG1
 40
0.0
  9
$LOFTMAG2
 40
0.0
  9
$LOFTPARAM
 70
     7
  9
$LOFTNORMALS
280
     1
  9
$LATITUDE
 40
37.795
  9
$LONGITUDE
 40
-122.394
  9
$NORTHDIRECTION
 40
0.0
  9
$TIMEZONE
 70
 -8000
  9
$LIGHTGLYPHDISPLAY
280
     1
  9
$TILEMODELIGHTSYNCH
280
     1
  9
$CMATERIAL
347
3C
  9
$SOLIDHIST
280
     1
  9
$SHOWHIST
280
     1
  9
$DWFFRAME
280
     2
  9
$DGNFRAME
280
     2
  9
$REALWORLDSCALE
290
     1
  9
$INTERFERECOLOR
 62
   256
  9
$CSHADOW
280
     0
  9
$SHADOWPLANELOCATION
 40
0.0
  0
ENDSEC
  0
SECTION
  2
CLASSES
  0
CLASS
  1
ACDBDICTIONARYWDFLT
  2
AcDbDictionaryWithDefault
  3
ObjectDBX Classes
 90
        0
 91
        4
280
     0
281
     0
  0
CLASS
  1
VISUALSTYLE
  2
AcDbVisualStyle
  3
ObjectDBX Classes
 90
     4095
 91
        4
280
     0
281
     0
  0
CLASS
  1
MATERIAL
  2
AcDbMaterial
  3
ObjectDBX Classes
 90
     1153
 91
        4
280
     0
281
     0
  0
CLASS
  1
SUN
  2
AcDbSun
  3
SCENEOE
 90
     1024
 91
        4
280
     0
281
     0
  0
ENDSEC
  0
SECTION
  2
TABLES
  0
TABLE
  2
VPORT
  5
8
330
0
100
AcDbSymbolTable
 70
     1
  0
VPORT
  5
29
330
8
100
AcDbSymbolTableRecord
100
AcDbViewportTableRecord
  2
*Active
 70
     0
 10
0.0
 20
0.0
 11
1.0
 21
1.0
 12
0.0
 22
0.0
 13
0.0
 23
0.0
 14
0.5
 24
0.5
 15
0.5
 25
0.5
 16
0.0
 26
0.0
 36
1.0
 17
104.9999001134527
 27
148.5000442133633
 37
0.0
 40
297.0000884267266
 41
0.7070698239159443
 42
50.0
 43
0.0
 44
0.0
 50
0.0
 51
0.0
 71
     0
 72
   100
 73
     1
 74
     3
 75
     0
 76
     0
 77
     0
 78
     0
281
     0
 65
     1
110
0.0
120
0.0
130
0.0
111
1.0
121
0.0
131
0.0
112
0.0
122
1.0
132
0.0
 79
     0
146
0.0
 60
     3
 61
     5
292
     1
282
     1
141
0.0
142
0.0
 63
   250
361
3F
  0
ENDTAB
  0
TABLE
  2
LTYPE
  5
5
330
0
100
AcDbSymbolTable
 70
    21
  0
LTYPE
  5
14
330
5
100
AcDbSymbolTableRecord
100
AcDbLinetypeTableRecord
  2
ByBlock
 70
     0
  3

 72
    65
 73
     0
 40
0.0
  0
LTYPE
  5
15
330
5
100
AcDbSymbolTableRecord
100
AcDbLinetypeTableRecord
  2
ByLayer
 70
     0
  3

 72
    65
 73
     0
 40
0.0
  0
LTYPE
  5
16
330
5
100
AcDbSymbolTableRecord
100
AcDbLinetypeTableRecord
  2
Continuous
 70
     0
  3
Solid line
 72
    65
 73
     0
 40
0.0
  0
LTYPE
  5
141
330
5
100
AcDbSymbolTableRecord
100
AcDbLinetypeTableRecord
  2
AI-Linetype-1
 70
     0
  3
Adobe Illustrator Linetype No. 1
 72
    65
 73
     2
 40
0.8272638987751262
 49
0.4727222338792704
 74
     0
 49
-0.3545416648958558
 74
     0
  0
LTYPE
  5
14C
330
5
100
AcDbSymbolTableRecord
100
AcDbLinetypeTableRecord
  2
AI-Linetype-2
 70
     0
  3
Adobe Illustrator Linetype No. 2
 72
    65
 73
     2
 40
0.8272638987751262
 49
0.4727222338792704
 74
     0
 49
-0.3545416648958558
 74
     0
  0
LTYPE
  5
151
330
5
100
AcDbSymbolTableRecord
100
AcDbLinetypeTableRecord
  2
AI-Linetype-3
 70
     0
  3
Adobe Illustrator Linetype No. 3
 72
    65
 73
     2
 40
0.8272638987751262
 49
0.4727222338792704
 74
     0
 49
-0.3545416648958558
 74
     0
  0
LTYPE
  5
156
330
5
100
AcDbSymbolTableRecord
100
AcDbLinetypeTableRecord
  2
AI-Linetype-4
 70
     0
  3
Adobe Illustrator Linetype No. 4
 72
    65
 73
     2
 40
0.8272638987751262
 49
0.4727222338792704
 74
     0
 49
-0.3545416648958558
 74
     0
  0
LTYPE
  5
15B
330
5
100
AcDbSymbolTableRecord
100
AcDbLinetypeTableRecord
  2
AI-Linetype-5
 70
     0
  3
Adobe Illustrator Linetype No. 5
 72
    65
 73
     2
 40
0.8272638987751262
 49
0.4727222338792704
 74
     0
 49
-0.3545416648958558
 74
     0
  0
LTYPE
  5
160
330
5
100
AcDbSymbolTableRecord
100
AcDbLinetypeTableRecord
  2
AI-Linetype-6
 70
     0
  3
Adobe Illustrator Linetype No. 6
 72
    65
 73
     2
 40
0.8272638987751262
 49
0.4727222338792704
 74
     0
 49
-0.3545416648958558
 74
     0
  0
LTYPE
  5
2BE
330
5
100
AcDbSymbolTableRecord
100
AcDbLinetypeTableRecord
  2
AI-Linetype-7
 70
     0
  3
Adobe Illustrator Linetype No. 7
 72
    65
 73
     2
 40
0.8272638987751262
 49
0.4727222338792704
 74
     0
 49
-0.3545416648958558
 74
     0
  0
LTYPE
  5
2C3
330
5
100
AcDbSymbolTableRecord
100
AcDbLinetypeTableRecord
  2
AI-Linetype-8
 70
     0
  3
Adobe Illustrator Linetype No. 8
 72
    65
 73
     2
 40
0.8272638987751262
 49
0.4727222338792704
 74
     0
 49
-0.3545416648958558
 74
     0
  0
LTYPE
  5
2CC
330
5
100
AcDbSymbolTableRecord
100
AcDbLinetypeTableRecord
  2
AI-Linetype-9
 70
     0
  3
Adobe Illustrator Linetype No. 9
 72
    65
 73
     2
 40
0.8815916499609486
 49
0.503766657120542
 74
     0
 49
-0.3778249928404065
 74
     0
  0
LTYPE
  5
2D6
330
5
100
AcDbSymbolTableRecord
100
AcDbLinetypeTableRecord
  2
AI-Linetype-10
 70
     0
  3
Adobe Illustrator Linetype No. 10
 72
    65
 73
     2
 40
0.7267222439088236
 49
0.4152194604895247
 74
     0
 49
-0.3115027834192989
 74
     0
  0
LTYPE
  5
2E1
330
5
100
AcDbSymbolTableRecord
100
AcDbLinetypeTableRecord
  2
AI-Linetype-11
 70
     0
  3
Adobe Illustrator Linetype No. 11
 72
    65
 73
     2
 40
0.7401277740601773
 49
0.4229805557862455
 74
     0
 49
-0.3171472182739317
 74
     0
  0
LTYPE
  5
2EB
330
5
100
AcDbSymbolTableRecord
100
AcDbLinetypeTableRecord
  2
AI-Linetype-12
 70
     0
  3
Adobe Illustrator Linetype No. 12
 72
    65
 73
     2
 40
0.7715249915644586
 49
0.4409722221119792
 74
     0
 49
-0.3305527694524795
 74
     0
  0
LTYPE
  5
380
330
5
100
AcDbSymbolTableRecord
100
AcDbLinetypeTableRecord
  2
AI-Linetype-13
 70
     0
  3
Adobe Illustrator Linetype No. 13
 72
    65
 73
     4
 40
3.131961117729693
 49
1.772708366533667
 74
     0
 49
-0.5909027608082968
 74
     0
 49
0.1774472295794328
 74
     0
 49
-0.5909027608082968
 74
     0
  0
LTYPE
  5
385
330
5
100
AcDbSymbolTableRecord
100
AcDbLinetypeTableRecord
  2
AI-Linetype-14
 70
     0
  3
Adobe Illustrator Linetype No. 14
 72
    65
 73
     4
 40
3.131961117729693
 49
1.772708366533667
 74
     0
 49
-0.5909027608082968
 74
     0
 49
0.1774472295794328
 74
     0
 49
-0.5909027608082968
 74
     0
  0
LTYPE
  5
38A
330
5
100
AcDbSymbolTableRecord
100
AcDbLinetypeTableRecord
  2
AI-Linetype-15
 70
     0
  3
Adobe Illustrator Linetype No. 15
 72
    65
 73
     4
 40
3.131961117729693
 49
1.772708366533667
 74
     0
 49
-0.5909027608082968
 74
     0
 49
0.1774472295794328
 74
     0
 49
-0.5909027608082968
 74
     0
  0
LTYPE
  5
38F
330
5
100
AcDbSymbolTableRecord
100
AcDbLinetypeTableRecord
  2
AI-Linetype-16
 70
     0
  3
Adobe Illustrator Linetype No. 16
 72
    65
 73
     4
 40
3.131961117729693
 49
1.772708366533667
 74
     0
 49
-0.5909027608082968
 74
     0
 49
0.1774472295794328
 74
     0
 49
-0.5909027608082968
 74
     0
  0
LTYPE
  5
394
330
5
100
AcDbSymbolTableRecord
100
AcDbLinetypeTableRecord
  2
AI-Linetype-17
 70
     0
  3
Adobe Illustrator Linetype No. 17
 72
    65
 73
     4
 40
3.131961117729693
 49
1.772708366533667
 74
     0
 49
-0.5909027608082968
 74
     0
 49
0.1774472295794328
 74
     0
 49
-0.5909027608082968
 74
     0
  0
LTYPE
  5
399
330
5
100
AcDbSymbolTableRecord
100
AcDbLinetypeTableRecord
  2
AI-Linetype-18
 70
     0
  3
Adobe Illustrator Linetype No. 18
 72
    65
 73
     4
 40
3.131961117729693
 49
1.772708366533667
 74
     0
 49
-0.5909027608082968
 74
     0
 49
0.1774472295794328
 74
     0
 49
-0.5909027608082968
 74
     0
  0
LTYPE
  5
39E
330
5
100
AcDbSymbolTableRecord
100
AcDbLinetypeTableRecord
  2
AI-Linetype-19
 70
     0
  3
Adobe Illustrator Linetype No. 19
 72
    65
 73
     4
 40
3.131961117729693
 49
1.772708366533667
 74
     0
 49
-0.5909027608082968
 74
     0
 49
0.1774472295794328
 74
     0
 49
-0.5909027608082968
 74
     0
  0
LTYPE
  5
3A3
330
5
100
AcDbSymbolTableRecord
100
AcDbLinetypeTableRecord
  2
AI-Linetype-20
 70
     0
  3
Adobe Illustrator Linetype No. 20
 72
    65
 73
     4
 40
3.131961117729693
 49
1.772708366533667
 74
     0
 49
-0.5909027608082968
 74
     0
 49
0.1774472295794328
 74
     0
 49
-0.5909027608082968
 74
     0
  0
ENDTAB
  0
TABLE
  2
LAYER
  5
2
330
0
100
AcDbSymbolTable
 70
     2
  0
LAYER
  5
10
330
2
100
AcDbSymbolTableRecord
100
AcDbLayerTableRecord
  2
0
 70
     0
 62
     7
  6
Continuous
370
    -3
390
F
347
3E
  0
LAYER
  5
40
330
2
100
AcDbSymbolTableRecord
100
AcDbLayerTableRecord
  2
Capa 1
 70
     0
 62
     7
  6
Continuous
370
    -3
390
F
347
3E
  0
ENDTAB
  0
TABLE
  2
STYLE
  5
3
330
0
100
AcDbSymbolTable
 70
     1
  0
STYLE
  5
11
330
3
100
AcDbSymbolTableRecord
100
AcDbTextStyleTableRecord
  2
Standard
 70
     0
 40
0.0
 41
1.0
 50
0.0
 71
     0
 42
0.2
  3
txt
  4

  0
ENDTAB
  0
TABLE
  2
VIEW
  5
6
330
0
100
AcDbSymbolTable
 70
     0
  0
ENDTAB
  0
TABLE
  2
UCS
  5
7
330
0
100
AcDbSymbolTable
 70
     0
  0
ENDTAB
  0
TABLE
  2
APPID
  5
9
330
0
100
AcDbSymbolTable
 70
     1
  0
APPID
  5
12
330
9
100
AcDbSymbolTableRecord
100
AcDbRegAppTableRecord
  2
ACAD
 70
     0
  0
ENDTAB
  0
TABLE
  2
DIMSTYLE
  5
A
330
0
100
AcDbSymbolTable
 70
     1
100
AcDbDimStyleTable
  0
DIMSTYLE
105
27
330
A
100
AcDbSymbolTableRecord
100
AcDbDimStyleTableRecord
  2
Standard
 70
     0
178
     0
340
11
  0
ENDTAB
  0
TABLE
  2
BLOCK_RECORD
  5
1
330
0
100
AcDbSymbolTable
 70
     4
  0
BLOCK_RECORD
  5
1F
330
1
100
AcDbSymbolTableRecord
100
AcDbBlockTableRecord
  2
*Model_Space
340
22
 70
     0
280
     1
281
     0
  0
BLOCK_RECORD
  5
1B
330
1
100
AcDbSymbolTableRecord
100
AcDbBlockTableRecord
  2
*Paper_Space
340
1E
 70
     0
280
     1
281
     0
  0
BLOCK_RECORD
  5
23
330
1
100
AcDbSymbolTableRecord
100
AcDbBlockTableRecord
  2
*Paper_Space0
340
26
 70
     0
280
     1
281
     0
  0
BLOCK_RECORD
  5
41
330
1
100
AcDbSymbolTableRecord
100
AcDbBlockTableRecord
  2
block 2
340
0
102
{BLKREFS
331
42
102
}
 70
     0
280
     1
281
     0
  0
BLOCK_RECORD
  5
2FD
330
1
100
AcDbSymbolTableRecord
100
AcDbBlockTableRecord
  2
block 3
340
0
102
{BLKREFS
331
2FE
102
}
 70
     0
280
     1
281
     0
  0
BLOCK_RECORD
  5
3D6
330
1
100
AcDbSymbolTableRecord
100
AcDbBlockTableRecord
  2
block 4
340
0
102
{BLKREFS
331
3D7
102
}
 70
     0
280
     1
281
     0
  0
ENDTAB
  0
ENDSEC
  0
SECTION
  2
BLOCKS
  0
BLOCK
  5
20
330
1F
100
AcDbEntity
  8
0
100
AcDbBlockBegin
  2
*Model_Space
 70
     0
 10
0.0
 20
0.0
 30
0.0
  3
*Model_Space
  1

  0
ENDBLK
  5
21
330
1F
100
AcDbEntity
  8
0
100
AcDbBlockEnd
  0
BLOCK
  5
1C
330
1B
100
AcDbEntity
 67
     1
  8
0
100
AcDbBlockBegin
  2
*Paper_Space
 70
     0
 10
0.0
 20
0.0
 30
0.0
  3
*Paper_Space
  1

  0
ENDBLK
  5
1D
330
1B
100
AcDbEntity
 67
     1
  8
0
100
AcDbBlockEnd
  0
BLOCK
  5
24
330
23
100
AcDbEntity
  8
0
100
AcDbBlockBegin
  2
*Paper_Space0
 70
     0
 10
0.0
 20
0.0
 30
0.0
  3
*Paper_Space0
  1

  0
ENDBLK
  5
25
330
23
100
AcDbEntity
  8
0
100
AcDbBlockEnd
  0
BLOCK
  5
43
330
41
100
AcDbEntity
  8
0
100
AcDbBlockBegin
  2
block 2
 70
     0
 10
0.0
 20
0.0
 30
0.0
  3
block 2
  1

  0
POLYLINE
  5
45
330
41
100
AcDbEntity
  8
Capa 1
 62
   250
420
  1842203
370
     9
100
AcDb2dPolyline
 66
     1
 10
0.0
 20
0.0
 30
0.0
  0
VERTEX
  5
46
330
45
100
AcDbEntity
  8
Capa 1
 62
   250
420
  1842203
370
     9
100
AcDbVertex
100
AcDb2dVertex
 10
73.77604156345161
 20
196.1507316946689
 30
0.0
  0
VERTEX
  5
47
330
45
100
AcDbEntity
  8
Capa 1
 62
   250
420
  1842203
370
     9
100
AcDbVertex
100
AcDb2dVertex
 10
57.06142873397141
 20
196.1507316946689
 30
0.0
  0
VERTEX
  5
48
330
45
100
AcDbEntity
  8
Capa 1
 62
   250
420
  1842203
370
     9
100
AcDbVertex
100
AcDb2dVertex
 10
57.06142873397141
 20
120.8531314123865
 30
0.0
  0
VERTEX
  5
49
330
45
100
AcDbEntity
  8
Capa 1
 62
   250
420
  1842203
370
     9
100
AcDbVertex
100
AcDb2dVertex
 10
57.31189794167246
 20
120.8531314123865
 30
0.0
  0
VERTEX
  5
4A
330
45
100
AcDbEntity
  8
Capa 1
 62
   250
420
  1842203
370
     9
100
AcDbVertex
100
AcDb2dVertex
 10
57.31824983647339
 20
118.6221737035259
 30
0.0
  0
VERTEX
  5
4B
330
45
100
AcDbEntity
  8
Capa 1
 62
   250
420
  1842203
370
     9
100
AcDbVertex
100
AcDb2dVertex
 10
63.33169630374716
 20
118.6221737035259
 30
0.0
  0
VERTEX
  5
4C
330
45
100
AcDbEntity
  8
Capa 1
 62
   250
420
  1842203
370
     9
100
AcDbVertex
100
AcDb2dVertex
 10
63.33169630374716
 20
119.1922508789476
 30
0.0
  0
VERTEX
  5
4D
330
45
100
AcDbEntity
  8
Capa 1
 62
   250
420
  1842203
370
     9
100
AcDbVertex
100
AcDb2dVertex
 10
58.85706633050058
 20
119.1922508789476
 30
0.0
  0
VERTEX
  5
4E
330
45
100
AcDbEntity
  8
Capa 1
 62
   250
420
  1842203
370
     9
100
AcDbVertex
100
AcDb2dVertex
 10
58.85565599453631
 20
120.8531314123865
 30
0.0
  0
VERTEX
  5
4F
330
45
100
AcDbEntity
  8
Capa 1
 62
   250
420
  1842203
370
     9
100
AcDbVertex
100
AcDb2dVertex
 10
72.06718807538056
 20
120.8531314123865
 30
0.0
  0
VERTEX
  5
50
330
45
100
AcDbEntity
  8
Capa 1
 62
   250
420
  1842203
370
     9
100
AcDbVertex
100
AcDb2dVertex
 10
72.06718807538056
 20
116.5633631096938
 30
0.0
  0
VERTEX
  5
51
330
45
100
AcDbEntity
  8
Capa 1
 62
   250
420
  1842203
370
     9
100
AcDbVertex
100
AcDb2dVertex
 10
72.40585172750401
 20
116.091341964521
 30
0.0
  0
VERTEX
  5
52
330
45
100
AcDbEntity
  8
Capa 1
 62
   250
420
  1842203
370
     9
100
AcDbVertex
100
AcDb2dVertex
 10
73.77604156345161
 20
116.091341964521
 30
0.0
  0
VERTEX
  5
53
330
45
100
AcDbEntity
  8
Capa 1
 62
   250
420
  1842203
370
     9
100
AcDbVertex
100
AcDb2dVertex
 10
75.14693118441966
 20
116.091341964521
 30
0.0
  0
VERTEX
  5
54
330
45
100
AcDbEntity
  8
Capa 1
 62
   250
420
  1842203
370
     9
100
AcDbVertex
100
AcDb2dVertex
 10
75.4855948365431
 20
116.5633631096938
 30
0.0
  0
VERTEX
  5
55
330
45
100
AcDbEntity
  8
Capa 1
 62
   250
420
  1842203
370
     9
100
AcDbVertex
100
AcDb2dVertex
 10
75.4855948365431
 20
120.8531314123865
 30
0.0
  0
VERTEX
  5
56
330
45
100
AcDbEntity
  8
Capa 1
 62
   250
420
  1842203
370
     9
100
AcDbVertex
100
AcDb2dVertex
 10
88.69783746833119
 20
120.8531314123865
 30
0.0
  0
VERTEX
  5
57
330
45
100
AcDbEntity
  8
Capa 1
 62
   250
420
  1842203
370
     9
100
AcDbVertex
100
AcDb2dVertex
 10
88.6957058154997
 20
119.1922508789476
 30
0.0
  0
VERTEX
  5
58
330
45
100
AcDbEntity
  8
Capa 1
 62
   250
420
  1842203
370
     9
100
AcDbVertex
100
AcDb2dVertex
 10
84.22178639319695
 20
119.1922508789476
 30
0.0
  0
VERTEX
  5
59
330
45
100
AcDbEntity
  8
Capa 1
 62
   250
420
  1842203
370
     9
100
AcDbVertex
100
AcDb2dVertex
 10
84.22178639319695
 20
118.6221737035259
 30
0.0
  0
VERTEX
  5
5A
330
45
100
AcDbEntity
  8
Capa 1
 62
   250
420
  1842203
370
     9
100
AcDbVertex
100
AcDb2dVertex
 10
90.23523286047072
 20
118.6221737035259
 30
0.0
  0
VERTEX
  5
5B
330
45
100
AcDbEntity
  8
Capa 1
 62
   250
420
  1842203
370
     9
100
AcDbVertex
100
AcDb2dVertex
 10
90.24158475527165
 20
120.8531314123865
 30
0.0
  0
VERTEX
  5
5C
330
45
100
AcDbEntity
  8
Capa 1
 62
   250
420
  1842203
370
     9
100
AcDbVertex
100
AcDb2dVertex
 10
90.49206472889608
 20
120.8531314123865
 30
0.0
  0
VERTEX
  5
5D
330
45
100
AcDbEntity
  8
Capa 1
 62
   250
420
  1842203
370
     9
100
AcDbVertex
100
AcDb2dVertex
 10
90.49206472889608
 20
196.1507316946689
 30
0.0
  0
VERTEX
  5
5E
330
45
100
AcDbEntity
  8
Capa 1
 62
   250
420
  1842203
370
     9
100
AcDbVertex
100
AcDb2dVertex
 10
73.77604156345161
 20
196.1507316946689
 30
0.0
  0
SEQEND
  5
5F
330
45
100
AcDbEntity
  8
Capa 1
 62
   250
420
  1842203
370
     9
  0
POLYLINE
  5
60
330
41
100
AcDbEntity
  8
Capa 1
 62
   250
420
  1842203
370
     9
100
AcDb2dPolyline
 66
     1
 10
0.0
 20
0.0
 30
0.0
  0
VERTEX
  5
61
330
60
100
AcDbEntity
  8
Capa 1
 62
   250
420
  1842203
370
     9
100
AcDbVertex
100
AcDb2dVertex
 10
65.34253394294714
 20
122.9697980785241
 30
0.0
  0
VERTEX
  5
62
330
60
100
AcDbEntity
  8
Capa 1
 62
   250
420
  1842203
370
     9
100
AcDbVertex
100
AcDb2dVertex
 10
58.94313988801487
 20
122.9697980785241
 30
0.0
  0
VERTEX
  5
63
330
60
100
AcDbEntity
  8
Capa 1
 62
   250
420
  1842203
370
     9
100
AcDbVertex
100
AcDb2dVertex
 10
58.94313988801487
 20
125.6607836938995
 30
0.0
  0
VERTEX
  5
64
330
60
100
AcDbEntity
  8
Capa 1
 62
   250
420
  1842203
370
     9
100
AcDbVertex
100
AcDb2dVertex
 10
59.59931215279766
 20
125.6607836938995
 30
0.0
  0
VERTEX
  5
65
330
60
100
AcDbEntity
  8
Capa 1
 62
   250
420
  1842203
370
     9
100
AcDbVertex
100
AcDb2dVertex
 10
59.59931215279766
 20
124.455000274062
 30
0.0
  0
VERTEX
  5
66
330
60
100
AcDbEntity
  8
Capa 1
 62
   250
420
  1842203
370
     9
100
AcDbVertex
100
AcDb2dVertex
 10
65.34253394294714
 20
124.455000274062
 30
0.0
  0
VERTEX
  5
67
330
60
100
AcDbEntity
  8
Capa 1
 62
   250
420
  1842203
370
     9
100
AcDbVertex
100
AcDb2dVertex
 10
65.34253394294714
 20
122.9697980785241
 30
0.0
  0
SEQEND
  5
68
330
60
100
AcDbEntity
  8
Capa 1
 62
   250
420
  1842203
370
     9
  0
SPLINE
  5
69
330
41
100
AcDbEntity
  8
Capa 1
 62
   250
420
  1842203
370
     9
100
AcDbSpline
210
0.0
220
0.0
230
1.0
 70
    11
 71
     3
 72
    23
 73
    19
 74
     0
 42
0.0000000001
 43
0.0000000001
 12
1.0
 22
0.0
 32
0.0
 13
1.0
 23
0.0
 33
0.0
 40
0.0
 40
0.0
 40
0.0
 40
0.0
 40
1.0
 40
1.0
 40
1.0
 40
2.0
 40
2.0
 40
2.0
 40
3.0
 40
3.0
 40
3.0
 40
4.0
 40
4.0
 40
4.0
 40
5.0
 40
5.0
 40
5.0
 40
6.0
 40
6.0
 40
6.0
 40
6.0
 10
61.16000500315618
 20
127.0196800762095
 30
0.0
 10
61.16000500315618
 20
127.0196800762095
 30
0.0
 10
64.18048170392558
 20
127.0196800762095
 30
0.0
 10
64.18048170392558
 20
127.0196800762095
 30
0.0
 10
64.66731675968495
 20
127.0196800762095
 30
0.0
 10
65.0617263631291
 20
126.6267023405764
 30
0.0
 10
65.0617263631291
 20
126.1405563039141
 30
0.0
 10
65.0617263631291
 20
125.6523216781138
 30
0.0
 10
64.66731675968495
 20
125.2607435125216
 30
0.0
 10
64.18048170392558
 20
125.2607435125216
 30
0.0
 10
64.18048170392558
 20
125.2607435125216
 30
0.0
 10
61.16000500315618
 20
125.2607435125216
 30
0.0
 10
61.16000500315618
 20
125.2607435125216
 30
0.0
 10
60.67316994739681
 20
125.2607435125216
 30
0.0
 10
60.2794708948965
 20
125.6523216781138
 30
0.0
 10
60.2794708948965
 20
126.1405563039141
 30
0.0
 10
60.2794708948965
 20
126.6267023405764
 30
0.0
 10
60.67316994739681
 20
127.0196800762095
 30
0.0
 10
61.16000500315618
 20
127.0196800762095
 30
0.0
  0
SPLINE
  5
6A
330
41
100
AcDbEntity
  8
Capa 1
 62
   250
420
  1842203
370
     9
100
AcDbSpline
210
0.0
220
0.0
230
1.0
 70
    11
 71
     3
 72
    23
 73
    19
 74
     0
 42
0.0000000001
 43
0.0000000001
 12
1.0
 22
0.0
 32
0.0
 13
1.0
 23
0.0
 33
0.0
 40
0.0
 40
0.0
 40
0.0
 40
0.0
 40
1.0
 40
1.0
 40
1.0
 40
2.0
 40
2.0
 40
2.0
 40
3.0
 40
3.0
 40
3.0
 40
4.0
 40
4.0
 40
4.0
 40
5.0
 40
5.0
 40
5.0
 40
6.0
 40
6.0
 40
6.0
 40
6.0
 10
60.2794708948965
 20
129.9463317546228
 30
0.0
 10
60.2794708948965
 20
130.4331668103822
 30
0.0
 10
60.67316994739681
 20
130.8282761988468
 30
0.0
 10
61.16000500315618
 20
130.8282761988468
 30
0.0
 10
61.16000500315618
 20
130.8282761988468
 30
0.0
 10
64.18048170392558
 20
130.8282761988468
 30
0.0
 10
64.18048170392558
 20
130.8282761988468
 30
0.0
 10
64.66731675968495
 20
130.8282761988468
 30
0.0
 10
65.0617263631291
 20
130.4331668103822
 30
0.0
 10
65.0617263631291
 20
129.9463317546228
 30
0.0
 10
65.0617263631291
 20
129.4630279217358
 30
0.0
 10
64.66731675968495
 20
129.0658084122865
 30
0.0
 10
64.18048170392558
 20
129.0658084122865
 30
0.0
 10
64.18048170392558
 20
129.0658084122865
 30
0.0
 10
61.16000500315618
 20
129.0658084122865
 30
0.0
 10
61.16000500315618
 20
129.0658084122865
 30
0.0
 10
60.67316994739681
 20
129.0658084122865
 30
0.0
 10
60.2794708948965
 20
129.4630279217358
 30
0.0
 10
60.2794708948965
 20
129.9463317546228
 30
0.0
  0
POLYLINE
  5
6B
330
41
100
AcDbEntity
  8
Capa 1
 62
   250
420
  1842203
370
     9
100
AcDb2dPolyline
 66
     1
 10
0.0
 20
0.0
 30
0.0
  0
VERTEX
  5
6C
330
6B
100
AcDbEntity
  8
Capa 1
 62
   250
420
  1842203
370
     9
100
AcDbVertex
100
AcDb2dVertex
 10
65.34253394294714
 20
132.7622020813385
 30
0.0
  0
VERTEX
  5
6D
330
6B
100
AcDbEntity
  8
Capa 1
 62
   250
420
  1842203
370
     9
100
AcDbVertex
100
AcDb2dVertex
 10
58.94313988801487
 20
132.7622020813385
 30
0.0
  0
VERTEX
  5
6E
330
6B
100
AcDbEntity
  8
Capa 1
 62
   250
420
  1842203
370
     9
100
AcDbVertex
100
AcDb2dVertex
 10
58.94313988801487
 20
139.6343063005407
 30
0.0
  0
VERTEX
  5
6F
330
6B
100
AcDbEntity
  8
Capa 1
 62
   250
420
  1842203
370
     9
100
AcDbVertex
100
AcDb2dVertex
 10
65.34253394294714
 20
139.6343063005407
 30
0.0
  0
VERTEX
  5
70
330
6B
100
AcDbEntity
  8
Capa 1
 62
   250
420
  1842203
370
     9
100
AcDbVertex
100
AcDb2dVertex
 10
65.34253394294714
 20
132.7622020813385
 30
0.0
  0
SEQEND
  5
71
330
6B
100
AcDbEntity
  8
Capa 1
 62
   250
420
  1842203
370
     9
  0
SPLINE
  5
72
330
41
100
AcDbEntity
  8
Capa 1
 62
   250
420
  1842203
370
     9
100
AcDbSpline
210
0.0
220
0.0
230
1.0
 70
    11
 71
     3
 72
    23
 73
    19
 74
     0
 42
0.0000000001
 43
0.0000000001
 12
1.0
 22
0.0
 32
0.0
 13
1.0
 23
0.0
 33
0.0
 40
0.0
 40
0.0
 40
0.0
 40
0.0
 40
1.0
 40
1.0
 40
1.0
 40
2.0
 40
2.0
 40
2.0
 40
3.0
 40
3.0
 40
3.0
 40
4.0
 40
4.0
 40
4.0
 40
5.0
 40
5.0
 40
5.0
 40
6.0
 40
6.0
 40
6.0
 40
6.0
 10
67.36606460582558
 20
122.9697980785241
 30
0.0
 10
67.36606460582558
 20
122.9697980785241
 30
0.0
 10
67.36606460582558
 20
124.455000274062
 30
0.0
 10
67.36606460582558
 20
124.455000274062
 30
0.0
 10
67.36606460582558
 20
124.455000274062
 30
0.0
 10
71.79695263233289
 20
124.455000274062
 30
0.0
 10
71.79695263233289
 20
124.455000274062
 30
0.0
 10
71.79695263233289
 20
124.455000274062
 30
0.0
 10
71.79554229636861
 20
125.3009650023119
 30
0.0
 10
71.79554229636861
 20
125.3009650023119
 30
0.0
 10
71.94441348502497
 20
125.0822229708453
 30
0.0
 10
72.1271542686707
 20
124.8903311523169
 30
0.0
 10
72.33741275250485
 20
124.7280456231149
 30
0.0
 10
72.33741275250485
 20
124.7280456231149
 30
0.0
 10
72.33952287348956
 20
122.9697980785241
 30
0.0
 10
72.33952287348956
 20
122.9697980785241
 30
0.0
 10
72.33952287348956
 20
122.9697980785241
 30
0.0
 10
67.36606460582558
 20
122.9697980785241
 30
0.0
 10
67.36606460582558
 20
122.9697980785241
 30
0.0
  0
SPLINE
  5
73
330
41
100
AcDbEntity
  8
Capa 1
 62
   250
420
  1842203
370
     9
100
AcDbSpline
210
0.0
220
0.0
230
1.0
 70
    11
 71
     3
 72
    23
 73
    19
 74
     0
 42
0.0000000001
 43
0.0000000001
 12
1.0
 22
0.0
 32
0.0
 13
1.0
 23
0.0
 33
0.0
 40
0.0
 40
0.0
 40
0.0
 40
0.0
 40
1.0
 40
1.0
 40
1.0
 40
2.0
 40
2.0
 40
2.0
 40
3.0
 40
3.0
 40
3.0
 40
4.0
 40
4.0
 40
4.0
 40
5.0
 40
5.0
 40
5.0
 40
6.0
 40
6.0
 40
6.0
 40
6.0
 10
69.68099651713922
 20
129.0664974313836
 30
0.0
 10
69.68099651713922
 20
129.0664974313836
 30
0.0
 10
68.5062404885158
 20
129.0658084122865
 30
0.0
 10
68.5062404885158
 20
129.0658084122865
 30
0.0
 10
68.01940543275644
 20
129.0658084122865
 30
0.0
 10
67.62570638025612
 20
129.4630279217358
 30
0.0
 10
67.62570638025612
 20
129.9463317546228
 30
0.0
 10
67.62570638025612
 20
130.4331668103822
 30
0.0
 10
68.01940543275644
 20
130.8282761988468
 30
0.0
 10
68.5062404885158
 20
130.8282761988468
 30
0.0
 10
68.5062404885158
 20
130.8282761988468
 30
0.0
 10
69.72191779194995
 20
130.8310968707753
 30
0.0
 10
69.72191779194995
 20
130.8310968707753
 30
0.0
 10
69.54552890310515
 20
130.5735759832529
 30
0.0
 10
69.43757898925953
 20
130.2645293863792
 30
0.0
 10
69.43757898925953
 20
129.9343385159648
 30
0.0
 10
69.43757898925953
 20
129.6140092313769
 30
0.0
 10
69.5250628827381
 20
129.316977405008
 30
0.0
 10
69.68099651713922
 20
129.0664974313836
 30
0.0
  0
SPLINE
  5
74
330
41
100
AcDbEntity
  8
Capa 1
 62
   250
420
  1842203
370
     9
100
AcDbSpline
210
0.0
220
0.0
230
1.0
 70
    11
 71
     3
 72
    32
 73
    28
 74
     0
 42
0.0000000001
 43
0.0000000001
 12
1.0
 22
0.0
 32
0.0
 13
1.0
 23
0.0
 33
0.0
 40
0.0
 40
0.0
 40
0.0
 40
0.0
 40
1.0
 40
1.0
 40
1.0
 40
2.0
 40
2.0
 40
2.0
 40
3.0
 40
3.0
 40
3.0
 40
4.0
 40
4.0
 40
4.0
 40
5.0
 40
5.0
 40
5.0
 40
6.0
 40
6.0
 40
6.0
 40
7.0
 40
7.0
 40
7.0
 40
8.0
 40
8.0
 40
8.0
 40
9.0
 40
9.0
 40
9.0
 40
9.0
 10
68.5062404885158
 20
127.0196800762095
 30
0.0
 10
68.5062404885158
 20
127.0196800762095
 30
0.0
 10
70.27083992790756
 20
127.0196800762095
 30
0.0
 10
70.27083992790756
 20
127.0196800762095
 30
0.0
 10
70.37878984175317
 20
127.0196800762095
 30
0.0
 10
70.48250874770598
 20
127.0013349427505
 30
0.0
 10
70.57704432100591
 20
126.9660657777203
 30
0.0
 10
70.57704432100591
 20
126.9660657777203
 30
0.0
 10
70.57704432100591
 20
126.165253332174
 30
0.0
 10
70.57704432100591
 20
126.165253332174
 30
0.0
 10
70.57704432100591
 20
126.165253332174
 30
0.0
 10
71.15137403616724
 20
126.1624326602454
 30
0.0
 10
71.15137403616724
 20
126.1624326602454
 30
0.0
 10
71.15137403616724
 20
126.1624326602454
 30
0.0
 10
71.15137403616724
 20
126.1405563039141
 30
0.0
 10
71.15137403616724
 20
126.1405563039141
 30
0.0
 10
71.15137403616724
 20
125.6523216781138
 30
0.0
 10
70.7569644327231
 20
125.2607435125216
 30
0.0
 10
70.27083992790756
 20
125.2607435125216
 30
0.0
 10
70.27083992790756
 20
125.2607435125216
 30
0.0
 10
68.5062404885158
 20
125.2607435125216
 30
0.0
 10
68.5062404885158
 20
125.2607435125216
 30
0.0
 10
68.01940543275644
 20
125.2607435125216
 30
0.0
 10
67.62570638025612
 20
125.6523216781138
 30
0.0
 10
67.62570638025612
 20
126.1405563039141
 30
0.0
 10
67.62570638025612
 20
126.6267023405764
 30
0.0
 10
68.01940543275644
 20
127.0196800762095
 30
0.0
 10
68.5062404885158
 20
127.0196800762095
 30
0.0
  0
SPLINE
  5
75
330
41
100
AcDbEntity
  8
Capa 1
 62
   250
420
  1842203
370
     9
100
AcDbSpline
210
0.0
220
0.0
230
1.0
 70
    11
 71
     3
 72
    23
 73
    19
 74
     0
 42
0.0000000001
 43
0.0000000001
 12
1.0
 22
0.0
 32
0.0
 13
1.0
 23
0.0
 33
0.0
 40
0.0
 40
0.0
 40
0.0
 40
0.0
 40
1.0
 40
1.0
 40
1.0
 40
2.0
 40
2.0
 40
2.0
 40
3.0
 40
3.0
 40
3.0
 40
4.0
 40
4.0
 40
4.0
 40
5.0
 40
5.0
 40
5.0
 40
6.0
 40
6.0
 40
6.0
 40
6.0
 10
80.18741809111852
 20
122.9697980785241
 30
0.0
 10
80.18741809111852
 20
122.9697980785241
 30
0.0
 10
75.21749104632693
 20
122.9697980785241
 30
0.0
 10
75.21749104632693
 20
122.9697980785241
 30
0.0
 10
75.21749104632693
 20
122.9697980785241
 30
0.0
 10
75.21749104632693
 20
124.7280456231149
 30
0.0
 10
75.21749104632693
 20
124.7280456231149
 30
0.0
 10
75.42773876423769
 20
124.8903311523169
 30
0.0
 10
75.61119009882724
 20
125.0822229708453
 30
0.0
 10
75.75865095151933
 20
125.3009650023119
 30
0.0
 10
75.75865095151933
 20
125.3009650023119
 30
0.0
 10
75.75865095151933
 20
124.455000274062
 30
0.0
 10
75.75865095151933
 20
124.455000274062
 30
0.0
 10
75.75865095151933
 20
124.455000274062
 30
0.0
 10
80.18741809111852
 20
124.455000274062
 30
0.0
 10
80.18741809111852
 20
124.455000274062
 30
0.0
 10
80.18741809111852
 20
124.455000274062
 30
0.0
 10
80.18741809111852
 20
122.9697980785241
 30
0.0
 10
80.18741809111852
 20
122.9697980785241
 30
0.0
  0
SPLINE
  5
76
330
41
100
AcDbEntity
  8
Capa 1
 62
   250
420
  1842203
370
     9
100
AcDbSpline
210
0.0
220
0.0
230
1.0
 70
    11
 71
     3
 72
    23
 73
    19
 74
     0
 42
0.0000000001
 43
0.0000000001
 12
1.0
 22
0.0
 32
0.0
 13
1.0
 23
0.0
 33
0.0
 40
0.0
 40
0.0
 40
0.0
 40
0.0
 40
1.0
 40
1.0
 40
1.0
 40
2.0
 40
2.0
 40
2.0
 40
3.0
 40
3.0
 40
3.0
 40
4.0
 40
4.0
 40
4.0
 40
5.0
 40
5.0
 40
5.0
 40
6.0
 40
6.0
 40
6.0
 40
6.0
 10
77.83086511997371
 20
130.8296973007344
 30
0.0
 10
77.83086511997371
 20
130.8296973007344
 30
0.0
 10
79.04654242340786
 20
130.8282761988468
 30
0.0
 10
79.04654242340786
 20
130.8282761988468
 30
0.0
 10
79.53336671324384
 20
130.8282761988468
 30
0.0
 10
79.92707653166754
 20
130.4331668103822
 30
0.0
 10
79.92707653166754
 20
129.9463317546228
 30
0.0
 10
79.92707653166754
 20
129.4630279217358
 30
0.0
 10
79.53336671324384
 20
129.0658084122865
 30
0.0
 10
79.04654242340786
 20
129.0658084122865
 30
0.0
 10
79.04654242340786
 20
129.0658084122865
 30
0.0
 10
77.871086609764
 20
129.0664974313836
 30
0.0
 10
77.871086609764
 20
129.0664974313836
 30
0.0
 10
78.02772002918556
 20
129.316977405008
 30
0.0
 10
78.11450413764369
 20
129.6140092313769
 30
0.0
 10
78.11450413764369
 20
129.9343385159648
 30
0.0
 10
78.11450413764369
 20
130.2645293863792
 30
0.0
 10
78.0072540088185
 20
130.5735759832529
 30
0.0
 10
77.83086511997371
 20
130.8296973007344
 30
0.0
  0
SPLINE
  5
77
330
41
100
AcDbEntity
  8
Capa 1
 62
   250
420
  1842203
370
     9
100
AcDbSpline
210
0.0
220
0.0
230
1.0
 70
    11
 71
     3
 72
    32
 73
    28
 74
     0
 42
0.0000000001
 43
0.0000000001
 12
1.0
 22
0.0
 32
0.0
 13
1.0
 23
0.0
 33
0.0
 40
0.0
 40
0.0
 40
0.0
 40
0.0
 40
1.0
 40
1.0
 40
1.0
 40
2.0
 40
2.0
 40
2.0
 40
3.0
 40
3.0
 40
3.0
 40
4.0
 40
4.0
 40
4.0
 40
5.0
 40
5.0
 40
5.0
 40
6.0
 40
6.0
 40
6.0
 40
7.0
 40
7.0
 40
7.0
 40
8.0
 40
8.0
 40
8.0
 40
9.0
 40
9.0
 40
9.0
 40
9.0
 10
79.04654242340786
 20
127.0196800762095
 30
0.0
 10
79.53336671324384
 20
127.0196800762095
 30
0.0
 10
79.92707653166754
 20
126.6267023405764
 30
0.0
 10
79.92707653166754
 20
126.1405563039141
 30
0.0
 10
79.92707653166754
 20
125.6523216781138
 30
0.0
 10
79.53336671324384
 20
125.2607435125216
 30
0.0
 10
79.04654242340786
 20
125.2607435125216
 30
0.0
 10
79.04654242340786
 20
125.2607435125216
 30
0.0
 10
77.28194298401611
 20
125.2607435125216
 30
0.0
 10
77.28194298401611
 20
125.2607435125216
 30
0.0
 10
76.79581847920058
 20
125.2607435125216
 30
0.0
 10
76.40140887575642
 20
125.6523216781138
 30
0.0
 10
76.40140887575642
 20
126.1405563039141
 30
0.0
 10
76.40140887575642
 20
126.1405563039141
 30
0.0
 10
76.40140887575642
 20
126.1624326602454
 30
0.0
 10
76.40140887575642
 20
126.1624326602454
 30
0.0
 10
76.40140887575642
 20
126.1624326602454
 30
0.0
 10
76.97431748903008
 20
126.165253332174
 30
0.0
 10
76.97431748903008
 20
126.165253332174
 30
0.0
 10
76.97431748903008
 20
126.165253332174
 30
0.0
 10
76.97431748903008
 20
126.9660657777203
 30
0.0
 10
76.97431748903008
 20
126.9660657777203
 30
0.0
 10
77.07098471516152
 20
127.0013349427505
 30
0.0
 10
77.17470362111432
 20
127.0196800762095
 30
0.0
 10
77.28194298401611
 20
127.0196800762095
 30
0.0
 10
77.28194298401611
 20
127.0196800762095
 30
0.0
 10
79.04654242340786
 20
127.0196800762095
 30
0.0
 10
79.04654242340786
 20
127.0196800762095
 30
0.0
  0
SPLINE
  5
78
330
41
100
AcDbEntity
  8
Capa 1
 62
   250
420
  1842203
370
     9
100
AcDbSpline
210
0.0
220
0.0
230
1.0
 70
    11
 71
     3
 72
    41
 73
    37
 74
     0
 42
0.0000000001
 43
0.0000000001
 12
1.0
 22
0.0
 32
0.0
 13
1.0
 23
0.0
 33
0.0
 40
0.0
 40
0.0
 40
0.0
 40
0.0
 40
1.0
 40
1.0
 40
1.0
 40
2.0
 40
2.0
 40
2.0
 40
3.0
 40
3.0
 40
3.0
 40
4.0
 40
4.0
 40
4.0
 40
5.0
 40
5.0
 40
5.0
 40
6.0
 40
6.0
 40
6.0
 40
7.0
 40
7.0
 40
7.0
 40
8.0
 40
8.0
 40
8.0
 40
9.0
 40
9.0
 40
9.0
 40
10.0
 40
10.0
 40
10.0
 40
11.0
 40
11.0
 40
11.0
 40
12.0
 40
12.0
 40
12.0
 40
12.0
 10
80.19165986493472
 20
132.7622020813385
 30
0.0
 10
80.19165986493472
 20
132.7622020813385
 30
0.0
 10
74.72148342383808
 20
132.7622020813385
 30
0.0
 10
74.72148342383808
 20
132.7622020813385
 30
0.0
 10
74.72148342383808
 20
132.7622020813385
 30
0.0
 10
74.72148342383808
 20
135.4934091865043
 30
0.0
 10
74.72148342383808
 20
135.4934091865043
 30
0.0
 10
74.72148342383808
 20
135.9520159911314
 30
0.0
 10
74.60718161519152
 20
136.0853627182573
 30
0.0
 10
74.20643088286984
 20
136.0853627182573
 30
0.0
 10
74.20643088286984
 20
136.0853627182573
 30
0.0
 10
73.77604156345161
 20
136.0853627182573
 30
0.0
 10
73.77604156345161
 20
136.0853627182573
 30
0.0
 10
73.77604156345161
 20
136.0853627182573
 30
0.0
 10
73.34706257999765
 20
136.0853627182573
 30
0.0
 10
73.34706257999765
 20
136.0853627182573
 30
0.0
 10
72.9448907457883
 20
136.0853627182573
 30
0.0
 10
72.83129948808558
 20
135.9520159911314
 30
0.0
 10
72.83129948808558
 20
135.4934091865043
 30
0.0
 10
72.83129948808558
 20
135.4934091865043
 30
0.0
 10
72.83129948808558
 20
132.7622020813385
 30
0.0
 10
72.83129948808558
 20
132.7622020813385
 30
0.0
 10
72.83129948808558
 20
132.7622020813385
 30
0.0
 10
67.36112304698894
 20
132.7622020813385
 30
0.0
 10
67.36112304698894
 20
132.7622020813385
 30
0.0
 10
67.36112304698894
 20
132.7622020813385
 30
0.0
 10
67.35901292600421
 20
139.6343063005407
 30
0.0
 10
67.35901292600421
 20
139.6343063005407
 30
0.0
 10
67.35901292600421
 20
139.6343063005407
 30
0.0
 10
73.77604156345161
 20
139.6343063005407
 30
0.0
 10
73.77604156345161
 20
139.6343063005407
 30
0.0
 10
73.77604156345161
 20
139.6343063005407
 30
0.0
 10
80.19376998591945
 20
139.6343063005407
 30
0.0
 10
80.19376998591945
 20
139.6343063005407
 30
0.0
 10
80.19376998591945
 20
139.6343063005407
 30
0.0
 10
80.19165986493472
 20
132.7622020813385
 30
0.0
 10
80.19165986493472
 20
132.7622020813385
 30
0.0
  0
POLYLINE
  5
79
330
41
100
AcDbEntity
  8
Capa 1
 62
   250
420
  1842203
370
     9
100
AcDb2dPolyline
 66
     1
 10
0.0
 20
0.0
 30
0.0
  0
VERTEX
  5
7A
330
79
100
AcDbEntity
  8
Capa 1
 62
   250
420
  1842203
370
     9
100
AcDbVertex
100
AcDb2dVertex
 10
88.60964302390879
 20
122.9697980785241
 30
0.0
  0
VERTEX
  5
7B
330
79
100
AcDbEntity
  8
Capa 1
 62
   250
420
  1842203
370
     9
100
AcDbVertex
100
AcDb2dVertex
 10
82.2137801918489
 20
122.9697980785241
 30
0.0
  0
VERTEX
  5
7C
330
79
100
AcDbEntity
  8
Capa 1
 62
   250
420
  1842203
370
     9
100
AcDbVertex
100
AcDb2dVertex
 10
82.2095384180327
 20
124.455000274062
 30
0.0
  0
VERTEX
  5
7D
330
79
100
AcDbEntity
  8
Capa 1
 62
   250
420
  1842203
370
     9
100
AcDbVertex
100
AcDb2dVertex
 10
87.94499797741696
 20
124.455000274062
 30
0.0
  0
VERTEX
  5
7E
330
79
100
AcDbEntity
  8
Capa 1
 62
   250
420
  1842203
370
     9
100
AcDbVertex
100
AcDb2dVertex
 10
87.94499797741696
 20
125.6607836938995
 30
0.0
  0
VERTEX
  5
7F
330
79
100
AcDbEntity
  8
Capa 1
 62
   250
420
  1842203
370
     9
100
AcDbVertex
100
AcDb2dVertex
 10
88.60964302390879
 20
125.6607836938995
 30
0.0
  0
VERTEX
  5
80
330
79
100
AcDbEntity
  8
Capa 1
 62
   250
420
  1842203
370
     9
100
AcDbVertex
100
AcDb2dVertex
 10
88.60964302390879
 20
122.9697980785241
 30
0.0
  0
SEQEND
  5
81
330
79
100
AcDbEntity
  8
Capa 1
 62
   250
420
  1842203
370
     9
  0
SPLINE
  5
82
330
41
100
AcDbEntity
  8
Capa 1
 62
   250
420
  1842203
370
     9
100
AcDbSpline
210
0.0
220
0.0
230
1.0
 70
    11
 71
     3
 72
    23
 73
    19
 74
     0
 42
0.0000000001
 43
0.0000000001
 12
1.0
 22
0.0
 32
0.0
 13
1.0
 23
0.0
 33
0.0
 40
0.0
 40
0.0
 40
0.0
 40
0.0
 40
1.0
 40
1.0
 40
1.0
 40
2.0
 40
2.0
 40
2.0
 40
3.0
 40
3.0
 40
3.0
 40
4.0
 40
4.0
 40
4.0
 40
5.0
 40
5.0
 40
5.0
 40
6.0
 40
6.0
 40
6.0
 40
6.0
 10
83.37230120799808
 20
127.0196800762095
 30
0.0
 10
83.37230120799808
 20
127.0196800762095
 30
0.0
 10
86.39277790876748
 20
127.0196800762095
 30
0.0
 10
86.39277790876748
 20
127.0196800762095
 30
0.0
 10
86.88031274954729
 20
127.0196800762095
 30
0.0
 10
87.27331201702717
 20
126.6267023405764
 30
0.0
 10
87.27331201702717
 20
126.1405563039141
 30
0.0
 10
87.27331201702717
 20
125.6523216781138
 30
0.0
 10
86.88031274954729
 20
125.2607435125216
 30
0.0
 10
86.39277790876748
 20
125.2607435125216
 30
0.0
 10
86.39277790876748
 20
125.2607435125216
 30
0.0
 10
83.37230120799808
 20
125.2607435125216
 30
0.0
 10
83.37230120799808
 20
125.2607435125216
 30
0.0
 10
82.88616593725915
 20
125.2607435125216
 30
0.0
 10
82.49105654879456
 20
125.6523216781138
 30
0.0
 10
82.49105654879456
 20
126.1405563039141
 30
0.0
 10
82.49105654879456
 20
126.6267023405764
 30
0.0
 10
82.88616593725915
 20
127.0196800762095
 30
0.0
 10
83.37230120799808
 20
127.0196800762095
 30
0.0
  0
SPLINE
  5
83
330
41
100
AcDbEntity
  8
Capa 1
 62
   250
420
  1842203
370
     9
100
AcDbSpline
210
0.0
220
0.0
230
1.0
 70
    11
 71
     3
 72
    23
 73
    19
 74
     0
 42
0.0000000001
 43
0.0000000001
 12
1.0
 22
0.0
 32
0.0
 13
1.0
 23
0.0
 33
0.0
 40
0.0
 40
0.0
 40
0.0
 40
0.0
 40
1.0
 40
1.0
 40
1.0
 40
2.0
 40
2.0
 40
2.0
 40
3.0
 40
3.0
 40
3.0
 40
4.0
 40
4.0
 40
4.0
 40
5.0
 40
5.0
 40
5.0
 40
6.0
 40
6.0
 40
6.0
 40
6.0
 10
82.49105654879456
 20
129.9463317546228
 30
0.0
 10
82.49105654879456
 20
130.4331668103822
 30
0.0
 10
82.88616593725915
 20
130.8282761988468
 30
0.0
 10
83.37230120799808
 20
130.8282761988468
 30
0.0
 10
83.37230120799808
 20
130.8282761988468
 30
0.0
 10
86.39277790876748
 20
130.8282761988468
 30
0.0
 10
86.39277790876748
 20
130.8282761988468
 30
0.0
 10
86.88031274954729
 20
130.8282761988468
 30
0.0
 10
87.27331201702717
 20
130.4331668103822
 30
0.0
 10
87.27331201702717
 20
129.9463317546228
 30
0.0
 10
87.27331201702717
 20
129.4630279217358
 30
0.0
 10
86.88031274954729
 20
129.0658084122865
 30
0.0
 10
86.39277790876748
 20
129.0658084122865
 30
0.0
 10
86.39277790876748
 20
129.0658084122865
 30
0.0
 10
83.37230120799808
 20
129.0658084122865
 30
0.0
 10
83.37230120799808
 20
129.0658084122865
 30
0.0
 10
82.88616593725915
 20
129.0658084122865
 30
0.0
 10
82.49105654879456
 20
129.4630279217358
 30
0.0
 10
82.49105654879456
 20
129.9463317546228
 30
0.0
  0
POLYLINE
  5
84
330
41
100
AcDbEntity
  8
Capa 1
 62
   250
420
  1842203
370
     9
100
AcDb2dPolyline
 66
     1
 10
0.0
 20
0.0
 30
0.0
  0
VERTEX
  5
85
330
84
100
AcDbEntity
  8
Capa 1
 62
   250
420
  1842203
370
     9
100
AcDbVertex
100
AcDb2dVertex
 10
88.60964302390879
 20
132.7622020813385
 30
0.0
  0
VERTEX
  5
86
330
84
100
AcDbEntity
  8
Capa 1
 62
   250
420
  1842203
370
     9
100
AcDbVertex
100
AcDb2dVertex
 10
82.2137801918489
 20
132.7622020813385
 30
0.0
  0
VERTEX
  5
87
330
84
100
AcDbEntity
  8
Capa 1
 62
   250
420
  1842203
370
     9
100
AcDbVertex
100
AcDb2dVertex
 10
82.2137801918489
 20
139.6343063005407
 30
0.0
  0
VERTEX
  5
88
330
84
100
AcDbEntity
  8
Capa 1
 62
   250
420
  1842203
370
     9
100
AcDbVertex
100
AcDb2dVertex
 10
88.60964302390879
 20
139.6343063005407
 30
0.0
  0
VERTEX
  5
89
330
84
100
AcDbEntity
  8
Capa 1
 62
   250
420
  1842203
370
     9
100
AcDbVertex
100
AcDb2dVertex
 10
88.60964302390879
 20
132.7622020813385
 30
0.0
  0
SEQEND
  5
8A
330
84
100
AcDbEntity
  8
Capa 1
 62
   250
420
  1842203
370
     9
  0
SPLINE
  5
8B
330
41
100
AcDbEntity
  8
Capa 1
 62
   250
420
  1842203
370
     9
100
AcDbSpline
210
0.0
220
0.0
230
1.0
 70
    11
 71
     3
 72
    53
 73
    49
 74
     0
 42
0.0000000001
 43
0.0000000001
 12
1.0
 22
0.0
 32
0.0
 13
1.0
 23
0.0
 33
0.0
 40
0.0
 40
0.0
 40
0.0
 40
0.0
 40
1.0
 40
1.0
 40
1.0
 40
2.0
 40
2.0
 40
2.0
 40
3.0
 40
3.0
 40
3.0
 40
4.0
 40
4.0
 40
4.0
 40
5.0
 40
5.0
 40
5.0
 40
6.0
 40
6.0
 40
6.0
 40
7.0
 40
7.0
 40
7.0
 40
8.0
 40
8.0
 40
8.0
 40
9.0
 40
9.0
 40
9.0
 40
10.0
 40
10.0
 40
10.0
 40
11.0
 40
11.0
 40
11.0
 40
12.0
 40
12.0
 40
12.0
 40
13.0
 40
13.0
 40
13.0
 40
14.0
 40
14.0
 40
14.0
 40
15.0
 40
15.0
 40
15.0
 40
16.0
 40
16.0
 40
16.0
 40
16.0
 10
88.60964302390879
 20
142.9793648256375
 30
0.0
 10
88.60964302390879
 20
142.9793648256375
 30
0.0
 10
73.77604156345161
 20
142.9793648256375
 30
0.0
 10
73.77604156345161
 20
142.9793648256375
 30
0.0
 10
73.77604156345161
 20
142.9793648256375
 30
0.0
 10
58.94313988801487
 20
142.9793648256375
 30
0.0
 10
58.94313988801487
 20
142.9793648256375
 30
0.0
 10
58.94313988801487
 20
142.9793648256375
 30
0.0
 10
58.94313988801487
 20
190.1189293280128
 30
0.0
 10
58.94313988801487
 20
190.1189293280128
 30
0.0
 10
58.94313988801487
 20
190.1189293280128
 30
0.0
 10
60.42693174758858
 20
191.6048420744946
 30
0.0
 10
60.42693174758858
 20
191.6048420744946
 30
0.0
 10
60.42693174758858
 20
191.6048420744946
 30
0.0
 10
62.09838441779789
 20
191.6048420744946
 30
0.0
 10
62.09838441779789
 20
191.6048420744946
 30
0.0
 10
62.59510259123057
 20
191.6048420744946
 30
0.0
 10
62.77854315989673
 20
191.7868723071965
 30
0.0
 10
62.77854315989673
 20
192.2990934103128
 30
0.0
 10
62.77854315989673
 20
192.7308930656953
 30
0.0
 10
62.77784337487629
 20
193.9599739437518
 30
0.0
 10
62.77784337487629
 20
193.9599739437518
 30
0.0
 10
62.77784337487629
 20
193.9599739437518
 30
0.0
 10
62.86109626046203
 20
194.0439481462047
 30
0.0
 10
62.86109626046203
 20
194.0439481462047
 30
0.0
 10
62.86109626046203
 20
194.0439481462047
 30
0.0
 10
73.77604156345161
 20
194.0432375952609
 30
0.0
 10
73.77604156345161
 20
194.0432375952609
 30
0.0
 10
73.77604156345161
 20
194.0432375952609
 30
0.0
 10
84.69168665146164
 20
194.0439481462047
 30
0.0
 10
84.69168665146164
 20
194.0439481462047
 30
0.0
 10
84.69168665146164
 20
194.0439481462047
 30
0.0
 10
84.77493953704737
 20
193.9599739437518
 30
0.0
 10
84.77493953704737
 20
193.9599739437518
 30
0.0
 10
84.77493953704737
 20
193.9599739437518
 30
0.0
 10
84.77423975202693
 20
192.7308930656953
 30
0.0
 10
84.77423975202693
 20
192.2990934103128
 30
0.0
 10
84.77423975202693
 20
191.7868723071965
 30
0.0
 10
84.95698053567266
 20
191.6048420744946
 30
0.0
 10
85.45509827914621
 20
191.6048420744946
 30
0.0
 10
85.45509827914621
 20
191.6048420744946
 30
0.0
 10
87.12584039841168
 20
191.6048420744946
 30
0.0
 10
87.12584039841168
 20
191.6048420744946
 30
0.0
 10
87.12584039841168
 20
191.6048420744946
 30
0.0
 10
88.60964302390879
 20
190.1189293280128
 30
0.0
 10
88.60964302390879
 20
190.1189293280128
 30
0.0
 10
88.60964302390879
 20
190.1189293280128
 30
0.0
 10
88.60964302390879
 20
142.9793648256375
 30
0.0
 10
88.60964302390879
 20
142.9793648256375
 30
0.0
  0
POLYLINE
  5
8C
330
41
100
AcDbEntity
  8
Capa 1
370
     0
100
AcDb2dPolyline
 66
     1
 10
0.0
 20
0.0
 30
0.0
  0
VERTEX
  5
8D
330
8C
100
AcDbEntity
  8
Capa 1
370
     0
100
AcDbVertex
100
AcDb2dVertex
 10
73.77604156345161
 20
196.1507316946689
 30
0.0
  0
VERTEX
  5
8E
330
8C
100
AcDbEntity
  8
Capa 1
370
     0
100
AcDbVertex
100
AcDb2dVertex
 10
57.06142873397141
 20
196.1507316946689
 30
0.0
  0
VERTEX
  5
8F
330
8C
100
AcDbEntity
  8
Capa 1
370
     0
100
AcDbVertex
100
AcDb2dVertex
 10
57.06142873397141
 20
120.8531314123865
 30
0.0
  0
VERTEX
  5
90
330
8C
100
AcDbEntity
  8
Capa 1
370
     0
100
AcDbVertex
100
AcDb2dVertex
 10
57.31189794167246
 20
120.8531314123865
 30
0.0
  0
VERTEX
  5
91
330
8C
100
AcDbEntity
  8
Capa 1
370
     0
100
AcDbVertex
100
AcDb2dVertex
 10
57.31824983647339
 20
118.6221737035259
 30
0.0
  0
VERTEX
  5
92
330
8C
100
AcDbEntity
  8
Capa 1
370
     0
100
AcDbVertex
100
AcDb2dVertex
 10
63.33169630374716
 20
118.6221737035259
 30
0.0
  0
VERTEX
  5
93
330
8C
100
AcDbEntity
  8
Capa 1
370
     0
100
AcDbVertex
100
AcDb2dVertex
 10
63.33169630374716
 20
119.1922508789476
 30
0.0
  0
VERTEX
  5
94
330
8C
100
AcDbEntity
  8
Capa 1
370
     0
100
AcDbVertex
100
AcDb2dVertex
 10
58.85706633050058
 20
119.1922508789476
 30
0.0
  0
VERTEX
  5
95
330
8C
100
AcDbEntity
  8
Capa 1
370
     0
100
AcDbVertex
100
AcDb2dVertex
 10
58.85565599453631
 20
120.8531314123865
 30
0.0
  0
VERTEX
  5
96
330
8C
100
AcDbEntity
  8
Capa 1
370
     0
100
AcDbVertex
100
AcDb2dVertex
 10
72.06718807538056
 20
120.8531314123865
 30
0.0
  0
VERTEX
  5
97
330
8C
100
AcDbEntity
  8
Capa 1
370
     0
100
AcDbVertex
100
AcDb2dVertex
 10
72.06718807538056
 20
116.5633631096938
 30
0.0
  0
VERTEX
  5
98
330
8C
100
AcDbEntity
  8
Capa 1
370
     0
100
AcDbVertex
100
AcDb2dVertex
 10
72.40585172750401
 20
116.091341964521
 30
0.0
  0
VERTEX
  5
99
330
8C
100
AcDbEntity
  8
Capa 1
370
     0
100
AcDbVertex
100
AcDb2dVertex
 10
73.77604156345161
 20
116.091341964521
 30
0.0
  0
VERTEX
  5
9A
330
8C
100
AcDbEntity
  8
Capa 1
370
     0
100
AcDbVertex
100
AcDb2dVertex
 10
75.14693118441966
 20
116.091341964521
 30
0.0
  0
VERTEX
  5
9B
330
8C
100
AcDbEntity
  8
Capa 1
370
     0
100
AcDbVertex
100
AcDb2dVertex
 10
75.4855948365431
 20
116.5633631096938
 30
0.0
  0
VERTEX
  5
9C
330
8C
100
AcDbEntity
  8
Capa 1
370
     0
100
AcDbVertex
100
AcDb2dVertex
 10
75.4855948365431
 20
120.8531314123865
 30
0.0
  0
VERTEX
  5
9D
330
8C
100
AcDbEntity
  8
Capa 1
370
     0
100
AcDbVertex
100
AcDb2dVertex
 10
88.69783746833119
 20
120.8531314123865
 30
0.0
  0
VERTEX
  5
9E
330
8C
100
AcDbEntity
  8
Capa 1
370
     0
100
AcDbVertex
100
AcDb2dVertex
 10
88.6957058154997
 20
119.1922508789476
 30
0.0
  0
VERTEX
  5
9F
330
8C
100
AcDbEntity
  8
Capa 1
370
     0
100
AcDbVertex
100
AcDb2dVertex
 10
84.22178639319695
 20
119.1922508789476
 30
0.0
  0
VERTEX
  5
A0
330
8C
100
AcDbEntity
  8
Capa 1
370
     0
100
AcDbVertex
100
AcDb2dVertex
 10
84.22178639319695
 20
118.6221737035259
 30
0.0
  0
VERTEX
  5
A1
330
8C
100
AcDbEntity
  8
Capa 1
370
     0
100
AcDbVertex
100
AcDb2dVertex
 10
90.23523286047072
 20
118.6221737035259
 30
0.0
  0
VERTEX
  5
A2
330
8C
100
AcDbEntity
  8
Capa 1
370
     0
100
AcDbVertex
100
AcDb2dVertex
 10
90.24158475527165
 20
120.8531314123865
 30
0.0
  0
VERTEX
  5
A3
330
8C
100
AcDbEntity
  8
Capa 1
370
     0
100
AcDbVertex
100
AcDb2dVertex
 10
90.49206472889608
 20
120.8531314123865
 30
0.0
  0
VERTEX
  5
A4
330
8C
100
AcDbEntity
  8
Capa 1
370
     0
100
AcDbVertex
100
AcDb2dVertex
 10
90.49206472889608
 20
196.1507316946689
 30
0.0
  0
VERTEX
  5
A5
330
8C
100
AcDbEntity
  8
Capa 1
370
     0
100
AcDbVertex
100
AcDb2dVertex
 10
73.77604156345161
 20
196.1507316946689
 30
0.0
  0
SEQEND
  5
A6
330
8C
100
AcDbEntity
  8
Capa 1
370
     0
  0
POLYLINE
  5
A7
330
41
100
AcDbEntity
  8
Capa 1
370
     0
100
AcDb2dPolyline
 66
     1
 10
0.0
 20
0.0
 30
0.0
  0
VERTEX
  5
A8
330
A7
100
AcDbEntity
  8
Capa 1
370
     0
100
AcDbVertex
100
AcDb2dVertex
 10
65.34253394294714
 20
122.9697980785241
 30
0.0
  0
VERTEX
  5
A9
330
A7
100
AcDbEntity
  8
Capa 1
370
     0
100
AcDbVertex
100
AcDb2dVertex
 10
58.94313988801487
 20
122.9697980785241
 30
0.0
  0
VERTEX
  5
AA
330
A7
100
AcDbEntity
  8
Capa 1
370
     0
100
AcDbVertex
100
AcDb2dVertex
 10
58.94313988801487
 20
125.6607836938995
 30
0.0
  0
VERTEX
  5
AB
330
A7
100
AcDbEntity
  8
Capa 1
370
     0
100
AcDbVertex
100
AcDb2dVertex
 10
59.59931215279766
 20
125.6607836938995
 30
0.0
  0
VERTEX
  5
AC
330
A7
100
AcDbEntity
  8
Capa 1
370
     0
100
AcDbVertex
100
AcDb2dVertex
 10
59.59931215279766
 20
124.455000274062
 30
0.0
  0
VERTEX
  5
AD
330
A7
100
AcDbEntity
  8
Capa 1
370
     0
100
AcDbVertex
100
AcDb2dVertex
 10
65.34253394294714
 20
124.455000274062
 30
0.0
  0
VERTEX
  5
AE
330
A7
100
AcDbEntity
  8
Capa 1
370
     0
100
AcDbVertex
100
AcDb2dVertex
 10
65.34253394294714
 20
122.9697980785241
 30
0.0
  0
SEQEND
  5
AF
330
A7
100
AcDbEntity
  8
Capa 1
370
     0
  0
SPLINE
  5
B0
330
41
100
AcDbEntity
  8
Capa 1
370
     0
100
AcDbSpline
210
0.0
220
0.0
230
1.0
 70
    11
 71
     3
 72
    23
 73
    19
 74
     0
 42
0.0000000001
 43
0.0000000001
 12
1.0
 22
0.0
 32
0.0
 13
1.0
 23
0.0
 33
0.0
 40
0.0
 40
0.0
 40
0.0
 40
0.0
 40
1.0
 40
1.0
 40
1.0
 40
2.0
 40
2.0
 40
2.0
 40
3.0
 40
3.0
 40
3.0
 40
4.0
 40
4.0
 40
4.0
 40
5.0
 40
5.0
 40
5.0
 40
6.0
 40
6.0
 40
6.0
 40
6.0
 10
61.16000500315618
 20
127.0196800762095
 30
0.0
 10
61.16000500315618
 20
127.0196800762095
 30
0.0
 10
64.18048170392558
 20
127.0196800762095
 30
0.0
 10
64.18048170392558
 20
127.0196800762095
 30
0.0
 10
64.66731675968495
 20
127.0196800762095
 30
0.0
 10
65.0617263631291
 20
126.6267023405764
 30
0.0
 10
65.0617263631291
 20
126.1405563039141
 30
0.0
 10
65.0617263631291
 20
125.6523216781138
 30
0.0
 10
64.66731675968495
 20
125.2607435125216
 30
0.0
 10
64.18048170392558
 20
125.2607435125216
 30
0.0
 10
64.18048170392558
 20
125.2607435125216
 30
0.0
 10
61.16000500315618
 20
125.2607435125216
 30
0.0
 10
61.16000500315618
 20
125.2607435125216
 30
0.0
 10
60.67316994739681
 20
125.2607435125216
 30
0.0
 10
60.2794708948965
 20
125.6523216781138
 30
0.0
 10
60.2794708948965
 20
126.1405563039141
 30
0.0
 10
60.2794708948965
 20
126.6267023405764
 30
0.0
 10
60.67316994739681
 20
127.0196800762095
 30
0.0
 10
61.16000500315618
 20
127.0196800762095
 30
0.0
  0
SPLINE
  5
B1
330
41
100
AcDbEntity
  8
Capa 1
370
     0
100
AcDbSpline
210
0.0
220
0.0
230
1.0
 70
    11
 71
     3
 72
    23
 73
    19
 74
     0
 42
0.0000000001
 43
0.0000000001
 12
1.0
 22
0.0
 32
0.0
 13
1.0
 23
0.0
 33
0.0
 40
0.0
 40
0.0
 40
0.0
 40
0.0
 40
1.0
 40
1.0
 40
1.0
 40
2.0
 40
2.0
 40
2.0
 40
3.0
 40
3.0
 40
3.0
 40
4.0
 40
4.0
 40
4.0
 40
5.0
 40
5.0
 40
5.0
 40
6.0
 40
6.0
 40
6.0
 40
6.0
 10
60.2794708948965
 20
129.9463317546228
 30
0.0
 10
60.2794708948965
 20
130.4331668103822
 30
0.0
 10
60.67316994739681
 20
130.8282761988468
 30
0.0
 10
61.16000500315618
 20
130.8282761988468
 30
0.0
 10
61.16000500315618
 20
130.8282761988468
 30
0.0
 10
64.18048170392558
 20
130.8282761988468
 30
0.0
 10
64.18048170392558
 20
130.8282761988468
 30
0.0
 10
64.66731675968495
 20
130.8282761988468
 30
0.0
 10
65.0617263631291
 20
130.4331668103822
 30
0.0
 10
65.0617263631291
 20
129.9463317546228
 30
0.0
 10
65.0617263631291
 20
129.4630279217358
 30
0.0
 10
64.66731675968495
 20
129.0658084122865
 30
0.0
 10
64.18048170392558
 20
129.0658084122865
 30
0.0
 10
64.18048170392558
 20
129.0658084122865
 30
0.0
 10
61.16000500315618
 20
129.0658084122865
 30
0.0
 10
61.16000500315618
 20
129.0658084122865
 30
0.0
 10
60.67316994739681
 20
129.0658084122865
 30
0.0
 10
60.2794708948965
 20
129.4630279217358
 30
0.0
 10
60.2794708948965
 20
129.9463317546228
 30
0.0
  0
POLYLINE
  5
B2
330
41
100
AcDbEntity
  8
Capa 1
370
     0
100
AcDb2dPolyline
 66
     1
 10
0.0
 20
0.0
 30
0.0
  0
VERTEX
  5
B3
330
B2
100
AcDbEntity
  8
Capa 1
370
     0
100
AcDbVertex
100
AcDb2dVertex
 10
65.34253394294714
 20
132.7622020813385
 30
0.0
  0
VERTEX
  5
B4
330
B2
100
AcDbEntity
  8
Capa 1
370
     0
100
AcDbVertex
100
AcDb2dVertex
 10
58.94313988801487
 20
132.7622020813385
 30
0.0
  0
VERTEX
  5
B5
330
B2
100
AcDbEntity
  8
Capa 1
370
     0
100
AcDbVertex
100
AcDb2dVertex
 10
58.94313988801487
 20
139.6343063005407
 30
0.0
  0
VERTEX
  5
B6
330
B2
100
AcDbEntity
  8
Capa 1
370
     0
100
AcDbVertex
100
AcDb2dVertex
 10
65.34253394294714
 20
139.6343063005407
 30
0.0
  0
VERTEX
  5
B7
330
B2
100
AcDbEntity
  8
Capa 1
370
     0
100
AcDbVertex
100
AcDb2dVertex
 10
65.34253394294714
 20
132.7622020813385
 30
0.0
  0
SEQEND
  5
B8
330
B2
100
AcDbEntity
  8
Capa 1
370
     0
  0
SPLINE
  5
B9
330
41
100
AcDbEntity
  8
Capa 1
370
     0
100
AcDbSpline
210
0.0
220
0.0
230
1.0
 70
    11
 71
     3
 72
    23
 73
    19
 74
     0
 42
0.0000000001
 43
0.0000000001
 12
1.0
 22
0.0
 32
0.0
 13
1.0
 23
0.0
 33
0.0
 40
0.0
 40
0.0
 40
0.0
 40
0.0
 40
1.0
 40
1.0
 40
1.0
 40
2.0
 40
2.0
 40
2.0
 40
3.0
 40
3.0
 40
3.0
 40
4.0
 40
4.0
 40
4.0
 40
5.0
 40
5.0
 40
5.0
 40
6.0
 40
6.0
 40
6.0
 40
6.0
 10
67.36606460582558
 20
122.9697980785241
 30
0.0
 10
67.36606460582558
 20
122.9697980785241
 30
0.0
 10
67.36606460582558
 20
124.455000274062
 30
0.0
 10
67.36606460582558
 20
124.455000274062
 30
0.0
 10
67.36606460582558
 20
124.455000274062
 30
0.0
 10
71.79695263233289
 20
124.455000274062
 30
0.0
 10
71.79695263233289
 20
124.455000274062
 30
0.0
 10
71.79695263233289
 20
124.455000274062
 30
0.0
 10
71.79554229636861
 20
125.3009650023119
 30
0.0
 10
71.79554229636861
 20
125.3009650023119
 30
0.0
 10
71.94441348502497
 20
125.0822229708453
 30
0.0
 10
72.1271542686707
 20
124.8903311523169
 30
0.0
 10
72.33741275250485
 20
124.7280456231149
 30
0.0
 10
72.33741275250485
 20
124.7280456231149
 30
0.0
 10
72.33952287348956
 20
122.9697980785241
 30
0.0
 10
72.33952287348956
 20
122.9697980785241
 30
0.0
 10
72.33952287348956
 20
122.9697980785241
 30
0.0
 10
67.36606460582558
 20
122.9697980785241
 30
0.0
 10
67.36606460582558
 20
122.9697980785241
 30
0.0
  0
SPLINE
  5
BA
330
41
100
AcDbEntity
  8
Capa 1
370
     0
100
AcDbSpline
210
0.0
220
0.0
230
1.0
 70
    11
 71
     3
 72
    23
 73
    19
 74
     0
 42
0.0000000001
 43
0.0000000001
 12
1.0
 22
0.0
 32
0.0
 13
1.0
 23
0.0
 33
0.0
 40
0.0
 40
0.0
 40
0.0
 40
0.0
 40
1.0
 40
1.0
 40
1.0
 40
2.0
 40
2.0
 40
2.0
 40
3.0
 40
3.0
 40
3.0
 40
4.0
 40
4.0
 40
4.0
 40
5.0
 40
5.0
 40
5.0
 40
6.0
 40
6.0
 40
6.0
 40
6.0
 10
69.68099651713922
 20
129.0664974313836
 30
0.0
 10
69.68099651713922
 20
129.0664974313836
 30
0.0
 10
68.5062404885158
 20
129.0658084122865
 30
0.0
 10
68.5062404885158
 20
129.0658084122865
 30
0.0
 10
68.01940543275644
 20
129.0658084122865
 30
0.0
 10
67.62570638025612
 20
129.4630279217358
 30
0.0
 10
67.62570638025612
 20
129.9463317546228
 30
0.0
 10
67.62570638025612
 20
130.4331668103822
 30
0.0
 10
68.01940543275644
 20
130.8282761988468
 30
0.0
 10
68.5062404885158
 20
130.8282761988468
 30
0.0
 10
68.5062404885158
 20
130.8282761988468
 30
0.0
 10
69.72191779194995
 20
130.8310968707753
 30
0.0
 10
69.72191779194995
 20
130.8310968707753
 30
0.0
 10
69.54552890310515
 20
130.5735759832529
 30
0.0
 10
69.43757898925953
 20
130.2645293863792
 30
0.0
 10
69.43757898925953
 20
129.9343385159648
 30
0.0
 10
69.43757898925953
 20
129.6140092313769
 30
0.0
 10
69.5250628827381
 20
129.316977405008
 30
0.0
 10
69.68099651713922
 20
129.0664974313836
 30
0.0
  0
SPLINE
  5
BB
330
41
100
AcDbEntity
  8
Capa 1
370
     0
100
AcDbSpline
210
0.0
220
0.0
230
1.0
 70
    11
 71
     3
 72
    32
 73
    28
 74
     0
 42
0.0000000001
 43
0.0000000001
 12
1.0
 22
0.0
 32
0.0
 13
1.0
 23
0.0
 33
0.0
 40
0.0
 40
0.0
 40
0.0
 40
0.0
 40
1.0
 40
1.0
 40
1.0
 40
2.0
 40
2.0
 40
2.0
 40
3.0
 40
3.0
 40
3.0
 40
4.0
 40
4.0
 40
4.0
 40
5.0
 40
5.0
 40
5.0
 40
6.0
 40
6.0
 40
6.0
 40
7.0
 40
7.0
 40
7.0
 40
8.0
 40
8.0
 40
8.0
 40
9.0
 40
9.0
 40
9.0
 40
9.0
 10
68.5062404885158
 20
127.0196800762095
 30
0.0
 10
68.5062404885158
 20
127.0196800762095
 30
0.0
 10
70.27083992790756
 20
127.0196800762095
 30
0.0
 10
70.27083992790756
 20
127.0196800762095
 30
0.0
 10
70.37878984175317
 20
127.0196800762095
 30
0.0
 10
70.48250874770598
 20
127.0013349427505
 30
0.0
 10
70.57704432100591
 20
126.9660657777203
 30
0.0
 10
70.57704432100591
 20
126.9660657777203
 30
0.0
 10
70.57704432100591
 20
126.165253332174
 30
0.0
 10
70.57704432100591
 20
126.165253332174
 30
0.0
 10
70.57704432100591
 20
126.165253332174
 30
0.0
 10
71.15137403616724
 20
126.1624326602454
 30
0.0
 10
71.15137403616724
 20
126.1624326602454
 30
0.0
 10
71.15137403616724
 20
126.1624326602454
 30
0.0
 10
71.15137403616724
 20
126.1405563039141
 30
0.0
 10
71.15137403616724
 20
126.1405563039141
 30
0.0
 10
71.15137403616724
 20
125.6523216781138
 30
0.0
 10
70.7569644327231
 20
125.2607435125216
 30
0.0
 10
70.27083992790756
 20
125.2607435125216
 30
0.0
 10
70.27083992790756
 20
125.2607435125216
 30
0.0
 10
68.5062404885158
 20
125.2607435125216
 30
0.0
 10
68.5062404885158
 20
125.2607435125216
 30
0.0
 10
68.01940543275644
 20
125.2607435125216
 30
0.0
 10
67.62570638025612
 20
125.6523216781138
 30
0.0
 10
67.62570638025612
 20
126.1405563039141
 30
0.0
 10
67.62570638025612
 20
126.6267023405764
 30
0.0
 10
68.01940543275644
 20
127.0196800762095
 30
0.0
 10
68.5062404885158
 20
127.0196800762095
 30
0.0
  0
SPLINE
  5
BC
330
41
100
AcDbEntity
  8
Capa 1
370
     0
100
AcDbSpline
210
0.0
220
0.0
230
1.0
 70
    11
 71
     3
 72
    23
 73
    19
 74
     0
 42
0.0000000001
 43
0.0000000001
 12
1.0
 22
0.0
 32
0.0
 13
1.0
 23
0.0
 33
0.0
 40
0.0
 40
0.0
 40
0.0
 40
0.0
 40
1.0
 40
1.0
 40
1.0
 40
2.0
 40
2.0
 40
2.0
 40
3.0
 40
3.0
 40
3.0
 40
4.0
 40
4.0
 40
4.0
 40
5.0
 40
5.0
 40
5.0
 40
6.0
 40
6.0
 40
6.0
 40
6.0
 10
80.18741809111852
 20
122.9697980785241
 30
0.0
 10
80.18741809111852
 20
122.9697980785241
 30
0.0
 10
75.21749104632693
 20
122.9697980785241
 30
0.0
 10
75.21749104632693
 20
122.9697980785241
 30
0.0
 10
75.21749104632693
 20
122.9697980785241
 30
0.0
 10
75.21749104632693
 20
124.7280456231149
 30
0.0
 10
75.21749104632693
 20
124.7280456231149
 30
0.0
 10
75.42773876423769
 20
124.8903311523169
 30
0.0
 10
75.61119009882724
 20
125.0822229708453
 30
0.0
 10
75.75865095151933
 20
125.3009650023119
 30
0.0
 10
75.75865095151933
 20
125.3009650023119
 30
0.0
 10
75.75865095151933
 20
124.455000274062
 30
0.0
 10
75.75865095151933
 20
124.455000274062
 30
0.0
 10
75.75865095151933
 20
124.455000274062
 30
0.0
 10
80.18741809111852
 20
124.455000274062
 30
0.0
 10
80.18741809111852
 20
124.455000274062
 30
0.0
 10
80.18741809111852
 20
124.455000274062
 30
0.0
 10
80.18741809111852
 20
122.9697980785241
 30
0.0
 10
80.18741809111852
 20
122.9697980785241
 30
0.0
  0
SPLINE
  5
BD
330
41
100
AcDbEntity
  8
Capa 1
370
     0
100
AcDbSpline
210
0.0
220
0.0
230
1.0
 70
    11
 71
     3
 72
    23
 73
    19
 74
     0
 42
0.0000000001
 43
0.0000000001
 12
1.0
 22
0.0
 32
0.0
 13
1.0
 23
0.0
 33
0.0
 40
0.0
 40
0.0
 40
0.0
 40
0.0
 40
1.0
 40
1.0
 40
1.0
 40
2.0
 40
2.0
 40
2.0
 40
3.0
 40
3.0
 40
3.0
 40
4.0
 40
4.0
 40
4.0
 40
5.0
 40
5.0
 40
5.0
 40
6.0
 40
6.0
 40
6.0
 40
6.0
 10
77.83086511997371
 20
130.8296973007344
 30
0.0
 10
77.83086511997371
 20
130.8296973007344
 30
0.0
 10
79.04654242340786
 20
130.8282761988468
 30
0.0
 10
79.04654242340786
 20
130.8282761988468
 30
0.0
 10
79.53336671324384
 20
130.8282761988468
 30
0.0
 10
79.92707653166754
 20
130.4331668103822
 30
0.0
 10
79.92707653166754
 20
129.9463317546228
 30
0.0
 10
79.92707653166754
 20
129.4630279217358
 30
0.0
 10
79.53336671324384
 20
129.0658084122865
 30
0.0
 10
79.04654242340786
 20
129.0658084122865
 30
0.0
 10
79.04654242340786
 20
129.0658084122865
 30
0.0
 10
77.871086609764
 20
129.0664974313836
 30
0.0
 10
77.871086609764
 20
129.0664974313836
 30
0.0
 10
78.02772002918556
 20
129.316977405008
 30
0.0
 10
78.11450413764369
 20
129.6140092313769
 30
0.0
 10
78.11450413764369
 20
129.9343385159648
 30
0.0
 10
78.11450413764369
 20
130.2645293863792
 30
0.0
 10
78.0072540088185
 20
130.5735759832529
 30
0.0
 10
77.83086511997371
 20
130.8296973007344
 30
0.0
  0
SPLINE
  5
BE
330
41
100
AcDbEntity
  8
Capa 1
370
     0
100
AcDbSpline
210
0.0
220
0.0
230
1.0
 70
    11
 71
     3
 72
    32
 73
    28
 74
     0
 42
0.0000000001
 43
0.0000000001
 12
1.0
 22
0.0
 32
0.0
 13
1.0
 23
0.0
 33
0.0
 40
0.0
 40
0.0
 40
0.0
 40
0.0
 40
1.0
 40
1.0
 40
1.0
 40
2.0
 40
2.0
 40
2.0
 40
3.0
 40
3.0
 40
3.0
 40
4.0
 40
4.0
 40
4.0
 40
5.0
 40
5.0
 40
5.0
 40
6.0
 40
6.0
 40
6.0
 40
7.0
 40
7.0
 40
7.0
 40
8.0
 40
8.0
 40
8.0
 40
9.0
 40
9.0
 40
9.0
 40
9.0
 10
79.04654242340786
 20
127.0196800762095
 30
0.0
 10
79.53336671324384
 20
127.0196800762095
 30
0.0
 10
79.92707653166754
 20
126.6267023405764
 30
0.0
 10
79.92707653166754
 20
126.1405563039141
 30
0.0
 10
79.92707653166754
 20
125.6523216781138
 30
0.0
 10
79.53336671324384
 20
125.2607435125216
 30
0.0
 10
79.04654242340786
 20
125.2607435125216
 30
0.0
 10
79.04654242340786
 20
125.2607435125216
 30
0.0
 10
77.28194298401611
 20
125.2607435125216
 30
0.0
 10
77.28194298401611
 20
125.2607435125216
 30
0.0
 10
76.79581847920058
 20
125.2607435125216
 30
0.0
 10
76.40140887575642
 20
125.6523216781138
 30
0.0
 10
76.40140887575642
 20
126.1405563039141
 30
0.0
 10
76.40140887575642
 20
126.1405563039141
 30
0.0
 10
76.40140887575642
 20
126.1624326602454
 30
0.0
 10
76.40140887575642
 20
126.1624326602454
 30
0.0
 10
76.40140887575642
 20
126.1624326602454
 30
0.0
 10
76.97431748903008
 20
126.165253332174
 30
0.0
 10
76.97431748903008
 20
126.165253332174
 30
0.0
 10
76.97431748903008
 20
126.165253332174
 30
0.0
 10
76.97431748903008
 20
126.9660657777203
 30
0.0
 10
76.97431748903008
 20
126.9660657777203
 30
0.0
 10
77.07098471516152
 20
127.0013349427505
 30
0.0
 10
77.17470362111432
 20
127.0196800762095
 30
0.0
 10
77.28194298401611
 20
127.0196800762095
 30
0.0
 10
77.28194298401611
 20
127.0196800762095
 30
0.0
 10
79.04654242340786
 20
127.0196800762095
 30
0.0
 10
79.04654242340786
 20
127.0196800762095
 30
0.0
  0
SPLINE
  5
BF
330
41
100
AcDbEntity
  8
Capa 1
370
     0
100
AcDbSpline
210
0.0
220
0.0
230
1.0
 70
    11
 71
     3
 72
    41
 73
    37
 74
     0
 42
0.0000000001
 43
0.0000000001
 12
1.0
 22
0.0
 32
0.0
 13
1.0
 23
0.0
 33
0.0
 40
0.0
 40
0.0
 40
0.0
 40
0.0
 40
1.0
 40
1.0
 40
1.0
 40
2.0
 40
2.0
 40
2.0
 40
3.0
 40
3.0
 40
3.0
 40
4.0
 40
4.0
 40
4.0
 40
5.0
 40
5.0
 40
5.0
 40
6.0
 40
6.0
 40
6.0
 40
7.0
 40
7.0
 40
7.0
 40
8.0
 40
8.0
 40
8.0
 40
9.0
 40
9.0
 40
9.0
 40
10.0
 40
10.0
 40
10.0
 40
11.0
 40
11.0
 40
11.0
 40
12.0
 40
12.0
 40
12.0
 40
12.0
 10
80.19165986493472
 20
132.7622020813385
 30
0.0
 10
80.19165986493472
 20
132.7622020813385
 30
0.0
 10
74.72148342383808
 20
132.7622020813385
 30
0.0
 10
74.72148342383808
 20
132.7622020813385
 30
0.0
 10
74.72148342383808
 20
132.7622020813385
 30
0.0
 10
74.72148342383808
 20
135.4934091865043
 30
0.0
 10
74.72148342383808
 20
135.4934091865043
 30
0.0
 10
74.72148342383808
 20
135.9520159911314
 30
0.0
 10
74.60718161519152
 20
136.0853627182573
 30
0.0
 10
74.20643088286984
 20
136.0853627182573
 30
0.0
 10
74.20643088286984
 20
136.0853627182573
 30
0.0
 10
73.77604156345161
 20
136.0853627182573
 30
0.0
 10
73.77604156345161
 20
136.0853627182573
 30
0.0
 10
73.77604156345161
 20
136.0853627182573
 30
0.0
 10
73.34706257999765
 20
136.0853627182573
 30
0.0
 10
73.34706257999765
 20
136.0853627182573
 30
0.0
 10
72.9448907457883
 20
136.0853627182573
 30
0.0
 10
72.83129948808558
 20
135.9520159911314
 30
0.0
 10
72.83129948808558
 20
135.4934091865043
 30
0.0
 10
72.83129948808558
 20
135.4934091865043
 30
0.0
 10
72.83129948808558
 20
132.7622020813385
 30
0.0
 10
72.83129948808558
 20
132.7622020813385
 30
0.0
 10
72.83129948808558
 20
132.7622020813385
 30
0.0
 10
67.36112304698894
 20
132.7622020813385
 30
0.0
 10
67.36112304698894
 20
132.7622020813385
 30
0.0
 10
67.36112304698894
 20
132.7622020813385
 30
0.0
 10
67.35901292600421
 20
139.6343063005407
 30
0.0
 10
67.35901292600421
 20
139.6343063005407
 30
0.0
 10
67.35901292600421
 20
139.6343063005407
 30
0.0
 10
73.77604156345161
 20
139.6343063005407
 30
0.0
 10
73.77604156345161
 20
139.6343063005407
 30
0.0
 10
73.77604156345161
 20
139.6343063005407
 30
0.0
 10
80.19376998591945
 20
139.6343063005407
 30
0.0
 10
80.19376998591945
 20
139.6343063005407
 30
0.0
 10
80.19376998591945
 20
139.6343063005407
 30
0.0
 10
80.19165986493472
 20
132.7622020813385
 30
0.0
 10
80.19165986493472
 20
132.7622020813385
 30
0.0
  0
POLYLINE
  5
C0
330
41
100
AcDbEntity
  8
Capa 1
370
     0
100
AcDb2dPolyline
 66
     1
 10
0.0
 20
0.0
 30
0.0
  0
VERTEX
  5
C1
330
C0
100
AcDbEntity
  8
Capa 1
370
     0
100
AcDbVertex
100
AcDb2dVertex
 10
88.60964302390879
 20
122.9697980785241
 30
0.0
  0
VERTEX
  5
C2
330
C0
100
AcDbEntity
  8
Capa 1
370
     0
100
AcDbVertex
100
AcDb2dVertex
 10
82.2137801918489
 20
122.9697980785241
 30
0.0
  0
VERTEX
  5
C3
330
C0
100
AcDbEntity
  8
Capa 1
370
     0
100
AcDbVertex
100
AcDb2dVertex
 10
82.2095384180327
 20
124.455000274062
 30
0.0
  0
VERTEX
  5
C4
330
C0
100
AcDbEntity
  8
Capa 1
370
     0
100
AcDbVertex
100
AcDb2dVertex
 10
87.94499797741696
 20
124.455000274062
 30
0.0
  0
VERTEX
  5
C5
330
C0
100
AcDbEntity
  8
Capa 1
370
     0
100
AcDbVertex
100
AcDb2dVertex
 10
87.94499797741696
 20
125.6607836938995
 30
0.0
  0
VERTEX
  5
C6
330
C0
100
AcDbEntity
  8
Capa 1
370
     0
100
AcDbVertex
100
AcDb2dVertex
 10
88.60964302390879
 20
125.6607836938995
 30
0.0
  0
VERTEX
  5
C7
330
C0
100
AcDbEntity
  8
Capa 1
370
     0
100
AcDbVertex
100
AcDb2dVertex
 10
88.60964302390879
 20
122.9697980785241
 30
0.0
  0
SEQEND
  5
C8
330
C0
100
AcDbEntity
  8
Capa 1
370
     0
  0
SPLINE
  5
C9
330
41
100
AcDbEntity
  8
Capa 1
370
     0
100
AcDbSpline
210
0.0
220
0.0
230
1.0
 70
    11
 71
     3
 72
    23
 73
    19
 74
     0
 42
0.0000000001
 43
0.0000000001
 12
1.0
 22
0.0
 32
0.0
 13
1.0
 23
0.0
 33
0.0
 40
0.0
 40
0.0
 40
0.0
 40
0.0
 40
1.0
 40
1.0
 40
1.0
 40
2.0
 40
2.0
 40
2.0
 40
3.0
 40
3.0
 40
3.0
 40
4.0
 40
4.0
 40
4.0
 40
5.0
 40
5.0
 40
5.0
 40
6.0
 40
6.0
 40
6.0
 40
6.0
 10
83.37230120799808
 20
127.0196800762095
 30
0.0
 10
83.37230120799808
 20
127.0196800762095
 30
0.0
 10
86.39277790876748
 20
127.0196800762095
 30
0.0
 10
86.39277790876748
 20
127.0196800762095
 30
0.0
 10
86.88031274954729
 20
127.0196800762095
 30
0.0
 10
87.27331201702717
 20
126.6267023405764
 30
0.0
 10
87.27331201702717
 20
126.1405563039141
 30
0.0
 10
87.27331201702717
 20
125.6523216781138
 30
0.0
 10
86.88031274954729
 20
125.2607435125216
 30
0.0
 10
86.39277790876748
 20
125.2607435125216
 30
0.0
 10
86.39277790876748
 20
125.2607435125216
 30
0.0
 10
83.37230120799808
 20
125.2607435125216
 30
0.0
 10
83.37230120799808
 20
125.2607435125216
 30
0.0
 10
82.88616593725915
 20
125.2607435125216
 30
0.0
 10
82.49105654879456
 20
125.6523216781138
 30
0.0
 10
82.49105654879456
 20
126.1405563039141
 30
0.0
 10
82.49105654879456
 20
126.6267023405764
 30
0.0
 10
82.88616593725915
 20
127.0196800762095
 30
0.0
 10
83.37230120799808
 20
127.0196800762095
 30
0.0
  0
SPLINE
  5
CA
330
41
100
AcDbEntity
  8
Capa 1
370
     0
100
AcDbSpline
210
0.0
220
0.0
230
1.0
 70
    11
 71
     3
 72
    23
 73
    19
 74
     0
 42
0.0000000001
 43
0.0000000001
 12
1.0
 22
0.0
 32
0.0
 13
1.0
 23
0.0
 33
0.0
 40
0.0
 40
0.0
 40
0.0
 40
0.0
 40
1.0
 40
1.0
 40
1.0
 40
2.0
 40
2.0
 40
2.0
 40
3.0
 40
3.0
 40
3.0
 40
4.0
 40
4.0
 40
4.0
 40
5.0
 40
5.0
 40
5.0
 40
6.0
 40
6.0
 40
6.0
 40
6.0
 10
82.49105654879456
 20
129.9463317546228
 30
0.0
 10
82.49105654879456
 20
130.4331668103822
 30
0.0
 10
82.88616593725915
 20
130.8282761988468
 30
0.0
 10
83.37230120799808
 20
130.8282761988468
 30
0.0
 10
83.37230120799808
 20
130.8282761988468
 30
0.0
 10
86.39277790876748
 20
130.8282761988468
 30
0.0
 10
86.39277790876748
 20
130.8282761988468
 30
0.0
 10
86.88031274954729
 20
130.8282761988468
 30
0.0
 10
87.27331201702717
 20
130.4331668103822
 30
0.0
 10
87.27331201702717
 20
129.9463317546228
 30
0.0
 10
87.27331201702717
 20
129.4630279217358
 30
0.0
 10
86.88031274954729
 20
129.0658084122865
 30
0.0
 10
86.39277790876748
 20
129.0658084122865
 30
0.0
 10
86.39277790876748
 20
129.0658084122865
 30
0.0
 10
83.37230120799808
 20
129.0658084122865
 30
0.0
 10
83.37230120799808
 20
129.0658084122865
 30
0.0
 10
82.88616593725915
 20
129.0658084122865
 30
0.0
 10
82.49105654879456
 20
129.4630279217358
 30
0.0
 10
82.49105654879456
 20
129.9463317546228
 30
0.0
  0
POLYLINE
  5
CB
330
41
100
AcDbEntity
  8
Capa 1
370
     0
100
AcDb2dPolyline
 66
     1
 10
0.0
 20
0.0
 30
0.0
  0
VERTEX
  5
CC
330
CB
100
AcDbEntity
  8
Capa 1
370
     0
100
AcDbVertex
100
AcDb2dVertex
 10
88.60964302390879
 20
132.7622020813385
 30
0.0
  0
VERTEX
  5
CD
330
CB
100
AcDbEntity
  8
Capa 1
370
     0
100
AcDbVertex
100
AcDb2dVertex
 10
82.2137801918489
 20
132.7622020813385
 30
0.0
  0
VERTEX
  5
CE
330
CB
100
AcDbEntity
  8
Capa 1
370
     0
100
AcDbVertex
100
AcDb2dVertex
 10
82.2137801918489
 20
139.6343063005407
 30
0.0
  0
VERTEX
  5
CF
330
CB
100
AcDbEntity
  8
Capa 1
370
     0
100
AcDbVertex
100
AcDb2dVertex
 10
88.60964302390879
 20
139.6343063005407
 30
0.0
  0
VERTEX
  5
D0
330
CB
100
AcDbEntity
  8
Capa 1
370
     0
100
AcDbVertex
100
AcDb2dVertex
 10
88.60964302390879
 20
132.7622020813385
 30
0.0
  0
SEQEND
  5
D1
330
CB
100
AcDbEntity
  8
Capa 1
370
     0
  0
SPLINE
  5
D2
330
41
100
AcDbEntity
  8
Capa 1
370
     0
100
AcDbSpline
210
0.0
220
0.0
230
1.0
 70
    11
 71
     3
 72
    53
 73
    49
 74
     0
 42
0.0000000001
 43
0.0000000001
 12
1.0
 22
0.0
 32
0.0
 13
1.0
 23
0.0
 33
0.0
 40
0.0
 40
0.0
 40
0.0
 40
0.0
 40
1.0
 40
1.0
 40
1.0
 40
2.0
 40
2.0
 40
2.0
 40
3.0
 40
3.0
 40
3.0
 40
4.0
 40
4.0
 40
4.0
 40
5.0
 40
5.0
 40
5.0
 40
6.0
 40
6.0
 40
6.0
 40
7.0
 40
7.0
 40
7.0
 40
8.0
 40
8.0
 40
8.0
 40
9.0
 40
9.0
 40
9.0
 40
10.0
 40
10.0
 40
10.0
 40
11.0
 40
11.0
 40
11.0
 40
12.0
 40
12.0
 40
12.0
 40
13.0
 40
13.0
 40
13.0
 40
14.0
 40
14.0
 40
14.0
 40
15.0
 40
15.0
 40
15.0
 40
16.0
 40
16.0
 40
16.0
 40
16.0
 10
88.60964302390879
 20
142.9793648256375
 30
0.0
 10
88.60964302390879
 20
142.9793648256375
 30
0.0
 10
73.77604156345161
 20
142.9793648256375
 30
0.0
 10
73.77604156345161
 20
142.9793648256375
 30
0.0
 10
73.77604156345161
 20
142.9793648256375
 30
0.0
 10
58.94313988801487
 20
142.9793648256375
 30
0.0
 10
58.94313988801487
 20
142.9793648256375
 30
0.0
 10
58.94313988801487
 20
142.9793648256375
 30
0.0
 10
58.94313988801487
 20
190.1189293280128
 30
0.0
 10
58.94313988801487
 20
190.1189293280128
 30
0.0
 10
58.94313988801487
 20
190.1189293280128
 30
0.0
 10
60.42693174758858
 20
191.6048420744946
 30
0.0
 10
60.42693174758858
 20
191.6048420744946
 30
0.0
 10
60.42693174758858
 20
191.6048420744946
 30
0.0
 10
62.09838441779789
 20
191.6048420744946
 30
0.0
 10
62.09838441779789
 20
191.6048420744946
 30
0.0
 10
62.59510259123057
 20
191.6048420744946
 30
0.0
 10
62.77854315989673
 20
191.7868723071965
 30
0.0
 10
62.77854315989673
 20
192.2990934103128
 30
0.0
 10
62.77854315989673
 20
192.7308930656953
 30
0.0
 10
62.77784337487629
 20
193.9599739437518
 30
0.0
 10
62.77784337487629
 20
193.9599739437518
 30
0.0
 10
62.77784337487629
 20
193.9599739437518
 30
0.0
 10
62.86109626046203
 20
194.0439481462047
 30
0.0
 10
62.86109626046203
 20
194.0439481462047
 30
0.0
 10
62.86109626046203
 20
194.0439481462047
 30
0.0
 10
73.77604156345161
 20
194.0432375952609
 30
0.0
 10
73.77604156345161
 20
194.0432375952609
 30
0.0
 10
73.77604156345161
 20
194.0432375952609
 30
0.0
 10
84.69168665146164
 20
194.0439481462047
 30
0.0
 10
84.69168665146164
 20
194.0439481462047
 30
0.0
 10
84.69168665146164
 20
194.0439481462047
 30
0.0
 10
84.77493953704737
 20
193.9599739437518
 30
0.0
 10
84.77493953704737
 20
193.9599739437518
 30
0.0
 10
84.77493953704737
 20
193.9599739437518
 30
0.0
 10
84.77423975202693
 20
192.7308930656953
 30
0.0
 10
84.77423975202693
 20
192.2990934103128
 30
0.0
 10
84.77423975202693
 20
191.7868723071965
 30
0.0
 10
84.95698053567266
 20
191.6048420744946
 30
0.0
 10
85.45509827914621
 20
191.6048420744946
 30
0.0
 10
85.45509827914621
 20
191.6048420744946
 30
0.0
 10
87.12584039841168
 20
191.6048420744946
 30
0.0
 10
87.12584039841168
 20
191.6048420744946
 30
0.0
 10
87.12584039841168
 20
191.6048420744946
 30
0.0
 10
88.60964302390879
 20
190.1189293280128
 30
0.0
 10
88.60964302390879
 20
190.1189293280128
 30
0.0
 10
88.60964302390879
 20
190.1189293280128
 30
0.0
 10
88.60964302390879
 20
142.9793648256375
 30
0.0
 10
88.60964302390879
 20
142.9793648256375
 30
0.0
  0
SPLINE
  5
D3
330
41
100
AcDbEntity
  8
Capa 1
 62
   250
420
  1842203
370
     9
100
AcDbSpline
210
0.0
220
0.0
230
1.0
 70
    11
 71
     3
 72
   272
 73
   268
 74
     0
 42
0.0000000001
 43
0.0000000001
 12
1.0
 22
0.0
 32
0.0
 13
1.0
 23
0.0
 33
0.0
 40
0.0
 40
0.0
 40
0.0
 40
0.0
 40
1.0
 40
1.0
 40
1.0
 40
2.0
 40
2.0
 40
2.0
 40
3.0
 40
3.0
 40
3.0
 40
4.0
 40
4.0
 40
4.0
 40
5.0
 40
5.0
 40
5.0
 40
6.0
 40
6.0
 40
6.0
 40
7.0
 40
7.0
 40
7.0
 40
8.0
 40
8.0
 40
8.0
 40
9.0
 40
9.0
 40
9.0
 40
10.0
 40
10.0
 40
10.0
 40
11.0
 40
11.0
 40
11.0
 40
12.0
 40
12.0
 40
12.0
 40
13.0
 40
13.0
 40
13.0
 40
14.0
 40
14.0
 40
14.0
 40
15.0
 40
15.0
 40
15.0
 40
16.0
 40
16.0
 40
16.0
 40
17.0
 40
17.0
 40
17.0
 40
18.0
 40
18.0
 40
18.0
 40
19.0
 40
19.0
 40
19.0
 40
20.0
 40
20.0
 40
20.0
 40
21.0
 40
21.0
 40
21.0
 40
22.0
 40
22.0
 40
22.0
 40
23.0
 40
23.0
 40
23.0
 40
24.0
 40
24.0
 40
24.0
 40
25.0
 40
25.0
 40
25.0
 40
26.0
 40
26.0
 40
26.0
 40
27.0
 40
27.0
 40
27.0
 40
28.0
 40
28.0
 40
28.0
 40
29.0
 40
29.0
 40
29.0
 40
30.0
 40
30.0
 40
30.0
 40
31.0
 40
31.0
 40
31.0
 40
32.0
 40
32.0
 40
32.0
 40
33.0
 40
33.0
 40
33.0
 40
34.0
 40
34.0
 40
34.0
 40
35.0
 40
35.0
 40
35.0
 40
36.0
 40
36.0
 40
36.0
 40
37.0
 40
37.0
 40
37.0
 40
38.0
 40
38.0
 40
38.0
 40
39.0
 40
39.0
 40
39.0
 40
40.0
 40
40.0
 40
40.0
 40
41.0
 40
41.0
 40
41.0
 40
42.0
 40
42.0
 40
42.0
 40
43.0
 40
43.0
 40
43.0
 40
44.0
 40
44.0
 40
44.0
 40
45.0
 40
45.0
 40
45.0
 40
46.0
 40
46.0
 40
46.0
 40
47.0
 40
47.0
 40
47.0
 40
48.0
 40
48.0
 40
48.0
 40
49.0
 40
49.0
 40
49.0
 40
50.0
 40
50.0
 40
50.0
 40
51.0
 40
51.0
 40
51.0
 40
52.0
 40
52.0
 40
52.0
 40
53.0
 40
53.0
 40
53.0
 40
54.0
 40
54.0
 40
54.0
 40
55.0
 40
55.0
 40
55.0
 40
56.0
 40
56.0
 40
56.0
 40
57.0
 40
57.0
 40
57.0
 40
58.0
 40
58.0
 40
58.0
 40
59.0
 40
59.0
 40
59.0
 40
60.0
 40
60.0
 40
60.0
 40
61.0
 40
61.0
 40
61.0
 40
62.0
 40
62.0
 40
62.0
 40
63.0
 40
63.0
 40
63.0
 40
64.0
 40
64.0
 40
64.0
 40
65.0
 40
65.0
 40
65.0
 40
66.0
 40
66.0
 40
66.0
 40
67.0
 40
67.0
 40
67.0
 40
68.0
 40
68.0
 40
68.0
 40
69.0
 40
69.0
 40
69.0
 40
70.0
 40
70.0
 40
70.0
 40
71.0
 40
71.0
 40
71.0
 40
72.0
 40
72.0
 40
72.0
 40
73.0
 40
73.0
 40
73.0
 40
74.0
 40
74.0
 40
74.0
 40
75.0
 40
75.0
 40
75.0
 40
76.0
 40
76.0
 40
76.0
 40
77.0
 40
77.0
 40
77.0
 40
78.0
 40
78.0
 40
78.0
 40
79.0
 40
79.0
 40
79.0
 40
80.0
 40
80.0
 40
80.0
 40
81.0
 40
81.0
 40
81.0
 40
82.0
 40
82.0
 40
82.0
 40
83.0
 40
83.0
 40
83.0
 40
84.0
 40
84.0
 40
84.0
 40
85.0
 40
85.0
 40
85.0
 40
86.0
 40
86.0
 40
86.0
 40
87.0
 40
87.0
 40
87.0
 40
88.0
 40
88.0
 40
88.0
 40
89.0
 40
89.0
 40
89.0
 40
89.0
 10
137.6567784283137
 20
128.0834609665143
 30
0.0
 10
137.6567784283137
 20
128.0834609665143
 30
0.0
 10
137.6567784283137
 20
128.8687274186834
 30
0.0
 10
137.6567784283137
 20
128.8687274186834
 30
0.0
 10
137.6567784283137
 20
128.8687274186834
 30
0.0
 10
136.2519976805095
 20
128.8687274186834
 30
0.0
 10
136.2519976805095
 20
128.8687274186834
 30
0.0
 10
136.2519976805095
 20
128.8687274186834
 30
0.0
 10
136.2519976805095
 20
129.4225911134777
 30
0.0
 10
136.2519976805095
 20
129.4225911134777
 30
0.0
 10
136.2519976805095
 20
129.4225911134777
 30
0.0
 10
135.2663558621795
 20
129.4225911134777
 30
0.0
 10
135.2663558621795
 20
129.4225911134777
 30
0.0
 10
135.2663558621795
 20
129.4225911134777
 30
0.0
 10
135.2663558621795
 20
129.9693923625272
 30
0.0
 10
135.2663558621795
 20
129.9693923625272
 30
0.0
 10
135.2663558621795
 20
129.9693923625272
 30
0.0
 10
135.2663558621795
 20
130.5169041625205
 30
0.0
 10
135.2663558621795
 20
130.5169041625205
 30
0.0
 10
135.2663558621795
 20
130.5169041625205
 30
0.0
 10
136.2519976805095
 20
130.5169041625205
 30
0.0
 10
136.2519976805095
 20
130.5169041625205
 30
0.0
 10
136.2519976805095
 20
130.5169041625205
 30
0.0
 10
136.2519976805095
 20
131.0778303030595
 30
0.0
 10
136.2519976805095
 20
131.0778303030595
 30
0.0
 10
136.2519976805095
 20
131.0778303030595
 30
0.0
 10
137.0408168873978
 20
131.0778303030595
 30
0.0
 10
137.0408168873978
 20
131.0778303030595
 30
0.0
 10
137.0408168873978
 20
131.0778303030595
 30
0.0
 10
137.0408168873978
 20
131.424966736892
 30
0.0
 10
137.0408168873978
 20
131.424966736892
 30
0.0
 10
137.0408168873978
 20
131.424966736892
 30
0.0
 10
136.8848832529967
 20
131.424966736892
 30
0.0
 10
136.8848832529967
 20
131.424966736892
 30
0.0
 10
136.8848832529967
 20
131.424966736892
 30
0.0
 10
136.8848832529967
 20
132.4437891311143
 30
0.0
 10
136.8848832529967
 20
132.4437891311143
 30
0.0
 10
136.8848832529967
 20
132.4437891311143
 30
0.0
 10
137.6567784283137
 20
132.4437891311143
 30
0.0
 10
137.6567784283137
 20
132.4437891311143
 30
0.0
 10
137.6567784283137
 20
132.4437891311143
 30
0.0
 10
137.6567784283137
 20
139.5635526520123
 30
0.0
 10
137.6567784283137
 20
139.5635526520123
 30
0.0
 10
137.6567784283137
 20
139.5635526520123
 30
0.0
 10
133.664020420143
 20
139.5635526520123
 30
0.0
 10
133.664020420143
 20
139.5635526520123
 30
0.0
 10
133.664020420143
 20
139.5635526520123
 30
0.0
 10
133.664020420143
 20
140.0630699655268
 30
0.0
 10
133.664020420143
 20
140.0630699655268
 30
0.0
 10
133.664020420143
 20
140.0630699655268
 30
0.0
 10
133.664020420143
 20
140.5604986899033
 30
0.0
 10
133.664020420143
 20
140.5604986899033
 30
0.0
 10
133.664020420143
 20
140.5604986899033
 30
0.0
 10
137.6567784283137
 20
140.5604986899033
 30
0.0
 10
137.6567784283137
 20
140.5604986899033
 30
0.0
 10
137.6567784283137
 20
140.5604986899033
 30
0.0
 10
137.6567784283137
 20
192.5592411831427
 30
0.0
 10
137.6567784283137
 20
192.5592411831427
 30
0.0
 10
137.6567784283137
 20
192.5592411831427
 30
0.0
 10
137.1699433725543
 20
192.5592411831427
 30
0.0
 10
137.1699433725543
 20
192.5592411831427
 30
0.0
 10
137.1699433725543
 20
192.5592411831427
 30
0.0
 10
137.1699433725543
 20
192.3482721483648
 30
0.0
 10
137.1699433725543
 20
192.3482721483648
 30
0.0
 10
137.1699433725543
 20
192.3482721483648
 30
0.0
 10
136.4573253714304
 20
192.3482721483648
 30
0.0
 10
136.4573253714304
 20
192.3482721483648
 30
0.0
 10
136.4573253714304
 20
192.3482721483648
 30
0.0
 10
136.4573253714304
 20
192.5592411831427
 30
0.0
 10
136.4573253714304
 20
192.5592411831427
 30
0.0
 10
136.4573253714304
 20
192.5592411831427
 30
0.0
 10
128.5748607737916
 20
192.5592411831427
 30
0.0
 10
128.5748607737916
 20
192.5592411831427
 30
0.0
 10
128.5748607737916
 20
192.5592411831427
 30
0.0
 10
128.5748607737916
 20
191.5368875660481
 30
0.0
 10
128.5748607737916
 20
191.5368875660481
 30
0.0
 10
128.5748607737916
 20
191.5368875660481
 30
0.0
 10
128.0922674918485
 20
191.5368875660481
 30
0.0
 10
128.0922674918485
 20
191.5368875660481
 30
0.0
 10
128.0922674918485
 20
191.5368875660481
 30
0.0
 10
128.0922674918485
 20
194.1693065581743
 30
0.0
 10
128.0922674918485
 20
194.1693065581743
 30
0.0
 10
128.0922674918485
 20
194.1693065581743
 30
0.0
 10
128.5748607737916
 20
194.1693065581743
 30
0.0
 10
128.5748607737916
 20
194.1693065581743
 30
0.0
 10
128.5748607737916
 20
194.1693065581743
 30
0.0
 10
128.5748607737916
 20
193.1413115972225
 30
0.0
 10
128.5748607737916
 20
193.1413115972225
 30
0.0
 10
128.5748607737916
 20
193.1413115972225
 30
0.0
 10
136.4573253714304
 20
193.1413115972225
 30
0.0
 10
136.4573253714304
 20
193.1413115972225
 30
0.0
 10
136.4573253714304
 20
193.1413115972225
 30
0.0
 10
136.4573253714304
 20
193.3628743006176
 30
0.0
 10
136.4573253714304
 20
193.3628743006176
 30
0.0
 10
136.4573253714304
 20
193.3628743006176
 30
0.0
 10
137.1699433725543
 20
193.3628743006176
 30
0.0
 10
137.1699433725543
 20
193.3628743006176
 30
0.0
 10
137.1699433725543
 20
193.3628743006176
 30
0.0
 10
137.1699433725543
 20
193.1413115972225
 30
0.0
 10
137.1699433725543
 20
193.1413115972225
 30
0.0
 10
137.1699433725543
 20
193.1413115972225
 30
0.0
 10
137.6567784283137
 20
193.1413115972225
 30
0.0
 10
137.6567784283137
 20
193.1413115972225
 30
0.0
 10
137.6567784283137
 20
193.1413115972225
 30
0.0
 10
137.6567784283137
 20
196.1505163762011
 30
0.0
 10
137.6567784283137
 20
196.1505163762011
 30
0.0
 10
137.6567784283137
 20
196.1505163762011
 30
0.0
 10
140.2962598661846
 20
196.1505163762011
 30
0.0
 10
140.2962598661846
 20
196.1505163762011
 30
0.0
 10
140.2962598661846
 20
196.1505163762011
 30
0.0
 10
140.2962598661846
 20
140.5604986899033
 30
0.0
 10
140.2962598661846
 20
140.5604986899033
 30
0.0
 10
140.2962598661846
 20
140.5604986899033
 30
0.0
 10
143.0620255854368
 20
140.5604986899033
 30
0.0
 10
143.0620255854368
 20
140.5604986899033
 30
0.0
 10
143.0620255854368
 20
140.5604986899033
 30
0.0
 10
143.0620255854368
 20
141.6061282333702
 30
0.0
 10
143.0620255854368
 20
141.6061282333702
 30
0.0
 10
143.0620255854368
 20
141.6061282333702
 30
0.0
 10
143.796519942892
 20
141.6061282333702
 30
0.0
 10
143.796519942892
 20
141.6061282333702
 30
0.0
 10
143.796519942892
 20
141.6061282333702
 30
0.0
 10
143.796519942892
 20
140.6091821954792
 30
0.0
 10
143.796519942892
 20
140.6091821954792
 30
0.0
 10
143.796519942892
 20
140.6091821954792
 30
0.0
 10
146.9700988402106
 20
140.6091821954792
 30
0.0
 10
146.9700988402106
 20
140.6091821954792
 30
0.0
 10
146.9700988402106
 20
140.6091821954792
 30
0.0
 10
146.9700988402106
 20
141.5073401203306
 30
0.0
 10
146.9700988402106
 20
141.5073401203306
 30
0.0
 10
148.0185490556061
 20
141.5073401203306
 30
0.0
 10
149.3845078836608
 20
140.8716554077617
 30
0.0
 10
149.3845078836608
 20
140.0630699655268
 30
0.0
 10
149.3845078836608
 20
139.2523959341539
 30
0.0
 10
148.0185490556061
 20
138.617400240682
 30
0.0
 10
146.9700988402106
 20
138.617400240682
 30
0.0
 10
146.9700988402106
 20
138.617400240682
 30
0.0
 10
146.9700988402106
 20
139.5127374936049
 30
0.0
 10
146.9700988402106
 20
139.5127374936049
 30
0.0
 10
146.9700988402106
 20
139.5127374936049
 30
0.0
 10
143.796519942892
 20
139.5127374936049
 30
0.0
 10
143.796519942892
 20
139.5127374936049
 30
0.0
 10
143.796519942892
 20
139.5127374936049
 30
0.0
 10
143.796519942892
 20
138.5179015766986
 30
0.0
 10
143.796519942892
 20
138.5179015766986
 30
0.0
 10
143.796519942892
 20
138.5179015766986
 30
0.0
 10
143.0620255854368
 20
138.5179015766986
 30
0.0
 10
143.0620255854368
 20
138.5179015766986
 30
0.0
 10
143.0620255854368
 20
138.5179015766986
 30
0.0
 10
143.0620255854368
 20
139.5635526520123
 30
0.0
 10
143.0620255854368
 20
139.5635526520123
 30
0.0
 10
143.0620255854368
 20
139.5635526520123
 30
0.0
 10
140.2962598661846
 20
139.5635526520123
 30
0.0
 10
140.2962598661846
 20
139.5635526520123
 30
0.0
 10
140.2962598661846
 20
139.5635526520123
 30
0.0
 10
140.2962598661846
 20
130.5169041625205
 30
0.0
 10
140.2962598661846
 20
130.5169041625205
 30
0.0
 10
140.2962598661846
 20
130.5169041625205
 30
0.0
 10
143.1036466452679
 20
130.5169041625205
 30
0.0
 10
143.1036466452679
 20
130.5169041625205
 30
0.0
 10
143.1036466452679
 20
130.5169041625205
 30
0.0
 10
144.6086150761525
 20
129.9693923625272
 30
0.0
 10
144.6086150761525
 20
129.9693923625272
 30
0.0
 10
144.6086150761525
 20
129.9693923625272
 30
0.0
 10
143.1036466452679
 20
129.4225911134777
 30
0.0
 10
143.1036466452679
 20
129.4225911134777
 30
0.0
 10
143.1036466452679
 20
129.4225911134777
 30
0.0
 10
140.2962598661846
 20
129.4225911134777
 30
0.0
 10
140.2962598661846
 20
129.4225911134777
 30
0.0
 10
140.2962598661846
 20
129.4225911134777
 30
0.0
 10
140.2962598661846
 20
128.0834609665143
 30
0.0
 10
140.2962598661846
 20
128.0834609665143
 30
0.0
 10
140.2962598661846
 20
128.0834609665143
 30
0.0
 10
144.1796360926986
 20
128.0834609665143
 30
0.0
 10
144.1796360926986
 20
128.0834609665143
 30
0.0
 10
144.1796360926986
 20
128.0834609665143
 30
0.0
 10
144.5973108565916
 20
127.6643435688869
 30
0.0
 10
144.5973108565916
 20
127.6643435688869
 30
0.0
 10
144.5973108565916
 20
127.6643435688869
 30
0.0
 10
144.5973108565916
 20
126.2821712602046
 30
0.0
 10
144.5973108565916
 20
126.2821712602046
 30
0.0
 10
144.5973108565916
 20
126.2821712602046
 30
0.0
 10
144.5973108565916
 20
124.9013985215633
 30
0.0
 10
144.5973108565916
 20
124.9013985215633
 30
0.0
 10
144.5973108565916
 20
124.9013985215633
 30
0.0
 10
144.1796360926986
 20
124.4823026557826
 30
0.0
 10
144.1796360926986
 20
124.4823026557826
 30
0.0
 10
144.1796360926986
 20
124.4823026557826
 30
0.0
 10
140.2962598661846
 20
124.4823026557826
 30
0.0
 10
140.2962598661846
 20
124.4823026557826
 30
0.0
 10
140.2962598661846
 20
124.4823026557826
 30
0.0
 10
140.2962598661846
 20
120.8529160939187
 30
0.0
 10
140.2962598661846
 20
120.8529160939187
 30
0.0
 10
140.2962598661846
 20
120.8529160939187
 30
0.0
 10
139.7677822187473
 20
120.8529160939187
 30
0.0
 10
139.7677822187473
 20
120.8529160939187
 30
0.0
 10
139.7677822187473
 20
120.8529160939187
 30
0.0
 10
139.7677822187473
 20
119.165938962179
 30
0.0
 10
139.7677822187473
 20
119.165938962179
 30
0.0
 10
139.7677822187473
 20
119.165938962179
 30
0.0
 10
140.1600709352833
 20
119.165938962179
 30
0.0
 10
140.1600709352833
 20
119.165938962179
 30
0.0
 10
140.1600709352833
 20
119.165938962179
 30
0.0
 10
140.1600709352833
 20
118.6219583850581
 30
0.0
 10
140.1600709352833
 20
118.6219583850581
 30
0.0
 10
140.1600709352833
 20
118.6219583850581
 30
0.0
 10
137.7964770502406
 20
118.6219583850581
 30
0.0
 10
137.7964770502406
 20
118.6219583850581
 30
0.0
 10
137.7964770502406
 20
118.6219583850581
 30
0.0
 10
137.7964770502406
 20
119.165938962179
 30
0.0
 10
137.7964770502406
 20
119.165938962179
 30
0.0
 10
137.7964770502406
 20
119.165938962179
 30
0.0
 10
138.1838134420165
 20
119.165938962179
 30
0.0
 10
138.1838134420165
 20
119.165938962179
 30
0.0
 10
138.1838134420165
 20
119.165938962179
 30
0.0
 10
138.1838134420165
 20
120.8529160939187
 30
0.0
 10
138.1838134420165
 20
120.8529160939187
 30
0.0
 10
138.1838134420165
 20
120.8529160939187
 30
0.0
 10
137.6567784283137
 20
120.8529160939187
 30
0.0
 10
137.6567784283137
 20
120.8529160939187
 30
0.0
 10
137.6567784283137
 20
120.8529160939187
 30
0.0
 10
137.6567784283137
 20
124.4823026557826
 30
0.0
 10
137.6567784283137
 20
124.4823026557826
 30
0.0
 10
137.6567784283137
 20
124.4823026557826
 30
0.0
 10
134.7851621502772
 20
124.4823026557826
 30
0.0
 10
134.7851621502772
 20
124.4823026557826
 30
0.0
 10
134.6891947091663
 20
124.4823026557826
 30
0.0
 10
134.6108833824172
 20
124.408211571003
 30
0.0
 10
134.6108833824172
 20
124.3101340089073
 30
0.0
 10
134.6108833824172
 20
123.1240952925697
 30
0.0
 10
134.611593933361
 20
120.754838531823
 30
0.0
 10
134.611593933361
 20
120.754838531823
 30
0.0
 10
134.611593933361
 20
120.754838531823
 30
0.0
 10
135.0074138727694
 20
120.3597291433584
 30
0.0
 10
135.0074138727694
 20
120.3597291433584
 30
0.0
 10
135.0074138727694
 20
120.3597291433584
 30
0.0
 10
135.0074138727694
 20
116.5546642435935
 30
0.0
 10
135.0074138727694
 20
116.5546642435935
 30
0.0
 10
135.0074138727694
 20
116.5546642435935
 30
0.0
 10
134.7646853639868
 20
116.0911266460532
 30
0.0
 10
134.7646853639868
 20
116.0911266460532
 30
0.0
 10
134.7646853639868
 20
116.0911266460532
 30
0.0
 10
133.2625591368775
 20
116.0911266460532
 30
0.0
 10
133.2625591368775
 20
116.0911266460532
 30
0.0
 10
133.2625591368775
 20
116.0911266460532
 30
0.0
 10
131.7590333397274
 20
116.0911266460532
 30
0.0
 10
131.7590333397274
 20
116.0911266460532
 30
0.0
 10
131.7590333397274
 20
116.0911266460532
 30
0.0
 10
131.5156158118477
 20
116.5546642435935
 30
0.0
 10
131.5156158118477
 20
116.5546642435935
 30
0.0
 10
131.5156158118477
 20
116.5546642435935
 30
0.0
 10
131.5156158118477
 20
120.3597291433584
 30
0.0
 10
131.5156158118477
 20
120.3597291433584
 30
0.0
 10
131.5156158118477
 20
120.3597291433584
 30
0.0
 10
131.9121247703531
 20
120.754838531823
 30
0.0
 10
131.9121247703531
 20
120.754838531823
 30
0.0
 10
131.9121247703531
 20
120.754838531823
 30
0.0
 10
131.9121247703531
 20
124.2967412002084
 30
0.0
 10
131.9121247703531
 20
124.2967412002084
 30
0.0
 10
131.9121247703531
 20
125.8898825436686
 30
0.0
 10
133.2047030645721
 20
127.1838604079284
 30
0.0
 10
134.79926550992
 20
127.1838604079284
 30
0.0
 10
134.79926550992
 20
127.1838604079284
 30
0.0
 10
134.79926550992
 20
128.0834609665143
 30
0.0
 10
134.79926550992
 20
128.0834609665143
 30
0.0
 10
134.79926550992
 20
128.0834609665143
 30
0.0
 10
137.6567784283137
 20
128.0834609665143
 30
0.0
 10
137.6567784283137
 20
128.0834609665143
 30
0.0
  0
SPLINE
  5
D4
330
41
100
AcDbEntity
  8
Capa 1
370
     0
100
AcDbSpline
210
0.0
220
0.0
230
1.0
 70
    11
 71
     3
 72
   272
 73
   268
 74
     0
 42
0.0000000001
 43
0.0000000001
 12
1.0
 22
0.0
 32
0.0
 13
1.0
 23
0.0
 33
0.0
 40
0.0
 40
0.0
 40
0.0
 40
0.0
 40
1.0
 40
1.0
 40
1.0
 40
2.0
 40
2.0
 40
2.0
 40
3.0
 40
3.0
 40
3.0
 40
4.0
 40
4.0
 40
4.0
 40
5.0
 40
5.0
 40
5.0
 40
6.0
 40
6.0
 40
6.0
 40
7.0
 40
7.0
 40
7.0
 40
8.0
 40
8.0
 40
8.0
 40
9.0
 40
9.0
 40
9.0
 40
10.0
 40
10.0
 40
10.0
 40
11.0
 40
11.0
 40
11.0
 40
12.0
 40
12.0
 40
12.0
 40
13.0
 40
13.0
 40
13.0
 40
14.0
 40
14.0
 40
14.0
 40
15.0
 40
15.0
 40
15.0
 40
16.0
 40
16.0
 40
16.0
 40
17.0
 40
17.0
 40
17.0
 40
18.0
 40
18.0
 40
18.0
 40
19.0
 40
19.0
 40
19.0
 40
20.0
 40
20.0
 40
20.0
 40
21.0
 40
21.0
 40
21.0
 40
22.0
 40
22.0
 40
22.0
 40
23.0
 40
23.0
 40
23.0
 40
24.0
 40
24.0
 40
24.0
 40
25.0
 40
25.0
 40
25.0
 40
26.0
 40
26.0
 40
26.0
 40
27.0
 40
27.0
 40
27.0
 40
28.0
 40
28.0
 40
28.0
 40
29.0
 40
29.0
 40
29.0
 40
30.0
 40
30.0
 40
30.0
 40
31.0
 40
31.0
 40
31.0
 40
32.0
 40
32.0
 40
32.0
 40
33.0
 40
33.0
 40
33.0
 40
34.0
 40
34.0
 40
34.0
 40
35.0
 40
35.0
 40
35.0
 40
36.0
 40
36.0
 40
36.0
 40
37.0
 40
37.0
 40
37.0
 40
38.0
 40
38.0
 40
38.0
 40
39.0
 40
39.0
 40
39.0
 40
40.0
 40
40.0
 40
40.0
 40
41.0
 40
41.0
 40
41.0
 40
42.0
 40
42.0
 40
42.0
 40
43.0
 40
43.0
 40
43.0
 40
44.0
 40
44.0
 40
44.0
 40
45.0
 40
45.0
 40
45.0
 40
46.0
 40
46.0
 40
46.0
 40
47.0
 40
47.0
 40
47.0
 40
48.0
 40
48.0
 40
48.0
 40
49.0
 40
49.0
 40
49.0
 40
50.0
 40
50.0
 40
50.0
 40
51.0
 40
51.0
 40
51.0
 40
52.0
 40
52.0
 40
52.0
 40
53.0
 40
53.0
 40
53.0
 40
54.0
 40
54.0
 40
54.0
 40
55.0
 40
55.0
 40
55.0
 40
56.0
 40
56.0
 40
56.0
 40
57.0
 40
57.0
 40
57.0
 40
58.0
 40
58.0
 40
58.0
 40
59.0
 40
59.0
 40
59.0
 40
60.0
 40
60.0
 40
60.0
 40
61.0
 40
61.0
 40
61.0
 40
62.0
 40
62.0
 40
62.0
 40
63.0
 40
63.0
 40
63.0
 40
64.0
 40
64.0
 40
64.0
 40
65.0
 40
65.0
 40
65.0
 40
66.0
 40
66.0
 40
66.0
 40
67.0
 40
67.0
 40
67.0
 40
68.0
 40
68.0
 40
68.0
 40
69.0
 40
69.0
 40
69.0
 40
70.0
 40
70.0
 40
70.0
 40
71.0
 40
71.0
 40
71.0
 40
72.0
 40
72.0
 40
72.0
 40
73.0
 40
73.0
 40
73.0
 40
74.0
 40
74.0
 40
74.0
 40
75.0
 40
75.0
 40
75.0
 40
76.0
 40
76.0
 40
76.0
 40
77.0
 40
77.0
 40
77.0
 40
78.0
 40
78.0
 40
78.0
 40
79.0
 40
79.0
 40
79.0
 40
80.0
 40
80.0
 40
80.0
 40
81.0
 40
81.0
 40
81.0
 40
82.0
 40
82.0
 40
82.0
 40
83.0
 40
83.0
 40
83.0
 40
84.0
 40
84.0
 40
84.0
 40
85.0
 40
85.0
 40
85.0
 40
86.0
 40
86.0
 40
86.0
 40
87.0
 40
87.0
 40
87.0
 40
88.0
 40
88.0
 40
88.0
 40
89.0
 40
89.0
 40
89.0
 40
89.0
 10
137.6567784283137
 20
128.0834609665143
 30
0.0
 10
137.6567784283137
 20
128.0834609665143
 30
0.0
 10
137.6567784283137
 20
128.8687274186834
 30
0.0
 10
137.6567784283137
 20
128.8687274186834
 30
0.0
 10
137.6567784283137
 20
128.8687274186834
 30
0.0
 10
136.2519976805095
 20
128.8687274186834
 30
0.0
 10
136.2519976805095
 20
128.8687274186834
 30
0.0
 10
136.2519976805095
 20
128.8687274186834
 30
0.0
 10
136.2519976805095
 20
129.4225911134777
 30
0.0
 10
136.2519976805095
 20
129.4225911134777
 30
0.0
 10
136.2519976805095
 20
129.4225911134777
 30
0.0
 10
135.2663558621795
 20
129.4225911134777
 30
0.0
 10
135.2663558621795
 20
129.4225911134777
 30
0.0
 10
135.2663558621795
 20
129.4225911134777
 30
0.0
 10
135.2663558621795
 20
129.9693923625272
 30
0.0
 10
135.2663558621795
 20
129.9693923625272
 30
0.0
 10
135.2663558621795
 20
129.9693923625272
 30
0.0
 10
135.2663558621795
 20
130.5169041625205
 30
0.0
 10
135.2663558621795
 20
130.5169041625205
 30
0.0
 10
135.2663558621795
 20
130.5169041625205
 30
0.0
 10
136.2519976805095
 20
130.5169041625205
 30
0.0
 10
136.2519976805095
 20
130.5169041625205
 30
0.0
 10
136.2519976805095
 20
130.5169041625205
 30
0.0
 10
136.2519976805095
 20
131.0778303030595
 30
0.0
 10
136.2519976805095
 20
131.0778303030595
 30
0.0
 10
136.2519976805095
 20
131.0778303030595
 30
0.0
 10
137.0408168873978
 20
131.0778303030595
 30
0.0
 10
137.0408168873978
 20
131.0778303030595
 30
0.0
 10
137.0408168873978
 20
131.0778303030595
 30
0.0
 10
137.0408168873978
 20
131.424966736892
 30
0.0
 10
137.0408168873978
 20
131.424966736892
 30
0.0
 10
137.0408168873978
 20
131.424966736892
 30
0.0
 10
136.8848832529967
 20
131.424966736892
 30
0.0
 10
136.8848832529967
 20
131.424966736892
 30
0.0
 10
136.8848832529967
 20
131.424966736892
 30
0.0
 10
136.8848832529967
 20
132.4437891311143
 30
0.0
 10
136.8848832529967
 20
132.4437891311143
 30
0.0
 10
136.8848832529967
 20
132.4437891311143
 30
0.0
 10
137.6567784283137
 20
132.4437891311143
 30
0.0
 10
137.6567784283137
 20
132.4437891311143
 30
0.0
 10
137.6567784283137
 20
132.4437891311143
 30
0.0
 10
137.6567784283137
 20
139.5635526520123
 30
0.0
 10
137.6567784283137
 20
139.5635526520123
 30
0.0
 10
137.6567784283137
 20
139.5635526520123
 30
0.0
 10
133.664020420143
 20
139.5635526520123
 30
0.0
 10
133.664020420143
 20
139.5635526520123
 30
0.0
 10
133.664020420143
 20
139.5635526520123
 30
0.0
 10
133.664020420143
 20
140.0630699655268
 30
0.0
 10
133.664020420143
 20
140.0630699655268
 30
0.0
 10
133.664020420143
 20
140.0630699655268
 30
0.0
 10
133.664020420143
 20
140.5604986899033
 30
0.0
 10
133.664020420143
 20
140.5604986899033
 30
0.0
 10
133.664020420143
 20
140.5604986899033
 30
0.0
 10
137.6567784283137
 20
140.5604986899033
 30
0.0
 10
137.6567784283137
 20
140.5604986899033
 30
0.0
 10
137.6567784283137
 20
140.5604986899033
 30
0.0
 10
137.6567784283137
 20
192.5592411831427
 30
0.0
 10
137.6567784283137
 20
192.5592411831427
 30
0.0
 10
137.6567784283137
 20
192.5592411831427
 30
0.0
 10
137.1699433725543
 20
192.5592411831427
 30
0.0
 10
137.1699433725543
 20
192.5592411831427
 30
0.0
 10
137.1699433725543
 20
192.5592411831427
 30
0.0
 10
137.1699433725543
 20
192.3482721483648
 30
0.0
 10
137.1699433725543
 20
192.3482721483648
 30
0.0
 10
137.1699433725543
 20
192.3482721483648
 30
0.0
 10
136.4573253714304
 20
192.3482721483648
 30
0.0
 10
136.4573253714304
 20
192.3482721483648
 30
0.0
 10
136.4573253714304
 20
192.3482721483648
 30
0.0
 10
136.4573253714304
 20
192.5592411831427
 30
0.0
 10
136.4573253714304
 20
192.5592411831427
 30
0.0
 10
136.4573253714304
 20
192.5592411831427
 30
0.0
 10
128.5748607737916
 20
192.5592411831427
 30
0.0
 10
128.5748607737916
 20
192.5592411831427
 30
0.0
 10
128.5748607737916
 20
192.5592411831427
 30
0.0
 10
128.5748607737916
 20
191.5368875660481
 30
0.0
 10
128.5748607737916
 20
191.5368875660481
 30
0.0
 10
128.5748607737916
 20
191.5368875660481
 30
0.0
 10
128.0922674918485
 20
191.5368875660481
 30
0.0
 10
128.0922674918485
 20
191.5368875660481
 30
0.0
 10
128.0922674918485
 20
191.5368875660481
 30
0.0
 10
128.0922674918485
 20
194.1693065581743
 30
0.0
 10
128.0922674918485
 20
194.1693065581743
 30
0.0
 10
128.0922674918485
 20
194.1693065581743
 30
0.0
 10
128.5748607737916
 20
194.1693065581743
 30
0.0
 10
128.5748607737916
 20
194.1693065581743
 30
0.0
 10
128.5748607737916
 20
194.1693065581743
 30
0.0
 10
128.5748607737916
 20
193.1413115972225
 30
0.0
 10
128.5748607737916
 20
193.1413115972225
 30
0.0
 10
128.5748607737916
 20
193.1413115972225
 30
0.0
 10
136.4573253714304
 20
193.1413115972225
 30
0.0
 10
136.4573253714304
 20
193.1413115972225
 30
0.0
 10
136.4573253714304
 20
193.1413115972225
 30
0.0
 10
136.4573253714304
 20
193.3628743006176
 30
0.0
 10
136.4573253714304
 20
193.3628743006176
 30
0.0
 10
136.4573253714304
 20
193.3628743006176
 30
0.0
 10
137.1699433725543
 20
193.3628743006176
 30
0.0
 10
137.1699433725543
 20
193.3628743006176
 30
0.0
 10
137.1699433725543
 20
193.3628743006176
 30
0.0
 10
137.1699433725543
 20
193.1413115972225
 30
0.0
 10
137.1699433725543
 20
193.1413115972225
 30
0.0
 10
137.1699433725543
 20
193.1413115972225
 30
0.0
 10
137.6567784283137
 20
193.1413115972225
 30
0.0
 10
137.6567784283137
 20
193.1413115972225
 30
0.0
 10
137.6567784283137
 20
193.1413115972225
 30
0.0
 10
137.6567784283137
 20
196.1505163762011
 30
0.0
 10
137.6567784283137
 20
196.1505163762011
 30
0.0
 10
137.6567784283137
 20
196.1505163762011
 30
0.0
 10
140.2962598661846
 20
196.1505163762011
 30
0.0
 10
140.2962598661846
 20
196.1505163762011
 30
0.0
 10
140.2962598661846
 20
196.1505163762011
 30
0.0
 10
140.2962598661846
 20
140.5604986899033
 30
0.0
 10
140.2962598661846
 20
140.5604986899033
 30
0.0
 10
140.2962598661846
 20
140.5604986899033
 30
0.0
 10
143.0620255854368
 20
140.5604986899033
 30
0.0
 10
143.0620255854368
 20
140.5604986899033
 30
0.0
 10
143.0620255854368
 20
140.5604986899033
 30
0.0
 10
143.0620255854368
 20
141.6061282333702
 30
0.0
 10
143.0620255854368
 20
141.6061282333702
 30
0.0
 10
143.0620255854368
 20
141.6061282333702
 30
0.0
 10
143.796519942892
 20
141.6061282333702
 30
0.0
 10
143.796519942892
 20
141.6061282333702
 30
0.0
 10
143.796519942892
 20
141.6061282333702
 30
0.0
 10
143.796519942892
 20
140.6091821954792
 30
0.0
 10
143.796519942892
 20
140.6091821954792
 30
0.0
 10
143.796519942892
 20
140.6091821954792
 30
0.0
 10
146.9700988402106
 20
140.6091821954792
 30
0.0
 10
146.9700988402106
 20
140.6091821954792
 30
0.0
 10
146.9700988402106
 20
140.6091821954792
 30
0.0
 10
146.9700988402106
 20
141.5073401203306
 30
0.0
 10
146.9700988402106
 20
141.5073401203306
 30
0.0
 10
148.0185490556061
 20
141.5073401203306
 30
0.0
 10
149.3845078836608
 20
140.8716554077617
 30
0.0
 10
149.3845078836608
 20
140.0630699655268
 30
0.0
 10
149.3845078836608
 20
139.2523959341539
 30
0.0
 10
148.0185490556061
 20
138.617400240682
 30
0.0
 10
146.9700988402106
 20
138.617400240682
 30
0.0
 10
146.9700988402106
 20
138.617400240682
 30
0.0
 10
146.9700988402106
 20
139.5127374936049
 30
0.0
 10
146.9700988402106
 20
139.5127374936049
 30
0.0
 10
146.9700988402106
 20
139.5127374936049
 30
0.0
 10
143.796519942892
 20
139.5127374936049
 30
0.0
 10
143.796519942892
 20
139.5127374936049
 30
0.0
 10
143.796519942892
 20
139.5127374936049
 30
0.0
 10
143.796519942892
 20
138.5179015766986
 30
0.0
 10
143.796519942892
 20
138.5179015766986
 30
0.0
 10
143.796519942892
 20
138.5179015766986
 30
0.0
 10
143.0620255854368
 20
138.5179015766986
 30
0.0
 10
143.0620255854368
 20
138.5179015766986
 30
0.0
 10
143.0620255854368
 20
138.5179015766986
 30
0.0
 10
143.0620255854368
 20
139.5635526520123
 30
0.0
 10
143.0620255854368
 20
139.5635526520123
 30
0.0
 10
143.0620255854368
 20
139.5635526520123
 30
0.0
 10
140.2962598661846
 20
139.5635526520123
 30
0.0
 10
140.2962598661846
 20
139.5635526520123
 30
0.0
 10
140.2962598661846
 20
139.5635526520123
 30
0.0
 10
140.2962598661846
 20
130.5169041625205
 30
0.0
 10
140.2962598661846
 20
130.5169041625205
 30
0.0
 10
140.2962598661846
 20
130.5169041625205
 30
0.0
 10
143.1036466452679
 20
130.5169041625205
 30
0.0
 10
143.1036466452679
 20
130.5169041625205
 30
0.0
 10
143.1036466452679
 20
130.5169041625205
 30
0.0
 10
144.6086150761525
 20
129.9693923625272
 30
0.0
 10
144.6086150761525
 20
129.9693923625272
 30
0.0
 10
144.6086150761525
 20
129.9693923625272
 30
0.0
 10
143.1036466452679
 20
129.4225911134777
 30
0.0
 10
143.1036466452679
 20
129.4225911134777
 30
0.0
 10
143.1036466452679
 20
129.4225911134777
 30
0.0
 10
140.2962598661846
 20
129.4225911134777
 30
0.0
 10
140.2962598661846
 20
129.4225911134777
 30
0.0
 10
140.2962598661846
 20
129.4225911134777
 30
0.0
 10
140.2962598661846
 20
128.0834609665143
 30
0.0
 10
140.2962598661846
 20
128.0834609665143
 30
0.0
 10
140.2962598661846
 20
128.0834609665143
 30
0.0
 10
144.1796360926986
 20
128.0834609665143
 30
0.0
 10
144.1796360926986
 20
128.0834609665143
 30
0.0
 10
144.1796360926986
 20
128.0834609665143
 30
0.0
 10
144.5973108565916
 20
127.6643435688869
 30
0.0
 10
144.5973108565916
 20
127.6643435688869
 30
0.0
 10
144.5973108565916
 20
127.6643435688869
 30
0.0
 10
144.5973108565916
 20
126.2821712602046
 30
0.0
 10
144.5973108565916
 20
126.2821712602046
 30
0.0
 10
144.5973108565916
 20
126.2821712602046
 30
0.0
 10
144.5973108565916
 20
124.9013985215633
 30
0.0
 10
144.5973108565916
 20
124.9013985215633
 30
0.0
 10
144.5973108565916
 20
124.9013985215633
 30
0.0
 10
144.1796360926986
 20
124.4823026557826
 30
0.0
 10
144.1796360926986
 20
124.4823026557826
 30
0.0
 10
144.1796360926986
 20
124.4823026557826
 30
0.0
 10
140.2962598661846
 20
124.4823026557826
 30
0.0
 10
140.2962598661846
 20
124.4823026557826
 30
0.0
 10
140.2962598661846
 20
124.4823026557826
 30
0.0
 10
140.2962598661846
 20
120.8529160939187
 30
0.0
 10
140.2962598661846
 20
120.8529160939187
 30
0.0
 10
140.2962598661846
 20
120.8529160939187
 30
0.0
 10
139.7677822187473
 20
120.8529160939187
 30
0.0
 10
139.7677822187473
 20
120.8529160939187
 30
0.0
 10
139.7677822187473
 20
120.8529160939187
 30
0.0
 10
139.7677822187473
 20
119.165938962179
 30
0.0
 10
139.7677822187473
 20
119.165938962179
 30
0.0
 10
139.7677822187473
 20
119.165938962179
 30
0.0
 10
140.1600709352833
 20
119.165938962179
 30
0.0
 10
140.1600709352833
 20
119.165938962179
 30
0.0
 10
140.1600709352833
 20
119.165938962179
 30
0.0
 10
140.1600709352833
 20
118.6219583850581
 30
0.0
 10
140.1600709352833
 20
118.6219583850581
 30
0.0
 10
140.1600709352833
 20
118.6219583850581
 30
0.0
 10
137.7964770502406
 20
118.6219583850581
 30
0.0
 10
137.7964770502406
 20
118.6219583850581
 30
0.0
 10
137.7964770502406
 20
118.6219583850581
 30
0.0
 10
137.7964770502406
 20
119.165938962179
 30
0.0
 10
137.7964770502406
 20
119.165938962179
 30
0.0
 10
137.7964770502406
 20
119.165938962179
 30
0.0
 10
138.1838134420165
 20
119.165938962179
 30
0.0
 10
138.1838134420165
 20
119.165938962179
 30
0.0
 10
138.1838134420165
 20
119.165938962179
 30
0.0
 10
138.1838134420165
 20
120.8529160939187
 30
0.0
 10
138.1838134420165
 20
120.8529160939187
 30
0.0
 10
138.1838134420165
 20
120.8529160939187
 30
0.0
 10
137.6567784283137
 20
120.8529160939187
 30
0.0
 10
137.6567784283137
 20
120.8529160939187
 30
0.0
 10
137.6567784283137
 20
120.8529160939187
 30
0.0
 10
137.6567784283137
 20
124.4823026557826
 30
0.0
 10
137.6567784283137
 20
124.4823026557826
 30
0.0
 10
137.6567784283137
 20
124.4823026557826
 30
0.0
 10
134.7851621502772
 20
124.4823026557826
 30
0.0
 10
134.7851621502772
 20
124.4823026557826
 30
0.0
 10
134.6891947091663
 20
124.4823026557826
 30
0.0
 10
134.6108833824172
 20
124.408211571003
 30
0.0
 10
134.6108833824172
 20
124.3101340089073
 30
0.0
 10
134.6108833824172
 20
123.1240952925697
 30
0.0
 10
134.611593933361
 20
120.754838531823
 30
0.0
 10
134.611593933361
 20
120.754838531823
 30
0.0
 10
134.611593933361
 20
120.754838531823
 30
0.0
 10
135.0074138727694
 20
120.3597291433584
 30
0.0
 10
135.0074138727694
 20
120.3597291433584
 30
0.0
 10
135.0074138727694
 20
120.3597291433584
 30
0.0
 10
135.0074138727694
 20
116.5546642435935
 30
0.0
 10
135.0074138727694
 20
116.5546642435935
 30
0.0
 10
135.0074138727694
 20
116.5546642435935
 30
0.0
 10
134.7646853639868
 20
116.0911266460532
 30
0.0
 10
134.7646853639868
 20
116.0911266460532
 30
0.0
 10
134.7646853639868
 20
116.0911266460532
 30
0.0
 10
133.2625591368775
 20
116.0911266460532
 30
0.0
 10
133.2625591368775
 20
116.0911266460532
 30
0.0
 10
133.2625591368775
 20
116.0911266460532
 30
0.0
 10
131.7590333397274
 20
116.0911266460532
 30
0.0
 10
131.7590333397274
 20
116.0911266460532
 30
0.0
 10
131.7590333397274
 20
116.0911266460532
 30
0.0
 10
131.5156158118477
 20
116.5546642435935
 30
0.0
 10
131.5156158118477
 20
116.5546642435935
 30
0.0
 10
131.5156158118477
 20
116.5546642435935
 30
0.0
 10
131.5156158118477
 20
120.3597291433584
 30
0.0
 10
131.5156158118477
 20
120.3597291433584
 30
0.0
 10
131.5156158118477
 20
120.3597291433584
 30
0.0
 10
131.9121247703531
 20
120.754838531823
 30
0.0
 10
131.9121247703531
 20
120.754838531823
 30
0.0
 10
131.9121247703531
 20
120.754838531823
 30
0.0
 10
131.9121247703531
 20
124.2967412002084
 30
0.0
 10
131.9121247703531
 20
124.2967412002084
 30
0.0
 10
131.9121247703531
 20
125.8898825436686
 30
0.0
 10
133.2047030645721
 20
127.1838604079284
 30
0.0
 10
134.79926550992
 20
127.1838604079284
 30
0.0
 10
134.79926550992
 20
127.1838604079284
 30
0.0
 10
134.79926550992
 20
128.0834609665143
 30
0.0
 10
134.79926550992
 20
128.0834609665143
 30
0.0
 10
134.79926550992
 20
128.0834609665143
 30
0.0
 10
137.6567784283137
 20
128.0834609665143
 30
0.0
 10
137.6567784283137
 20
128.0834609665143
 30
0.0
  0
POLYLINE
  5
D5
330
41
100
AcDbEntity
  8
Capa 1
 62
   250
420
  1842203
370
     9
100
AcDb2dPolyline
 66
     1
 10
0.0
 20
0.0
 30
0.0
  0
VERTEX
  5
D6
330
D5
100
AcDbEntity
  8
Capa 1
 62
   250
420
  1842203
370
     9
100
AcDbVertex
100
AcDb2dVertex
 10
136.4571746485029
 20
192.5594565016106
 30
0.0
  0
VERTEX
  5
D7
330
D5
100
AcDbEntity
  8
Capa 1
 62
   250
420
  1842203
370
     9
100
AcDbVertex
100
AcDb2dVertex
 10
136.4571746485029
 20
193.1415269156903
 30
0.0
  0
SEQEND
  5
D8
330
D5
100
AcDbEntity
  8
Capa 1
 62
   250
420
  1842203
370
     9
  0
POLYLINE
  5
D9
330
41
100
AcDbEntity
  8
Capa 1
 62
   250
420
  1842203
370
     9
100
AcDb2dPolyline
 66
     1
 10
0.0
 20
0.0
 30
0.0
  0
VERTEX
  5
DA
330
D9
100
AcDbEntity
  8
Capa 1
 62
   250
420
  1842203
370
     9
100
AcDbVertex
100
AcDb2dVertex
 10
136.4571746485029
 20
193.1416776386178
 30
0.0
  0
VERTEX
  5
DB
330
D9
100
AcDbEntity
  8
Capa 1
 62
   250
420
  1842203
370
     9
100
AcDbVertex
100
AcDb2dVertex
 10
136.4571746485029
 20
192.5595856926913
 30
0.0
  0
SEQEND
  5
DC
330
D9
100
AcDbEntity
  8
Capa 1
 62
   250
420
  1842203
370
     9
  0
POLYLINE
  5
DD
330
41
100
AcDbEntity
  8
Capa 1
 62
   250
420
  1842203
370
     9
100
AcDb2dPolyline
 66
     1
 10
0.0
 20
0.0
 30
0.0
  0
VERTEX
  5
DE
330
DD
100
AcDbEntity
  8
Capa 1
 62
   250
420
  1842203
370
     9
100
AcDbVertex
100
AcDb2dVertex
 10
137.1696634585461
 20
193.1416776386178
 30
0.0
  0
VERTEX
  5
DF
330
DD
100
AcDbEntity
  8
Capa 1
 62
   250
420
  1842203
370
     9
100
AcDbVertex
100
AcDb2dVertex
 10
137.1696634585461
 20
192.5595856926913
 30
0.0
  0
SEQEND
  5
E0
330
DD
100
AcDbEntity
  8
Capa 1
 62
   250
420
  1842203
370
     9
  0
POLYLINE
  5
E1
330
41
100
AcDbEntity
  8
Capa 1
 62
   250
420
  1842203
370
     9
100
AcDb2dPolyline
 66
     1
 10
0.0
 20
0.0
 30
0.0
  0
VERTEX
  5
E2
330
E1
100
AcDbEntity
  8
Capa 1
 62
   250
420
  1842203
370
     9
100
AcDbVertex
100
AcDb2dVertex
 10
137.6567784283137
 20
193.1416776386178
 30
0.0
  0
VERTEX
  5
E3
330
E1
100
AcDbEntity
  8
Capa 1
 62
   250
420
  1842203
370
     9
100
AcDbVertex
100
AcDb2dVertex
 10
137.6567784283137
 20
192.5595856926913
 30
0.0
  0
SEQEND
  5
E4
330
E1
100
AcDbEntity
  8
Capa 1
 62
   250
420
  1842203
370
     9
  0
POLYLINE
  5
E5
330
41
100
AcDbEntity
  8
Capa 1
 62
   250
420
  1842203
370
     9
100
AcDb2dPolyline
 66
     1
 10
0.0
 20
0.0
 30
0.0
  0
VERTEX
  5
E6
330
E5
100
AcDbEntity
  8
Capa 1
 62
   250
420
  1842203
370
     9
100
AcDbVertex
100
AcDb2dVertex
 10
140.2963890572653
 20
139.5638971615608
 30
0.0
  0
VERTEX
  5
E7
330
E5
100
AcDbEntity
  8
Capa 1
 62
   250
420
  1842203
370
     9
100
AcDbVertex
100
AcDb2dVertex
 10
140.2963890572653
 20
140.560132648508
 30
0.0
  0
SEQEND
  5
E8
330
E5
100
AcDbEntity
  8
Capa 1
 62
   250
420
  1842203
370
     9
  0
POLYLINE
  5
E9
330
41
100
AcDbEntity
  8
Capa 1
 62
   250
420
  1842203
370
     9
100
AcDb2dPolyline
 66
     1
 10
0.0
 20
0.0
 30
0.0
  0
VERTEX
  5
EA
330
E9
100
AcDbEntity
  8
Capa 1
 62
   250
420
  1842203
370
     9
100
AcDbVertex
100
AcDb2dVertex
 10
137.6567784283137
 20
140.5602187758951
 30
0.0
  0
VERTEX
  5
EB
330
E9
100
AcDbEntity
  8
Capa 1
 62
   250
420
  1842203
370
     9
100
AcDbVertex
100
AcDb2dVertex
 10
137.6567784283137
 20
139.5639617571012
 30
0.0
  0
SEQEND
  5
EC
330
E9
100
AcDbEntity
  8
Capa 1
 62
   250
420
  1842203
370
     9
  0
POLYLINE
  5
ED
330
41
100
AcDbEntity
  8
Capa 1
 62
   250
420
  1842203
370
     9
100
AcDb2dPolyline
 66
     1
 10
0.0
 20
0.0
 30
0.0
  0
VERTEX
  5
EE
330
ED
100
AcDbEntity
  8
Capa 1
 62
   250
420
  1842203
370
     9
100
AcDbVertex
100
AcDb2dVertex
 10
138.1838995694037
 20
120.8529160939187
 30
0.0
  0
VERTEX
  5
EF
330
ED
100
AcDbEntity
  8
Capa 1
 62
   250
420
  1842203
370
     9
100
AcDbVertex
100
AcDb2dVertex
 10
139.7678683461344
 20
120.8529160939187
 30
0.0
  0
SEQEND
  5
F0
330
ED
100
AcDbEntity
  8
Capa 1
 62
   250
420
  1842203
370
     9
  0
POLYLINE
  5
F1
330
41
100
AcDbEntity
  8
Capa 1
 62
   250
420
  1842203
370
     9
100
AcDb2dPolyline
 66
     1
 10
0.0
 20
0.0
 30
0.0
  0
VERTEX
  5
F2
330
F1
100
AcDbEntity
  8
Capa 1
 62
   250
420
  1842203
370
     9
100
AcDbVertex
100
AcDb2dVertex
 10
138.1838995694037
 20
119.1662188761872
 30
0.0
  0
VERTEX
  5
F3
330
F1
100
AcDbEntity
  8
Capa 1
 62
   250
420
  1842203
370
     9
100
AcDbVertex
100
AcDb2dVertex
 10
139.7678683461344
 20
119.1662188761872
 30
0.0
  0
SEQEND
  5
F4
330
F1
100
AcDbEntity
  8
Capa 1
 62
   250
420
  1842203
370
     9
  0
POLYLINE
  5
F5
330
41
100
AcDbEntity
  8
Capa 1
 62
   250
420
  1842203
370
     9
100
AcDb2dPolyline
 66
     1
 10
0.0
 20
0.0
 30
0.0
  0
VERTEX
  5
F6
330
F5
100
AcDbEntity
  8
Capa 1
 62
   250
420
  1842203
370
     9
100
AcDbVertex
100
AcDb2dVertex
 10
128.5747961782513
 20
193.1416776386178
 30
0.0
  0
VERTEX
  5
F7
330
F5
100
AcDbEntity
  8
Capa 1
 62
   250
420
  1842203
370
     9
100
AcDbVertex
100
AcDb2dVertex
 10
128.5747961782513
 20
192.5595856926913
 30
0.0
  0
SEQEND
  5
F8
330
F5
100
AcDbEntity
  8
Capa 1
 62
   250
420
  1842203
370
     9
  0
POLYLINE
  5
F9
330
41
100
AcDbEntity
  8
Capa 1
 62
   250
420
  1842203
370
     9
100
AcDb2dPolyline
 66
     1
 10
0.0
 20
0.0
 30
0.0
  0
VERTEX
  5
FA
330
F9
100
AcDbEntity
  8
Capa 1
 62
   250
420
  1842203
370
     9
100
AcDbVertex
100
AcDb2dVertex
 10
137.6567784283137
 20
194.2706354291342
 30
0.0
  0
VERTEX
  5
FB
330
F9
100
AcDbEntity
  8
Capa 1
 62
   250
420
  1842203
370
     9
100
AcDbVertex
100
AcDb2dVertex
 10
140.2962598661846
 20
194.2706354291342
 30
0.0
  0
SEQEND
  5
FC
330
F9
100
AcDbEntity
  8
Capa 1
 62
   250
420
  1842203
370
     9
  0
POLYLINE
  5
FD
330
41
100
AcDbEntity
  8
Capa 1
 62
   250
420
  1842203
370
     9
100
AcDb2dPolyline
 66
     1
 10
0.0
 20
0.0
 30
0.0
  0
VERTEX
  5
FE
330
FD
100
AcDbEntity
  8
Capa 1
 62
   250
420
  1842203
370
     9
100
AcDbVertex
100
AcDb2dVertex
 10
131.9124262162081
 20
120.7550538502908
 30
0.0
  0
VERTEX
  5
FF
330
FD
100
AcDbEntity
  8
Capa 1
 62
   250
420
  1842203
370
     9
100
AcDbVertex
100
AcDb2dVertex
 10
134.6111632964253
 20
120.7550538502908
 30
0.0
  0
SEQEND
  5
100
330
FD
100
AcDbEntity
  8
Capa 1
 62
   250
420
  1842203
370
     9
  0
POLYLINE
  5
101
330
41
100
AcDbEntity
  8
Capa 1
 62
   250
420
  1842203
370
     9
100
AcDb2dPolyline
 66
     1
 10
0.0
 20
0.0
 30
0.0
  0
VERTEX
  5
102
330
101
100
AcDbEntity
  8
Capa 1
 62
   250
420
  1842203
370
     9
100
AcDbVertex
100
AcDb2dVertex
 10
131.5155512163073
 20
120.3595999522777
 30
0.0
  0
VERTEX
  5
103
330
101
100
AcDbEntity
  8
Capa 1
 62
   250
420
  1842203
370
     9
100
AcDbVertex
100
AcDb2dVertex
 10
135.0073277453823
 20
120.3595999522777
 30
0.0
  0
SEQEND
  5
104
330
101
100
AcDbEntity
  8
Capa 1
 62
   250
420
  1842203
370
     9
  0
POLYLINE
  5
105
330
41
100
AcDbEntity
  8
Capa 1
 62
   250
420
  1842203
370
     9
100
AcDb2dPolyline
 66
     1
 10
0.0
 20
0.0
 30
0.0
  0
VERTEX
  5
106
330
105
100
AcDbEntity
  8
Capa 1
 62
   250
420
  1842203
370
     9
100
AcDbVertex
100
AcDb2dVertex
 10
131.5155512163073
 20
116.554814966521
 30
0.0
  0
VERTEX
  5
107
330
105
100
AcDbEntity
  8
Capa 1
 62
   250
420
  1842203
370
     9
100
AcDbVertex
100
AcDb2dVertex
 10
135.0073277453823
 20
116.554814966521
 30
0.0
  0
SEQEND
  5
108
330
105
100
AcDbEntity
  8
Capa 1
 62
   250
420
  1842203
370
     9
  0
POLYLINE
  5
109
330
41
100
AcDbEntity
  8
Capa 1
 62
   250
420
  1842203
370
     9
100
AcDb2dPolyline
 66
     1
 10
0.0
 20
0.0
 30
0.0
  0
VERTEX
  5
10A
330
109
100
AcDbEntity
  8
Capa 1
 62
   250
420
  1842203
370
     9
100
AcDbVertex
100
AcDb2dVertex
 10
144.1797006882389
 20
128.0834609665143
 30
0.0
  0
VERTEX
  5
10B
330
109
100
AcDbEntity
  8
Capa 1
 62
   250
420
  1842203
370
     9
100
AcDbVertex
100
AcDb2dVertex
 10
144.1797006882389
 20
124.4823026557826
 30
0.0
  0
SEQEND
  5
10C
330
109
100
AcDbEntity
  8
Capa 1
 62
   250
420
  1842203
370
     9
  0
POLYLINE
  5
10D
330
41
100
AcDbEntity
  8
Capa 1
 62
   250
420
  1842203
370
     9
100
AcDb2dPolyline
 66
     1
 10
0.0
 20
0.0
 30
0.0
  0
VERTEX
  5
10E
330
10D
100
AcDbEntity
  8
Capa 1
 62
   250
420
  1842203
370
     9
100
AcDbVertex
100
AcDb2dVertex
 10
134.7994162328474
 20
127.1835804939203
 30
0.0
  0
VERTEX
  5
10F
330
10D
100
AcDbEntity
  8
Capa 1
 62
   250
420
  1842203
370
     9
100
AcDbVertex
100
AcDb2dVertex
 10
134.7994162328474
 20
124.4827117608715
 30
0.0
  0
SEQEND
  5
110
330
10D
100
AcDbEntity
  8
Capa 1
 62
   250
420
  1842203
370
     9
  0
POLYLINE
  5
111
330
41
100
AcDbEntity
  8
Capa 1
 62
   250
420
  1842203
370
     9
100
AcDb2dPolyline
 66
     1
 10
0.0
 20
0.0
 30
0.0
  0
VERTEX
  5
112
330
111
100
AcDbEntity
  8
Capa 1
 62
   250
420
  1842203
370
     9
100
AcDbVertex
100
AcDb2dVertex
 10
143.1034528586469
 20
130.5171194809884
 30
0.0
  0
VERTEX
  5
113
330
111
100
AcDbEntity
  8
Capa 1
 62
   250
420
  1842203
370
     9
100
AcDbVertex
100
AcDb2dVertex
 10
143.1034528586469
 20
129.4227849000987
 30
0.0
  0
SEQEND
  5
114
330
111
100
AcDbEntity
  8
Capa 1
 62
   250
420
  1842203
370
     9
  0
POLYLINE
  5
115
330
41
100
AcDbEntity
  8
Capa 1
 62
   250
420
  1842203
370
     9
100
AcDb2dPolyline
 66
     1
 10
0.0
 20
0.0
 30
0.0
  0
VERTEX
  5
116
330
115
100
AcDbEntity
  8
Capa 1
 62
   250
420
  1842203
370
     9
100
AcDbVertex
100
AcDb2dVertex
 10
140.2963890572653
 20
130.5171194809884
 30
0.0
  0
VERTEX
  5
117
330
115
100
AcDbEntity
  8
Capa 1
 62
   250
420
  1842203
370
     9
100
AcDbVertex
100
AcDb2dVertex
 10
140.2963890572653
 20
129.4227849000987
 30
0.0
  0
SEQEND
  5
118
330
115
100
AcDbEntity
  8
Capa 1
 62
   250
420
  1842203
370
     9
  0
POLYLINE
  5
119
330
41
100
AcDbEntity
  8
Capa 1
 62
   250
420
  1842203
370
     9
100
AcDb2dPolyline
 66
     1
 10
0.0
 20
0.0
 30
0.0
  0
VERTEX
  5
11A
330
119
100
AcDbEntity
  8
Capa 1
 62
   250
420
  1842203
370
     9
100
AcDbVertex
100
AcDb2dVertex
 10
137.6567784283137
 20
128.9461344078676
 30
0.0
  0
VERTEX
  5
11B
330
119
100
AcDbEntity
  8
Capa 1
 62
   250
420
  1842203
370
     9
100
AcDbVertex
100
AcDb2dVertex
 10
137.6567784283137
 20
132.4435522807997
 30
0.0
  0
SEQEND
  5
11C
330
119
100
AcDbEntity
  8
Capa 1
 62
   250
420
  1842203
370
     9
  0
POLYLINE
  5
11D
330
41
100
AcDbEntity
  8
Capa 1
 62
   250
420
  1842203
370
     9
100
AcDb2dPolyline
 66
     1
 10
0.0
 20
0.0
 30
0.0
  0
VERTEX
  5
11E
330
11D
100
AcDbEntity
  8
Capa 1
 62
   250
420
  1842203
370
     9
100
AcDbVertex
100
AcDb2dVertex
 10
136.2518684894288
 20
129.422957154873
 30
0.0
  0
VERTEX
  5
11F
330
11D
100
AcDbEntity
  8
Capa 1
 62
   250
420
  1842203
370
     9
100
AcDbVertex
100
AcDb2dVertex
 10
136.2518684894288
 20
130.5172702039158
 30
0.0
  0
SEQEND
  5
120
330
11D
100
AcDbEntity
  8
Capa 1
 62
   250
420
  1842203
370
     9
  0
POLYLINE
  5
121
330
41
100
AcDbEntity
  8
Capa 1
 62
   250
420
  1842203
370
     9
100
AcDb2dPolyline
 66
     1
 10
0.0
 20
0.0
 30
0.0
  0
VERTEX
  5
122
330
121
100
AcDbEntity
  8
Capa 1
 62
   250
420
  1842203
370
     9
100
AcDbVertex
100
AcDb2dVertex
 10
140.2963890572653
 20
124.4826471653312
 30
0.0
  0
VERTEX
  5
123
330
121
100
AcDbEntity
  8
Capa 1
 62
   250
420
  1842203
370
     9
100
AcDbVertex
100
AcDb2dVertex
 10
140.2963890572653
 20
128.083783944216
 30
0.0
  0
SEQEND
  5
124
330
121
100
AcDbEntity
  8
Capa 1
 62
   250
420
  1842203
370
     9
  0
POLYLINE
  5
125
330
41
100
AcDbEntity
  8
Capa 1
 62
   250
420
  1842203
370
     9
100
AcDb2dPolyline
 66
     1
 10
0.0
 20
0.0
 30
0.0
  0
VERTEX
  5
126
330
125
100
AcDbEntity
  8
Capa 1
 62
   250
420
  1842203
370
     9
100
AcDbVertex
100
AcDb2dVertex
 10
137.6567784283137
 20
128.0834609665143
 30
0.0
  0
VERTEX
  5
127
330
125
100
AcDbEntity
  8
Capa 1
 62
   250
420
  1842203
370
     9
100
AcDbVertex
100
AcDb2dVertex
 10
137.6567784283137
 20
124.4823026557826
 30
0.0
  0
SEQEND
  5
128
330
125
100
AcDbEntity
  8
Capa 1
 62
   250
420
  1842203
370
     9
  0
SPLINE
  5
129
330
41
100
AcDbEntity
  8
Capa 1
 62
   250
420
  1842203
370
     9
100
AcDbSpline
210
0.0
220
0.0
230
1.0
 70
    11
 71
     3
 72
   272
 73
   268
 74
     0
 42
0.0000000001
 43
0.0000000001
 12
1.0
 22
0.0
 32
0.0
 13
1.0
 23
0.0
 33
0.0
 40
0.0
 40
0.0
 40
0.0
 40
0.0
 40
1.0
 40
1.0
 40
1.0
 40
2.0
 40
2.0
 40
2.0
 40
3.0
 40
3.0
 40
3.0
 40
4.0
 40
4.0
 40
4.0
 40
5.0
 40
5.0
 40
5.0
 40
6.0
 40
6.0
 40
6.0
 40
7.0
 40
7.0
 40
7.0
 40
8.0
 40
8.0
 40
8.0
 40
9.0
 40
9.0
 40
9.0
 40
10.0
 40
10.0
 40
10.0
 40
11.0
 40
11.0
 40
11.0
 40
12.0
 40
12.0
 40
12.0
 40
13.0
 40
13.0
 40
13.0
 40
14.0
 40
14.0
 40
14.0
 40
15.0
 40
15.0
 40
15.0
 40
16.0
 40
16.0
 40
16.0
 40
17.0
 40
17.0
 40
17.0
 40
18.0
 40
18.0
 40
18.0
 40
19.0
 40
19.0
 40
19.0
 40
20.0
 40
20.0
 40
20.0
 40
21.0
 40
21.0
 40
21.0
 40
22.0
 40
22.0
 40
22.0
 40
23.0
 40
23.0
 40
23.0
 40
24.0
 40
24.0
 40
24.0
 40
25.0
 40
25.0
 40
25.0
 40
26.0
 40
26.0
 40
26.0
 40
27.0
 40
27.0
 40
27.0
 40
28.0
 40
28.0
 40
28.0
 40
29.0
 40
29.0
 40
29.0
 40
30.0
 40
30.0
 40
30.0
 40
31.0
 40
31.0
 40
31.0
 40
32.0
 40
32.0
 40
32.0
 40
33.0
 40
33.0
 40
33.0
 40
34.0
 40
34.0
 40
34.0
 40
35.0
 40
35.0
 40
35.0
 40
36.0
 40
36.0
 40
36.0
 40
37.0
 40
37.0
 40
37.0
 40
38.0
 40
38.0
 40
38.0
 40
39.0
 40
39.0
 40
39.0
 40
40.0
 40
40.0
 40
40.0
 40
41.0
 40
41.0
 40
41.0
 40
42.0
 40
42.0
 40
42.0
 40
43.0
 40
43.0
 40
43.0
 40
44.0
 40
44.0
 40
44.0
 40
45.0
 40
45.0
 40
45.0
 40
46.0
 40
46.0
 40
46.0
 40
47.0
 40
47.0
 40
47.0
 40
48.0
 40
48.0
 40
48.0
 40
49.0
 40
49.0
 40
49.0
 40
50.0
 40
50.0
 40
50.0
 40
51.0
 40
51.0
 40
51.0
 40
52.0
 40
52.0
 40
52.0
 40
53.0
 40
53.0
 40
53.0
 40
54.0
 40
54.0
 40
54.0
 40
55.0
 40
55.0
 40
55.0
 40
56.0
 40
56.0
 40
56.0
 40
57.0
 40
57.0
 40
57.0
 40
58.0
 40
58.0
 40
58.0
 40
59.0
 40
59.0
 40
59.0
 40
60.0
 40
60.0
 40
60.0
 40
61.0
 40
61.0
 40
61.0
 40
62.0
 40
62.0
 40
62.0
 40
63.0
 40
63.0
 40
63.0
 40
64.0
 40
64.0
 40
64.0
 40
65.0
 40
65.0
 40
65.0
 40
66.0
 40
66.0
 40
66.0
 40
67.0
 40
67.0
 40
67.0
 40
68.0
 40
68.0
 40
68.0
 40
69.0
 40
69.0
 40
69.0
 40
70.0
 40
70.0
 40
70.0
 40
71.0
 40
71.0
 40
71.0
 40
72.0
 40
72.0
 40
72.0
 40
73.0
 40
73.0
 40
73.0
 40
74.0
 40
74.0
 40
74.0
 40
75.0
 40
75.0
 40
75.0
 40
76.0
 40
76.0
 40
76.0
 40
77.0
 40
77.0
 40
77.0
 40
78.0
 40
78.0
 40
78.0
 40
79.0
 40
79.0
 40
79.0
 40
80.0
 40
80.0
 40
80.0
 40
81.0
 40
81.0
 40
81.0
 40
82.0
 40
82.0
 40
82.0
 40
83.0
 40
83.0
 40
83.0
 40
84.0
 40
84.0
 40
84.0
 40
85.0
 40
85.0
 40
85.0
 40
86.0
 40
86.0
 40
86.0
 40
87.0
 40
87.0
 40
87.0
 40
88.0
 40
88.0
 40
88.0
 40
89.0
 40
89.0
 40
89.0
 40
89.0
 10
137.6567784283137
 20
128.0834609665143
 30
0.0
 10
137.6567784283137
 20
128.0834609665143
 30
0.0
 10
137.6567784283137
 20
128.8687274186834
 30
0.0
 10
137.6567784283137
 20
128.8687274186834
 30
0.0
 10
137.6567784283137
 20
128.8687274186834
 30
0.0
 10
136.2519976805095
 20
128.8687274186834
 30
0.0
 10
136.2519976805095
 20
128.8687274186834
 30
0.0
 10
136.2519976805095
 20
128.8687274186834
 30
0.0
 10
136.2519976805095
 20
129.4225911134777
 30
0.0
 10
136.2519976805095
 20
129.4225911134777
 30
0.0
 10
136.2519976805095
 20
129.4225911134777
 30
0.0
 10
135.2663558621795
 20
129.4225911134777
 30
0.0
 10
135.2663558621795
 20
129.4225911134777
 30
0.0
 10
135.2663558621795
 20
129.4225911134777
 30
0.0
 10
135.2663558621795
 20
129.9693923625272
 30
0.0
 10
135.2663558621795
 20
129.9693923625272
 30
0.0
 10
135.2663558621795
 20
129.9693923625272
 30
0.0
 10
135.2663558621795
 20
130.5169041625205
 30
0.0
 10
135.2663558621795
 20
130.5169041625205
 30
0.0
 10
135.2663558621795
 20
130.5169041625205
 30
0.0
 10
136.2519976805095
 20
130.5169041625205
 30
0.0
 10
136.2519976805095
 20
130.5169041625205
 30
0.0
 10
136.2519976805095
 20
130.5169041625205
 30
0.0
 10
136.2519976805095
 20
131.0778303030595
 30
0.0
 10
136.2519976805095
 20
131.0778303030595
 30
0.0
 10
136.2519976805095
 20
131.0778303030595
 30
0.0
 10
137.0408168873978
 20
131.0778303030595
 30
0.0
 10
137.0408168873978
 20
131.0778303030595
 30
0.0
 10
137.0408168873978
 20
131.0778303030595
 30
0.0
 10
137.0408168873978
 20
131.424966736892
 30
0.0
 10
137.0408168873978
 20
131.424966736892
 30
0.0
 10
137.0408168873978
 20
131.424966736892
 30
0.0
 10
136.8848832529967
 20
131.424966736892
 30
0.0
 10
136.8848832529967
 20
131.424966736892
 30
0.0
 10
136.8848832529967
 20
131.424966736892
 30
0.0
 10
136.8848832529967
 20
132.4437891311143
 30
0.0
 10
136.8848832529967
 20
132.4437891311143
 30
0.0
 10
136.8848832529967
 20
132.4437891311143
 30
0.0
 10
137.6567784283137
 20
132.4437891311143
 30
0.0
 10
137.6567784283137
 20
132.4437891311143
 30
0.0
 10
137.6567784283137
 20
132.4437891311143
 30
0.0
 10
137.6567784283137
 20
139.5635526520123
 30
0.0
 10
137.6567784283137
 20
139.5635526520123
 30
0.0
 10
137.6567784283137
 20
139.5635526520123
 30
0.0
 10
133.664020420143
 20
139.5635526520123
 30
0.0
 10
133.664020420143
 20
139.5635526520123
 30
0.0
 10
133.664020420143
 20
139.5635526520123
 30
0.0
 10
133.664020420143
 20
140.0630699655268
 30
0.0
 10
133.664020420143
 20
140.0630699655268
 30
0.0
 10
133.664020420143
 20
140.0630699655268
 30
0.0
 10
133.664020420143
 20
140.5604986899033
 30
0.0
 10
133.664020420143
 20
140.5604986899033
 30
0.0
 10
133.664020420143
 20
140.5604986899033
 30
0.0
 10
137.6567784283137
 20
140.5604986899033
 30
0.0
 10
137.6567784283137
 20
140.5604986899033
 30
0.0
 10
137.6567784283137
 20
140.5604986899033
 30
0.0
 10
137.6567784283137
 20
192.5592411831427
 30
0.0
 10
137.6567784283137
 20
192.5592411831427
 30
0.0
 10
137.6567784283137
 20
192.5592411831427
 30
0.0
 10
137.1699433725543
 20
192.5592411831427
 30
0.0
 10
137.1699433725543
 20
192.5592411831427
 30
0.0
 10
137.1699433725543
 20
192.5592411831427
 30
0.0
 10
137.1699433725543
 20
192.3482721483648
 30
0.0
 10
137.1699433725543
 20
192.3482721483648
 30
0.0
 10
137.1699433725543
 20
192.3482721483648
 30
0.0
 10
136.4573253714304
 20
192.3482721483648
 30
0.0
 10
136.4573253714304
 20
192.3482721483648
 30
0.0
 10
136.4573253714304
 20
192.3482721483648
 30
0.0
 10
136.4573253714304
 20
192.5592411831427
 30
0.0
 10
136.4573253714304
 20
192.5592411831427
 30
0.0
 10
136.4573253714304
 20
192.5592411831427
 30
0.0
 10
128.5748607737916
 20
192.5592411831427
 30
0.0
 10
128.5748607737916
 20
192.5592411831427
 30
0.0
 10
128.5748607737916
 20
192.5592411831427
 30
0.0
 10
128.5748607737916
 20
191.5368875660481
 30
0.0
 10
128.5748607737916
 20
191.5368875660481
 30
0.0
 10
128.5748607737916
 20
191.5368875660481
 30
0.0
 10
128.0922674918485
 20
191.5368875660481
 30
0.0
 10
128.0922674918485
 20
191.5368875660481
 30
0.0
 10
128.0922674918485
 20
191.5368875660481
 30
0.0
 10
128.0922674918485
 20
194.1693065581743
 30
0.0
 10
128.0922674918485
 20
194.1693065581743
 30
0.0
 10
128.0922674918485
 20
194.1693065581743
 30
0.0
 10
128.5748607737916
 20
194.1693065581743
 30
0.0
 10
128.5748607737916
 20
194.1693065581743
 30
0.0
 10
128.5748607737916
 20
194.1693065581743
 30
0.0
 10
128.5748607737916
 20
193.1413115972225
 30
0.0
 10
128.5748607737916
 20
193.1413115972225
 30
0.0
 10
128.5748607737916
 20
193.1413115972225
 30
0.0
 10
136.4573253714304
 20
193.1413115972225
 30
0.0
 10
136.4573253714304
 20
193.1413115972225
 30
0.0
 10
136.4573253714304
 20
193.1413115972225
 30
0.0
 10
136.4573253714304
 20
193.3628743006176
 30
0.0
 10
136.4573253714304
 20
193.3628743006176
 30
0.0
 10
136.4573253714304
 20
193.3628743006176
 30
0.0
 10
137.1699433725543
 20
193.3628743006176
 30
0.0
 10
137.1699433725543
 20
193.3628743006176
 30
0.0
 10
137.1699433725543
 20
193.3628743006176
 30
0.0
 10
137.1699433725543
 20
193.1413115972225
 30
0.0
 10
137.1699433725543
 20
193.1413115972225
 30
0.0
 10
137.1699433725543
 20
193.1413115972225
 30
0.0
 10
137.6567784283137
 20
193.1413115972225
 30
0.0
 10
137.6567784283137
 20
193.1413115972225
 30
0.0
 10
137.6567784283137
 20
193.1413115972225
 30
0.0
 10
137.6567784283137
 20
196.1505163762011
 30
0.0
 10
137.6567784283137
 20
196.1505163762011
 30
0.0
 10
137.6567784283137
 20
196.1505163762011
 30
0.0
 10
140.2962598661846
 20
196.1505163762011
 30
0.0
 10
140.2962598661846
 20
196.1505163762011
 30
0.0
 10
140.2962598661846
 20
196.1505163762011
 30
0.0
 10
140.2962598661846
 20
140.5604986899033
 30
0.0
 10
140.2962598661846
 20
140.5604986899033
 30
0.0
 10
140.2962598661846
 20
140.5604986899033
 30
0.0
 10
143.0620255854368
 20
140.5604986899033
 30
0.0
 10
143.0620255854368
 20
140.5604986899033
 30
0.0
 10
143.0620255854368
 20
140.5604986899033
 30
0.0
 10
143.0620255854368
 20
141.6061282333702
 30
0.0
 10
143.0620255854368
 20
141.6061282333702
 30
0.0
 10
143.0620255854368
 20
141.6061282333702
 30
0.0
 10
143.796519942892
 20
141.6061282333702
 30
0.0
 10
143.796519942892
 20
141.6061282333702
 30
0.0
 10
143.796519942892
 20
141.6061282333702
 30
0.0
 10
143.796519942892
 20
140.6091821954792
 30
0.0
 10
143.796519942892
 20
140.6091821954792
 30
0.0
 10
143.796519942892
 20
140.6091821954792
 30
0.0
 10
146.9700988402106
 20
140.6091821954792
 30
0.0
 10
146.9700988402106
 20
140.6091821954792
 30
0.0
 10
146.9700988402106
 20
140.6091821954792
 30
0.0
 10
146.9700988402106
 20
141.5073401203306
 30
0.0
 10
146.9700988402106
 20
141.5073401203306
 30
0.0
 10
148.0185490556061
 20
141.5073401203306
 30
0.0
 10
149.3845078836608
 20
140.8716554077617
 30
0.0
 10
149.3845078836608
 20
140.0630699655268
 30
0.0
 10
149.3845078836608
 20
139.2523959341539
 30
0.0
 10
148.0185490556061
 20
138.617400240682
 30
0.0
 10
146.9700988402106
 20
138.617400240682
 30
0.0
 10
146.9700988402106
 20
138.617400240682
 30
0.0
 10
146.9700988402106
 20
139.5127374936049
 30
0.0
 10
146.9700988402106
 20
139.5127374936049
 30
0.0
 10
146.9700988402106
 20
139.5127374936049
 30
0.0
 10
143.796519942892
 20
139.5127374936049
 30
0.0
 10
143.796519942892
 20
139.5127374936049
 30
0.0
 10
143.796519942892
 20
139.5127374936049
 30
0.0
 10
143.796519942892
 20
138.5179015766986
 30
0.0
 10
143.796519942892
 20
138.5179015766986
 30
0.0
 10
143.796519942892
 20
138.5179015766986
 30
0.0
 10
143.0620255854368
 20
138.5179015766986
 30
0.0
 10
143.0620255854368
 20
138.5179015766986
 30
0.0
 10
143.0620255854368
 20
138.5179015766986
 30
0.0
 10
143.0620255854368
 20
139.5635526520123
 30
0.0
 10
143.0620255854368
 20
139.5635526520123
 30
0.0
 10
143.0620255854368
 20
139.5635526520123
 30
0.0
 10
140.2962598661846
 20
139.5635526520123
 30
0.0
 10
140.2962598661846
 20
139.5635526520123
 30
0.0
 10
140.2962598661846
 20
139.5635526520123
 30
0.0
 10
140.2962598661846
 20
130.5169041625205
 30
0.0
 10
140.2962598661846
 20
130.5169041625205
 30
0.0
 10
140.2962598661846
 20
130.5169041625205
 30
0.0
 10
143.1036466452679
 20
130.5169041625205
 30
0.0
 10
143.1036466452679
 20
130.5169041625205
 30
0.0
 10
143.1036466452679
 20
130.5169041625205
 30
0.0
 10
144.6086150761525
 20
129.9693923625272
 30
0.0
 10
144.6086150761525
 20
129.9693923625272
 30
0.0
 10
144.6086150761525
 20
129.9693923625272
 30
0.0
 10
143.1036466452679
 20
129.4225911134777
 30
0.0
 10
143.1036466452679
 20
129.4225911134777
 30
0.0
 10
143.1036466452679
 20
129.4225911134777
 30
0.0
 10
140.2962598661846
 20
129.4225911134777
 30
0.0
 10
140.2962598661846
 20
129.4225911134777
 30
0.0
 10
140.2962598661846
 20
129.4225911134777
 30
0.0
 10
140.2962598661846
 20
128.0834609665143
 30
0.0
 10
140.2962598661846
 20
128.0834609665143
 30
0.0
 10
140.2962598661846
 20
128.0834609665143
 30
0.0
 10
144.1796360926986
 20
128.0834609665143
 30
0.0
 10
144.1796360926986
 20
128.0834609665143
 30
0.0
 10
144.1796360926986
 20
128.0834609665143
 30
0.0
 10
144.5973108565916
 20
127.6643435688869
 30
0.0
 10
144.5973108565916
 20
127.6643435688869
 30
0.0
 10
144.5973108565916
 20
127.6643435688869
 30
0.0
 10
144.5973108565916
 20
126.2821712602046
 30
0.0
 10
144.5973108565916
 20
126.2821712602046
 30
0.0
 10
144.5973108565916
 20
126.2821712602046
 30
0.0
 10
144.5973108565916
 20
124.9013985215633
 30
0.0
 10
144.5973108565916
 20
124.9013985215633
 30
0.0
 10
144.5973108565916
 20
124.9013985215633
 30
0.0
 10
144.1796360926986
 20
124.4823026557826
 30
0.0
 10
144.1796360926986
 20
124.4823026557826
 30
0.0
 10
144.1796360926986
 20
124.4823026557826
 30
0.0
 10
140.2962598661846
 20
124.4823026557826
 30
0.0
 10
140.2962598661846
 20
124.4823026557826
 30
0.0
 10
140.2962598661846
 20
124.4823026557826
 30
0.0
 10
140.2962598661846
 20
120.8529160939187
 30
0.0
 10
140.2962598661846
 20
120.8529160939187
 30
0.0
 10
140.2962598661846
 20
120.8529160939187
 30
0.0
 10
139.7677822187473
 20
120.8529160939187
 30
0.0
 10
139.7677822187473
 20
120.8529160939187
 30
0.0
 10
139.7677822187473
 20
120.8529160939187
 30
0.0
 10
139.7677822187473
 20
119.165938962179
 30
0.0
 10
139.7677822187473
 20
119.165938962179
 30
0.0
 10
139.7677822187473
 20
119.165938962179
 30
0.0
 10
140.1600709352833
 20
119.165938962179
 30
0.0
 10
140.1600709352833
 20
119.165938962179
 30
0.0
 10
140.1600709352833
 20
119.165938962179
 30
0.0
 10
140.1600709352833
 20
118.6219583850581
 30
0.0
 10
140.1600709352833
 20
118.6219583850581
 30
0.0
 10
140.1600709352833
 20
118.6219583850581
 30
0.0
 10
137.7964770502406
 20
118.6219583850581
 30
0.0
 10
137.7964770502406
 20
118.6219583850581
 30
0.0
 10
137.7964770502406
 20
118.6219583850581
 30
0.0
 10
137.7964770502406
 20
119.165938962179
 30
0.0
 10
137.7964770502406
 20
119.165938962179
 30
0.0
 10
137.7964770502406
 20
119.165938962179
 30
0.0
 10
138.1838134420165
 20
119.165938962179
 30
0.0
 10
138.1838134420165
 20
119.165938962179
 30
0.0
 10
138.1838134420165
 20
119.165938962179
 30
0.0
 10
138.1838134420165
 20
120.8529160939187
 30
0.0
 10
138.1838134420165
 20
120.8529160939187
 30
0.0
 10
138.1838134420165
 20
120.8529160939187
 30
0.0
 10
137.6567784283137
 20
120.8529160939187
 30
0.0
 10
137.6567784283137
 20
120.8529160939187
 30
0.0
 10
137.6567784283137
 20
120.8529160939187
 30
0.0
 10
137.6567784283137
 20
124.4823026557826
 30
0.0
 10
137.6567784283137
 20
124.4823026557826
 30
0.0
 10
137.6567784283137
 20
124.4823026557826
 30
0.0
 10
134.7851621502772
 20
124.4823026557826
 30
0.0
 10
134.7851621502772
 20
124.4823026557826
 30
0.0
 10
134.6891947091663
 20
124.4823026557826
 30
0.0
 10
134.6108833824172
 20
124.408211571003
 30
0.0
 10
134.6108833824172
 20
124.3101340089073
 30
0.0
 10
134.6108833824172
 20
123.1240952925697
 30
0.0
 10
134.611593933361
 20
120.754838531823
 30
0.0
 10
134.611593933361
 20
120.754838531823
 30
0.0
 10
134.611593933361
 20
120.754838531823
 30
0.0
 10
135.0074138727694
 20
120.3597291433584
 30
0.0
 10
135.0074138727694
 20
120.3597291433584
 30
0.0
 10
135.0074138727694
 20
120.3597291433584
 30
0.0
 10
135.0074138727694
 20
116.5546642435935
 30
0.0
 10
135.0074138727694
 20
116.5546642435935
 30
0.0
 10
135.0074138727694
 20
116.5546642435935
 30
0.0
 10
134.7646853639868
 20
116.0911266460532
 30
0.0
 10
134.7646853639868
 20
116.0911266460532
 30
0.0
 10
134.7646853639868
 20
116.0911266460532
 30
0.0
 10
133.2625591368775
 20
116.0911266460532
 30
0.0
 10
133.2625591368775
 20
116.0911266460532
 30
0.0
 10
133.2625591368775
 20
116.0911266460532
 30
0.0
 10
131.7590333397274
 20
116.0911266460532
 30
0.0
 10
131.7590333397274
 20
116.0911266460532
 30
0.0
 10
131.7590333397274
 20
116.0911266460532
 30
0.0
 10
131.5156158118477
 20
116.5546642435935
 30
0.0
 10
131.5156158118477
 20
116.5546642435935
 30
0.0
 10
131.5156158118477
 20
116.5546642435935
 30
0.0
 10
131.5156158118477
 20
120.3597291433584
 30
0.0
 10
131.5156158118477
 20
120.3597291433584
 30
0.0
 10
131.5156158118477
 20
120.3597291433584
 30
0.0
 10
131.9121247703531
 20
120.754838531823
 30
0.0
 10
131.9121247703531
 20
120.754838531823
 30
0.0
 10
131.9121247703531
 20
120.754838531823
 30
0.0
 10
131.9121247703531
 20
124.2967412002084
 30
0.0
 10
131.9121247703531
 20
124.2967412002084
 30
0.0
 10
131.9121247703531
 20
125.8898825436686
 30
0.0
 10
133.2047030645721
 20
127.1838604079284
 30
0.0
 10
134.79926550992
 20
127.1838604079284
 30
0.0
 10
134.79926550992
 20
127.1838604079284
 30
0.0
 10
134.79926550992
 20
128.0834609665143
 30
0.0
 10
134.79926550992
 20
128.0834609665143
 30
0.0
 10
134.79926550992
 20
128.0834609665143
 30
0.0
 10
137.6567784283137
 20
128.0834609665143
 30
0.0
 10
137.6567784283137
 20
128.0834609665143
 30
0.0
  0
POLYLINE
  5
12A
330
41
100
AcDbEntity
  8
Capa 1
 62
   250
420
  1842203
370
     9
100
AcDb2dPolyline
 66
     1
 10
0.0
 20
0.0
 30
0.0
  0
VERTEX
  5
12B
330
12A
100
AcDbEntity
  8
Capa 1
 62
   250
420
  1842203
370
     9
100
AcDbVertex
100
AcDb2dVertex
 10
146.9702495631381
 20
140.6091821954792
 30
0.0
  0
VERTEX
  5
12C
330
12A
100
AcDbEntity
  8
Capa 1
 62
   250
420
  1842203
370
     9
100
AcDbVertex
100
AcDb2dVertex
 10
146.9702495631381
 20
139.5127374936049
 30
0.0
  0
SEQEND
  5
12D
330
12A
100
AcDbEntity
  8
Capa 1
 62
   250
420
  1842203
370
     9
  0
POLYLINE
  5
12E
330
41
100
AcDbEntity
  8
Capa 1
 62
   250
420
  1842203
370
     9
100
AcDb2dPolyline
 66
     1
 10
0.0
 20
0.0
 30
0.0
  0
VERTEX
  5
12F
330
12E
100
AcDbEntity
  8
Capa 1
 62
   250
420
  1842203
370
     9
100
AcDbVertex
100
AcDb2dVertex
 10
143.7966491339727
 20
140.6091821954792
 30
0.0
  0
VERTEX
  5
130
330
12E
100
AcDbEntity
  8
Capa 1
 62
   250
420
  1842203
370
     9
100
AcDbVertex
100
AcDb2dVertex
 10
143.7966491339727
 20
139.5127374936049
 30
0.0
  0
SEQEND
  5
131
330
12E
100
AcDbEntity
  8
Capa 1
 62
   250
420
  1842203
370
     9
  0
POLYLINE
  5
132
330
41
100
AcDbEntity
  8
Capa 1
 62
   250
420
  1842203
370
     9
100
AcDb2dPolyline
 66
     1
 10
0.0
 20
0.0
 30
0.0
  0
VERTEX
  5
133
330
132
100
AcDbEntity
  8
Capa 1
 62
   250
420
  1842203
370
     9
100
AcDbVertex
100
AcDb2dVertex
 10
143.0620901809771
 20
140.5602187758951
 30
0.0
  0
VERTEX
  5
134
330
132
100
AcDbEntity
  8
Capa 1
 62
   250
420
  1842203
370
     9
100
AcDbVertex
100
AcDb2dVertex
 10
143.0620901809771
 20
139.5639617571012
 30
0.0
  0
SEQEND
  5
135
330
132
100
AcDbEntity
  8
Capa 1
 62
   250
420
  1842203
370
     9
  0
POLYLINE
  5
136
330
41
100
AcDbEntity
  8
Capa 1
 62
   250
420
  1842203
370
     9
100
AcDb2dPolyline
 66
     1
 10
0.0
 20
0.0
 30
0.0
  0
VERTEX
  5
137
330
136
100
AcDbEntity
  8
Capa 1
 62
   250
420
  1842203
370
     9
100
AcDbVertex
100
AcDb2dVertex
 10
137.0408168873978
 20
131.4252466509002
 30
0.0
  0
VERTEX
  5
138
330
136
100
AcDbEntity
  8
Capa 1
 62
   250
420
  1842203
370
     9
100
AcDbVertex
100
AcDb2dVertex
 10
137.6518261035536
 20
131.4252466509002
 30
0.0
  0
SEQEND
  5
139
330
136
100
AcDbEntity
  8
Capa 1
 62
   250
420
  1842203
370
     9
  0
POLYLINE
  5
13A
330
41
100
AcDbEntity
  8
Capa 1
 62
   250
420
  1842203
370
     9
100
AcDb2dPolyline
 66
     1
 10
0.0
 20
0.0
 30
0.0
  0
VERTEX
  5
13B
330
13A
100
AcDbEntity
  8
Capa 1
 62
   250
420
  1842203
370
     9
100
AcDbVertex
100
AcDb2dVertex
 10
137.0408168873978
 20
131.077981025987
 30
0.0
  0
VERTEX
  5
13C
330
13A
100
AcDbEntity
  8
Capa 1
 62
   250
420
  1842203
370
     9
100
AcDbVertex
100
AcDb2dVertex
 10
137.6518261035536
 20
131.077981025987
 30
0.0
  0
SEQEND
  5
13D
330
13A
100
AcDbEntity
  8
Capa 1
 62
   250
420
  1842203
370
     9
  0
POLYLINE
  5
13E
330
41
100
AcDbEntity
  8
Capa 1
  6
AI-Linetype-1
 62
   250
420
  1842203
370
     9
100
AcDb2dPolyline
 66
     1
 10
0.0
 20
0.0
 30
0.0
  0
VERTEX
  5
13F
330
13E
100
AcDbEntity
  8
Capa 1
  6
AI-Linetype-1
 62
   250
420
  1842203
370
     9
100
AcDbVertex
100
AcDb2dVertex
 10
160.0760818081255
 20
123.3761255591625
 30
0.0
  0
VERTEX
  5
140
330
13E
100
AcDbEntity
  8
Capa 1
  6
AI-Linetype-1
 62
   250
420
  1842203
370
     9
100
AcDbVertex
100
AcDb2dVertex
 10
140.6754141561831
 20
123.3761255591625
 30
0.0
  0
SEQEND
  5
142
330
13E
100
AcDbEntity
  8
Capa 1
  6
AI-Linetype-1
 62
   250
420
  1842203
370
     9
  0
POLYLINE
  5
143
330
41
100
AcDbEntity
  8
Capa 1
  6
AI-Linetype-2
 62
   250
420
  1842203
370
     9
100
AcDb2dPolyline
 66
     1
 10
0.0
 20
0.0
 30
0.0
  0
VERTEX
  5
144
330
143
100
AcDbEntity
  8
Capa 1
  6
AI-Linetype-2
 62
   250
420
  1842203
370
     9
100
AcDbVertex
100
AcDb2dVertex
 10
140.6753495606428
 20
142.6245199906568
 30
0.0
  0
VERTEX
  5
145
330
143
100
AcDbEntity
  8
Capa 1
  6
AI-Linetype-2
 62
   250
420
  1842203
370
     9
100
AcDbVertex
100
AcDb2dVertex
 10
142.6805243241389
 20
142.6245199906568
 30
0.0
  0
VERTEX
  5
146
330
143
100
AcDbEntity
  8
Capa 1
  6
AI-Linetype-2
 62
   250
420
  1842203
370
     9
100
AcDbVertex
100
AcDb2dVertex
 10
142.6805243241389
 20
143.7138807149396
 30
0.0
  0
VERTEX
  5
147
330
143
100
AcDbEntity
  8
Capa 1
  6
AI-Linetype-2
 62
   250
420
  1842203
370
     9
100
AcDbVertex
100
AcDb2dVertex
 10
177.6259795698513
 20
143.7138807149396
 30
0.0
  0
VERTEX
  5
148
330
143
100
AcDbEntity
  8
Capa 1
  6
AI-Linetype-2
 62
   250
420
  1842203
370
     9
100
AcDbVertex
100
AcDb2dVertex
 10
177.6259795698513
 20
142.6245199906568
 30
0.0
  0
VERTEX
  5
149
330
143
100
AcDbEntity
  8
Capa 1
  6
AI-Linetype-2
 62
   250
420
  1842203
370
     9
100
AcDbVertex
100
AcDb2dVertex
 10
178.1438635486715
 20
142.6245199906568
 30
0.0
  0
VERTEX
  5
14A
330
143
100
AcDbEntity
  8
Capa 1
  6
AI-Linetype-2
 62
   250
420
  1842203
370
     9
100
AcDbVertex
100
AcDb2dVertex
 10
178.1438635486715
 20
123.3769437693402
 30
0.0
  0
VERTEX
  5
14B
330
143
100
AcDbEntity
  8
Capa 1
  6
AI-Linetype-2
 62
   250
420
  1842203
370
     9
100
AcDbVertex
100
AcDb2dVertex
 10
165.5567550245288
 20
123.3769437693402
 30
0.0
  0
SEQEND
  5
14D
330
143
100
AcDbEntity
  8
Capa 1
  6
AI-Linetype-2
 62
   250
420
  1842203
370
     9
  0
POLYLINE
  5
14E
330
41
100
AcDbEntity
  8
Capa 1
  6
AI-Linetype-3
 62
   250
420
  1842203
370
     9
100
AcDb2dPolyline
 66
     1
 10
0.0
 20
0.0
 30
0.0
  0
VERTEX
  5
14F
330
14E
100
AcDbEntity
  8
Capa 1
  6
AI-Linetype-3
 62
   250
420
  1842203
370
     9
100
AcDbVertex
100
AcDb2dVertex
 10
142.142981769206
 20
142.6245199906568
 30
0.0
  0
VERTEX
  5
150
330
14E
100
AcDbEntity
  8
Capa 1
  6
AI-Linetype-3
 62
   250
420
  1842203
370
     9
100
AcDbVertex
100
AcDb2dVertex
 10
142.142981769206
 20
128.2953774025507
 30
0.0
  0
SEQEND
  5
152
330
14E
100
AcDbEntity
  8
Capa 1
  6
AI-Linetype-3
 62
   250
420
  1842203
370
     9
  0
POLYLINE
  5
153
330
41
100
AcDbEntity
  8
Capa 1
  6
AI-Linetype-4
 62
   250
420
  1842203
370
     9
100
AcDb2dPolyline
 66
     1
 10
0.0
 20
0.0
 30
0.0
  0
VERTEX
  5
154
330
153
100
AcDbEntity
  8
Capa 1
  6
AI-Linetype-4
 62
   250
420
  1842203
370
     9
100
AcDbVertex
100
AcDb2dVertex
 10
146.1137772936582
 20
142.667928193771
 30
0.0
  0
VERTEX
  5
155
330
153
100
AcDbEntity
  8
Capa 1
  6
AI-Linetype-4
 62
   250
420
  1842203
370
     9
100
AcDbVertex
100
AcDb2dVertex
 10
146.1137772936582
 20
123.3759102406947
 30
0.0
  0
SEQEND
  5
157
330
153
100
AcDbEntity
  8
Capa 1
  6
AI-Linetype-4
 62
   250
420
  1842203
370
     9
  0
POLYLINE
  5
158
330
41
100
AcDbEntity
  8
Capa 1
  6
AI-Linetype-5
 62
   250
420
  1842203
370
     9
100
AcDb2dPolyline
 66
     1
 10
0.0
 20
0.0
 30
0.0
  0
VERTEX
  5
159
330
158
100
AcDbEntity
  8
Capa 1
  6
AI-Linetype-5
 62
   250
420
  1842203
370
     9
100
AcDbVertex
100
AcDb2dVertex
 10
142.6803951330582
 20
142.6245199906568
 30
0.0
  0
VERTEX
  5
15A
330
158
100
AcDbEntity
  8
Capa 1
  6
AI-Linetype-5
 62
   250
420
  1842203
370
     9
100
AcDbVertex
100
AcDb2dVertex
 10
177.6258503787706
 20
142.6245199906568
 30
0.0
  0
SEQEND
  5
15C
330
158
100
AcDbEntity
  8
Capa 1
  6
AI-Linetype-5
 62
   250
420
  1842203
370
     9
  0
POLYLINE
  5
15D
330
41
100
AcDbEntity
  8
Capa 1
  6
AI-Linetype-6
 62
   250
420
  1842203
370
     9
100
AcDb2dPolyline
 66
     1
 10
0.0
 20
0.0
 30
0.0
  0
VERTEX
  5
15E
330
15D
100
AcDbEntity
  8
Capa 1
  6
AI-Linetype-6
 62
   250
420
  1842203
370
     9
100
AcDbVertex
100
AcDb2dVertex
 10
174.288500254822
 20
142.6093615705217
 30
0.0
  0
VERTEX
  5
15F
330
15D
100
AcDbEntity
  8
Capa 1
  6
AI-Linetype-6
 62
   250
420
  1842203
370
     9
100
AcDbVertex
100
AcDb2dVertex
 10
174.288500254822
 20
123.3759102406947
 30
0.0
  0
SEQEND
  5
161
330
15D
100
AcDbEntity
  8
Capa 1
  6
AI-Linetype-6
 62
   250
420
  1842203
370
     9
  0
POLYLINE
  5
162
330
41
100
AcDbEntity
  8
Capa 1
 62
   250
420
  1842203
370
     9
100
AcDb2dPolyline
 66
     1
 10
0.0
 20
0.0
 30
0.0
  0
VERTEX
  5
163
330
162
100
AcDbEntity
  8
Capa 1
 62
   250
420
  1842203
370
     9
100
AcDbVertex
100
AcDb2dVertex
 10
127.6301940598893
 20
121.3448972610592
 30
0.0
  0
VERTEX
  5
164
330
162
100
AcDbEntity
  8
Capa 1
 62
   250
420
  1842203
370
     9
100
AcDbVertex
100
AcDb2dVertex
 10
124.9180211072796
 20
118.6207310697914
 30
0.0
  0
SEQEND
  5
165
330
162
100
AcDbEntity
  8
Capa 1
 62
   250
420
  1842203
370
     9
  0
POLYLINE
  5
166
330
41
100
AcDbEntity
  8
Capa 1
 62
   250
420
  1842203
370
     9
100
AcDb2dPolyline
 66
     1
 10
0.0
 20
0.0
 30
0.0
  0
VERTEX
  5
167
330
166
100
AcDbEntity
  8
Capa 1
 62
   250
420
  1842203
370
     9
100
AcDbVertex
100
AcDb2dVertex
 10
127.6301940598893
 20
124.0789250381535
 30
0.0
  0
VERTEX
  5
168
330
166
100
AcDbEntity
  8
Capa 1
 62
   250
420
  1842203
370
     9
100
AcDbVertex
100
AcDb2dVertex
 10
122.2065802374605
 20
118.635544980378
 30
0.0
  0
SEQEND
  5
169
330
166
100
AcDbEntity
  8
Capa 1
 62
   250
420
  1842203
370
     9
  0
POLYLINE
  5
16A
330
41
100
AcDbEntity
  8
Capa 1
 62
   250
420
  1842203
370
     9
100
AcDb2dPolyline
 66
     1
 10
0.0
 20
0.0
 30
0.0
  0
VERTEX
  5
16B
330
16A
100
AcDbEntity
  8
Capa 1
 62
   250
420
  1842203
370
     9
100
AcDbVertex
100
AcDb2dVertex
 10
127.6301940598893
 20
126.8267116653419
 30
0.0
  0
VERTEX
  5
16C
330
16A
100
AcDbEntity
  8
Capa 1
 62
   250
420
  1842203
370
     9
100
AcDbVertex
100
AcDb2dVertex
 10
120.7615995317128
 20
119.9764622706244
 30
0.0
  0
SEQEND
  5
16D
330
16A
100
AcDbEntity
  8
Capa 1
 62
   250
420
  1842203
370
     9
  0
POLYLINE
  5
16E
330
41
100
AcDbEntity
  8
Capa 1
 62
   250
420
  1842203
370
     9
100
AcDb2dPolyline
 66
     1
 10
0.0
 20
0.0
 30
0.0
  0
VERTEX
  5
16F
330
16E
100
AcDbEntity
  8
Capa 1
 62
   250
420
  1842203
370
     9
100
AcDbVertex
100
AcDb2dVertex
 10
127.6301940598893
 20
129.5938338909414
 30
0.0
  0
VERTEX
  5
170
330
16E
100
AcDbEntity
  8
Capa 1
 62
   250
420
  1842203
370
     9
100
AcDbVertex
100
AcDb2dVertex
 10
120.7615995317128
 20
122.7061836783621
 30
0.0
  0
SEQEND
  5
171
330
16E
100
AcDbEntity
  8
Capa 1
 62
   250
420
  1842203
370
     9
  0
POLYLINE
  5
172
330
41
100
AcDbEntity
  8
Capa 1
 62
   250
420
  1842203
370
     9
100
AcDb2dPolyline
 66
     1
 10
0.0
 20
0.0
 30
0.0
  0
VERTEX
  5
173
330
172
100
AcDbEntity
  8
Capa 1
 62
   250
420
  1842203
370
     9
100
AcDbVertex
100
AcDb2dVertex
 10
127.6301940598893
 20
132.3333738208121
 30
0.0
  0
VERTEX
  5
174
330
172
100
AcDbEntity
  8
Capa 1
 62
   250
420
  1842203
370
     9
100
AcDbVertex
100
AcDb2dVertex
 10
120.7615995317128
 20
125.4873661999107
 30
0.0
  0
SEQEND
  5
175
330
172
100
AcDbEntity
  8
Capa 1
 62
   250
420
  1842203
370
     9
  0
POLYLINE
  5
176
330
41
100
AcDbEntity
  8
Capa 1
 62
   250
420
  1842203
370
     9
100
AcDb2dPolyline
 66
     1
 10
0.0
 20
0.0
 30
0.0
  0
VERTEX
  5
177
330
176
100
AcDbEntity
  8
Capa 1
 62
   250
420
  1842203
370
     9
100
AcDbVertex
100
AcDb2dVertex
 10
127.6301940598893
 20
135.0990749445238
 30
0.0
  0
VERTEX
  5
178
330
176
100
AcDbEntity
  8
Capa 1
 62
   250
420
  1842203
370
     9
100
AcDbVertex
100
AcDb2dVertex
 10
120.7615995317128
 20
128.219908279577
 30
0.0
  0
SEQEND
  5
179
330
176
100
AcDbEntity
  8
Capa 1
 62
   250
420
  1842203
370
     9
  0
POLYLINE
  5
17A
330
41
100
AcDbEntity
  8
Capa 1
 62
   250
420
  1842203
370
     9
100
AcDb2dPolyline
 66
     1
 10
0.0
 20
0.0
 30
0.0
  0
VERTEX
  5
17B
330
17A
100
AcDbEntity
  8
Capa 1
 62
   250
420
  1842203
370
     9
100
AcDbVertex
100
AcDb2dVertex
 10
127.6301940598893
 20
137.8427705208236
 30
0.0
  0
VERTEX
  5
17C
330
17A
100
AcDbEntity
  8
Capa 1
 62
   250
420
  1842203
370
     9
100
AcDbVertex
100
AcDb2dVertex
 10
120.7615995317128
 20
130.9840591103204
 30
0.0
  0
SEQEND
  5
17D
330
17A
100
AcDbEntity
  8
Capa 1
 62
   250
420
  1842203
370
     9
  0
POLYLINE
  5
17E
330
41
100
AcDbEntity
  8
Capa 1
 62
   250
420
  1842203
370
     9
100
AcDb2dPolyline
 66
     1
 10
0.0
 20
0.0
 30
0.0
  0
VERTEX
  5
17F
330
17E
100
AcDbEntity
  8
Capa 1
 62
   250
420
  1842203
370
     9
100
AcDbVertex
100
AcDb2dVertex
 10
127.6301940598893
 20
140.6029810236058
 30
0.0
  0
VERTEX
  5
180
330
17E
100
AcDbEntity
  8
Capa 1
 62
   250
420
  1842203
370
     9
100
AcDbVertex
100
AcDb2dVertex
 10
120.7615995317128
 20
133.7336759444854
 30
0.0
  0
SEQEND
  5
181
330
17E
100
AcDbEntity
  8
Capa 1
 62
   250
420
  1842203
370
     9
  0
POLYLINE
  5
182
330
41
100
AcDbEntity
  8
Capa 1
 62
   250
420
  1842203
370
     9
100
AcDb2dPolyline
 66
     1
 10
0.0
 20
0.0
 30
0.0
  0
VERTEX
  5
183
330
182
100
AcDbEntity
  8
Capa 1
 62
   250
420
  1842203
370
     9
100
AcDbVertex
100
AcDb2dVertex
 10
127.6301940598893
 20
143.3576793736115
 30
0.0
  0
VERTEX
  5
184
330
182
100
AcDbEntity
  8
Capa 1
 62
   250
420
  1842203
370
     9
100
AcDbVertex
100
AcDb2dVertex
 10
120.7615995317128
 20
136.4848430716188
 30
0.0
  0
SEQEND
  5
185
330
182
100
AcDbEntity
  8
Capa 1
 62
   250
420
  1842203
370
     9
  0
POLYLINE
  5
186
330
41
100
AcDbEntity
  8
Capa 1
 62
   250
420
  1842203
370
     9
100
AcDb2dPolyline
 66
     1
 10
0.0
 20
0.0
 30
0.0
  0
VERTEX
  5
187
330
186
100
AcDbEntity
  8
Capa 1
 62
   250
420
  1842203
370
     9
100
AcDbVertex
100
AcDb2dVertex
 10
127.6301940598893
 20
146.1133681885693
 30
0.0
  0
VERTEX
  5
188
330
186
100
AcDbEntity
  8
Capa 1
 62
   250
420
  1842203
370
     9
100
AcDbVertex
100
AcDb2dVertex
 10
120.7615995317128
 20
139.2468837813775
 30
0.0
  0
SEQEND
  5
189
330
186
100
AcDbEntity
  8
Capa 1
 62
   250
420
  1842203
370
     9
  0
POLYLINE
  5
18A
330
41
100
AcDbEntity
  8
Capa 1
 62
   250
420
  1842203
370
     9
100
AcDb2dPolyline
 66
     1
 10
0.0
 20
0.0
 30
0.0
  0
VERTEX
  5
18B
330
18A
100
AcDbEntity
  8
Capa 1
 62
   250
420
  1842203
370
     9
100
AcDbVertex
100
AcDb2dVertex
 10
127.6301940598893
 20
148.8643199972349
 30
0.0
  0
VERTEX
  5
18C
330
18A
100
AcDbEntity
  8
Capa 1
 62
   250
420
  1842203
370
     9
100
AcDbVertex
100
AcDb2dVertex
 10
120.7615995317128
 20
141.9964360200022
 30
0.0
  0
SEQEND
  5
18D
330
18A
100
AcDbEntity
  8
Capa 1
 62
   250
420
  1842203
370
     9
  0
POLYLINE
  5
18E
330
41
100
AcDbEntity
  8
Capa 1
 62
   250
420
  1842203
370
     9
100
AcDb2dPolyline
 66
     1
 10
0.0
 20
0.0
 30
0.0
  0
VERTEX
  5
18F
330
18E
100
AcDbEntity
  8
Capa 1
 62
   250
420
  1842203
370
     9
100
AcDbVertex
100
AcDb2dVertex
 10
127.6301940598893
 20
151.6221189331774
 30
0.0
  0
VERTEX
  5
190
330
18E
100
AcDbEntity
  8
Capa 1
 62
   250
420
  1842203
370
     9
100
AcDbVertex
100
AcDb2dVertex
 10
120.7615995317128
 20
144.752813854057
 30
0.0
  0
SEQEND
  5
191
330
18E
100
AcDbEntity
  8
Capa 1
 62
   250
420
  1842203
370
     9
  0
POLYLINE
  5
192
330
41
100
AcDbEntity
  8
Capa 1
 62
   250
420
  1842203
370
     9
100
AcDb2dPolyline
 66
     1
 10
0.0
 20
0.0
 30
0.0
  0
VERTEX
  5
193
330
192
100
AcDbEntity
  8
Capa 1
 62
   250
420
  1842203
370
     9
100
AcDbVertex
100
AcDb2dVertex
 10
127.6301940598893
 20
154.3706161113097
 30
0.0
  0
VERTEX
  5
194
330
192
100
AcDbEntity
  8
Capa 1
 62
   250
420
  1842203
370
     9
100
AcDbVertex
100
AcDb2dVertex
 10
120.7615995317128
 20
147.5083734779341
 30
0.0
  0
SEQEND
  5
195
330
192
100
AcDbEntity
  8
Capa 1
 62
   250
420
  1842203
370
     9
  0
POLYLINE
  5
196
330
41
100
AcDbEntity
  8
Capa 1
 62
   250
420
  1842203
370
     9
100
AcDb2dPolyline
 66
     1
 10
0.0
 20
0.0
 30
0.0
  0
VERTEX
  5
197
330
196
100
AcDbEntity
  8
Capa 1
 62
   250
420
  1842203
370
     9
100
AcDbVertex
100
AcDb2dVertex
 10
127.6301940598893
 20
157.1308266140919
 30
0.0
  0
VERTEX
  5
198
330
196
100
AcDbEntity
  8
Capa 1
 62
   250
420
  1842203
370
     9
100
AcDbVertex
100
AcDb2dVertex
 10
120.7615995317128
 20
150.2594114139868
 30
0.0
  0
SEQEND
  5
199
330
196
100
AcDbEntity
  8
Capa 1
 62
   250
420
  1842203
370
     9
  0
POLYLINE
  5
19A
330
41
100
AcDbEntity
  8
Capa 1
 62
   250
420
  1842203
370
     9
100
AcDb2dPolyline
 66
     1
 10
0.0
 20
0.0
 30
0.0
  0
VERTEX
  5
19B
330
19A
100
AcDbEntity
  8
Capa 1
 62
   250
420
  1842203
370
     9
100
AcDbVertex
100
AcDb2dVertex
 10
127.6301940598893
 20
159.8820583367656
 30
0.0
  0
VERTEX
  5
19C
330
19A
100
AcDbEntity
  8
Capa 1
 62
   250
420
  1842203
370
     9
100
AcDbVertex
100
AcDb2dVertex
 10
120.7615995317128
 20
153.0127532576452
 30
0.0
  0
SEQEND
  5
19D
330
19A
100
AcDbEntity
  8
Capa 1
 62
   250
420
  1842203
370
     9
  0
POLYLINE
  5
19E
330
41
100
AcDbEntity
  8
Capa 1
 62
   250
420
  1842203
370
     9
100
AcDb2dPolyline
 66
     1
 10
0.0
 20
0.0
 30
0.0
  0
VERTEX
  5
19F
330
19E
100
AcDbEntity
  8
Capa 1
 62
   250
420
  1842203
370
     9
100
AcDbVertex
100
AcDb2dVertex
 10
127.6301940598893
 20
162.6333115912861
 30
0.0
  0
VERTEX
  5
1A0
330
19E
100
AcDbEntity
  8
Capa 1
 62
   250
420
  1842203
370
     9
100
AcDbVertex
100
AcDb2dVertex
 10
120.7615995317128
 20
155.768248285982
 30
0.0
  0
SEQEND
  5
1A1
330
19E
100
AcDbEntity
  8
Capa 1
 62
   250
420
  1842203
370
     9
  0
POLYLINE
  5
1A2
330
41
100
AcDbEntity
  8
Capa 1
 62
   250
420
  1842203
370
     9
100
AcDb2dPolyline
 66
     1
 10
0.0
 20
0.0
 30
0.0
  0
VERTEX
  5
1A3
330
1A2
100
AcDbEntity
  8
Capa 1
 62
   250
420
  1842203
370
     9
100
AcDbVertex
100
AcDb2dVertex
 10
127.6301940598893
 20
165.3894310431796
 30
0.0
  0
VERTEX
  5
1A4
330
1A2
100
AcDbEntity
  8
Capa 1
 62
   250
420
  1842203
370
     9
100
AcDbVertex
100
AcDb2dVertex
 10
120.7615995317128
 20
158.5208365150031
 30
0.0
  0
SEQEND
  5
1A5
330
1A2
100
AcDbEntity
  8
Capa 1
 62
   250
420
  1842203
370
     9
  0
POLYLINE
  5
1A6
330
41
100
AcDbEntity
  8
Capa 1
 62
   250
420
  1842203
370
     9
100
AcDb2dPolyline
 66
     1
 10
0.0
 20
0.0
 30
0.0
  0
VERTEX
  5
1A7
330
1A6
100
AcDbEntity
  8
Capa 1
 62
   250
420
  1842203
370
     9
100
AcDbVertex
100
AcDb2dVertex
 10
127.6301940598893
 20
168.1434188422415
 30
0.0
  0
VERTEX
  5
1A8
330
1A6
100
AcDbEntity
  8
Capa 1
 62
   250
420
  1842203
370
     9
100
AcDbVertex
100
AcDb2dVertex
 10
120.7615995317128
 20
161.2783555369374
 30
0.0
  0
SEQEND
  5
1A9
330
1A6
100
AcDbEntity
  8
Capa 1
 62
   250
420
  1842203
370
     9
  0
POLYLINE
  5
1AA
330
41
100
AcDbEntity
  8
Capa 1
 62
   250
420
  1842203
370
     9
100
AcDb2dPolyline
 66
     1
 10
0.0
 20
0.0
 30
0.0
  0
VERTEX
  5
1AB
330
1AA
100
AcDbEntity
  8
Capa 1
 62
   250
420
  1842203
370
     9
100
AcDbVertex
100
AcDb2dVertex
 10
127.6301940598893
 20
170.8981171922473
 30
0.0
  0
VERTEX
  5
1AC
330
1AA
100
AcDbEntity
  8
Capa 1
 62
   250
420
  1842203
370
     9
100
AcDbVertex
100
AcDb2dVertex
 10
120.7615995317128
 20
164.027412543086
 30
0.0
  0
SEQEND
  5
1AD
330
1AA
100
AcDbEntity
  8
Capa 1
 62
   250
420
  1842203
370
     9
  0
POLYLINE
  5
1AE
330
41
100
AcDbEntity
  8
Capa 1
 62
   250
420
  1842203
370
     9
100
AcDb2dPolyline
 66
     1
 10
0.0
 20
0.0
 30
0.0
  0
VERTEX
  5
1AF
330
1AE
100
AcDbEntity
  8
Capa 1
 62
   250
420
  1842203
370
     9
100
AcDbVertex
100
AcDb2dVertex
 10
127.6301940598893
 20
173.6521049913092
 30
0.0
  0
VERTEX
  5
1B0
330
1AE
100
AcDbEntity
  8
Capa 1
 62
   250
420
  1842203
370
     9
100
AcDbVertex
100
AcDb2dVertex
 10
120.7615995317128
 20
166.7835104631327
 30
0.0
  0
SEQEND
  5
1B1
330
1AE
100
AcDbEntity
  8
Capa 1
 62
   250
420
  1842203
370
     9
  0
POLYLINE
  5
1B2
330
41
100
AcDbEntity
  8
Capa 1
 62
   250
420
  1842203
370
     9
100
AcDb2dPolyline
 66
     1
 10
0.0
 20
0.0
 30
0.0
  0
VERTEX
  5
1B3
330
1B2
100
AcDbEntity
  8
Capa 1
 62
   250
420
  1842203
370
     9
100
AcDbVertex
100
AcDb2dVertex
 10
127.6301940598893
 20
176.4033582458297
 30
0.0
  0
VERTEX
  5
1B4
330
1B2
100
AcDbEntity
  8
Capa 1
 62
   250
420
  1842203
370
     9
100
AcDbVertex
100
AcDb2dVertex
 10
120.7615995317128
 20
169.5361848195409
 30
0.0
  0
SEQEND
  5
1B5
330
1B2
100
AcDbEntity
  8
Capa 1
 62
   250
420
  1842203
370
     9
  0
POLYLINE
  5
1B6
330
41
100
AcDbEntity
  8
Capa 1
 62
   250
420
  1842203
370
     9
100
AcDb2dPolyline
 66
     1
 10
0.0
 20
0.0
 30
0.0
  0
VERTEX
  5
1B7
330
1B6
100
AcDbEntity
  8
Capa 1
 62
   250
420
  1842203
370
     9
100
AcDbVertex
100
AcDb2dVertex
 10
127.6301940598893
 20
179.1594776977232
 30
0.0
  0
VERTEX
  5
1B8
330
1B6
100
AcDbEntity
  8
Capa 1
 62
   250
420
  1842203
370
     9
100
AcDbVertex
100
AcDb2dVertex
 10
120.7615995317128
 20
172.2923042714343
 30
0.0
  0
SEQEND
  5
1B9
330
1B6
100
AcDbEntity
  8
Capa 1
 62
   250
420
  1842203
370
     9
  0
POLYLINE
  5
1BA
330
41
100
AcDbEntity
  8
Capa 1
 62
   250
420
  1842203
370
     9
100
AcDb2dPolyline
 66
     1
 10
0.0
 20
0.0
 30
0.0
  0
VERTEX
  5
1BB
330
1BA
100
AcDbEntity
  8
Capa 1
 62
   250
420
  1842203
370
     9
100
AcDbVertex
100
AcDb2dVertex
 10
127.6301940598893
 20
181.9141760477289
 30
0.0
  0
VERTEX
  5
1BC
330
1BA
100
AcDbEntity
  8
Capa 1
 62
   250
420
  1842203
370
     9
100
AcDbVertex
100
AcDb2dVertex
 10
120.7615995317128
 20
175.0427608476239
 30
0.0
  0
SEQEND
  5
1BD
330
1BA
100
AcDbEntity
  8
Capa 1
 62
   250
420
  1842203
370
     9
  0
POLYLINE
  5
1BE
330
41
100
AcDbEntity
  8
Capa 1
 62
   250
420
  1842203
370
     9
100
AcDb2dPolyline
 66
     1
 10
0.0
 20
0.0
 30
0.0
  0
VERTEX
  5
1BF
330
1BE
100
AcDbEntity
  8
Capa 1
 62
   250
420
  1842203
370
     9
100
AcDbVertex
100
AcDb2dVertex
 10
127.6301940598893
 20
184.6678193372423
 30
0.0
  0
VERTEX
  5
1C0
330
1BE
100
AcDbEntity
  8
Capa 1
 62
   250
420
  1842203
370
     9
100
AcDbVertex
100
AcDb2dVertex
 10
120.7615995317128
 20
177.8006459109535
 30
0.0
  0
SEQEND
  5
1C1
330
1BE
100
AcDbEntity
  8
Capa 1
 62
   250
420
  1842203
370
     9
  0
POLYLINE
  5
1C2
330
41
100
AcDbEntity
  8
Capa 1
 62
   250
420
  1842203
370
     9
100
AcDb2dPolyline
 66
     1
 10
0.0
 20
0.0
 30
0.0
  0
VERTEX
  5
1C3
330
1C2
100
AcDbEntity
  8
Capa 1
 62
   250
420
  1842203
370
     9
100
AcDbVertex
100
AcDb2dVertex
 10
127.6301940598893
 20
187.4235081522001
 30
0.0
  0
VERTEX
  5
1C4
330
1C2
100
AcDbEntity
  8
Capa 1
 62
   250
420
  1842203
370
     9
100
AcDbVertex
100
AcDb2dVertex
 10
120.7615995317128
 20
180.5513824011512
 30
0.0
  0
SEQEND
  5
1C5
330
1C2
100
AcDbEntity
  8
Capa 1
 62
   250
420
  1842203
370
     9
  0
POLYLINE
  5
1C6
330
41
100
AcDbEntity
  8
Capa 1
 62
   250
420
  1842203
370
     9
100
AcDb2dPolyline
 66
     1
 10
0.0
 20
0.0
 30
0.0
  0
VERTEX
  5
1C7
330
1C6
100
AcDbEntity
  8
Capa 1
 62
   250
420
  1842203
370
     9
100
AcDbVertex
100
AcDb2dVertex
 10
127.6301940598893
 20
190.1775605468024
 30
0.0
  0
VERTEX
  5
1C8
330
1C6
100
AcDbEntity
  8
Capa 1
 62
   250
420
  1842203
370
     9
100
AcDbVertex
100
AcDb2dVertex
 10
120.7615995317128
 20
183.3054347957535
 30
0.0
  0
SEQEND
  5
1C9
330
1C6
100
AcDbEntity
  8
Capa 1
 62
   250
420
  1842203
370
     9
  0
POLYLINE
  5
1CA
330
41
100
AcDbEntity
  8
Capa 1
 62
   250
420
  1842203
370
     9
100
AcDb2dPolyline
 66
     1
 10
0.0
 20
0.0
 30
0.0
  0
VERTEX
  5
1CB
330
1CA
100
AcDbEntity
  8
Capa 1
 62
   250
420
  1842203
370
     9
100
AcDbVertex
100
AcDb2dVertex
 10
127.6301940598893
 20
192.9315483458643
 30
0.0
  0
VERTEX
  5
1CC
330
1CA
100
AcDbEntity
  8
Capa 1
 62
   250
420
  1842203
370
     9
100
AcDbVertex
100
AcDb2dVertex
 10
120.7615995317128
 20
186.0594225948155
 30
0.0
  0
SEQEND
  5
1CD
330
1CA
100
AcDbEntity
  8
Capa 1
 62
   250
420
  1842203
370
     9
  0
POLYLINE
  5
1CE
330
41
100
AcDbEntity
  8
Capa 1
 62
   250
420
  1842203
370
     9
100
AcDb2dPolyline
 66
     1
 10
0.0
 20
0.0
 30
0.0
  0
VERTEX
  5
1CF
330
1CE
100
AcDbEntity
  8
Capa 1
 62
   250
420
  1842203
370
     9
100
AcDbVertex
100
AcDb2dVertex
 10
127.6301940598893
 20
195.6862682277169
 30
0.0
  0
VERTEX
  5
1D0
330
1CE
100
AcDbEntity
  8
Capa 1
 62
   250
420
  1842203
370
     9
100
AcDbVertex
100
AcDb2dVertex
 10
120.7615995317128
 20
188.814142476668
 30
0.0
  0
SEQEND
  5
1D1
330
1CE
100
AcDbEntity
  8
Capa 1
 62
   250
420
  1842203
370
     9
  0
POLYLINE
  5
1D2
330
41
100
AcDbEntity
  8
Capa 1
 62
   250
420
  1842203
370
     9
100
AcDb2dPolyline
 66
     1
 10
0.0
 20
0.0
 30
0.0
  0
VERTEX
  5
1D3
330
1D2
100
AcDbEntity
  8
Capa 1
 62
   250
420
  1842203
370
     9
100
AcDbVertex
100
AcDb2dVertex
 10
127.6301940598893
 20
198.4406005363274
 30
0.0
  0
VERTEX
  5
1D4
330
1D2
100
AcDbEntity
  8
Capa 1
 62
   250
420
  1842203
370
     9
100
AcDbVertex
100
AcDb2dVertex
 10
120.7615995317128
 20
191.5684747852785
 30
0.0
  0
SEQEND
  5
1D5
330
1D2
100
AcDbEntity
  8
Capa 1
 62
   250
420
  1842203
370
     9
  0
POLYLINE
  5
1D6
330
41
100
AcDbEntity
  8
Capa 1
 62
   250
420
  1842203
370
     9
100
AcDb2dPolyline
 66
     1
 10
0.0
 20
0.0
 30
0.0
  0
VERTEX
  5
1D7
330
1D6
100
AcDbEntity
  8
Capa 1
 62
   250
420
  1842203
370
     9
100
AcDbVertex
100
AcDb2dVertex
 10
124.8568706624164
 20
198.4237411002964
 30
0.0
  0
VERTEX
  5
1D8
330
1D6
100
AcDbEntity
  8
Capa 1
 62
   250
420
  1842203
370
     9
100
AcDbVertex
100
AcDb2dVertex
 10
120.7611042992368
 20
194.3230439442035
 30
0.0
  0
SEQEND
  5
1D9
330
1D6
100
AcDbEntity
  8
Capa 1
 62
   250
420
  1842203
370
     9
  0
POLYLINE
  5
1DA
330
41
100
AcDbEntity
  8
Capa 1
 62
   250
420
  1842203
370
     9
100
AcDb2dPolyline
 66
     1
 10
0.0
 20
0.0
 30
0.0
  0
VERTEX
  5
1DB
330
1DA
100
AcDbEntity
  8
Capa 1
 62
   250
420
  1842203
370
     9
100
AcDbVertex
100
AcDb2dVertex
 10
122.0931935323022
 20
198.4147838520348
 30
0.0
  0
VERTEX
  5
1DC
330
1DA
100
AcDbEntity
  8
Capa 1
 62
   250
420
  1842203
370
     9
100
AcDbVertex
100
AcDb2dVertex
 10
120.7611042992368
 20
197.0777422942093
 30
0.0
  0
SEQEND
  5
1DD
330
1DA
100
AcDbEntity
  8
Capa 1
 62
   250
420
  1842203
370
     9
  0
POLYLINE
  5
1DE
330
41
100
AcDbEntity
  8
Capa 1
 62
   250
420
  1842203
370
     9
100
AcDb2dPolyline
 66
     1
 10
0.0
 20
0.0
 30
0.0
  0
VERTEX
  5
1DF
330
1DE
100
AcDbEntity
  8
Capa 1
 62
   250
420
  1842203
370
     9
100
AcDbVertex
100
AcDb2dVertex
 10
120.7455152421661
 20
198.4406005363274
 30
0.0
  0
VERTEX
  5
1E0
330
1DE
100
AcDbEntity
  8
Capa 1
 62
   250
420
  1842203
370
     9
100
AcDbVertex
100
AcDb2dVertex
 10
120.7455152421661
 20
118.6224966812276
 30
0.0
  0
VERTEX
  5
1E1
330
1DE
100
AcDbEntity
  8
Capa 1
 62
   250
420
  1842203
370
     9
100
AcDbVertex
100
AcDb2dVertex
 10
127.613377687552
 20
118.6224966812276
 30
0.0
  0
VERTEX
  5
1E2
330
1DE
100
AcDbEntity
  8
Capa 1
 62
   250
420
  1842203
370
     9
100
AcDbVertex
100
AcDb2dVertex
 10
127.613377687552
 20
198.5111388663879
 30
0.0
  0
SEQEND
  5
1E3
330
1DE
100
AcDbEntity
  8
Capa 1
 62
   250
420
  1842203
370
     9
  0
POLYLINE
  5
1E4
330
41
100
AcDbEntity
  8
Capa 1
 62
   250
420
  1842203
370
     9
100
AcDb2dPolyline
 66
     1
 10
0.0
 20
0.0
 30
0.0
  0
VERTEX
  5
1E5
330
1E4
100
AcDbEntity
  8
Capa 1
 62
   250
420
  1842203
370
     9
100
AcDbVertex
100
AcDb2dVertex
 10
65.34282462287871
 20
124.4551294651427
 30
0.0
  0
VERTEX
  5
1E6
330
1E4
100
AcDbEntity
  8
Capa 1
 62
   250
420
  1842203
370
     9
100
AcDbVertex
100
AcDb2dVertex
 10
65.34282462287871
 20
132.7616207214754
 30
0.0
  0
SEQEND
  5
1E7
330
1E4
100
AcDbEntity
  8
Capa 1
 62
   250
420
  1842203
370
     9
  0
POLYLINE
  5
1E8
330
41
100
AcDbEntity
  8
Capa 1
 62
   250
420
  1842203
370
     9
100
AcDb2dPolyline
 66
     1
 10
0.0
 20
0.0
 30
0.0
  0
VERTEX
  5
1E9
330
1E8
100
AcDbEntity
  8
Capa 1
 62
   250
420
  1842203
370
     9
100
AcDbVertex
100
AcDb2dVertex
 10
58.943226015402
 20
132.7619221673304
 30
0.0
  0
VERTEX
  5
1EA
330
1E8
100
AcDbEntity
  8
Capa 1
 62
   250
420
  1842203
370
     9
100
AcDbVertex
100
AcDb2dVertex
 10
58.943226015402
 20
125.6611927989884
 30
0.0
  0
SEQEND
  5
1EB
330
1E8
100
AcDbEntity
  8
Capa 1
 62
   250
420
  1842203
370
     9
  0
POLYLINE
  5
1EC
330
41
100
AcDbEntity
  8
Capa 1
 62
   250
420
  1842203
370
     9
100
AcDb2dPolyline
 66
     1
 10
0.0
 20
0.0
 30
0.0
  0
VERTEX
  5
1ED
330
1EC
100
AcDbEntity
  8
Capa 1
 62
   250
420
  1842203
370
     9
100
AcDbVertex
100
AcDb2dVertex
 10
88.60964302390879
 20
132.7619221673304
 30
0.0
  0
VERTEX
  5
1EE
330
1EC
100
AcDbEntity
  8
Capa 1
 62
   250
420
  1842203
370
     9
100
AcDbVertex
100
AcDb2dVertex
 10
88.60964302390879
 20
125.6611927989884
 30
0.0
  0
SEQEND
  5
1EF
330
1EC
100
AcDbEntity
  8
Capa 1
 62
   250
420
  1842203
370
     9
  0
POLYLINE
  5
1F0
330
41
100
AcDbEntity
  8
Capa 1
 62
   250
420
  1842203
370
     9
100
AcDb2dPolyline
 66
     1
 10
0.0
 20
0.0
 30
0.0
  0
VERTEX
  5
1F1
330
1F0
100
AcDbEntity
  8
Capa 1
 62
   250
420
  1842203
370
     9
100
AcDbVertex
100
AcDb2dVertex
 10
58.943226015402
 20
142.9793648256375
 30
0.0
  0
VERTEX
  5
1F2
330
1F0
100
AcDbEntity
  8
Capa 1
 62
   250
420
  1842203
370
     9
100
AcDbVertex
100
AcDb2dVertex
 10
58.943226015402
 20
139.6343063005407
 30
0.0
  0
SEQEND
  5
1F3
330
1F0
100
AcDbEntity
  8
Capa 1
 62
   250
420
  1842203
370
     9
  0
POLYLINE
  5
1F4
330
41
100
AcDbEntity
  8
Capa 1
 62
   250
420
  1842203
370
     9
100
AcDb2dPolyline
 66
     1
 10
0.0
 20
0.0
 30
0.0
  0
VERTEX
  5
1F5
330
1F4
100
AcDbEntity
  8
Capa 1
 62
   250
420
  1842203
370
     9
100
AcDbVertex
100
AcDb2dVertex
 10
58.943226015402
 20
194.0433021908013
 30
0.0
  0
VERTEX
  5
1F6
330
1F4
100
AcDbEntity
  8
Capa 1
 62
   250
420
  1842203
370
     9
100
AcDbVertex
100
AcDb2dVertex
 10
57.06150409543515
 20
194.0433021908013
 30
0.0
  0
SEQEND
  5
1F7
330
1F4
100
AcDbEntity
  8
Capa 1
 62
   250
420
  1842203
370
     9
  0
POLYLINE
  5
1F8
330
41
100
AcDbEntity
  8
Capa 1
 62
   250
420
  1842203
370
     9
100
AcDb2dPolyline
 66
     1
 10
0.0
 20
0.0
 30
0.0
  0
VERTEX
  5
1F9
330
1F8
100
AcDbEntity
  8
Capa 1
 62
   250
420
  1842203
370
     9
100
AcDbVertex
100
AcDb2dVertex
 10
57.31162879358768
 20
120.8529160939187
 30
0.0
  0
VERTEX
  5
1FA
330
1F8
100
AcDbEntity
  8
Capa 1
 62
   250
420
  1842203
370
     9
100
AcDbVertex
100
AcDb2dVertex
 10
58.85537608052813
 20
120.8529160939187
 30
0.0
  0
SEQEND
  5
1FB
330
1F8
100
AcDbEntity
  8
Capa 1
 62
   250
420
  1842203
370
     9
  0
SPLINE
  5
1FC
330
41
100
AcDbEntity
  8
Capa 1
 62
   250
420
  1842203
370
     9
100
AcDbSpline
210
0.0
220
0.0
230
1.0
 70
     8
 71
     3
 72
    17
 73
    13
 74
     0
 42
0.0000000001
 43
0.0000000001
 12
1.0
 22
0.0
 32
0.0
 13
1.0
 23
0.0
 33
0.0
 40
0.0
 40
0.0
 40
0.0
 40
0.0
 40
1.0
 40
1.0
 40
1.0
 40
2.0
 40
2.0
 40
2.0
 40
3.0
 40
3.0
 40
3.0
 40
4.0
 40
4.0
 40
4.0
 40
4.0
 10
69.68438778300751
 20
129.0687582752957
 30
0.0
 10
69.96942637071837
 20
128.6179029355105
 30
0.0
 10
70.47319622397242
 20
128.3243808001672
 30
0.0
 10
71.04892550917462
 20
128.3243808001672
 30
0.0
 10
71.93863218416378
 20
128.3243808001672
 30
0.0
 10
72.66465375991001
 20
129.0271156836178
 30
0.0
 10
72.66465375991001
 20
129.9344677070455
 30
0.0
 10
72.66465375991001
 20
130.8135914793409
 30
0.0
 10
71.93863218416378
 20
131.5367816172352
 30
0.0
 10
71.04892550917462
 20
131.5367816172352
 30
0.0
 10
70.49506181438036
 20
131.5367816172352
 30
0.0
 10
70.00823752454438
 20
131.2566738224376
 30
0.0
 10
69.71824661207349
 20
130.8326471637437
 30
0.0
  0
SPLINE
  5
1FD
330
41
100
AcDbEntity
  8
Capa 1
 62
   250
420
  1842203
370
     9
100
AcDbSpline
210
0.0
220
0.0
230
1.0
 70
    11
 71
     3
 72
    17
 73
    13
 74
     0
 42
0.0000000001
 43
0.0000000001
 12
1.0
 22
0.0
 32
0.0
 13
1.0
 23
0.0
 33
0.0
 40
0.0
 40
0.0
 40
0.0
 40
0.0
 40
1.0
 40
1.0
 40
1.0
 40
2.0
 40
2.0
 40
2.0
 40
3.0
 40
3.0
 40
3.0
 40
4.0
 40
4.0
 40
4.0
 40
4.0
 10
70.15838985808432
 20
129.9438555922428
 30
0.0
 10
70.15838985808432
 20
129.4203302695655
 30
0.0
 10
70.56478193426311
 20
129.0188689863
 30
0.0
 10
71.07349334635381
 20
129.0188689863
 30
0.0
 10
71.5758420977202
 20
129.0188689863
 30
0.0
 10
71.9829554907662
 20
129.4203302695655
 30
0.0
 10
71.9829554907662
 20
129.9438555922428
 30
0.0
 10
71.9829554907662
 20
130.4398416828848
 30
0.0
 10
71.5758420977202
 20
130.8518966347675
 30
0.0
 10
71.07349334635381
 20
130.8518966347675
 30
0.0
 10
70.56478193426311
 20
130.8518966347675
 30
0.0
 10
70.15838985808432
 20
130.4398416828848
 30
0.0
 10
70.15838985808432
 20
129.9438555922428
 30
0.0
  0
SPLINE
  5
1FE
330
41
100
AcDbEntity
  8
Capa 1
 62
   250
420
  1842203
370
     9
100
AcDbSpline
210
0.0
220
0.0
230
1.0
 70
    11
 71
     3
 72
    17
 73
    13
 74
     0
 42
0.0000000001
 43
0.0000000001
 12
1.0
 22
0.0
 32
0.0
 13
1.0
 23
0.0
 33
0.0
 40
0.0
 40
0.0
 40
0.0
 40
0.0
 40
1.0
 40
1.0
 40
1.0
 40
2.0
 40
2.0
 40
2.0
 40
3.0
 40
3.0
 40
3.0
 40
4.0
 40
4.0
 40
4.0
 40
4.0
 10
66.30470604828385
 20
141.4876600123712
 30
0.0
 10
66.30470604828385
 20
140.6854264649372
 30
0.0
 10
66.93970174175574
 20
140.0680653539804
 30
0.0
 10
67.72497895984827
 20
140.0680653539804
 30
0.0
 10
68.5102669438642
 20
140.0680653539804
 30
0.0
 10
69.1495044111523
 20
140.6854264649372
 30
0.0
 10
69.1495044111523
 20
141.4876600123712
 30
0.0
 10
69.1495044111523
 20
142.2616437768261
 30
0.0
 10
68.5102669438642
 20
142.9022808141551
 30
0.0
 10
67.72497895984827
 20
142.9022808141551
 30
0.0
 10
66.93970174175574
 20
142.9022808141551
 30
0.0
 10
66.30470604828385
 20
142.2616437768261
 30
0.0
 10
66.30470604828385
 20
141.4876600123712
 30
0.0
  0
SPLINE
  5
1FF
330
41
100
AcDbEntity
  8
Capa 1
 62
   250
420
  1842203
370
     9
100
AcDbSpline
210
0.0
220
0.0
230
1.0
 70
    11
 71
     3
 72
    17
 73
    13
 74
     0
 42
0.0000000001
 43
0.0000000001
 12
1.0
 22
0.0
 32
0.0
 13
1.0
 23
0.0
 33
0.0
 40
0.0
 40
0.0
 40
0.0
 40
0.0
 40
1.0
 40
1.0
 40
1.0
 40
2.0
 40
2.0
 40
2.0
 40
3.0
 40
3.0
 40
3.0
 40
4.0
 40
4.0
 40
4.0
 40
4.0
 10
66.93999242168731
 20
141.4973278115766
 30
0.0
 10
66.93999242168731
 20
141.0344792331333
 30
0.0
 10
67.29770099229016
 20
140.6795698026122
 30
0.0
 10
67.74643544516735
 20
140.6795698026122
 30
0.0
 10
68.18952855418743
 20
140.6795698026122
 30
0.0
 10
68.54865822667794
 20
141.0344792331333
 30
0.0
 10
68.54865822667794
 20
141.4973278115766
 30
0.0
 10
68.54865822667794
 20
141.9340582598724
 30
0.0
 10
68.18952855418743
 20
142.2952980533476
 30
0.0
 10
67.74643544516735
 20
142.2952980533476
 30
0.0
 10
67.29770099229016
 20
142.2952980533476
 30
0.0
 10
66.93999242168731
 20
141.9340582598724
 30
0.0
 10
66.93999242168731
 20
141.4973278115766
 30
0.0
  0
POLYLINE
  5
200
330
41
100
AcDbEntity
  8
Capa 1
 62
   250
420
  1842203
370
     9
100
AcDb2dPolyline
 66
     1
 10
0.0
 20
0.0
 30
0.0
  0
VERTEX
  5
201
330
200
100
AcDbEntity
  8
Capa 1
 62
   250
420
  1842203
370
     9
100
AcDbVertex
100
AcDb2dVertex
 10
65.34282462287871
 20
139.63417710946
 30
0.0
  0
VERTEX
  5
202
330
200
100
AcDbEntity
  8
Capa 1
 62
   250
420
  1842203
370
     9
100
AcDbVertex
100
AcDb2dVertex
 10
67.35859305499196
 20
139.63417710946
 30
0.0
  0
SEQEND
  5
203
330
200
100
AcDbEntity
  8
Capa 1
 62
   250
420
  1842203
370
     9
  0
POLYLINE
  5
204
330
41
100
AcDbEntity
  8
Capa 1
 62
   250
420
  1842203
370
     9
100
AcDb2dPolyline
 66
     1
 10
0.0
 20
0.0
 30
0.0
  0
VERTEX
  5
205
330
204
100
AcDbEntity
  8
Capa 1
 62
   250
420
  1842203
370
     9
100
AcDbVertex
100
AcDb2dVertex
 10
65.34310453688688
 20
139.6340263865325
 30
0.0
  0
VERTEX
  5
206
330
204
100
AcDbEntity
  8
Capa 1
 62
   250
420
  1842203
370
     9
100
AcDbVertex
100
AcDb2dVertex
 10
58.94371048195461
 20
139.6340263865325
 30
0.0
  0
VERTEX
  5
207
330
204
100
AcDbEntity
  8
Capa 1
 62
   250
420
  1842203
370
     9
100
AcDbVertex
100
AcDb2dVertex
 10
58.94371048195461
 20
132.7619221673304
 30
0.0
  0
VERTEX
  5
208
330
204
100
AcDbEntity
  8
Capa 1
 62
   250
420
  1842203
370
     9
100
AcDbVertex
100
AcDb2dVertex
 10
65.34310453688688
 20
132.7619221673304
 30
0.0
  0
VERTEX
  5
209
330
204
100
AcDbEntity
  8
Capa 1
 62
   250
420
  1842203
370
     9
100
AcDbVertex
100
AcDb2dVertex
 10
65.34310453688688
 20
139.6340263865325
 30
0.0
  0
SEQEND
  5
20A
330
204
100
AcDbEntity
  8
Capa 1
 62
   250
420
  1842203
370
     9
  0
POLYLINE
  5
20B
330
41
100
AcDbEntity
  8
Capa 1
 62
   250
420
  1842203
370
     9
100
AcDb2dPolyline
 66
     1
 10
0.0
 20
0.0
 30
0.0
  0
VERTEX
  5
20C
330
20B
100
AcDbEntity
  8
Capa 1
 62
   250
420
  1842203
370
     9
100
AcDbVertex
100
AcDb2dVertex
 10
62.86103166492168
 20
194.0433021908013
 30
0.0
  0
VERTEX
  5
20D
330
20B
100
AcDbEntity
  8
Capa 1
 62
   250
420
  1842203
370
     9
100
AcDbVertex
100
AcDb2dVertex
 10
58.94307529247452
 20
194.0433021908013
 30
0.0
  0
VERTEX
  5
20E
330
20B
100
AcDbEntity
  8
Capa 1
 62
   250
420
  1842203
370
     9
100
AcDbVertex
100
AcDb2dVertex
 10
58.94307529247452
 20
190.1189939235531
 30
0.0
  0
SEQEND
  5
20F
330
20B
100
AcDbEntity
  8
Capa 1
 62
   250
420
  1842203
370
     9
  0
POLYLINE
  5
210
330
41
100
AcDbEntity
  8
Capa 1
 62
   250
420
  1842203
370
     9
100
AcDb2dPolyline
 66
     1
 10
0.0
 20
0.0
 30
0.0
  0
VERTEX
  5
211
330
210
100
AcDbEntity
  8
Capa 1
 62
   250
420
  1842203
370
     9
100
AcDbVertex
100
AcDb2dVertex
 10
62.77763882233185
 20
193.9602538577599
 30
0.0
  0
VERTEX
  5
212
330
210
100
AcDbEntity
  8
Capa 1
 62
   250
420
  1842203
370
     9
100
AcDbVertex
100
AcDb2dVertex
 10
60.42672719504414
 20
191.6058110075999
 30
0.0
  0
SEQEND
  5
213
330
210
100
AcDbEntity
  8
Capa 1
 62
   250
420
  1842203
370
     9
  0
SPLINE
  5
214
330
41
100
AcDbEntity
  8
Capa 1
 62
   250
420
  1842203
370
     9
100
AcDbSpline
210
0.0
220
0.0
230
1.0
 70
     8
 71
     3
 72
    14
 73
    10
 74
     0
 42
0.0000000001
 43
0.0000000001
 12
1.0
 22
0.0
 32
0.0
 13
1.0
 23
0.0
 33
0.0
 40
0.0
 40
0.0
 40
0.0
 40
0.0
 40
1.0
 40
1.0
 40
1.0
 40
2.0
 40
2.0
 40
2.0
 40
3.0
 40
3.0
 40
3.0
 40
3.0
 10
61.30317025241509
 20
192.4857099263795
 30
0.0
 10
61.30317025241509
 20
192.4857099263795
 30
0.0
 10
61.92969316417796
 20
192.4857099263795
 30
0.0
 10
61.92969316417796
 20
192.4857099263795
 30
0.0
 10
62.25284312069439
 20
192.4857099263795
 30
0.0
 10
62.38901051974889
 20
192.6112836568168
 30
0.0
 10
62.38901051974889
 20
192.9584200906493
 30
0.0
 10
62.38901051974889
 20
192.9584200906493
 30
0.0
 10
62.38901051974889
 20
193.5708504086928
 30
0.0
 10
62.38901051974889
 20
193.5708504086928
 30
0.0
  0
SPLINE
  5
215
330
41
100
AcDbEntity
  8
Capa 1
 62
   250
420
  1842203
370
     9
100
AcDbSpline
210
0.0
220
0.0
230
1.0
 70
    11
 71
     3
 72
    17
 73
    13
 74
     0
 42
0.0000000001
 43
0.0000000001
 12
1.0
 22
0.0
 32
0.0
 13
1.0
 23
0.0
 33
0.0
 40
0.0
 40
0.0
 40
0.0
 40
0.0
 40
1.0
 40
1.0
 40
1.0
 40
2.0
 40
2.0
 40
2.0
 40
3.0
 40
3.0
 40
3.0
 40
4.0
 40
4.0
 40
4.0
 40
4.0
 10
60.854575756542
 20
192.8371527295685
 30
0.0
 10
60.854575756542
 20
192.5704377434698
 30
0.0
 10
60.63725482696309
 20
192.3531383457377
 30
0.0
 10
60.37126115773162
 20
192.3531383457377
 30
0.0
 10
60.10456770347972
 20
192.3531383457377
 30
0.0
 10
59.8872575398242
 20
192.5704377434698
 30
0.0
 10
59.8872575398242
 20
192.8371527295685
 30
0.0
 10
59.8872575398242
 20
193.1038461838204
 30
0.0
 10
60.10456770347972
 20
193.3204565624555
 30
0.0
 10
60.37126115773162
 20
193.3204565624555
 30
0.0
 10
60.63725482696309
 20
193.3204565624555
 30
0.0
 10
60.854575756542
 20
193.1038461838204
 30
0.0
 10
60.854575756542
 20
192.8371527295685
 30
0.0
  0
SPLINE
  5
216
330
41
100
AcDbEntity
  8
Capa 1
 62
   250
420
  1842203
370
     9
100
AcDbSpline
210
0.0
220
0.0
230
1.0
 70
     8
 71
     3
 72
     8
 73
     4
 74
     0
 42
0.0000000001
 43
0.0000000001
 12
1.0
 22
0.0
 32
0.0
 13
1.0
 23
0.0
 33
0.0
 40
0.0
 40
0.0
 40
0.0
 40
0.0
 40
1.0
 40
1.0
 40
1.0
 40
1.0
 10
71.79414272632772
 20
125.3012449163201
 30
0.0
 10
71.62057450941148
 20
125.5594763547864
 30
0.0
 10
71.49497924712735
 20
125.8508668372981
 30
0.0
 10
71.43007149500056
 20
126.1669543480698
 30
0.0
  0
POLYLINE
  5
217
330
41
100
AcDbEntity
  8
Capa 1
 62
   250
420
  1842203
370
     9
100
AcDb2dPolyline
 66
     1
 10
0.0
 20
0.0
 30
0.0
  0
VERTEX
  5
218
330
217
100
AcDbEntity
  8
Capa 1
 62
   250
420
  1842203
370
     9
100
AcDbVertex
100
AcDb2dVertex
 10
70.57734576686087
 20
126.9659150547928
 30
0.0
  0
VERTEX
  5
219
330
217
100
AcDbEntity
  8
Capa 1
 62
   250
420
  1842203
370
     9
100
AcDbVertex
100
AcDb2dVertex
 10
70.57734576686087
 20
127.6961461065851
 30
0.0
  0
VERTEX
  5
21A
330
217
100
AcDbEntity
  8
Capa 1
 62
   250
420
  1842203
370
     9
100
AcDbVertex
100
AcDb2dVertex
 10
71.06982216647734
 20
127.6961461065851
 30
0.0
  0
VERTEX
  5
21B
330
217
100
AcDbEntity
  8
Capa 1
 62
   250
420
  1842203
370
     9
100
AcDbVertex
100
AcDb2dVertex
 10
71.06982216647734
 20
126.94190704563
 30
0.0
  0
VERTEX
  5
21C
330
217
100
AcDbEntity
  8
Capa 1
 62
   250
420
  1842203
370
     9
100
AcDbVertex
100
AcDb2dVertex
 10
72.20928749822372
 20
126.94190704563
 30
0.0
  0
SEQEND
  5
21D
330
217
100
AcDbEntity
  8
Capa 1
 62
   250
420
  1842203
370
     9
  0
POLYLINE
  5
21E
330
41
100
AcDbEntity
  8
Capa 1
 62
   250
420
  1842203
370
     9
100
AcDb2dPolyline
 66
     1
 10
0.0
 20
0.0
 30
0.0
  0
VERTEX
  5
21F
330
21E
100
AcDbEntity
  8
Capa 1
 62
   250
420
  1842203
370
     9
100
AcDbVertex
100
AcDb2dVertex
 10
72.20964277369563
 20
126.165253332174
 30
0.0
  0
VERTEX
  5
220
330
21E
100
AcDbEntity
  8
Capa 1
 62
   250
420
  1842203
370
     9
100
AcDbVertex
100
AcDb2dVertex
 10
71.15130944062689
 20
126.165253332174
 30
0.0
  0
SEQEND
  5
221
330
21E
100
AcDbEntity
  8
Capa 1
 62
   250
420
  1842203
370
     9
  0
POLYLINE
  5
222
330
41
100
AcDbEntity
  8
Capa 1
 62
   250
420
  1842203
370
     9
100
AcDb2dPolyline
 66
     1
 10
0.0
 20
0.0
 30
0.0
  0
VERTEX
  5
223
330
222
100
AcDbEntity
  8
Capa 1
 62
   250
420
  1842203
370
     9
100
AcDbVertex
100
AcDb2dVertex
 10
72.83109493554115
 20
128.8841226891331
 30
0.0
  0
VERTEX
  5
224
330
222
100
AcDbEntity
  8
Capa 1
 62
   250
420
  1842203
370
     9
100
AcDbVertex
100
AcDb2dVertex
 10
72.83109493554115
 20
132.7618360399432
 30
0.0
  0
SEQEND
  5
225
330
222
100
AcDbEntity
  8
Capa 1
 62
   250
420
  1842203
370
     9
  0
SPLINE
  5
226
330
41
100
AcDbEntity
  8
Capa 1
 62
   250
420
  1842203
370
     9
100
AcDbSpline
210
0.0
220
0.0
230
1.0
 70
     8
 71
     3
 72
     8
 73
     4
 74
     0
 42
0.0000000001
 43
0.0000000001
 12
1.0
 22
0.0
 32
0.0
 13
1.0
 23
0.0
 33
0.0
 40
0.0
 40
0.0
 40
0.0
 40
0.0
 40
1.0
 40
1.0
 40
1.0
 40
1.0
 10
74.7210743187492
 20
128.8841226891331
 30
0.0
 10
74.7210743187492
 20
128.8841226891331
 30
0.0
 10
74.72177410376965
 20
130.938691509149
 30
0.0
 10
74.72177410376965
 20
132.7618360399432
 30
0.0
  0
SPLINE
  5
227
330
41
100
AcDbEntity
  8
Capa 1
 62
   250
420
  1842203
370
     9
100
AcDbSpline
210
0.0
220
0.0
230
1.0
 70
    11
 71
     3
 72
    23
 73
    19
 74
     0
 42
0.0000000001
 43
0.0000000001
 12
1.0
 22
0.0
 32
0.0
 13
1.0
 23
0.0
 33
0.0
 40
0.0
 40
0.0
 40
0.0
 40
0.0
 40
1.0
 40
1.0
 40
1.0
 40
2.0
 40
2.0
 40
2.0
 40
3.0
 40
3.0
 40
3.0
 40
4.0
 40
4.0
 40
4.0
 40
5.0
 40
5.0
 40
5.0
 40
6.0
 40
6.0
 40
6.0
 40
6.0
 10
61.15980045061175
 20
129.0660021989075
 30
0.0
 10
60.67366517987282
 20
129.0660021989075
 30
0.0
 10
60.27926634235206
 20
129.462511157413
 30
0.0
 10
60.27926634235206
 20
129.9465255412438
 30
0.0
 10
60.27926634235206
 20
130.4326500460594
 30
0.0
 10
60.67366517987282
 20
130.8284699854678
 30
0.0
 10
61.15980045061175
 20
130.8284699854678
 30
0.0
 10
61.15980045061175
 20
130.8284699854678
 30
0.0
 10
64.18027715138115
 20
130.8284699854678
 30
0.0
 10
64.18027715138115
 20
130.8284699854678
 30
0.0
 10
64.66782275808436
 20
130.8284699854678
 30
0.0
 10
65.06152181058467
 20
130.4326500460594
 30
0.0
 10
65.06152181058467
 20
129.9465255412438
 30
0.0
 10
65.06152181058467
 20
129.462511157413
 30
0.0
 10
64.66782275808436
 20
129.0660021989075
 30
0.0
 10
64.18027715138115
 20
129.0660021989075
 30
0.0
 10
64.18027715138115
 20
129.0660021989075
 30
0.0
 10
61.15980045061175
 20
129.0660021989075
 30
0.0
 10
61.15980045061175
 20
129.0660021989075
 30
0.0
  0
SPLINE
  5
228
330
41
100
AcDbEntity
  8
Capa 1
 62
   250
420
  1842203
370
     9
100
AcDbSpline
210
0.0
220
0.0
230
1.0
 70
    11
 71
     3
 72
    23
 73
    19
 74
     0
 42
0.0000000001
 43
0.0000000001
 12
1.0
 22
0.0
 32
0.0
 13
1.0
 23
0.0
 33
0.0
 40
0.0
 40
0.0
 40
0.0
 40
0.0
 40
1.0
 40
1.0
 40
1.0
 40
2.0
 40
2.0
 40
2.0
 40
3.0
 40
3.0
 40
3.0
 40
4.0
 40
4.0
 40
4.0
 40
5.0
 40
5.0
 40
5.0
 40
6.0
 40
6.0
 40
6.0
 40
6.0
 10
61.15980045061175
 20
125.2605927895941
 30
0.0
 10
60.67366517987282
 20
125.2605927895941
 30
0.0
 10
60.27926634235206
 20
125.6528815061302
 30
0.0
 10
60.27926634235206
 20
126.1404055809866
 30
0.0
 10
60.27926634235206
 20
126.627240636746
 30
0.0
 10
60.67366517987282
 20
127.019529353282
 30
0.0
 10
61.15980045061175
 20
127.019529353282
 30
0.0
 10
61.15980045061175
 20
127.019529353282
 30
0.0
 10
64.18027715138115
 20
127.019529353282
 30
0.0
 10
64.18027715138115
 20
127.019529353282
 30
0.0
 10
64.66782275808436
 20
127.019529353282
 30
0.0
 10
65.06152181058467
 20
126.627240636746
 30
0.0
 10
65.06152181058467
 20
126.1404055809866
 30
0.0
 10
65.06152181058467
 20
125.6528815061302
 30
0.0
 10
64.66782275808436
 20
125.2605927895941
 30
0.0
 10
64.18027715138115
 20
125.2605927895941
 30
0.0
 10
64.18027715138115
 20
125.2605927895941
 30
0.0
 10
61.15980045061175
 20
125.2605927895941
 30
0.0
 10
61.15980045061175
 20
125.2605927895941
 30
0.0
  0
SPLINE
  5
229
330
41
100
AcDbEntity
  8
Capa 1
 62
   250
420
  1842203
370
     9
100
AcDbSpline
210
0.0
220
0.0
230
1.0
 70
    11
 71
     3
 72
    32
 73
    28
 74
     0
 42
0.0000000001
 43
0.0000000001
 12
1.0
 22
0.0
 32
0.0
 13
1.0
 23
0.0
 33
0.0
 40
0.0
 40
0.0
 40
0.0
 40
0.0
 40
1.0
 40
1.0
 40
1.0
 40
2.0
 40
2.0
 40
2.0
 40
3.0
 40
3.0
 40
3.0
 40
4.0
 40
4.0
 40
4.0
 40
5.0
 40
5.0
 40
5.0
 40
6.0
 40
6.0
 40
6.0
 40
7.0
 40
7.0
 40
7.0
 40
8.0
 40
8.0
 40
8.0
 40
9.0
 40
9.0
 40
9.0
 40
9.0
 10
71.15130944062689
 20
126.1625187876325
 30
0.0
 10
71.15130944062689
 20
126.1625187876325
 30
0.0
 10
70.5776902764094
 20
126.1653394595611
 30
0.0
 10
70.5776902764094
 20
126.1653394595611
 30
0.0
 10
70.5776902764094
 20
126.1653394595611
 30
0.0
 10
70.5776902764094
 20
126.9661303732606
 30
0.0
 10
70.5776902764094
 20
126.9661303732606
 30
0.0
 10
70.48243338624225
 20
127.0014210701377
 30
0.0
 10
70.37872524621282
 20
127.0197662035966
 30
0.0
 10
70.27077533236721
 20
127.0197662035966
 30
0.0
 10
70.27077533236721
 20
127.0197662035966
 30
0.0
 10
68.50617589297545
 20
127.0197662035966
 30
0.0
 10
68.50617589297545
 20
127.0197662035966
 30
0.0
 10
68.02005138815993
 20
127.0197662035966
 30
0.0
 10
67.62564178471577
 20
126.6267669361168
 30
0.0
 10
67.62564178471577
 20
126.1406424313012
 30
0.0
 10
67.62564178471577
 20
125.6523862736542
 30
0.0
 10
68.02005138815993
 20
125.260808108062
 30
0.0
 10
68.50617589297545
 20
125.260808108062
 30
0.0
 10
68.50617589297545
 20
125.260808108062
 30
0.0
 10
70.27077533236721
 20
125.260808108062
 30
0.0
 10
70.27077533236721
 20
125.260808108062
 30
0.0
 10
70.75689983718274
 20
125.260808108062
 30
0.0
 10
71.15130944062689
 20
125.6523862736542
 30
0.0
 10
71.15130944062689
 20
126.1406424313012
 30
0.0
 10
71.15130944062689
 20
126.1406424313012
 30
0.0
 10
71.15130944062689
 20
126.1625187876325
 30
0.0
 10
71.15130944062689
 20
126.1625187876325
 30
0.0
  0
SPLINE
  5
22A
330
41
100
AcDbEntity
  8
Capa 1
 62
   250
420
  1842203
370
     9
100
AcDbSpline
210
0.0
220
0.0
230
1.0
 70
    11
 71
     3
 72
    23
 73
    19
 74
     0
 42
0.0000000001
 43
0.0000000001
 12
1.0
 22
0.0
 32
0.0
 13
1.0
 23
0.0
 33
0.0
 40
0.0
 40
0.0
 40
0.0
 40
0.0
 40
1.0
 40
1.0
 40
1.0
 40
2.0
 40
2.0
 40
2.0
 40
3.0
 40
3.0
 40
3.0
 40
4.0
 40
4.0
 40
4.0
 40
5.0
 40
5.0
 40
5.0
 40
6.0
 40
6.0
 40
6.0
 40
6.0
 10
69.72157328240142
 20
130.8313121892431
 30
0.0
 10
69.54588417857707
 20
130.5737697698739
 30
0.0
 10
69.43793426473145
 20
130.264744704847
 30
0.0
 10
69.43793426473145
 20
129.9345323025858
 30
0.0
 10
69.43793426473145
 20
129.6135139989009
 30
0.0
 10
69.52541815821002
 20
129.3171711916291
 30
0.0
 10
69.6806412416673
 20
129.0667127498514
 30
0.0
 10
69.6806412416673
 20
129.0667127498514
 30
0.0
 10
68.50589597896727
 20
129.0660021989075
 30
0.0
 10
68.50589597896727
 20
129.0660021989075
 30
0.0
 10
68.01977147415174
 20
129.0660021989075
 30
0.0
 10
67.6253618707076
 20
129.4632217083569
 30
0.0
 10
67.6253618707076
 20
129.9465255412438
 30
0.0
 10
67.6253618707076
 20
130.4333605970032
 30
0.0
 10
68.01977147415174
 20
130.8284699854678
 30
0.0
 10
68.50589597896727
 20
130.8284699854678
 30
0.0
 10
68.50589597896727
 20
130.8284699854678
 30
0.0
 10
69.72157328240142
 20
130.8313121892431
 30
0.0
 10
69.72157328240142
 20
130.8313121892431
 30
0.0
  0
POLYLINE
  5
22B
330
41
100
AcDbEntity
  8
Capa 1
 62
   250
420
  1842203
370
     9
100
AcDb2dPolyline
 66
     1
 10
0.0
 20
0.0
 30
0.0
  0
VERTEX
  5
22C
330
22B
100
AcDbEntity
  8
Capa 1
 62
   250
420
  1842203
370
     9
100
AcDbVertex
100
AcDb2dVertex
 10
65.34282462287871
 20
122.9695827600562
 30
0.0
  0
VERTEX
  5
22D
330
22B
100
AcDbEntity
  8
Capa 1
 62
   250
420
  1842203
370
     9
100
AcDbVertex
100
AcDb2dVertex
 10
67.36564473481333
 20
122.9695827600562
 30
0.0
  0
SEQEND
  5
22E
330
22B
100
AcDbEntity
  8
Capa 1
 62
   250
420
  1842203
370
     9
  0
POLYLINE
  5
22F
330
41
100
AcDbEntity
  8
Capa 1
 62
   250
420
  1842203
370
     9
100
AcDb2dPolyline
 66
     1
 10
0.0
 20
0.0
 30
0.0
  0
VERTEX
  5
230
330
22F
100
AcDbEntity
  8
Capa 1
 62
   250
420
  1842203
370
     9
100
AcDbVertex
100
AcDb2dVertex
 10
65.34282462287871
 20
122.9695827600562
 30
0.0
  0
VERTEX
  5
231
330
22F
100
AcDbEntity
  8
Capa 1
 62
   250
420
  1842203
370
     9
100
AcDbVertex
100
AcDb2dVertex
 10
65.34282462287871
 20
124.4547634237474
 30
0.0
  0
VERTEX
  5
232
330
22F
100
AcDbEntity
  8
Capa 1
 62
   250
420
  1842203
370
     9
100
AcDbVertex
100
AcDb2dVertex
 10
59.59889228178539
 20
124.4547634237474
 30
0.0
  0
VERTEX
  5
233
330
22F
100
AcDbEntity
  8
Capa 1
 62
   250
420
  1842203
370
     9
100
AcDbVertex
100
AcDb2dVertex
 10
59.59889228178539
 20
125.6605683754317
 30
0.0
  0
VERTEX
  5
234
330
22F
100
AcDbEntity
  8
Capa 1
 62
   250
420
  1842203
370
     9
100
AcDbVertex
100
AcDb2dVertex
 10
58.94343056794644
 20
125.6605683754317
 30
0.0
  0
VERTEX
  5
235
330
22F
100
AcDbEntity
  8
Capa 1
 62
   250
420
  1842203
370
     9
100
AcDbVertex
100
AcDb2dVertex
 10
58.94343056794644
 20
122.9695827600562
 30
0.0
  0
VERTEX
  5
236
330
22F
100
AcDbEntity
  8
Capa 1
 62
   250
420
  1842203
370
     9
100
AcDbVertex
100
AcDb2dVertex
 10
65.34282462287871
 20
122.9695827600562
 30
0.0
  0
SEQEND
  5
237
330
22F
100
AcDbEntity
  8
Capa 1
 62
   250
420
  1842203
370
     9
  0
POLYLINE
  5
238
330
41
100
AcDbEntity
  8
Capa 1
 62
   250
420
  1842203
370
     9
100
AcDb2dPolyline
 66
     1
 10
0.0
 20
0.0
 30
0.0
  0
VERTEX
  5
239
330
238
100
AcDbEntity
  8
Capa 1
 62
   250
420
  1842203
370
     9
100
AcDbVertex
100
AcDb2dVertex
 10
67.36516026826071
 20
124.4551294651427
 30
0.0
  0
VERTEX
  5
23A
330
238
100
AcDbEntity
  8
Capa 1
 62
   250
420
  1842203
370
     9
100
AcDbVertex
100
AcDb2dVertex
 10
67.36091849444449
 20
132.7616207214754
 30
0.0
  0
SEQEND
  5
23B
330
238
100
AcDbEntity
  8
Capa 1
 62
   250
420
  1842203
370
     9
  0
SPLINE
  5
23C
330
41
100
AcDbEntity
  8
Capa 1
 62
   250
420
  1842203
370
     9
100
AcDbSpline
210
0.0
220
0.0
230
1.0
 70
    11
 71
     3
 72
    23
 73
    19
 74
     0
 42
0.0000000001
 43
0.0000000001
 12
1.0
 22
0.0
 32
0.0
 13
1.0
 23
0.0
 33
0.0
 40
0.0
 40
0.0
 40
0.0
 40
0.0
 40
1.0
 40
1.0
 40
1.0
 40
2.0
 40
2.0
 40
2.0
 40
3.0
 40
3.0
 40
3.0
 40
4.0
 40
4.0
 40
4.0
 40
5.0
 40
5.0
 40
5.0
 40
6.0
 40
6.0
 40
6.0
 40
6.0
 10
67.3657954577408
 20
124.4551294651427
 30
0.0
 10
67.3657954577408
 20
124.4551294651427
 30
0.0
 10
71.79668348424809
 20
124.4551294651427
 30
0.0
 10
71.79668348424809
 20
124.4551294651427
 30
0.0
 10
71.79668348424809
 20
124.4551294651427
 30
0.0
 10
71.79527314828383
 20
125.3010726615458
 30
0.0
 10
71.79527314828383
 20
125.3010726615458
 30
0.0
 10
71.94414433694018
 20
125.082352161926
 30
0.0
 10
72.12687435466252
 20
124.8904388115508
 30
0.0
 10
72.33713283849667
 20
124.7281748141956
 30
0.0
 10
72.33713283849667
 20
124.7281748141956
 30
0.0
 10
72.33995351042522
 20
122.9699272696048
 30
0.0
 10
72.33995351042522
 20
122.9699272696048
 30
0.0
 10
72.33995351042522
 20
122.9699272696048
 30
0.0
 10
67.3657954577408
 20
122.9699272696048
 30
0.0
 10
67.3657954577408
 20
122.9699272696048
 30
0.0
 10
67.3657954577408
 20
122.9699272696048
 30
0.0
 10
67.3657954577408
 20
124.4551294651427
 30
0.0
 10
67.3657954577408
 20
124.4551294651427
 30
0.0
  0
POLYLINE
  5
23D
330
41
100
AcDbEntity
  8
Capa 1
 62
   250
420
  1842203
370
     9
100
AcDb2dPolyline
 66
     1
 10
0.0
 20
0.0
 30
0.0
  0
VERTEX
  5
23E
330
23D
100
AcDbEntity
  8
Capa 1
 62
   250
420
  1842203
370
     9
100
AcDbVertex
100
AcDb2dVertex
 10
82.21351104376411
 20
124.4551294651427
 30
0.0
  0
VERTEX
  5
23F
330
23D
100
AcDbEntity
  8
Capa 1
 62
   250
420
  1842203
370
     9
100
AcDbVertex
100
AcDb2dVertex
 10
82.21351104376411
 20
132.7616207214754
 30
0.0
  0
SEQEND
  5
240
330
23D
100
AcDbEntity
  8
Capa 1
 62
   250
420
  1842203
370
     9
  0
POLYLINE
  5
241
330
41
100
AcDbEntity
  8
Capa 1
 62
   250
420
  1842203
370
     9
100
AcDb2dPolyline
 66
     1
 10
0.0
 20
0.0
 30
0.0
  0
VERTEX
  5
242
330
241
100
AcDbEntity
  8
Capa 1
 62
   250
420
  1842203
370
     9
100
AcDbVertex
100
AcDb2dVertex
 10
88.60964302390879
 20
142.9793648256375
 30
0.0
  0
VERTEX
  5
243
330
241
100
AcDbEntity
  8
Capa 1
 62
   250
420
  1842203
370
     9
100
AcDbVertex
100
AcDb2dVertex
 10
88.60964302390879
 20
139.6343063005407
 30
0.0
  0
SEQEND
  5
244
330
241
100
AcDbEntity
  8
Capa 1
 62
   250
420
  1842203
370
     9
  0
POLYLINE
  5
245
330
41
100
AcDbEntity
  8
Capa 1
 62
   250
420
  1842203
370
     9
100
AcDb2dPolyline
 66
     1
 10
0.0
 20
0.0
 30
0.0
  0
VERTEX
  5
246
330
245
100
AcDbEntity
  8
Capa 1
 62
   250
420
  1842203
370
     9
100
AcDbVertex
100
AcDb2dVertex
 10
88.60964302390879
 20
194.0433021908013
 30
0.0
  0
VERTEX
  5
247
330
245
100
AcDbEntity
  8
Capa 1
 62
   250
420
  1842203
370
     9
100
AcDbVertex
100
AcDb2dVertex
 10
90.49206472889608
 20
194.0433021908013
 30
0.0
  0
SEQEND
  5
248
330
245
100
AcDbEntity
  8
Capa 1
 62
   250
420
  1842203
370
     9
  0
POLYLINE
  5
249
330
41
100
AcDbEntity
  8
Capa 1
 62
   250
420
  1842203
370
     9
100
AcDb2dPolyline
 66
     1
 10
0.0
 20
0.0
 30
0.0
  0
VERTEX
  5
24A
330
249
100
AcDbEntity
  8
Capa 1
 62
   250
420
  1842203
370
     9
100
AcDbVertex
100
AcDb2dVertex
 10
90.24055122662607
 20
120.8529160939187
 30
0.0
  0
VERTEX
  5
24B
330
249
100
AcDbEntity
  8
Capa 1
 62
   250
420
  1842203
370
     9
100
AcDbVertex
100
AcDb2dVertex
 10
88.69749295878266
 20
120.8529160939187
 30
0.0
  0
SEQEND
  5
24C
330
249
100
AcDbEntity
  8
Capa 1
 62
   250
420
  1842203
370
     9
  0
SPLINE
  5
24D
330
41
100
AcDbEntity
  8
Capa 1
 62
   250
420
  1842203
370
     9
100
AcDbSpline
210
0.0
220
0.0
230
1.0
 70
     8
 71
     3
 72
    17
 73
    13
 74
     0
 42
0.0000000001
 43
0.0000000001
 12
1.0
 22
0.0
 32
0.0
 13
1.0
 23
0.0
 33
0.0
 40
0.0
 40
0.0
 40
0.0
 40
0.0
 40
1.0
 40
1.0
 40
1.0
 40
2.0
 40
2.0
 40
2.0
 40
3.0
 40
3.0
 40
3.0
 40
4.0
 40
4.0
 40
4.0
 40
4.0
 10
77.86989159226755
 20
129.0687582752957
 30
0.0
 10
77.5848422386333
 20
128.6179029355105
 30
0.0
 10
77.07966204941498
 20
128.3243808001672
 30
0.0
 10
76.50393276421278
 20
128.3243808001672
 30
0.0
 10
75.61351553827978
 20
128.3243808001672
 30
0.0
 10
74.88820451347739
 20
129.0271156836178
 30
0.0
 10
74.88820451347739
 20
129.9344677070455
 30
0.0
 10
74.88820451347739
 20
130.8135914793409
 30
0.0
 10
75.61351553827978
 20
131.5367816172352
 30
0.0
 10
76.50393276421278
 20
131.5367816172352
 30
0.0
 10
77.05849624402748
 20
131.5367816172352
 30
0.0
 10
77.54603108480728
 20
131.2559632714938
 30
0.0
 10
77.83531144633436
 20
130.8326471637437
 30
0.0
  0
SPLINE
  5
24E
330
41
100
AcDbEntity
  8
Capa 1
 62
   250
420
  1842203
370
     9
100
AcDbSpline
210
0.0
220
0.0
230
1.0
 70
    11
 71
     3
 72
    17
 73
    13
 74
     0
 42
0.0000000001
 43
0.0000000001
 12
1.0
 22
0.0
 32
0.0
 13
1.0
 23
0.0
 33
0.0
 40
0.0
 40
0.0
 40
0.0
 40
0.0
 40
1.0
 40
1.0
 40
1.0
 40
2.0
 40
2.0
 40
2.0
 40
3.0
 40
3.0
 40
3.0
 40
4.0
 40
4.0
 40
4.0
 40
4.0
 10
77.39448994714986
 20
129.9438555922428
 30
0.0
 10
77.39448994714986
 20
129.4203302695655
 30
0.0
 10
76.98808710504768
 20
129.0188689863
 30
0.0
 10
76.48078602892126
 20
129.0188689863
 30
0.0
 10
75.9770269415906
 20
129.0188689863
 30
0.0
 10
75.57062409948843
 20
129.4203302695655
 30
0.0
 10
75.57062409948843
 20
129.9438555922428
 30
0.0
 10
75.57062409948843
 20
130.4398416828848
 30
0.0
 10
75.9770269415906
 20
130.8518966347675
 30
0.0
 10
76.48078602892126
 20
130.8518966347675
 30
0.0
 10
76.98808710504768
 20
130.8518966347675
 30
0.0
 10
77.39448994714986
 20
130.4398416828848
 30
0.0
 10
77.39448994714986
 20
129.9438555922428
 30
0.0
  0
SPLINE
  5
24F
330
41
100
AcDbEntity
  8
Capa 1
 62
   250
420
  1842203
370
     9
100
AcDbSpline
210
0.0
220
0.0
230
1.0
 70
    11
 71
     3
 72
    17
 73
    13
 74
     0
 42
0.0000000001
 43
0.0000000001
 12
1.0
 22
0.0
 32
0.0
 13
1.0
 23
0.0
 33
0.0
 40
0.0
 40
0.0
 40
0.0
 40
0.0
 40
1.0
 40
1.0
 40
1.0
 40
2.0
 40
2.0
 40
2.0
 40
3.0
 40
3.0
 40
3.0
 40
4.0
 40
4.0
 40
4.0
 40
4.0
 10
81.2474632060065
 20
141.4876600123712
 30
0.0
 10
81.2474632060065
 20
140.6854264649372
 30
0.0
 10
80.61316729755505
 20
140.0680653539804
 30
0.0
 10
79.82717952851868
 20
140.0680653539804
 30
0.0
 10
79.04189154450277
 20
140.0680653539804
 30
0.0
 10
78.40195429219422
 20
140.6854264649372
 30
0.0
 10
78.40195429219422
 20
141.4876600123712
 30
0.0
 10
78.40195429219422
 20
142.2616437768261
 30
0.0
 10
79.04189154450277
 20
142.9022808141551
 30
0.0
 10
79.82717952851868
 20
142.9022808141551
 30
0.0
 10
80.61316729755505
 20
142.9022808141551
 30
0.0
 10
81.2474632060065
 20
142.2616437768261
 30
0.0
 10
81.2474632060065
 20
141.4876600123712
 30
0.0
  0
SPLINE
  5
250
330
41
100
AcDbEntity
  8
Capa 1
 62
   250
420
  1842203
370
     9
100
AcDbSpline
210
0.0
220
0.0
230
1.0
 70
    11
 71
     3
 72
    17
 73
    13
 74
     0
 42
0.0000000001
 43
0.0000000001
 12
1.0
 22
0.0
 32
0.0
 13
1.0
 23
0.0
 33
0.0
 40
0.0
 40
0.0
 40
0.0
 40
0.0
 40
1.0
 40
1.0
 40
1.0
 40
2.0
 40
2.0
 40
2.0
 40
3.0
 40
3.0
 40
3.0
 40
4.0
 40
4.0
 40
4.0
 40
4.0
 10
80.61288738354686
 20
141.4973278115766
 30
0.0
 10
80.61288738354686
 20
141.0344792331333
 30
0.0
 10
80.2544574960768
 20
140.6795698026122
 30
0.0
 10
79.80572304319962
 20
140.6795698026122
 30
0.0
 10
79.36264070010292
 20
140.6795698026122
 30
0.0
 10
79.0035110276124
 20
141.0344792331333
 30
0.0
 10
79.0035110276124
 20
141.4973278115766
 30
0.0
 10
79.0035110276124
 20
141.9340582598724
 30
0.0
 10
79.36264070010292
 20
142.2952980533476
 30
0.0
 10
79.80572304319962
 20
142.2952980533476
 30
0.0
 10
80.2544574960768
 20
142.2952980533476
 30
0.0
 10
80.61288738354686
 20
141.9340582598724
 30
0.0
 10
80.61288738354686
 20
141.4973278115766
 30
0.0
  0
POLYLINE
  5
251
330
41
100
AcDbEntity
  8
Capa 1
 62
   250
420
  1842203
370
     9
100
AcDb2dPolyline
 66
     1
 10
0.0
 20
0.0
 30
0.0
  0
VERTEX
  5
252
330
251
100
AcDbEntity
  8
Capa 1
 62
   250
420
  1842203
370
     9
100
AcDbVertex
100
AcDb2dVertex
 10
82.21351104376411
 20
139.63417710946
 30
0.0
  0
VERTEX
  5
253
330
251
100
AcDbEntity
  8
Capa 1
 62
   250
420
  1842203
370
     9
100
AcDbVertex
100
AcDb2dVertex
 10
80.19420062285509
 20
139.63417710946
 30
0.0
  0
SEQEND
  5
254
330
251
100
AcDbEntity
  8
Capa 1
 62
   250
420
  1842203
370
     9
  0
POLYLINE
  5
255
330
41
100
AcDbEntity
  8
Capa 1
 62
   250
420
  1842203
370
     9
100
AcDb2dPolyline
 66
     1
 10
0.0
 20
0.0
 30
0.0
  0
VERTEX
  5
256
330
255
100
AcDbEntity
  8
Capa 1
 62
   250
420
  1842203
370
     9
100
AcDbVertex
100
AcDb2dVertex
 10
82.21365100076821
 20
139.6340263865325
 30
0.0
  0
VERTEX
  5
257
330
255
100
AcDbEntity
  8
Capa 1
 62
   250
420
  1842203
370
     9
100
AcDbVertex
100
AcDb2dVertex
 10
88.6095138328281
 20
139.6340263865325
 30
0.0
  0
VERTEX
  5
258
330
255
100
AcDbEntity
  8
Capa 1
 62
   250
420
  1842203
370
     9
100
AcDbVertex
100
AcDb2dVertex
 10
88.6095138328281
 20
132.7619221673304
 30
0.0
  0
VERTEX
  5
259
330
255
100
AcDbEntity
  8
Capa 1
 62
   250
420
  1842203
370
     9
100
AcDbVertex
100
AcDb2dVertex
 10
82.21365100076821
 20
132.7619221673304
 30
0.0
  0
VERTEX
  5
25A
330
255
100
AcDbEntity
  8
Capa 1
 62
   250
420
  1842203
370
     9
100
AcDbVertex
100
AcDb2dVertex
 10
82.21365100076821
 20
139.6340263865325
 30
0.0
  0
SEQEND
  5
25B
330
255
100
AcDbEntity
  8
Capa 1
 62
   250
420
  1842203
370
     9
  0
POLYLINE
  5
25C
330
41
100
AcDbEntity
  8
Capa 1
 62
   250
420
  1842203
370
     9
100
AcDb2dPolyline
 66
     1
 10
0.0
 20
0.0
 30
0.0
  0
VERTEX
  5
25D
330
25C
100
AcDbEntity
  8
Capa 1
 62
   250
420
  1842203
370
     9
100
AcDbVertex
100
AcDb2dVertex
 10
73.77577241536683
 20
116.0911266460532
 30
0.0
  0
VERTEX
  5
25E
330
25C
100
AcDbEntity
  8
Capa 1
 62
   250
420
  1842203
370
     9
100
AcDbVertex
100
AcDb2dVertex
 10
75.14666203633486
 20
116.0911266460532
 30
0.0
  0
VERTEX
  5
25F
330
25C
100
AcDbEntity
  8
Capa 1
 62
   250
420
  1842203
370
     9
100
AcDbVertex
100
AcDb2dVertex
 10
75.48603623940215
 20
116.5631262593792
 30
0.0
  0
VERTEX
  5
260
330
25C
100
AcDbEntity
  8
Capa 1
 62
   250
420
  1842203
370
     9
100
AcDbVertex
100
AcDb2dVertex
 10
75.48603623940215
 20
120.8529160939187
 30
0.0
  0
VERTEX
  5
261
330
25C
100
AcDbEntity
  8
Capa 1
 62
   250
420
  1842203
370
     9
100
AcDbVertex
100
AcDb2dVertex
 10
88.69755755432301
 20
120.8529160939187
 30
0.0
  0
VERTEX
  5
262
330
25C
100
AcDbEntity
  8
Capa 1
 62
   250
420
  1842203
370
     9
100
AcDbVertex
100
AcDb2dVertex
 10
88.6954474333383
 20
119.1927461114236
 30
0.0
  0
VERTEX
  5
263
330
25C
100
AcDbEntity
  8
Capa 1
 62
   250
420
  1842203
370
     9
100
AcDbVertex
100
AcDb2dVertex
 10
84.22222779605599
 20
119.1927461114236
 30
0.0
  0
VERTEX
  5
264
330
25C
100
AcDbEntity
  8
Capa 1
 62
   250
420
  1842203
370
     9
100
AcDbVertex
100
AcDb2dVertex
 10
84.22222779605599
 20
118.6219368532113
 30
0.0
  0
VERTEX
  5
265
330
25C
100
AcDbEntity
  8
Capa 1
 62
   250
420
  1842203
370
     9
100
AcDbVertex
100
AcDb2dVertex
 10
90.23495294646253
 20
118.6219368532113
 30
0.0
  0
VERTEX
  5
266
330
25C
100
AcDbEntity
  8
Capa 1
 62
   250
420
  1842203
370
     9
100
AcDbVertex
100
AcDb2dVertex
 10
90.24130484126346
 20
120.8529160939187
 30
0.0
  0
VERTEX
  5
267
330
25C
100
AcDbEntity
  8
Capa 1
 62
   250
420
  1842203
370
     9
100
AcDbVertex
100
AcDb2dVertex
 10
90.49178481488791
 20
120.8529160939187
 30
0.0
  0
VERTEX
  5
268
330
25C
100
AcDbEntity
  8
Capa 1
 62
   250
420
  1842203
370
     9
100
AcDbVertex
100
AcDb2dVertex
 10
90.49178481488791
 20
196.1505163762011
 30
0.0
  0
VERTEX
  5
269
330
25C
100
AcDbEntity
  8
Capa 1
 62
   250
420
  1842203
370
     9
100
AcDbVertex
100
AcDb2dVertex
 10
73.77577241536683
 20
196.1505163762011
 30
0.0
  0
VERTEX
  5
26A
330
25C
100
AcDbEntity
  8
Capa 1
 62
   250
420
  1842203
370
     9
100
AcDbVertex
100
AcDb2dVertex
 10
57.06185937090707
 20
196.1505163762011
 30
0.0
  0
VERTEX
  5
26B
330
25C
100
AcDbEntity
  8
Capa 1
 62
   250
420
  1842203
370
     9
100
AcDbVertex
100
AcDb2dVertex
 10
57.06185937090707
 20
120.8529160939187
 30
0.0
  0
VERTEX
  5
26C
330
25C
100
AcDbEntity
  8
Capa 1
 62
   250
420
  1842203
370
     9
100
AcDbVertex
100
AcDb2dVertex
 10
57.31162879358768
 20
120.8529160939187
 30
0.0
  0
VERTEX
  5
26D
330
25C
100
AcDbEntity
  8
Capa 1
 62
   250
420
  1842203
370
     9
100
AcDbVertex
100
AcDb2dVertex
 10
57.31868047340905
 20
118.6219368532113
 30
0.0
  0
VERTEX
  5
26E
330
25C
100
AcDbEntity
  8
Capa 1
 62
   250
420
  1842203
370
     9
100
AcDbVertex
100
AcDb2dVertex
 10
63.33142715566238
 20
118.6219368532113
 30
0.0
  0
VERTEX
  5
26F
330
25C
100
AcDbEntity
  8
Capa 1
 62
   250
420
  1842203
370
     9
100
AcDbVertex
100
AcDb2dVertex
 10
63.33142715566238
 20
119.1927461114236
 30
0.0
  0
VERTEX
  5
270
330
25C
100
AcDbEntity
  8
Capa 1
 62
   250
420
  1842203
370
     9
100
AcDbVertex
100
AcDb2dVertex
 10
58.8567971824158
 20
119.1927461114236
 30
0.0
  0
VERTEX
  5
271
330
25C
100
AcDbEntity
  8
Capa 1
 62
   250
420
  1842203
370
     9
100
AcDbVertex
100
AcDb2dVertex
 10
58.85608663147196
 20
120.8529160939187
 30
0.0
  0
VERTEX
  5
272
330
25C
100
AcDbEntity
  8
Capa 1
 62
   250
420
  1842203
370
     9
100
AcDbVertex
100
AcDb2dVertex
 10
72.06690816137238
 20
120.8529160939187
 30
0.0
  0
VERTEX
  5
273
330
25C
100
AcDbEntity
  8
Capa 1
 62
   250
420
  1842203
370
     9
100
AcDbVertex
100
AcDb2dVertex
 10
72.06690816137238
 20
116.5631262593792
 30
0.0
  0
VERTEX
  5
274
330
25C
100
AcDbEntity
  8
Capa 1
 62
   250
420
  1842203
370
     9
100
AcDbVertex
100
AcDb2dVertex
 10
72.40628236443966
 20
116.0911266460532
 30
0.0
  0
VERTEX
  5
275
330
25C
100
AcDbEntity
  8
Capa 1
 62
   250
420
  1842203
370
     9
100
AcDbVertex
100
AcDb2dVertex
 10
73.77577241536683
 20
116.0911266460532
 30
0.0
  0
SEQEND
  5
276
330
25C
100
AcDbEntity
  8
Capa 1
 62
   250
420
  1842203
370
     9
  0
POLYLINE
  5
277
330
41
100
AcDbEntity
  8
Capa 1
 62
   250
420
  1842203
370
     9
100
AcDb2dPolyline
 66
     1
 10
0.0
 20
0.0
 30
0.0
  0
VERTEX
  5
278
330
277
100
AcDbEntity
  8
Capa 1
 62
   250
420
  1842203
370
     9
100
AcDbVertex
100
AcDb2dVertex
 10
84.69191273585285
 20
194.0433021908013
 30
0.0
  0
VERTEX
  5
279
330
277
100
AcDbEntity
  8
Capa 1
 62
   250
420
  1842203
370
     9
100
AcDbVertex
100
AcDb2dVertex
 10
88.60985834237663
 20
194.0433021908013
 30
0.0
  0
VERTEX
  5
27A
330
277
100
AcDbEntity
  8
Capa 1
 62
   250
420
  1842203
370
     9
100
AcDbVertex
100
AcDb2dVertex
 10
88.60985834237663
 20
190.1189939235531
 30
0.0
  0
SEQEND
  5
27B
330
277
100
AcDbEntity
  8
Capa 1
 62
   250
420
  1842203
370
     9
  0
POLYLINE
  5
27C
330
41
100
AcDbEntity
  8
Capa 1
 62
   250
420
  1842203
370
     9
100
AcDb2dPolyline
 66
     1
 10
0.0
 20
0.0
 30
0.0
  0
VERTEX
  5
27D
330
27C
100
AcDbEntity
  8
Capa 1
 62
   250
420
  1842203
370
     9
100
AcDbVertex
100
AcDb2dVertex
 10
84.77524098290233
 20
193.9602538577599
 30
0.0
  0
VERTEX
  5
27E
330
27C
100
AcDbEntity
  8
Capa 1
 62
   250
420
  1842203
370
     9
100
AcDbVertex
100
AcDb2dVertex
 10
87.12614184426664
 20
191.6058110075999
 30
0.0
  0
SEQEND
  5
27F
330
27C
100
AcDbEntity
  8
Capa 1
 62
   250
420
  1842203
370
     9
  0
SPLINE
  5
280
330
41
100
AcDbEntity
  8
Capa 1
 62
   250
420
  1842203
370
     9
100
AcDbSpline
210
0.0
220
0.0
230
1.0
 70
    11
 71
     3
 72
    53
 73
    49
 74
     0
 42
0.0000000001
 43
0.0000000001
 12
1.0
 22
0.0
 32
0.0
 13
1.0
 23
0.0
 33
0.0
 40
0.0
 40
0.0
 40
0.0
 40
0.0
 40
1.0
 40
1.0
 40
1.0
 40
2.0
 40
2.0
 40
2.0
 40
3.0
 40
3.0
 40
3.0
 40
4.0
 40
4.0
 40
4.0
 40
5.0
 40
5.0
 40
5.0
 40
6.0
 40
6.0
 40
6.0
 40
7.0
 40
7.0
 40
7.0
 40
8.0
 40
8.0
 40
8.0
 40
9.0
 40
9.0
 40
9.0
 40
10.0
 40
10.0
 40
10.0
 40
11.0
 40
11.0
 40
11.0
 40
12.0
 40
12.0
 40
12.0
 40
13.0
 40
13.0
 40
13.0
 40
14.0
 40
14.0
 40
14.0
 40
15.0
 40
15.0
 40
15.0
 40
16.0
 40
16.0
 40
16.0
 40
16.0
 10
73.77577241536683
 20
142.9793648256375
 30
0.0
 10
73.77577241536683
 20
142.9793648256375
 30
0.0
 10
88.60936310990061
 20
142.9793648256375
 30
0.0
 10
88.60936310990061
 20
142.9793648256375
 30
0.0
 10
88.60936310990061
 20
142.9793648256375
 30
0.0
 10
88.60936310990061
 20
190.1189293280128
 30
0.0
 10
88.60936310990061
 20
190.1189293280128
 30
0.0
 10
88.60936310990061
 20
190.1189293280128
 30
0.0
 10
87.12629256719413
 20
191.6048420744946
 30
0.0
 10
87.12629256719413
 20
191.6048420744946
 30
0.0
 10
87.12629256719413
 20
191.6048420744946
 30
0.0
 10
85.45553968200527
 20
191.6048420744946
 30
0.0
 10
85.45553968200527
 20
191.6048420744946
 30
0.0
 10
84.9574111726083
 20
191.6048420744946
 30
0.0
 10
84.77467038896259
 20
191.7868723071965
 30
0.0
 10
84.77467038896259
 20
192.2990934103128
 30
0.0
 10
84.77467038896259
 20
192.7308930656953
 30
0.0
 10
84.77538093990641
 20
193.9599739437518
 30
0.0
 10
84.77538093990641
 20
193.9599739437518
 30
0.0
 10
84.77538093990641
 20
193.9599739437518
 30
0.0
 10
84.69212805432068
 20
194.0439481462047
 30
0.0
 10
84.69212805432068
 20
194.0439481462047
 30
0.0
 10
84.69212805432068
 20
194.0439481462047
 30
0.0
 10
73.77577241536683
 20
194.0432375952609
 30
0.0
 10
73.77577241536683
 20
194.0432375952609
 30
0.0
 10
73.77577241536683
 20
194.0432375952609
 30
0.0
 10
62.86082711237724
 20
194.0439481462047
 30
0.0
 10
62.86082711237724
 20
194.0439481462047
 30
0.0
 10
62.86082711237724
 20
194.0439481462047
 30
0.0
 10
62.77756346086811
 20
193.9599739437518
 30
0.0
 10
62.77756346086811
 20
193.9599739437518
 30
0.0
 10
62.77756346086811
 20
193.9599739437518
 30
0.0
 10
62.77827401181194
 20
192.7308930656953
 30
0.0
 10
62.77827401181194
 20
192.2990934103128
 30
0.0
 10
62.77827401181194
 20
191.7868723071965
 30
0.0
 10
62.59483344314578
 20
191.6048420744946
 30
0.0
 10
62.09811526971311
 20
191.6048420744946
 30
0.0
 10
62.09811526971311
 20
191.6048420744946
 30
0.0
 10
60.42665183358041
 20
191.6048420744946
 30
0.0
 10
60.42665183358041
 20
191.6048420744946
 30
0.0
 10
60.42665183358041
 20
191.6048420744946
 30
0.0
 10
58.94358129087392
 20
190.1189293280128
 30
0.0
 10
58.94358129087392
 20
190.1189293280128
 30
0.0
 10
58.94358129087392
 20
190.1189293280128
 30
0.0
 10
58.94358129087392
 20
142.9793648256375
 30
0.0
 10
58.94358129087392
 20
142.9793648256375
 30
0.0
 10
58.94358129087392
 20
142.9793648256375
 30
0.0
 10
73.77577241536683
 20
142.9793648256375
 30
0.0
 10
73.77577241536683
 20
142.9793648256375
 30
0.0
  0
SPLINE
  5
281
330
41
100
AcDbEntity
  8
Capa 1
 62
   250
420
  1842203
370
     9
100
AcDbSpline
210
0.0
220
0.0
230
1.0
 70
     8
 71
     3
 72
    14
 73
    10
 74
     0
 42
0.0000000001
 43
0.0000000001
 12
1.0
 22
0.0
 32
0.0
 13
1.0
 23
0.0
 33
0.0
 40
0.0
 40
0.0
 40
0.0
 40
0.0
 40
1.0
 40
1.0
 40
1.0
 40
2.0
 40
2.0
 40
2.0
 40
3.0
 40
3.0
 40
3.0
 40
3.0
 10
86.24977414835944
 20
192.4857099263795
 30
0.0
 10
86.24977414835944
 20
192.4857099263795
 30
0.0
 10
85.62394025569363
 20
192.4857099263795
 30
0.0
 10
85.62394025569363
 20
192.4857099263795
 30
0.0
 10
85.30009051415675
 20
192.4857099263795
 30
0.0
 10
85.16392311510225
 20
192.6112836568168
 30
0.0
 10
85.16392311510225
 20
192.9584200906493
 30
0.0
 10
85.16392311510225
 20
192.9584200906493
 30
0.0
 10
85.16392311510225
 20
193.5708504086928
 30
0.0
 10
85.16392311510225
 20
193.5708504086928
 30
0.0
  0
SPLINE
  5
282
330
41
100
AcDbEntity
  8
Capa 1
 62
   250
420
  1842203
370
     9
100
AcDbSpline
210
0.0
220
0.0
230
1.0
 70
    11
 71
     3
 72
    17
 73
    13
 74
     0
 42
0.0000000001
 43
0.0000000001
 12
1.0
 22
0.0
 32
0.0
 13
1.0
 23
0.0
 33
0.0
 40
0.0
 40
0.0
 40
0.0
 40
0.0
 40
1.0
 40
1.0
 40
1.0
 40
2.0
 40
2.0
 40
2.0
 40
3.0
 40
3.0
 40
3.0
 40
4.0
 40
4.0
 40
4.0
 40
4.0
 10
86.69830404869218
 20
192.8371527295685
 30
0.0
 10
86.69830404869218
 20
192.5704377434698
 30
0.0
 10
86.91489289548048
 20
192.3531383457377
 30
0.0
 10
87.18160788157917
 20
192.3531383457377
 30
0.0
 10
87.4490118867749
 20
192.3531383457377
 30
0.0
 10
87.66491171446616
 20
192.5704377434698
 30
0.0
 10
87.66491171446616
 20
192.8371527295685
 30
0.0
 10
87.66491171446616
 20
193.1038461838204
 30
0.0
 10
87.4490118867749
 20
193.3204565624555
 30
0.0
 10
87.18160788157917
 20
193.3204565624555
 30
0.0
 10
86.91489289548048
 20
193.3204565624555
 30
0.0
 10
86.69830404869218
 20
193.1038461838204
 30
0.0
 10
86.69830404869218
 20
192.8371527295685
 30
0.0
  0
SPLINE
  5
283
330
41
100
AcDbEntity
  8
Capa 1
 62
   250
420
  1842203
370
     9
100
AcDbSpline
210
0.0
220
0.0
230
1.0
 70
     8
 71
     3
 72
    11
 73
     7
 74
     0
 42
0.0000000001
 43
0.0000000001
 12
1.0
 22
0.0
 32
0.0
 13
1.0
 23
0.0
 33
0.0
 40
0.0
 40
0.0
 40
0.0
 40
0.0
 40
1.0
 40
1.0
 40
1.0
 40
2.0
 40
2.0
 40
2.0
 40
2.0
 10
76.15426633838331
 20
126.9548476855465
 30
0.0
 10
76.0082158216555
 20
128.1592100034962
 30
0.0
 10
75.02043158457063
 20
129.0933691761685
 30
0.0
 10
73.77583701090717
 20
129.0933691761685
 30
0.0
 10
72.5326420072846
 20
129.0933691761685
 30
0.0
 10
71.54556832114356
 20
128.1592100034962
 30
0.0
 10
71.3988180193953
 20
126.9548476855465
 30
0.0
  0
SPLINE
  5
284
330
41
100
AcDbEntity
  8
Capa 1
 62
   250
420
  1842203
370
     9
100
AcDbSpline
210
0.0
220
0.0
230
1.0
 70
     8
 71
     3
 72
     8
 73
     4
 74
     0
 42
0.0000000001
 43
0.0000000001
 12
1.0
 22
0.0
 32
0.0
 13
1.0
 23
0.0
 33
0.0
 40
0.0
 40
0.0
 40
0.0
 40
0.0
 40
1.0
 40
1.0
 40
1.0
 40
1.0
 10
75.75873707890645
 20
125.3012449163201
 30
0.0
 10
75.93229452989931
 20
125.5594763547864
 30
0.0
 10
76.05788979218345
 20
125.8508668372981
 30
0.0
 10
76.12279754431023
 20
126.1669543480698
 30
0.0
  0
SPLINE
  5
285
330
41
100
AcDbEntity
  8
Capa 1
 62
   250
420
  1842203
370
     9
100
AcDbSpline
210
0.0
220
0.0
230
1.0
 70
     8
 71
     3
 72
    11
 73
     7
 74
     0
 42
0.0000000001
 43
0.0000000001
 12
1.0
 22
0.0
 32
0.0
 13
1.0
 23
0.0
 33
0.0
 40
0.0
 40
0.0
 40
0.0
 40
0.0
 40
1.0
 40
1.0
 40
1.0
 40
2.0
 40
2.0
 40
2.0
 40
2.0
 10
75.21722189824214
 20
124.7238038492987
 30
0.0
 10
74.80658804824714
 20
124.4112260295526
 30
0.0
 10
74.33315656711008
 20
124.2221333511059
 30
0.0
 10
73.77576164944344
 20
124.2221333511059
 30
0.0
 10
73.22049838460829
 20
124.2221333511059
 30
0.0
 10
72.74635635252739
 20
124.4112260295526
 30
0.0
 10
72.33572250253239
 20
124.7238038492987
 30
0.0
  0
SPLINE
  5
286
330
41
100
AcDbEntity
  8
Capa 1
 62
   250
420
  1842203
370
     9
100
AcDbSpline
210
0.0
220
0.0
230
1.0
 70
    11
 71
     3
 72
    17
 73
    13
 74
     0
 42
0.0000000001
 43
0.0000000001
 12
1.0
 22
0.0
 32
0.0
 13
1.0
 23
0.0
 33
0.0
 40
0.0
 40
0.0
 40
0.0
 40
0.0
 40
1.0
 40
1.0
 40
1.0
 40
2.0
 40
2.0
 40
2.0
 40
3.0
 40
3.0
 40
3.0
 40
4.0
 40
4.0
 40
4.0
 40
4.0
 10
73.77577241536683
 20
125.0008110581595
 30
0.0
 10
74.69157568865676
 20
125.0008110581595
 30
0.0
 10
75.39502112305121
 20
125.7423463295128
 30
0.0
 10
75.39502112305121
 20
126.6574498177823
 30
0.0
 10
75.39502112305121
 20
127.5739528760926
 30
0.0
 10
74.69157568865676
 20
128.3147991283488
 30
0.0
 10
73.77577241536683
 20
128.3147991283488
 30
0.0
 10
72.86136871211778
 20
128.3147991283488
 30
0.0
 10
72.15792327772333
 20
127.5739528760926
 30
0.0
 10
72.15792327772333
 20
126.6574498177823
 30
0.0
 10
72.15792327772333
 20
125.7423463295128
 30
0.0
 10
72.86136871211778
 20
125.0008110581595
 30
0.0
 10
73.77577241536683
 20
125.0008110581595
 30
0.0
  0
SPLINE
  5
287
330
41
100
AcDbEntity
  8
Capa 1
 62
   250
420
  1842203
370
     9
100
AcDbSpline
210
0.0
220
0.0
230
1.0
 70
    11
 71
     3
 72
    17
 73
    13
 74
     0
 42
0.0000000001
 43
0.0000000001
 12
1.0
 22
0.0
 32
0.0
 13
1.0
 23
0.0
 33
0.0
 40
0.0
 40
0.0
 40
0.0
 40
0.0
 40
1.0
 40
1.0
 40
1.0
 40
2.0
 40
2.0
 40
2.0
 40
3.0
 40
3.0
 40
3.0
 40
4.0
 40
4.0
 40
4.0
 40
4.0
 10
73.77577241536683
 20
125.7256376164093
 30
0.0
 10
74.29082495633507
 20
125.7256376164093
 30
0.0
 10
74.66971009824881
 20
126.1433123803023
 30
0.0
 10
74.66971009824881
 20
126.6569545853063
 30
0.0
 10
74.66971009824881
 20
127.1727284431417
 30
0.0
 10
74.29082495633507
 20
127.5911137579785
 30
0.0
 10
73.77577241536683
 20
127.5911137579785
 30
0.0
 10
73.26141965941902
 20
127.5911137579785
 30
0.0
 10
72.88253451750528
 20
127.1727284431417
 30
0.0
 10
72.88253451750528
 20
126.6569545853063
 30
0.0
 10
72.88253451750528
 20
126.1433123803023
 30
0.0
 10
73.26141965941902
 20
125.7256376164093
 30
0.0
 10
73.77577241536683
 20
125.7256376164093
 30
0.0
  0
POLYLINE
  5
288
330
41
100
AcDbEntity
  8
Capa 1
 62
   250
420
  1842203
370
     9
100
AcDb2dPolyline
 66
     1
 10
0.0
 20
0.0
 30
0.0
  0
VERTEX
  5
289
330
288
100
AcDbEntity
  8
Capa 1
 62
   250
420
  1842203
370
     9
100
AcDbVertex
100
AcDb2dVertex
 10
76.97418829794938
 20
126.9659150547928
 30
0.0
  0
VERTEX
  5
28A
330
288
100
AcDbEntity
  8
Capa 1
 62
   250
420
  1842203
370
     9
100
AcDbVertex
100
AcDb2dVertex
 10
76.97418829794938
 20
127.6961461065851
 30
0.0
  0
VERTEX
  5
28B
330
288
100
AcDbEntity
  8
Capa 1
 62
   250
420
  1842203
370
     9
100
AcDbVertex
100
AcDb2dVertex
 10
76.48241168335336
 20
127.6961461065851
 30
0.0
  0
VERTEX
  5
28C
330
288
100
AcDbEntity
  8
Capa 1
 62
   250
420
  1842203
370
     9
100
AcDbVertex
100
AcDb2dVertex
 10
76.48241168335336
 20
126.94190704563
 30
0.0
  0
VERTEX
  5
28D
330
288
100
AcDbEntity
  8
Capa 1
 62
   250
420
  1842203
370
     9
100
AcDbVertex
100
AcDb2dVertex
 10
75.34293558568358
 20
126.94190704563
 30
0.0
  0
SEQEND
  5
28E
330
288
100
AcDbEntity
  8
Capa 1
 62
   250
420
  1842203
370
     9
  0
POLYLINE
  5
28F
330
41
100
AcDbEntity
  8
Capa 1
 62
   250
420
  1842203
370
     9
100
AcDb2dPolyline
 66
     1
 10
0.0
 20
0.0
 30
0.0
  0
VERTEX
  5
290
330
28F
100
AcDbEntity
  8
Capa 1
 62
   250
420
  1842203
370
     9
100
AcDbVertex
100
AcDb2dVertex
 10
75.34330162707889
 20
126.165253332174
 30
0.0
  0
VERTEX
  5
291
330
28F
100
AcDbEntity
  8
Capa 1
 62
   250
420
  1842203
370
     9
100
AcDbVertex
100
AcDb2dVertex
 10
76.40163496014765
 20
126.165253332174
 30
0.0
  0
SEQEND
  5
292
330
28F
100
AcDbEntity
  8
Capa 1
 62
   250
420
  1842203
370
     9
  0
SPLINE
  5
293
330
41
100
AcDbEntity
  8
Capa 1
 62
   250
420
  1842203
370
     9
100
AcDbSpline
210
0.0
220
0.0
230
1.0
 70
    11
 71
     3
 72
    41
 73
    37
 74
     0
 42
0.0000000001
 43
0.0000000001
 12
1.0
 22
0.0
 32
0.0
 13
1.0
 23
0.0
 33
0.0
 40
0.0
 40
0.0
 40
0.0
 40
0.0
 40
1.0
 40
1.0
 40
1.0
 40
2.0
 40
2.0
 40
2.0
 40
3.0
 40
3.0
 40
3.0
 40
4.0
 40
4.0
 40
4.0
 40
5.0
 40
5.0
 40
5.0
 40
6.0
 40
6.0
 40
6.0
 40
7.0
 40
7.0
 40
7.0
 40
8.0
 40
8.0
 40
8.0
 40
9.0
 40
9.0
 40
9.0
 40
10.0
 40
10.0
 40
10.0
 40
11.0
 40
11.0
 40
11.0
 40
12.0
 40
12.0
 40
12.0
 40
12.0
 10
73.77577241536683
 20
136.0857287596526
 30
0.0
 10
73.77577241536683
 20
136.0857287596526
 30
0.0
 10
74.20615096886166
 20
136.0857287596526
 30
0.0
 10
74.20615096886166
 20
136.0857287596526
 30
0.0
 10
74.60761225212718
 20
136.0857287596526
 30
0.0
 10
74.72191406077374
 20
135.9523605006799
 30
0.0
 10
74.72191406077374
 20
135.4930431451089
 30
0.0
 10
74.72191406077374
 20
135.4930431451089
 30
0.0
 10
74.72191406077374
 20
132.7618360399432
 30
0.0
 10
74.72191406077374
 20
132.7618360399432
 30
0.0
 10
74.72191406077374
 20
132.7618360399432
 30
0.0
 10
80.19209050187038
 20
132.7618360399432
 30
0.0
 10
80.19209050187038
 20
132.7618360399432
 30
0.0
 10
80.19209050187038
 20
132.7618360399432
 30
0.0
 10
80.19421138877848
 20
139.6339617909921
 30
0.0
 10
80.19421138877848
 20
139.6339617909921
 30
0.0
 10
80.19421138877848
 20
139.6339617909921
 30
0.0
 10
73.77577241536683
 20
139.6339617909921
 30
0.0
 10
73.77577241536683
 20
139.6339617909921
 30
0.0
 10
73.77577241536683
 20
139.6339617909921
 30
0.0
 10
67.35874377791943
 20
139.6339617909921
 30
0.0
 10
67.35874377791943
 20
139.6339617909921
 30
0.0
 10
67.35874377791943
 20
139.6339617909921
 30
0.0
 10
67.36085389890415
 20
132.7618360399432
 30
0.0
 10
67.36085389890415
 20
132.7618360399432
 30
0.0
 10
67.36085389890415
 20
132.7618360399432
 30
0.0
 10
72.8310303400008
 20
132.7618360399432
 30
0.0
 10
72.8310303400008
 20
132.7618360399432
 30
0.0
 10
72.8310303400008
 20
132.7618360399432
 30
0.0
 10
72.8310303400008
 20
135.4930431451089
 30
0.0
 10
72.8310303400008
 20
135.4930431451089
 30
0.0
 10
72.8310303400008
 20
135.9523605006799
 30
0.0
 10
72.94462159770352
 20
136.0857287596526
 30
0.0
 10
73.34749321693332
 20
136.0857287596526
 30
0.0
 10
73.34749321693332
 20
136.0857287596526
 30
0.0
 10
73.77577241536683
 20
136.0857287596526
 30
0.0
 10
73.77577241536683
 20
136.0857287596526
 30
0.0
  0
POLYLINE
  5
294
330
41
100
AcDbEntity
  8
Capa 1
 62
   250
420
  1842203
370
     9
100
AcDb2dPolyline
 66
     1
 10
0.0
 20
0.0
 30
0.0
  0
VERTEX
  5
295
330
294
100
AcDbEntity
  8
Capa 1
 62
   250
420
  1842203
370
     9
100
AcDbVertex
100
AcDb2dVertex
 10
75.48589628239806
 20
116.5630616638388
 30
0.0
  0
VERTEX
  5
296
330
294
100
AcDbEntity
  8
Capa 1
 62
   250
420
  1842203
370
     9
100
AcDbVertex
100
AcDb2dVertex
 10
73.77562169243934
 20
116.5630616638388
 30
0.0
  0
VERTEX
  5
297
330
294
100
AcDbEntity
  8
Capa 1
 62
   250
420
  1842203
370
     9
100
AcDbVertex
100
AcDb2dVertex
 10
72.06676820436829
 20
116.5630616638388
 30
0.0
  0
SEQEND
  5
298
330
294
100
AcDbEntity
  8
Capa 1
 62
   250
420
  1842203
370
     9
  0
POLYLINE
  5
299
330
41
100
AcDbEntity
  8
Capa 1
 62
   250
420
  1842203
370
     9
100
AcDb2dPolyline
 66
     1
 10
0.0
 20
0.0
 30
0.0
  0
VERTEX
  5
29A
330
299
100
AcDbEntity
  8
Capa 1
 62
   250
420
  1842203
370
     9
100
AcDbVertex
100
AcDb2dVertex
 10
75.48589628239806
 20
120.8529160939187
 30
0.0
  0
VERTEX
  5
29B
330
299
100
AcDbEntity
  8
Capa 1
 62
   250
420
  1842203
370
     9
100
AcDbVertex
100
AcDb2dVertex
 10
73.77562169243934
 20
120.8529160939187
 30
0.0
  0
VERTEX
  5
29C
330
299
100
AcDbEntity
  8
Capa 1
 62
   250
420
  1842203
370
     9
100
AcDbVertex
100
AcDb2dVertex
 10
72.06676820436829
 20
120.8529160939187
 30
0.0
  0
SEQEND
  5
29D
330
299
100
AcDbEntity
  8
Capa 1
 62
   250
420
  1842203
370
     9
  0
POLYLINE
  5
29E
330
41
100
AcDbEntity
  8
Capa 1
 62
   250
420
  1842203
370
     9
100
AcDb2dPolyline
 66
     1
 10
0.0
 20
0.0
 30
0.0
  0
VERTEX
  5
29F
330
29E
100
AcDbEntity
  8
Capa 1
 62
   250
420
  1842203
370
     9
100
AcDbVertex
100
AcDb2dVertex
 10
75.21722189824214
 20
122.9695827600562
 30
0.0
  0
VERTEX
  5
2A0
330
29E
100
AcDbEntity
  8
Capa 1
 62
   250
420
  1842203
370
     9
100
AcDbVertex
100
AcDb2dVertex
 10
74.04881776441965
 20
122.9695827600562
 30
0.0
  0
VERTEX
  5
2A1
330
29E
100
AcDbEntity
  8
Capa 1
 62
   250
420
  1842203
370
     9
100
AcDbVertex
100
AcDb2dVertex
 10
72.33996427634861
 20
122.9695827600562
 30
0.0
  0
SEQEND
  5
2A2
330
29E
100
AcDbEntity
  8
Capa 1
 62
   250
420
  1842203
370
     9
  0
SPLINE
  5
2A3
330
41
100
AcDbEntity
  8
Capa 1
 62
   250
420
  1842203
370
     9
100
AcDbSpline
210
0.0
220
0.0
230
1.0
 70
    11
 71
     3
 72
    23
 73
    19
 74
     0
 42
0.0000000001
 43
0.0000000001
 12
1.0
 22
0.0
 32
0.0
 13
1.0
 23
0.0
 33
0.0
 40
0.0
 40
0.0
 40
0.0
 40
0.0
 40
1.0
 40
1.0
 40
1.0
 40
2.0
 40
2.0
 40
2.0
 40
3.0
 40
3.0
 40
3.0
 40
4.0
 40
4.0
 40
4.0
 40
5.0
 40
5.0
 40
5.0
 40
6.0
 40
6.0
 40
6.0
 40
6.0
 10
86.39307935462244
 20
129.0660021989075
 30
0.0
 10
86.87990364445841
 20
129.0660021989075
 30
0.0
 10
87.27359193103534
 20
129.462511157413
 30
0.0
 10
87.27359193103534
 20
129.9465255412438
 30
0.0
 10
87.27359193103534
 20
130.4326500460594
 30
0.0
 10
86.87990364445841
 20
130.8284699854678
 30
0.0
 10
86.39307935462244
 20
130.8284699854678
 30
0.0
 10
86.39307935462244
 20
130.8284699854678
 30
0.0
 10
83.37259188792964
 20
130.8284699854678
 30
0.0
 10
83.37259188792964
 20
130.8284699854678
 30
0.0
 10
82.88575683217027
 20
130.8284699854678
 30
0.0
 10
82.49134722872613
 20
130.4326500460594
 30
0.0
 10
82.49134722872613
 20
129.9465255412438
 30
0.0
 10
82.49134722872613
 20
129.462511157413
 30
0.0
 10
82.88575683217027
 20
129.0660021989075
 30
0.0
 10
83.37259188792964
 20
129.0660021989075
 30
0.0
 10
83.37259188792964
 20
129.0660021989075
 30
0.0
 10
86.39307935462244
 20
129.0660021989075
 30
0.0
 10
86.39307935462244
 20
129.0660021989075
 30
0.0
  0
SPLINE
  5
2A4
330
41
100
AcDbEntity
  8
Capa 1
 62
   250
420
  1842203
370
     9
100
AcDbSpline
210
0.0
220
0.0
230
1.0
 70
    11
 71
     3
 72
    23
 73
    19
 74
     0
 42
0.0000000001
 43
0.0000000001
 12
1.0
 22
0.0
 32
0.0
 13
1.0
 23
0.0
 33
0.0
 40
0.0
 40
0.0
 40
0.0
 40
0.0
 40
1.0
 40
1.0
 40
1.0
 40
2.0
 40
2.0
 40
2.0
 40
3.0
 40
3.0
 40
3.0
 40
4.0
 40
4.0
 40
4.0
 40
5.0
 40
5.0
 40
5.0
 40
6.0
 40
6.0
 40
6.0
 40
6.0
 10
86.39307935462244
 20
125.2605927895941
 30
0.0
 10
86.87990364445841
 20
125.2605927895941
 30
0.0
 10
87.27359193103534
 20
125.6528815061302
 30
0.0
 10
87.27359193103534
 20
126.1404055809866
 30
0.0
 10
87.27359193103534
 20
126.627240636746
 30
0.0
 10
86.87990364445841
 20
127.019529353282
 30
0.0
 10
86.39307935462244
 20
127.019529353282
 30
0.0
 10
86.39307935462244
 20
127.019529353282
 30
0.0
 10
83.37259188792964
 20
127.019529353282
 30
0.0
 10
83.37259188792964
 20
127.019529353282
 30
0.0
 10
82.88575683217027
 20
127.019529353282
 30
0.0
 10
82.49134722872613
 20
126.627240636746
 30
0.0
 10
82.49134722872613
 20
126.1404055809866
 30
0.0
 10
82.49134722872613
 20
125.6528815061302
 30
0.0
 10
82.88575683217027
 20
125.2605927895941
 30
0.0
 10
83.37259188792964
 20
125.2605927895941
 30
0.0
 10
83.37259188792964
 20
125.2605927895941
 30
0.0
 10
86.39307935462244
 20
125.2605927895941
 30
0.0
 10
86.39307935462244
 20
125.2605927895941
 30
0.0
  0
SPLINE
  5
2A5
330
41
100
AcDbEntity
  8
Capa 1
 62
   250
420
  1842203
370
     9
100
AcDbSpline
210
0.0
220
0.0
230
1.0
 70
    11
 71
     3
 72
    32
 73
    28
 74
     0
 42
0.0000000001
 43
0.0000000001
 12
1.0
 22
0.0
 32
0.0
 13
1.0
 23
0.0
 33
0.0
 40
0.0
 40
0.0
 40
0.0
 40
0.0
 40
1.0
 40
1.0
 40
1.0
 40
2.0
 40
2.0
 40
2.0
 40
3.0
 40
3.0
 40
3.0
 40
4.0
 40
4.0
 40
4.0
 40
5.0
 40
5.0
 40
5.0
 40
6.0
 40
6.0
 40
6.0
 40
7.0
 40
7.0
 40
7.0
 40
8.0
 40
8.0
 40
8.0
 40
9.0
 40
9.0
 40
9.0
 40
9.0
 10
76.40163496014765
 20
126.1625187876325
 30
0.0
 10
76.40163496014765
 20
126.1625187876325
 30
0.0
 10
76.9745435734213
 20
126.1653394595611
 30
0.0
 10
76.9745435734213
 20
126.1653394595611
 30
0.0
 10
76.9745435734213
 20
126.1653394595611
 30
0.0
 10
76.9745435734213
 20
126.9661303732606
 30
0.0
 10
76.9745435734213
 20
126.9661303732606
 30
0.0
 10
77.0705002486089
 20
127.0014210701377
 30
0.0
 10
77.17491893958214
 20
127.0197662035966
 30
0.0
 10
77.28215830248394
 20
127.0197662035966
 30
0.0
 10
77.28215830248394
 20
127.0197662035966
 30
0.0
 10
79.04675774187568
 20
127.0197662035966
 30
0.0
 10
79.04675774187568
 20
127.0197662035966
 30
0.0
 10
79.53288224669122
 20
127.0197662035966
 30
0.0
 10
79.92729185013536
 20
126.6267669361168
 30
0.0
 10
79.92729185013536
 20
126.1406424313012
 30
0.0
 10
79.92729185013536
 20
125.6523862736542
 30
0.0
 10
79.53288224669122
 20
125.260808108062
 30
0.0
 10
79.04675774187568
 20
125.260808108062
 30
0.0
 10
79.04675774187568
 20
125.260808108062
 30
0.0
 10
77.28215830248394
 20
125.260808108062
 30
0.0
 10
77.28215830248394
 20
125.260808108062
 30
0.0
 10
76.7960337976684
 20
125.260808108062
 30
0.0
 10
76.40163496014765
 20
125.6523862736542
 30
0.0
 10
76.40163496014765
 20
126.1406424313012
 30
0.0
 10
76.40163496014765
 20
126.1406424313012
 30
0.0
 10
76.40163496014765
 20
126.1625187876325
 30
0.0
 10
76.40163496014765
 20
126.1625187876325
 30
0.0
  0
SPLINE
  5
2A6
330
41
100
AcDbEntity
  8
Capa 1
 62
   250
420
  1842203
370
     9
100
AcDbSpline
210
0.0
220
0.0
230
1.0
 70
    11
 71
     3
 72
    23
 73
    19
 74
     0
 42
0.0000000001
 43
0.0000000001
 12
1.0
 22
0.0
 32
0.0
 13
1.0
 23
0.0
 33
0.0
 40
0.0
 40
0.0
 40
0.0
 40
0.0
 40
1.0
 40
1.0
 40
1.0
 40
2.0
 40
2.0
 40
2.0
 40
3.0
 40
3.0
 40
3.0
 40
4.0
 40
4.0
 40
4.0
 40
5.0
 40
5.0
 40
5.0
 40
6.0
 40
6.0
 40
6.0
 40
6.0
 10
77.87130192823183
 20
129.0667127498514
 30
0.0
 10
77.87130192823183
 20
129.0667127498514
 30
0.0
 10
79.04674697595229
 20
129.0660021989075
 30
0.0
 10
79.04674697595229
 20
129.0660021989075
 30
0.0
 10
79.53288224669122
 20
129.0660021989075
 30
0.0
 10
79.92728108421198
 20
129.4632217083569
 30
0.0
 10
79.92728108421198
 20
129.9465255412438
 30
0.0
 10
79.92728108421198
 20
130.4333605970032
 30
0.0
 10
79.53288224669122
 20
130.8284699854678
 30
0.0
 10
79.04674697595229
 20
130.8284699854678
 30
0.0
 10
79.04674697595229
 20
130.8284699854678
 30
0.0
 10
77.83036988749771
 20
130.8298910873555
 30
0.0
 10
77.83036988749771
 20
130.8298910873555
 30
0.0
 10
78.0067587763425
 20
130.5737697698739
 30
0.0
 10
78.11470869018812
 20
130.264744704847
 30
0.0
 10
78.11470869018812
 20
129.933821751642
 30
0.0
 10
78.11470869018812
 20
129.6135139989009
 30
0.0
 10
78.02792458173
 20
129.3164606406852
 30
0.0
 10
77.87130192823183
 20
129.0667127498514
 30
0.0
  0
POLYLINE
  5
2A7
330
41
100
AcDbEntity
  8
Capa 1
 62
   250
420
  1842203
370
     9
100
AcDb2dPolyline
 66
     1
 10
0.0
 20
0.0
 30
0.0
  0
VERTEX
  5
2A8
330
2A7
100
AcDbEntity
  8
Capa 1
 62
   250
420
  1842203
370
     9
100
AcDbVertex
100
AcDb2dVertex
 10
82.21484601826465
 20
122.9695827600562
 30
0.0
  0
VERTEX
  5
2A9
330
2A7
100
AcDbEntity
  8
Capa 1
 62
   250
420
  1842203
370
     9
100
AcDbVertex
100
AcDb2dVertex
 10
80.18707358156999
 20
122.9695827600562
 30
0.0
  0
SEQEND
  5
2AA
330
2A7
100
AcDbEntity
  8
Capa 1
 62
   250
420
  1842203
370
     9
  0
POLYLINE
  5
2AB
330
41
100
AcDbEntity
  8
Capa 1
 62
   250
420
  1842203
370
     9
100
AcDb2dPolyline
 66
     1
 10
0.0
 20
0.0
 30
0.0
  0
VERTEX
  5
2AC
330
2AB
100
AcDbEntity
  8
Capa 1
 62
   250
420
  1842203
370
     9
100
AcDbVertex
100
AcDb2dVertex
 10
82.21351104376411
 20
122.9695827600562
 30
0.0
  0
VERTEX
  5
2AD
330
2AB
100
AcDbEntity
  8
Capa 1
 62
   250
420
  1842203
370
     9
100
AcDbVertex
100
AcDb2dVertex
 10
82.20926926994791
 20
124.4547634237474
 30
0.0
  0
VERTEX
  5
2AE
330
2AB
100
AcDbEntity
  8
Capa 1
 62
   250
420
  1842203
370
     9
100
AcDbVertex
100
AcDb2dVertex
 10
87.94471806340879
 20
124.4547634237474
 30
0.0
  0
VERTEX
  5
2AF
330
2AB
100
AcDbEntity
  8
Capa 1
 62
   250
420
  1842203
370
     9
100
AcDbVertex
100
AcDb2dVertex
 10
87.94471806340879
 20
125.6605683754317
 30
0.0
  0
VERTEX
  5
2B0
330
2AB
100
AcDbEntity
  8
Capa 1
 62
   250
420
  1842203
370
     9
100
AcDbVertex
100
AcDb2dVertex
 10
88.60936310990061
 20
125.6605683754317
 30
0.0
  0
VERTEX
  5
2B1
330
2AB
100
AcDbEntity
  8
Capa 1
 62
   250
420
  1842203
370
     9
100
AcDbVertex
100
AcDb2dVertex
 10
88.60936310990061
 20
122.9695827600562
 30
0.0
  0
VERTEX
  5
2B2
330
2AB
100
AcDbEntity
  8
Capa 1
 62
   250
420
  1842203
370
     9
100
AcDbVertex
100
AcDb2dVertex
 10
82.21351104376411
 20
122.9695827600562
 30
0.0
  0
SEQEND
  5
2B3
330
2AB
100
AcDbEntity
  8
Capa 1
 62
   250
420
  1842203
370
     9
  0
POLYLINE
  5
2B4
330
41
100
AcDbEntity
  8
Capa 1
 62
   250
420
  1842203
370
     9
100
AcDb2dPolyline
 66
     1
 10
0.0
 20
0.0
 30
0.0
  0
VERTEX
  5
2B5
330
2B4
100
AcDbEntity
  8
Capa 1
 62
   250
420
  1842203
370
     9
100
AcDbVertex
100
AcDb2dVertex
 10
80.18778413251383
 20
124.4551294651427
 30
0.0
  0
VERTEX
  5
2B6
330
2B4
100
AcDbEntity
  8
Capa 1
 62
   250
420
  1842203
370
     9
100
AcDbVertex
100
AcDb2dVertex
 10
80.19201514040664
 20
132.7616207214754
 30
0.0
  0
SEQEND
  5
2B7
330
2B4
100
AcDbEntity
  8
Capa 1
 62
   250
420
  1842203
370
     9
  0
SPLINE
  5
2B8
330
41
100
AcDbEntity
  8
Capa 1
 62
   250
420
  1842203
370
     9
100
AcDbSpline
210
0.0
220
0.0
230
1.0
 70
    11
 71
     3
 72
    23
 73
    19
 74
     0
 42
0.0000000001
 43
0.0000000001
 12
1.0
 22
0.0
 32
0.0
 13
1.0
 23
0.0
 33
0.0
 40
0.0
 40
0.0
 40
0.0
 40
0.0
 40
1.0
 40
1.0
 40
1.0
 40
2.0
 40
2.0
 40
2.0
 40
3.0
 40
3.0
 40
3.0
 40
4.0
 40
4.0
 40
4.0
 40
5.0
 40
5.0
 40
5.0
 40
6.0
 40
6.0
 40
6.0
 40
6.0
 10
80.18708434749338
 20
124.4551294651427
 30
0.0
 10
80.18708434749338
 20
124.4551294651427
 30
0.0
 10
75.75901699291464
 20
124.4551294651427
 30
0.0
 10
75.75901699291464
 20
124.4551294651427
 30
0.0
 10
75.75901699291464
 20
124.4551294651427
 30
0.0
 10
75.75901699291464
 20
125.3010726615458
 30
0.0
 10
75.75901699291464
 20
125.3010726615458
 30
0.0
 10
75.61155614022255
 20
125.082352161926
 30
0.0
 10
75.428104805633
 20
124.8904388115508
 30
0.0
 10
75.2171465367784
 20
124.7281748141956
 30
0.0
 10
75.2171465367784
 20
124.7281748141956
 30
0.0
 10
75.2171465367784
 20
122.9699272696048
 30
0.0
 10
75.2171465367784
 20
122.9699272696048
 30
0.0
 10
75.2171465367784
 20
122.9699272696048
 30
0.0
 10
80.18708434749338
 20
122.9699272696048
 30
0.0
 10
80.18708434749338
 20
122.9699272696048
 30
0.0
 10
80.18708434749338
 20
122.9699272696048
 30
0.0
 10
80.18708434749338
 20
124.4551294651427
 30
0.0
 10
80.18708434749338
 20
124.4551294651427
 30
0.0
  0
SPLINE
  5
2B9
330
41
100
AcDbEntity
  8
Capa 1
 62
   250
420
  1842203
370
     9
100
AcDbSpline
210
0.0
220
0.0
230
1.0
 70
     8
 71
     3
 72
    17
 73
    13
 74
     0
 42
0.0000000001
 43
0.0000000001
 12
1.0
 22
0.0
 32
0.0
 13
1.0
 23
0.0
 33
0.0
 40
0.0
 40
0.0
 40
0.0
 40
0.0
 40
1.0
 40
1.0
 40
1.0
 40
2.0
 40
2.0
 40
2.0
 40
3.0
 40
3.0
 40
3.0
 40
4.0
 40
4.0
 40
4.0
 40
4.0
 10
66.57825739573609
 20
140.606426119091
 30
0.0
 10
66.57825739573609
 20
140.606426119091
 30
0.0
 10
66.06319408884445
 20
140.606426119091
 30
0.0
 10
66.06319408884445
 20
140.606426119091
 30
0.0
 10
65.57565924806464
 20
140.606426119091
 30
0.0
 10
65.18196019556432
 20
141.0029350775965
 30
0.0
 10
65.18196019556432
 20
141.4862389104835
 30
0.0
 10
65.18196019556432
 20
141.9730739662429
 30
0.0
 10
65.57565924806464
 20
142.3696044565951
 30
0.0
 10
66.06319408884445
 20
142.3696044565951
 30
0.0
 10
66.06319408884445
 20
142.3696044565951
 30
0.0
 10
66.5980128651593
 20
142.3696044565951
 30
0.0
 10
66.5980128651593
 20
142.3696044565951
 30
0.0
  0
SPLINE
  5
2BA
330
41
100
AcDbEntity
  8
Capa 1
 62
   250
420
  1842203
370
     9
100
AcDbSpline
210
0.0
220
0.0
230
1.0
 70
     8
 71
     3
 72
    17
 73
    13
 74
     0
 42
0.0000000001
 43
0.0000000001
 12
1.0
 22
0.0
 32
0.0
 13
1.0
 23
0.0
 33
0.0
 40
0.0
 40
0.0
 40
0.0
 40
0.0
 40
1.0
 40
1.0
 40
1.0
 40
2.0
 40
2.0
 40
2.0
 40
3.0
 40
3.0
 40
3.0
 40
4.0
 40
4.0
 40
4.0
 40
4.0
 10
80.95669714705141
 20
140.606426119091
 30
0.0
 10
80.95669714705141
 20
140.606426119091
 30
0.0
 10
81.4724494730401
 20
140.606426119091
 30
0.0
 10
81.4724494730401
 20
140.606426119091
 30
0.0
 10
81.95928452879946
 20
140.606426119091
 30
0.0
 10
82.35298358129978
 20
141.0029350775965
 30
0.0
 10
82.35298358129978
 20
141.4862389104835
 30
0.0
 10
82.35298358129978
 20
141.9730739662429
 30
0.0
 10
81.95928452879946
 20
142.3696044565951
 30
0.0
 10
81.4724494730401
 20
142.3696044565951
 30
0.0
 10
81.4724494730401
 20
142.3696044565951
 30
0.0
 10
80.93764146264863
 20
142.3696044565951
 30
0.0
 10
80.93764146264863
 20
142.3696044565951
 30
0.0
  0
POLYLINE
  5
2BB
330
41
100
AcDbEntity
  8
Capa 1
  6
AI-Linetype-7
 62
   250
420
  1842203
370
     9
100
AcDb2dPolyline
 66
     1
 10
0.0
 20
0.0
 30
0.0
  0
VERTEX
  5
2BC
330
2BB
100
AcDbEntity
  8
Capa 1
  6
AI-Linetype-7
 62
   250
420
  1842203
370
     9
100
AcDbVertex
100
AcDb2dVertex
 10
134.1979240929696
 20
118.6191377131295
 30
0.0
  0
VERTEX
  5
2BD
330
2BB
100
AcDbEntity
  8
Capa 1
  6
AI-Linetype-7
 62
   250
420
  1842203
370
     9
100
AcDbVertex
100
AcDb2dVertex
 10
185.7154728743068
 20
118.6191377131295
 30
0.0
  0
SEQEND
  5
2BF
330
2BB
100
AcDbEntity
  8
Capa 1
  6
AI-Linetype-7
 62
   250
420
  1842203
370
     9
  0
POLYLINE
  5
2C0
330
41
100
AcDbEntity
  8
Capa 1
  6
AI-Linetype-8
 62
   250
420
  1842203
370
     9
100
AcDb2dPolyline
 66
     1
 10
0.0
 20
0.0
 30
0.0
  0
VERTEX
  5
2C1
330
2C0
100
AcDbEntity
  8
Capa 1
  6
AI-Linetype-8
 62
   250
420
  1842203
370
     9
100
AcDbVertex
100
AcDb2dVertex
 10
52.24044823929992
 20
118.6191377131295
 30
0.0
  0
VERTEX
  5
2C2
330
2C0
100
AcDbEntity
  8
Capa 1
  6
AI-Linetype-8
 62
   250
420
  1842203
370
     9
100
AcDbVertex
100
AcDb2dVertex
 10
136.0230495536678
 20
118.6191377131295
 30
0.0
  0
SEQEND
  5
2C4
330
2C0
100
AcDbEntity
  8
Capa 1
  6
AI-Linetype-8
 62
   250
420
  1842203
370
     9
  0
POLYLINE
  5
2C5
330
41
100
AcDbEntity
  8
Capa 1
 62
   250
420
  1842203
370
     9
100
AcDb2dPolyline
 66
     1
 10
0.0
 20
0.0
 30
0.0
  0
VERTEX
  5
2C6
330
2C5
100
AcDbEntity
  8
Capa 1
 62
   250
420
  1842203
370
     9
100
AcDbVertex
100
AcDb2dVertex
 10
88.69092574551391
 20
118.6218937895177
 30
0.0
  0
VERTEX
  5
2C7
330
2C5
100
AcDbEntity
  8
Capa 1
 62
   250
420
  1842203
370
     9
100
AcDbVertex
100
AcDb2dVertex
 10
88.69092574551391
 20
118.1491620934011
 30
0.0
  0
SEQEND
  5
2C8
330
2C5
100
AcDbEntity
  8
Capa 1
 62
   250
420
  1842203
370
     9
  0
POLYLINE
  5
2C9
330
41
100
AcDbEntity
  8
Capa 1
  6
AI-Linetype-9
 62
   250
420
  1842203
370
     9
100
AcDb2dPolyline
 66
     1
 10
0.0
 20
0.0
 30
0.0
  0
VERTEX
  5
2CA
330
2C9
100
AcDbEntity
  8
Capa 1
  6
AI-Linetype-9
 62
   250
420
  1842203
370
     9
100
AcDbVertex
100
AcDb2dVertex
 10
88.69092574551391
 20
117.3939971630343
 30
0.0
  0
VERTEX
  5
2CB
330
2C9
100
AcDbEntity
  8
Capa 1
  6
AI-Linetype-9
 62
   250
420
  1842203
370
     9
100
AcDbVertex
100
AcDb2dVertex
 10
88.6887940926824
 20
110.7194261062177
 30
0.0
  0
SEQEND
  5
2CD
330
2C9
100
AcDbEntity
  8
Capa 1
  6
AI-Linetype-9
 62
   250
420
  1842203
370
     9
  0
POLYLINE
  5
2CE
330
41
100
AcDbEntity
  8
Capa 1
 62
   250
420
  1842203
370
     9
100
AcDb2dPolyline
 66
     1
 10
0.0
 20
0.0
 30
0.0
  0
VERTEX
  5
2CF
330
2CE
100
AcDbEntity
  8
Capa 1
 62
   250
420
  1842203
370
     9
100
AcDbVertex
100
AcDb2dVertex
 10
88.68888022006954
 20
110.3412622811712
 30
0.0
  0
VERTEX
  5
2D0
330
2CE
100
AcDbEntity
  8
Capa 1
 62
   250
420
  1842203
370
     9
100
AcDbVertex
100
AcDb2dVertex
 10
88.68888022006954
 20
109.8685305850546
 30
0.0
  0
VERTEX
  5
2D1
330
2CE
100
AcDbEntity
  8
Capa 1
 62
   250
420
  1842203
370
     9
100
AcDbVertex
100
AcDb2dVertex
 10
88.21614852395291
 20
109.8685305850546
 30
0.0
  0
SEQEND
  5
2D2
330
2CE
100
AcDbEntity
  8
Capa 1
 62
   250
420
  1842203
370
     9
  0
POLYLINE
  5
2D3
330
41
100
AcDbEntity
  8
Capa 1
  6
AI-Linetype-10
 62
   250
420
  1842203
370
     9
100
AcDb2dPolyline
 66
     1
 10
0.0
 20
0.0
 30
0.0
  0
VERTEX
  5
2D4
330
2D3
100
AcDbEntity
  8
Capa 1
  6
AI-Linetype-10
 62
   250
420
  1842203
370
     9
100
AcDbVertex
100
AcDb2dVertex
 10
87.59336138760688
 20
109.8685521169014
 30
0.0
  0
VERTEX
  5
2D5
330
2D3
100
AcDbEntity
  8
Capa 1
  6
AI-Linetype-10
 62
   250
420
  1842203
370
     9
100
AcDbVertex
100
AcDb2dVertex
 10
84.99832168149565
 20
109.8685521169014
 30
0.0
  0
SEQEND
  5
2D7
330
2D3
100
AcDbEntity
  8
Capa 1
  6
AI-Linetype-10
 62
   250
420
  1842203
370
     9
  0
POLYLINE
  5
2D8
330
41
100
AcDbEntity
  8
Capa 1
 62
   250
420
  1842203
370
     9
100
AcDb2dPolyline
 66
     1
 10
0.0
 20
0.0
 30
0.0
  0
VERTEX
  5
2D9
330
2D8
100
AcDbEntity
  8
Capa 1
 62
   250
420
  1842203
370
     9
100
AcDbVertex
100
AcDb2dVertex
 10
84.68704653847993
 20
109.8685521169014
 30
0.0
  0
VERTEX
  5
2DA
330
2D8
100
AcDbEntity
  8
Capa 1
 62
   250
420
  1842203
370
     9
100
AcDbVertex
100
AcDb2dVertex
 10
84.21431484236331
 20
109.8685521169014
 30
0.0
  0
VERTEX
  5
2DB
330
2D8
100
AcDbEntity
  8
Capa 1
 62
   250
420
  1842203
370
     9
100
AcDbVertex
100
AcDb2dVertex
 10
84.21431484236331
 20
109.297742858689
 30
0.0
  0
VERTEX
  5
2DC
330
2D8
100
AcDbEntity
  8
Capa 1
 62
   250
420
  1842203
370
     9
100
AcDbVertex
100
AcDb2dVertex
 10
84.68704653847993
 20
109.297742858689
 30
0.0
  0
SEQEND
  5
2DD
330
2D8
100
AcDbEntity
  8
Capa 1
 62
   250
420
  1842203
370
     9
  0
POLYLINE
  5
2DE
330
41
100
AcDbEntity
  8
Capa 1
  6
AI-Linetype-11
 62
   250
420
  1842203
370
     9
100
AcDb2dPolyline
 66
     1
 10
0.0
 20
0.0
 30
0.0
  0
VERTEX
  5
2DF
330
2DE
100
AcDbEntity
  8
Capa 1
  6
AI-Linetype-11
 62
   250
420
  1842203
370
     9
100
AcDbVertex
100
AcDb2dVertex
 10
85.32162236093956
 20
109.298044304544
 30
0.0
  0
VERTEX
  5
2E0
330
2DE
100
AcDbEntity
  8
Capa 1
  6
AI-Linetype-11
 62
   250
420
  1842203
370
     9
100
AcDbVertex
100
AcDb2dVertex
 10
89.44557391155789
 20
109.298044304544
 30
0.0
  0
SEQEND
  5
2E2
330
2DE
100
AcDbEntity
  8
Capa 1
  6
AI-Linetype-11
 62
   250
420
  1842203
370
     9
  0
POLYLINE
  5
2E3
330
41
100
AcDbEntity
  8
Capa 1
 62
   250
420
  1842203
370
     9
100
AcDb2dPolyline
 66
     1
 10
0.0
 20
0.0
 30
0.0
  0
VERTEX
  5
2E4
330
2E3
100
AcDbEntity
  8
Capa 1
 62
   250
420
  1842203
370
     9
100
AcDbVertex
100
AcDb2dVertex
 10
89.76239350512017
 20
109.298044304544
 30
0.0
  0
VERTEX
  5
2E5
330
2E3
100
AcDbEntity
  8
Capa 1
 62
   250
420
  1842203
370
     9
100
AcDbVertex
100
AcDb2dVertex
 10
90.23510366939001
 20
109.298044304544
 30
0.0
  0
VERTEX
  5
2E6
330
2E3
100
AcDbEntity
  8
Capa 1
 62
   250
420
  1842203
370
     9
100
AcDbVertex
100
AcDb2dVertex
 10
90.23510366939001
 20
109.7707544688138
 30
0.0
  0
SEQEND
  5
2E7
330
2E3
100
AcDbEntity
  8
Capa 1
 62
   250
420
  1842203
370
     9
  0
POLYLINE
  5
2E8
330
41
100
AcDbEntity
  8
Capa 1
  6
AI-Linetype-12
 62
   250
420
  1842203
370
     9
100
AcDb2dPolyline
 66
     1
 10
0.0
 20
0.0
 30
0.0
  0
VERTEX
  5
2E9
330
2E8
100
AcDbEntity
  8
Capa 1
  6
AI-Linetype-12
 62
   250
420
  1842203
370
     9
100
AcDbVertex
100
AcDb2dVertex
 10
90.23503907384966
 20
110.4322128019818
 30
0.0
  0
VERTEX
  5
2EA
330
2E8
100
AcDbEntity
  8
Capa 1
  6
AI-Linetype-12
 62
   250
420
  1842203
370
     9
100
AcDbVertex
100
AcDb2dVertex
 10
90.23503907384966
 20
117.8186697771317
 30
0.0
  0
SEQEND
  5
2EC
330
2E8
100
AcDbEntity
  8
Capa 1
  6
AI-Linetype-12
 62
   250
420
  1842203
370
     9
  0
POLYLINE
  5
2ED
330
41
100
AcDbEntity
  8
Capa 1
 62
   250
420
  1842203
370
     9
100
AcDb2dPolyline
 66
     1
 10
0.0
 20
0.0
 30
0.0
  0
VERTEX
  5
2EE
330
2ED
100
AcDbEntity
  8
Capa 1
 62
   250
420
  1842203
370
     9
100
AcDbVertex
100
AcDb2dVertex
 10
90.23503907384966
 20
118.1492266889414
 30
0.0
  0
VERTEX
  5
2EF
330
2ED
100
AcDbEntity
  8
Capa 1
 62
   250
420
  1842203
370
     9
100
AcDbVertex
100
AcDb2dVertex
 10
90.23503907384966
 20
118.6219368532113
 30
0.0
  0
SEQEND
  5
2F0
330
2ED
100
AcDbEntity
  8
Capa 1
 62
   250
420
  1842203
370
     9
  0
POLYLINE
  5
2F1
330
41
100
AcDbEntity
  8
Capa 1
370
     0
100
AcDb2dPolyline
 66
     1
 10
0.0
 20
0.0
 30
0.0
  0
VERTEX
  5
2F2
330
2F1
100
AcDbEntity
  8
Capa 1
370
     0
100
AcDbVertex
100
AcDb2dVertex
 10
0.0
 20
297.0000884267266
 30
0.0
  0
VERTEX
  5
2F3
330
2F1
100
AcDbEntity
  8
Capa 1
370
     0
100
AcDbVertex
100
AcDb2dVertex
 10
209.9998002269054
 20
297.0000884267266
 30
0.0
  0
VERTEX
  5
2F4
330
2F1
100
AcDbEntity
  8
Capa 1
370
     0
100
AcDbVertex
100
AcDb2dVertex
 10
209.9998002269054
 20
0.0
 30
0.0
  0
VERTEX
  5
2F5
330
2F1
100
AcDbEntity
  8
Capa 1
370
     0
100
AcDbVertex
100
AcDb2dVertex
 10
0.0
 20
0.0
 30
0.0
  0
VERTEX
  5
2F6
330
2F1
100
AcDbEntity
  8
Capa 1
370
     0
100
AcDbVertex
100
AcDb2dVertex
 10
0.0
 20
297.0000884267266
 30
0.0
  0
SEQEND
  5
2F7
330
2F1
100
AcDbEntity
  8
Capa 1
370
     0
  0
ENDBLK
  5
44
330
41
100
AcDbEntity
  8
0
100
AcDbBlockEnd
  0
BLOCK
  5
2FF
330
2FD
100
AcDbEntity
  8
0
100
AcDbBlockBegin
  2
block 3
 70
     0
 10
0.0
 20
0.0
 30
0.0
  3
block 3
  1

  0
POLYLINE
  5
301
330
2FD
100
AcDbEntity
  8
Capa 1
370
     0
100
AcDb2dPolyline
 66
     1
 10
0.0
 20
0.0
 30
0.0
  0
VERTEX
  5
302
330
301
100
AcDbEntity
  8
Capa 1
370
     0
100
AcDbVertex
100
AcDb2dVertex
 10
100.0577168532408
 20
118.9388210423139
 30
0.0
  0
VERTEX
  5
303
330
301
100
AcDbEntity
  8
Capa 1
370
     0
100
AcDbVertex
100
AcDb2dVertex
 10
99.36626465750436
 20
121.3673334454069
 30
0.0
  0
VERTEX
  5
304
330
301
100
AcDbEntity
  8
Capa 1
370
     0
100
AcDbVertex
100
AcDb2dVertex
 10
100.0577168532408
 20
121.1725994231031
 30
0.0
  0
VERTEX
  5
305
330
301
100
AcDbEntity
  8
Capa 1
370
     0
100
AcDbVertex
100
AcDb2dVertex
 10
100.7491475171304
 20
121.3673334454069
 30
0.0
  0
VERTEX
  5
306
330
301
100
AcDbEntity
  8
Capa 1
370
     0
100
AcDbVertex
100
AcDb2dVertex
 10
100.0577168532408
 20
118.9388210423139
 30
0.0
  0
SEQEND
  5
308
330
301
100
AcDbEntity
  8
Capa 1
370
     0
  0
HATCH
  5
307
330
2FD
100
AcDbEntity
  8
Capa 1
 62
   250
420
  1842203
100
AcDbHatch
 10
0.0
 20
0.0
 30
0.0
210
0.0
220
0.0
230
1.0
  2
SOLID
 70
     1
 71
     0
 91
        1
 92
        1
 93
        4
 72
     1
 10
100.0577168532408
 20
118.9388210423139
 11
99.36626465750436
 21
121.3673334454069
 72
     1
 10
99.36626465750436
 20
121.3673334454069
 11
100.0577168532408
 21
121.1725994231031
 72
     1
 10
100.0577168532408
 20
121.1725994231031
 11
100.7491475171304
 21
121.3673334454069
 72
     1
 10
100.7491475171304
 20
121.3673334454069
 11
100.0577168532408
 21
118.9388210423139
 97
        0
 75
     2
 76
     1
 98
        0
  0
POLYLINE
  5
309
330
2FD
100
AcDbEntity
  8
Capa 1
370
     0
100
AcDb2dPolyline
 66
     1
 10
0.0
 20
0.0
 30
0.0
  0
VERTEX
  5
30A
330
309
100
AcDbEntity
  8
Capa 1
370
     0
100
AcDbVertex
100
AcDb2dVertex
 10
100.0577168532408
 20
195.8826171385294
 30
0.0
  0
VERTEX
  5
30B
330
309
100
AcDbEntity
  8
Capa 1
370
     0
100
AcDbVertex
100
AcDb2dVertex
 10
99.36626465750436
 20
193.4540832035896
 30
0.0
  0
VERTEX
  5
30C
330
309
100
AcDbEntity
  8
Capa 1
370
     0
100
AcDbVertex
100
AcDb2dVertex
 10
100.0577168532408
 20
193.6488172258934
 30
0.0
  0
VERTEX
  5
30D
330
309
100
AcDbEntity
  8
Capa 1
370
     0
100
AcDbVertex
100
AcDb2dVertex
 10
100.7491475171304
 20
193.4540832035896
 30
0.0
  0
VERTEX
  5
30E
330
309
100
AcDbEntity
  8
Capa 1
370
     0
100
AcDbVertex
100
AcDb2dVertex
 10
100.0577168532408
 20
195.8826171385294
 30
0.0
  0
SEQEND
  5
310
330
309
100
AcDbEntity
  8
Capa 1
370
     0
  0
HATCH
  5
30F
330
2FD
100
AcDbEntity
  8
Capa 1
 62
   250
420
  1842203
100
AcDbHatch
 10
0.0
 20
0.0
 30
0.0
210
0.0
220
0.0
230
1.0
  2
SOLID
 70
     1
 71
     0
 91
        1
 92
        1
 93
        4
 72
     1
 10
100.0577168532408
 20
195.8826171385294
 11
99.36626465750436
 21
193.4540832035896
 72
     1
 10
99.36626465750436
 20
193.4540832035896
 11
100.0577168532408
 21
193.6488172258934
 72
     1
 10
100.0577168532408
 20
193.6488172258934
 11
100.7491475171304
 21
193.4540832035896
 72
     1
 10
100.7491475171304
 20
193.4540832035896
 11
100.0577168532408
 21
195.8826171385294
 97
        0
 75
     2
 76
     1
 98
        0
  0
POLYLINE
  5
311
330
2FD
100
AcDbEntity
  8
Capa 1
370
     0
100
AcDb2dPolyline
 66
     1
 10
0.0
 20
0.0
 30
0.0
  0
VERTEX
  5
312
330
311
100
AcDbEntity
  8
Capa 1
370
     0
100
AcDbVertex
100
AcDb2dVertex
 10
100.0818325216375
 20
108.9714277206955
 30
0.0
  0
VERTEX
  5
313
330
311
100
AcDbEntity
  8
Capa 1
370
     0
100
AcDbVertex
100
AcDb2dVertex
 10
99.39109087684494
 20
106.5436043366996
 30
0.0
  0
VERTEX
  5
314
330
311
100
AcDbEntity
  8
Capa 1
370
     0
100
AcDbVertex
100
AcDb2dVertex
 10
100.0818325216375
 20
106.7376278080595
 30
0.0
  0
VERTEX
  5
315
330
311
100
AcDbEntity
  8
Capa 1
370
     0
100
AcDbVertex
100
AcDb2dVertex
 10
100.7732631855272
 20
106.5436043366996
 30
0.0
  0
VERTEX
  5
316
330
311
100
AcDbEntity
  8
Capa 1
370
     0
100
AcDbVertex
100
AcDb2dVertex
 10
100.0818325216375
 20
108.9714277206955
 30
0.0
  0
SEQEND
  5
318
330
311
100
AcDbEntity
  8
Capa 1
370
     0
  0
HATCH
  5
317
330
2FD
100
AcDbEntity
  8
Capa 1
 62
   250
420
  1842203
100
AcDbHatch
 10
0.0
 20
0.0
 30
0.0
210
0.0
220
0.0
230
1.0
  2
SOLID
 70
     1
 71
     0
 91
        1
 92
        1
 93
        4
 72
     1
 10
100.0818325216375
 20
108.9714277206955
 11
99.39109087684494
 21
106.5436043366996
 72
     1
 10
99.39109087684494
 20
106.5436043366996
 11
100.0818325216375
 21
106.7376278080595
 72
     1
 10
100.0818325216375
 20
106.7376278080595
 11
100.7732631855272
 21
106.5436043366996
 72
     1
 10
100.7732631855272
 20
106.5436043366996
 11
100.0818325216375
 21
108.9714277206955
 97
        0
 75
     2
 76
     1
 98
        0
  0
POLYLINE
  5
319
330
2FD
100
AcDbEntity
  8
Capa 1
370
     0
100
AcDb2dPolyline
 66
     1
 10
0.0
 20
0.0
 30
0.0
  0
VERTEX
  5
31A
330
319
100
AcDbEntity
  8
Capa 1
370
     0
100
AcDbVertex
100
AcDb2dVertex
 10
57.3454230271133
 20
204.1618921405286
 30
0.0
  0
VERTEX
  5
31B
330
319
100
AcDbEntity
  8
Capa 1
370
     0
100
AcDbVertex
100
AcDb2dVertex
 10
59.77323564518581
 20
204.8533228044182
 30
0.0
  0
VERTEX
  5
31C
330
319
100
AcDbEntity
  8
Capa 1
370
     0
100
AcDbVertex
100
AcDb2dVertex
 10
59.57920140790251
 20
204.1618921405286
 30
0.0
  0
VERTEX
  5
31D
330
319
100
AcDbEntity
  8
Capa 1
370
     0
100
AcDbVertex
100
AcDb2dVertex
 10
59.77323564518581
 20
203.4704399447921
 30
0.0
  0
VERTEX
  5
31E
330
319
100
AcDbEntity
  8
Capa 1
370
     0
100
AcDbVertex
100
AcDb2dVertex
 10
57.3454230271133
 20
204.1618921405286
 30
0.0
  0
SEQEND
  5
320
330
319
100
AcDbEntity
  8
Capa 1
370
     0
  0
HATCH
  5
31F
330
2FD
100
AcDbEntity
  8
Capa 1
 62
   250
420
  1842203
100
AcDbHatch
 10
0.0
 20
0.0
 30
0.0
210
0.0
220
0.0
230
1.0
  2
SOLID
 70
     1
 71
     0
 91
        1
 92
        1
 93
        4
 72
     1
 10
57.3454230271133
 20
204.1618921405286
 11
59.77323564518581
 21
204.8533228044182
 72
     1
 10
59.77323564518581
 20
204.8533228044182
 11
59.57920140790251
 21
204.1618921405286
 72
     1
 10
59.57920140790251
 20
204.1618921405286
 11
59.77323564518581
 21
203.4704399447921
 72
     1
 10
59.77323564518581
 20
203.4704399447921
 11
57.3454230271133
 21
204.1618921405286
 97
        0
 75
     2
 76
     1
 98
        0
  0
POLYLINE
  5
321
330
2FD
100
AcDbEntity
  8
Capa 1
370
     0
100
AcDb2dPolyline
 66
     1
 10
0.0
 20
0.0
 30
0.0
  0
VERTEX
  5
322
330
321
100
AcDbEntity
  8
Capa 1
370
     0
100
AcDbVertex
100
AcDb2dVertex
 10
90.24328577116748
 20
204.1618921405286
 30
0.0
  0
VERTEX
  5
323
330
321
100
AcDbEntity
  8
Capa 1
370
     0
100
AcDbVertex
100
AcDb2dVertex
 10
87.81546238717158
 20
204.8533228044182
 30
0.0
  0
VERTEX
  5
324
330
321
100
AcDbEntity
  8
Capa 1
370
     0
100
AcDbVertex
100
AcDb2dVertex
 10
88.00948585853149
 20
204.1618921405286
 30
0.0
  0
VERTEX
  5
325
330
321
100
AcDbEntity
  8
Capa 1
370
     0
100
AcDbVertex
100
AcDb2dVertex
 10
87.81546238717158
 20
203.4704399447921
 30
0.0
  0
VERTEX
  5
326
330
321
100
AcDbEntity
  8
Capa 1
370
     0
100
AcDbVertex
100
AcDb2dVertex
 10
90.24328577116748
 20
204.1618921405286
 30
0.0
  0
SEQEND
  5
328
330
321
100
AcDbEntity
  8
Capa 1
370
     0
  0
HATCH
  5
327
330
2FD
100
AcDbEntity
  8
Capa 1
 62
   250
420
  1842203
100
AcDbHatch
 10
0.0
 20
0.0
 30
0.0
210
0.0
220
0.0
230
1.0
  2
SOLID
 70
     1
 71
     0
 91
        1
 92
        1
 93
        4
 72
     1
 10
90.24328577116748
 20
204.1618921405286
 11
87.81546238717158
 21
204.8533228044182
 72
     1
 10
87.81546238717158
 20
204.8533228044182
 11
88.00948585853149
 21
204.1618921405286
 72
     1
 10
88.00948585853149
 20
204.1618921405286
 11
87.81546238717158
 21
203.4704399447921
 72
     1
 10
87.81546238717158
 20
203.4704399447921
 11
90.24328577116748
 21
204.1618921405286
 97
        0
 75
     2
 76
     1
 98
        0
  0
POLYLINE
  5
329
330
2FD
100
AcDbEntity
  8
Capa 1
370
     0
100
AcDb2dPolyline
 66
     1
 10
0.0
 20
0.0
 30
0.0
  0
VERTEX
  5
32A
330
329
100
AcDbEntity
  8
Capa 1
370
     0
100
AcDbVertex
100
AcDb2dVertex
 10
66.25031660331047
 20
102.0137344105317
 30
0.0
  0
VERTEX
  5
32B
330
329
100
AcDbEntity
  8
Capa 1
370
     0
100
AcDbVertex
100
AcDb2dVertex
 10
68.67882900640343
 20
101.3222822147953
 30
0.0
  0
VERTEX
  5
32C
330
329
100
AcDbEntity
  8
Capa 1
370
     0
100
AcDbVertex
100
AcDb2dVertex
 10
68.48409498409968
 20
102.0137344105317
 30
0.0
  0
VERTEX
  5
32D
330
329
100
AcDbEntity
  8
Capa 1
370
     0
100
AcDbVertex
100
AcDb2dVertex
 10
68.67882900640343
 20
102.7051650744214
 30
0.0
  0
VERTEX
  5
32E
330
329
100
AcDbEntity
  8
Capa 1
370
     0
100
AcDbVertex
100
AcDb2dVertex
 10
66.25031660331047
 20
102.0137344105317
 30
0.0
  0
SEQEND
  5
330
330
329
100
AcDbEntity
  8
Capa 1
370
     0
  0
HATCH
  5
32F
330
2FD
100
AcDbEntity
  8
Capa 1
 62
   250
420
  1842203
100
AcDbHatch
 10
0.0
 20
0.0
 30
0.0
210
0.0
220
0.0
230
1.0
  2
SOLID
 70
     1
 71
     0
 91
        1
 92
        1
 93
        4
 72
     1
 10
66.25031660331047
 20
102.0137344105317
 11
68.67882900640343
 21
101.3222822147953
 72
     1
 10
68.67882900640343
 20
101.3222822147953
 11
68.48409498409968
 21
102.0137344105317
 72
     1
 10
68.48409498409968
 20
102.0137344105317
 11
68.67882900640343
 21
102.7051650744214
 72
     1
 10
68.67882900640343
 20
102.7051650744214
 11
66.25031660331047
 21
102.0137344105317
 97
        0
 75
     2
 76
     1
 98
        0
  0
POLYLINE
  5
331
330
2FD
100
AcDbEntity
  8
Capa 1
370
     0
100
AcDb2dPolyline
 66
     1
 10
0.0
 20
0.0
 30
0.0
  0
VERTEX
  5
332
330
331
100
AcDbEntity
  8
Capa 1
370
     0
100
AcDbVertex
100
AcDb2dVertex
 10
81.2909252387376
 20
102.0137344105317
 30
0.0
  0
VERTEX
  5
333
330
331
100
AcDbEntity
  8
Capa 1
370
     0
100
AcDbVertex
100
AcDb2dVertex
 10
78.86240206972126
 20
101.3222822147953
 30
0.0
  0
VERTEX
  5
334
330
331
100
AcDbEntity
  8
Capa 1
370
     0
100
AcDbVertex
100
AcDb2dVertex
 10
79.057136092025
 20
102.0137344105317
 30
0.0
  0
VERTEX
  5
335
330
331
100
AcDbEntity
  8
Capa 1
370
     0
100
AcDbVertex
100
AcDb2dVertex
 10
78.86240206972126
 20
102.7051650744214
 30
0.0
  0
VERTEX
  5
336
330
331
100
AcDbEntity
  8
Capa 1
370
     0
100
AcDbVertex
100
AcDb2dVertex
 10
81.2909252387376
 20
102.0137344105317
 30
0.0
  0
SEQEND
  5
338
330
331
100
AcDbEntity
  8
Capa 1
370
     0
  0
HATCH
  5
337
330
2FD
100
AcDbEntity
  8
Capa 1
 62
   250
420
  1842203
100
AcDbHatch
 10
0.0
 20
0.0
 30
0.0
210
0.0
220
0.0
230
1.0
  2
SOLID
 70
     1
 71
     0
 91
        1
 92
        1
 93
        4
 72
     1
 10
81.2909252387376
 20
102.0137344105317
 11
78.86240206972126
 21
101.3222822147953
 72
     1
 10
78.86240206972126
 20
101.3222822147953
 11
79.057136092025
 21
102.0137344105317
 72
     1
 10
79.057136092025
 20
102.0137344105317
 11
78.86240206972126
 21
102.7051650744214
 72
     1
 10
78.86240206972126
 20
102.7051650744214
 11
81.2909252387376
 21
102.0137344105317
 97
        0
 75
     2
 76
     1
 98
        0
  0
POLYLINE
  5
339
330
2FD
100
AcDbEntity
  8
Capa 1
370
     0
100
AcDb2dPolyline
 66
     1
 10
0.0
 20
0.0
 30
0.0
  0
VERTEX
  5
33A
330
339
100
AcDbEntity
  8
Capa 1
370
     0
100
AcDbVertex
100
AcDb2dVertex
 10
80.03277636752436
 20
106.5523032027999
 30
0.0
  0
VERTEX
  5
33B
330
339
100
AcDbEntity
  8
Capa 1
370
     0
100
AcDbVertex
100
AcDb2dVertex
 10
82.46128877061732
 20
105.8615615580073
 30
0.0
  0
VERTEX
  5
33C
330
339
100
AcDbEntity
  8
Capa 1
370
     0
100
AcDbVertex
100
AcDb2dVertex
 10
82.26655474831357
 20
106.5523032027999
 30
0.0
  0
VERTEX
  5
33D
330
339
100
AcDbEntity
  8
Capa 1
370
     0
100
AcDbVertex
100
AcDb2dVertex
 10
82.46128877061732
 20
107.2430233157457
 30
0.0
  0
VERTEX
  5
33E
330
339
100
AcDbEntity
  8
Capa 1
370
     0
100
AcDbVertex
100
AcDb2dVertex
 10
80.03277636752436
 20
106.5523032027999
 30
0.0
  0
SEQEND
  5
340
330
339
100
AcDbEntity
  8
Capa 1
370
     0
  0
HATCH
  5
33F
330
2FD
100
AcDbEntity
  8
Capa 1
 62
   250
420
  1842203
100
AcDbHatch
 10
0.0
 20
0.0
 30
0.0
210
0.0
220
0.0
230
1.0
  2
SOLID
 70
     1
 71
     0
 91
        1
 92
        1
 93
        4
 72
     1
 10
80.03277636752436
 20
106.5523032027999
 11
82.46128877061732
 21
105.8615615580073
 72
     1
 10
82.46128877061732
 20
105.8615615580073
 11
82.26655474831357
 21
106.5523032027999
 72
     1
 10
82.26655474831357
 20
106.5523032027999
 11
82.46128877061732
 21
107.2430233157457
 72
     1
 10
82.46128877061732
 20
107.2430233157457
 11
80.03277636752436
 21
106.5523032027999
 97
        0
 75
     2
 76
     1
 98
        0
  0
POLYLINE
  5
341
330
2FD
100
AcDbEntity
  8
Capa 1
370
     0
100
AcDb2dPolyline
 66
     1
 10
0.0
 20
0.0
 30
0.0
  0
VERTEX
  5
342
330
341
100
AcDbEntity
  8
Capa 1
370
     0
100
AcDbVertex
100
AcDb2dVertex
 10
67.56356547044092
 20
106.5482121519111
 30
0.0
  0
VERTEX
  5
343
330
341
100
AcDbEntity
  8
Capa 1
370
     0
100
AcDbVertex
100
AcDb2dVertex
 10
65.13574208644502
 20
105.8574705071185
 30
0.0
  0
VERTEX
  5
344
330
341
100
AcDbEntity
  8
Capa 1
370
     0
100
AcDbVertex
100
AcDb2dVertex
 10
65.32977632372832
 20
106.5482121519111
 30
0.0
  0
VERTEX
  5
345
330
341
100
AcDbEntity
  8
Capa 1
370
     0
100
AcDbVertex
100
AcDb2dVertex
 10
65.13574208644502
 20
107.2389322648569
 30
0.0
  0
VERTEX
  5
346
330
341
100
AcDbEntity
  8
Capa 1
370
     0
100
AcDbVertex
100
AcDb2dVertex
 10
67.56356547044092
 20
106.5482121519111
 30
0.0
  0
SEQEND
  5
348
330
341
100
AcDbEntity
  8
Capa 1
370
     0
  0
HATCH
  5
347
330
2FD
100
AcDbEntity
  8
Capa 1
 62
   250
420
  1842203
100
AcDbHatch
 10
0.0
 20
0.0
 30
0.0
210
0.0
220
0.0
230
1.0
  2
SOLID
 70
     1
 71
     0
 91
        1
 92
        1
 93
        4
 72
     1
 10
67.56356547044092
 20
106.5482121519111
 11
65.13574208644502
 21
105.8574705071185
 72
     1
 10
65.13574208644502
 20
105.8574705071185
 11
65.32977632372832
 21
106.5482121519111
 72
     1
 10
65.32977632372832
 20
106.5482121519111
 11
65.13574208644502
 21
107.2389322648569
 72
     1
 10
65.13574208644502
 20
107.2389322648569
 11
67.56356547044092
 21
106.5482121519111
 97
        0
 75
     2
 76
     1
 98
        0
  0
POLYLINE
  5
349
330
2FD
100
AcDbEntity
  8
Capa 1
 62
   250
420
  1842203
370
     9
100
AcDb2dPolyline
 66
     1
 10
0.0
 20
0.0
 30
0.0
  0
VERTEX
  5
34A
330
349
100
AcDbEntity
  8
Capa 1
 62
   250
420
  1842203
370
     9
100
AcDbVertex
100
AcDb2dVertex
 10
100.0577168532408
 20
153.1059215586745
 30
0.0
  0
VERTEX
  5
34B
330
349
100
AcDbEntity
  8
Capa 1
 62
   250
420
  1842203
370
     9
100
AcDbVertex
100
AcDb2dVertex
 10
100.0577168532408
 20
120.2848844439414
 30
0.0
  0
SEQEND
  5
34C
330
349
100
AcDbEntity
  8
Capa 1
 62
   250
420
  1842203
370
     9
  0
POLYLINE
  5
34D
330
2FD
100
AcDbEntity
  8
Capa 1
 62
   250
420
  1842203
370
     9
100
AcDb2dPolyline
 66
     1
 10
0.0
 20
0.0
 30
0.0
  0
VERTEX
  5
34E
330
34D
100
AcDbEntity
  8
Capa 1
 62
   250
420
  1842203
370
     9
100
AcDbVertex
100
AcDb2dVertex
 10
100.0577168532408
 20
162.5130777588509
 30
0.0
  0
VERTEX
  5
34F
330
34D
100
AcDbEntity
  8
Capa 1
 62
   250
420
  1842203
370
     9
100
AcDbVertex
100
AcDb2dVertex
 10
100.0577168532408
 20
194.3632654339938
 30
0.0
  0
SEQEND
  5
350
330
34D
100
AcDbEntity
  8
Capa 1
 62
   250
420
  1842203
370
     9
  0
POLYLINE
  5
351
330
2FD
100
AcDbEntity
  8
Capa 1
 62
   250
420
  1842203
370
     9
100
AcDb2dPolyline
 66
     1
 10
0.0
 20
0.0
 30
0.0
  0
VERTEX
  5
352
330
351
100
AcDbEntity
  8
Capa 1
 62
   250
420
  1842203
370
     9
100
AcDbVertex
100
AcDb2dVertex
 10
92.35375126543153
 20
196.1495905067894
 30
0.0
  0
VERTEX
  5
353
330
351
100
AcDbEntity
  8
Capa 1
 62
   250
420
  1842203
370
     9
100
AcDbVertex
100
AcDb2dVertex
 10
100.2764158210138
 20
196.1495905067894
 30
0.0
  0
SEQEND
  5
354
330
351
100
AcDbEntity
  8
Capa 1
 62
   250
420
  1842203
370
     9
  0
POLYLINE
  5
355
330
2FD
100
AcDbEntity
  8
Capa 1
 62
   250
420
  1842203
370
     9
100
AcDb2dPolyline
 66
     1
 10
0.0
 20
0.0
 30
0.0
  0
VERTEX
  5
356
330
355
100
AcDbEntity
  8
Capa 1
 62
   250
420
  1842203
370
     9
100
AcDbVertex
100
AcDb2dVertex
 10
91.06321849665694
 20
109.3007788490854
 30
0.0
  0
VERTEX
  5
357
330
355
100
AcDbEntity
  8
Capa 1
 62
   250
420
  1842203
370
     9
100
AcDbVertex
100
AcDb2dVertex
 10
100.375139338513
 20
109.3007788490854
 30
0.0
  0
SEQEND
  5
358
330
355
100
AcDbEntity
  8
Capa 1
 62
   250
420
  1842203
370
     9
  0
POLYLINE
  5
359
330
2FD
100
AcDbEntity
  8
Capa 1
 62
   250
420
  1842203
370
     9
100
AcDb2dPolyline
 66
     1
 10
0.0
 20
0.0
 30
0.0
  0
VERTEX
  5
35A
330
359
100
AcDbEntity
  8
Capa 1
 62
   250
420
  1842203
370
     9
100
AcDbVertex
100
AcDb2dVertex
 10
100.057006302297
 20
104.73675941392
 30
0.0
  0
VERTEX
  5
35B
330
359
100
AcDbEntity
  8
Capa 1
 62
   250
420
  1842203
370
     9
100
AcDbVertex
100
AcDb2dVertex
 10
100.057006302297
 20
107.4016268991479
 30
0.0
  0
SEQEND
  5
35C
330
359
100
AcDbEntity
  8
Capa 1
 62
   250
420
  1842203
370
     9
  0
POLYLINE
  5
35D
330
2FD
100
AcDbEntity
  8
Capa 1
 62
   250
420
  1842203
370
     9
100
AcDb2dPolyline
 66
     1
 10
0.0
 20
0.0
 30
0.0
  0
VERTEX
  5
35E
330
35D
100
AcDbEntity
  8
Capa 1
 62
   250
420
  1842203
370
     9
100
AcDbVertex
100
AcDb2dVertex
 10
90.48933018435467
 20
198.1095699238884
 30
0.0
  0
VERTEX
  5
35F
330
35D
100
AcDbEntity
  8
Capa 1
 62
   250
420
  1842203
370
     9
100
AcDbVertex
100
AcDb2dVertex
 10
90.48933018435467
 20
204.7064971412062
 30
0.0
  0
SEQEND
  5
360
330
35D
100
AcDbEntity
  8
Capa 1
 62
   250
420
  1842203
370
     9
  0
POLYLINE
  5
361
330
2FD
100
AcDbEntity
  8
Capa 1
 62
   250
420
  1842203
370
     9
100
AcDb2dPolyline
 66
     1
 10
0.0
 20
0.0
 30
0.0
  0
VERTEX
  5
362
330
361
100
AcDbEntity
  8
Capa 1
 62
   250
420
  1842203
370
     9
100
AcDbVertex
100
AcDb2dVertex
 10
67.8143899536139
 20
204.141221567617
 30
0.0
  0
VERTEX
  5
363
330
361
100
AcDbEntity
  8
Capa 1
 62
   250
420
  1842203
370
     9
100
AcDbVertex
100
AcDb2dVertex
 10
58.3613493879433
 20
204.141221567617
 30
0.0
  0
SEQEND
  5
364
330
361
100
AcDbEntity
  8
Capa 1
 62
   250
420
  1842203
370
     9
  0
POLYLINE
  5
365
330
2FD
100
AcDbEntity
  8
Capa 1
 62
   250
420
  1842203
370
     9
100
AcDb2dPolyline
 66
     1
 10
0.0
 20
0.0
 30
0.0
  0
VERTEX
  5
366
330
365
100
AcDbEntity
  8
Capa 1
 62
   250
420
  1842203
370
     9
100
AcDbVertex
100
AcDb2dVertex
 10
79.60760852095096
 20
204.141221567617
 30
0.0
  0
VERTEX
  5
367
330
365
100
AcDbEntity
  8
Capa 1
 62
   250
420
  1842203
370
     9
100
AcDbVertex
100
AcDb2dVertex
 10
88.96186097358202
 20
204.141221567617
 30
0.0
  0
SEQEND
  5
368
330
365
100
AcDbEntity
  8
Capa 1
 62
   250
420
  1842203
370
     9
  0
POLYLINE
  5
369
330
2FD
100
AcDbEntity
  8
Capa 1
 62
   250
420
  1842203
370
     9
100
AcDb2dPolyline
 66
     1
 10
0.0
 20
0.0
 30
0.0
  0
VERTEX
  5
36A
330
369
100
AcDbEntity
  8
Capa 1
 62
   250
420
  1842203
370
     9
100
AcDbVertex
100
AcDb2dVertex
 10
57.06497072276718
 20
198.1095699238884
 30
0.0
  0
VERTEX
  5
36B
330
369
100
AcDbEntity
  8
Capa 1
 62
   250
420
  1842203
370
     9
100
AcDbVertex
100
AcDb2dVertex
 10
57.06497072276718
 20
204.7516494239098
 30
0.0
  0
SEQEND
  5
36C
330
369
100
AcDbEntity
  8
Capa 1
 62
   250
420
  1842203
370
     9
  0
POLYLINE
  5
36D
330
2FD
100
AcDbEntity
  8
Capa 1
 62
   250
420
  1842203
370
     9
100
AcDb2dPolyline
 66
     1
 10
0.0
 20
0.0
 30
0.0
  0
VERTEX
  5
36E
330
36D
100
AcDbEntity
  8
Capa 1
 62
   250
420
  1842203
370
     9
100
AcDbVertex
100
AcDb2dVertex
 10
67.51805791226545
 20
102.0137344105317
 30
0.0
  0
VERTEX
  5
36F
330
36D
100
AcDbEntity
  8
Capa 1
 62
   250
420
  1842203
370
     9
100
AcDbVertex
100
AcDb2dVertex
 10
69.4533941307215
 20
102.0137344105317
 30
0.0
  0
SEQEND
  5
370
330
36D
100
AcDbEntity
  8
Capa 1
 62
   250
420
  1842203
370
     9
  0
POLYLINE
  5
371
330
2FD
100
AcDbEntity
  8
Capa 1
 62
   250
420
  1842203
370
     9
100
AcDb2dPolyline
 66
     1
 10
0.0
 20
0.0
 30
0.0
  0
VERTEX
  5
372
330
371
100
AcDbEntity
  8
Capa 1
 62
   250
420
  1842203
370
     9
100
AcDbVertex
100
AcDb2dVertex
 10
79.97555548469904
 20
102.0137344105317
 30
0.0
  0
VERTEX
  5
373
330
371
100
AcDbEntity
  8
Capa 1
 62
   250
420
  1842203
370
     9
100
AcDbVertex
100
AcDb2dVertex
 10
78.30973339242344
 20
102.0137344105317
 30
0.0
  0
SEQEND
  5
374
330
371
100
AcDbEntity
  8
Capa 1
 62
   250
420
  1842203
370
     9
  0
POLYLINE
  5
375
330
2FD
100
AcDbEntity
  8
Capa 1
 62
   250
420
  1842203
370
     9
100
AcDb2dPolyline
 66
     1
 10
0.0
 20
0.0
 30
0.0
  0
VERTEX
  5
376
330
375
100
AcDbEntity
  8
Capa 1
 62
   250
420
  1842203
370
     9
100
AcDbVertex
100
AcDb2dVertex
 10
81.23849519182146
 20
106.5482121519111
 30
0.0
  0
VERTEX
  5
377
330
375
100
AcDbEntity
  8
Capa 1
 62
   250
420
  1842203
370
     9
100
AcDbVertex
100
AcDb2dVertex
 10
84.13831818914338
 20
106.5482121519111
 30
0.0
  0
SEQEND
  5
378
330
375
100
AcDbEntity
  8
Capa 1
 62
   250
420
  1842203
370
     9
  0
POLYLINE
  5
379
330
2FD
100
AcDbEntity
  8
Capa 1
 62
   250
420
  1842203
370
     9
100
AcDb2dPolyline
 66
     1
 10
0.0
 20
0.0
 30
0.0
  0
VERTEX
  5
37A
330
379
100
AcDbEntity
  8
Capa 1
 62
   250
420
  1842203
370
     9
100
AcDbVertex
100
AcDb2dVertex
 10
66.14419689644139
 20
106.5482121519111
 30
0.0
  0
VERTEX
  5
37B
330
379
100
AcDbEntity
  8
Capa 1
 62
   250
420
  1842203
370
     9
100
AcDbVertex
100
AcDb2dVertex
 10
63.68250391745611
 20
106.5482121519111
 30
0.0
  0
SEQEND
  5
37C
330
379
100
AcDbEntity
  8
Capa 1
 62
   250
420
  1842203
370
     9
  0
POLYLINE
  5
37D
330
2FD
100
AcDbEntity
  8
Capa 1
  6
AI-Linetype-13
 62
   250
420
  1842203
370
     9
100
AcDb2dPolyline
 66
     1
 10
0.0
 20
0.0
 30
0.0
  0
VERTEX
  5
37E
330
37D
100
AcDbEntity
  8
Capa 1
  6
AI-Linetype-13
 62
   250
420
  1842203
370
     9
100
AcDbVertex
100
AcDb2dVertex
 10
67.74545574613873
 20
144.1752005322613
 30
0.0
  0
VERTEX
  5
37F
330
37D
100
AcDbEntity
  8
Capa 1
  6
AI-Linetype-13
 62
   250
420
  1842203
370
     9
100
AcDbVertex
100
AcDb2dVertex
 10
67.74545574613873
 20
106.2812172518043
 30
0.0
  0
SEQEND
  5
381
330
37D
100
AcDbEntity
  8
Capa 1
  6
AI-Linetype-13
 62
   250
420
  1842203
370
     9
  0
POLYLINE
  5
382
330
2FD
100
AcDbEntity
  8
Capa 1
  6
AI-Linetype-14
 62
   250
420
  1842203
370
     9
100
AcDb2dPolyline
 66
     1
 10
0.0
 20
0.0
 30
0.0
  0
VERTEX
  5
383
330
382
100
AcDbEntity
  8
Capa 1
  6
AI-Linetype-14
 62
   250
420
  1842203
370
     9
100
AcDbVertex
100
AcDb2dVertex
 10
79.82533855561876
 20
144.1752005322613
 30
0.0
  0
VERTEX
  5
384
330
382
100
AcDbEntity
  8
Capa 1
  6
AI-Linetype-14
 62
   250
420
  1842203
370
     9
100
AcDbVertex
100
AcDb2dVertex
 10
79.82533855561876
 20
106.2812172518043
 30
0.0
  0
SEQEND
  5
386
330
382
100
AcDbEntity
  8
Capa 1
  6
AI-Linetype-14
 62
   250
420
  1842203
370
     9
  0
POLYLINE
  5
387
330
2FD
100
AcDbEntity
  8
Capa 1
  6
AI-Linetype-15
 62
   250
420
  1842203
370
     9
100
AcDb2dPolyline
 66
     1
 10
0.0
 20
0.0
 30
0.0
  0
VERTEX
  5
388
330
387
100
AcDbEntity
  8
Capa 1
  6
AI-Linetype-15
 62
   250
420
  1842203
370
     9
100
AcDbVertex
100
AcDb2dVertex
 10
66.061503838872
 20
105.4423149692991
 30
0.0
  0
VERTEX
  5
389
330
387
100
AcDbEntity
  8
Capa 1
  6
AI-Linetype-15
 62
   250
420
  1842203
370
     9
100
AcDbVertex
100
AcDb2dVertex
 10
66.061503838872
 20
101.5730421024279
 30
0.0
  0
SEQEND
  5
38B
330
387
100
AcDbEntity
  8
Capa 1
  6
AI-Linetype-15
 62
   250
420
  1842203
370
     9
  0
POLYLINE
  5
38C
330
2FD
100
AcDbEntity
  8
Capa 1
  6
AI-Linetype-16
 62
   250
420
  1842203
370
     9
100
AcDb2dPolyline
 66
     1
 10
0.0
 20
0.0
 30
0.0
  0
VERTEX
  5
38D
330
38C
100
AcDbEntity
  8
Capa 1
  6
AI-Linetype-16
 62
   250
420
  1842203
370
     9
100
AcDbVertex
100
AcDb2dVertex
 10
66.061503838872
 20
142.7375621862666
 30
0.0
  0
VERTEX
  5
38E
330
38C
100
AcDbEntity
  8
Capa 1
  6
AI-Linetype-16
 62
   250
420
  1842203
370
     9
100
AcDbVertex
100
AcDb2dVertex
 10
66.061503838872
 20
107.4407287329054
 30
0.0
  0
SEQEND
  5
390
330
38C
100
AcDbEntity
  8
Capa 1
  6
AI-Linetype-16
 62
   250
420
  1842203
370
     9
  0
POLYLINE
  5
391
330
2FD
100
AcDbEntity
  8
Capa 1
  6
AI-Linetype-17
 62
   250
420
  1842203
370
     9
100
AcDb2dPolyline
 66
     1
 10
0.0
 20
0.0
 30
0.0
  0
VERTEX
  5
392
330
391
100
AcDbEntity
  8
Capa 1
  6
AI-Linetype-17
 62
   250
420
  1842203
370
     9
100
AcDbVertex
100
AcDb2dVertex
 10
81.47345070391549
 20
105.4423149692991
 30
0.0
  0
VERTEX
  5
393
330
391
100
AcDbEntity
  8
Capa 1
  6
AI-Linetype-17
 62
   250
420
  1842203
370
     9
100
AcDbVertex
100
AcDb2dVertex
 10
81.47345070391549
 20
101.5730421024279
 30
0.0
  0
SEQEND
  5
395
330
391
100
AcDbEntity
  8
Capa 1
  6
AI-Linetype-17
 62
   250
420
  1842203
370
     9
  0
POLYLINE
  5
396
330
2FD
100
AcDbEntity
  8
Capa 1
  6
AI-Linetype-18
 62
   250
420
  1842203
370
     9
100
AcDb2dPolyline
 66
     1
 10
0.0
 20
0.0
 30
0.0
  0
VERTEX
  5
397
330
396
100
AcDbEntity
  8
Capa 1
  6
AI-Linetype-18
 62
   250
420
  1842203
370
     9
100
AcDbVertex
100
AcDb2dVertex
 10
81.47345070391549
 20
142.8160888314835
 30
0.0
  0
VERTEX
  5
398
330
396
100
AcDbEntity
  8
Capa 1
  6
AI-Linetype-18
 62
   250
420
  1842203
370
     9
100
AcDbVertex
100
AcDb2dVertex
 10
81.47345070391549
 20
107.4409440513733
 30
0.0
  0
SEQEND
  5
39A
330
396
100
AcDbEntity
  8
Capa 1
  6
AI-Linetype-18
 62
   250
420
  1842203
370
     9
  0
POLYLINE
  5
39B
330
2FD
100
AcDbEntity
  8
Capa 1
  6
AI-Linetype-19
 62
   250
420
  1842203
370
     9
100
AcDb2dPolyline
 66
     1
 10
0.0
 20
0.0
 30
0.0
  0
VERTEX
  5
39C
330
39B
100
AcDbEntity
  8
Capa 1
  6
AI-Linetype-19
 62
   250
420
  1842203
370
     9
100
AcDbVertex
100
AcDb2dVertex
 10
64.51464520007143
 20
141.4876600123712
 30
0.0
  0
VERTEX
  5
39D
330
39B
100
AcDbEntity
  8
Capa 1
  6
AI-Linetype-19
 62
   250
420
  1842203
370
     9
100
AcDbVertex
100
AcDb2dVertex
 10
83.49972667725875
 20
141.4876600123712
 30
0.0
  0
SEQEND
  5
39F
330
39B
100
AcDbEntity
  8
Capa 1
  6
AI-Linetype-19
 62
   250
420
  1842203
370
     9
  0
POLYLINE
  5
3A0
330
2FD
100
AcDbEntity
  8
Capa 1
  6
AI-Linetype-20
 62
   250
420
  1842203
370
     9
100
AcDb2dPolyline
 66
     1
 10
0.0
 20
0.0
 30
0.0
  0
VERTEX
  5
3A1
330
3A0
100
AcDbEntity
  8
Capa 1
  6
AI-Linetype-20
 62
   250
420
  1842203
370
     9
100
AcDbVertex
100
AcDb2dVertex
 10
132.7985263068611
 20
140.0641465578659
 30
0.0
  0
VERTEX
  5
3A2
330
3A0
100
AcDbEntity
  8
Capa 1
  6
AI-Linetype-20
 62
   250
420
  1842203
370
     9
100
AcDbVertex
100
AcDb2dVertex
 10
163.0964831474312
 20
140.0641465578659
 30
0.0
  0
SEQEND
  5
3A4
330
3A0
100
AcDbEntity
  8
Capa 1
  6
AI-Linetype-20
 62
   250
420
  1842203
370
     9
  0
POLYLINE
  5
3A5
330
2FD
100
AcDbEntity
  8
Capa 1
 62
   250
420
  1842203
370
     9
100
AcDb2dPolyline
 66
     1
 10
0.0
 20
0.0
 30
0.0
  0
VERTEX
  5
3A6
330
3A5
100
AcDbEntity
  8
Capa 1
 62
   250
420
  1842203
370
     9
100
AcDbVertex
100
AcDb2dVertex
 10
162.9141730007211
 20
125.6099254717985
 30
0.0
  0
VERTEX
  5
3A7
330
3A5
100
AcDbEntity
  8
Capa 1
 62
   250
420
  1842203
370
     9
100
AcDbVertex
100
AcDb2dVertex
 10
162.9141730007211
 20
120.2921406763072
 30
0.0
  0
SEQEND
  5
3A8
330
3A5
100
AcDbEntity
  8
Capa 1
 62
   250
420
  1842203
370
     9
  0
POLYLINE
  5
3A9
330
2FD
100
AcDbEntity
  8
Capa 1
 62
   250
420
  1842203
370
     9
100
AcDb2dPolyline
 66
     1
 10
0.0
 20
0.0
 30
0.0
  0
VERTEX
  5
3AA
330
3A9
100
AcDbEntity
  8
Capa 1
 62
   250
420
  1842203
370
     9
100
AcDbVertex
100
AcDb2dVertex
 10
162.9141730007211
 20
133.0857826747906
 30
0.0
  0
VERTEX
  5
3AB
330
3A9
100
AcDbEntity
  8
Capa 1
 62
   250
420
  1842203
370
     9
100
AcDbVertex
100
AcDb2dVertex
 10
162.9141730007211
 20
138.1678798753973
 30
0.0
  0
SEQEND
  5
3AC
330
3A9
100
AcDbEntity
  8
Capa 1
 62
   250
420
  1842203
370
     9
  0
POLYLINE
  5
3AD
330
2FD
100
AcDbEntity
  8
Capa 1
 62
   250
420
  1842203
370
     9
100
AcDb2dPolyline
 66
     1
 10
0.0
 20
0.0
 30
0.0
  0
VERTEX
  5
3AE
330
3AD
100
AcDbEntity
  8
Capa 1
 62
   250
420
  1842203
370
     9
100
AcDbVertex
100
AcDb2dVertex
 10
179.3658173854429
 20
143.6863199510576
 30
0.0
  0
VERTEX
  5
3AF
330
3AD
100
AcDbEntity
  8
Capa 1
 62
   250
420
  1842203
370
     9
100
AcDbVertex
100
AcDb2dVertex
 10
185.7151068329115
 20
143.6863199510576
 30
0.0
  0
SEQEND
  5
3B0
330
3AD
100
AcDbEntity
  8
Capa 1
 62
   250
420
  1842203
370
     9
  0
POLYLINE
  5
3B1
330
2FD
100
AcDbEntity
  8
Capa 1
 62
   250
420
  1842203
370
     9
100
AcDb2dPolyline
 66
     1
 10
0.0
 20
0.0
 30
0.0
  0
VERTEX
  5
3B2
330
3B1
100
AcDbEntity
  8
Capa 1
 62
   250
420
  1842203
370
     9
100
AcDbVertex
100
AcDb2dVertex
 10
185.190117344653
 20
127.420646126999
 30
0.0
  0
VERTEX
  5
3B3
330
3B1
100
AcDbEntity
  8
Capa 1
 62
   250
420
  1842203
370
     9
100
AcDbVertex
100
AcDb2dVertex
 10
185.190117344653
 20
120.0588646482622
 30
0.0
  0
SEQEND
  5
3B4
330
3B1
100
AcDbEntity
  8
Capa 1
 62
   250
420
  1842203
370
     9
  0
POLYLINE
  5
3B5
330
2FD
100
AcDbEntity
  8
Capa 1
 62
   250
420
  1842203
370
     9
100
AcDb2dPolyline
 66
     1
 10
0.0
 20
0.0
 30
0.0
  0
VERTEX
  5
3B6
330
3B5
100
AcDbEntity
  8
Capa 1
 62
   250
420
  1842203
370
     9
100
AcDbVertex
100
AcDb2dVertex
 10
185.190117344653
 20
134.8000621882509
 30
0.0
  0
VERTEX
  5
3B7
330
3B5
100
AcDbEntity
  8
Capa 1
 62
   250
420
  1842203
370
     9
100
AcDbVertex
100
AcDb2dVertex
 10
185.190117344653
 20
142.0446888886425
 30
0.0
  0
SEQEND
  5
3B8
330
3B5
100
AcDbEntity
  8
Capa 1
 62
   250
420
  1842203
370
     9
  0
POLYLINE
  5
3B9
330
2FD
100
AcDbEntity
  8
Capa 1
 62
   250
420
  1842203
370
     9
100
AcDb2dPolyline
 66
     1
 10
0.0
 20
0.0
 30
0.0
  0
VERTEX
  5
3BA
330
3B9
100
AcDbEntity
  8
Capa 1
 62
   250
420
  1842203
370
     9
100
AcDbVertex
100
AcDb2dVertex
 10
140.2915874554328
 20
204.7937011206766
 30
0.0
  0
VERTEX
  5
3BB
330
3B9
100
AcDbEntity
  8
Capa 1
 62
   250
420
  1842203
370
     9
100
AcDbVertex
100
AcDb2dVertex
 10
140.2915874554328
 20
198.0422398389986
 30
0.0
  0
SEQEND
  5
3BC
330
3B9
100
AcDbEntity
  8
Capa 1
 62
   250
420
  1842203
370
     9
  0
POLYLINE
  5
3BD
330
2FD
100
AcDbEntity
  8
Capa 1
 62
   250
420
  1842203
370
     9
100
AcDb2dPolyline
 66
     1
 10
0.0
 20
0.0
 30
0.0
  0
VERTEX
  5
3BE
330
3BD
100
AcDbEntity
  8
Capa 1
 62
   250
420
  1842203
370
     9
100
AcDbVertex
100
AcDb2dVertex
 10
127.6067674105896
 20
204.6586749095016
 30
0.0
  0
VERTEX
  5
3BF
330
3BD
100
AcDbEntity
  8
Capa 1
 62
   250
420
  1842203
370
     9
100
AcDbVertex
100
AcDb2dVertex
 10
127.6067674105896
 20
199.5786662980329
 30
0.0
  0
SEQEND
  5
3C0
330
3BD
100
AcDbEntity
  8
Capa 1
 62
   250
420
  1842203
370
     9
  0
POLYLINE
  5
3C1
330
2FD
100
AcDbEntity
  8
Capa 1
 62
   250
420
  1842203
370
     9
100
AcDb2dPolyline
 66
     1
 10
0.0
 20
0.0
 30
0.0
  0
VERTEX
  5
3C2
330
3C1
100
AcDbEntity
  8
Capa 1
 62
   250
420
  1842203
370
     9
100
AcDbVertex
100
AcDb2dVertex
 10
126.0943274288714
 20
204.141221567617
 30
0.0
  0
VERTEX
  5
3C3
330
3C1
100
AcDbEntity
  8
Capa 1
 62
   250
420
  1842203
370
     9
100
AcDbVertex
100
AcDb2dVertex
 10
123.3871068010217
 20
204.141221567617
 30
0.0
  0
SEQEND
  5
3C4
330
3C1
100
AcDbEntity
  8
Capa 1
 62
   250
420
  1842203
370
     9
  0
POLYLINE
  5
3C5
330
2FD
100
AcDbEntity
  8
Capa 1
 62
   250
420
  1842203
370
     9
100
AcDb2dPolyline
 66
     1
 10
0.0
 20
0.0
 30
0.0
  0
VERTEX
  5
3C6
330
3C5
100
AcDbEntity
  8
Capa 1
 62
   250
420
  1842203
370
     9
100
AcDbVertex
100
AcDb2dVertex
 10
142.0961284706066
 20
204.141221567617
 30
0.0
  0
VERTEX
  5
3C7
330
3C5
100
AcDbEntity
  8
Capa 1
 62
   250
420
  1842203
370
     9
100
AcDbVertex
100
AcDb2dVertex
 10
144.7800516402373
 20
204.141221567617
 30
0.0
  0
SEQEND
  5
3C8
330
3C5
100
AcDbEntity
  8
Capa 1
 62
   250
420
  1842203
370
     9
  0
POLYLINE
  5
3C9
330
2FD
100
AcDbEntity
  8
Capa 1
370
     0
100
AcDb2dPolyline
 66
     1
 10
0.0
 20
0.0
 30
0.0
  0
VERTEX
  5
3CA
330
3C9
100
AcDbEntity
  8
Capa 1
370
     0
100
AcDbVertex
100
AcDb2dVertex
 10
0.0
 20
297.0000884267266
 30
0.0
  0
VERTEX
  5
3CB
330
3C9
100
AcDbEntity
  8
Capa 1
370
     0
100
AcDbVertex
100
AcDb2dVertex
 10
209.9998002269054
 20
297.0000884267266
 30
0.0
  0
VERTEX
  5
3CC
330
3C9
100
AcDbEntity
  8
Capa 1
370
     0
100
AcDbVertex
100
AcDb2dVertex
 10
209.9998002269054
 20
0.0
 30
0.0
  0
VERTEX
  5
3CD
330
3C9
100
AcDbEntity
  8
Capa 1
370
     0
100
AcDbVertex
100
AcDb2dVertex
 10
0.0
 20
0.0
 30
0.0
  0
VERTEX
  5
3CE
330
3C9
100
AcDbEntity
  8
Capa 1
370
     0
100
AcDbVertex
100
AcDb2dVertex
 10
0.0
 20
297.0000884267266
 30
0.0
  0
SEQEND
  5
3CF
330
3C9
100
AcDbEntity
  8
Capa 1
370
     0
  0
ENDBLK
  5
300
330
2FD
100
AcDbEntity
  8
0
100
AcDbBlockEnd
  0
BLOCK
  5
3D8
330
3D6
100
AcDbEntity
  8
0
100
AcDbBlockBegin
  2
block 4
 70
     0
 10
0.0
 20
0.0
 30
0.0
  3
block 4
  1

  0
POLYLINE
  5
3DA
330
3D6
100
AcDbEntity
  8
Capa 1
370
     0
100
AcDb2dPolyline
 66
     1
 10
0.0
 20
0.0
 30
0.0
  0
VERTEX
  5
3DB
330
3DA
100
AcDbEntity
  8
Capa 1
370
     0
100
AcDbVertex
100
AcDb2dVertex
 10
162.8983040296422
 20
139.7402860504056
 30
0.0
  0
VERTEX
  5
3DC
330
3DA
100
AcDbEntity
  8
Capa 1
370
     0
100
AcDbVertex
100
AcDb2dVertex
 10
162.2068518339058
 20
137.3117521154659
 30
0.0
  0
VERTEX
  5
3DD
330
3DA
100
AcDbEntity
  8
Capa 1
370
     0
100
AcDbVertex
100
AcDb2dVertex
 10
162.8983040296422
 20
137.5064861377697
 30
0.0
  0
VERTEX
  5
3DE
330
3DA
100
AcDbEntity
  8
Capa 1
370
     0
100
AcDbVertex
100
AcDb2dVertex
 10
163.5897346935318
 20
137.3117521154659
 30
0.0
  0
VERTEX
  5
3DF
330
3DA
100
AcDbEntity
  8
Capa 1
370
     0
100
AcDbVertex
100
AcDb2dVertex
 10
162.8983040296422
 20
139.7402860504056
 30
0.0
  0
SEQEND
  5
3E1
330
3DA
100
AcDbEntity
  8
Capa 1
370
     0
  0
HATCH
  5
3E0
330
3D6
100
AcDbEntity
  8
Capa 1
 62
   250
420
  1842203
100
AcDbHatch
 10
0.0
 20
0.0
 30
0.0
210
0.0
220
0.0
230
1.0
  2
SOLID
 70
     1
 71
     0
 91
        1
 92
        1
 93
        4
 72
     1
 10
162.8983040296422
 20
139.7402860504056
 11
162.2068518339058
 21
137.3117521154659
 72
     1
 10
162.2068518339058
 20
137.3117521154659
 11
162.8983040296422
 21
137.5064861377697
 72
     1
 10
162.8983040296422
 20
137.5064861377697
 11
163.5897346935318
 21
137.3117521154659
 72
     1
 10
163.5897346935318
 20
137.3117521154659
 11
162.8983040296422
 21
139.7402860504056
 97
        0
 75
     2
 76
     1
 98
        0
  0
POLYLINE
  5
3E2
330
3D6
100
AcDbEntity
  8
Capa 1
370
     0
100
AcDb2dPolyline
 66
     1
 10
0.0
 20
0.0
 30
0.0
  0
VERTEX
  5
3E3
330
3E2
100
AcDbEntity
  8
Capa 1
370
     0
100
AcDbVertex
100
AcDb2dVertex
 10
162.8983040296422
 20
118.860294397097
 30
0.0
  0
VERTEX
  5
3E4
330
3E2
100
AcDbEntity
  8
Capa 1
370
     0
100
AcDbVertex
100
AcDb2dVertex
 10
162.2068518339058
 20
121.2880962492461
 30
0.0
  0
VERTEX
  5
3E5
330
3E2
100
AcDbEntity
  8
Capa 1
370
     0
100
AcDbVertex
100
AcDb2dVertex
 10
162.8983040296422
 20
121.0940727778862
 30
0.0
  0
VERTEX
  5
3E6
330
3E2
100
AcDbEntity
  8
Capa 1
370
     0
100
AcDbVertex
100
AcDb2dVertex
 10
163.5897346935318
 20
121.2880962492461
 30
0.0
  0
VERTEX
  5
3E7
330
3E2
100
AcDbEntity
  8
Capa 1
370
     0
100
AcDbVertex
100
AcDb2dVertex
 10
162.8983040296422
 20
118.860294397097
 30
0.0
  0
SEQEND
  5
3E9
330
3E2
100
AcDbEntity
  8
Capa 1
370
     0
  0
HATCH
  5
3E8
330
3D6
100
AcDbEntity
  8
Capa 1
 62
   250
420
  1842203
100
AcDbHatch
 10
0.0
 20
0.0
 30
0.0
210
0.0
220
0.0
230
1.0
  2
SOLID
 70
     1
 71
     0
 91
        1
 92
        1
 93
        4
 72
     1
 10
162.8983040296422
 20
118.860294397097
 11
162.2068518339058
 21
121.2880962492461
 72
     1
 10
162.2068518339058
 20
121.2880962492461
 11
162.8983040296422
 21
121.0940727778862
 72
     1
 10
162.8983040296422
 20
121.0940727778862
 11
163.5897346935318
 21
121.2880962492461
 72
     1
 10
163.5897346935318
 20
121.2880962492461
 11
162.8983040296422
 21
118.860294397097
 97
        0
 75
     2
 76
     1
 98
        0
  0
POLYLINE
  5
3EA
330
3D6
100
AcDbEntity
  8
Capa 1
370
     0
100
AcDb2dPolyline
 66
     1
 10
0.0
 20
0.0
 30
0.0
  0
VERTEX
  5
3EB
330
3EA
100
AcDbEntity
  8
Capa 1
370
     0
100
AcDbVertex
100
AcDb2dVertex
 10
185.1770690455026
 20
143.4279377896638
 30
0.0
  0
VERTEX
  5
3EC
330
3EA
100
AcDbEntity
  8
Capa 1
370
     0
100
AcDbVertex
100
AcDb2dVertex
 10
184.4856168497662
 20
140.9994038547241
 30
0.0
  0
VERTEX
  5
3ED
330
3EA
100
AcDbEntity
  8
Capa 1
370
     0
100
AcDbVertex
100
AcDb2dVertex
 10
185.1770690455026
 20
141.1941378770279
 30
0.0
  0
VERTEX
  5
3EE
330
3EA
100
AcDbEntity
  8
Capa 1
370
     0
100
AcDbVertex
100
AcDb2dVertex
 10
185.8677891584484
 20
140.9994038547241
 30
0.0
  0
VERTEX
  5
3EF
330
3EA
100
AcDbEntity
  8
Capa 1
370
     0
100
AcDbVertex
100
AcDb2dVertex
 10
185.1770690455026
 20
143.4279377896638
 30
0.0
  0
SEQEND
  5
3F1
330
3EA
100
AcDbEntity
  8
Capa 1
370
     0
  0
HATCH
  5
3F0
330
3D6
100
AcDbEntity
  8
Capa 1
 62
   250
420
  1842203
100
AcDbHatch
 10
0.0
 20
0.0
 30
0.0
210
0.0
220
0.0
230
1.0
  2
SOLID
 70
     1
 71
     0
 91
        1
 92
        1
 93
        4
 72
     1
 10
185.1770690455026
 20
143.4279377896638
 11
184.4856168497662
 21
140.9994038547241
 72
     1
 10
184.4856168497662
 20
140.9994038547241
 11
185.1770690455026
 21
141.1941378770279
 72
     1
 10
185.1770690455026
 20
141.1941378770279
 11
185.8677891584484
 21
140.9994038547241
 72
     1
 10
185.8677891584484
 20
140.9994038547241
 11
185.1770690455026
 21
143.4279377896638
 97
        0
 75
     2
 76
     1
 98
        0
  0
POLYLINE
  5
3F2
330
3D6
100
AcDbEntity
  8
Capa 1
370
     0
100
AcDb2dPolyline
 66
     1
 10
0.0
 20
0.0
 30
0.0
  0
VERTEX
  5
3F3
330
3F2
100
AcDbEntity
  8
Capa 1
370
     0
100
AcDbVertex
100
AcDb2dVertex
 10
185.190117344653
 20
118.8919677437145
 30
0.0
  0
VERTEX
  5
3F4
330
3F2
100
AcDbEntity
  8
Capa 1
370
     0
100
AcDbVertex
100
AcDb2dVertex
 10
184.4986651489166
 20
121.3197695958636
 30
0.0
  0
VERTEX
  5
3F5
330
3F2
100
AcDbEntity
  8
Capa 1
370
     0
100
AcDbVertex
100
AcDb2dVertex
 10
185.190117344653
 20
121.1257461245037
 30
0.0
  0
VERTEX
  5
3F6
330
3F2
100
AcDbEntity
  8
Capa 1
370
     0
100
AcDbVertex
100
AcDb2dVertex
 10
185.8808374575988
 20
121.3197695958636
 30
0.0
  0
VERTEX
  5
3F7
330
3F2
100
AcDbEntity
  8
Capa 1
370
     0
100
AcDbVertex
100
AcDb2dVertex
 10
185.190117344653
 20
118.8919677437145
 30
0.0
  0
SEQEND
  5
3F9
330
3F2
100
AcDbEntity
  8
Capa 1
370
     0
  0
HATCH
  5
3F8
330
3D6
100
AcDbEntity
  8
Capa 1
 62
   250
420
  1842203
100
AcDbHatch
 10
0.0
 20
0.0
 30
0.0
210
0.0
220
0.0
230
1.0
  2
SOLID
 70
     1
 71
     0
 91
        1
 92
        1
 93
        4
 72
     1
 10
185.190117344653
 20
118.8919677437145
 11
184.4986651489166
 21
121.3197695958636
 72
     1
 10
184.4986651489166
 20
121.3197695958636
 11
185.190117344653
 21
121.1257461245037
 72
     1
 10
185.190117344653
 20
121.1257461245037
 11
185.8808374575988
 21
121.3197695958636
 72
     1
 10
185.8808374575988
 20
121.3197695958636
 11
185.190117344653
 21
118.8919677437145
 97
        0
 75
     2
 76
     1
 98
        0
  0
POLYLINE
  5
3FA
330
3D6
100
AcDbEntity
  8
Capa 1
370
     0
100
AcDb2dPolyline
 66
     1
 10
0.0
 20
0.0
 30
0.0
  0
VERTEX
  5
3FB
330
3FA
100
AcDbEntity
  8
Capa 1
370
     0
100
AcDbVertex
100
AcDb2dVertex
 10
127.2759951803121
 20
204.1522243413231
 30
0.0
  0
VERTEX
  5
3FC
330
3FA
100
AcDbEntity
  8
Capa 1
370
     0
100
AcDbVertex
100
AcDb2dVertex
 10
124.8467506944285
 20
204.8436550052127
 30
0.0
  0
VERTEX
  5
3FD
330
3FA
100
AcDbEntity
  8
Capa 1
370
     0
100
AcDbVertex
100
AcDb2dVertex
 10
125.0421952676761
 20
204.1522243413231
 30
0.0
  0
VERTEX
  5
3FE
330
3FA
100
AcDbEntity
  8
Capa 1
370
     0
100
AcDbVertex
100
AcDb2dVertex
 10
124.8467506944285
 20
203.4607721455866
 30
0.0
  0
VERTEX
  5
3FF
330
3FA
100
AcDbEntity
  8
Capa 1
370
     0
100
AcDbVertex
100
AcDb2dVertex
 10
127.2759951803121
 20
204.1522243413231
 30
0.0
  0
SEQEND
  5
401
330
3FA
100
AcDbEntity
  8
Capa 1
370
     0
  0
HATCH
  5
400
330
3D6
100
AcDbEntity
  8
Capa 1
 62
   250
420
  1842203
100
AcDbHatch
 10
0.0
 20
0.0
 30
0.0
210
0.0
220
0.0
230
1.0
  2
SOLID
 70
     1
 71
     0
 91
        1
 92
        1
 93
        4
 72
     1
 10
127.2759951803121
 20
204.1522243413231
 11
124.8467506944285
 21
204.8436550052127
 72
     1
 10
124.8467506944285
 20
204.8436550052127
 11
125.0421952676761
 21
204.1522243413231
 72
     1
 10
125.0421952676761
 20
204.1522243413231
 11
124.8467506944285
 21
203.4607721455866
 72
     1
 10
124.8467506944285
 20
203.4607721455866
 11
127.2759951803121
 21
204.1522243413231
 97
        0
 75
     2
 76
     1
 98
        0
  0
POLYLINE
  5
402
330
3D6
100
AcDbEntity
  8
Capa 1
370
     0
100
AcDb2dPolyline
 66
     1
 10
0.0
 20
0.0
 30
0.0
  0
VERTEX
  5
403
330
402
100
AcDbEntity
  8
Capa 1
370
     0
100
AcDbVertex
100
AcDb2dVertex
 10
140.6381640612489
 20
204.1522243413231
 30
0.0
  0
VERTEX
  5
404
330
402
100
AcDbEntity
  8
Capa 1
370
     0
100
AcDbVertex
100
AcDb2dVertex
 10
143.0666764643418
 20
204.8436550052127
 30
0.0
  0
VERTEX
  5
405
330
402
100
AcDbEntity
  8
Capa 1
370
     0
100
AcDbVertex
100
AcDb2dVertex
 10
142.8719424420381
 20
204.1522243413231
 30
0.0
  0
VERTEX
  5
406
330
402
100
AcDbEntity
  8
Capa 1
370
     0
100
AcDbVertex
100
AcDb2dVertex
 10
143.0666764643418
 20
203.4607721455866
 30
0.0
  0
VERTEX
  5
407
330
402
100
AcDbEntity
  8
Capa 1
370
     0
100
AcDbVertex
100
AcDb2dVertex
 10
140.6381640612489
 20
204.1522243413231
 30
0.0
  0
SEQEND
  5
409
330
402
100
AcDbEntity
  8
Capa 1
370
     0
  0
HATCH
  5
408
330
3D6
100
AcDbEntity
  8
Capa 1
 62
   250
420
  1842203
100
AcDbHatch
 10
0.0
 20
0.0
 30
0.0
210
0.0
220
0.0
230
1.0
  2
SOLID
 70
     1
 71
     0
 91
        1
 92
        1
 93
        4
 72
     1
 10
140.6381640612489
 20
204.1522243413231
 11
143.0666764643418
 21
204.8436550052127
 72
     1
 10
143.0666764643418
 20
204.8436550052127
 11
142.8719424420381
 21
204.1522243413231
 72
     1
 10
142.8719424420381
 20
204.1522243413231
 11
143.0666764643418
 21
203.4607721455866
 72
     1
 10
143.0666764643418
 20
203.4607721455866
 11
140.6381640612489
 21
204.1522243413231
 97
        0
 75
     2
 76
     1
 98
        0
  0
POLYLINE
  5
40A
330
3D6
100
AcDbEntity
  8
Capa 1
370
     0
100
AcDb2dPolyline
 66
     1
 10
0.0
 20
0.0
 30
0.0
  0
VERTEX
  5
40B
330
40A
100
AcDbEntity
  8
Capa 1
370
     0
100
AcDbVertex
100
AcDb2dVertex
 10
0.0
 20
297.0000884267266
 30
0.0
  0
VERTEX
  5
40C
330
40A
100
AcDbEntity
  8
Capa 1
370
     0
100
AcDbVertex
100
AcDb2dVertex
 10
209.9998002269054
 20
297.0000884267266
 30
0.0
  0
VERTEX
  5
40D
330
40A
100
AcDbEntity
  8
Capa 1
370
     0
100
AcDbVertex
100
AcDb2dVertex
 10
209.9998002269054
 20
0.0
 30
0.0
  0
VERTEX
  5
40E
330
40A
100
AcDbEntity
  8
Capa 1
370
     0
100
AcDbVertex
100
AcDb2dVertex
 10
0.0
 20
0.0
 30
0.0
  0
VERTEX
  5
40F
330
40A
100
AcDbEntity
  8
Capa 1
370
     0
100
AcDbVertex
100
AcDb2dVertex
 10
0.0
 20
297.0000884267266
 30
0.0
  0
SEQEND
  5
410
330
40A
100
AcDbEntity
  8
Capa 1
370
     0
  0
ENDBLK
  5
3D9
330
3D6
100
AcDbEntity
  8
0
100
AcDbBlockEnd
  0
ENDSEC
  0
SECTION
  2
ENTITIES
  0
INSERT
  5
42
330
1F
100
AcDbEntity
  8
Capa 1
100
AcDbBlockReference
  2
block 2
 10
0.0
 20
0.0
 30
0.0
  0
MTEXT
  5
2F8
330
1F
100
AcDbEntity
  8
Capa 1
 62
   250
420
  1842203
100
AcDbMText
 10
95.27118731342179
 20
156.3632378081314
 30
0.0
 40
2.49766666604225
 41
0.0
 46
0.0
 71
     7
 72
     1
  1
\fArial|b1|i0|c0|p34;\W1;1120
 73
     1
 44
1.0
  0
MTEXT
  5
2F9
330
1F
100
AcDbEntity
  8
Capa 1
 62
   250
420
  1842203
100
AcDbMText
 10
94.4881171096245
 20
112.459285453656
 30
0.0
 40
2.49766666604225
 41
0.0
 46
0.0
 71
     7
 72
     1
  1
\fArial|b1|i0|c0|p34;\W1;0-200
 73
     1
 44
1.0
  0
MTEXT
  5
2FA
330
1F
100
AcDbEntity
  8
Capa 1
 62
   250
420
  1842203
100
AcDbMText
 10
70.04068601764608
 20
202.7435247974044
 30
0.0
 40
2.49766666604225
 41
0.0
 46
0.0
 71
     7
 72
     1
  1
\fArial|b1|i0|c0|p34;\W1;500
 73
     1
 44
1.0
  0
MTEXT
  5
2FB
330
1F
100
AcDbEntity
  8
Capa 1
 62
   250
420
  1842203
100
AcDbMText
 10
70.37072616513302
 20
100.6315836336963
 30
0.0
 40
2.49766666604225
 41
0.0
 46
0.0
 71
     7
 72
     1
  1
\fArial|b1|i0|c0|p34;\W1;230
 73
     1
 44
1.0
  0
MTEXT
  5
2FC
330
1F
100
AcDbEntity
  8
Capa 1
 62
   250
420
  1842203
100
AcDbMText
 10
70.13370359574783
 20
105.1481038148588
 30
0.0
 40
2.49766666604225
 41
0.0
 46
0.0
 71
     7
 72
     1
  1
\fArial|b1|i0|c0|p34;\W1;180
 73
     1
 44
1.0
  0
INSERT
  5
2FE
330
1F
100
AcDbEntity
  8
Capa 1
100
AcDbBlockReference
  2
block 3
 10
0.0
 20
0.0
 30
0.0
  0
MTEXT
  5
3D0
330
1F
100
AcDbEntity
  8
Capa 1
 62
   250
420
  1842203
100
AcDbMText
 10
159.3983669306365
 20
127.723814529701
 30
0.0
 40
2.49766666604225
 41
0.0
 46
0.0
 71
     7
 72
     1
  1
\fArial|b1|i0|c0|p34;\W1;320
 73
     1
 44
1.0
  0
MTEXT
  5
3D1
330
1F
100
AcDbEntity
  8
Capa 1
 62
   250
420
  1842203
100
AcDbMText
 10
181.564111282734
 20
129.7212808920488
 30
0.0
 40
2.49766666604225
 41
0.0
 46
0.0
 71
     7
 72
     1
  1
\fArial|b1|i0|c0|p34;\W1;410
 73
     1
 44
1.0
  0
MTEXT
  5
3D2
330
1F
100
AcDbEntity
  8
Capa 1
 62
   250
420
  1842203
100
AcDbMText
 10
127.220486079306
 20
205.6973496664576
 30
0.0
 40
2.49766666604225
 41
0.0
 46
0.0
 71
     7
 72
     1
  1
\fArial|b1|i0|c0|p34;\W1;8
 73
     1
 44
1.0
  0
MTEXT
  5
3D3
330
1F
100
AcDbEntity
  8
Capa 1
 62
   250
420
  1842203
100
AcDbMText
 10
129.5741753148287
 20
205.6973496664576
 30
0.0
 40
2.49766666604225
 41
0.0
 46
0.0
 71
     7
 72
     1
  1
\fArial|b1|i0|c0|p34;\W1;0
 73
     1
 44
1.0
  0
MTEXT
  5
3D4
330
1F
100
AcDbEntity
  8
Capa 1
 62
   250
420
  1842203
100
AcDbMText
 10
132.3516112950371
 20
205.6973496664576
 30
0.0
 40
2.49766666604225
 41
0.0
 46
0.0
 71
     7
 72
     1
  1
\fArial|b1|i0|c0|p34;\W1;-
 73
     1
 44
1.0
  0
MTEXT
  5
3D5
330
1F
100
AcDbEntity
  8
Capa 1
 62
   250
420
  1842203
100
AcDbMText
 10
133.4058105135236
 20
205.6973496664576
 30
0.0
 40
2.49766666604225
 41
0.0
 46
0.0
 71
     7
 72
     1
  1
\fArial|b1|i0|c0|p34;\W1;195
 73
     1
 44
1.0
  0
INSERT
  5
3D7
330
1F
100
AcDbEntity
  8
Capa 1
100
AcDbBlockReference
  2
block 4
 10
0.0
 20
0.0
 30
0.0
  0
ENDSEC
  0
SECTION
  2
OBJECTS
  0
DICTIONARY
  5
C
330
0
100
AcDbDictionary
281
     1
  3
ACAD_GROUP
350
D
  3
ACAD_LAYOUT
350
1A
  3
ACAD_MATERIAL
350
3B
  3
ACAD_MLEADERSTYLE
350
412
  3
ACAD_MLINESTYLE
350
17
  3
ACAD_PLOTSETTINGS
350
19
  3
ACAD_PLOTSTYLENAME
350
E
  3
ACAD_TABLESTYLE
350
411
  3
ACAD_VISUALSTYLE
350
2A
  0
SUN
  5
3F
330
29
100
AcDbSun
 90
        1
290
     0
 63
     7
421
 16777215
 40
1.0
291
     1
 91
  2455826
 92
 54000000
292
     0
 70
     2
 71
   256
280
     1
  0
DICTIONARY
  5
D
102
{ACAD_REACTORS
330
C
102
}
330
C
100
AcDbDictionary
281
     1
  0
DICTIONARY
  5
1A
102
{ACAD_REACTORS
330
C
102
}
330
C
100
AcDbDictionary
281
     1
  3
Layout1
350
1E
  3
Layout2
350
26
  3
Model
350
22
  0
DICTIONARY
  5
3B
102
{ACAD_REACTORS
330
C
102
}
330
C
100
AcDbDictionary
281
     1
  3
ByBlock
350
3D
  3
ByLayer
350
3C
  3
Global
350
3E
  0
DICTIONARY
  5
412
102
{ACAD_REACTORS
330
C
102
}
330
C
100
AcDbDictionary
281
     1
  0
DICTIONARY
  5
17
102
{ACAD_REACTORS
330
C
102
}
330
C
100
AcDbDictionary
281
     1
  3
Standard
350
18
  0
DICTIONARY
  5
19
102
{ACAD_REACTORS
330
C
102
}
330
C
100
AcDbDictionary
281
     1
  0
ACDBDICTIONARYWDFLT
  5
E
102
{ACAD_REACTORS
330
C
102
}
330
C
100
AcDbDictionary
281
     1
  3
Normal
350
F
100
AcDbDictionaryWithDefault
340
F
  0
DICTIONARY
  5
411
102
{ACAD_REACTORS
330
C
102
}
330
C
100
AcDbDictionary
281
     1
  0
DICTIONARY
  5
2A
102
{ACAD_REACTORS
330
C
102
}
330
C
100
AcDbDictionary
281
     1
  3
2dWireframe
350
2F
  3
3D Hidden
350
31
  3
3dWireframe
350
30
  3
Basic
350
32
  3
Brighten
350
36
  3
ColorChange
350
3A
  3
Conceptual
350
34
  3
Dim
350
35
  3
Facepattern
350
39
  3
Flat
350
2B
  3
FlatWithEdges
350
2C
  3
Gouraud
350
2D
  3
GouraudWithEdges
350
2E
  3
Linepattern
350
38
  3
Realistic
350
33
  3
Thicken
350
37
  0
LAYOUT
  5
1E
102
{ACAD_REACTORS
330
1A
102
}
330
1A
100
AcDbPlotSettings
  1

  2
none_device
  4

  6

 40
0.0
 41
0.0
 42
0.0
 43
0.0
 44
0.0
 45
0.0
 46
0.0
 47
0.0
 48
0.0
 49
0.0
140
0.0
141
0.0
142
1.0
143
1.0
 70
   688
 72
     0
 73
     0
 74
     5
  7

 75
    16
 76
     0
 77
     2
 78
   300
147
1.0
148
0.0
149
0.0
100
AcDbLayout
  1
Layout1
 70
     1
 71
     1
 10
0.0
 20
0.0
 11
12.0
 21
9.0
 12
0.0
 22
0.0
 32
0.0
 14
1.000000000000000E+20
 24
1.000000000000000E+20
 34
1.000000000000000E+20
 15
-1.000000000000000E+20
 25
-1.000000000000000E+20
 35
-1.000000000000000E+20
146
0.0
 13
0.0
 23
0.0
 33
0.0
 16
1.0
 26
0.0
 36
0.0
 17
0.0
 27
1.0
 37
0.0
 76
     0
330
1B
  0
LAYOUT
  5
26
102
{ACAD_REACTORS
330
1A
102
}
330
1A
100
AcDbPlotSettings
  1

  2
none_device
  4

  6

 40
0.0
 41
0.0
 42
0.0
 43
0.0
 44
0.0
 45
0.0
 46
0.0
 47
0.0
 48
0.0
 49
0.0
140
0.0
141
0.0
142
1.0
143
1.0
 70
   688
 72
     0
 73
     0
 74
     5
  7

 75
    16
 76
     0
 77
     2
 78
   300
147
1.0
148
0.0
149
0.0
100
AcDbLayout
  1
Layout2
 70
     1
 71
     2
 10
0.0
 20
0.0
 11
0.0
 21
0.0
 12
0.0
 22
0.0
 32
0.0
 14
0.0
 24
0.0
 34
0.0
 15
0.0
 25
0.0
 35
0.0
146
0.0
 13
0.0
 23
0.0
 33
0.0
 16
1.0
 26
0.0
 36
0.0
 17
0.0
 27
1.0
 37
0.0
 76
     0
330
23
  0
LAYOUT
  5
22
102
{ACAD_REACTORS
330
1A
102
}
330
1A
100
AcDbPlotSettings
  1

  2
none_device
  4

  6

 40
0.0
 41
0.0
 42
0.0
 43
0.0
 44
0.0
 45
0.0
 46
0.0
 47
0.0
 48
0.0
 49
0.0
140
0.0
141
0.0
142
1.0
143
1.0
 70
  1712
 72
     0
 73
     0
 74
     0
  7

 75
     0
 76
     0
 77
     2
 78
   300
147
1.0
148
0.0
149
0.0
100
AcDbLayout
  1
Model
 70
     1
 71
     0
 10
0.0
 20
0.0
 11
12.0
 21
9.0
 12
0.0
 22
0.0
 32
0.0
 14
1.000000000000000E+20
 24
1.000000000000000E+20
 34
1.000000000000000E+20
 15
-1.000000000000000E+20
 25
-1.000000000000000E+20
 35
-1.000000000000000E+20
146
0.0
 13
0.0
 23
0.0
 33
0.0
 16
1.0
 26
0.0
 36
0.0
 17
0.0
 27
1.0
 37
0.0
 76
     0
330
1F
331
29
  0
MATERIAL
  5
3D
102
{ACAD_REACTORS
330
3B
102
}
330
3B
100
AcDbMaterial
  1
ByBlock
 72
     1
 94
      127
  0
MATERIAL
  5
3C
102
{ACAD_REACTORS
330
3B
102
}
330
3B
100
AcDbMaterial
  1
ByLayer
 72
     1
 94
      127
  0
MATERIAL
  5
3E
102
{ACAD_REACTORS
330
3B
102
}
330
3B
100
AcDbMaterial
  1
Global
 72
     1
 94
      127
  0
MLINESTYLE
  5
18
102
{ACAD_REACTORS
330
17
102
}
330
17
100
AcDbMlineStyle
  2
Standard
 70
     0
  3

 62
   256
 51
90.0
 52
90.0
 71
     2
 49
0.5
 62
   256
  6
BYLAYER
 49
-0.5
 62
   256
  6
BYLAYER
  0
ACDBPLACEHOLDER
  5
F
102
{ACAD_REACTORS
330
E
102
}
330
E
  0
VISUALSTYLE
  5
2F
102
{ACAD_REACTORS
330
2A
102
}
330
2A
100
AcDbVisualStyle
  2
2dWireframe
 70
     4
177
     2
291
     0
 71
     0
176
     1
 72
     2
176
     1
 73
     0
176
     1
 90
        0
176
     1
 40
-0.6
176
     1
 41
-30.0
176
     1
 62
     5
 63
     7
421
 16777215
176
     1
 74
     1
176
     1
 91
        4
176
     1
 64
     7
176
     1
 65
   257
176
     1
 75
     1
176
     1
175
     1
176
     1
 42
1.0
176
     1
 92
        0
176
     1
 66
   257
176
     1
 43
1.0
176
     1
 76
     1
176
     1
 77
     6
176
     1
 78
     2
176
     1
 67
     7
176
     1
 79
     5
176
     1
170
     0
176
     1
171
     0
176
     1
290
     0
176
     1
 93
        1
176
     1
 44
0.0
176
     1
173
     0
176
     1
  0
VISUALSTYLE
  5
31
102
{ACAD_REACTORS
330
2A
102
}
330
2A
100
AcDbVisualStyle
  2
3D Hidden
 70
     6
177
     2
291
     0
 71
     1
176
     1
 72
     2
176
     1
 73
     2
176
     1
 90
        0
176
     1
 40
-0.6
176
     1
 41
-30.0
176
     1
 62
     5
 63
     7
421
 16777215
176
     1
 74
     2
176
     1
 91
        2
176
     1
 64
     7
176
     1
 65
   257
176
     1
 75
     2
176
     1
175
     1
176
     1
 42
40.0
176
     1
 92
        0
176
     1
 66
   257
176
     1
 43
1.0
176
     1
 76
     1
176
     1
 77
     6
176
     1
 78
     2
176
     1
 67
     7
176
     1
 79
     3
176
     1
170
     0
176
     1
171
     0
176
     1
290
     0
176
     1
 93
        1
176
     1
 44
0.0
176
     1
173
     0
176
     1
  0
VISUALSTYLE
  5
30
102
{ACAD_REACTORS
330
2A
102
}
330
2A
100
AcDbVisualStyle
  2
3dWireframe
 70
     5
177
     2
291
     0
 71
     0
176
     1
 72
     2
176
     1
 73
     0
176
     1
 90
        0
176
     1
 40
-0.6
176
     1
 41
-30.0
176
     1
 62
     5
 63
     7
421
 16777215
176
     1
 74
     1
176
     1
 91
        4
176
     1
 64
     7
176
     1
 65
   257
176
     1
 75
     1
176
     1
175
     1
176
     1
 42
1.0
176
     1
 92
        0
176
     1
 66
   257
176
     1
 43
1.0
176
     1
 76
     1
176
     1
 77
     6
176
     1
 78
     2
176
     1
 67
     7
176
     1
 79
     5
176
     1
170
     0
176
     1
171
     0
176
     1
290
     0
176
     1
 93
        1
176
     1
 44
0.0
176
     1
173
     0
176
     1
  0
VISUALSTYLE
  5
32
102
{ACAD_REACTORS
330
2A
102
}
330
2A
100
AcDbVisualStyle
  2
Basic
 70
     7
177
     2
291
     1
 71
     1
176
     1
 72
     0
176
     1
 73
     1
176
     1
 90
        0
176
     1
 40
-0.6
176
     1
 41
-30.0
176
     1
 62
     5
 63
     7
421
 16777215
176
     1
 74
     0
176
     1
 91
        4
176
     1
 64
     7
176
     1
 65
   257
176
     1
 75
     1
176
     1
175
     1
176
     1
 42
1.0
176
     1
 92
        8
176
     1
 66
     7
176
     1
 43
1.0
176
     1
 76
     1
176
     1
 77
     6
176
     1
 78
     2
176
     1
 67
     7
176
     1
 79
     5
176
     1
170
     0
176
     1
171
     0
176
     1
290
     0
176
     1
 93
        1
176
     1
 44
0.0
176
     1
173
     0
176
     1
  0
VISUALSTYLE
  5
36
102
{ACAD_REACTORS
330
2A
102
}
330
2A
100
AcDbVisualStyle
  2
Brighten
 70
    12
177
     2
291
     1
 71
     2
176
     1
 72
     2
176
     1
 73
     0
176
     1
 90
        0
176
     1
 40
-0.6
176
     1
 41
-30.0
176
     1
 62
     5
 63
     7
421
 16777215
176
     1
 74
     1
176
     1
 91
        4
176
     1
 64
     7
176
     1
 65
   257
176
     1
 75
     1
176
     1
175
     1
176
     1
 42
1.0
176
     1
 92
        8
176
     1
 66
     7
176
     1
 43
1.0
176
     1
 76
     1
176
     1
 77
     6
176
     1
 78
     2
176
     1
 67
     7
176
     1
 79
     5
176
     1
170
     0
176
     1
171
     0
176
     1
290
     0
176
     1
 93
        1
176
     1
 44
50.0
176
     1
173
     0
176
     1
  0
VISUALSTYLE
  5
3A
102
{ACAD_REACTORS
330
2A
102
}
330
2A
100
AcDbVisualStyle
  2
ColorChange
 70
    16
177
     2
291
     1
 71
     2
176
     1
 72
     2
176
     1
 73
     3
176
     1
 90
        0
176
     1
 40
-0.6
176
     1
 41
-30.0
176
     1
 62
     5
 63
     8
421
  8421504
176
     1
 74
     1
176
     1
 91
        4
176
     1
 64
     7
176
     1
 65
   257
176
     1
 75
     1
176
     1
175
     1
176
     1
 42
1.0
176
     1
 92
        8
176
     1
 66
     8
424
  8421504
176
     1
 43
1.0
176
     1
 76
     1
176
     1
 77
     6
176
     1
 78
     2
176
     1
 67
     7
176
     1
 79
     5
176
     1
170
     0
176
     1
171
     0
176
     1
290
     0
176
     1
 93
        1
176
     1
 44
0.0
176
     1
173
     0
176
     1
  0
VISUALSTYLE
  5
34
102
{ACAD_REACTORS
330
2A
102
}
330
2A
100
AcDbVisualStyle
  2
Conceptual
 70
     9
177
     2
291
     0
 71
     3
176
     1
 72
     2
176
     1
 73
     0
176
     1
 90
        0
176
     1
 40
-0.6
176
     1
 41
-30.0
176
     1
 62
     5
 63
     7
421
 16777215
176
     1
 74
     2
176
     1
 91
        2
176
     1
 64
     7
176
     1
 65
   257
176
     1
 75
     1
176
     1
175
     1
176
     1
 42
40.0
176
     1
 92
        8
176
     1
 66
     7
176
     1
 43
1.0
176
     1
 76
     1
176
     1
 77
     6
176
     1
 78
     2
176
     1
 67
     7
176
     1
 79
     3
176
     1
170
     0
176
     1
171
     0
176
     1
290
     0
176
     1
 93
        1
176
     1
 44
0.0
176
     1
173
     0
176
     1
  0
VISUALSTYLE
  5
35
102
{ACAD_REACTORS
330
2A
102
}
330
2A
100
AcDbVisualStyle
  2
Dim
 70
    11
177
     2
291
     1
 71
     2
176
     1
 72
     2
176
     1
 73
     0
176
     1
 90
        0
176
     1
 40
-0.6
176
     1
 41
-30.0
176
     1
 62
     5
 63
     7
421
 16777215
176
     1
 74
     1
176
     1
 91
        4
176
     1
 64
     7
176
     1
 65
   257
176
     1
 75
     1
176
     1
175
     1
176
     1
 42
1.0
176
     1
 92
        8
176
     1
 66
     7
176
     1
 43
1.0
176
     1
 76
     1
176
     1
 77
     6
176
     1
 78
     2
176
     1
 67
     7
176
     1
 79
     5
176
     1
170
     0
176
     1
171
     0
176
     1
290
     0
176
     1
 93
        1
176
     1
 44
-50.0
176
     1
173
     0
176
     1
  0
VISUALSTYLE
  5
39
102
{ACAD_REACTORS
330
2A
102
}
330
2A
100
AcDbVisualStyle
  2
Facepattern
 70
    15
177
     2
291
     1
 71
     2
176
     1
 72
     2
176
     1
 73
     0
176
     1
 90
        0
176
     1
 40
-0.6
176
     1
 41
-30.0
176
     1
 62
     5
 63
     7
421
 16777215
176
     1
 74
     1
176
     1
 91
        4
176
     1
 64
     7
176
     1
 65
   257
176
     1
 75
     1
176
     1
175
     1
176
     1
 42
1.0
176
     1
 92
        8
176
     1
 66
     7
176
     1
 43
1.0
176
     1
 76
     1
176
     1
 77
     6
176
     1
 78
     2
176
     1
 67
     7
176
     1
 79
     5
176
     1
170
     0
176
     1
171
     0
176
     1
290
     0
176
     1
 93
        1
176
     1
 44
0.0
176
     1
173
     0
176
     1
  0
VISUALSTYLE
  5
2B
102
{ACAD_REACTORS
330
2A
102
}
330
2A
100
AcDbVisualStyle
  2
Flat
 70
     0
177
     2
291
     1
 71
     2
176
     1
 72
     1
176
     1
 73
     1
176
     1
 90
        2
176
     1
 40
-0.6
176
     1
 41
30.0
176
     1
 62
     5
 63
     7
421
 16777215
176
     1
 74
     0
176
     1
 91
        4
176
     1
 64
     7
176
     1
 65
   257
176
     1
 75
     1
176
     1
175
     1
176
     1
 42
1.0
176
     1
 92
        8
176
     1
 66
     7
176
     1
 43
1.0
176
     1
 76
     1
176
     1
 77
     6
176
     1
 78
     2
176
     1
 67
     7
176
     1
 79
     5
176
     1
170
     0
176
     1
171
     0
176
     1
290
     0
176
     1
 93
       13
176
     1
 44
0.0
176
     1
173
     0
176
     1
  0
VISUALSTYLE
  5
2C
102
{ACAD_REACTORS
330
2A
102
}
330
2A
100
AcDbVisualStyle
  2
FlatWithEdges
 70
     1
177
     2
291
     1
 71
     2
176
     1
 72
     1
176
     1
 73
     1
176
     1
 90
        2
176
     1
 40
-0.6
176
     1
 41
30.0
176
     1
 62
     5
 63
     7
421
 16777215
176
     1
 74
     1
176
     1
 91
        4
176
     1
 64
     7
176
     1
 65
   257
176
     1
 75
     1
176
     1
175
     1
176
     1
 42
1.0
176
     1
 92
        0
176
     1
 66
   257
176
     1
 43
1.0
176
     1
 76
     1
176
     1
 77
     6
176
     1
 78
     2
176
     1
 67
     7
176
     1
 79
     5
176
     1
170
     0
176
     1
171
     0
176
     1
290
     0
176
     1
 93
       13
176
     1
 44
0.0
176
     1
173
     0
176
     1
  0
VISUALSTYLE
  5
2D
102
{ACAD_REACTORS
330
2A
102
}
330
2A
100
AcDbVisualStyle
  2
Gouraud
 70
     2
177
     2
291
     1
 71
     2
176
     1
 72
     2
176
     1
 73
     1
176
     1
 90
        2
176
     1
 40
-0.6
176
     1
 41
30.0
176
     1
 62
     5
 63
     7
421
 16777215
176
     1
 74
     0
176
     1
 91
        4
176
     1
 64
     7
176
     1
 65
   257
176
     1
 75
     1
176
     1
175
     1
176
     1
 42
1.0
176
     1
 92
        0
176
     1
 66
     7
176
     1
 43
1.0
176
     1
 76
     1
176
     1
 77
     6
176
     1
 78
     2
176
     1
 67
     7
176
     1
 79
     5
176
     1
170
     0
176
     1
171
     0
176
     1
290
     0
176
     1
 93
       13
176
     1
 44
0.0
176
     1
173
     0
176
     1
  0
VISUALSTYLE
  5
2E
102
{ACAD_REACTORS
330
2A
102
}
330
2A
100
AcDbVisualStyle
  2
GouraudWithEdges
 70
     3
177
     2
291
     1
 71
     2
176
     1
 72
     2
176
     1
 73
     1
176
     1
 90
        2
176
     1
 40
-0.6
176
     1
 41
30.0
176
     1
 62
     5
 63
     7
421
 16777215
176
     1
 74
     1
176
     1
 91
        4
176
     1
 64
     7
176
     1
 65
   257
176
     1
 75
     1
176
     1
175
     1
176
     1
 42
1.0
176
     1
 92
        0
176
     1
 66
   257
176
     1
 43
1.0
176
     1
 76
     1
176
     1
 77
     6
176
     1
 78
     2
176
     1
 67
     7
176
     1
 79
     5
176
     1
170
     0
176
     1
171
     0
176
     1
290
     0
176
     1
 93
       13
176
     1
 44
0.0
176
     1
173
     0
176
     1
  0
VISUALSTYLE
  5
38
102
{ACAD_REACTORS
330
2A
102
}
330
2A
100
AcDbVisualStyle
  2
Linepattern
 70
    14
177
     2
291
     1
 71
     2
176
     1
 72
     2
176
     1
 73
     0
176
     1
 90
        0
176
     1
 40
-0.6
176
     1
 41
-30.0
176
     1
 62
     5
 63
     7
421
 16777215
176
     1
 74
     1
176
     1
 91
        4
176
     1
 64
     7
176
     1
 65
   257
176
     1
 75
     7
176
     1
175
     7
176
     1
 42
1.0
176
     1
 92
        8
176
     1
 66
     7
176
     1
 43
1.0
176
     1
 76
     1
176
     1
 77
     6
176
     1
 78
     2
176
     1
 67
     7
176
     1
 79
     5
176
     1
170
     0
176
     1
171
     0
176
     1
290
     0
176
     1
 93
        1
176
     1
 44
0.0
176
     1
173
     0
176
     1
  0
VISUALSTYLE
  5
33
102
{ACAD_REACTORS
330
2A
102
}
330
2A
100
AcDbVisualStyle
  2
Realistic
 70
     8
177
     2
291
     0
 71
     2
176
     1
 72
     2
176
     1
 73
     0
176
     1
 90
        0
176
     1
 40
-0.6
176
     1
 41
-30.0
176
     1
 62
     5
 63
     7
421
 16777215
176
     1
 74
     1
176
     1
 91
        0
176
     1
 64
     7
176
     1
 65
   257
176
     1
 75
     1
176
     1
175
     1
176
     1
 42
1.0
176
     1
 92
        8
176
     1
 66
     8
424
  7895160
176
     1
 43
1.0
176
     1
 76
     1
176
     1
 77
     6
176
     1
 78
     2
176
     1
 67
     7
176
     1
 79
     5
176
     1
170
     0
176
     1
171
     0
176
     1
290
     0
176
     1
 93
       13
176
     1
 44
0.0
176
     1
173
     0
176
     1
  0
VISUALSTYLE
  5
37
102
{ACAD_REACTORS
330
2A
102
}
330
2A
100
AcDbVisualStyle
  2
Thicken
 70
    13
177
     2
291
     1
 71
     2
176
     1
 72
     2
176
     1
 73
     0
176
     1
 90
        0
176
     1
 40
-0.6
176
     1
 41
-30.0
176
     1
 62
     5
 63
     7
421
 16777215
176
     1
 74
     1
176
     1
 91
        4
176
     1
 64
     7
176
     1
 65
   257
176
     1
 75
     1
176
     1
175
     1
176
     1
 42
1.0
176
     1
 92
       12
176
     1
 66
     7
176
     1
 43
1.0
176
     1
 76
     1
176
     1
 77
     6
176
     1
 78
     2
176
     1
 67
     7
176
     1
 79
     5
176
     1
170
     0
176
     1
171
     0
176
     1
290
     0
176
     1
 93
        1
176
     1
 44
0.0
176
     1
173
     0
176
     1
  0
ENDSEC
  0
EOF
