  0
SECTION
  2
HEADER
  9
$ACADVER
  1
AC1024
  9
$ACADMAINTVER
 70
   226
  9
$DWGCODEPAGE
  3
ANSI_1252
  9
$INSBASE
 10
0.0
 20
0.0
 30
0.0
  9
$EXTMIN
 10
1.000000000000000E+20
 20
1.000000000000000E+20
 30
1.000000000000000E+20
  9
$EXTMAX
 10
-1.000000000000000E+20
 20
-1.000000000000000E+20
 30
-1.000000000000000E+20
  9
$LIMMIN
 10
0.0
 20
0.0
  9
$LIMMAX
 10
12.0
 20
9.0
  9
$ORTHOMODE
 70
     0
  9
$REGENMODE
 70
     1
  9
$FILLMODE
 70
     1
  9
$QTEXTMODE
 70
     0
  9
$MIRRTEXT
 70
     0
  9
$LTSCALE
 40
1.0
  9
$ATTMODE
 70
     1
  9
$TEXTSIZE
 40
0.2
  9
$TRACEWID
 40
0.05
  9
$TEXTSTYLE
  7
Standard
  9
$CLAYER
  8
0
  9
$CELTYPE
  6
ByLayer
  9
$CECOLOR
 62
   256
  9
$CELTSCALE
 40
1.0
  9
$DISPSILH
 70
     0
  9
$DIMSCALE
 40
1.0
  9
$DIMASZ
 40
0.18
  9
$DIMEXO
 40
0.0625
  9
$DIMDLI
 40
0.38
  9
$DIMRND
 40
0.0
  9
$DIMDLE
 40
0.0
  9
$DIMEXE
 40
0.18
  9
$DIMTP
 40
0.0
  9
$DIMTM
 40
0.0
  9
$DIMTXT
 40
0.18
  9
$DIMCEN
 40
0.09
  9
$DIMTSZ
 40
0.0
  9
$DIMTOL
 70
     0
  9
$DIMLIM
 70
     0
  9
$DIMTIH
 70
     1
  9
$DIMTOH
 70
     1
  9
$DIMSE1
 70
     0
  9
$DIMSE2
 70
     0
  9
$DIMTAD
 70
     0
  9
$DIMZIN
 70
     0
  9
$DIMBLK
  1

  9
$DIMASO
 70
     1
  9
$DIMSHO
 70
     1
  9
$DIMPOST
  1

  9
$DIMAPOST
  1

  9
$DIMALT
 70
     0
  9
$DIMALTD
 70
     2
  9
$DIMALTF
 40
25.4
  9
$DIMLFAC
 40
1.0
  9
$DIMTOFL
 70
     0
  9
$DIMTVP
 40
0.0
  9
$DIMTIX
 70
     0
  9
$DIMSOXD
 70
     0
  9
$DIMSAH
 70
     0
  9
$DIMBLK1
  1

  9
$DIMBLK2
  1

  9
$DIMSTYLE
  2
Standard
  9
$DIMCLRD
 70
     0
  9
$DIMCLRE
 70
     0
  9
$DIMCLRT
 70
     0
  9
$DIMTFAC
 40
1.0
  9
$DIMGAP
 40
0.09
  9
$DIMJUST
 70
     0
  9
$DIMSD1
 70
     0
  9
$DIMSD2
 70
     0
  9
$DIMTOLJ
 70
     1
  9
$DIMTZIN
 70
     0
  9
$DIMALTZ
 70
     0
  9
$DIMALTTZ
 70
     0
  9
$DIMUPT
 70
     0
  9
$DIMDEC
 70
     4
  9
$DIMTDEC
 70
     4
  9
$DIMALTU
 70
     2
  9
$DIMALTTD
 70
     2
  9
$DIMTXSTY
  7
Standard
  9
$DIMAUNIT
 70
     0
  9
$DIMADEC
 70
     0
  9
$DIMALTRND
 40
0.0
  9
$DIMAZIN
 70
     0
  9
$DIMDSEP
 70
    46
  9
$DIMATFIT
 70
     3
  9
$DIMFRAC
 70
     0
  9
$DIMLDRBLK
  1

  9
$DIMLUNIT
 70
     2
  9
$DIMLWD
 70
    -2
  9
$DIMLWE
 70
    -2
  9
$DIMTMOVE
 70
     0
  9
$DIMFXL
 40
1.0
  9
$DIMFXLON
 70
     0
  9
$DIMJOGANG
 40
0.7853981633974483
  9
$DIMTFILL
 70
     0
  9
$DIMTFILLCLR
 70
     0
  9
$DIMARCSYM
 70
     0
  9
$DIMLTYPE
  6

  9
$DIMLTEX1
  6

  9
$DIMLTEX2
  6

  9
$DIMTXTDIRECTION
 70
     0
  9
$LUNITS
 70
     2
  9
$LUPREC
 70
     4
  9
$SKETCHINC
 40
0.1
  9
$FILLETRAD
 40
0.0
  9
$AUNITS
 70
     0
  9
$AUPREC
 70
     0
  9
$MENU
  1
.
  9
$ELEVATION
 40
0.0
  9
$PELEVATION
 40
0.0
  9
$THICKNESS
 40
0.0
  9
$LIMCHECK
 70
     0
  9
$CHAMFERA
 40
0.0
  9
$CHAMFERB
 40
0.0
  9
$CHAMFERC
 40
0.0
  9
$CHAMFERD
 40
0.0
  9
$SKPOLY
 70
     0
  9
$TDCREATE
 40
2460296.792013889
  9
$TDUCREATE
 40
2460296.750347222
  9
$TDUPDATE
 40
2460296.792013889
  9
$TDUUPDATE
 40
2460296.750347222
  9
$TDINDWG
 40
0.0001388889
  9
$TDUSRTIMER
 40
0.0001388889
  9
$USRTIMER
 70
     1
  9
$ANGBASE
 50
0.0
  9
$ANGDIR
 70
     0
  9
$PDMODE
 70
     0
  9
$PDSIZE
 40
0.0
  9
$PLINEWID
 40
0.0
  9
$SPLFRAME
 70
     0
  9
$SPLINETYPE
 70
     6
  9
$SPLINESEGS
 70
     8
  9
$HANDSEED
  5
24D
  9
$SURFTAB1
 70
     6
  9
$SURFTAB2
 70
     6
  9
$SURFTYPE
 70
     6
  9
$SURFU
 70
     6
  9
$SURFV
 70
     6
  9
$UCSBASE
  2

  9
$UCSNAME
  2

  9
$UCSORG
 10
0.0
 20
0.0
 30
0.0
  9
$UCSXDIR
 10
1.0
 20
0.0
 30
0.0
  9
$UCSYDIR
 10
0.0
 20
1.0
 30
0.0
  9
$UCSORTHOREF
  2

  9
$UCSORTHOVIEW
 70
     0
  9
$UCSORGTOP
 10
0.0
 20
0.0
 30
0.0
  9
$UCSORGBOTTOM
 10
0.0
 20
0.0
 30
0.0
  9
$UCSORGLEFT
 10
0.0
 20
0.0
 30
0.0
  9
$UCSORGRIGHT
 10
0.0
 20
0.0
 30
0.0
  9
$UCSORGFRONT
 10
0.0
 20
0.0
 30
0.0
  9
$UCSORGBACK
 10
0.0
 20
0.0
 30
0.0
  9
$PUCSBASE
  2

  9
$PUCSNAME
  2

  9
$PUCSORG
 10
0.0
 20
0.0
 30
0.0
  9
$PUCSXDIR
 10
1.0
 20
0.0
 30
0.0
  9
$PUCSYDIR
 10
0.0
 20
1.0
 30
0.0
  9
$PUCSORTHOREF
  2

  9
$PUCSORTHOVIEW
 70
     0
  9
$PUCSORGTOP
 10
0.0
 20
0.0
 30
0.0
  9
$PUCSORGBOTTOM
 10
0.0
 20
0.0
 30
0.0
  9
$PUCSORGLEFT
 10
0.0
 20
0.0
 30
0.0
  9
$PUCSORGRIGHT
 10
0.0
 20
0.0
 30
0.0
  9
$PUCSORGFRONT
 10
0.0
 20
0.0
 30
0.0
  9
$PUCSORGBACK
 10
0.0
 20
0.0
 30
0.0
  9
$USERI1
 70
     0
  9
$USERI2
 70
     0
  9
$USERI3
 70
     0
  9
$USERI4
 70
     0
  9
$USERI5
 70
     0
  9
$USERR1
 40
0.0
  9
$USERR2
 40
0.0
  9
$USERR3
 40
0.0
  9
$USERR4
 40
0.0
  9
$USERR5
 40
0.0
  9
$WORLDVIEW
 70
     1
  9
$SHADEDGE
 70
     3
  9
$SHADEDIF
 70
    70
  9
$TILEMODE
 70
     1
  9
$MAXACTVP
 70
    64
  9
$PINSBASE
 10
0.0
 20
0.0
 30
0.0
  9
$PLIMCHECK
 70
     0
  9
$PEXTMIN
 10
1.000000000000000E+20
 20
1.000000000000000E+20
 30
1.000000000000000E+20
  9
$PEXTMAX
 10
-1.000000000000000E+20
 20
-1.000000000000000E+20
 30
-1.000000000000000E+20
  9
$PLIMMIN
 10
0.0
 20
0.0
  9
$PLIMMAX
 10
12.0
 20
9.0
  9
$UNITMODE
 70
     0
  9
$VISRETAIN
 70
     1
  9
$PLINEGEN
 70
     0
  9
$PSLTSCALE
 70
     1
  9
$TREEDEPTH
 70
  3020
  9
$CMLSTYLE
  2
Standard
  9
$CMLJUST
 70
     0
  9
$CMLSCALE
 40
1.0
  9
$PROXYGRAPHICS
 70
     1
  9
$MEASUREMENT
 70
     0
  9
$CELWEIGHT
370
    -1
  9
$ENDCAPS
280
     0
  9
$JOINSTYLE
280
     0
  9
$LWDISPLAY
290
     1
  9
$INSUNITS
 70
     4
  9
$HYPERLINKBASE
  1

  9
$STYLESHEET
  1

  9
$XEDIT
290
     1
  9
$CEPSNTYPE
380
     0
  9
$PSTYLEMODE
290
     1
  9
$FINGERPRINTGUID
  2
{BB471140-3811-384E-9211-8E927AF613C2}
  9
$VERSIONGUID
  2
{E87CFC1A-4D56-B54F-932C-D07BB21F00F6}
  9
$EXTNAMES
290
     1
  9
$PSVPSCALE
 40
0.0
  9
$OLESTARTUP
290
     0
  9
$SORTENTS
280
   127
  9
$INDEXCTL
280
     0
  9
$HIDETEXT
280
     1
  9
$XCLIPFRAME
280
     2
  9
$HALOGAP
280
     0
  9
$OBSCOLOR
 70
   257
  9
$OBSLTYPE
280
     0
  9
$INTERSECTIONDISPLAY
280
     0
  9
$INTERSECTIONCOLOR
 70
   257
  9
$DIMASSOC
280
     2
  9
$PROJECTNAME
  1

  9
$CAMERADISPLAY
290
     0
  9
$LENSLENGTH
 40
50.0
  9
$CAMERAHEIGHT
 40
0.0
  9
$STEPSPERSEC
 40
2.0
  9
$STEPSIZE
 40
6.0
  9
$3DDWFPREC
 40
2.0
  9
$PSOLWIDTH
 40
0.25
  9
$PSOLHEIGHT
 40
4.0
  9
$LOFTANG1
 40
1.570796326794896
  9
$LOFTANG2
 40
1.570796326794896
  9
$LOFTMAG1
 40
0.0
  9
$LOFTMAG2
 40
0.0
  9
$LOFTPARAM
 70
     7
  9
$LOFTNORMALS
280
     1
  9
$LATITUDE
 40
37.795
  9
$LONGITUDE
 40
-122.394
  9
$NORTHDIRECTION
 40
0.0
  9
$TIMEZONE
 70
 -8000
  9
$LIGHTGLYPHDISPLAY
280
     1
  9
$TILEMODELIGHTSYNCH
280
     1
  9
$CMATERIAL
347
11
  9
$SOLIDHIST
280
     0
  9
$SHOWHIST
280
     1
  9
$DWFFRAME
280
     2
  9
$DGNFRAME
280
     0
  9
$REALWORLDSCALE
290
     1
  9
$INTERFERECOLOR
 62
     1
  9
$INTERFEREOBJVS
345
33
  9
$INTERFEREVPVS
346
30
  9
$CSHADOW
280
     0
  9
$SHADOWPLANELOCATION
 40
0.0
  0
ENDSEC
  0
SECTION
  2
CLASSES
  0
CLASS
  1
ACDBDICTIONARYWDFLT
  2
AcDbDictionaryWithDefault
  3
ObjectDBX Classes
 90
        0
 91
        1
280
     0
281
     0
  0
CLASS
  1
MATERIAL
  2
AcDbMaterial
  3
ObjectDBX Classes
 90
     1153
 91
        3
280
     0
281
     0
  0
CLASS
  1
VISUALSTYLE
  2
AcDbVisualStyle
  3
ObjectDBX Classes
 90
     4095
 91
       24
280
     0
281
     0
  0
CLASS
  1
SCALE
  2
AcDbScale
  3
ObjectDBX Classes
 90
     1153
 91
       17
280
     0
281
     0
  0
CLASS
  1
TABLESTYLE
  2
AcDbTableStyle
  3
ObjectDBX Classes
 90
     4095
 91
        1
280
     0
281
     0
  0
CLASS
  1
MLEADERSTYLE
  2
AcDbMLeaderStyle
  3
ACDB_MLEADERSTYLE_CLASS
 90
     4095
 91
        1
280
     0
281
     0
  0
CLASS
  1
ACDBSECTIONVIEWSTYLE
  2
AcDbSectionViewStyle
  3
ObjectDBX Classes
 90
     1025
 91
        1
280
     0
281
     0
  0
CLASS
  1
ACDBDETAILVIEWSTYLE
  2
AcDbDetailViewStyle
  3
ObjectDBX Classes
 90
     1025
 91
        1
280
     0
281
     0
  0
CLASS
  1
DICTIONARYVAR
  2
AcDbDictionaryVar
  3
ObjectDBX Classes
 90
        0
 91
        5
280
     0
281
     0
  0
CLASS
  1
CELLSTYLEMAP
  2
AcDbCellStyleMap
  3
ObjectDBX Classes
 90
     1152
 91
        1
280
     0
281
     0
  0
ENDSEC
  0
SECTION
  2
TABLES
  0
TABLE
  2
VPORT
  5
8
330
0
100
AcDbSymbolTable
 70
     1
  0
VPORT
  5
57
330
8
100
AcDbSymbolTableRecord
100
AcDbViewportTableRecord
  2
*Active
 70
     0
 10
0.0
 20
0.0
 11
1.0
 21
1.0
 12
0.0
 22
0.0
 13
0.0
 23
0.0
 14
1.0
 24
1.0
 15
0.0
 25
0.0
 16
0.0
 26
0.0
 36
1.0
 17
104.951388862651
 27
148.5194444073146
 37
0.0
 40
302.9796665909217
 41
0.7066508313539194
 42
50.0
 43
0.0
 44
0.0
 50
0.0
 51
0.0
 71
     0
 72
   100
 73
     1
 74
     1
 75
     0
 76
     0
 77
     0
 78
     0
281
     0
 65
     1
110
0.0
120
0.0
130
0.0
111
1.0
121
0.0
131
0.0
112
0.0
122
1.0
132
0.0
 79
     0
146
0.0
 60
     3
 61
     5
292
     1
282
     1
141
0.0
142
0.0
 63
   250
421
  3355443
  0
ENDTAB
  0
TABLE
  2
LTYPE
  5
5
330
0
100
AcDbSymbolTable
 70
     1
  0
LTYPE
  5
5B
330
5
100
AcDbSymbolTableRecord
100
AcDbLinetypeTableRecord
  2
ByBlock
 70
     0
  3

 72
    65
 73
     0
 40
0.0
  0
LTYPE
  5
5C
330
5
100
AcDbSymbolTableRecord
100
AcDbLinetypeTableRecord
  2
ByLayer
 70
     0
  3

 72
    65
 73
     0
 40
0.0
  0
LTYPE
  5
5D
330
5
100
AcDbSymbolTableRecord
100
AcDbLinetypeTableRecord
  2
Continuous
 70
     0
  3
Solid line
 72
    65
 73
     0
 40
0.0
  0
ENDTAB
  0
TABLE
  2
LAYER
  5
2
330
0
100
AcDbSymbolTable
 70
     2
  0
LAYER
  5
54
330
2
100
AcDbSymbolTableRecord
100
AcDbLayerTableRecord
  2
0
 70
     0
 62
     7
  6
Continuous
370
    -3
390
F
347
21
  0
LAYER
  5
78
330
2
100
AcDbSymbolTableRecord
100
AcDbLayerTableRecord
  2
Capa 1
 70
     0
 62
     7
  6
Continuous
370
     0
390
F
347
21
  0
ENDTAB
  0
TABLE
  2
STYLE
  5
3
330
0
100
AcDbSymbolTable
 70
     2
  0
STYLE
  5
55
330
3
100
AcDbSymbolTableRecord
100
AcDbTextStyleTableRecord
  2
Standard
 70
     0
 40
0.0
 41
1.0
 50
0.0
 71
     0
 42
0.2
  3
txt
  4

  0
STYLE
  5
5A
330
3
100
AcDbSymbolTableRecord
100
AcDbTextStyleTableRecord
  2
Annotative
 70
     0
 40
0.0
 41
1.0
 50
0.0
 71
     0
 42
0.2
  3
txt
  4

1001
AcadAnnotative
1000
AnnotativeData
1002
{
1070
     1
1070
     1
1002
}
  0
ENDTAB
  0
TABLE
  2
VIEW
  5
6
330
0
100
AcDbSymbolTable
 70
     0
  0
ENDTAB
  0
TABLE
  2
UCS
  5
7
330
0
100
AcDbSymbolTable
 70
     0
  0
ENDTAB
  0
TABLE
  2
APPID
  5
9
330
0
100
AcDbSymbolTable
 70
     2
  0
APPID
  5
56
330
9
100
AcDbSymbolTableRecord
100
AcDbRegAppTableRecord
  2
ACAD
 70
     0
  0
APPID
  5
5E
330
9
100
AcDbSymbolTableRecord
100
AcDbRegAppTableRecord
  2
AcadAnnotative
 70
     0
  0
ENDTAB
  0
TABLE
  2
DIMSTYLE
  5
A
330
0
100
AcDbSymbolTable
 70
     2
100
AcDbDimStyleTable
 71
     0
  0
DIMSTYLE
105
58
330
A
100
AcDbSymbolTableRecord
100
AcDbDimStyleTableRecord
  2
Standard
 70
     0
340
55
  0
DIMSTYLE
105
59
330
A
100
AcDbSymbolTableRecord
100
AcDbDimStyleTableRecord
  2
Annotative
 70
     0
340
55
1001
AcadAnnotative
1000
AnnotativeData
1002
{
1070
     1
1070
     1
1002
}
  0
ENDTAB
  0
TABLE
  2
BLOCK_RECORD
  5
1
330
0
100
AcDbSymbolTable
 70
     1
  0
BLOCK_RECORD
  5
70
330
1
100
AcDbSymbolTableRecord
100
AcDbBlockTableRecord
  2
*Model_Space
340
73
 70
     0
280
     1
281
     0
  0
BLOCK_RECORD
  5
6C
330
1
100
AcDbSymbolTableRecord
100
AcDbBlockTableRecord
  2
*Paper_Space
340
6F
 70
     0
280
     1
281
     0
  0
BLOCK_RECORD
  5
74
330
1
100
AcDbSymbolTableRecord
100
AcDbBlockTableRecord
  2
*Paper_Space0
340
77
 70
     0
280
     1
281
     0
  0
ENDTAB
  0
ENDSEC
  0
SECTION
  2
BLOCKS
  0
BLOCK
  5
71
330
70
100
AcDbEntity
  8
0
100
AcDbBlockBegin
  2
*Model_Space
 70
     0
 10
0.0
 20
0.0
 30
0.0
  3
*Model_Space
  1

  0
ENDBLK
  5
72
330
70
100
AcDbEntity
  8
0
100
AcDbBlockEnd
  0
BLOCK
  5
6D
330
6C
100
AcDbEntity
 67
     1
  8
0
100
AcDbBlockBegin
  2
*Paper_Space
 70
     0
 10
0.0
 20
0.0
 30
0.0
  3
*Paper_Space
  1

  0
ENDBLK
  5
6E
330
6C
100
AcDbEntity
 67
     1
  8
0
100
AcDbBlockEnd
  0
BLOCK
  5
75
330
74
100
AcDbEntity
 67
     1
  8
0
100
AcDbBlockBegin
  2
*Paper_Space0
 70
     0
 10
0.0
 20
0.0
 30
0.0
  3
*Paper_Space0
  1

  0
ENDBLK
  5
76
330
74
100
AcDbEntity
 67
     1
  8
0
100
AcDbBlockEnd
  0
ENDSEC
  0
SECTION
  2
ENTITIES
  0
SPLINE
  5
79
330
70
100
AcDbEntity
  8
Capa 1
 62
    18
420
        0
370
     9
100
AcDbSpline
210
0.0
220
0.0
230
1.0
 70
    24
 71
     3
 72
     8
 73
     4
 74
     0
 42
0.0000000001
 43
0.0000000001
 40
0.0
 40
0.0
 40
0.0
 40
0.0
 40
1.0
 40
1.0
 40
1.0
 40
1.0
 10
128.3546545767438
 20
135.3680184767645
 30
0.0
 10
128.3546545767438
 20
135.3680184767645
 30
0.0
 10
128.3546545767438
 20
185.1096743650724
 30
0.0
 10
128.3546545767438
 20
185.1096743650724
 30
0.0
  0
SPLINE
  5
7A
330
70
100
AcDbEntity
  8
Capa 1
 62
    18
420
        0
370
     9
100
AcDbSpline
210
0.0
220
0.0
230
1.0
 70
    24
 71
     3
 72
     8
 73
     4
 74
     0
 42
0.0000000001
 43
0.0000000001
 40
0.0
 40
0.0
 40
0.0
 40
0.0
 40
1.0
 40
1.0
 40
1.0
 40
1.0
 10
127.3809952311484
 20
186.0833444765911
 30
0.0
 10
127.3809952311484
 20
186.0833444765911
 30
0.0
 10
48.59866471665079
 20
186.0833444765911
 30
0.0
 10
48.59866471665079
 20
186.0833444765911
 30
0.0
  0
SPLINE
  5
7B
330
70
100
AcDbEntity
  8
Capa 1
 62
    18
420
        0
370
     9
100
AcDbSpline
210
0.0
220
0.0
230
1.0
 70
    24
 71
     3
 72
     8
 73
     4
 74
     0
 42
0.0000000001
 43
0.0000000001
 40
0.0
 40
0.0
 40
0.0
 40
0.0
 40
1.0
 40
1.0
 40
1.0
 40
1.0
 10
47.62499460513206
 20
185.1096743650724
 30
0.0
 10
47.62499460513206
 20
185.1096743650724
 30
0.0
 10
47.62499460513206
 20
135.3680184767645
 30
0.0
 10
47.62499460513206
 20
135.3680184767645
 30
0.0
  0
SPLINE
  5
7C
330
70
100
AcDbEntity
  8
Capa 1
 62
    18
420
        0
370
     9
100
AcDbSpline
210
0.0
220
0.0
230
1.0
 70
    24
 71
     3
 72
     8
 73
     4
 74
     0
 42
0.0000000001
 43
0.0000000001
 40
0.0
 40
0.0
 40
0.0
 40
0.0
 40
1.0
 40
1.0
 40
1.0
 40
1.0
 10
48.59866471665079
 20
134.3943483652458
 30
0.0
 10
48.59866471665079
 20
134.3943483652458
 30
0.0
 10
127.3809952311484
 20
134.3943483652458
 30
0.0
 10
127.3809952311484
 20
134.3943483652458
 30
0.0
  0
LWPOLYLINE
  5
7D
330
70
100
AcDbEntity
  8
Capa 1
 62
    18
420
        0
370
     9
100
AcDbPolyline
 90
       13
 70
     0
 43
0.0
 10
106.5106606111219
 20
168.0070145928724
 10
105.4099956672781
 20
167.7953457730739
 10
104.3093307234344
 20
167.4990137317255
 10
103.2509973903656
 20
167.033355247277
 10
102.2773272788469
 20
166.4406803986567
 10
101.4306627655766
 20
165.7210214836348
 10
100.6263298630812
 20
164.8743462044411
 10
99.94899179291097
 20
163.9430184696208
 10
99.39865932098911
 20
162.9693483581021
 10
99.01766405809064
 20
161.9110150250333
 10
98.72132125081881
 20
160.7680184704145
 10
98.63665802926879
 20
159.6673535265708
 10
98.63665802926879
 20
158.5243462060286
  0
LWPOLYLINE
  5
7E
330
70
100
AcDbEntity
  8
Capa 1
 62
    18
420
        0
370
     9
100
AcDbPolyline
 90
       13
 70
     0
 43
0.0
 10
116.0779922195156
 20
160.0483487894692
 10
115.9086550104922
 20
161.1913561100114
 10
115.6123229691438
 20
162.2920210538551
 10
115.1466537187719
 20
163.3503543869239
 10
114.5116580253
 20
164.3240137325192
 10
113.7919883443547
 20
165.213020622488
 10
112.9453238310844
 20
166.0173535249833
 10
112.0139960962641
 20
166.6946808292302
 10
110.9979943739703
 20
167.2450133011521
 10
109.9396610409016
 20
167.6683509407489
 10
108.7966537203594
 20
167.9223513713224
 10
107.6536571657406
 20
168.0493462036474
 10
106.5106606111219
 20
168.0070145928724
  0
LWPOLYLINE
  5
7F
330
70
100
AcDbEntity
  8
Capa 1
 62
    18
420
        0
370
     9
100
AcDbPolyline
 90
       25
 70
     0
 43
0.0
 10
116.7129879129875
 20
160.1330227769426
 10
116.5013298591125
 20
161.3606825531114
 10
116.1626554410656
 20
162.5036791077302
 10
115.6546545799188
 20
163.6466864282724
 10
115.0196588864469
 20
164.6626881505661
 10
114.2576575947266
 20
165.6363474961614
 10
113.3686614706812
 20
166.4830227753551
 10
112.3949913591625
 20
167.202681690377
 10
111.2943264153188
 20
167.7953457730739
 10
110.1513298607
 20
168.2186834126708
 10
108.9659909293828
 20
168.5150154540192
 10
107.7383203872907
 20
168.6420210522676
 10
106.5106606111219
 20
168.5996894414927
 10
105.3253216798047
 20
168.4303522324692
 10
104.1399935144109
 20
168.0916885803458
 10
103.0393285705672
 20
167.5836877191989
 10
101.9809952374984
 20
166.9486812598036
 10
101.0496567367547
 20
166.1866799680833
 10
100.2029922234844
 20
165.297683844038
 10
99.48332254253912
 20
164.3240137325192
 10
98.89065845984223
 20
163.2233487886755
 10
98.42498920947036
 20
162.0803522340567
 10
98.12865716812192
 20
160.8950133027396
 10
98.00166233579689
 20
159.6673535265708
 10
98.0439939465719
 20
158.4820145952536
  0
LWPOLYLINE
  5
80
330
70
100
AcDbEntity
  8
Capa 1
 62
    18
420
        0
370
     9
100
AcDbPolyline
 90
       25
 70
     0
 43
0.0
 10
117.009319954336
 20
160.1330227769426
 10
116.7976619004609
 20
161.3606825531114
 10
116.4589874824141
 20
162.5883530952036
 10
115.9509866212672
 20
163.7313496498224
 10
115.2736593170203
 20
164.8320145936661
 10
114.5116580253
 20
165.8056847051848
 10
113.5803302904797
 20
166.6946808292302
 10
112.5643285681859
 20
167.4143505101755
 10
111.4636636243422
 20
168.0493462036474
 10
110.278324693025
 20
168.5150154540192
 10
109.0506541509328
 20
168.8113474953677
 10
107.780662763989
 20
168.9383530936161
 10
106.5106606111219
 20
168.8960214828411
 10
105.2829900690297
 20
168.7266842738177
 10
104.0553302928609
 20
168.3456890109192
 10
102.9123229723188
 20
167.8376881497723
 10
101.811658028475
 20
167.202681690377
 10
100.8379879169563
 20
166.3983487878817
 10
99.94899179291097
 20
165.5093526638364
 10
99.22932211196567
 20
164.4510193307677
 10
98.59432641849378
 20
163.3503543869239
 10
98.17098877889693
 20
162.1650154556067
 10
97.83232512677349
 20
160.937355679438
 10
97.70533029444846
 20
159.7096851373458
 10
97.74766190522347
 20
158.4396829844786
  0
LWPOLYLINE
  5
81
330
70
100
AcDbEntity
  8
Capa 1
 62
    18
420
        0
370
     9
100
AcDbPolyline
 90
       56
 70
     1
 43
0.0
 10
85.21699373446018
 20
160.8950133027396
 10
85.13233051291017
 20
162.2920210538551
 10
84.87833008233673
 20
163.6890180390473
 10
84.49732943647658
 20
165.0436834134645
 10
83.9469969645547
 20
166.3560171771067
 10
83.2696642773461
 20
167.5836877191989
 10
82.46533137485078
 20
168.7266842738177
 10
81.53399287410707
 20
169.7850176068864
 10
80.47565954103831
 20
170.7163561076301
 10
79.33266298641955
 20
171.5206890101254
 10
78.10499782728907
 20
172.1980163143724
 10
76.79266406364689
 20
172.7483487862942
 10
75.437993306268
 20
173.1293548151161
 10
74.0409963210758
 20
173.3833552456895
 10
72.64399395292191
 20
173.4680184672395
 10
71.2469969677297
 20
173.3833552456895
 10
69.84999459957581
 20
173.1293548151161
 10
68.49532922515861
 20
172.7483487862942
 10
67.18299546151643
 20
172.1980163143724
 10
65.95533030238596
 20
171.5206890101254
 10
64.8123283648055
 20
170.7163561076301
 10
63.75399503173674
 20
169.7850176068864
 10
62.82266191395471
 20
168.7266842738177
 10
62.01832901145939
 20
167.5836877191989
 10
61.3409963242508
 20
166.3560171771067
 10
60.79066385232891
 20
165.0436834134645
 10
60.40966320646877
 20
163.6890180390473
 10
60.15566277589533
 20
162.2920210538551
 10
60.07099417138363
 20
160.8950133027396
 10
60.15566277589533
 20
159.4980163175474
 10
60.40966320646877
 20
158.1010193323552
 10
60.79066385232891
 20
156.746353957938
 10
61.3409963242508
 20
155.4340201942958
 10
62.01832901145939
 20
154.2063496522036
 10
62.82266191395471
 20
153.0633530975848
 10
63.75399503173674
 20
152.0050197645161
 10
64.8123283648055
 20
151.0736812637724
 10
65.95533030238596
 20
150.269348361277
 10
67.18299546151643
 20
149.5496894462552
 10
68.49532922515861
 20
149.0416885851083
 10
69.84999459957581
 20
148.6606825562864
 10
71.2469969677297
 20
148.406682125713
 10
72.64399395292191
 20
148.322018904163
 10
74.0409963210758
 20
148.406682125713
 10
75.437993306268
 20
148.6606825562864
 10
76.79266406364689
 20
149.0416885851083
 10
78.10499782728907
 20
149.5496894462552
 10
79.33266298641955
 20
150.269348361277
 10
80.47565954103831
 20
151.0736812637724
 10
81.53399287410707
 20
152.0050197645161
 10
82.46533137485078
 20
153.0633530975848
 10
83.2696642773461
 20
154.2063496522036
 10
83.9469969645547
 20
155.4340201942958
 10
84.49732943647658
 20
156.746353957938
 10
84.87833008233673
 20
158.1010193323552
 10
85.13233051291017
 20
159.4980163175474
  0
LWPOLYLINE
  5
82
330
70
100
AcDbEntity
  8
Capa 1
 62
    18
420
        0
370
     9
100
AcDbPolyline
 90
       56
 70
     1
 43
0.0
 10
85.93666341540549
 20
160.8950133027396
 10
85.85199481089377
 20
162.3766842754052
 10
85.59799438032035
 20
163.8583552480707
 10
85.17466212368518
 20
165.297683844038
 10
84.62432965176331
 20
166.6523492184552
 10
83.904659970818
 20
167.9646829820973
 10
83.01566384677267
 20
169.1923535241895
 10
82.04199373525394
 20
170.2930184680333
 10
80.94132879141019
 20
171.266688579552
 10
79.7136636322797
 20
172.1556847035973
 10
78.40132986863752
 20
172.8753543845426
 10
77.04666449422032
 20
173.4256868564645
 10
75.60733051529142
 20
173.849013730138
 10
74.12566492558751
 20
174.1030141607114
 10
72.64399395292191
 20
174.1876881481848
 10
71.16232836321799
 20
174.1030141607114
 10
69.68066277351408
 20
173.849013730138
 10
68.24132879458517
 20
173.4256868564645
 10
66.88666342016799
 20
172.8753543845426
 10
65.5743296565258
 20
172.1556847035973
 10
64.34666449739532
 20
171.266688579552
 10
63.24599417058987
 20
170.2930184680333
 10
62.27232944203283
 20
169.1923535241895
 10
61.38332793502581
 20
167.9646829820973
 10
60.6636636370422
 20
166.6523492184552
 10
60.11333116512032
 20
165.297683844038
 10
59.68999352552347
 20
163.8583552480707
 10
59.43599847791173
 20
162.3766842754052
 10
59.35132987340002
 20
160.8950133027396
 10
59.43599847791173
 20
159.4133530959974
 10
59.68999352552347
 20
157.9316821233318
 10
60.11333116512032
 20
156.4923535273645
 10
60.6636636370422
 20
155.1376881529473
 10
61.38332793502581
 20
153.8253543893052
 10
62.27232944203283
 20
152.597683847213
 10
63.24599417058987
 20
151.4970189033692
 10
64.34666449739532
 20
150.4810171810755
 10
65.5743296565258
 20
149.6343526678051
 10
66.88666342016799
 20
148.9146829868599
 10
68.24132879458517
 20
148.364350514938
 10
69.68066277351408
 20
147.9410128753411
 10
71.16232836321799
 20
147.6870232106911
 10
72.64399395292191
 20
147.6023492232177
 10
74.12566492558751
 20
147.6870232106911
 10
75.60733051529142
 20
147.9410128753411
 10
77.04666449422032
 20
148.364350514938
 10
78.40132986863752
 20
148.9146829868599
 10
79.7136636322797
 20
149.6343526678051
 10
80.94132879141019
 20
150.4810171810755
 10
82.04199373525394
 20
151.4970189033692
 10
83.01566384677267
 20
152.597683847213
 10
83.904659970818
 20
153.8253543893052
 10
84.62432965176331
 20
155.1376881529473
 10
85.17466212368518
 20
156.4923535273645
 10
85.59799438032035
 20
157.9316821233318
 10
85.85199481089377
 20
159.4133530959974
  0
LWPOLYLINE
  5
83
330
70
100
AcDbEntity
  8
Capa 1
 62
    18
420
        0
370
     9
100
AcDbPolyline
 90
       56
 70
     1
 43
0.0
 10
86.31766406126564
 20
160.8950133027396
 10
86.23299545675392
 20
162.4190158861802
 10
85.9789950261805
 20
163.9430184696208
 10
85.55566276954534
 20
165.4246894422864
 10
84.96299330388675
 20
166.8216864274786
 10
84.24332900590314
 20
168.1763518018958
 10
83.35432749889612
 20
169.446353954763
 10
82.33833115956407
 20
170.5893505093817
 10
81.19532922198361
 20
171.6053522316754
 10
79.92532706911643
 20
172.4943483557208
 10
78.57066169469923
 20
173.2140180366661
 10
77.17366470950704
 20
173.806682119363
 10
75.69199373684144
 20
174.2300197589598
 10
74.16799653636252
 20
174.4840201895333
 10
72.64399395292191
 20
174.5686834110833
 10
71.11999675244298
 20
174.4840201895333
 10
69.59599416900236
 20
174.2300197589598
 10
68.11432857929846
 20
173.806682119363
 10
66.71733159410625
 20
173.2140180366661
 10
65.36266083672737
 20
172.4943483557208
 10
64.09266406682188
 20
171.6053522316754
 10
62.94966212924143
 20
170.5893505093817
 10
61.93366040694769
 20
169.446353954763
 10
61.04466428290235
 20
168.1763518018958
 10
60.32499460195706
 20
166.8216864274786
 10
59.73233051926017
 20
165.4246894422864
 10
59.30899826262501
 20
163.9430184696208
 10
59.05499783205158
 20
162.4190158861802
 10
58.97032922753986
 20
160.8950133027396
 10
59.05499783205158
 20
159.3710214852223
 10
59.30899826262501
 20
157.8470189017817
 10
59.73233051926017
 20
156.3653479291161
 10
60.32499460195706
 20
154.9683509439239
 10
61.04466428290235
 20
153.6136855695067
 10
61.93366040694769
 20
152.3436834166395
 10
62.94966212924143
 20
151.2006868620208
 10
64.09266406682188
 20
150.184685139727
 10
65.36266083672737
 20
149.2956890156817
 10
66.71733159410625
 20
148.5760193347364
 10
68.11432857929846
 20
147.9833552520395
 10
69.59599416900236
 20
147.5600176124427
 10
71.11999675244298
 20
147.3060171818692
 10
72.64399395292191
 20
147.2213539603192
 10
74.16799653636252
 20
147.3060171818692
 10
75.69199373684144
 20
147.5600176124427
 10
77.17366470950704
 20
147.9833552520395
 10
78.57066169469923
 20
148.5760193347364
 10
79.92532706911643
 20
149.2956890156817
 10
81.19532922198361
 20
150.184685139727
 10
82.33833115956407
 20
151.2006868620208
 10
83.35432749889612
 20
152.3436834166395
 10
84.24332900590314
 20
153.6136855695067
 10
84.96299330388675
 20
154.9683509439239
 10
85.55566276954534
 20
156.3653479291161
 10
85.9789950261805
 20
157.8470189017817
 10
86.23299545675392
 20
159.3710214852223
  0
LWPOLYLINE
  5
84
330
70
100
AcDbEntity
  8
Capa 1
 62
    18
420
        0
370
     9
100
AcDbPolyline
 90
        3
 70
     0
 43
0.0
 10
64.00799546231017
 20
171.5206890101254
 10
62.69566169866799
 20
170.3353500788083
 10
61.59499675482424
 20
168.9806847043911
  0
LWPOLYLINE
  5
85
330
70
100
AcDbEntity
  8
Capa 1
 62
    18
420
        0
370
     9
100
AcDbPolyline
 90
        5
 70
     0
 43
0.0
 10
70.35799546072268
 20
174.3993462020599
 10
68.74932965573205
 20
174.0183509391614
 10
67.14066385074142
 20
173.4256868564645
 10
65.65899826103751
 20
172.6636855647442
 10
64.26199589288362
 20
171.7323470640005
  0
LWPOLYLINE
  5
86
330
70
100
AcDbEntity
  8
Capa 1
 62
    18
420
        0
370
     9
100
AcDbPolyline
 90
       10
 70
     0
 43
0.0
 10
59.73233051926017
 20
165.4246894422864
 10
59.30899826262501
 20
163.9430184696208
 10
59.05499783205158
 20
162.4190158861802
 10
58.97032922753986
 20
160.8526816919645
 10
59.05499783205158
 20
159.2863474977489
 10
59.30899826262501
 20
157.7623556802317
 10
59.77466213003517
 20
156.2806847075661
 10
60.36733159569376
 20
154.8413561115989
 10
61.12932750445237
 20
153.4866799712583
 10
62.0606606222344
 20
152.2166885843145
  0
LWPOLYLINE
  5
87
330
70
100
AcDbEntity
  8
Capa 1
 62
    18
420
        0
370
     9
100
AcDbPolyline
 90
       31
 70
     1
 43
0.0
 10
127.3386636203734
 20
185.7023384477693
 10
127.4656584526985
 20
185.7023384477693
 10
127.5926532850235
 20
185.6600068369943
 10
127.7196588832719
 20
185.5753436154443
 10
127.8043221048219
 20
185.4906803938942
 10
127.8889960922953
 20
185.4060171723442
 10
127.9313277030703
 20
185.2790223400192
 10
127.9736593138453
 20
185.1943375866224
 10
127.9736593138453
 20
135.2833552552145
 10
127.9313277030703
 20
135.1563496569661
 10
127.8466537155969
 20
135.0293548246411
 10
127.7619904940469
 20
134.9446808371677
 10
127.6773272724969
 20
134.8600176156177
 10
127.5503216742485
 20
134.8176860048426
 10
127.4656584526985
 20
134.8176860048426
 10
127.3386636203734
 20
134.7753543940676
 10
48.64099632742579
 20
134.7753543940676
 10
48.51399611213908
 20
134.8176860048426
 10
48.34466428607735
 20
134.8600176156177
 10
48.25999568156564
 20
134.9023492263927
 10
48.13299546627892
 20
135.0293548246411
 10
48.09066385550392
 20
135.1140180461911
 10
48.04833224472891
 20
135.1986812677411
 10
48.00599525099221
 20
135.3256868659895
 10
48.00599525099221
 20
185.1943375866224
 10
48.04833224472891
 20
185.3213539507942
 10
48.13299546627892
 20
185.4483487831192
 10
48.21766407079064
 20
185.5330120046692
 10
48.30232729234065
 20
185.6176752262193
 10
48.38699589685236
 20
185.6600068369943
 10
48.51399611213908
 20
185.7023384477693
  0
LWPOLYLINE
  5
88
330
70
100
AcDbEntity
  8
Capa 1
 62
    18
420
        0
370
     9
100
AcDbPolyline
 90
      143
 70
     0
 43
0.0
 10
58.29299654033126
 20
160.8950133027396
 10
58.29299654033126
 20
161.3183509423364
 10
58.33532815110627
 20
161.4876881513598
 10
58.33532815110627
 20
161.9110150250333
 10
58.37766514484298
 20
162.0803522340567
 10
58.37766514484298
 20
162.4613474969552
 10
58.41999675561798
 20
162.6730163167536
 10
58.41999675561798
 20
162.842353525777
 10
58.46232836639299
 20
163.0116799688771
 10
58.50465997716799
 20
163.1810171779005
 10
58.50465997716799
 20
163.3503543869239
 10
58.5469969709047
 20
163.5196808300239
 10
58.58932858167971
 20
163.6890180390473
 10
58.63166019245472
 20
163.8583552480707
 10
58.71632879696643
 20
164.1970189001942
 10
58.75866040774144
 20
164.5356825523177
 10
58.88566062302815
 20
164.8743462044411
 10
58.97032922753986
 20
165.213020622488
 10
59.05499783205158
 20
165.5093526638364
 10
59.18199804733829
 20
165.8480163159599
 10
59.30899826262501
 20
166.1866799680833
 10
59.43599847791173
 20
166.4830227753551
 10
59.56299331023675
 20
166.8216864274786
 10
59.73233051926017
 20
167.118018468827
 10
59.90166234532189
 20
167.4143505101755
 10
60.02866256060862
 20
167.7530141622989
 10
60.19799438667034
 20
168.0493462036474
 10
60.40966320646877
 20
168.3456890109192
 10
60.57899503253049
 20
168.6420210522676
 10
60.74832685859221
 20
168.9383530936161
 10
60.95999567839065
 20
169.1923535241895
 10
61.17166449818907
 20
169.488685565538
 10
61.38332793502581
 20
169.7426859961114
 10
61.59499675482424
 20
170.0390180374598
 10
61.80666019166096
 20
170.2930184680333
 10
62.0606606222344
 20
170.5470188986067
 10
62.27232944203283
 20
170.8010193291802
 10
62.52632987260627
 20
171.0550197597536
 10
62.7803303031797
 20
171.309020190327
 10
63.03433073375313
 20
171.5206890101254
 10
63.28833116432657
 20
171.7323470640005
 10
63.54233159490001
 20
171.9863474945739
 10
63.79632664251175
 20
172.1980163143724
 10
64.09266406682188
 20
172.4096851341708
 10
64.38899610817033
 20
172.6213539539692
 10
64.64299653874377
 20
172.7906803970692
 10
64.93932858009221
 20
173.0023492168677
 10
65.23566062144066
 20
173.1716864258911
 10
65.53199804575079
 20
173.3410128689911
 10
65.82833008709923
 20
173.5103500780145
 10
66.12466212844768
 20
173.6796872870379
 10
66.46333116353282
 20
173.806682119363
 10
66.75966320488126
 20
173.9760193283864
 10
67.09832685700472
 20
174.1030141607114
 10
67.39466428131485
 20
174.2300197589598
 10
67.7333279334383
 20
174.3570145912849
 10
68.02965997478676
 20
174.4840201895333
 10
68.36832900987189
 20
174.5686834110833
 10
68.70699804495704
 20
174.6956890093317
 10
69.04566169708049
 20
174.7803522308817
 10
69.38433073216564
 20
174.8650154524317
 10
69.72299438428909
 20
174.9496786739817
 10
70.06166341937424
 20
174.9920210506801
 10
70.40032707149769
 20
175.0343526614552
 10
70.73899610658283
 20
175.1190158830052
 10
71.07765975870629
 20
175.1613474937802
 10
71.41632879379142
 20
175.1613474937802
 10
71.75499782887657
 20
175.2036791045552
 10
72.09366148100002
 20
175.2036791045552
 10
72.47466212686018
 20
175.2460214812536
 10
72.81333116194533
 20
175.2460214812536
 10
73.15199481406877
 20
175.2036791045552
 10
73.82932750127737
 20
175.2036791045552
 10
74.16799653636252
 20
175.1613474937802
 10
74.50666018848597
 20
175.1190158830052
 10
74.84532922357111
 20
175.0766842722302
 10
75.22632986943126
 20
174.9920210506801
 10
75.56499352155471
 20
174.9496786739817
 10
75.86133094586486
 20
174.8650154524317
 10
76.1999945979883
 20
174.7803522308817
 10
76.53866363307345
 20
174.6956890093317
 10
76.8773272851969
 20
174.6110150218583
 10
77.21599632028205
 20
174.4840201895333
 10
77.5546599724055
 20
174.3570145912849
 10
77.85099739671564
 20
174.2300197589598
 10
78.18966104883909
 20
174.1030141607114
 10
78.48599309018753
 20
173.9760193283864
 10
78.82466212527268
 20
173.849013730138
 10
79.12099416662112
 20
173.6796872870379
 10
79.41732620796956
 20
173.5103500780145
 10
79.7136636322797
 20
173.3410128689911
 10
80.00999567362816
 20
173.1716864258911
 10
80.30632771497659
 20
173.0023492168677
 10
80.60265975632503
 20
172.8330227737676
 10
80.89899718063518
 20
172.6213539539692
 10
81.19532922198361
 20
172.4096851341708
 10
81.44932965255705
 20
172.1980163143724
 10
81.70333008313049
 20
171.9863474945739
 10
81.99966212447893
 20
171.7746894406989
 10
82.25366255505235
 20
171.5630206209005
 10
82.50766298562579
 20
171.309020190327
 10
82.76166341619925
 20
171.0550197597536
 10
82.97332685303597
 20
170.8433509399552
 10
83.22732728360939
 20
170.5893505093817
 10
83.43899610340782
 20
170.2930184680333
 10
83.69299653398128
 20
170.0390180374598
 10
83.904659970818
 20
169.7850176068864
 10
84.11632879061643
 20
169.488685565538
 10
84.32799761041485
 20
169.2346851349645
 10
84.49732943647658
 20
168.9383530936161
 10
84.70899287331333
 20
168.6420210522676
 10
84.87833008233673
 20
168.3456890109192
 10
85.04766190839847
 20
168.0493462036474
 10
85.21699373446018
 20
167.7530141622989
 10
85.38633094348361
 20
167.4566821209505
 10
85.55566276954534
 20
167.1603500796021
 10
85.68266298483205
 20
166.8216864274786
 10
85.85199481089377
 20
166.5253543861302
 10
85.9789950261805
 20
166.1866799680833
 10
86.0636636306922
 20
165.8903479267348
 10
86.19066384597891
 20
165.5516842746114
 10
86.23299545675392
 20
165.4246894422864
 10
86.31766406126564
 20
165.2553522332629
 10
86.35999567204065
 20
165.0860150242396
 10
86.40232728281565
 20
164.9166885811395
 10
86.44466427655236
 20
164.7473513721161
 10
86.48699588732737
 20
164.5780141630927
 10
86.52932749810238
 20
164.4086877199927
 10
86.57166449183907
 20
164.1970189001942
 10
86.61399610261408
 20
164.0276816911708
 10
86.65632771338909
 20
163.8583552480707
 10
86.6986647071258
 20
163.6466864282724
 10
86.74099631790079
 20
163.4773492192489
 10
86.7833279286758
 20
163.2656803994505
 10
86.82565953945081
 20
163.0963539563505
 10
86.82565953945081
 20
162.884685136552
 10
86.86799653318752
 20
162.6730163167536
 10
86.91032814396253
 20
162.4613474969552
 10
86.91032814396253
 20
162.2496894430802
 10
86.95265975473754
 20
162.0380206232817
 10
86.95265975473754
 20
161.3606825531114
 10
86.99499674847423
 20
161.149013733313
 10
86.99499674847423
 20
160.8950133027396
  0
LWPOLYLINE
  5
89
330
70
100
AcDbEntity
  8
Capa 1
 62
    18
420
        0
370
     9
100
AcDbPolyline
 90
      121
 70
     0
 43
0.0
 10
97.07032383505318
 20
159.2863474977489
 10
97.07032383505318
 20
159.8790223463692
 10
97.11265544582818
 20
160.1753543877177
 10
97.15498705660319
 20
160.4293548182911
 10
97.15498705660319
 20
160.7256868596395
 10
97.19732943330159
 20
161.022018900988
 10
97.28199265485159
 20
161.2760193315614
 10
97.3243242656266
 20
161.5723513729099
 10
97.40898748717661
 20
161.8263518034833
 10
97.45132986387503
 20
162.1226838448317
 10
97.53599308542504
 20
162.3766842754052
 10
97.62065630697506
 20
162.6730163167536
 10
97.74766190522347
 20
162.927016747327
 10
97.83232512677349
 20
163.1810171779005
 10
97.95933072502188
 20
163.4773492192489
 10
98.08632555734691
 20
163.7313496498224
 10
98.21332038967193
 20
163.9853500803958
 10
98.34032598792035
 20
164.2393505109692
 10
98.46732082024537
 20
164.4510193307677
 10
98.63665802926879
 20
164.7050197613411
 10
98.76366362751721
 20
164.9590201919146
 10
98.93299007061724
 20
165.1706890117129
 10
99.10232727964066
 20
165.4246894422864
 10
99.27165372274068
 20
165.6363474961614
 10
99.44099093176411
 20
165.8480163159599
 10
99.61032814078754
 20
166.0596851357583
 10
99.82199696058595
 20
166.2713539555567
 10
100.033655014461
 20
166.4830227753551
 10
100.2029922234844
 20
166.6946808292302
 10
100.4146610432828
 20
166.9063496490286
 10
100.6263298630812
 20
167.075686858052
 10
100.8379879169563
 20
167.2450133011521
 10
101.0919883475297
 20
167.4566821209505
 10
101.3036571673281
 20
167.6260193299739
 10
101.5576575979016
 20
167.7530141622989
 10
101.7693264177
 20
167.9223513713224
 10
102.0233268482734
 20
168.0916885803458
 10
102.2773272788469
 20
168.2186834126708
 10
102.4889960986453
 20
168.3456890109192
 10
102.7429965292187
 20
168.4726838432442
 10
102.9969969597922
 20
168.5996894414927
 10
103.2933290011406
 20
168.7266842738177
 10
103.5473294317141
 20
168.8536791061427
 10
103.8013298622875
 20
168.9383530936161
 10
104.0553302928609
 20
169.0230163151661
 10
104.3516623342094
 20
169.1076795367161
 10
104.6056627647828
 20
169.1923535241895
 10
104.9019948061312
 20
169.2770167457395
 10
105.1559952367047
 20
169.3616799672895
 10
105.4523272780531
 20
169.4040223439879
 10
105.7063277086266
 20
169.446353954763
 10
106.002659749975
 20
169.488685565538
 10
106.2989917913234
 20
169.531017176313
 10
106.5529922218969
 20
169.531017176313
 10
106.8493242632453
 20
169.573348787088
 10
107.9923208178641
 20
169.573348787088
 10
108.2886636251359
 20
169.531017176313
 10
108.5426640557094
 20
169.531017176313
 10
108.8389960970578
 20
169.488685565538
 10
109.1353281384062
 20
169.446353954763
 10
109.3893285689797
 20
169.3616799672895
 10
109.6856606103281
 20
169.3193483565146
 10
109.9396610409016
 20
169.2346851349645
 10
110.23599308225
 20
169.1923535241895
 10
110.4899935128234
 20
169.1076795367161
 10
110.7863255541719
 20
168.9806847043911
 10
111.0403259847453
 20
168.8960214828411
 10
111.2943264153188
 20
168.8113474953677
 10
111.5483268458922
 20
168.6843526630427
 10
111.8023272764656
 20
168.5573470647943
 10
112.0563277070391
 20
168.4303522324692
 10
112.3103281376125
 20
168.3033466342208
 10
112.5643285681859
 20
168.1763518018958
 10
112.8183289987594
 20
168.0070145928724
 10
113.0723294293328
 20
167.8800197605473
 10
113.2839874832078
 20
167.7106825515239
 10
113.5379879137813
 20
167.5413561084239
 10
113.7496567335797
 20
167.3720188994005
 10
113.9613255533781
 20
167.202681690377
 10
114.1729943731766
 20
166.9910128705786
 10
114.384663192975
 20
166.8216864274786
 10
114.59632124685
 20
166.6100176076802
 10
114.7656584558734
 20
166.4406803986567
 10
114.9773272756719
 20
166.2290223447817
 10
115.1466537187719
 20
166.0596851357583
 10
115.3159909277953
 20
165.8480163159599
 10
115.4853281368187
 20
165.6363474961614
 10
115.6123229691438
 20
165.4246894422864
 10
115.7816601781672
 20
165.2553522332629
 10
115.9086550104922
 20
165.0436834134645
 10
116.0356606087406
 20
164.8320145936661
 10
116.1626554410656
 20
164.6626881505661
 10
116.2896610393141
 20
164.4510193307677
 10
116.3743242608641
 20
164.2393505109692
 10
116.5013298591125
 20
164.0700133019458
 10
116.5859930806625
 20
163.8583552480707
 10
116.6706563022125
 20
163.6890180390473
 10
116.7553302896859
 20
163.4773492192489
 10
116.8399935112359
 20
163.3080227761489
 10
116.924656732786
 20
163.1386855671255
 10
117.009319954336
 20
162.927016747327
 10
117.0516623310344
 20
162.7576795383036
 10
117.1363255525844
 20
162.5883530952036
 10
117.1786571633594
 20
162.4190158861802
 10
117.2209887741344
 20
162.2496894430802
 10
117.2633203849094
 20
162.0803522340567
 10
117.3056627616078
 20
161.9110150250333
 10
117.3479943723828
 20
161.7416885819333
 10
117.3903259831578
 20
161.5723513729099
 10
117.4326575939328
 20
161.4453457746614
 10
117.4749892047078
 20
161.2760193315614
 10
117.5173208154828
 20
161.106682122538
 10
117.5173208154828
 20
160.979687290213
 10
117.5596631921812
 20
160.8103500811895
 10
117.5596631921812
 20
160.6833552488645
 10
117.6019948029563
 20
160.5140180398411
 10
117.6019948029563
 20
160.3870124415927
 10
117.6443264137313
 20
160.2176859984926
 10
117.6443264137313
 20
159.5403479283224
 10
117.6866580245063
 20
159.4133530959974
 10
117.6866580245063
 20
159.2863474977489
  0
LWPOLYLINE
  5
8A
330
70
100
AcDbEntity
  8
Capa 1
 62
    18
420
        0
370
     9
100
AcDbPolyline
 90
        3
 70
     0
 43
0.0
 10
48.64099632742579
 20
186.0410128658161
 10
127.3386636203734
 20
186.0410128658161
 10
127.3386636203734
 20
185.7023384477693
  0
LINE
  5
8B
330
70
100
AcDbEntity
  8
Capa 1
 62
    18
420
        0
370
     9
100
AcDbLine
 10
48.64099632742579
 20
186.0410128658161
 30
0.0
 11
48.64099632742579
 21
185.7023384477693
 31
0.0
  0
LWPOLYLINE
  5
8C
330
70
100
AcDbEntity
  8
Capa 1
 62
    18
420
        0
370
     9
100
AcDbPolyline
 90
        3
 70
     0
 43
0.0
 10
127.3386636203734
 20
134.4790223527192
 10
48.64099632742579
 20
134.4790223527192
 10
48.64099632742579
 20
134.7753543940676
  0
LINE
  5
8D
330
70
100
AcDbEntity
  8
Capa 1
 62
    18
420
        0
370
     9
100
AcDbLine
 10
127.3386636203734
 20
134.4790223527192
 30
0.0
 11
127.3386636203734
 21
134.7753543940676
 31
0.0
  0
LWPOLYLINE
  5
8E
330
70
100
AcDbEntity
  8
Capa 1
 62
    18
420
        0
370
     9
100
AcDbPolyline
 90
        3
 70
     0
 43
0.0
 10
47.66733159886875
 20
135.4526816983145
 10
47.66733159886875
 20
185.0673427542974
 10
48.00599525099221
 20
185.0673427542974
  0
LINE
  5
8F
330
70
100
AcDbEntity
  8
Capa 1
 62
    18
420
        0
370
     9
100
AcDbLine
 10
47.66733159886875
 20
135.4526816983145
 30
0.0
 11
48.00599525099221
 21
135.4526816983145
 31
0.0
  0
LWPOLYLINE
  5
90
330
70
100
AcDbEntity
  8
Capa 1
 62
    18
420
        0
370
     9
100
AcDbPolyline
 90
        3
 70
     0
 43
0.0
 10
128.3123229659688
 20
185.0673427542974
 10
128.3123229659688
 20
135.4526816983145
 10
127.9736593138453
 20
135.4526816983145
  0
LINE
  5
91
330
70
100
AcDbEntity
  8
Capa 1
 62
    18
420
        0
370
     9
100
AcDbLine
 10
128.3123229659688
 20
185.0673427542974
 30
0.0
 11
127.9736593138453
 21
185.0673427542974
 31
0.0
  0
LWPOLYLINE
  5
92
330
70
100
AcDbEntity
  8
Capa 1
 62
    18
420
        0
370
     9
100
AcDbPolyline
 90
        9
 70
     0
 43
0.0
 10
48.64099632742579
 20
134.4790223527192
 10
48.42932750762737
 20
134.4790223527192
 10
48.25999568156564
 20
134.5213539634942
 10
48.09066385550392
 20
134.6483487958192
 10
47.96366364021721
 20
134.7330227832926
 10
47.83666342493048
 20
134.9023492263927
 10
47.75199482041877
 20
135.0716864354161
 10
47.70966320964376
 20
135.2410128785161
 10
47.66733159886875
 20
135.4526816983145
  0
LWPOLYLINE
  5
93
330
70
100
AcDbEntity
  8
Capa 1
 62
    18
420
        0
370
     9
100
AcDbPolyline
 90
        9
 70
     0
 43
0.0
 10
47.66733159886875
 20
185.0673427542974
 10
47.70966320964376
 20
185.2366691973974
 10
47.75199482041877
 20
185.4483487831192
 10
47.83666342493048
 20
185.6176752262193
 10
47.96366364021721
 20
185.7446700585443
 10
48.09066385550392
 20
185.8716864227161
 10
48.25999568156564
 20
185.9563496442661
 10
48.42932750762737
 20
185.9986812550411
 10
48.64099632742579
 20
186.0410128658161
  0
LWPOLYLINE
  5
94
330
70
100
AcDbEntity
  8
Capa 1
 62
    18
420
        0
370
     9
100
AcDbPolyline
 90
        9
 70
     0
 43
0.0
 10
127.3386636203734
 20
186.0410128658161
 10
127.5079900634735
 20
185.9986812550411
 10
127.7196588832719
 20
185.9563496442661
 10
127.8889960922953
 20
185.8716864227161
 10
128.0159909246203
 20
185.7446700585443
 10
128.1429965228688
 20
185.6176752262193
 10
128.2276597444188
 20
185.4483487831192
 10
128.2699913551938
 20
185.2366691973974
 10
128.3123229659688
 20
185.0673427542974
  0
LWPOLYLINE
  5
95
330
70
100
AcDbEntity
  8
Capa 1
 62
    18
420
        0
370
     9
100
AcDbPolyline
 90
        9
 70
     0
 43
0.0
 10
128.3123229659688
 20
135.4526816983145
 10
128.2699913551938
 20
135.2410128785161
 10
128.2276597444188
 20
135.0716864354161
 10
128.1429965228688
 20
134.9023492263927
 10
128.0159909246203
 20
134.7330227832926
 10
127.8889960922953
 20
134.6483487958192
 10
127.7196588832719
 20
134.5213539634942
 10
127.5079900634735
 20
134.4790223527192
 10
127.3386636203734
 20
134.4790223527192
  0
LINE
  5
96
330
70
100
AcDbEntity
  8
Capa 1
 62
    18
420
        0
370
     9
100
AcDbLine
 10
48.59866471665079
 20
134.3943483652458
 30
0.0
 11
48.64099632742579
 21
134.4790223527192
 31
0.0
  0
LWPOLYLINE
  5
97
330
70
100
AcDbEntity
  8
Capa 1
 62
    18
420
        0
370
     9
100
AcDbPolyline
 90
        9
 70
     0
 43
0.0
 10
47.62499460513206
 20
135.3680184767645
 10
47.62499460513206
 20
135.1986812677411
 10
47.70966320964376
 20
134.9870232138661
 10
47.79433181415547
 20
134.8600176156177
 10
47.87899503570549
 20
134.6906804065942
 10
48.04833224472891
 20
134.5636855742692
 10
48.21766407079064
 20
134.4790223527192
 10
48.38699589685236
 20
134.4366799760208
 10
48.59866471665079
 20
134.3943483652458
  0
SPLINE
  5
98
330
70
100
AcDbEntity
  8
Capa 1
 62
    18
420
        0
370
     9
100
AcDbSpline
210
0.0
220
0.0
230
1.0
 70
    24
 71
     3
 72
     8
 73
     4
 74
     0
 42
0.0000000001
 43
0.0000000001
 40
0.0
 40
0.0
 40
0.0
 40
0.0
 40
1.0
 40
1.0
 40
1.0
 40
1.0
 10
47.62499460513206
 20
135.3680184767645
 30
0.0
 10
47.62499460513206
 20
135.3680184767645
 30
0.0
 10
47.66733159886875
 20
135.4526816983145
 30
0.0
 10
47.66733159886875
 20
135.4526816983145
 30
0.0
  0
SPLINE
  5
99
330
70
100
AcDbEntity
  8
Capa 1
 62
    18
420
        0
370
     9
100
AcDbSpline
210
0.0
220
0.0
230
1.0
 70
    24
 71
     3
 72
     8
 73
     4
 74
     0
 42
0.0000000001
 43
0.0000000001
 40
0.0
 40
0.0
 40
0.0
 40
0.0
 40
1.0
 40
1.0
 40
1.0
 40
1.0
 10
47.62499460513206
 20
185.1096743650724
 30
0.0
 10
47.62499460513206
 20
185.1096743650724
 30
0.0
 10
47.66733159886875
 20
185.0673427542974
 30
0.0
 10
47.66733159886875
 20
185.0673427542974
 30
0.0
  0
LWPOLYLINE
  5
9A
330
70
100
AcDbEntity
  8
Capa 1
 62
    18
420
        0
370
     9
100
AcDbPolyline
 90
        9
 70
     0
 43
0.0
 10
48.59866471665079
 20
186.0833444765911
 10
48.38699589685236
 20
186.0833444765911
 10
48.21766407079064
 20
185.9986812550411
 10
48.04833224472891
 20
185.9140180334911
 10
47.87899503570549
 20
185.7870016693193
 10
47.79433181415547
 20
185.6600068369943
 10
47.70966320964376
 20
185.4906803938942
 10
47.62499460513206
 20
185.3213539507942
 10
47.62499460513206
 20
185.1096743650724
  0
SPLINE
  5
9B
330
70
100
AcDbEntity
  8
Capa 1
 62
    18
420
        0
370
     9
100
AcDbSpline
210
0.0
220
0.0
230
1.0
 70
    24
 71
     3
 72
     8
 73
     4
 74
     0
 42
0.0000000001
 43
0.0000000001
 40
0.0
 40
0.0
 40
0.0
 40
0.0
 40
1.0
 40
1.0
 40
1.0
 40
1.0
 10
48.59866471665079
 20
186.0833444765911
 30
0.0
 10
48.59866471665079
 20
186.0833444765911
 30
0.0
 10
48.64099632742579
 20
186.0410128658161
 30
0.0
 10
48.64099632742579
 20
186.0410128658161
 30
0.0
  0
SPLINE
  5
9C
330
70
100
AcDbEntity
  8
Capa 1
 62
    18
420
        0
370
     9
100
AcDbSpline
210
0.0
220
0.0
230
1.0
 70
    24
 71
     3
 72
     8
 73
     4
 74
     0
 42
0.0000000001
 43
0.0000000001
 40
0.0
 40
0.0
 40
0.0
 40
0.0
 40
1.0
 40
1.0
 40
1.0
 40
1.0
 10
127.3809952311484
 20
186.0833444765911
 30
0.0
 10
127.3809952311484
 20
186.0833444765911
 30
0.0
 10
127.3386636203734
 20
186.0410128658161
 30
0.0
 10
127.3386636203734
 20
186.0410128658161
 30
0.0
  0
LWPOLYLINE
  5
9D
330
70
100
AcDbEntity
  8
Capa 1
 62
    18
420
        0
370
     9
100
AcDbPolyline
 90
        9
 70
     0
 43
0.0
 10
128.3546545767438
 20
185.1096743650724
 10
128.3546545767438
 20
185.3213539507942
 10
128.2699913551938
 20
185.4906803938942
 10
128.1853281336437
 20
185.6600068369943
 10
128.0583225353953
 20
185.7870016693193
 10
127.9313277030703
 20
185.9140180334911
 10
127.7619904940469
 20
185.9986812550411
 10
127.5926532850235
 20
186.0833444765911
 10
127.3809952311484
 20
186.0833444765911
  0
SPLINE
  5
9E
330
70
100
AcDbEntity
  8
Capa 1
 62
    18
420
        0
370
     9
100
AcDbSpline
210
0.0
220
0.0
230
1.0
 70
    24
 71
     3
 72
     8
 73
     4
 74
     0
 42
0.0000000001
 43
0.0000000001
 40
0.0
 40
0.0
 40
0.0
 40
0.0
 40
1.0
 40
1.0
 40
1.0
 40
1.0
 10
128.3546545767438
 20
185.1096743650724
 30
0.0
 10
128.3546545767438
 20
185.1096743650724
 30
0.0
 10
128.3123229659688
 20
185.0673427542974
 30
0.0
 10
128.3123229659688
 20
185.0673427542974
 30
0.0
  0
SPLINE
  5
9F
330
70
100
AcDbEntity
  8
Capa 1
 62
    18
420
        0
370
     9
100
AcDbSpline
210
0.0
220
0.0
230
1.0
 70
    24
 71
     3
 72
     8
 73
     4
 74
     0
 42
0.0000000001
 43
0.0000000001
 40
0.0
 40
0.0
 40
0.0
 40
0.0
 40
1.0
 40
1.0
 40
1.0
 40
1.0
 10
128.3546545767438
 20
135.3680184767645
 30
0.0
 10
128.3546545767438
 20
135.3680184767645
 30
0.0
 10
128.3123229659688
 20
135.4526816983145
 30
0.0
 10
128.3123229659688
 20
135.4526816983145
 30
0.0
  0
LWPOLYLINE
  5
A0
330
70
100
AcDbEntity
  8
Capa 1
 62
    18
420
        0
370
     9
100
AcDbPolyline
 90
        9
 70
     0
 43
0.0
 10
127.3809952311484
 20
134.3943483652458
 10
127.5926532850235
 20
134.4366799760208
 10
127.7619904940469
 20
134.4790223527192
 10
127.9313277030703
 20
134.5636855742692
 10
128.0583225353953
 20
134.6906804065942
 10
128.1853281336437
 20
134.8600176156177
 10
128.2699913551938
 20
134.9870232138661
 10
128.3546545767438
 20
135.1986812677411
 10
128.3546545767438
 20
135.3680184767645
  0
LWPOLYLINE
  5
A1
330
70
100
AcDbEntity
  8
Capa 1
 62
    18
420
        0
370
     9
100
AcDbPolyline
 90
        3
 70
     0
 43
0.0
 10
127.3386636203734
 20
134.4790223527192
 10
127.3809952311484
 20
134.3943483652458
 10
48.59866471665079
 20
134.3943483652458
  0
SPLINE
  5
A2
330
70
100
AcDbEntity
  8
Capa 1
 62
    18
420
        0
370
     9
100
AcDbSpline
210
0.0
220
0.0
230
1.0
 70
    24
 71
     3
 72
     8
 73
     4
 74
     0
 42
0.0000000001
 43
0.0000000001
 40
0.0
 40
0.0
 40
0.0
 40
0.0
 40
1.0
 40
1.0
 40
1.0
 40
1.0
 10
127.3809952311484
 20
186.0833444765911
 30
0.0
 10
127.3809952311484
 20
186.0833444765911
 30
0.0
 10
48.59866471665079
 20
186.0833444765911
 30
0.0
 10
48.59866471665079
 20
186.0833444765911
 30
0.0
  0
SPLINE
  5
A3
330
70
100
AcDbEntity
  8
Capa 1
 62
    18
420
        0
370
     9
100
AcDbSpline
210
0.0
220
0.0
230
1.0
 70
    24
 71
     3
 72
     8
 73
     4
 74
     0
 42
0.0000000001
 43
0.0000000001
 40
0.0
 40
0.0
 40
0.0
 40
0.0
 40
1.0
 40
1.0
 40
1.0
 40
1.0
 10
47.62499460513206
 20
185.1096743650724
 30
0.0
 10
47.62499460513206
 20
185.1096743650724
 30
0.0
 10
47.62499460513206
 20
135.3680184767645
 30
0.0
 10
47.62499460513206
 20
135.3680184767645
 30
0.0
  0
SPLINE
  5
A4
330
70
100
AcDbEntity
  8
Capa 1
 62
    18
420
        0
370
     9
100
AcDbSpline
210
0.0
220
0.0
230
1.0
 70
    24
 71
     3
 72
     8
 73
     4
 74
     0
 42
0.0000000001
 43
0.0000000001
 40
0.0
 40
0.0
 40
0.0
 40
0.0
 40
1.0
 40
1.0
 40
1.0
 40
1.0
 10
128.3546545767438
 20
135.3680184767645
 30
0.0
 10
128.3546545767438
 20
135.3680184767645
 30
0.0
 10
128.3546545767438
 20
185.1096743650724
 30
0.0
 10
128.3546545767438
 20
185.1096743650724
 30
0.0
  0
SPLINE
  5
A5
330
70
100
AcDbEntity
  8
Capa 1
 62
    18
420
        0
370
     9
100
AcDbSpline
210
0.0
220
0.0
230
1.0
 70
    24
 71
     3
 72
     8
 73
     4
 74
     0
 42
0.0000000001
 43
0.0000000001
 40
0.0
 40
0.0
 40
0.0
 40
0.0
 40
1.0
 40
1.0
 40
1.0
 40
1.0
 10
127.3809952311484
 20
186.0833444765911
 30
0.0
 10
127.3809952311484
 20
186.0833444765911
 30
0.0
 10
127.4233268419235
 20
186.0833444765911
 30
0.0
 10
127.4233268419235
 20
186.0833444765911
 30
0.0
  0
SPLINE
  5
A6
330
70
100
AcDbEntity
  8
Capa 1
 62
    18
420
        0
370
     9
100
AcDbSpline
210
0.0
220
0.0
230
1.0
 70
    24
 71
     3
 72
     8
 73
     4
 74
     0
 42
0.0000000001
 43
0.0000000001
 40
0.0
 40
0.0
 40
0.0
 40
0.0
 40
1.0
 40
1.0
 40
1.0
 40
1.0
 10
128.3546545767438
 20
185.1096743650724
 30
0.0
 10
128.3546545767438
 20
185.1096743650724
 30
0.0
 10
128.3969969534422
 20
185.1096743650724
 30
0.0
 10
128.3969969534422
 20
185.1096743650724
 30
0.0
  0
SPLINE
  5
A7
330
70
100
AcDbEntity
  8
Capa 1
 62
    18
420
        0
370
     9
100
AcDbSpline
210
0.0
220
0.0
230
1.0
 70
    24
 71
     3
 72
     8
 73
     4
 74
     0
 42
0.0000000001
 43
0.0000000001
 40
0.0
 40
0.0
 40
0.0
 40
0.0
 40
1.0
 40
1.0
 40
1.0
 40
1.0
 10
47.62499460513206
 20
185.1096743650724
 30
0.0
 10
47.62499460513206
 20
185.1096743650724
 30
0.0
 10
47.66733159886875
 20
185.1096743650724
 30
0.0
 10
47.66733159886875
 20
185.1096743650724
 30
0.0
  0
SPLINE
  5
A8
330
70
100
AcDbEntity
  8
Capa 1
 62
    18
420
        0
370
     9
100
AcDbSpline
210
0.0
220
0.0
230
1.0
 70
    24
 71
     3
 72
     8
 73
     4
 74
     0
 42
0.0000000001
 43
0.0000000001
 40
0.0
 40
0.0
 40
0.0
 40
0.0
 40
1.0
 40
1.0
 40
1.0
 40
1.0
 10
48.59866471665079
 20
186.0833444765911
 30
0.0
 10
48.59866471665079
 20
186.0833444765911
 30
0.0
 10
48.64099632742579
 20
186.0833444765911
 30
0.0
 10
48.64099632742579
 20
186.0833444765911
 30
0.0
  0
SPLINE
  5
A9
330
70
100
AcDbEntity
  8
Capa 1
 62
    18
420
        0
370
     9
100
AcDbSpline
210
0.0
220
0.0
230
1.0
 70
    24
 71
     3
 72
     8
 73
     4
 74
     0
 42
0.0000000001
 43
0.0000000001
 40
0.0
 40
0.0
 40
0.0
 40
0.0
 40
1.0
 40
1.0
 40
1.0
 40
1.0
 10
48.59866471665079
 20
134.3943483652458
 30
0.0
 10
48.59866471665079
 20
134.3943483652458
 30
0.0
 10
48.64099632742579
 20
134.3943483652458
 30
0.0
 10
48.64099632742579
 20
134.3943483652458
 30
0.0
  0
SPLINE
  5
AA
330
70
100
AcDbEntity
  8
Capa 1
 62
    18
420
        0
370
     9
100
AcDbSpline
210
0.0
220
0.0
230
1.0
 70
    24
 71
     3
 72
     8
 73
     4
 74
     0
 42
0.0000000001
 43
0.0000000001
 40
0.0
 40
0.0
 40
0.0
 40
0.0
 40
1.0
 40
1.0
 40
1.0
 40
1.0
 10
47.62499460513206
 20
135.3680184767645
 30
0.0
 10
47.62499460513206
 20
135.3680184767645
 30
0.0
 10
47.66733159886875
 20
135.3680184767645
 30
0.0
 10
47.66733159886875
 20
135.3680184767645
 30
0.0
  0
SPLINE
  5
AB
330
70
100
AcDbEntity
  8
Capa 1
 62
    18
420
        0
370
     9
100
AcDbSpline
210
0.0
220
0.0
230
1.0
 70
    24
 71
     3
 72
     8
 73
     4
 74
     0
 42
0.0000000001
 43
0.0000000001
 40
0.0
 40
0.0
 40
0.0
 40
0.0
 40
1.0
 40
1.0
 40
1.0
 40
1.0
 10
128.3546545767438
 20
135.3680184767645
 30
0.0
 10
128.3546545767438
 20
135.3680184767645
 30
0.0
 10
128.3969969534422
 20
135.3680184767645
 30
0.0
 10
128.3969969534422
 20
135.3680184767645
 30
0.0
  0
SPLINE
  5
AC
330
70
100
AcDbEntity
  8
Capa 1
 62
    18
420
        0
370
     9
100
AcDbSpline
210
0.0
220
0.0
230
1.0
 70
    24
 71
     3
 72
     8
 73
     4
 74
     0
 42
0.0000000001
 43
0.0000000001
 40
0.0
 40
0.0
 40
0.0
 40
0.0
 40
1.0
 40
1.0
 40
1.0
 40
1.0
 10
127.3809952311484
 20
134.3943483652458
 30
0.0
 10
127.3809952311484
 20
134.3943483652458
 30
0.0
 10
127.4233268419235
 20
134.3943483652458
 30
0.0
 10
127.4233268419235
 20
134.3943483652458
 30
0.0
  0
LWPOLYLINE
  5
AD
330
70
100
AcDbEntity
  8
Capa 1
 62
    18
420
        0
370
     9
100
AcDbPolyline
 90
        5
 70
     0
 43
0.0
 10
171.8309952200359
 20
140.1516842809614
 10
171.7886528433375
 20
140.2363475025114
 10
171.7039896217875
 20
140.2363475025114
 10
171.6193264002375
 20
140.2786898792098
 10
171.5769947894625
 20
140.2786898792098
  0
LWPOLYLINE
  5
AE
330
70
100
AcDbEntity
  8
Capa 1
 62
    18
420
        0
370
     9
100
AcDbPolyline
 90
        3
 70
     0
 43
0.0
 10
166.7509866085672
 20
179.860350076427
 10
166.7086549977922
 20
179.818018465652
 10
166.7086549977922
 20
179.733355244102
  0
LINE
  5
AF
330
70
100
AcDbEntity
  8
Capa 1
 62
    18
420
        0
370
     9
100
AcDbLine
 10
166.7509866085672
 20
141.8450133075021
 30
0.0
 11
166.7509866085672
 21
141.802681696727
 31
0.0
  0
LINE
  5
B0
330
70
100
AcDbEntity
  8
Capa 1
 62
    18
420
        0
370
     9
100
AcDbLine
 10
165.1423208035766
 20
141.0406804050067
 30
0.0
 11
165.22699479105
 21
141.0406804050067
 31
0.0
  0
LINE
  5
B1
330
70
100
AcDbEntity
  8
Capa 1
 62
    18
420
        0
370
     9
100
AcDbLine
 10
165.1846524143516
 20
141.0406804050067
 30
0.0
 11
165.22699479105
 21
141.0406804050067
 31
0.0
  0
LWPOLYLINE
  5
B2
330
70
100
AcDbEntity
  8
Capa 1
 62
    18
420
        0
370
     9
100
AcDbPolyline
 90
        3
 70
     0
 43
0.0
 10
165.1423208035766
 20
141.0406804050067
 10
165.0999891928016
 20
141.0830227817051
 10
165.0999891928016
 20
141.1253543924801
  0
LWPOLYLINE
  5
B3
330
70
100
AcDbEntity
  8
Capa 1
 62
    18
420
        0
370
     9
100
AcDbPolyline
 90
        5
 70
     0
 43
0.0
 10
164.9729943604766
 20
150.7350176116489
 10
164.5496567208797
 20
150.7350176116489
 10
164.5073251101047
 20
150.7773492224239
 10
164.4649934993297
 20
150.8196808331989
 10
164.4649934993297
 20
150.8620232098973
  0
LWPOLYLINE
  5
B4
330
70
100
AcDbEntity
  8
Capa 1
 62
    18
420
        0
370
     9
100
AcDbPolyline
 90
        3
 70
     0
 43
0.0
 10
165.0576575820266
 20
150.6926860008739
 10
165.0153259712516
 20
150.7350176116489
 10
164.9729943604766
 20
150.7350176116489
  0
SPLINE
  5
B5
330
70
100
AcDbEntity
  8
Capa 1
 62
    18
420
        0
370
     9
100
AcDbSpline
210
0.0
220
0.0
230
1.0
 70
    24
 71
     3
 72
     8
 73
     4
 74
     0
 42
0.0000000001
 43
0.0000000001
 40
0.0
 40
0.0
 40
0.0
 40
0.0
 40
1.0
 40
1.0
 40
1.0
 40
1.0
 10
175.3023272605906
 20
174.1876881481848
 30
0.0
 10
175.3023272605906
 20
174.1876881481848
 30
0.0
 10
175.0906584407922
 20
174.4416885787583
 30
0.0
 10
175.0906584407922
 20
174.4416885787583
 30
0.0
  0
SPLINE
  5
B6
330
70
100
AcDbEntity
  8
Capa 1
 62
    18
420
        0
370
     9
100
AcDbSpline
210
0.0
220
0.0
230
1.0
 70
    24
 71
     3
 72
     8
 73
     4
 74
     0
 42
0.0000000001
 43
0.0000000001
 40
0.0
 40
0.0
 40
0.0
 40
0.0
 40
1.0
 40
1.0
 40
1.0
 40
1.0
 10
175.0906584407922
 20
147.3483487926442
 30
0.0
 10
175.0906584407922
 20
147.3483487926442
 30
0.0
 10
175.3023272605906
 20
147.6023492232177
 30
0.0
 10
175.3023272605906
 20
147.6023492232177
 30
0.0
  0
SPLINE
  5
B7
330
70
100
AcDbEntity
  8
Capa 1
 62
    18
420
        0
370
     9
100
AcDbSpline
210
0.0
220
0.0
230
1.0
 70
    24
 71
     3
 72
     8
 73
     4
 74
     0
 42
0.0000000001
 43
0.0000000001
 40
0.0
 40
0.0
 40
0.0
 40
0.0
 40
1.0
 40
1.0
 40
1.0
 40
1.0
 10
175.3023272605906
 20
174.1876881481848
 30
0.0
 10
175.3023272605906
 20
174.1876881481848
 30
0.0
 10
175.5986593019391
 20
173.4680184672395
 30
0.0
 10
175.5986593019391
 20
173.4680184672395
 30
0.0
  0
SPLINE
  5
B8
330
70
100
AcDbEntity
  8
Capa 1
 62
    18
420
        0
370
     9
100
AcDbSpline
210
0.0
220
0.0
230
1.0
 70
    24
 71
     3
 72
     8
 73
     4
 74
     0
 42
0.0000000001
 43
0.0000000001
 40
0.0
 40
0.0
 40
0.0
 40
0.0
 40
1.0
 40
1.0
 40
1.0
 40
1.0
 10
175.5986593019391
 20
148.322018904163
 30
0.0
 10
175.5986593019391
 20
148.322018904163
 30
0.0
 10
175.3023272605906
 20
147.6023492232177
 30
0.0
 10
175.3023272605906
 20
147.6023492232177
 30
0.0
  0
SPLINE
  5
B9
330
70
100
AcDbEntity
  8
Capa 1
 62
    18
420
        0
370
     9
100
AcDbSpline
210
0.0
220
0.0
230
1.0
 70
    24
 71
     3
 72
     8
 73
     4
 74
     0
 42
0.0000000001
 43
0.0000000001
 40
0.0
 40
0.0
 40
0.0
 40
0.0
 40
1.0
 40
1.0
 40
1.0
 40
1.0
 10
175.6409909127141
 20
173.2140180366661
 30
0.0
 10
175.6409909127141
 20
173.2140180366661
 30
0.0
 10
175.5986593019391
 20
173.4680184672395
 30
0.0
 10
175.5986593019391
 20
173.4680184672395
 30
0.0
  0
LWPOLYLINE
  5
BA
330
70
100
AcDbEntity
  8
Capa 1
 62
    18
420
        0
370
     9
100
AcDbPolyline
 90
        3
 70
     0
 43
0.0
 10
175.5986593019391
 20
148.322018904163
 10
175.6409909127141
 20
148.5760193347364
 10
175.6409909127141
 20
173.2140180366661
  0
LWPOLYLINE
  5
BB
330
70
100
AcDbEntity
  8
Capa 1
 62
    18
420
        0
370
     9
100
AcDbPolyline
 90
        4
 70
     0
 43
0.0
 10
168.6559952208297
 20
152.9786898760348
 10
167.5976618877609
 20
152.9786898760348
 10
167.5129879002875
 20
152.9363474993364
 10
167.4706562895125
 20
152.8093526670114
  0
LWPOLYLINE
  5
BC
330
70
100
AcDbEntity
  8
Capa 1
 62
    18
420
        0
370
     9
100
AcDbPolyline
 90
        3
 70
     0
 43
0.0
 10
168.6559952208297
 20
150.4810171810755
 10
167.5553195110625
 20
151.1160128745474
 10
167.4706562895125
 20
151.2430184727958
  0
LWPOLYLINE
  5
BD
330
70
100
AcDbEntity
  8
Capa 1
 62
    18
420
        0
370
     9
100
AcDbPolyline
 90
        4
 70
     0
 43
0.0
 10
167.4706562895125
 20
153.8253543893052
 10
167.4706562895125
 20
153.7406804018317
 10
167.5553195110625
 20
153.6560171802817
 10
168.6559952208297
 20
153.2326795406849
  0
LWPOLYLINE
  5
BE
330
70
100
AcDbEntity
  8
Capa 1
 62
    18
420
        0
370
     9
100
AcDbPolyline
 90
        4
 70
     0
 43
0.0
 10
168.5713212333563
 20
156.3230163183411
 10
167.5976618877609
 20
156.3230163183411
 10
167.5129879002875
 20
156.2806847075661
 10
167.4706562895125
 20
156.1536791093177
  0
LWPOLYLINE
  5
BF
330
70
100
AcDbEntity
  8
Capa 1
 62
    18
420
        0
370
     9
100
AcDbPolyline
 90
        4
 70
     0
 43
0.0
 10
168.4443264010313
 20
150.6080227793239
 10
167.5976618877609
 20
150.6080227793239
 10
167.5129879002875
 20
150.5656804026255
 10
167.4706562895125
 20
150.4386855703005
  0
LWPOLYLINE
  5
C0
330
70
100
AcDbEntity
  8
Capa 1
 62
    18
420
        0
370
     9
100
AcDbPolyline
 90
        3
 70
     0
 43
0.0
 10
168.6559952208297
 20
148.279687293388
 10
167.5553195110625
 20
148.8723513760849
 10
167.4706562895125
 20
148.9993462084099
  0
SPLINE
  5
C1
330
70
100
AcDbEntity
  8
Capa 1
 62
    18
420
        0
370
     9
100
AcDbSpline
210
0.0
220
0.0
230
1.0
 70
    24
 71
     3
 72
     8
 73
     4
 74
     0
 42
0.0000000001
 43
0.0000000001
 40
0.0
 40
0.0
 40
0.0
 40
0.0
 40
1.0
 40
1.0
 40
1.0
 40
1.0
 10
167.4706562895125
 20
153.0633530975848
 30
0.0
 10
167.4706562895125
 20
153.0633530975848
 30
0.0
 10
167.5129879002875
 20
152.9363474993364
 30
0.0
 10
167.5129879002875
 20
152.9363474993364
 30
0.0
  0
SPLINE
  5
C2
330
70
100
AcDbEntity
  8
Capa 1
 62
    18
420
        0
370
     9
100
AcDbSpline
210
0.0
220
0.0
230
1.0
 70
    24
 71
     3
 72
     8
 73
     4
 74
     0
 42
0.0000000001
 43
0.0000000001
 40
0.0
 40
0.0
 40
0.0
 40
0.0
 40
1.0
 40
1.0
 40
1.0
 40
1.0
 10
168.6559952208297
 20
156.704022347163
 30
0.0
 10
168.6559952208297
 20
156.704022347163
 30
0.0
 10
165.8196588737469
 20
156.746353957938
 30
0.0
 10
165.8196588737469
 20
156.746353957938
 30
0.0
  0
LWPOLYLINE
  5
C3
330
70
100
AcDbEntity
  8
Capa 1
 62
    18
420
        0
370
     9
100
AcDbPolyline
 90
        3
 70
     0
 43
0.0
 10
165.6926532754985
 20
156.873348790263
 10
165.7349956521969
 20
156.788685568713
 10
165.8196588737469
 20
156.746353957938
  0
LWPOLYLINE
  5
C4
330
70
100
AcDbEntity
  8
Capa 1
 62
    18
420
        0
370
     9
100
AcDbPolyline
 90
        4
 70
     0
 43
0.0
 10
165.6926532754985
 20
157.0850176100614
 10
165.6503216647235
 20
157.2120124423864
 10
165.5233268323985
 20
157.2543548190848
 10
159.7236593059078
 20
157.2966864298598
  0
LINE
  5
C5
330
70
100
AcDbEntity
  8
Capa 1
 62
    18
420
        0
370
     9
100
AcDbLine
 10
159.7236593059078
 20
163.5196808300239
 30
0.0
 11
164.4649934993297
 21
163.5620124407989
 31
0.0
  0
LWPOLYLINE
  5
C6
330
70
100
AcDbEntity
  8
Capa 1
 62
    18
420
        0
370
     9
100
AcDbPolyline
 90
        3
 70
     0
 43
0.0
 10
159.5543220968844
 20
157.4660128729599
 10
159.5966537076594
 20
157.3390180406349
 10
159.7236593059078
 20
157.2966864298598
  0
LWPOLYLINE
  5
C7
330
70
100
AcDbEntity
  8
Capa 1
 62
    18
420
        0
370
     9
100
AcDbPolyline
 90
        3
 70
     0
 43
0.0
 10
159.7236593059078
 20
163.5196808300239
 10
159.5966537076594
 20
163.4773492192489
 10
159.5543220968844
 20
163.3503543869239
  0
SPLINE
  5
C8
330
70
100
AcDbEntity
  8
Capa 1
 62
    18
420
        0
370
     9
100
AcDbSpline
210
0.0
220
0.0
230
1.0
 70
    24
 71
     3
 72
     8
 73
     4
 74
     0
 42
0.0000000001
 43
0.0000000001
 40
0.0
 40
0.0
 40
0.0
 40
0.0
 40
1.0
 40
1.0
 40
1.0
 40
1.0
 10
168.6559952208297
 20
156.6616799704646
 30
0.0
 10
168.6559952208297
 20
156.6616799704646
 30
0.0
 10
168.5713212333563
 20
156.4923535273645
 30
0.0
 10
168.5713212333563
 20
156.4923535273645
 30
0.0
  0
SPLINE
  5
C9
330
70
100
AcDbEntity
  8
Capa 1
 62
    18
420
        0
370
     9
100
AcDbSpline
210
0.0
220
0.0
230
1.0
 70
    24
 71
     3
 72
     8
 73
     4
 74
     0
 42
0.0000000001
 43
0.0000000001
 40
0.0
 40
0.0
 40
0.0
 40
0.0
 40
1.0
 40
1.0
 40
1.0
 40
1.0
 10
168.5713212333563
 20
153.6136855695067
 30
0.0
 10
168.5713212333563
 20
153.6136855695067
 30
0.0
 10
168.6559952208297
 20
153.4866799712583
 30
0.0
 10
168.6559952208297
 20
153.4866799712583
 30
0.0
  0
SPLINE
  5
CA
330
70
100
AcDbEntity
  8
Capa 1
 62
    18
420
        0
370
     9
100
AcDbSpline
210
0.0
220
0.0
230
1.0
 70
    24
 71
     3
 72
     8
 73
     4
 74
     0
 42
0.0000000001
 43
0.0000000001
 40
0.0
 40
0.0
 40
0.0
 40
0.0
 40
1.0
 40
1.0
 40
1.0
 40
1.0
 10
167.4706562895125
 20
156.0690158877677
 30
0.0
 10
167.4706562895125
 20
156.0690158877677
 30
0.0
 10
166.7086549977922
 20
156.0690158877677
 30
0.0
 10
166.7086549977922
 20
156.0690158877677
 30
0.0
  0
SPLINE
  5
CB
330
70
100
AcDbEntity
  8
Capa 1
 62
    18
420
        0
370
     9
100
AcDbSpline
210
0.0
220
0.0
230
1.0
 70
    24
 71
     3
 72
     8
 73
     4
 74
     0
 42
0.0000000001
 43
0.0000000001
 40
0.0
 40
0.0
 40
0.0
 40
0.0
 40
1.0
 40
1.0
 40
1.0
 40
1.0
 10
165.0999891928016
 20
156.5770167489145
 30
0.0
 10
165.0999891928016
 20
156.5770167489145
 30
0.0
 10
159.7236593059078
 20
156.6616799704646
 30
0.0
 10
159.7236593059078
 20
156.6616799704646
 30
0.0
  0
LWPOLYLINE
  5
CC
330
70
100
AcDbEntity
  8
Capa 1
 62
    18
420
        0
370
     9
100
AcDbPolyline
 90
        3
 70
     0
 43
0.0
 10
159.5543220968844
 20
156.788685568713
 10
159.5966537076594
 20
156.704022347163
 10
159.7236593059078
 20
156.6616799704646
  0
LINE
  5
CD
330
70
100
AcDbEntity
  8
Capa 1
 62
    18
420
        0
370
     9
100
AcDbLine
 10
168.5713212333563
 20
153.2750219173833
 30
0.0
 11
168.6559952208297
 21
153.1480163191349
 31
0.0
  0
LWPOLYLINE
  5
CE
330
70
100
AcDbEntity
  8
Capa 1
 62
    18
420
        0
370
     9
100
AcDbPolyline
 90
        5
 70
     0
 43
0.0
 10
175.0483268300172
 20
134.7753543940676
 10
175.0483268300172
 20
134.6906804065942
 10
175.0059952192422
 20
134.6060171850442
 10
174.9213212317688
 20
134.5213539634942
 10
174.8366580102188
 20
134.4790223527192
  0
LINE
  5
CF
330
70
100
AcDbEntity
  8
Capa 1
 62
    18
420
        0
370
     9
100
AcDbLine
 10
174.7943263994438
 20
134.4790223527192
 30
0.0
 11
174.8366580102188
 21
134.4790223527192
 31
0.0
  0
LWPOLYLINE
  5
D0
330
70
100
AcDbEntity
  8
Capa 1
 62
    18
420
        0
370
     9
100
AcDbPolyline
 90
        3
 70
     0
 43
0.0
 10
174.8789896209938
 20
134.5213539634942
 10
174.8366580102188
 20
134.4790223527192
 10
174.7943263994438
 20
134.4790223527192
  0
LWPOLYLINE
  5
D1
330
70
100
AcDbEntity
  8
Capa 1
 62
    18
420
        0
370
     9
100
AcDbPolyline
 90
        3
 70
     0
 43
0.0
 10
174.7943263994438
 20
186.0410128658161
 10
174.8366580102188
 20
185.9986812550411
 10
174.8789896209938
 20
185.9986812550411
  0
LWPOLYLINE
  5
D2
330
70
100
AcDbEntity
  8
Capa 1
 62
    18
420
        0
370
     9
100
AcDbPolyline
 90
        5
 70
     0
 43
0.0
 10
174.8366580102188
 20
185.9986812550411
 10
174.9213212317688
 20
185.9563496442661
 10
175.0059952192422
 20
185.8716864227161
 10
175.0483268300172
 20
185.7870016693193
 10
175.0483268300172
 20
185.7023384477693
  0
LINE
  5
D3
330
70
100
AcDbEntity
  8
Capa 1
 62
    18
420
        0
370
     9
100
AcDbLine
 10
171.5769947894625
 20
140.2786898792098
 30
0.0
 11
171.5769947894625
 21
180.4530141591239
 31
0.0
  0
LINE
  5
D4
330
70
100
AcDbEntity
  8
Capa 1
 62
    18
420
        0
370
     9
100
AcDbLine
 10
168.7406584423797
 20
141.2946808355802
 30
0.0
 11
168.7406584423797
 21
140.9983487942317
 31
0.0
  0
LINE
  5
D5
330
70
100
AcDbEntity
  8
Capa 1
 62
    18
420
        0
370
     9
100
AcDbLine
 10
168.7406584423797
 20
180.7070145896974
 30
0.0
 11
168.7406584423797
 21
180.4106825483489
 31
0.0
  0
LWPOLYLINE
  5
D6
330
70
100
AcDbEntity
  8
Capa 1
 62
    18
420
        0
370
     9
100
AcDbPolyline
 90
        7
 70
     0
 43
0.0
 10
168.4866580118063
 20
163.3503543869239
 10
168.5713212333563
 20
163.3080227761489
 10
168.6136528441313
 20
163.3080227761489
 10
168.6559952208297
 20
163.2656803994505
 10
168.6983268316047
 20
163.1810171779005
 10
168.7406584423797
 20
163.0963539563505
 10
168.7406584423797
 20
141.2946808355802
  0
LWPOLYLINE
  5
D7
330
70
100
AcDbEntity
  8
Capa 1
 62
    18
420
        0
370
     9
100
AcDbPolyline
 90
       17
 70
     0
 43
0.0
 10
168.7406584423797
 20
180.4106825483489
 10
168.7406584423797
 20
172.4943483557208
 10
168.6983268316047
 20
172.4096851341708
 10
168.6983268316047
 20
172.3673535233958
 10
168.6559952208297
 20
172.3250219126208
 10
168.5713212333563
 20
172.2826795359224
 10
168.4866580118063
 20
172.2826795359224
 10
166.0736593043203
 20
172.2403479251473
 10
165.1846524143516
 20
172.2403479251473
 10
165.1846524143516
 20
169.8696808284364
 10
165.1423208035766
 20
169.7850176068864
 10
165.0999891928016
 20
169.7003543853364
 10
165.0576575820266
 20
169.6580227745614
 10
164.5496567208797
 20
169.6580227745614
 10
164.5496567208797
 20
163.3926859976989
 10
164.5919883316547
 20
163.3926859976989
 10
168.4866580118063
 20
163.3503543869239
  0
LINE
  5
D8
330
70
100
AcDbEntity
  8
Capa 1
 62
    18
420
        0
370
     9
100
AcDbLine
 10
168.6559952208297
 20
172.4943483557208
 30
0.0
 11
168.6559952208297
 21
180.4106825483489
 31
0.0
  0
LWPOLYLINE
  5
D9
330
70
100
AcDbEntity
  8
Capa 1
 62
    18
420
        0
370
     9
100
AcDbPolyline
 90
        3
 70
     0
 43
0.0
 10
168.6559952208297
 20
140.4056847115348
 10
168.6559952208297
 20
163.0963539563505
 10
168.7406584423797
 20
163.0963539563505
  0
LINE
  5
DA
330
70
100
AcDbEntity
  8
Capa 1
 62
    18
420
        0
370
     9
100
AcDbLine
 10
168.6559952208297
 20
163.0963539563505
 30
0.0
 11
168.6983268316047
 21
163.0963539563505
 31
0.0
  0
LINE
  5
DB
330
70
100
AcDbEntity
  8
Capa 1
 62
    18
420
        0
370
     9
100
AcDbLine
 10
168.6559952208297
 20
180.6223513681473
 30
0.0
 11
168.6559952208297
 21
180.4106825483489
 31
0.0
  0
LWPOLYLINE
  5
DC
330
70
100
AcDbEntity
  8
Capa 1
 62
    18
420
        0
370
     9
100
AcDbPolyline
 90
        5
 70
     0
 43
0.0
 10
168.6559952208297
 20
172.4943483557208
 10
168.6559952208297
 20
172.4520167449458
 10
168.6136528441313
 20
172.4096851341708
 10
168.5713212333563
 20
172.3673535233958
 10
168.4866580118063
 20
172.3250219126208
  0
LWPOLYLINE
  5
DD
330
70
100
AcDbEntity
  8
Capa 1
 62
    18
420
        0
370
     9
100
AcDbPolyline
 90
        6
 70
     0
 43
0.0
 10
168.6559952208297
 20
163.0963539563505
 10
168.6559952208297
 20
163.1810171779005
 10
168.6136528441313
 20
163.2233487886755
 10
168.5713212333563
 20
163.2656803994505
 10
168.4866580118063
 20
163.2656803994505
 10
168.4866580118063
 20
163.3503543869239
  0
LWPOLYLINE
  5
DE
330
70
100
AcDbEntity
  8
Capa 1
 62
    18
420
        0
370
     9
100
AcDbPolyline
 90
        3
 70
     0
 43
0.0
 10
168.4866580118063
 20
163.2656803994505
 10
164.5919883316547
 20
163.3080227761489
 10
164.5919883316547
 20
163.3926859976989
  0
LWPOLYLINE
  5
DF
330
70
100
AcDbEntity
  8
Capa 1
 62
    18
420
        0
370
     9
100
AcDbPolyline
 90
        3
 70
     0
 43
0.0
 10
168.4866580118063
 20
172.3250219126208
 10
165.22699479105
 20
172.3250219126208
 10
165.22699479105
 20
172.2403479251473
  0
LWPOLYLINE
  5
E0
330
70
100
AcDbEntity
  8
Capa 1
 62
    18
420
        0
370
     9
100
AcDbPolyline
 90
        5
 70
     0
 43
0.0
 10
165.0999891928016
 20
172.1980163143724
 10
165.0999891928016
 20
172.2403479251473
 10
165.1423208035766
 20
172.2826795359224
 10
165.1846524143516
 20
172.3250219126208
 10
165.22699479105
 20
172.3250219126208
  0
LWPOLYLINE
  5
E1
330
70
100
AcDbEntity
  8
Capa 1
 62
    18
420
        0
370
     9
100
AcDbPolyline
 90
        4
 70
     0
 43
0.0
 10
165.1846524143516
 20
172.1980163143724
 10
165.0999891928016
 20
172.1980163143724
 10
165.0999891928016
 20
169.8696808284364
 10
165.1846524143516
 20
169.8696808284364
  0
LWPOLYLINE
  5
E2
330
70
100
AcDbEntity
  8
Capa 1
 62
    18
420
        0
370
     9
100
AcDbPolyline
 90
        5
 70
     0
 43
0.0
 10
165.0999891928016
 20
169.8696808284364
 10
165.0999891928016
 20
169.8273492176614
 10
165.0576575820266
 20
169.7850176068864
 10
165.0153259712516
 20
169.7426859961114
 10
164.9729943604766
 20
169.7426859961114
  0
LWPOLYLINE
  5
E3
330
70
100
AcDbEntity
  8
Capa 1
 62
    18
420
        0
370
     9
100
AcDbPolyline
 90
        4
 70
     0
 43
0.0
 10
164.9729943604766
 20
169.6580227745614
 10
164.9729943604766
 20
169.7426859961114
 10
164.5919883316547
 20
169.7426859961114
 10
164.5919883316547
 20
169.6580227745614
  0
LINE
  5
E4
330
70
100
AcDbEntity
  8
Capa 1
 62
    18
420
        0
370
     9
100
AcDbLine
 10
164.4649934993297
 20
163.4350176084739
 30
0.0
 11
164.5496567208797
 21
163.4350176084739
 31
0.0
  0
LWPOLYLINE
  5
E5
330
70
100
AcDbEntity
  8
Capa 1
 62
    18
420
        0
370
     9
100
AcDbPolyline
 90
        5
 70
     0
 43
0.0
 10
164.5919883316547
 20
163.3080227761489
 10
164.5496567208797
 20
163.3080227761489
 10
164.5073251101047
 20
163.3503543869239
 10
164.4649934993297
 20
163.3926859976989
 10
164.4649934993297
 20
163.4350176084739
  0
LWPOLYLINE
  5
E6
330
70
100
AcDbEntity
  8
Capa 1
 62
    18
420
        0
370
     9
100
AcDbPolyline
 90
        5
 70
     0
 43
0.0
 10
164.4649934993297
 20
169.615680397863
 10
164.4649934993297
 20
169.6580227745614
 10
164.5073251101047
 20
169.7003543853364
 10
164.5496567208797
 20
169.7426859961114
 10
164.5919883316547
 20
169.7426859961114
  0
LWPOLYLINE
  5
E7
330
70
100
AcDbEntity
  8
Capa 1
 62
    18
420
        0
370
     9
100
AcDbPolyline
 90
        3
 70
     0
 43
0.0
 10
164.5496567208797
 20
169.615680397863
 10
164.4649934993297
 20
169.615680397863
 10
164.4649934993297
 20
163.4350176084739
  0
LINE
  5
E8
330
70
100
AcDbEntity
  8
Capa 1
 62
    18
420
        0
370
     9
100
AcDbLine
 10
171.5769947894625
 20
180.4530141591239
 30
0.0
 11
171.5769947894625
 21
181.2573470616192
 31
0.0
  0
LWPOLYLINE
  5
E9
330
70
100
AcDbEntity
  8
Capa 1
 62
    18
420
        0
370
     9
100
AcDbPolyline
 90
        4
 70
     0
 43
0.0
 10
171.5769947894625
 20
181.4266735047193
 10
171.7039896217875
 20
181.4266735047193
 10
171.7886528433375
 20
181.4690051154943
 10
171.8309952200359
 20
181.5536683370443
  0
LINE
  5
EA
330
70
100
AcDbEntity
  8
Capa 1
 62
    18
420
        0
370
     9
100
AcDbLine
 10
171.5769947894625
 20
181.4266735047193
 30
0.0
 11
171.5769947894625
 21
181.2573470616192
 31
0.0
  0
LINE
  5
EB
330
70
100
AcDbEntity
  8
Capa 1
 62
    18
420
        0
370
     9
100
AcDbLine
 10
168.7406584423797
 20
140.9560171834567
 30
0.0
 11
168.7406584423797
 21
140.9983487942317
 31
0.0
  0
LINE
  5
EC
330
70
100
AcDbEntity
  8
Capa 1
 62
    18
420
        0
370
     9
100
AcDbLine
 10
168.6559952208297
 20
180.6223513681473
 30
0.0
 11
168.6559952208297
 21
180.8763410327974
 31
0.0
  0
LWPOLYLINE
  5
ED
330
70
100
AcDbEntity
  8
Capa 1
 62
    18
420
        0
370
     9
100
AcDbPolyline
 90
        3
 70
     0
 43
0.0
 10
168.7406584423797
 20
140.8290223511317
 10
168.7406584423797
 20
140.4903479330848
 10
171.5769947894625
 20
140.4480163223098
  0
LWPOLYLINE
  5
EE
330
70
100
AcDbEntity
  8
Capa 1
 62
    18
420
        0
370
     9
100
AcDbPolyline
 90
        3
 70
     0
 43
0.0
 10
171.5769947894625
 20
181.2573470616192
 10
168.7406584423797
 20
181.2150154508442
 10
168.7406584423797
 20
180.8763410327974
  0
LINE
  5
EF
330
70
100
AcDbEntity
  8
Capa 1
 62
    18
420
        0
370
     9
100
AcDbLine
 10
168.7406584423797
 20
181.3420102831693
 30
0.0
 11
168.7406584423797
 21
181.2150154508442
 31
0.0
  0
LINE
  5
F0
330
70
100
AcDbEntity
  8
Capa 1
 62
    18
420
        0
370
     9
100
AcDbLine
 10
171.5769947894625
 20
181.4266735047193
 30
0.0
 11
168.7406584423797
 21
181.3420102831693
 31
0.0
  0
LINE
  5
F1
330
70
100
AcDbEntity
  8
Capa 1
 62
    18
420
        0
370
     9
100
AcDbLine
 10
168.7406584423797
 20
140.3210214899848
 30
0.0
 11
168.7406584423797
 21
140.4903479330848
 31
0.0
  0
LWPOLYLINE
  5
F2
330
70
100
AcDbEntity
  8
Capa 1
 62
    18
420
        0
370
     9
100
AcDbPolyline
 90
        3
 70
     0
 43
0.0
 10
168.7406584423797
 20
181.2150154508442
 10
168.6559952208297
 20
181.2150154508442
 10
168.6559952208297
 20
180.8763410327974
  0
LINE
  5
F3
330
70
100
AcDbEntity
  8
Capa 1
 62
    18
420
        0
370
     9
100
AcDbLine
 10
168.6559952208297
 20
140.4903479330848
 30
0.0
 11
168.7406584423797
 21
140.4903479330848
 31
0.0
  0
LWPOLYLINE
  5
F4
330
70
100
AcDbEntity
  8
Capa 1
 62
    18
420
        0
370
     9
100
AcDbPolyline
 90
        3
 70
     0
 43
0.0
 10
168.6559952208297
 20
181.2996786723942
 10
168.6559952208297
 20
181.3420102831693
 10
168.7406584423797
 20
181.3420102831693
  0
LINE
  5
F5
330
70
100
AcDbEntity
  8
Capa 1
 62
    18
420
        0
370
     9
100
AcDbLine
 10
168.6559952208297
 20
181.2150154508442
 30
0.0
 11
168.6559952208297
 21
181.2996786723942
 31
0.0
  0
LWPOLYLINE
  5
F6
330
70
100
AcDbEntity
  8
Capa 1
 62
    18
420
        0
370
     9
100
AcDbPolyline
 90
        3
 70
     0
 43
0.0
 10
168.6559952208297
 20
140.4056847115348
 10
168.6559952208297
 20
140.3633531007598
 10
168.7406584423797
 20
140.3210214899848
  0
SPLINE
  5
F7
330
70
100
AcDbEntity
  8
Capa 1
 62
    18
420
        0
370
     9
100
AcDbSpline
210
0.0
220
0.0
230
1.0
 70
    24
 71
     3
 72
     8
 73
     4
 74
     0
 42
0.0000000001
 43
0.0000000001
 40
0.0
 40
0.0
 40
0.0
 40
0.0
 40
1.0
 40
1.0
 40
1.0
 40
1.0
 10
168.7406584423797
 20
140.9983487942317
 30
0.0
 10
168.7406584423797
 20
140.9983487942317
 30
0.0
 10
168.7406584423797
 20
140.9560171834567
 30
0.0
 10
168.7406584423797
 20
140.9560171834567
 30
0.0
  0
SPLINE
  5
F8
330
70
100
AcDbEntity
  8
Capa 1
 62
    18
420
        0
370
     9
100
AcDbSpline
210
0.0
220
0.0
230
1.0
 70
    24
 71
     3
 72
     8
 73
     4
 74
     0
 42
0.0000000001
 43
0.0000000001
 40
0.0
 40
0.0
 40
0.0
 40
0.0
 40
1.0
 40
1.0
 40
1.0
 40
1.0
 10
165.22699479105
 20
172.3250219126208
 30
0.0
 10
165.22699479105
 20
172.3250219126208
 30
0.0
 10
165.269326401825
 20
172.3250219126208
 30
0.0
 10
165.269326401825
 20
172.3250219126208
 30
0.0
  0
LINE
  5
F9
330
70
100
AcDbEntity
  8
Capa 1
 62
    18
420
        0
370
     9
100
AcDbLine
 10
166.0736593043203
 20
172.6636855647442
 30
0.0
 11
166.0736593043203
 21
172.3250219126208
 31
0.0
  0
LINE
  5
FA
330
70
100
AcDbEntity
  8
Capa 1
 62
    18
420
        0
370
     9
100
AcDbLine
 10
165.0999891928016
 20
172.1980163143724
 30
0.0
 11
165.0999891928016
 21
172.6636855647442
 31
0.0
  0
LINE
  5
FB
330
70
100
AcDbEntity
  8
Capa 1
 62
    18
420
        0
370
     9
100
AcDbLine
 10
168.6559952208297
 20
180.6223513681473
 30
0.0
 11
168.4866580118063
 21
180.6223513681473
 31
0.0
  0
LINE
  5
FC
330
70
100
AcDbEntity
  8
Capa 1
 62
    18
420
        0
370
     9
100
AcDbLine
 10
168.6559952208297
 20
179.9450132979771
 30
0.0
 11
168.4866580118063
 21
179.9450132979771
 31
0.0
  0
LWPOLYLINE
  5
FD
330
70
100
AcDbEntity
  8
Capa 1
 62
    18
420
        0
370
     9
100
AcDbPolyline
 90
        6
 70
     0
 43
0.0
 10
166.5393285546922
 20
179.733355244102
 10
166.5816601654672
 20
179.775686854877
 10
166.5816601654672
 20
179.818018465652
 10
166.6663233870172
 20
179.860350076427
 10
166.7509866085672
 20
179.902681687202
 10
166.8356605960406
 20
179.902681687202
  0
LINE
  5
FE
330
70
100
AcDbEntity
  8
Capa 1
 62
    18
420
        0
370
     9
100
AcDbLine
 10
166.7086549977922
 20
179.733355244102
 30
0.0
 11
166.5393285546922
 21
179.733355244102
 31
0.0
  0
LWPOLYLINE
  5
FF
330
70
100
AcDbEntity
  8
Capa 1
 62
    18
420
        0
370
     9
100
AcDbPolyline
 90
        3
 70
     0
 43
0.0
 10
166.7086549977922
 20
141.9296872949755
 10
166.7509866085672
 20
141.8450133075021
 10
166.8779922068156
 20
141.760350085952
  0
LINE
  5
100
330
70
100
AcDbEntity
  8
Capa 1
 62
    18
420
        0
370
     9
100
AcDbLine
 10
166.5393285546922
 20
141.9296872949755
 30
0.0
 11
166.7086549977922
 21
141.9296872949755
 31
0.0
  0
LWPOLYLINE
  5
101
330
70
100
AcDbEntity
  8
Capa 1
 62
    18
420
        0
370
     9
100
AcDbPolyline
 90
        4
 70
     0
 43
0.0
 10
166.8356605960406
 20
141.760350085952
 10
166.7509866085672
 20
141.802681696727
 10
166.6663233870172
 20
141.8450133075021
 10
166.5393285546922
 20
141.9296872949755
  0
LWPOLYLINE
  5
102
330
70
100
AcDbEntity
  8
Capa 1
 62
    18
420
        0
370
     9
100
AcDbPolyline
 90
        3
 70
     0
 43
0.0
 10
168.6559952208297
 20
141.0406804050067
 10
168.6136528441313
 20
141.0406804050067
 10
168.4866580118063
 20
141.0830227817051
  0
LINE
  5
103
330
70
100
AcDbEntity
  8
Capa 1
 62
    18
420
        0
370
     9
100
AcDbLine
 10
168.4866580118063
 20
140.9983487942317
 30
0.0
 11
168.4866580118063
 21
141.0830227817051
 31
0.0
  0
LINE
  5
104
330
70
100
AcDbEntity
  8
Capa 1
 62
    18
420
        0
370
     9
100
AcDbLine
 10
168.7406584423797
 20
140.9983487942317
 30
0.0
 11
168.4866580118063
 21
140.9983487942317
 31
0.0
  0
LWPOLYLINE
  5
105
330
70
100
AcDbEntity
  8
Capa 1
 62
    18
420
        0
370
     9
100
AcDbPolyline
 90
        3
 70
     0
 43
0.0
 10
168.4866580118063
 20
141.0830227817051
 10
168.4866580118063
 20
141.760350085952
 10
168.6559952208297
 20
141.760350085952
  0
LWPOLYLINE
  5
106
330
70
100
AcDbEntity
  8
Capa 1
 62
    18
420
        0
370
     9
100
AcDbPolyline
 90
        3
 70
     0
 43
0.0
 10
168.4866580118063
 20
180.6223513681473
 10
165.22699479105
 20
180.5800197573723
 10
165.22699479105
 20
172.6636855647442
  0
LWPOLYLINE
  5
107
330
70
100
AcDbEntity
  8
Capa 1
 62
    18
420
        0
370
     9
100
AcDbPolyline
 90
        3
 70
     0
 43
0.0
 10
166.0736593043203
 20
172.6636855647442
 10
166.0736593043203
 20
179.733355244102
 10
166.5393285546922
 20
179.733355244102
  0
SPLINE
  5
108
330
70
100
AcDbEntity
  8
Capa 1
 62
    18
420
        0
370
     9
100
AcDbSpline
210
0.0
220
0.0
230
1.0
 70
    24
 71
     3
 72
     8
 73
     4
 74
     0
 42
0.0000000001
 43
0.0000000001
 40
0.0
 40
0.0
 40
0.0
 40
0.0
 40
1.0
 40
1.0
 40
1.0
 40
1.0
 10
166.8356605960406
 20
179.902681687202
 30
0.0
 10
166.8356605960406
 20
179.902681687202
 30
0.0
 10
168.4866580118063
 20
179.9450132979771
 30
0.0
 10
168.4866580118063
 20
179.9450132979771
 30
0.0
  0
SPLINE
  5
109
330
70
100
AcDbEntity
  8
Capa 1
 62
    18
420
        0
370
     9
100
AcDbSpline
210
0.0
220
0.0
230
1.0
 70
    24
 71
     3
 72
     8
 73
     4
 74
     0
 42
0.0000000001
 43
0.0000000001
 40
0.0
 40
0.0
 40
0.0
 40
0.0
 40
1.0
 40
1.0
 40
1.0
 40
1.0
 10
166.5393285546922
 20
172.6636855647442
 30
0.0
 10
166.5393285546922
 20
172.6636855647442
 30
0.0
 10
166.5393285546922
 20
179.733355244102
 30
0.0
 10
166.5393285546922
 20
179.733355244102
 30
0.0
  0
SPLINE
  5
10A
330
70
100
AcDbEntity
  8
Capa 1
 62
    18
420
        0
370
     9
100
AcDbSpline
210
0.0
220
0.0
230
1.0
 70
    24
 71
     3
 72
     8
 73
     4
 74
     0
 42
0.0000000001
 43
0.0000000001
 40
0.0
 40
0.0
 40
0.0
 40
0.0
 40
1.0
 40
1.0
 40
1.0
 40
1.0
 10
166.7086549977922
 20
172.6636855647442
 30
0.0
 10
166.7086549977922
 20
172.6636855647442
 30
0.0
 10
166.7086549977922
 20
179.733355244102
 30
0.0
 10
166.7086549977922
 20
179.733355244102
 30
0.0
  0
SPLINE
  5
10B
330
70
100
AcDbEntity
  8
Capa 1
 62
    18
420
        0
370
     9
100
AcDbSpline
210
0.0
220
0.0
230
1.0
 70
    24
 71
     3
 72
     8
 73
     4
 74
     0
 42
0.0000000001
 43
0.0000000001
 40
0.0
 40
0.0
 40
0.0
 40
0.0
 40
1.0
 40
1.0
 40
1.0
 40
1.0
 10
165.22699479105
 20
180.6646829789223
 30
0.0
 10
165.22699479105
 20
180.6646829789223
 30
0.0
 10
165.22699479105
 20
180.5800197573723
 30
0.0
 10
165.22699479105
 20
180.5800197573723
 30
0.0
  0
LINE
  5
10C
330
70
100
AcDbEntity
  8
Capa 1
 62
    18
420
        0
370
     9
100
AcDbLine
 10
165.22699479105
 20
152.7670210562364
 30
0.0
 11
165.22699479105
 21
153.1056847083598
 31
0.0
  0
LWPOLYLINE
  5
10D
330
70
100
AcDbEntity
  8
Capa 1
 62
    18
420
        0
370
     9
100
AcDbPolyline
 90
        4
 70
     0
 43
0.0
 10
165.22699479105
 20
152.7670210562364
 10
166.0736593043203
 20
152.7670210562364
 10
166.0736593043203
 20
153.1056847083598
 10
165.22699479105
 20
153.1056847083598
  0
LWPOLYLINE
  5
10E
330
70
100
AcDbEntity
  8
Capa 1
 62
    18
420
        0
370
     9
100
AcDbPolyline
 90
        7
 70
     0
 43
0.0
 10
165.22699479105
 20
152.7670210562364
 10
165.22699479105
 20
141.1253543924801
 10
166.0736593043203
 20
141.1253543924801
 10
166.0736593043203
 20
152.7670210562364
 10
166.5393285546922
 20
152.7670210562364
 10
166.5393285546922
 20
153.1056847083598
 10
166.0736593043203
 20
153.1056847083598
  0
SPLINE
  5
10F
330
70
100
AcDbEntity
  8
Capa 1
 62
    18
420
        0
370
     9
100
AcDbSpline
210
0.0
220
0.0
230
1.0
 70
    24
 71
     3
 72
     8
 73
     4
 74
     0
 42
0.0000000001
 43
0.0000000001
 40
0.0
 40
0.0
 40
0.0
 40
0.0
 40
1.0
 40
1.0
 40
1.0
 40
1.0
 10
166.5393285546922
 20
141.9296872949755
 30
0.0
 10
166.5393285546922
 20
141.9296872949755
 30
0.0
 10
166.5393285546922
 20
152.7670210562364
 30
0.0
 10
166.5393285546922
 20
152.7670210562364
 30
0.0
  0
SPLINE
  5
110
330
70
100
AcDbEntity
  8
Capa 1
 62
    18
420
        0
370
     9
100
AcDbSpline
210
0.0
220
0.0
230
1.0
 70
    24
 71
     3
 72
     8
 73
     4
 74
     0
 42
0.0000000001
 43
0.0000000001
 40
0.0
 40
0.0
 40
0.0
 40
0.0
 40
1.0
 40
1.0
 40
1.0
 40
1.0
 10
168.4866580118063
 20
141.0830227817051
 30
0.0
 10
168.4866580118063
 20
141.0830227817051
 30
0.0
 10
166.0736593043203
 20
141.1253543924801
 30
0.0
 10
166.0736593043203
 20
141.1253543924801
 30
0.0
  0
SPLINE
  5
111
330
70
100
AcDbEntity
  8
Capa 1
 62
    18
420
        0
370
     9
100
AcDbSpline
210
0.0
220
0.0
230
1.0
 70
    24
 71
     3
 72
     8
 73
     4
 74
     0
 42
0.0000000001
 43
0.0000000001
 40
0.0
 40
0.0
 40
0.0
 40
0.0
 40
1.0
 40
1.0
 40
1.0
 40
1.0
 10
168.4866580118063
 20
141.760350085952
 30
0.0
 10
168.4866580118063
 20
141.760350085952
 30
0.0
 10
166.8356605960406
 20
141.760350085952
 30
0.0
 10
166.8356605960406
 20
141.760350085952
 30
0.0
  0
LINE
  5
112
330
70
100
AcDbEntity
  8
Capa 1
 62
    18
420
        0
370
     9
100
AcDbLine
 10
166.7086549977922
 20
152.7670210562364
 30
0.0
 11
166.5393285546922
 21
152.7670210562364
 31
0.0
  0
SPLINE
  5
113
330
70
100
AcDbEntity
  8
Capa 1
 62
    18
420
        0
370
     9
100
AcDbSpline
210
0.0
220
0.0
230
1.0
 70
    24
 71
     3
 72
     8
 73
     4
 74
     0
 42
0.0000000001
 43
0.0000000001
 40
0.0
 40
0.0
 40
0.0
 40
0.0
 40
1.0
 40
1.0
 40
1.0
 40
1.0
 10
166.7086549977922
 20
152.7670210562364
 30
0.0
 10
166.7086549977922
 20
152.7670210562364
 30
0.0
 10
166.7086549977922
 20
141.9296872949755
 30
0.0
 10
166.7086549977922
 20
141.9296872949755
 30
0.0
  0
SPLINE
  5
114
330
70
100
AcDbEntity
  8
Capa 1
 62
    18
420
        0
370
     9
100
AcDbSpline
210
0.0
220
0.0
230
1.0
 70
    24
 71
     3
 72
     8
 73
     4
 74
     0
 42
0.0000000001
 43
0.0000000001
 40
0.0
 40
0.0
 40
0.0
 40
0.0
 40
1.0
 40
1.0
 40
1.0
 40
1.0
 10
165.22699479105
 20
141.1253543924801
 30
0.0
 10
165.22699479105
 20
141.1253543924801
 30
0.0
 10
165.22699479105
 20
141.0406804050067
 30
0.0
 10
165.22699479105
 20
141.0406804050067
 30
0.0
  0
LWPOLYLINE
  5
115
330
70
100
AcDbEntity
  8
Capa 1
 62
    18
420
        0
370
     9
100
AcDbPolyline
 90
        3
 70
     0
 43
0.0
 10
166.0736593043203
 20
141.1253543924801
 10
166.0736593043203
 20
141.0406804050067
 10
165.22699479105
 20
141.0406804050067
  0
LINE
  5
116
330
70
100
AcDbEntity
  8
Capa 1
 62
    18
420
        0
370
     9
100
AcDbLine
 10
166.0736593043203
 20
141.0406804050067
 30
0.0
 11
168.4866580118063
 21
140.9983487942317
 31
0.0
  0
LWPOLYLINE
  5
117
330
70
100
AcDbEntity
  8
Capa 1
 62
    18
420
        0
370
     9
100
AcDbPolyline
 90
        5
 70
     0
 43
0.0
 10
166.5393285546922
 20
153.1056847083598
 10
166.6239917762422
 20
153.0633530975848
 10
166.6663233870172
 20
153.0210214868098
 10
166.7086549977922
 20
152.9786898760348
 10
166.7086549977922
 20
152.9363474993364
  0
LINE
  5
118
330
70
100
AcDbEntity
  8
Capa 1
 62
    18
420
        0
370
     9
100
AcDbLine
 10
166.7086549977922
 20
152.7670210562364
 30
0.0
 11
166.7086549977922
 21
152.9363474993364
 31
0.0
  0
LINE
  5
119
330
70
100
AcDbEntity
  8
Capa 1
 62
    18
420
        0
370
     9
100
AcDbLine
 10
165.22699479105
 20
152.7670210562364
 30
0.0
 11
165.0999891928016
 21
152.7670210562364
 31
0.0
  0
LINE
  5
11A
330
70
100
AcDbEntity
  8
Capa 1
 62
    18
420
        0
370
     9
100
AcDbLine
 10
165.0999891928016
 20
141.1253543924801
 30
0.0
 11
165.22699479105
 21
141.1253543924801
 31
0.0
  0
LINE
  5
11B
330
70
100
AcDbEntity
  8
Capa 1
 62
    18
420
        0
370
     9
100
AcDbLine
 10
165.0999891928016
 20
141.1253543924801
 30
0.0
 11
165.0999891928016
 21
152.7670210562364
 31
0.0
  0
LWPOLYLINE
  5
11C
330
70
100
AcDbEntity
  8
Capa 1
 62
    18
420
        0
370
     9
100
AcDbPolyline
 90
        3
 70
     0
 43
0.0
 10
165.22699479105
 20
180.5800197573723
 10
165.0999891928016
 20
180.5800197573723
 10
165.0999891928016
 20
172.6636855647442
  0
LWPOLYLINE
  5
11D
330
70
100
AcDbEntity
  8
Capa 1
 62
    18
420
        0
370
     9
100
AcDbPolyline
 90
        3
 70
     0
 43
0.0
 10
165.1846524143516
 20
180.6646829789223
 10
165.1423208035766
 20
180.6223513681473
 10
165.0999891928016
 20
180.5800197573723
  0
LINE
  5
11E
330
70
100
AcDbEntity
  8
Capa 1
 62
    18
420
        0
370
     9
100
AcDbLine
 10
165.1846524143516
 20
180.6646829789223
 30
0.0
 11
165.22699479105
 21
180.6646829789223
 31
0.0
  0
LWPOLYLINE
  5
11F
330
70
100
AcDbEntity
  8
Capa 1
 62
    18
420
        0
370
     9
100
AcDbPolyline
 90
        4
 70
     0
 43
0.0
 10
165.0999891928016
 20
141.1253543924801
 10
165.1423208035766
 20
141.0830227817051
 10
165.1846524143516
 20
141.0406804050067
 10
165.22699479105
 20
141.0406804050067
  0
LINE
  5
120
330
70
100
AcDbEntity
  8
Capa 1
 62
    18
420
        0
370
     9
100
AcDbLine
 10
165.1846524143516
 20
141.0406804050067
 30
0.0
 11
165.22699479105
 21
141.0406804050067
 31
0.0
  0
LWPOLYLINE
  5
121
330
70
100
AcDbEntity
  8
Capa 1
 62
    18
420
        0
370
     9
100
AcDbPolyline
 90
        5
 70
     0
 43
0.0
 10
165.0999891928016
 20
152.9363474993364
 10
165.0999891928016
 20
153.0210214868098
 10
165.1423208035766
 20
153.0633530975848
 10
165.1846524143516
 20
153.0633530975848
 10
165.22699479105
 20
153.1056847083598
  0
LINE
  5
122
330
70
100
AcDbEntity
  8
Capa 1
 62
    18
420
        0
370
     9
100
AcDbLine
 10
165.0999891928016
 20
152.8940158885614
 30
0.0
 11
165.0999891928016
 21
152.7670210562364
 31
0.0
  0
LINE
  5
123
330
70
100
AcDbEntity
  8
Capa 1
 62
    18
420
        0
370
     9
100
AcDbLine
 10
166.7086549977922
 20
152.597683847213
 30
0.0
 11
166.7509866085672
 21
152.597683847213
 31
0.0
  0
LWPOLYLINE
  5
124
330
70
100
AcDbEntity
  8
Capa 1
 62
    18
420
        0
370
     9
100
AcDbPolyline
 90
        4
 70
     0
 43
0.0
 10
165.22699479105
 20
156.9580227777364
 10
165.22699479105
 20
156.6616799704646
 10
166.0736593043203
 20
156.6616799704646
 10
166.0736593043203
 20
156.704022347163
  0
LINE
  5
125
330
70
100
AcDbEntity
  8
Capa 1
 62
    18
420
        0
370
     9
100
AcDbLine
 10
166.0736593043203
 20
156.6616799704646
 30
0.0
 11
166.5393285546922
 21
156.6616799704646
 31
0.0
  0
LWPOLYLINE
  5
126
330
70
100
AcDbEntity
  8
Capa 1
 62
    18
420
        0
370
     9
100
AcDbPolyline
 90
        3
 70
     0
 43
0.0
 10
166.6663233870172
 20
156.704022347163
 10
166.6239917762422
 20
156.6616799704646
 10
166.5393285546922
 20
156.6616799704646
  0
LINE
  5
127
330
70
100
AcDbEntity
  8
Capa 1
 62
    18
420
        0
370
     9
100
AcDbLine
 10
165.0999891928016
 20
156.9580227777364
 30
0.0
 11
165.0999891928016
 21
157.2543548190848
 31
0.0
  0
LWPOLYLINE
  5
128
330
70
100
AcDbEntity
  8
Capa 1
 62
    18
420
        0
370
     9
100
AcDbPolyline
 90
        5
 70
     0
 43
0.0
 10
165.22699479105
 20
156.6616799704646
 10
165.1846524143516
 20
156.6616799704646
 10
165.1423208035766
 20
156.704022347163
 10
165.0999891928016
 20
156.746353957938
 10
165.0999891928016
 20
156.788685568713
  0
LINE
  5
129
330
70
100
AcDbEntity
  8
Capa 1
 62
    18
420
        0
370
     9
100
AcDbLine
 10
165.0999891928016
 20
156.9580227777364
 30
0.0
 11
165.0999891928016
 21
156.788685568713
 31
0.0
  0
LINE
  5
12A
330
70
100
AcDbEntity
  8
Capa 1
 62
    18
420
        0
370
     9
100
AcDbLine
 10
166.0736593043203
 20
153.4020167497083
 30
0.0
 11
166.0736593043203
 21
153.1056847083598
 31
0.0
  0
SPLINE
  5
12B
330
70
100
AcDbEntity
  8
Capa 1
 62
    18
420
        0
370
     9
100
AcDbSpline
210
0.0
220
0.0
230
1.0
 70
    24
 71
     3
 72
     8
 73
     4
 74
     0
 42
0.0000000001
 43
0.0000000001
 40
0.0
 40
0.0
 40
0.0
 40
0.0
 40
1.0
 40
1.0
 40
1.0
 40
1.0
 10
166.0736593043203
 20
153.4020167497083
 30
0.0
 10
166.0736593043203
 20
153.4020167497083
 30
0.0
 10
165.22699479105
 20
153.4020167497083
 30
0.0
 10
165.22699479105
 20
153.4020167497083
 30
0.0
  0
SPLINE
  5
12C
330
70
100
AcDbEntity
  8
Capa 1
 62
    18
420
        0
370
     9
100
AcDbSpline
210
0.0
220
0.0
230
1.0
 70
    24
 71
     3
 72
     8
 73
     4
 74
     0
 42
0.0000000001
 43
0.0000000001
 40
0.0
 40
0.0
 40
0.0
 40
0.0
 40
1.0
 40
1.0
 40
1.0
 40
1.0
 10
165.22699479105
 20
153.1056847083598
 30
0.0
 10
165.22699479105
 20
153.1056847083598
 30
0.0
 10
165.269326401825
 20
153.1056847083598
 30
0.0
 10
165.269326401825
 20
153.1056847083598
 30
0.0
  0
SPLINE
  5
12D
330
70
100
AcDbEntity
  8
Capa 1
 62
    18
420
        0
370
     9
100
AcDbSpline
210
0.0
220
0.0
230
1.0
 70
    24
 71
     3
 72
     8
 73
     4
 74
     0
 42
0.0000000001
 43
0.0000000001
 40
0.0
 40
0.0
 40
0.0
 40
0.0
 40
1.0
 40
1.0
 40
1.0
 40
1.0
 10
166.5393285546922
 20
153.1056847083598
 30
0.0
 10
166.5393285546922
 20
153.1056847083598
 30
0.0
 10
166.5816601654672
 20
153.1056847083598
 30
0.0
 10
166.5816601654672
 20
153.1056847083598
 30
0.0
  0
SPLINE
  5
12E
330
70
100
AcDbEntity
  8
Capa 1
 62
    18
420
        0
370
     9
100
AcDbSpline
210
0.0
220
0.0
230
1.0
 70
    24
 71
     3
 72
     8
 73
     4
 74
     0
 42
0.0000000001
 43
0.0000000001
 40
0.0
 40
0.0
 40
0.0
 40
0.0
 40
1.0
 40
1.0
 40
1.0
 40
1.0
 10
166.5393285546922
 20
153.4020167497083
 30
0.0
 10
166.5393285546922
 20
153.4020167497083
 30
0.0
 10
166.0736593043203
 20
153.4020167497083
 30
0.0
 10
166.0736593043203
 20
153.4020167497083
 30
0.0
  0
LINE
  5
12F
330
70
100
AcDbEntity
  8
Capa 1
 62
    18
420
        0
370
     9
100
AcDbLine
 10
166.0736593043203
 20
156.6616799704646
 30
0.0
 11
166.0736593043203
 21
156.3230163183411
 31
0.0
  0
LINE
  5
130
330
70
100
AcDbEntity
  8
Capa 1
 62
    18
420
        0
370
     9
100
AcDbLine
 10
165.22699479105
 20
156.3230163183411
 30
0.0
 11
165.22699479105
 21
156.6616799704646
 31
0.0
  0
LINE
  5
131
330
70
100
AcDbEntity
  8
Capa 1
 62
    18
420
        0
370
     9
100
AcDbLine
 10
166.5393285546922
 20
156.6616799704646
 30
0.0
 11
166.5393285546922
 21
156.6193483596896
 31
0.0
  0
LINE
  5
132
330
70
100
AcDbEntity
  8
Capa 1
 62
    18
420
        0
370
     9
100
AcDbLine
 10
166.7086549977922
 20
153.4020167497083
 30
0.0
 11
166.7086549977922
 21
152.9363474993364
 31
0.0
  0
LINE
  5
133
330
70
100
AcDbEntity
  8
Capa 1
 62
    18
420
        0
370
     9
100
AcDbLine
 10
165.0999891928016
 20
153.4020167497083
 30
0.0
 11
165.22699479105
 21
153.4020167497083
 31
0.0
  0
LINE
  5
134
330
70
100
AcDbEntity
  8
Capa 1
 62
    18
420
        0
370
     9
100
AcDbLine
 10
165.0999891928016
 20
152.9786898760348
 30
0.0
 11
165.0999891928016
 21
153.4020167497083
 31
0.0
  0
LINE
  5
135
330
70
100
AcDbEntity
  8
Capa 1
 62
    18
420
        0
370
     9
100
AcDbLine
 10
165.0999891928016
 20
156.3230163183411
 30
0.0
 11
165.0999891928016
 21
156.788685568713
 31
0.0
  0
SPLINE
  5
136
330
70
100
AcDbEntity
  8
Capa 1
 62
    18
420
        0
370
     9
100
AcDbSpline
210
0.0
220
0.0
230
1.0
 70
    24
 71
     3
 72
     8
 73
     4
 74
     0
 42
0.0000000001
 43
0.0000000001
 40
0.0
 40
0.0
 40
0.0
 40
0.0
 40
1.0
 40
1.0
 40
1.0
 40
1.0
 10
166.0736593043203
 20
156.3230163183411
 30
0.0
 10
166.0736593043203
 20
156.3230163183411
 30
0.0
 10
166.0736593043203
 20
153.4020167497083
 30
0.0
 10
166.0736593043203
 20
153.4020167497083
 30
0.0
  0
SPLINE
  5
137
330
70
100
AcDbEntity
  8
Capa 1
 62
    18
420
        0
370
     9
100
AcDbSpline
210
0.0
220
0.0
230
1.0
 70
    24
 71
     3
 72
     8
 73
     4
 74
     0
 42
0.0000000001
 43
0.0000000001
 40
0.0
 40
0.0
 40
0.0
 40
0.0
 40
1.0
 40
1.0
 40
1.0
 40
1.0
 10
165.22699479105
 20
156.3230163183411
 30
0.0
 10
165.22699479105
 20
156.3230163183411
 30
0.0
 10
165.22699479105
 20
153.4020167497083
 30
0.0
 10
165.22699479105
 20
153.4020167497083
 30
0.0
  0
SPLINE
  5
138
330
70
100
AcDbEntity
  8
Capa 1
 62
    18
420
        0
370
     9
100
AcDbSpline
210
0.0
220
0.0
230
1.0
 70
    24
 71
     3
 72
     8
 73
     4
 74
     0
 42
0.0000000001
 43
0.0000000001
 40
0.0
 40
0.0
 40
0.0
 40
0.0
 40
1.0
 40
1.0
 40
1.0
 40
1.0
 10
166.5393285546922
 20
153.4020167497083
 30
0.0
 10
166.5393285546922
 20
153.4020167497083
 30
0.0
 10
166.5393285546922
 20
156.3230163183411
 30
0.0
 10
166.5393285546922
 20
156.3230163183411
 30
0.0
  0
SPLINE
  5
139
330
70
100
AcDbEntity
  8
Capa 1
 62
    18
420
        0
370
     9
100
AcDbSpline
210
0.0
220
0.0
230
1.0
 70
    24
 71
     3
 72
     8
 73
     4
 74
     0
 42
0.0000000001
 43
0.0000000001
 40
0.0
 40
0.0
 40
0.0
 40
0.0
 40
1.0
 40
1.0
 40
1.0
 40
1.0
 10
166.7086549977922
 20
156.3230163183411
 30
0.0
 10
166.7086549977922
 20
156.3230163183411
 30
0.0
 10
166.7086549977922
 20
153.4020167497083
 30
0.0
 10
166.7086549977922
 20
153.4020167497083
 30
0.0
  0
SPLINE
  5
13A
330
70
100
AcDbEntity
  8
Capa 1
 62
    18
420
        0
370
     9
100
AcDbSpline
210
0.0
220
0.0
230
1.0
 70
    24
 71
     3
 72
     8
 73
     4
 74
     0
 42
0.0000000001
 43
0.0000000001
 40
0.0
 40
0.0
 40
0.0
 40
0.0
 40
1.0
 40
1.0
 40
1.0
 40
1.0
 10
165.0999891928016
 20
153.4020167497083
 30
0.0
 10
165.0999891928016
 20
153.4020167497083
 30
0.0
 10
165.0999891928016
 20
156.3230163183411
 30
0.0
 10
165.0999891928016
 20
156.3230163183411
 30
0.0
  0
SPLINE
  5
13B
330
70
100
AcDbEntity
  8
Capa 1
 62
    18
420
        0
370
     9
100
AcDbSpline
210
0.0
220
0.0
230
1.0
 70
    24
 71
     3
 72
     8
 73
     4
 74
     0
 42
0.0000000001
 43
0.0000000001
 40
0.0
 40
0.0
 40
0.0
 40
0.0
 40
1.0
 40
1.0
 40
1.0
 40
1.0
 10
166.7086549977922
 20
156.704022347163
 30
0.0
 10
166.7086549977922
 20
156.704022347163
 30
0.0
 10
166.7086549977922
 20
153.4020167497083
 30
0.0
 10
166.7086549977922
 20
153.4020167497083
 30
0.0
  0
LWPOLYLINE
  5
13C
330
70
100
AcDbEntity
  8
Capa 1
 62
    18
420
        0
370
     9
100
AcDbPolyline
 90
        5
 70
     0
 43
0.0
 10
166.8356605960406
 20
179.902681687202
 10
166.7933289852656
 20
179.860350076427
 10
166.7509866085672
 20
179.860350076427
 10
166.7086549977922
 20
179.818018465652
 10
166.7086549977922
 20
179.733355244102
  0
LINE
  5
13D
330
70
100
AcDbEntity
  8
Capa 1
 62
    18
420
        0
370
     9
100
AcDbLine
 10
166.7086549977922
 20
179.6063496458536
 30
0.0
 11
166.7086549977922
 21
172.3250219126208
 31
0.0
  0
LWPOLYLINE
  5
13E
330
70
100
AcDbEntity
  8
Capa 1
 62
    18
420
        0
370
     9
100
AcDbPolyline
 90
        4
 70
     0
 43
0.0
 10
167.8516623183344
 20
179.775686854877
 10
167.9363255398844
 20
179.860350076427
 10
167.9786571506594
 20
179.902681687202
 10
168.1056627489078
 20
179.902681687202
  0
LWPOLYLINE
  5
13F
330
70
100
AcDbEntity
  8
Capa 1
 62
    18
420
        0
370
     9
100
AcDbPolyline
 90
        3
 70
     0
 43
0.0
 10
168.0633203722094
 20
179.902681687202
 10
168.0209887614344
 20
179.860350076427
 10
168.0209887614344
 20
179.775686854877
  0
SPLINE
  5
140
330
70
100
AcDbEntity
  8
Capa 1
 62
    18
420
        0
370
     9
100
AcDbSpline
210
0.0
220
0.0
230
1.0
 70
    24
 71
     3
 72
     8
 73
     4
 74
     0
 42
0.0000000001
 43
0.0000000001
 40
0.0
 40
0.0
 40
0.0
 40
0.0
 40
1.0
 40
1.0
 40
1.0
 40
1.0
 10
165.0999891928016
 20
141.1253543924801
 30
0.0
 10
165.0999891928016
 20
141.1253543924801
 30
0.0
 10
165.0999891928016
 20
152.9363474993364
 30
0.0
 10
165.0999891928016
 20
152.9363474993364
 30
0.0
  0
SPLINE
  5
141
330
70
100
AcDbEntity
  8
Capa 1
 62
    18
420
        0
370
     9
100
AcDbSpline
210
0.0
220
0.0
230
1.0
 70
    24
 71
     3
 72
     8
 73
     4
 74
     0
 42
0.0000000001
 43
0.0000000001
 40
0.0
 40
0.0
 40
0.0
 40
0.0
 40
1.0
 40
1.0
 40
1.0
 40
1.0
 10
165.0999891928016
 20
153.4020167497083
 30
0.0
 10
165.0999891928016
 20
153.4020167497083
 30
0.0
 10
165.0999891928016
 20
156.4076795398911
 30
0.0
 10
165.0999891928016
 20
156.4076795398911
 30
0.0
  0
SPLINE
  5
142
330
70
100
AcDbEntity
  8
Capa 1
 62
    18
420
        0
370
     9
100
AcDbSpline
210
0.0
220
0.0
230
1.0
 70
    24
 71
     3
 72
     8
 73
     4
 74
     0
 42
0.0000000001
 43
0.0000000001
 40
0.0
 40
0.0
 40
0.0
 40
0.0
 40
1.0
 40
1.0
 40
1.0
 40
1.0
 10
165.0999891928016
 20
156.746353957938
 30
0.0
 10
165.0999891928016
 20
156.746353957938
 30
0.0
 10
165.0999891928016
 20
157.2543548190848
 30
0.0
 10
165.0999891928016
 20
157.2543548190848
 30
0.0
  0
SPLINE
  5
143
330
70
100
AcDbEntity
  8
Capa 1
 62
    18
420
        0
370
     9
100
AcDbSpline
210
0.0
220
0.0
230
1.0
 70
    24
 71
     3
 72
     8
 73
     4
 74
     0
 42
0.0000000001
 43
0.0000000001
 40
0.0
 40
0.0
 40
0.0
 40
0.0
 40
1.0
 40
1.0
 40
1.0
 40
1.0
 10
167.0473294158391
 20
172.3250219126208
 30
0.0
 10
167.0473294158391
 20
172.3250219126208
 30
0.0
 10
167.0473294158391
 20
179.902681687202
 30
0.0
 10
167.0473294158391
 20
179.902681687202
 30
0.0
  0
SPLINE
  5
144
330
70
100
AcDbEntity
  8
Capa 1
 62
    18
420
        0
370
     9
100
AcDbSpline
210
0.0
220
0.0
230
1.0
 70
    24
 71
     3
 72
     8
 73
     4
 74
     0
 42
0.0000000001
 43
0.0000000001
 40
0.0
 40
0.0
 40
0.0
 40
0.0
 40
1.0
 40
1.0
 40
1.0
 40
1.0
 10
165.22699479105
 20
180.6646829789223
 30
0.0
 10
165.22699479105
 20
180.6646829789223
 30
0.0
 10
168.6559952208297
 20
180.7070145896974
 30
0.0
 10
168.6559952208297
 20
180.7070145896974
 30
0.0
  0
LWPOLYLINE
  5
145
330
70
100
AcDbEntity
  8
Capa 1
 62
    18
420
        0
370
     9
100
AcDbPolyline
 90
        3
 70
     0
 43
0.0
 10
167.1319926373891
 20
180.6646829789223
 10
167.1319926373891
 20
180.7070145896974
 10
167.1743242481641
 20
180.7070145896974
  0
SPLINE
  5
146
330
70
100
AcDbEntity
  8
Capa 1
 62
    18
420
        0
370
     9
100
AcDbSpline
210
0.0
220
0.0
230
1.0
 70
    24
 71
     3
 72
     8
 73
     4
 74
     0
 42
0.0000000001
 43
0.0000000001
 40
0.0
 40
0.0
 40
0.0
 40
0.0
 40
1.0
 40
1.0
 40
1.0
 40
1.0
 10
168.0209887614344
 20
179.775686854877
 30
0.0
 10
168.0209887614344
 20
179.775686854877
 30
0.0
 10
168.0209887614344
 20
172.3250219126208
 30
0.0
 10
168.0209887614344
 20
172.3250219126208
 30
0.0
  0
SPLINE
  5
147
330
70
100
AcDbEntity
  8
Capa 1
 62
    18
420
        0
370
     9
100
AcDbSpline
210
0.0
220
0.0
230
1.0
 70
    24
 71
     3
 72
     8
 73
     4
 74
     0
 42
0.0000000001
 43
0.0000000001
 40
0.0
 40
0.0
 40
0.0
 40
0.0
 40
1.0
 40
1.0
 40
1.0
 40
1.0
 10
166.7086549977922
 20
179.6063496458536
 30
0.0
 10
166.7086549977922
 20
179.6063496458536
 30
0.0
 10
166.7086549977922
 20
172.3250219126208
 30
0.0
 10
166.7086549977922
 20
172.3250219126208
 30
0.0
  0
SPLINE
  5
148
330
70
100
AcDbEntity
  8
Capa 1
 62
    18
420
        0
370
     9
100
AcDbSpline
210
0.0
220
0.0
230
1.0
 70
    24
 71
     3
 72
     8
 73
     4
 74
     0
 42
0.0000000001
 43
0.0000000001
 40
0.0
 40
0.0
 40
0.0
 40
0.0
 40
1.0
 40
1.0
 40
1.0
 40
1.0
 10
165.0999891928016
 20
141.1253543924801
 30
0.0
 10
165.0999891928016
 20
141.1253543924801
 30
0.0
 10
165.0999891928016
 20
142.2683509470989
 30
0.0
 10
165.0999891928016
 20
142.2683509470989
 30
0.0
  0
SPLINE
  5
149
330
70
100
AcDbEntity
  8
Capa 1
 62
    18
420
        0
370
     9
100
AcDbSpline
210
0.0
220
0.0
230
1.0
 70
    24
 71
     3
 72
     8
 73
     4
 74
     0
 42
0.0000000001
 43
0.0000000001
 40
0.0
 40
0.0
 40
0.0
 40
0.0
 40
1.0
 40
1.0
 40
1.0
 40
1.0
 10
165.0999891928016
 20
142.7340201974708
 30
0.0
 10
165.0999891928016
 20
142.7340201974708
 30
0.0
 10
165.0999891928016
 20
145.3586877247551
 30
0.0
 10
165.0999891928016
 20
145.3586877247551
 30
0.0
  0
SPLINE
  5
14A
330
70
100
AcDbEntity
  8
Capa 1
 62
    18
420
        0
370
     9
100
AcDbSpline
210
0.0
220
0.0
230
1.0
 70
    24
 71
     3
 72
     8
 73
     4
 74
     0
 42
0.0000000001
 43
0.0000000001
 40
0.0
 40
0.0
 40
0.0
 40
0.0
 40
1.0
 40
1.0
 40
1.0
 40
1.0
 10
165.0999891928016
 20
145.8243462092036
 30
0.0
 10
165.0999891928016
 20
145.8243462092036
 30
0.0
 10
165.0999891928016
 20
152.7670210562364
 30
0.0
 10
165.0999891928016
 20
152.7670210562364
 30
0.0
  0
SPLINE
  5
14B
330
70
100
AcDbEntity
  8
Capa 1
 62
    18
420
        0
370
     9
100
AcDbSpline
210
0.0
220
0.0
230
1.0
 70
    24
 71
     3
 72
     8
 73
     4
 74
     0
 42
0.0000000001
 43
0.0000000001
 40
0.0
 40
0.0
 40
0.0
 40
0.0
 40
1.0
 40
1.0
 40
1.0
 40
1.0
 10
165.0999891928016
 20
153.4020167497083
 30
0.0
 10
165.0999891928016
 20
153.4020167497083
 30
0.0
 10
165.0999891928016
 20
156.3230163183411
 30
0.0
 10
165.0999891928016
 20
156.3230163183411
 30
0.0
  0
SPLINE
  5
14C
330
70
100
AcDbEntity
  8
Capa 1
 62
    18
420
        0
370
     9
100
AcDbSpline
210
0.0
220
0.0
230
1.0
 70
    24
 71
     3
 72
     8
 73
     4
 74
     0
 42
0.0000000001
 43
0.0000000001
 40
0.0
 40
0.0
 40
0.0
 40
0.0
 40
1.0
 40
1.0
 40
1.0
 40
1.0
 10
165.0999891928016
 20
169.8696808284364
 30
0.0
 10
165.0999891928016
 20
169.8696808284364
 30
0.0
 10
165.0999891928016
 20
172.1980163143724
 30
0.0
 10
165.0999891928016
 20
172.1980163143724
 30
0.0
  0
SPLINE
  5
14D
330
70
100
AcDbEntity
  8
Capa 1
 62
    18
420
        0
370
     9
100
AcDbSpline
210
0.0
220
0.0
230
1.0
 70
    24
 71
     3
 72
     8
 73
     4
 74
     0
 42
0.0000000001
 43
0.0000000001
 40
0.0
 40
0.0
 40
0.0
 40
0.0
 40
1.0
 40
1.0
 40
1.0
 40
1.0
 10
165.0999891928016
 20
172.4943483557208
 30
0.0
 10
165.0999891928016
 20
172.4943483557208
 30
0.0
 10
165.0999891928016
 20
180.5800197573723
 30
0.0
 10
165.0999891928016
 20
180.5800197573723
 30
0.0
  0
SPLINE
  5
14E
330
70
100
AcDbEntity
  8
Capa 1
 62
    18
420
        0
370
     9
100
AcDbSpline
210
0.0
220
0.0
230
1.0
 70
    24
 71
     3
 72
     8
 73
     4
 74
     0
 42
0.0000000001
 43
0.0000000001
 40
0.0
 40
0.0
 40
0.0
 40
0.0
 40
1.0
 40
1.0
 40
1.0
 40
1.0
 10
166.7086549977922
 20
148.449013736488
 30
0.0
 10
166.7086549977922
 20
148.449013736488
 30
0.0
 10
166.7086549977922
 20
141.9296872949755
 30
0.0
 10
166.7086549977922
 20
141.9296872949755
 30
0.0
  0
SPLINE
  5
14F
330
70
100
AcDbEntity
  8
Capa 1
 62
    18
420
        0
370
     9
100
AcDbSpline
210
0.0
220
0.0
230
1.0
 70
    24
 71
     3
 72
     8
 73
     4
 74
     0
 42
0.0000000001
 43
0.0000000001
 40
0.0
 40
0.0
 40
0.0
 40
0.0
 40
1.0
 40
1.0
 40
1.0
 40
1.0
 10
166.7086549977922
 20
179.6063496458536
 30
0.0
 10
166.7086549977922
 20
179.6063496458536
 30
0.0
 10
166.7086549977922
 20
172.3250219126208
 30
0.0
 10
166.7086549977922
 20
172.3250219126208
 30
0.0
  0
SPLINE
  5
150
330
70
100
AcDbEntity
  8
Capa 1
 62
    18
420
        0
370
     9
100
AcDbSpline
210
0.0
220
0.0
230
1.0
 70
    24
 71
     3
 72
     8
 73
     4
 74
     0
 42
0.0000000001
 43
0.0000000001
 40
0.0
 40
0.0
 40
0.0
 40
0.0
 40
1.0
 40
1.0
 40
1.0
 40
1.0
 10
166.7086549977922
 20
156.0690158877677
 30
0.0
 10
166.7086549977922
 20
156.0690158877677
 30
0.0
 10
166.7086549977922
 20
153.4020167497083
 30
0.0
 10
166.7086549977922
 20
153.4020167497083
 30
0.0
  0
SPLINE
  5
151
330
70
100
AcDbEntity
  8
Capa 1
 62
    18
420
        0
370
     9
100
AcDbSpline
210
0.0
220
0.0
230
1.0
 70
    24
 71
     3
 72
     8
 73
     4
 74
     0
 42
0.0000000001
 43
0.0000000001
 40
0.0
 40
0.0
 40
0.0
 40
0.0
 40
1.0
 40
1.0
 40
1.0
 40
1.0
 10
166.7086549977922
 20
152.9363474993364
 30
0.0
 10
166.7086549977922
 20
152.9363474993364
 30
0.0
 10
166.7086549977922
 20
152.7670210562364
 30
0.0
 10
166.7086549977922
 20
152.7670210562364
 30
0.0
  0
SPLINE
  5
152
330
70
100
AcDbEntity
  8
Capa 1
 62
    18
420
        0
370
     9
100
AcDbSpline
210
0.0
220
0.0
230
1.0
 70
    24
 71
     3
 72
     8
 73
     4
 74
     0
 42
0.0000000001
 43
0.0000000001
 40
0.0
 40
0.0
 40
0.0
 40
0.0
 40
1.0
 40
1.0
 40
1.0
 40
1.0
 10
166.7086549977922
 20
152.1320145968411
 30
0.0
 10
166.7086549977922
 20
152.1320145968411
 30
0.0
 10
166.7086549977922
 20
151.0313496529974
 30
0.0
 10
166.7086549977922
 20
151.0313496529974
 30
0.0
  0
SPLINE
  5
153
330
70
100
AcDbEntity
  8
Capa 1
 62
    18
420
        0
370
     9
100
AcDbSpline
210
0.0
220
0.0
230
1.0
 70
    24
 71
     3
 72
     8
 73
     4
 74
     0
 42
0.0000000001
 43
0.0000000001
 40
0.0
 40
0.0
 40
0.0
 40
0.0
 40
1.0
 40
1.0
 40
1.0
 40
1.0
 10
166.7086549977922
 20
148.237355682613
 30
0.0
 10
166.7086549977922
 20
148.237355682613
 30
0.0
 10
166.7086549977922
 20
148.279687293388
 30
0.0
 10
166.7086549977922
 20
148.279687293388
 30
0.0
  0
SPLINE
  5
154
330
70
100
AcDbEntity
  8
Capa 1
 62
    18
420
        0
370
     9
100
AcDbSpline
210
0.0
220
0.0
230
1.0
 70
    24
 71
     3
 72
     8
 73
     4
 74
     0
 42
0.0000000001
 43
0.0000000001
 40
0.0
 40
0.0
 40
0.0
 40
0.0
 40
1.0
 40
1.0
 40
1.0
 40
1.0
 10
165.0999891928016
 20
148.237355682613
 30
0.0
 10
165.0999891928016
 20
148.237355682613
 30
0.0
 10
165.1423208035766
 20
148.237355682613
 30
0.0
 10
165.1423208035766
 20
148.237355682613
 30
0.0
  0
LWPOLYLINE
  5
155
330
70
100
AcDbEntity
  8
Capa 1
 62
    18
420
        0
370
     9
100
AcDbPolyline
 90
        4
 70
     0
 43
0.0
 10
171.5769947894625
 20
181.4266735047193
 10
171.7039896217875
 20
181.4266735047193
 10
171.7886528433375
 20
181.4690051154943
 10
171.8309952200359
 20
181.5536683370443
  0
SPLINE
  5
156
330
70
100
AcDbEntity
  8
Capa 1
 62
    18
420
        0
370
     9
100
AcDbSpline
210
0.0
220
0.0
230
1.0
 70
    24
 71
     3
 72
     8
 73
     4
 74
     0
 42
0.0000000001
 43
0.0000000001
 40
0.0
 40
0.0
 40
0.0
 40
0.0
 40
1.0
 40
1.0
 40
1.0
 40
1.0
 10
168.7406584423797
 20
140.9560171834567
 30
0.0
 10
168.7406584423797
 20
140.9560171834567
 30
0.0
 10
168.7406584423797
 20
140.9983487942317
 30
0.0
 10
168.7406584423797
 20
140.9983487942317
 30
0.0
  0
SPLINE
  5
157
330
70
100
AcDbEntity
  8
Capa 1
 62
    18
420
        0
370
     9
100
AcDbSpline
210
0.0
220
0.0
230
1.0
 70
    24
 71
     3
 72
     8
 73
     4
 74
     0
 42
0.0000000001
 43
0.0000000001
 40
0.0
 40
0.0
 40
0.0
 40
0.0
 40
1.0
 40
1.0
 40
1.0
 40
1.0
 10
166.8356605960406
 20
152.4283466381895
 30
0.0
 10
166.8356605960406
 20
152.4283466381895
 30
0.0
 10
166.8356605960406
 20
151.8356825554927
 30
0.0
 10
166.8356605960406
 20
151.8356825554927
 30
0.0
  0
SPLINE
  5
158
330
70
100
AcDbEntity
  8
Capa 1
 62
    18
420
        0
370
     9
100
AcDbSpline
210
0.0
220
0.0
230
1.0
 70
    24
 71
     3
 72
     8
 73
     4
 74
     0
 42
0.0000000001
 43
0.0000000001
 40
0.0
 40
0.0
 40
0.0
 40
0.0
 40
1.0
 40
1.0
 40
1.0
 40
1.0
 10
168.2749891920078
 20
150.6926860008739
 30
0.0
 10
168.2749891920078
 20
150.6926860008739
 30
0.0
 10
166.7086549977922
 20
150.6926860008739
 30
0.0
 10
166.7086549977922
 20
150.6926860008739
 30
0.0
  0
LINE
  5
159
330
70
100
AcDbEntity
  8
Capa 1
 62
    18
420
        0
370
     9
100
AcDbLine
 10
164.5919883316547
 20
150.7350176116489
 30
0.0
 11
164.5919883316547
 21
150.7773492224239
 31
0.0
  0
LINE
  5
15A
330
70
100
AcDbEntity
  8
Capa 1
 62
    18
420
        0
370
     9
100
AcDbLine
 10
164.9729943604766
 20
150.7350176116489
 30
0.0
 11
164.9729943604766
 21
150.7773492224239
 31
0.0
  0
LWPOLYLINE
  5
15B
330
70
100
AcDbEntity
  8
Capa 1
 62
    18
420
        0
370
     9
100
AcDbPolyline
 90
        4
 70
     0
 43
0.0
 10
165.0999891928016
 20
153.4020167497083
 10
165.0153259712516
 20
152.9363474993364
 10
164.9729943604766
 20
152.7246894454614
 10
164.9729943604766
 20
152.513020625663
  0
LINE
  5
15C
330
70
100
AcDbEntity
  8
Capa 1
 62
    18
420
        0
370
     9
100
AcDbLine
 10
164.4649934993297
 20
156.6193483596896
 30
0.0
 11
164.4649934993297
 21
150.8620232098973
 31
0.0
  0
LINE
  5
15D
330
70
100
AcDbEntity
  8
Capa 1
 62
    18
420
        0
370
     9
100
AcDbLine
 10
165.0999891928016
 20
151.6663561123927
 30
0.0
 11
165.0999891928016
 21
152.4706890148879
 31
0.0
  0
LWPOLYLINE
  5
15E
330
70
100
AcDbEntity
  8
Capa 1
 62
    18
420
        0
370
     9
100
AcDbPolyline
 90
        5
 70
     0
 43
0.0
 10
166.8356605960406
 20
151.8356825554927
 10
166.7933289852656
 20
151.8356825554927
 10
166.7509866085672
 20
151.7933509447177
 10
166.7086549977922
 20
151.7933509447177
 10
166.7086549977922
 20
151.7510193339427
  0
LINE
  5
15F
330
70
100
AcDbEntity
  8
Capa 1
 62
    18
420
        0
370
     9
100
AcDbLine
 10
166.8356605960406
 20
148.5760193347364
 30
0.0
 11
166.7086549977922
 21
148.5760193347364
 31
0.0
  0
LINE
  5
160
330
70
100
AcDbEntity
  8
Capa 1
 62
    18
420
        0
370
     9
100
AcDbLine
 10
168.6559952208297
 20
179.775686854877
 30
0.0
 11
168.6559952208297
 21
179.9450132979771
 31
0.0
  0
LINE
  5
161
330
70
100
AcDbEntity
  8
Capa 1
 62
    18
420
        0
370
     9
100
AcDbLine
 10
168.6559952208297
 20
141.760350085952
 30
0.0
 11
168.6559952208297
 21
141.9296872949755
 31
0.0
  0
LWPOLYLINE
  5
162
330
70
100
AcDbEntity
  8
Capa 1
 62
    18
420
        0
370
     9
100
AcDbPolyline
 90
        3
 70
     0
 43
0.0
 10
166.8356605960406
 20
148.279687293388
 10
166.8356605960406
 20
148.1950133059146
 10
166.7933289852656
 20
148.1103500843645
  0
SPLINE
  5
163
330
70
100
AcDbEntity
  8
Capa 1
 62
    18
420
        0
370
     9
100
AcDbSpline
210
0.0
220
0.0
230
1.0
 70
    24
 71
     3
 72
     8
 73
     4
 74
     0
 42
0.0000000001
 43
0.0000000001
 40
0.0
 40
0.0
 40
0.0
 40
0.0
 40
1.0
 40
1.0
 40
1.0
 40
1.0
 10
166.7086549977922
 20
148.279687293388
 30
0.0
 10
166.7086549977922
 20
148.279687293388
 30
0.0
 10
166.8356605960406
 20
148.279687293388
 30
0.0
 10
166.8356605960406
 20
148.279687293388
 30
0.0
  0
SPLINE
  5
164
330
70
100
AcDbEntity
  8
Capa 1
 62
    18
420
        0
370
     9
100
AcDbSpline
210
0.0
220
0.0
230
1.0
 70
    24
 71
     3
 72
     8
 73
     4
 74
     0
 42
0.0000000001
 43
0.0000000001
 40
0.0
 40
0.0
 40
0.0
 40
0.0
 40
1.0
 40
1.0
 40
1.0
 40
1.0
 10
166.7933289852656
 20
148.1103500843645
 30
0.0
 10
166.7933289852656
 20
148.1103500843645
 30
0.0
 10
166.7086549977922
 20
148.1103500843645
 30
0.0
 10
166.7086549977922
 20
148.1103500843645
 30
0.0
  0
SPLINE
  5
165
330
70
100
AcDbEntity
  8
Capa 1
 62
    18
420
        0
370
     9
100
AcDbSpline
210
0.0
220
0.0
230
1.0
 70
    24
 71
     3
 72
     8
 73
     4
 74
     0
 42
0.0000000001
 43
0.0000000001
 40
0.0
 40
0.0
 40
0.0
 40
0.0
 40
1.0
 40
1.0
 40
1.0
 40
1.0
 10
166.8356605960406
 20
148.5760193347364
 30
0.0
 10
166.8356605960406
 20
148.5760193347364
 30
0.0
 10
166.8356605960406
 20
148.279687293388
 30
0.0
 10
166.8356605960406
 20
148.279687293388
 30
0.0
  0
LWPOLYLINE
  5
166
330
70
100
AcDbEntity
  8
Capa 1
 62
    18
420
        0
370
     9
100
AcDbPolyline
 90
        5
 70
     0
 43
0.0
 10
168.4866580118063
 20
148.0680184735895
 10
168.5713212333563
 20
148.0680184735895
 10
168.6136528441313
 20
148.0256868628145
 10
168.6559952208297
 20
147.9833552520395
 10
168.6559952208297
 20
147.9410128753411
  0
SPLINE
  5
167
330
70
100
AcDbEntity
  8
Capa 1
 62
    18
420
        0
370
     9
100
AcDbSpline
210
0.0
220
0.0
230
1.0
 70
    24
 71
     3
 72
     8
 73
     4
 74
     0
 42
0.0000000001
 43
0.0000000001
 40
0.0
 40
0.0
 40
0.0
 40
0.0
 40
1.0
 40
1.0
 40
1.0
 40
1.0
 10
168.4866580118063
 20
148.0680184735895
 30
0.0
 10
168.4866580118063
 20
148.0680184735895
 30
0.0
 10
166.7086549977922
 20
148.1103500843645
 30
0.0
 10
166.7086549977922
 20
148.1103500843645
 30
0.0
  0
SPLINE
  5
168
330
70
100
AcDbEntity
  8
Capa 1
 62
    18
420
        0
370
     9
100
AcDbSpline
210
0.0
220
0.0
230
1.0
 70
    24
 71
     3
 72
     8
 73
     4
 74
     0
 42
0.0000000001
 43
0.0000000001
 40
0.0
 40
0.0
 40
0.0
 40
0.0
 40
1.0
 40
1.0
 40
1.0
 40
1.0
 10
168.6559952208297
 20
141.9296872949755
 30
0.0
 10
168.6559952208297
 20
141.9296872949755
 30
0.0
 10
168.6559952208297
 20
147.9410128753411
 30
0.0
 10
168.6559952208297
 20
147.9410128753411
 30
0.0
  0
SPLINE
  5
169
330
70
100
AcDbEntity
  8
Capa 1
 62
    18
420
        0
370
     9
100
AcDbSpline
210
0.0
220
0.0
230
1.0
 70
    24
 71
     3
 72
     8
 73
     4
 74
     0
 42
0.0000000001
 43
0.0000000001
 40
0.0
 40
0.0
 40
0.0
 40
0.0
 40
1.0
 40
1.0
 40
1.0
 40
1.0
 10
168.6559952208297
 20
172.4943483557208
 30
0.0
 10
168.6559952208297
 20
172.4943483557208
 30
0.0
 10
168.6559952208297
 20
173.3833552456895
 30
0.0
 10
168.6559952208297
 20
173.3833552456895
 30
0.0
  0
SPLINE
  5
16A
330
70
100
AcDbEntity
  8
Capa 1
 62
    18
420
        0
370
     9
100
AcDbSpline
210
0.0
220
0.0
230
1.0
 70
    24
 71
     3
 72
     8
 73
     4
 74
     0
 42
0.0000000001
 43
0.0000000001
 40
0.0
 40
0.0
 40
0.0
 40
0.0
 40
1.0
 40
1.0
 40
1.0
 40
1.0
 10
168.6559952208297
 20
174.9496786739817
 30
0.0
 10
168.6559952208297
 20
174.9496786739817
 30
0.0
 10
168.6559952208297
 20
179.775686854877
 30
0.0
 10
168.6559952208297
 20
179.775686854877
 30
0.0
  0
LWPOLYLINE
  5
16B
330
70
100
AcDbEntity
  8
Capa 1
 62
    18
420
        0
370
     9
100
AcDbPolyline
 90
        4
 70
     0
 43
0.0
 10
168.6559952208297
 20
152.0473513752911
 10
167.5553195110625
 20
152.513020625663
 10
167.5976618877609
 20
152.7246894454614
 10
167.5976618877609
 20
152.8940158885614
  0
LINE
  5
16C
330
70
100
AcDbEntity
  8
Capa 1
 62
    18
420
        0
370
     9
100
AcDbLine
 10
167.5553195110625
 20
151.1160128745474
 30
0.0
 11
168.6559952208297
 21
150.4810171810755
 31
0.0
  0
LINE
  5
16D
330
70
100
AcDbEntity
  8
Capa 1
 62
    18
420
        0
370
     9
100
AcDbLine
 10
167.5553195110625
 20
152.513020625663
 30
0.0
 11
167.5553195110625
 21
151.1160128745474
 31
0.0
  0
LINE
  5
16E
330
70
100
AcDbEntity
  8
Capa 1
 62
    18
420
        0
370
     9
100
AcDbLine
 10
167.4706562895125
 20
152.640015457988
 30
0.0
 11
167.5553195110625
 21
152.513020625663
 31
0.0
  0
LWPOLYLINE
  5
16F
330
70
100
AcDbEntity
  8
Capa 1
 62
    18
420
        0
370
     9
100
AcDbPolyline
 90
        3
 70
     0
 43
0.0
 10
167.5976618877609
 20
152.7246894454614
 10
167.5129879002875
 20
152.7246894454614
 10
167.4706562895125
 20
152.640015457988
  0
LWPOLYLINE
  5
170
330
70
100
AcDbEntity
  8
Capa 1
 62
    18
420
        0
370
     9
100
AcDbPolyline
 90
        4
 70
     0
 43
0.0
 10
167.5976618877609
 20
152.8940158885614
 10
167.5129879002875
 20
152.8940158885614
 10
167.4706562895125
 20
152.8093526670114
 10
167.4706562895125
 20
152.640015457988
  0
LINE
  5
171
330
70
100
AcDbEntity
  8
Capa 1
 62
    18
420
        0
370
     9
100
AcDbLine
 10
167.4706562895125
 20
151.2430184727958
 30
0.0
 11
167.5553195110625
 21
151.1160128745474
 31
0.0
  0
LINE
  5
172
330
70
100
AcDbEntity
  8
Capa 1
 62
    18
420
        0
370
     9
100
AcDbLine
 10
167.4706562895125
 20
152.640015457988
 30
0.0
 11
167.4706562895125
 21
151.2430184727958
 31
0.0
  0
LINE
  5
173
330
70
100
AcDbEntity
  8
Capa 1
 62
    18
420
        0
370
     9
100
AcDbLine
 10
167.5976618877609
 20
154.0793548198786
 30
0.0
 11
167.5976618877609
 21
156.2383530967911
 31
0.0
  0
LINE
  5
174
330
70
100
AcDbEntity
  8
Capa 1
 62
    18
420
        0
370
     9
100
AcDbLine
 10
167.5976618877609
 20
153.8253543893052
 30
0.0
 11
167.5976618877609
 21
154.0793548198786
 31
0.0
  0
LINE
  5
175
330
70
100
AcDbEntity
  8
Capa 1
 62
    18
420
        0
370
     9
100
AcDbLine
 10
167.5976618877609
 20
153.6983487910567
 30
0.0
 11
167.5976618877609
 21
153.8253543893052
 31
0.0
  0
LWPOLYLINE
  5
176
330
70
100
AcDbEntity
  8
Capa 1
 62
    18
420
        0
370
     9
100
AcDbPolyline
 90
        5
 70
     0
 43
0.0
 10
167.4706562895125
 20
153.9523492216302
 10
167.4706562895125
 20
154.0370232091036
 10
167.5129879002875
 20
154.0370232091036
 10
167.5553195110625
 20
154.0793548198786
 10
167.5976618877609
 20
154.0793548198786
  0
LWPOLYLINE
  5
177
330
70
100
AcDbEntity
  8
Capa 1
 62
    18
420
        0
370
     9
100
AcDbPolyline
 90
        3
 70
     0
 43
0.0
 10
167.4706562895125
 20
153.9523492216302
 10
167.5129879002875
 20
153.8676860000802
 10
167.5976618877609
 20
153.8253543893052
  0
LWPOLYLINE
  5
178
330
70
100
AcDbEntity
  8
Capa 1
 62
    18
420
        0
370
     9
100
AcDbPolyline
 90
        5
 70
     0
 43
0.0
 10
167.4706562895125
 20
156.1536791093177
 10
167.4706562895125
 20
156.1960214860161
 10
167.5129879002875
 20
156.1960214860161
 10
167.5553195110625
 20
156.2383530967911
 10
167.5976618877609
 20
156.2383530967911
  0
LWPOLYLINE
  5
179
330
70
100
AcDbEntity
  8
Capa 1
 62
    18
420
        0
370
     9
100
AcDbPolyline
 90
        4
 70
     0
 43
0.0
 10
167.4706562895125
 20
156.1536791093177
 10
167.4706562895125
 20
153.8253543893052
 10
167.5129879002875
 20
153.7406804018317
 10
167.5976618877609
 20
153.6983487910567
  0
LWPOLYLINE
  5
17A
330
70
100
AcDbEntity
  8
Capa 1
 62
    18
420
        0
370
     9
100
AcDbPolyline
 90
        3
 70
     0
 43
0.0
 10
167.5976618877609
 20
150.227016750502
 10
167.5553195110625
 20
150.0576795414786
 10
168.6559952208297
 20
149.4650154587817
  0
LINE
  5
17B
330
70
100
AcDbEntity
  8
Capa 1
 62
    18
420
        0
370
     9
100
AcDbLine
 10
167.5976618877609
 20
150.227016750502
 30
0.0
 11
167.5976618877609
 21
150.5233487918505
 31
0.0
  0
LWPOLYLINE
  5
17C
330
70
100
AcDbEntity
  8
Capa 1
 62
    18
420
        0
370
     9
100
AcDbPolyline
 90
        3
 70
     0
 43
0.0
 10
167.5553195110625
 20
150.0576795414786
 10
167.5553195110625
 20
148.8723513760849
 10
168.6559952208297
 20
148.322018904163
  0
LINE
  5
17D
330
70
100
AcDbEntity
  8
Capa 1
 62
    18
420
        0
370
     9
100
AcDbLine
 10
167.4706562895125
 20
150.184685139727
 30
0.0
 11
167.5553195110625
 21
150.0576795414786
 31
0.0
  0
LWPOLYLINE
  5
17E
330
70
100
AcDbEntity
  8
Capa 1
 62
    18
420
        0
370
     9
100
AcDbPolyline
 90
        3
 70
     0
 43
0.0
 10
167.5976618877609
 20
150.227016750502
 10
167.4706562895125
 20
150.227016750502
 10
167.4706562895125
 20
150.184685139727
  0
LWPOLYLINE
  5
17F
330
70
100
AcDbEntity
  8
Capa 1
 62
    18
420
        0
370
     9
100
AcDbPolyline
 90
        5
 70
     0
 43
0.0
 10
167.4706562895125
 20
150.4386855703005
 10
167.4706562895125
 20
150.4810171810755
 10
167.5129879002875
 20
150.4810171810755
 10
167.5553195110625
 20
150.5233487918505
 10
167.5976618877609
 20
150.5233487918505
  0
LWPOLYLINE
  5
180
330
70
100
AcDbEntity
  8
Capa 1
 62
    18
420
        0
370
     9
100
AcDbPolyline
 90
        3
 70
     0
 43
0.0
 10
167.4706562895125
 20
150.4386855703005
 10
167.4706562895125
 20
148.9993462084099
 10
167.5553195110625
 20
148.8723513760849
  0
LINE
  5
181
330
70
100
AcDbEntity
  8
Capa 1
 62
    18
420
        0
370
     9
100
AcDbLine
 10
167.5976618877609
 20
153.3173535281583
 30
0.0
 11
167.5976618877609
 21
153.1056847083598
 31
0.0
  0
LWPOLYLINE
  5
182
330
70
100
AcDbEntity
  8
Capa 1
 62
    18
420
        0
370
     9
100
AcDbPolyline
 90
        3
 70
     0
 43
0.0
 10
167.4706562895125
 20
153.2326795406849
 10
167.5129879002875
 20
153.1480163191349
 10
167.5976618877609
 20
153.1056847083598
  0
LWPOLYLINE
  5
183
330
70
100
AcDbEntity
  8
Capa 1
 62
    18
420
        0
370
     9
100
AcDbPolyline
 90
        4
 70
     0
 43
0.0
 10
167.5976618877609
 20
153.3173535281583
 10
167.5129879002875
 20
153.3173535281583
 10
167.4706562895125
 20
153.2750219173833
 10
167.4706562895125
 20
153.2326795406849
  0
LINE
  5
184
330
70
100
AcDbEntity
  8
Capa 1
 62
    18
420
        0
370
     9
100
AcDbLine
 10
167.5976618877609
 20
152.9363474993364
 30
0.0
 11
167.5976618877609
 21
153.1056847083598
 31
0.0
  0
LINE
  5
185
330
70
100
AcDbEntity
  8
Capa 1
 62
    18
420
        0
370
     9
100
AcDbLine
 10
167.4706562895125
 20
153.8253543893052
 30
0.0
 11
167.4706562895125
 21
153.0633530975848
 31
0.0
  0
LINE
  5
186
330
70
100
AcDbEntity
  8
Capa 1
 62
    18
420
        0
370
     9
100
AcDbLine
 10
165.6926532754985
 20
156.873348790263
 30
0.0
 11
165.6926532754985
 21
163.3080227761489
 31
0.0
  0
LINE
  5
187
330
70
100
AcDbEntity
  8
Capa 1
 62
    18
420
        0
370
     9
100
AcDbLine
 10
159.5543220968844
 20
157.4660128729599
 30
0.0
 11
159.5543220968844
 21
163.3503543869239
 31
0.0
  0
LINE
  5
188
330
70
100
AcDbEntity
  8
Capa 1
 62
    18
420
        0
370
     9
100
AcDbLine
 10
168.5713212333563
 20
153.6136855695067
 30
0.0
 11
168.5713212333563
 21
156.4923535273645
 31
0.0
  0
SPLINE
  5
189
330
70
100
AcDbEntity
  8
Capa 1
 62
    18
420
        0
370
     9
100
AcDbSpline
210
0.0
220
0.0
230
1.0
 70
    24
 71
     3
 72
     8
 73
     4
 74
     0
 42
0.0000000001
 43
0.0000000001
 40
0.0
 40
0.0
 40
0.0
 40
0.0
 40
1.0
 40
1.0
 40
1.0
 40
1.0
 10
159.5543220968844
 20
157.4660128729599
 30
0.0
 10
159.5543220968844
 20
157.4660128729599
 30
0.0
 10
159.5543220968844
 20
156.788685568713
 30
0.0
 10
159.5543220968844
 20
156.788685568713
 30
0.0
  0
SPLINE
  5
18A
330
70
100
AcDbEntity
  8
Capa 1
 62
    18
420
        0
370
     9
100
AcDbSpline
210
0.0
220
0.0
230
1.0
 70
    24
 71
     3
 72
     8
 73
     4
 74
     0
 42
0.0000000001
 43
0.0000000001
 40
0.0
 40
0.0
 40
0.0
 40
0.0
 40
1.0
 40
1.0
 40
1.0
 40
1.0
 10
168.5713212333563
 20
153.2750219173833
 30
0.0
 10
168.5713212333563
 20
153.2750219173833
 30
0.0
 10
168.6136528441313
 20
153.2750219173833
 30
0.0
 10
168.6136528441313
 20
153.2750219173833
 30
0.0
  0
LINE
  5
18B
330
70
100
AcDbEntity
  8
Capa 1
 62
    18
420
        0
370
     9
100
AcDbLine
 10
175.0483268300172
 20
185.7023384477693
 30
0.0
 11
175.0483268300172
 21
134.8176860048426
 31
0.0
  0
LINE
  5
18C
330
70
100
AcDbEntity
  8
Capa 1
 62
    18
420
        0
370
     9
100
AcDbLine
 10
175.0906584407922
 20
174.4416885787583
 30
0.0
 11
175.0906584407922
 21
175.0766842722302
 31
0.0
  0
LWPOLYLINE
  5
18D
330
70
100
AcDbEntity
  8
Capa 1
 62
    18
420
        0
370
     9
100
AcDbPolyline
 90
        4
 70
     0
 43
0.0
 10
172.6353281225313
 20
185.1096743650724
 10
172.6353281225313
 20
186.0833444765911
 10
172.5083225242828
 20
186.0410128658161
 10
172.4659909135078
 20
185.9140180334911
  0
LINE
  5
18E
330
70
100
AcDbEntity
  8
Capa 1
 62
    18
420
        0
370
     9
100
AcDbLine
 10
172.4659909135078
 20
185.1096743650724
 30
0.0
 11
172.4659909135078
 21
185.9140180334911
 31
0.0
  0
LINE
  5
18F
330
70
100
AcDbEntity
  8
Capa 1
 62
    18
420
        0
370
     9
100
AcDbLine
 10
172.6353281225313
 20
185.1096743650724
 30
0.0
 11
172.4659909135078
 21
185.1096743650724
 31
0.0
  0
LWPOLYLINE
  5
190
330
70
100
AcDbEntity
  8
Capa 1
 62
    18
420
        0
370
     9
100
AcDbPolyline
 90
        3
 70
     0
 43
0.0
 10
172.6353281225313
 20
134.3943483652458
 10
172.6353281225313
 20
135.3680184767645
 10
172.4659909135078
 20
135.3680184767645
  0
LINE
  5
191
330
70
100
AcDbEntity
  8
Capa 1
 62
    18
420
        0
370
     9
100
AcDbLine
 10
172.4659909135078
 20
134.5636855742692
 30
0.0
 11
172.4659909135078
 21
135.3680184767645
 31
0.0
  0
LWPOLYLINE
  5
192
330
70
100
AcDbEntity
  8
Capa 1
 62
    18
420
        0
370
     9
100
AcDbPolyline
 90
        3
 70
     0
 43
0.0
 10
172.4659909135078
 20
134.5636855742692
 10
172.5083225242828
 20
134.4366799760208
 10
172.6353281225313
 20
134.3943483652458
  0
LINE
  5
193
330
70
100
AcDbEntity
  8
Capa 1
 62
    18
420
        0
370
     9
100
AcDbLine
 10
174.7519947886688
 20
186.0410128658161
 30
0.0
 11
174.7519947886688
 21
134.4790223527192
 31
0.0
  0
SPLINE
  5
194
330
70
100
AcDbEntity
  8
Capa 1
 62
    18
420
        0
370
     9
100
AcDbSpline
210
0.0
220
0.0
230
1.0
 70
    24
 71
     3
 72
     8
 73
     4
 74
     0
 42
0.0000000001
 43
0.0000000001
 40
0.0
 40
0.0
 40
0.0
 40
0.0
 40
1.0
 40
1.0
 40
1.0
 40
1.0
 10
172.6353281225313
 20
186.0833444765911
 30
0.0
 10
172.6353281225313
 20
186.0833444765911
 30
0.0
 10
174.7519947886688
 20
186.0410128658161
 30
0.0
 10
174.7519947886688
 20
186.0410128658161
 30
0.0
  0
SPLINE
  5
195
330
70
100
AcDbEntity
  8
Capa 1
 62
    18
420
        0
370
     9
100
AcDbSpline
210
0.0
220
0.0
230
1.0
 70
    24
 71
     3
 72
     8
 73
     4
 74
     0
 42
0.0000000001
 43
0.0000000001
 40
0.0
 40
0.0
 40
0.0
 40
0.0
 40
1.0
 40
1.0
 40
1.0
 40
1.0
 10
172.6353281225313
 20
185.1096743650724
 30
0.0
 10
172.6353281225313
 20
185.1096743650724
 30
0.0
 10
174.7519947886688
 20
185.0673427542974
 30
0.0
 10
174.7519947886688
 20
185.0673427542974
 30
0.0
  0
SPLINE
  5
196
330
70
100
AcDbEntity
  8
Capa 1
 62
    18
420
        0
370
     9
100
AcDbSpline
210
0.0
220
0.0
230
1.0
 70
    24
 71
     3
 72
     8
 73
     4
 74
     0
 42
0.0000000001
 43
0.0000000001
 40
0.0
 40
0.0
 40
0.0
 40
0.0
 40
1.0
 40
1.0
 40
1.0
 40
1.0
 10
172.6353281225313
 20
135.3680184767645
 30
0.0
 10
172.6353281225313
 20
135.3680184767645
 30
0.0
 10
174.7519947886688
 20
135.4526816983145
 30
0.0
 10
174.7519947886688
 20
135.4526816983145
 30
0.0
  0
SPLINE
  5
197
330
70
100
AcDbEntity
  8
Capa 1
 62
    18
420
        0
370
     9
100
AcDbSpline
210
0.0
220
0.0
230
1.0
 70
    24
 71
     3
 72
     8
 73
     4
 74
     0
 42
0.0000000001
 43
0.0000000001
 40
0.0
 40
0.0
 40
0.0
 40
0.0
 40
1.0
 40
1.0
 40
1.0
 40
1.0
 10
172.6353281225313
 20
134.3943483652458
 30
0.0
 10
172.6353281225313
 20
134.3943483652458
 30
0.0
 10
174.7519947886688
 20
134.4790223527192
 30
0.0
 10
174.7519947886688
 20
134.4790223527192
 30
0.0
  0
LINE
  5
198
330
70
100
AcDbEntity
  8
Capa 1
 62
    18
420
        0
370
     9
100
AcDbLine
 10
174.7519947886688
 20
135.4526816983145
 30
0.0
 11
174.7519947886688
 21
134.4790223527192
 31
0.0
  0
SPLINE
  5
199
330
70
100
AcDbEntity
  8
Capa 1
 62
    18
420
        0
370
     9
100
AcDbSpline
210
0.0
220
0.0
230
1.0
 70
    24
 71
     3
 72
     8
 73
     4
 74
     0
 42
0.0000000001
 43
0.0000000001
 40
0.0
 40
0.0
 40
0.0
 40
0.0
 40
1.0
 40
1.0
 40
1.0
 40
1.0
 10
172.6353281225313
 20
135.3680184767645
 30
0.0
 10
172.6353281225313
 20
135.3680184767645
 30
0.0
 10
172.6353281225313
 20
185.1096743650724
 30
0.0
 10
172.6353281225313
 20
185.1096743650724
 30
0.0
  0
SPLINE
  5
19A
330
70
100
AcDbEntity
  8
Capa 1
 62
    18
420
        0
370
     9
100
AcDbSpline
210
0.0
220
0.0
230
1.0
 70
    24
 71
     3
 72
     8
 73
     4
 74
     0
 42
0.0000000001
 43
0.0000000001
 40
0.0
 40
0.0
 40
0.0
 40
0.0
 40
1.0
 40
1.0
 40
1.0
 40
1.0
 10
172.4659909135078
 20
135.3680184767645
 30
0.0
 10
172.4659909135078
 20
135.3680184767645
 30
0.0
 10
172.4659909135078
 20
185.1096743650724
 30
0.0
 10
172.4659909135078
 20
185.1096743650724
 30
0.0
  0
LINE
  5
19B
330
70
100
AcDbEntity
  8
Capa 1
 62
    18
420
        0
370
     9
100
AcDbLine
 10
174.7519947886688
 20
185.0673427542974
 30
0.0
 11
175.0483268300172
 21
185.0673427542974
 31
0.0
  0
SPLINE
  5
19C
330
70
100
AcDbEntity
  8
Capa 1
 62
    18
420
        0
370
     9
100
AcDbSpline
210
0.0
220
0.0
230
1.0
 70
    24
 71
     3
 72
     8
 73
     4
 74
     0
 42
0.0000000001
 43
0.0000000001
 40
0.0
 40
0.0
 40
0.0
 40
0.0
 40
1.0
 40
1.0
 40
1.0
 40
1.0
 10
174.7519947886688
 20
186.0410128658161
 30
0.0
 10
174.7519947886688
 20
186.0410128658161
 30
0.0
 10
174.7943263994438
 20
186.0410128658161
 30
0.0
 10
174.7943263994438
 20
186.0410128658161
 30
0.0
  0
SPLINE
  5
19D
330
70
100
AcDbEntity
  8
Capa 1
 62
    18
420
        0
370
     9
100
AcDbSpline
210
0.0
220
0.0
230
1.0
 70
    24
 71
     3
 72
     8
 73
     4
 74
     0
 42
0.0000000001
 43
0.0000000001
 40
0.0
 40
0.0
 40
0.0
 40
0.0
 40
1.0
 40
1.0
 40
1.0
 40
1.0
 10
174.7519947886688
 20
134.4790223527192
 30
0.0
 10
174.7519947886688
 20
134.4790223527192
 30
0.0
 10
174.7943263994438
 20
134.4790223527192
 30
0.0
 10
174.7943263994438
 20
134.4790223527192
 30
0.0
  0
LINE
  5
19E
330
70
100
AcDbEntity
  8
Capa 1
 62
    18
420
        0
370
     9
100
AcDbLine
 10
174.7519947886688
 20
135.4526816983145
 30
0.0
 11
175.0483268300172
 21
135.4526816983145
 31
0.0
  0
LINE
  5
19F
330
70
100
AcDbEntity
  8
Capa 1
 62
    18
420
        0
370
     9
100
AcDbLine
 10
172.2966537044844
 20
185.0250111435224
 30
0.0
 11
172.2966537044844
 21
185.6176752262193
 31
0.0
  0
LINE
  5
1A0
330
70
100
AcDbEntity
  8
Capa 1
 62
    18
420
        0
370
     9
100
AcDbLine
 10
172.2966537044844
 20
185.0250111435224
 30
0.0
 11
172.4659909135078
 21
185.0250111435224
 31
0.0
  0
LWPOLYLINE
  5
1A1
330
70
100
AcDbEntity
  8
Capa 1
 62
    18
420
        0
370
     9
100
AcDbPolyline
 90
        3
 70
     0
 43
0.0
 10
172.2966537044844
 20
185.6176752262193
 10
172.4236593027328
 20
185.6600068369943
 10
172.4659909135078
 20
185.7870016693193
  0
LINE
  5
1A2
330
70
100
AcDbEntity
  8
Capa 1
 62
    18
420
        0
370
     9
100
AcDbLine
 10
172.2966537044844
 20
134.8600176156177
 30
0.0
 11
172.2966537044844
 21
135.4526816983145
 31
0.0
  0
LWPOLYLINE
  5
1A3
330
70
100
AcDbEntity
  8
Capa 1
 62
    18
420
        0
370
     9
100
AcDbPolyline
 90
        3
 70
     0
 43
0.0
 10
172.4659909135078
 20
134.7330227832926
 10
172.4236593027328
 20
134.8176860048426
 10
172.2966537044844
 20
134.8600176156177
  0
LWPOLYLINE
  5
1A4
330
70
100
AcDbEntity
  8
Capa 1
 62
    18
420
        0
370
     9
100
AcDbPolyline
 90
        3
 70
     0
 43
0.0
 10
172.4659909135078
 20
135.4526816983145
 10
172.2966537044844
 20
135.4526816983145
 10
172.2966537044844
 20
185.0250111435224
  0
LWPOLYLINE
  5
1A5
330
70
100
AcDbEntity
  8
Capa 1
 62
    18
420
        0
370
     9
100
AcDbPolyline
 90
        3
 70
     0
 43
0.0
 10
171.957990052361
 20
185.6176752262193
 10
171.957990052361
 20
185.0250111435224
 10
172.2966537044844
 20
185.0250111435224
  0
LINE
  5
1A6
330
70
100
AcDbEntity
  8
Capa 1
 62
    18
420
        0
370
     9
100
AcDbLine
 10
171.957990052361
 20
185.6176752262193
 30
0.0
 11
172.2966537044844
 21
185.6176752262193
 31
0.0
  0
LWPOLYLINE
  5
1A7
330
70
100
AcDbEntity
  8
Capa 1
 62
    18
420
        0
370
     9
100
AcDbPolyline
 90
        3
 70
     0
 43
0.0
 10
171.957990052361
 20
135.4526816983145
 10
171.957990052361
 20
134.9023492263927
 10
172.2966537044844
 20
134.8600176156177
  0
LWPOLYLINE
  5
1A8
330
70
100
AcDbEntity
  8
Capa 1
 62
    18
420
        0
370
     9
100
AcDbPolyline
 90
        3
 70
     0
 43
0.0
 10
172.2966537044844
 20
135.4526816983145
 10
171.957990052361
 20
135.4526816983145
 10
171.957990052361
 20
185.0250111435224
  0
LWPOLYLINE
  5
1A9
330
70
100
AcDbEntity
  8
Capa 1
 62
    18
420
        0
370
     9
100
AcDbPolyline
 90
        3
 70
     0
 43
0.0
 10
171.8309952200359
 20
185.0250111435224
 10
171.8309952200359
 20
135.4526816983145
 10
171.957990052361
 20
135.4526816983145
  0
LINE
  5
1AA
330
70
100
AcDbEntity
  8
Capa 1
 62
    18
420
        0
370
     9
100
AcDbLine
 10
171.8309952200359
 20
185.0250111435224
 30
0.0
 11
171.957990052361
 21
185.0250111435224
 31
0.0
  0
LINE
  5
1AB
330
70
100
AcDbEntity
  8
Capa 1
 62
    18
420
        0
370
     9
100
AcDbLine
 10
171.8309952200359
 20
185.4483487831192
 30
0.0
 11
171.8309952200359
 21
185.0250111435224
 31
0.0
  0
LWPOLYLINE
  5
1AC
330
70
100
AcDbEntity
  8
Capa 1
 62
    18
420
        0
370
     9
100
AcDbPolyline
 90
        3
 70
     0
 43
0.0
 10
171.957990052361
 20
185.6176752262193
 10
171.873326830811
 20
185.5753436154443
 10
171.8309952200359
 20
185.4483487831192
  0
LWPOLYLINE
  5
1AD
330
70
100
AcDbEntity
  8
Capa 1
 62
    18
420
        0
370
     9
100
AcDbPolyline
 90
        4
 70
     0
 43
0.0
 10
171.8309952200359
 20
135.4526816983145
 10
171.8309952200359
 20
135.0293548246411
 10
171.873326830811
 20
134.9446808371677
 10
171.957990052361
 20
134.9023492263927
  0
LWPOLYLINE
  5
1AE
330
70
100
AcDbEntity
  8
Capa 1
 62
    18
420
        0
370
     9
100
AcDbPolyline
 90
        3
 70
     0
 43
0.0
 10
171.7886528433375
 20
161.149013733313
 10
171.7886528433375
 20
161.3183509423364
 10
171.8309952200359
 20
161.4876881513598
  0
LINE
  5
1AF
330
70
100
AcDbEntity
  8
Capa 1
 62
    18
420
        0
370
     9
100
AcDbLine
 10
171.7886528433375
 20
161.149013733313
 30
0.0
 11
171.8309952200359
 21
161.149013733313
 31
0.0
  0
LWPOLYLINE
  5
1B0
330
70
100
AcDbEntity
  8
Capa 1
 62
    18
420
        0
370
     9
100
AcDbPolyline
 90
        3
 70
     0
 43
0.0
 10
171.8309952200359
 20
160.8526816919645
 10
171.7886528433375
 20
160.979687290213
 10
171.7886528433375
 20
161.149013733313
  0
LWPOLYLINE
  5
1B1
330
70
100
AcDbEntity
  8
Capa 1
 62
    18
420
        0
370
     9
100
AcDbPolyline
 90
        4
 70
     0
 43
0.0
 10
171.8309952200359
 20
161.8686834142583
 10
171.7463212325625
 20
161.5300197621348
 10
171.7463212325625
 20
160.8103500811895
 10
171.8309952200359
 20
160.4716864290661
  0
LINE
  5
1B2
330
70
100
AcDbEntity
  8
Capa 1
 62
    18
420
        0
370
     9
100
AcDbLine
 10
171.5769947894625
 20
140.4480163223098
 30
0.0
 11
171.8309952200359
 21
140.4480163223098
 31
0.0
  0
LINE
  5
1B3
330
70
100
AcDbEntity
  8
Capa 1
 62
    18
420
        0
370
     9
100
AcDbLine
 10
171.8309952200359
 20
181.2573470616192
 30
0.0
 11
171.5769947894625
 21
181.2573470616192
 31
0.0
  0
LINE
  5
1B4
330
70
100
AcDbEntity
  8
Capa 1
 62
    18
420
        0
370
     9
100
AcDbLine
 10
168.7406584423797
 20
140.8290223511317
 30
0.0
 11
168.7406584423797
 21
140.9560171834567
 31
0.0
  0
LINE
  5
1B5
330
70
100
AcDbEntity
  8
Capa 1
 62
    18
420
        0
370
     9
100
AcDbLine
 10
168.7406584423797
 20
180.7070145896974
 30
0.0
 11
168.7406584423797
 21
180.8763410327974
 31
0.0
  0
LINE
  5
1B6
330
70
100
AcDbEntity
  8
Capa 1
 62
    18
420
        0
370
     9
100
AcDbLine
 10
166.5393285546922
 20
172.6636855647442
 30
0.0
 11
166.5393285546922
 21
172.3250219126208
 31
0.0
  0
LINE
  5
1B7
330
70
100
AcDbEntity
  8
Capa 1
 62
    18
420
        0
370
     9
100
AcDbLine
 10
165.22699479105
 20
172.3250219126208
 30
0.0
 11
165.22699479105
 21
172.6636855647442
 31
0.0
  0
LINE
  5
1B8
330
70
100
AcDbEntity
  8
Capa 1
 62
    18
420
        0
370
     9
100
AcDbLine
 10
165.22699479105
 20
157.2543548190848
 30
0.0
 11
165.22699479105
 21
156.9580227777364
 31
0.0
  0
LINE
  5
1B9
330
70
100
AcDbEntity
  8
Capa 1
 62
    18
420
        0
370
     9
100
AcDbLine
 10
166.5393285546922
 20
156.6616799704646
 30
0.0
 11
166.5393285546922
 21
156.704022347163
 31
0.0
  0
LINE
  5
1BA
330
70
100
AcDbEntity
  8
Capa 1
 62
    18
420
        0
370
     9
100
AcDbLine
 10
165.22699479105
 20
153.1056847083598
 30
0.0
 11
165.22699479105
 21
153.4020167497083
 31
0.0
  0
LINE
  5
1BB
330
70
100
AcDbEntity
  8
Capa 1
 62
    18
420
        0
370
     9
100
AcDbLine
 10
166.5393285546922
 20
153.4020167497083
 30
0.0
 11
166.5393285546922
 21
153.1056847083598
 31
0.0
  0
LINE
  5
1BC
330
70
100
AcDbEntity
  8
Capa 1
 62
    18
420
        0
370
     9
100
AcDbLine
 10
166.5393285546922
 20
156.6193483596896
 30
0.0
 11
166.5393285546922
 21
156.3230163183411
 31
0.0
  0
LINE
  5
1BD
330
70
100
AcDbEntity
  8
Capa 1
 62
    18
420
        0
370
     9
100
AcDbLine
 10
166.5393285546922
 20
153.4020167497083
 30
0.0
 11
166.7086549977922
 21
153.4020167497083
 31
0.0
  0
SPLINE
  5
1BE
330
70
100
AcDbEntity
  8
Capa 1
 62
    18
420
        0
370
     9
100
AcDbSpline
210
0.0
220
0.0
230
1.0
 70
    24
 71
     3
 72
     8
 73
     4
 74
     0
 42
0.0000000001
 43
0.0000000001
 40
0.0
 40
0.0
 40
0.0
 40
0.0
 40
1.0
 40
1.0
 40
1.0
 40
1.0
 10
167.1743242481641
 20
179.902681687202
 30
0.0
 10
167.1743242481641
 20
179.902681687202
 30
0.0
 10
167.1743242481641
 20
172.3250219126208
 30
0.0
 10
167.1743242481641
 20
172.3250219126208
 30
0.0
  0
SPLINE
  5
1BF
330
70
100
AcDbEntity
  8
Capa 1
 62
    18
420
        0
370
     9
100
AcDbSpline
210
0.0
220
0.0
230
1.0
 70
    24
 71
     3
 72
     8
 73
     4
 74
     0
 42
0.0000000001
 43
0.0000000001
 40
0.0
 40
0.0
 40
0.0
 40
0.0
 40
1.0
 40
1.0
 40
1.0
 40
1.0
 10
167.8516623183344
 20
172.3250219126208
 30
0.0
 10
167.8516623183344
 20
172.3250219126208
 30
0.0
 10
167.8516623183344
 20
179.775686854877
 30
0.0
 10
167.8516623183344
 20
179.775686854877
 30
0.0
  0
SPLINE
  5
1C0
330
70
100
AcDbEntity
  8
Capa 1
 62
    18
420
        0
370
     9
100
AcDbSpline
210
0.0
220
0.0
230
1.0
 70
    24
 71
     3
 72
     8
 73
     4
 74
     0
 42
0.0000000001
 43
0.0000000001
 40
0.0
 40
0.0
 40
0.0
 40
0.0
 40
1.0
 40
1.0
 40
1.0
 40
1.0
 10
165.22699479105
 20
153.1056847083598
 30
0.0
 10
165.22699479105
 20
153.1056847083598
 30
0.0
 10
165.269326401825
 20
153.1056847083598
 30
0.0
 10
165.269326401825
 20
153.1056847083598
 30
0.0
  0
LWPOLYLINE
  5
1C1
330
70
100
AcDbEntity
  8
Capa 1
 62
    18
420
        0
370
     9
100
AcDbPolyline
 90
        4
 70
     0
 43
0.0
 10
166.7086549977922
 20
153.2750219173833
 10
166.7509866085672
 20
153.0633530975848
 10
166.7933289852656
 20
152.8516842777864
 10
166.8356605960406
 20
152.4283466381895
  0
LWPOLYLINE
  5
1C2
330
70
100
AcDbEntity
  8
Capa 1
 62
    18
420
        0
370
     9
100
AcDbPolyline
 90
        5
 70
     0
 43
0.0
 10
166.8356605960406
 20
151.8356825554927
 10
166.8356605960406
 20
151.7510193339427
 10
166.7933289852656
 20
151.6663561123927
 10
166.7509866085672
 20
151.6240137356942
 10
166.7086549977922
 20
151.5816821249192
  0
LINE
  5
1C3
330
70
100
AcDbEntity
  8
Capa 1
 62
    18
420
        0
370
     9
100
AcDbLine
 10
164.5919883316547
 20
150.7773492224239
 30
0.0
 11
164.5919883316547
 21
156.6193483596896
 31
0.0
  0
LINE
  5
1C4
330
70
100
AcDbEntity
  8
Capa 1
 62
    18
420
        0
370
     9
100
AcDbLine
 10
164.9729943604766
 20
150.7773492224239
 30
0.0
 11
164.9729943604766
 21
152.513020625663
 31
0.0
  0
LWPOLYLINE
  5
1C5
330
70
100
AcDbEntity
  8
Capa 1
 62
    18
420
        0
370
     9
100
AcDbPolyline
 90
        5
 70
     0
 43
0.0
 10
166.7086549977922
 20
148.9993462084099
 10
166.7509866085672
 20
148.9570145976349
 10
166.7933289852656
 20
148.9146829868599
 10
166.8356605960406
 20
148.8300197653098
 10
166.8356605960406
 20
148.5760193347364
  0
LINE
  5
1C6
330
70
100
AcDbEntity
  8
Capa 1
 62
    18
420
        0
370
     9
100
AcDbLine
 10
167.5976618877609
 20
152.7246894454614
 30
0.0
 11
168.6559952208297
 21
152.3013518058645
 31
0.0
  0
LWPOLYLINE
  5
1C7
330
70
100
AcDbEntity
  8
Capa 1
 62
    18
420
        0
370
     9
100
AcDbPolyline
 90
        3
 70
     0
 43
0.0
 10
168.6559952208297
 20
152.9363474993364
 10
167.5976618877609
 20
152.8940158885614
 10
167.5976618877609
 20
152.9786898760348
  0
LINE
  5
1C8
330
70
100
AcDbEntity
  8
Capa 1
 62
    18
420
        0
370
     9
100
AcDbLine
 10
167.5553195110625
 20
151.1160128745474
 30
0.0
 11
167.5976618877609
 21
151.1160128745474
 31
0.0
  0
SPLINE
  5
1C9
330
70
100
AcDbEntity
  8
Capa 1
 62
    18
420
        0
370
     9
100
AcDbSpline
210
0.0
220
0.0
230
1.0
 70
    24
 71
     3
 72
     8
 73
     4
 74
     0
 42
0.0000000001
 43
0.0000000001
 40
0.0
 40
0.0
 40
0.0
 40
0.0
 40
1.0
 40
1.0
 40
1.0
 40
1.0
 10
168.5713212333563
 20
156.2383530967911
 30
0.0
 10
168.5713212333563
 20
156.2383530967911
 30
0.0
 10
167.5976618877609
 20
156.2383530967911
 30
0.0
 10
167.5976618877609
 20
156.2383530967911
 30
0.0
  0
SPLINE
  5
1CA
330
70
100
AcDbEntity
  8
Capa 1
 62
    18
420
        0
370
     9
100
AcDbSpline
210
0.0
220
0.0
230
1.0
 70
    24
 71
     3
 72
     8
 73
     4
 74
     0
 42
0.0000000001
 43
0.0000000001
 40
0.0
 40
0.0
 40
0.0
 40
0.0
 40
1.0
 40
1.0
 40
1.0
 40
1.0
 10
167.5976618877609
 20
154.0793548198786
 30
0.0
 10
167.5976618877609
 20
154.0793548198786
 30
0.0
 10
168.5713212333563
 20
154.0793548198786
 30
0.0
 10
168.5713212333563
 20
154.0793548198786
 30
0.0
  0
SPLINE
  5
1CB
330
70
100
AcDbEntity
  8
Capa 1
 62
    18
420
        0
370
     9
100
AcDbSpline
210
0.0
220
0.0
230
1.0
 70
    24
 71
     3
 72
     8
 73
     4
 74
     0
 42
0.0000000001
 43
0.0000000001
 40
0.0
 40
0.0
 40
0.0
 40
0.0
 40
1.0
 40
1.0
 40
1.0
 40
1.0
 10
168.5713212333563
 20
153.8253543893052
 30
0.0
 10
168.5713212333563
 20
153.8253543893052
 30
0.0
 10
167.5976618877609
 20
153.8253543893052
 30
0.0
 10
167.5976618877609
 20
153.8253543893052
 30
0.0
  0
LWPOLYLINE
  5
1CC
330
70
100
AcDbEntity
  8
Capa 1
 62
    18
420
        0
370
     9
100
AcDbPolyline
 90
        3
 70
     0
 43
0.0
 10
168.6559952208297
 20
153.2750219173833
 10
167.5976618877609
 20
153.6983487910567
 10
167.5553195110625
 20
153.6560171802817
  0
LINE
  5
1CD
330
70
100
AcDbEntity
  8
Capa 1
 62
    18
420
        0
370
     9
100
AcDbLine
 10
167.5976618877609
 20
156.2383530967911
 30
0.0
 11
167.5976618877609
 21
156.3230163183411
 31
0.0
  0
SPLINE
  5
1CE
330
70
100
AcDbEntity
  8
Capa 1
 62
    18
420
        0
370
     9
100
AcDbSpline
210
0.0
220
0.0
230
1.0
 70
    24
 71
     3
 72
     8
 73
     4
 74
     0
 42
0.0000000001
 43
0.0000000001
 40
0.0
 40
0.0
 40
0.0
 40
0.0
 40
1.0
 40
1.0
 40
1.0
 40
1.0
 10
167.5976618877609
 20
150.227016750502
 30
0.0
 10
167.5976618877609
 20
150.227016750502
 30
0.0
 10
168.6559952208297
 20
149.7190158893552
 30
0.0
 10
168.6559952208297
 20
149.7190158893552
 30
0.0
  0
SPLINE
  5
1CF
330
70
100
AcDbEntity
  8
Capa 1
 62
    18
420
        0
370
     9
100
AcDbSpline
210
0.0
220
0.0
230
1.0
 70
    24
 71
     3
 72
     8
 73
     4
 74
     0
 42
0.0000000001
 43
0.0000000001
 40
0.0
 40
0.0
 40
0.0
 40
0.0
 40
1.0
 40
1.0
 40
1.0
 40
1.0
 10
168.5713212333563
 20
150.5233487918505
 30
0.0
 10
168.5713212333563
 20
150.5233487918505
 30
0.0
 10
167.5976618877609
 20
150.5233487918505
 30
0.0
 10
167.5976618877609
 20
150.5233487918505
 30
0.0
  0
LINE
  5
1D0
330
70
100
AcDbEntity
  8
Capa 1
 62
    18
420
        0
370
     9
100
AcDbLine
 10
167.5976618877609
 20
150.6080227793239
 30
0.0
 11
167.5976618877609
 21
150.5233487918505
 31
0.0
  0
LINE
  5
1D1
330
70
100
AcDbEntity
  8
Capa 1
 62
    18
420
        0
370
     9
100
AcDbLine
 10
167.5553195110625
 20
148.8723513760849
 30
0.0
 11
167.5976618877609
 21
148.8723513760849
 31
0.0
  0
LWPOLYLINE
  5
1D2
330
70
100
AcDbEntity
  8
Capa 1
 62
    18
420
        0
370
     9
100
AcDbPolyline
 90
        3
 70
     0
 43
0.0
 10
167.5976618877609
 20
153.6560171802817
 10
167.5976618877609
 20
153.3173535281583
 10
168.4443264010313
 20
153.3173535281583
  0
LINE
  5
1D3
330
70
100
AcDbEntity
  8
Capa 1
 62
    18
420
        0
370
     9
100
AcDbLine
 10
168.6559952208297
 20
153.1056847083598
 30
0.0
 11
167.5976618877609
 21
153.1056847083598
 31
0.0
  0
LWPOLYLINE
  5
1D4
330
70
100
AcDbEntity
  8
Capa 1
 62
    18
420
        0
370
     9
100
AcDbPolyline
 90
        3
 70
     0
 43
0.0
 10
167.4706562895125
 20
153.0633530975848
 10
167.4706562895125
 20
152.9786898760348
 10
167.5553195110625
 20
152.9363474993364
  0
LINE
  5
1D5
330
70
100
AcDbEntity
  8
Capa 1
 62
    18
420
        0
370
     9
100
AcDbLine
 10
165.8196588737469
 20
156.746353957938
 30
0.0
 11
165.8196588737469
 21
163.3080227761489
 31
0.0
  0
LINE
  5
1D6
330
70
100
AcDbEntity
  8
Capa 1
 62
    18
420
        0
370
     9
100
AcDbLine
 10
165.5233268323985
 20
163.3080227761489
 30
0.0
 11
165.5233268323985
 21
157.2543548190848
 31
0.0
  0
LINE
  5
1D7
330
70
100
AcDbEntity
  8
Capa 1
 62
    18
420
        0
370
     9
100
AcDbLine
 10
159.7236593059078
 20
163.5196808300239
 30
0.0
 11
159.7236593059078
 21
156.6616799704646
 31
0.0
  0
LINE
  5
1D8
330
70
100
AcDbEntity
  8
Capa 1
 62
    18
420
        0
370
     9
100
AcDbLine
 10
175.0483268300172
 20
134.7753543940676
 30
0.0
 11
175.0906584407922
 21
134.7753543940676
 31
0.0
  0
LWPOLYLINE
  5
1D9
330
70
100
AcDbEntity
  8
Capa 1
 62
    18
420
        0
370
     9
100
AcDbPolyline
 90
        3
 70
     0
 43
0.0
 10
175.0483268300172
 20
185.7023384477693
 10
174.9636528425438
 20
185.9140180334911
 10
174.7943263994438
 20
186.0410128658161
  0
LWPOLYLINE
  5
1DA
330
70
100
AcDbEntity
  8
Capa 1
 62
    18
420
        0
370
     9
100
AcDbPolyline
 90
        3
 70
     0
 43
0.0
 10
174.7943263994438
 20
134.4790223527192
 10
174.9636528425438
 20
134.5636855742692
 10
175.0483268300172
 20
134.7753543940676
  0
SPLINE
  5
1DB
330
70
100
AcDbEntity
  8
Capa 1
 62
    18
420
        0
370
     9
100
AcDbSpline
210
0.0
220
0.0
230
1.0
 70
    24
 71
     3
 72
     8
 73
     4
 74
     0
 42
0.0000000001
 43
0.0000000001
 40
0.0
 40
0.0
 40
0.0
 40
0.0
 40
1.0
 40
1.0
 40
1.0
 40
1.0
 10
47.62499460513206
 20
185.1096743650724
 30
0.0
 10
47.62499460513206
 20
185.1096743650724
 30
0.0
 10
47.62499460513206
 20
193.6610042511724
 30
0.0
 10
47.62499460513206
 20
193.6610042511724
 30
0.0
  0
SPLINE
  5
1DC
330
70
100
AcDbEntity
  8
Capa 1
 62
    18
420
        0
370
     9
100
AcDbSpline
210
0.0
220
0.0
230
1.0
 70
    24
 71
     3
 72
     8
 73
     4
 74
     0
 42
0.0000000001
 43
0.0000000001
 40
0.0
 40
0.0
 40
0.0
 40
0.0
 40
1.0
 40
1.0
 40
1.0
 40
1.0
 10
128.3546545767438
 20
185.1096743650724
 30
0.0
 10
128.3546545767438
 20
185.1096743650724
 30
0.0
 10
128.3546545767438
 20
193.6610042511724
 30
0.0
 10
128.3546545767438
 20
193.6610042511724
 30
0.0
  0
SPLINE
  5
1DD
330
70
100
AcDbEntity
  8
Capa 1
 62
    18
420
        0
370
     9
100
AcDbSpline
210
0.0
220
0.0
230
1.0
 70
    24
 71
     3
 72
     8
 73
     4
 74
     0
 42
0.0000000001
 43
0.0000000001
 40
0.0
 40
0.0
 40
0.0
 40
0.0
 40
1.0
 40
1.0
 40
1.0
 40
1.0
 10
49.3606606254094
 20
192.1793548103536
 30
0.0
 10
49.3606606254094
 20
192.1793548103536
 30
0.0
 10
126.6189939394281
 20
192.1793548103536
 30
0.0
 10
126.6189939394281
 20
192.1793548103536
 30
0.0
  0
LWPOLYLINE
  5
1DE
330
70
100
AcDbEntity
  8
Capa 1
100
AcDbPolyline
 90
        3
 70
     0
 43
0.0
 10
49.3606606254094
 20
192.4756760857786
 10
49.3606606254094
 20
191.8830120030817
 10
47.62499460513206
 20
192.1793548103536
  0
HATCH
  5
1DF
330
70
100
AcDbEntity
  8
Capa 1
 62
    18
420
        0
440
 33554687
100
AcDbHatch
 10
0.0
 20
0.0
 30
0.0
210
0.0
220
0.0
230
1.0
  2
SOLID
 70
     1
 71
     1
 91
        1
 92
        3
 72
     0
 73
     1
 93
        3
 10
49.3606606254094
 20
192.4756760857786
 10
49.3606606254094
 20
191.8830120030817
 10
47.62499460513206
 20
192.1793548103536
 97
        0
 75
     0
 76
     1
 98
        1
 10
0.0
 20
0.0
450
        0
451
        0
460
0.0
461
0.0
452
        0
462
0.0
453
        0
470

  0
LWPOLYLINE
  5
1E0
330
70
100
AcDbEntity
  8
Capa 1
100
AcDbPolyline
 90
        3
 70
     0
 43
0.0
 10
126.6189939394281
 20
192.4756760857786
 10
126.6189939394281
 20
191.8830120030817
 10
128.3546545767438
 20
192.1793548103536
  0
HATCH
  5
1E1
330
70
100
AcDbEntity
  8
Capa 1
 62
    18
420
        0
440
 33554687
100
AcDbHatch
 10
0.0
 20
0.0
 30
0.0
210
0.0
220
0.0
230
1.0
  2
SOLID
 70
     1
 71
     1
 91
        1
 92
        3
 72
     0
 73
     1
 93
        3
 10
126.6189939394281
 20
192.4756760857786
 10
126.6189939394281
 20
191.8830120030817
 10
128.3546545767438
 20
192.1793548103536
 97
        0
 75
     0
 76
     1
 98
        1
 10
0.0
 20
0.0
450
        0
451
        0
460
0.0
461
0.0
452
        0
462
0.0
453
        0
470

  0
SPLINE
  5
1E2
330
70
100
AcDbEntity
  8
Capa 1
 62
    18
420
        0
370
     9
100
AcDbSpline
210
0.0
220
0.0
230
1.0
 70
    24
 71
     3
 72
     8
 73
     4
 74
     0
 42
0.0000000001
 43
0.0000000001
 40
0.0
 40
0.0
 40
0.0
 40
0.0
 40
1.0
 40
1.0
 40
1.0
 40
1.0
 10
48.59866471665079
 20
186.0833444765911
 30
0.0
 10
48.59866471665079
 20
186.0833444765911
 30
0.0
 10
32.55433020307697
 20
186.0833444765911
 30
0.0
 10
32.55433020307697
 20
186.0833444765911
 30
0.0
  0
SPLINE
  5
1E3
330
70
100
AcDbEntity
  8
Capa 1
 62
    18
420
        0
370
     9
100
AcDbSpline
210
0.0
220
0.0
230
1.0
 70
    24
 71
     3
 72
     8
 73
     4
 74
     0
 42
0.0000000001
 43
0.0000000001
 40
0.0
 40
0.0
 40
0.0
 40
0.0
 40
1.0
 40
1.0
 40
1.0
 40
1.0
 10
48.59866471665079
 20
134.3943483652458
 30
0.0
 10
48.59866471665079
 20
134.3943483652458
 30
0.0
 10
32.55433020307697
 20
134.3943483652458
 30
0.0
 10
32.55433020307697
 20
134.3943483652458
 30
0.0
  0
SPLINE
  5
1E4
330
70
100
AcDbEntity
  8
Capa 1
 62
    18
420
        0
370
     9
100
AcDbSpline
210
0.0
220
0.0
230
1.0
 70
    24
 71
     3
 72
     8
 73
     4
 74
     0
 42
0.0000000001
 43
0.0000000001
 40
0.0
 40
0.0
 40
0.0
 40
0.0
 40
1.0
 40
1.0
 40
1.0
 40
1.0
 10
33.99366418200588
 20
184.3476838392755
 30
0.0
 10
33.99366418200588
 20
184.3476838392755
 30
0.0
 10
33.99366418200588
 20
136.1723513792599
 30
0.0
 10
33.99366418200588
 20
136.1723513792599
 30
0.0
  0
LWPOLYLINE
  5
1E5
330
70
100
AcDbEntity
  8
Capa 1
100
AcDbPolyline
 90
        3
 70
     0
 43
0.0
 10
33.69733214065743
 20
184.3476838392755
 10
34.28999891483516
 20
184.3476838392755
 10
33.99366418200588
 20
186.0833444765911
  0
HATCH
  5
1E6
330
70
100
AcDbEntity
  8
Capa 1
 62
    18
420
        0
440
 33554687
100
AcDbHatch
 10
0.0
 20
0.0
 30
0.0
210
0.0
220
0.0
230
1.0
  2
SOLID
 70
     1
 71
     1
 91
        1
 92
        3
 72
     0
 73
     1
 93
        3
 10
33.69733214065743
 20
184.3476838392755
 10
34.28999891483516
 20
184.3476838392755
 10
33.99366418200588
 20
186.0833444765911
 97
        0
 75
     0
 76
     1
 98
        1
 10
0.0
 20
0.0
450
        0
451
        0
460
0.0
461
0.0
452
        0
462
0.0
453
        0
470

  0
LWPOLYLINE
  5
1E7
330
70
100
AcDbEntity
  8
Capa 1
100
AcDbPolyline
 90
        3
 70
     0
 43
0.0
 10
33.69733214065743
 20
136.1723513792599
 10
34.28999891483516
 20
136.1723513792599
 10
33.99366418200588
 20
134.3943483652458
  0
HATCH
  5
1E8
330
70
100
AcDbEntity
  8
Capa 1
 62
    18
420
        0
440
 33554687
100
AcDbHatch
 10
0.0
 20
0.0
 30
0.0
210
0.0
220
0.0
230
1.0
  2
SOLID
 70
     1
 71
     1
 91
        1
 92
        3
 72
     0
 73
     1
 93
        3
 10
33.69733214065743
 20
136.1723513792599
 10
34.28999891483516
 20
136.1723513792599
 10
33.99366418200588
 20
134.3943483652458
 97
        0
 75
     0
 76
     1
 98
        1
 10
0.0
 20
0.0
450
        0
451
        0
460
0.0
461
0.0
452
        0
462
0.0
453
        0
470

  0
SPLINE
  5
1E9
330
70
100
AcDbEntity
  8
Capa 1
 62
    18
420
        0
370
     9
100
AcDbSpline
210
0.0
220
0.0
230
1.0
 70
    24
 71
     3
 72
     8
 73
     4
 74
     0
 42
0.0000000001
 43
0.0000000001
 40
0.0
 40
0.0
 40
0.0
 40
0.0
 40
1.0
 40
1.0
 40
1.0
 40
1.0
 10
175.0483268300172
 20
185.0673427542974
 30
0.0
 10
175.0483268300172
 20
185.0673427542974
 30
0.0
 10
175.0483268300172
 20
193.4916778080724
 30
0.0
 10
175.0483268300172
 20
193.4916778080724
 30
0.0
  0
SPLINE
  5
1EA
330
70
100
AcDbEntity
  8
Capa 1
 62
    18
420
        0
370
     9
100
AcDbSpline
210
0.0
220
0.0
230
1.0
 70
    24
 71
     3
 72
     8
 73
     4
 74
     0
 42
0.0000000001
 43
0.0000000001
 40
0.0
 40
0.0
 40
0.0
 40
0.0
 40
1.0
 40
1.0
 40
1.0
 40
1.0
 10
172.4659909135078
 20
192.0523384461818
 30
0.0
 10
172.4659909135078
 20
192.0523384461818
 30
0.0
 10
172.4659909135078
 20
193.4916778080724
 30
0.0
 10
172.4659909135078
 20
193.4916778080724
 30
0.0
  0
SPLINE
  5
1EB
330
70
100
AcDbEntity
  8
Capa 1
 62
    18
420
        0
370
     9
100
AcDbSpline
210
0.0
220
0.0
230
1.0
 70
    24
 71
     3
 72
     8
 73
     4
 74
     0
 42
0.0000000001
 43
0.0000000001
 40
0.0
 40
0.0
 40
0.0
 40
0.0
 40
1.0
 40
1.0
 40
1.0
 40
1.0
 10
170.7303195102688
 20
192.0523384461818
 30
0.0
 10
170.7303195102688
 20
192.0523384461818
 30
0.0
 10
168.9946588729531
 20
192.0523384461818
 30
0.0
 10
168.9946588729531
 20
192.0523384461818
 30
0.0
  0
SPLINE
  5
1EC
330
70
100
AcDbEntity
  8
Capa 1
 62
    18
420
        0
370
     9
100
AcDbSpline
210
0.0
220
0.0
230
1.0
 70
    24
 71
     3
 72
     8
 73
     4
 74
     0
 42
0.0000000001
 43
0.0000000001
 40
0.0
 40
0.0
 40
0.0
 40
0.0
 40
1.0
 40
1.0
 40
1.0
 40
1.0
 10
176.7839874673328
 20
192.0523384461818
 30
0.0
 10
176.7839874673328
 20
192.0523384461818
 30
0.0
 10
181.7793220913281
 20
192.0523384461818
 30
0.0
 10
181.7793220913281
 20
192.0523384461818
 30
0.0
  0
SPLINE
  5
1ED
330
70
100
AcDbEntity
  8
Capa 1
 62
    18
420
        0
370
     9
100
AcDbSpline
210
0.0
220
0.0
230
1.0
 70
    24
 71
     3
 72
     8
 73
     4
 74
     0
 42
0.0000000001
 43
0.0000000001
 40
0.0
 40
0.0
 40
0.0
 40
0.0
 40
1.0
 40
1.0
 40
1.0
 40
1.0
 10
172.4659909135078
 20
192.0523384461818
 30
0.0
 10
172.4659909135078
 20
192.0523384461818
 30
0.0
 10
175.0483268300172
 20
192.0523384461818
 30
0.0
 10
175.0483268300172
 20
192.0523384461818
 30
0.0
  0
LWPOLYLINE
  5
1EE
330
70
100
AcDbEntity
  8
Capa 1
100
AcDbPolyline
 90
        3
 70
     0
 43
0.0
 10
170.7303195102688
 20
192.3486812534536
 10
170.7303195102688
 20
191.7560171707567
 10
172.4659909135078
 20
192.0523384461818
  0
HATCH
  5
1EF
330
70
100
AcDbEntity
  8
Capa 1
 62
    18
420
        0
440
 33554687
100
AcDbHatch
 10
0.0
 20
0.0
 30
0.0
210
0.0
220
0.0
230
1.0
  2
SOLID
 70
     1
 71
     1
 91
        1
 92
        3
 72
     0
 73
     1
 93
        3
 10
170.7303195102688
 20
192.3486812534536
 10
170.7303195102688
 20
191.7560171707567
 10
172.4659909135078
 20
192.0523384461818
 97
        0
 75
     0
 76
     1
 98
        1
 10
0.0
 20
0.0
450
        0
451
        0
460
0.0
461
0.0
452
        0
462
0.0
453
        0
470

  0
LWPOLYLINE
  5
1F0
330
70
100
AcDbEntity
  8
Capa 1
100
AcDbPolyline
 90
        3
 70
     0
 43
0.0
 10
176.7839874673328
 20
192.3486812534536
 10
176.7839874673328
 20
191.7560171707567
 10
175.0483268300172
 20
192.0523384461818
  0
HATCH
  5
1F1
330
70
100
AcDbEntity
  8
Capa 1
 62
    18
420
        0
440
 33554687
100
AcDbHatch
 10
0.0
 20
0.0
 30
0.0
210
0.0
220
0.0
230
1.0
  2
SOLID
 70
     1
 71
     1
 91
        1
 92
        3
 72
     0
 73
     1
 93
        3
 10
176.7839874673328
 20
192.3486812534536
 10
176.7839874673328
 20
191.7560171707567
 10
175.0483268300172
 20
192.0523384461818
 97
        0
 75
     0
 76
     1
 98
        1
 10
0.0
 20
0.0
450
        0
451
        0
460
0.0
461
0.0
452
        0
462
0.0
453
        0
470

  0
SPLINE
  5
1F2
330
70
100
AcDbEntity
  8
Capa 1
 62
    18
420
        0
370
     9
100
AcDbSpline
210
0.0
220
0.0
230
1.0
 70
    24
 71
     3
 72
     8
 73
     4
 74
     0
 42
0.0000000001
 43
0.0000000001
 40
0.0
 40
0.0
 40
0.0
 40
0.0
 40
1.0
 40
1.0
 40
1.0
 40
1.0
 10
172.4659909135078
 20
185.7870016693193
 30
0.0
 10
172.4659909135078
 20
185.7870016693193
 30
0.0
 10
172.4659909135078
 20
193.4916778080724
 30
0.0
 10
172.4659909135078
 20
193.4916778080724
 30
0.0
  0
SPLINE
  5
1F3
330
70
100
AcDbEntity
  8
Capa 1
 62
    18
420
        0
370
     9
100
AcDbSpline
210
0.0
220
0.0
230
1.0
 70
    24
 71
     3
 72
     8
 73
     4
 74
     0
 42
0.0000000001
 43
0.0000000001
 40
0.0
 40
0.0
 40
0.0
 40
0.0
 40
1.0
 40
1.0
 40
1.0
 40
1.0
 10
159.5543220968844
 20
163.3503543869239
 30
0.0
 10
159.5543220968844
 20
163.3503543869239
 30
0.0
 10
159.5543220968844
 20
193.4916778080724
 30
0.0
 10
159.5543220968844
 20
193.4916778080724
 30
0.0
  0
SPLINE
  5
1F4
330
70
100
AcDbEntity
  8
Capa 1
 62
    18
420
        0
370
     9
100
AcDbSpline
210
0.0
220
0.0
230
1.0
 70
    24
 71
     3
 72
     8
 73
     4
 74
     0
 42
0.0000000001
 43
0.0000000001
 40
0.0
 40
0.0
 40
0.0
 40
0.0
 40
1.0
 40
1.0
 40
1.0
 40
1.0
 10
170.7303195102688
 20
192.0523384461818
 30
0.0
 10
170.7303195102688
 20
192.0523384461818
 30
0.0
 10
161.2899935001235
 20
192.0523384461818
 30
0.0
 10
161.2899935001235
 20
192.0523384461818
 30
0.0
  0
LWPOLYLINE
  5
1F5
330
70
100
AcDbEntity
  8
Capa 1
100
AcDbPolyline
 90
        3
 70
     0
 43
0.0
 10
170.7303195102688
 20
192.3486812534536
 10
170.7303195102688
 20
191.7560171707567
 10
172.4659909135078
 20
192.0523384461818
  0
HATCH
  5
1F6
330
70
100
AcDbEntity
  8
Capa 1
 62
    18
420
        0
440
 33554687
100
AcDbHatch
 10
0.0
 20
0.0
 30
0.0
210
0.0
220
0.0
230
1.0
  2
SOLID
 70
     1
 71
     1
 91
        1
 92
        3
 72
     0
 73
     1
 93
        3
 10
170.7303195102688
 20
192.3486812534536
 10
170.7303195102688
 20
191.7560171707567
 10
172.4659909135078
 20
192.0523384461818
 97
        0
 75
     0
 76
     1
 98
        1
 10
0.0
 20
0.0
450
        0
451
        0
460
0.0
461
0.0
452
        0
462
0.0
453
        0
470

  0
LWPOLYLINE
  5
1F7
330
70
100
AcDbEntity
  8
Capa 1
100
AcDbPolyline
 90
        3
 70
     0
 43
0.0
 10
161.2899935001235
 20
192.3486812534536
 10
161.2899935001235
 20
191.7560171707567
 10
159.5543220968844
 20
192.0523384461818
  0
HATCH
  5
1F8
330
70
100
AcDbEntity
  8
Capa 1
 62
    18
420
        0
440
 33554687
100
AcDbHatch
 10
0.0
 20
0.0
 30
0.0
210
0.0
220
0.0
230
1.0
  2
SOLID
 70
     1
 71
     1
 91
        1
 92
        3
 72
     0
 73
     1
 93
        3
 10
161.2899935001235
 20
192.3486812534536
 10
161.2899935001235
 20
191.7560171707567
 10
159.5543220968844
 20
192.0523384461818
 97
        0
 75
     0
 76
     1
 98
        1
 10
0.0
 20
0.0
450
        0
451
        0
460
0.0
461
0.0
452
        0
462
0.0
453
        0
470

  0
LWPOLYLINE
  5
1F9
330
70
100
AcDbEntity
  8
Capa 1
 62
    18
420
        0
370
     9
100
AcDbPolyline
 90
      143
 70
     0
 43
0.0
 10
58.29299654033126
 20
160.8950133027396
 10
58.29299654033126
 20
160.4716864290661
 10
58.33532815110627
 20
160.3023492200427
 10
58.33532815110627
 20
159.8790223463692
 10
58.37766514484298
 20
159.7096851373458
 10
58.37766514484298
 20
159.3286791085239
 10
58.41999675561798
 20
159.1170210546489
 10
58.41999675561798
 20
158.9476838456255
 10
58.46232836639299
 20
158.778346636602
 10
58.50465997716799
 20
158.609020193502
 10
58.50465997716799
 20
158.4396829844786
 10
58.5469969709047
 20
158.2703457754552
 10
58.58932858167971
 20
158.1010193323552
 10
58.63166019245472
 20
157.9316821233318
 10
58.71632879696643
 20
157.5930184712083
 10
58.75866040774144
 20
157.2543548190848
 10
58.88566062302815
 20
156.915680401038
 10
58.97032922753986
 20
156.5770167489145
 10
59.05499783205158
 20
156.2806847075661
 10
59.18199804733829
 20
155.9420210554426
 10
59.30899826262501
 20
155.6033466373958
 10
59.43599847791173
 20
155.3070145960474
 10
59.56299331023675
 20
154.9683509439239
 10
59.73233051926017
 20
154.6720189025755
 10
59.90166234532189
 20
154.375686861227
 10
60.02866256060862
 20
154.0370232091036
 10
60.19799438667034
 20
153.7406804018317
 10
60.40966320646877
 20
153.4443483604833
 10
60.57899503253049
 20
153.1480163191349
 10
60.74832685859221
 20
152.8516842777864
 10
60.95999567839065
 20
152.597683847213
 10
61.17166449818907
 20
152.3013518058645
 10
61.38332793502581
 20
152.0473513752911
 10
61.59499675482424
 20
151.7510193339427
 10
61.80666019166096
 20
151.4970189033692
 10
62.0606606222344
 20
151.2430184727958
 10
62.27232944203283
 20
150.9890180422224
 10
62.52632987260627
 20
150.7350176116489
 10
62.7803303031797
 20
150.4810171810755
 10
63.03433073375313
 20
150.269348361277
 10
63.28833116432657
 20
150.0153479307036
 10
63.54233159490001
 20
149.8036898768286
 10
63.79632664251175
 20
149.5920210570302
 10
64.09266406682188
 20
149.3803522372317
 10
64.38899610817033
 20
149.1686834174333
 10
64.64299653874377
 20
148.9993462084099
 10
64.93932858009221
 20
148.7876881545348
 10
65.23566062144066
 20
148.6183509455114
 10
65.53199804575079
 20
148.449013736488
 10
65.82833008709923
 20
148.279687293388
 10
66.12466212844768
 20
148.1103500843645
 10
66.46333116353282
 20
147.9833552520395
 10
66.75966320488126
 20
147.8140180430161
 10
67.09832685700472
 20
147.6870232106911
 10
67.39466428131485
 20
147.5600176124427
 10
67.7333279334383
 20
147.4330227801176
 10
68.02965997478676
 20
147.3060171818692
 10
68.36832900987189
 20
147.2213539603192
 10
68.70699804495704
 20
147.0943483620708
 10
69.04566169708049
 20
147.0096851405208
 10
69.38433073216564
 20
146.9250219189708
 10
69.72299438428909
 20
146.8403479314974
 10
70.06166341937424
 20
146.7980163207224
 10
70.40032707149769
 20
146.7133530991723
 10
70.73899610658283
 20
146.6710214883973
 10
71.07765975870629
 20
146.6286898776223
 10
71.41632879379142
 20
146.6286898776223
 10
71.75499782887657
 20
146.5863475009239
 10
72.09366148100002
 20
146.5863475009239
 10
72.47466212686018
 20
146.5440158901489
 10
73.15199481406877
 20
146.5440158901489
 10
73.49066384915392
 20
146.5863475009239
 10
73.82932750127737
 20
146.5863475009239
 10
74.16799653636252
 20
146.6286898776223
 10
74.50666018848597
 20
146.6710214883973
 10
74.84532922357111
 20
146.7133530991723
 10
75.22632986943126
 20
146.7980163207224
 10
75.56499352155471
 20
146.8403479314974
 10
75.86133094586486
 20
146.9250219189708
 10
76.1999945979883
 20
147.0096851405208
 10
76.53866363307345
 20
147.0943483620708
 10
76.8773272851969
 20
147.1790223495442
 10
77.21599632028205
 20
147.3060171818692
 10
77.5546599724055
 20
147.4330227801176
 10
77.85099739671564
 20
147.5176860016676
 10
78.18966104883909
 20
147.6870232106911
 10
78.48599309018753
 20
147.8140180430161
 10
78.82466212527268
 20
147.9410128753411
 10
79.12099416662112
 20
148.1103500843645
 10
79.41732620796956
 20
148.279687293388
 10
79.7136636322797
 20
148.449013736488
 10
80.00999567362816
 20
148.6183509455114
 10
80.30632771497659
 20
148.7876881545348
 10
80.60265975632503
 20
148.9570145976349
 10
80.89899718063518
 20
149.1686834174333
 10
81.19532922198361
 20
149.3803522372317
 10
81.44932965255705
 20
149.5920210570302
 10
81.70333008313049
 20
149.8036898768286
 10
81.99966212447893
 20
150.0153479307036
 10
82.25366255505235
 20
150.227016750502
 10
82.50766298562579
 20
150.4810171810755
 10
82.76166341619925
 20
150.7350176116489
 10
82.97332685303597
 20
150.9466864314473
 10
83.22732728360939
 20
151.2006868620208
 10
83.43899610340782
 20
151.4970189033692
 10
83.69299653398128
 20
151.7510193339427
 10
83.904659970818
 20
152.0050197645161
 10
84.11632879061643
 20
152.3013518058645
 10
84.32799761041485
 20
152.555352236438
 10
84.49732943647658
 20
152.8516842777864
 10
84.70899287331333
 20
153.1480163191349
 10
84.87833008233673
 20
153.4443483604833
 10
85.04766190839847
 20
153.7406804018317
 10
85.21699373446018
 20
154.0370232091036
 10
85.38633094348361
 20
154.333355250452
 10
85.55566276954534
 20
154.6296872918005
 10
85.68266298483205
 20
154.9683509439239
 10
85.85199481089377
 20
155.2646829852724
 10
85.9789950261805
 20
155.5610150266208
 10
86.0636636306922
 20
155.8996894446677
 10
86.19066384597891
 20
156.2383530967911
 10
86.23299545675392
 20
156.3653479291161
 10
86.31766406126564
 20
156.5346851381395
 10
86.35999567204065
 20
156.704022347163
 10
86.40232728281565
 20
156.873348790263
 10
86.44466427655236
 20
157.0426859992864
 10
86.48699588732737
 20
157.2120124423864
 10
86.52932749810238
 20
157.3813496514099
 10
86.57166449183907
 20
157.5930184712083
 10
86.61399610261408
 20
157.7623556802317
 10
86.65632771338909
 20
157.9316821233318
 10
86.6986647071258
 20
158.1433509431301
 10
86.74099631790079
 20
158.3126881521536
 10
86.7833279286758
 20
158.5243462060286
 10
86.82565953945081
 20
158.693683415052
 10
86.82565953945081
 20
158.9053522348505
 10
86.86799653318752
 20
159.1170210546489
 10
86.91032814396253
 20
159.3286791085239
 10
86.91032814396253
 20
159.5403479283224
 10
86.95265975473754
 20
159.7520167481208
 10
86.95265975473754
 20
160.4293548182911
 10
86.99499674847423
 20
160.6410128721661
 10
86.99499674847423
 20
160.8950133027396
  0
LWPOLYLINE
  5
1FA
330
70
100
AcDbEntity
  8
Capa 1
 62
    18
420
        0
370
     9
100
AcDbPolyline
 90
       13
 70
     0
 43
0.0
 10
98.63665802926879
 20
158.5243462060286
 10
98.80599523829221
 20
157.3813496514099
 10
99.14465889041567
 20
156.2806847075661
 10
99.56799653001253
 20
155.2646829852724
 10
100.1606606127094
 20
154.2910128737536
 10
100.8803302936547
 20
153.4020167497083
 10
101.68466319615
 20
152.597683847213
 10
102.6159909309703
 20
151.9203565429661
 10
103.6319926532641
 20
151.3700133051208
 10
104.6903259863328
 20
150.9466864314473
 10
105.7909909301766
 20
150.6503543900989
 10
106.8916558740203
 20
150.5233487918505
 10
108.0346631945625
 20
150.5656804026255
  0
LWPOLYLINE
  5
1FB
330
70
100
AcDbEntity
  8
Capa 1
 62
    18
420
        0
370
     9
100
AcDbPolyline
 90
       25
 70
     0
 43
0.0
 10
98.0439939465719
 20
158.4820145952536
 10
98.21332038967193
 20
157.2543548190848
 10
98.55199480771878
 20
156.0690158877677
 10
99.05999566886565
 20
154.9683509439239
 10
99.69499136233755
 20
153.9100176108552
 10
100.4569926540578
 20
152.9363474993364
 10
101.3459887781031
 20
152.0896829860661
 10
102.3196588896219
 20
151.3700133051208
 10
103.3779922226906
 20
150.7773492224239
 10
104.5209887773094
 20
150.3540223487505
 10
105.7063277086266
 20
150.0576795414786
 10
106.9339874847953
 20
149.9306847091536
 10
108.1616580268875
 20
149.9306847091536
 10
109.3893285689797
 20
150.142353528952
 10
110.5323251235985
 20
150.4810171810755
 10
111.6753216782172
 20
150.9466864314473
 10
112.733655011286
 20
151.5816821249192
 10
113.6649935120297
 20
152.3436834166395
 10
114.5116580253
 20
153.2326795406849
 10
115.2313277062453
 20
154.2063496522036
 10
115.8239917889422
 20
155.3070145960474
 10
116.2896610393141
 20
156.4076795398911
 10
116.5859930806625
 20
157.6353500819833
 10
116.7129879129875
 20
158.8206890133004
 10
116.7129879129875
 20
160.0483487894692
  0
LWPOLYLINE
  5
1FC
330
70
100
AcDbEntity
  8
Capa 1
 62
    18
420
        0
370
     9
100
AcDbPolyline
 90
       25
 70
     0
 43
0.0
 10
97.74766190522347
 20
158.4396829844786
 10
97.91698834832349
 20
157.1696808316114
 10
98.29799437714534
 20
155.9843526662177
 10
98.80599523829221
 20
154.7990137349005
 10
99.44099093176411
 20
153.7406804018317
 10
100.2453238342594
 20
152.7670210562364
 10
101.1766623350031
 20
151.8780141662677
 10
102.1926640572969
 20
151.1160128745474
 10
103.2933290011406
 20
150.5233487918505
 10
104.4786571665344
 20
150.0576795414786
 10
105.7063277086266
 20
149.7613475001302
 10
106.9339874847953
 20
149.6343526678051
 10
108.2039896376625
 20
149.6343526678051
 10
109.4739917905297
 20
149.8460214876036
 10
110.6593307218469
 20
150.184685139727
 10
111.8446588872406
 20
150.6926860008739
 10
112.9029922203094
 20
151.3700133051208
 10
113.8766623318281
 20
152.1743462076161
 10
114.7656584558734
 20
153.0633530975848
 10
115.5276597475938
 20
154.0793548198786
 10
116.1203238302906
 20
155.1800197637223
 10
116.5859930806625
 20
156.3653479291161
 10
116.8823251220109
 20
157.5930184712083
 10
117.009319954336
 20
158.8630206240755
 10
117.009319954336
 20
160.1330227769426
  0
LWPOLYLINE
  5
1FD
330
70
100
AcDbEntity
  8
Capa 1
 62
    18
420
        0
370
     9
100
AcDbPolyline
 90
       13
 70
     0
 43
0.0
 10
108.0346631945625
 20
150.5656804026255
 10
109.1776597491813
 20
150.6926860008739
 10
110.278324693025
 20
151.0313496529974
 10
111.3366580260938
 20
151.4970189033692
 10
112.3526597483875
 20
152.0896829860661
 10
113.2416558724328
 20
152.7670210562364
 10
114.0459887749281
 20
153.6136855695067
 10
114.7233268450984
 20
154.5450133043271
 10
115.2736593170203
 20
155.5610150266208
 10
115.6969969566172
 20
156.6193483596896
 10
115.9933289979656
 20
157.7623556802317
 10
116.1203238302906
 20
158.9053522348505
 10
116.0779922195156
 20
160.0483487894692
  0
LWPOLYLINE
  5
1FE
330
70
100
AcDbEntity
  8
Capa 1
 62
    18
420
        0
370
     9
100
AcDbPolyline
 90
      119
 70
     0
 43
0.0
 10
97.07032383505318
 20
159.2863474977489
 10
97.07032383505318
 20
158.693683415052
 10
97.11265544582818
 20
158.3973513737036
 10
97.15498705660319
 20
158.1010193323552
 10
97.15498705660319
 20
157.8470189017817
 10
97.19732943330159
 20
157.5506868604333
 10
97.28199265485159
 20
157.2543548190848
 10
97.3243242656266
 20
157.0003543885114
 10
97.40898748717661
 20
156.704022347163
 10
97.45132986387503
 20
156.4500219165895
 10
97.53599308542504
 20
156.1536791093177
 10
97.62065630697506
 20
155.8996894446677
 10
97.74766190522347
 20
155.6456890140942
 10
97.83232512677349
 20
155.3493462068224
 10
97.95933072502188
 20
155.0953457762489
 10
98.08632555734691
 20
154.8413561115989
 10
98.21332038967193
 20
154.5873556810255
 10
98.34032598792035
 20
154.333355250452
 10
98.46732082024537
 20
154.0793548198786
 10
98.63665802926879
 20
153.8676860000802
 10
98.76366362751721
 20
153.6136855695067
 10
98.93299007061724
 20
153.3596851389333
 10
99.10232727964066
 20
153.1480163191349
 10
99.27165372274068
 20
152.9363474993364
 10
99.44099093176411
 20
152.682347068763
 10
99.61032814078754
 20
152.4706890148879
 10
99.82199696058595
 20
152.2590201950895
 10
100.033655014461
 20
152.0473513752911
 10
100.2029922234844
 20
151.8780141662677
 10
100.4146610432828
 20
151.6663561123927
 10
100.6263298630812
 20
151.4970189033692
 10
100.8379879169563
 20
151.2853500835708
 10
101.0919883475297
 20
151.1160128745474
 10
101.3036571673281
 20
150.9466864314473
 10
101.5576575979016
 20
150.7773492224239
 10
101.7693264177
 20
150.6503543900989
 10
102.0233268482734
 20
150.4810171810755
 10
102.2773272788469
 20
150.3540223487505
 10
102.4889960986453
 20
150.184685139727
 10
102.7429965292187
 20
150.0576795414786
 10
102.9969969597922
 20
149.9306847091536
 10
103.2933290011406
 20
149.8460214876036
 10
103.5473294317141
 20
149.7190158893552
 10
103.8013298622875
 20
149.6343526678051
 10
104.0553302928609
 20
149.5073470695567
 10
104.3516623342094
 20
149.4226838480067
 10
104.6056627647828
 20
149.3380206264567
 10
104.9019948061312
 20
149.2956890156817
 10
105.1559952367047
 20
149.2110150282083
 10
105.4523272780531
 20
149.1686834174333
 10
105.7063277086266
 20
149.1263518066583
 10
106.002659749975
 20
149.0840201958833
 10
106.2989917913234
 20
149.0416885851083
 10
106.5529922218969
 20
148.9993462084099
 10
108.2886636251359
 20
148.9993462084099
 10
108.5426640557094
 20
149.0416885851083
 10
108.8389960970578
 20
149.0840201958833
 10
109.1353281384062
 20
149.1263518066583
 10
109.3893285689797
 20
149.1686834174333
 10
109.6856606103281
 20
149.2533466389833
 10
109.9396610409016
 20
149.2956890156817
 10
110.23599308225
 20
149.3803522372317
 10
110.4899935128234
 20
149.4650154587817
 10
110.7863255541719
 20
149.5496894462552
 10
111.0403259847453
 20
149.6343526678051
 10
111.2943264153188
 20
149.7613475001302
 10
111.5483268458922
 20
149.8883530983786
 10
111.8023272764656
 20
149.9730163199286
 10
112.0563277070391
 20
150.100021918177
 10
112.3103281376125
 20
150.269348361277
 10
112.5643285681859
 20
150.3963539595254
 10
112.8183289987594
 20
150.5233487918505
 10
113.0723294293328
 20
150.6926860008739
 10
113.2839874832078
 20
150.8620232098973
 10
113.5379879137813
 20
151.0313496529974
 10
113.7496567335797
 20
151.2006868620208
 10
113.9613255533781
 20
151.3700133051208
 10
114.1729943731766
 20
151.5393505141442
 10
114.384663192975
 20
151.7510193339427
 10
114.59632124685
 20
151.9203565429661
 10
114.7656584558734
 20
152.1320145968411
 10
114.9773272756719
 20
152.3013518058645
 10
115.1466537187719
 20
152.513020625663
 10
115.3159909277953
 20
152.7246894454614
 10
115.4853281368187
 20
152.9363474993364
 10
115.6123229691438
 20
153.1056847083598
 10
115.7816601781672
 20
153.3173535281583
 10
115.9086550104922
 20
153.5290223479567
 10
116.0356606087406
 20
153.6983487910567
 10
116.1626554410656
 20
153.9100176108552
 10
116.2896610393141
 20
154.1216864306536
 10
116.3743242608641
 20
154.2910128737536
 10
116.5013298591125
 20
154.502681693552
 10
116.5859930806625
 20
154.6720189025755
 10
116.6706563022125
 20
154.8836877223739
 10
116.7553302896859
 20
155.0530141654739
 10
116.8399935112359
 20
155.2646829852724
 10
116.924656732786
 20
155.4340201942958
 10
117.009319954336
 20
155.6033466373958
 10
117.0516623310344
 20
155.7726838464192
 10
117.1363255525844
 20
155.9843526662177
 10
117.1786571633594
 20
156.1536791093177
 10
117.2209887741344
 20
156.3230163183411
 10
117.2633203849094
 20
156.4923535273645
 10
117.3056627616078
 20
156.6616799704646
 10
117.3479943723828
 20
156.831017179488
 10
117.3903259831578
 20
156.9580227777364
 10
117.4326575939328
 20
157.1273492208364
 10
117.4749892047078
 20
157.2966864298598
 10
117.5173208154828
 20
157.4236812621849
 10
117.5173208154828
 20
157.5930184712083
 10
117.5596631921812
 20
157.7623556802317
 10
117.5596631921812
 20
157.8893505125567
 10
117.6019948029563
 20
158.0586877215801
 10
117.6019948029563
 20
158.1856825539052
 10
117.6443264137313
 20
158.3126881521536
 10
117.6443264137313
 20
159.0323470671755
 10
117.6866580245063
 20
159.1593526654239
 10
117.6866580245063
 20
159.2863474977489
  0
SPLINE
  5
1FF
330
70
100
AcDbEntity
  8
Capa 1
 62
    18
420
        0
370
     9
100
AcDbSpline
210
0.0
220
0.0
230
1.0
 70
    24
 71
     3
 72
     8
 73
     4
 74
     0
 42
0.0000000001
 43
0.0000000001
 40
0.0
 40
0.0
 40
0.0
 40
0.0
 40
1.0
 40
1.0
 40
1.0
 40
1.0
 10
98.97532168139225
 20
159.2863474977489
 30
0.0
 10
98.97532168139225
 20
159.2863474977489
 30
0.0
 10
101.896321250025
 20
159.2863474977489
 30
0.0
 10
101.896321250025
 20
159.2863474977489
 30
0.0
  0
SPLINE
  5
200
330
70
100
AcDbEntity
  8
Capa 1
 62
    18
420
        0
370
     9
100
AcDbSpline
210
0.0
220
0.0
230
1.0
 70
    24
 71
     3
 72
     8
 73
     4
 74
     0
 42
0.0000000001
 43
0.0000000001
 40
0.0
 40
0.0
 40
0.0
 40
0.0
 40
1.0
 40
1.0
 40
1.0
 40
1.0
 10
103.5049870550157
 20
159.2863474977489
 30
0.0
 10
103.5049870550157
 20
159.2863474977489
 30
0.0
 10
106.4259973895719
 20
159.2863474977489
 30
0.0
 10
106.4259973895719
 20
159.2863474977489
 30
0.0
  0
SPLINE
  5
201
330
70
100
AcDbEntity
  8
Capa 1
 62
    18
420
        0
370
     9
100
AcDbSpline
210
0.0
220
0.0
230
1.0
 70
    24
 71
     3
 72
     8
 73
     4
 74
     0
 42
0.0000000001
 43
0.0000000001
 40
0.0
 40
0.0
 40
0.0
 40
0.0
 40
1.0
 40
1.0
 40
1.0
 40
1.0
 10
108.3309952359109
 20
159.2863474977489
 30
0.0
 10
108.3309952359109
 20
159.2863474977489
 30
0.0
 10
111.2519948045438
 20
159.2863474977489
 30
0.0
 10
111.2519948045438
 20
159.2863474977489
 30
0.0
  0
SPLINE
  5
202
330
70
100
AcDbEntity
  8
Capa 1
 62
    18
420
        0
370
     9
100
AcDbSpline
210
0.0
220
0.0
230
1.0
 70
    24
 71
     3
 72
     8
 73
     4
 74
     0
 42
0.0000000001
 43
0.0000000001
 40
0.0
 40
0.0
 40
0.0
 40
0.0
 40
1.0
 40
1.0
 40
1.0
 40
1.0
 10
112.8606606095344
 20
159.2863474977489
 30
0.0
 10
112.8606606095344
 20
159.2863474977489
 30
0.0
 10
115.7816601781672
 20
159.2863474977489
 30
0.0
 10
115.7816601781672
 20
159.2863474977489
 30
0.0
  0
SPLINE
  5
203
330
70
100
AcDbEntity
  8
Capa 1
 62
    18
420
        0
370
     9
100
AcDbSpline
210
0.0
220
0.0
230
1.0
 70
    24
 71
     3
 72
     8
 73
     4
 74
     0
 42
0.0000000001
 43
0.0000000001
 40
0.0
 40
0.0
 40
0.0
 40
0.0
 40
1.0
 40
1.0
 40
1.0
 40
1.0
 10
64.26199589288362
 20
160.8950133027396
 30
0.0
 10
64.26199589288362
 20
160.8950133027396
 30
0.0
 10
67.14066385074142
 20
160.8950133027396
 30
0.0
 10
67.14066385074142
 20
160.8950133027396
 30
0.0
  0
SPLINE
  5
204
330
70
100
AcDbEntity
  8
Capa 1
 62
    18
420
        0
370
     9
100
AcDbSpline
210
0.0
220
0.0
230
1.0
 70
    24
 71
     3
 72
     8
 73
     4
 74
     0
 42
0.0000000001
 43
0.0000000001
 40
0.0
 40
0.0
 40
0.0
 40
0.0
 40
1.0
 40
1.0
 40
1.0
 40
1.0
 10
68.79166126650706
 20
160.8950133027396
 30
0.0
 10
68.79166126650706
 20
160.8950133027396
 30
0.0
 10
71.67032922436487
 20
160.8950133027396
 30
0.0
 10
71.67032922436487
 20
160.8950133027396
 30
0.0
  0
SPLINE
  5
205
330
70
100
AcDbEntity
  8
Capa 1
 62
    18
420
        0
370
     9
100
AcDbSpline
210
0.0
220
0.0
230
1.0
 70
    24
 71
     3
 72
     8
 73
     4
 74
     0
 42
0.0000000001
 43
0.0000000001
 40
0.0
 40
0.0
 40
0.0
 40
0.0
 40
1.0
 40
1.0
 40
1.0
 40
1.0
 10
73.61766406444065
 20
160.8950133027396
 30
0.0
 10
73.61766406444065
 20
160.8950133027396
 30
0.0
 10
76.53866363307345
 20
160.8950133027396
 30
0.0
 10
76.53866363307345
 20
160.8950133027396
 30
0.0
  0
SPLINE
  5
206
330
70
100
AcDbEntity
  8
Capa 1
 62
    18
420
        0
370
     9
100
AcDbSpline
210
0.0
220
0.0
230
1.0
 70
    24
 71
     3
 72
     8
 73
     4
 74
     0
 42
0.0000000001
 43
0.0000000001
 40
0.0
 40
0.0
 40
0.0
 40
0.0
 40
1.0
 40
1.0
 40
1.0
 40
1.0
 10
78.14732943806408
 20
160.8950133027396
 30
0.0
 10
78.14732943806408
 20
160.8950133027396
 30
0.0
 10
81.0683290066969
 20
160.8950133027396
 30
0.0
 10
81.0683290066969
 20
160.8950133027396
 30
0.0
  0
SPLINE
  5
207
330
70
100
AcDbEntity
  8
Capa 1
 62
    18
420
        0
370
     9
100
AcDbSpline
210
0.0
220
0.0
230
1.0
 70
    24
 71
     3
 72
     8
 73
     4
 74
     0
 42
0.0000000001
 43
0.0000000001
 40
0.0
 40
0.0
 40
0.0
 40
0.0
 40
1.0
 40
1.0
 40
1.0
 40
1.0
 10
82.33833115956407
 20
160.8950133027396
 30
0.0
 10
82.33833115956407
 20
160.8950133027396
 30
0.0
 10
84.92066169311174
 20
160.8950133027396
 30
0.0
 10
84.92066169311174
 20
160.8950133027396
 30
0.0
  0
SPLINE
  5
208
330
70
100
AcDbEntity
  8
Capa 1
 62
    18
420
        0
370
     9
100
AcDbSpline
210
0.0
220
0.0
230
1.0
 70
    24
 71
     3
 72
     8
 73
     4
 74
     0
 42
0.0000000001
 43
0.0000000001
 40
0.0
 40
0.0
 40
0.0
 40
0.0
 40
1.0
 40
1.0
 40
1.0
 40
1.0
 10
60.36733159569376
 20
160.8950133027396
 30
0.0
 10
60.36733159569376
 20
160.8950133027396
 30
0.0
 10
62.94966212924143
 20
160.8950133027396
 30
0.0
 10
62.94966212924143
 20
160.8950133027396
 30
0.0
  0
MTEXT
  5
209
330
70
100
AcDbEntity
  8
Capa 1
100
AcDbMText
 10
86.31766406126564
 20
193.1953350008005
 30
0.0
 40
0.2
 41
0.0
 46
0.0
 71
     7
 72
     1
  1
\C18;\c0;\FArial Bold|b1|i0|c1;\H2.497667;\W1.000000;250
 73
     1
 44
1.0
  0
MTEXT
  5
20A
330
70
100
AcDbEntity
  8
Capa 1
100
AcDbMText
 10
32.55433032955328
 20
158.4397689847047
 30
0.0
 40
0.2
 41
0.0
 46
0.0
 71
     7
 72
     1
  1
\C18;\c0;\FArial Bold|b1|i0|c1;\H2.497667;\W1.000000;160
 11
0.0000000000448966
 21
1.0
 31
0.0
 73
     1
 44
1.0
  0
MTEXT
  5
20B
330
70
100
AcDbEntity
  8
Capa 1
100
AcDbMText
 10
164.0750107090101
 20
193.0260085577005
 30
0.0
 40
0.2
 41
0.0
 46
0.0
 71
     7
 72
     1
  1
\C18;\c0;\FArial Bold|b1|i0|c1;\H2.497667;\W1.000000;40
 73
     1
 44
1.0
  0
MTEXT
  5
20C
330
70
100
AcDbEntity
  8
Capa 1
100
AcDbMText
 10
177.9371147558629
 20
192.9801887877467
 30
0.0
 40
0.2
 41
0.0
 46
0.0
 71
     7
 72
     1
  1
\C18;\c0;\FArial Bold|b1|i0|c1;\H2.497667;\W1.000000;8
 73
     1
 44
1.0
  0
ENDSEC
  0
SECTION
  2
OBJECTS
  0
DICTIONARY
  5
C
330
0
100
AcDbDictionary
281
     1
  3
ACAD_COLOR
350
63
  3
ACAD_DETAILVIEWSTYLE
350
6A
  3
ACAD_GROUP
350
D
  3
ACAD_LAYOUT
350
62
  3
ACAD_MATERIAL
350
10
  3
ACAD_MLEADERSTYLE
350
66
  3
ACAD_MLINESTYLE
350
5F
  3
ACAD_PLOTSETTINGS
350
61
  3
ACAD_PLOTSTYLENAME
350
E
  3
ACAD_SCALELIST
350
42
  3
ACAD_SECTIONVIEWSTYLE
350
68
  3
ACAD_TABLESTYLE
350
64
  3
ACAD_VISUALSTYLE
350
29
  3
ACDB_RECOMPOSE_DATA
350
216
  3
AcDbVariableDictionary
350
20D
  0
DICTIONARY
  5
63
102
{ACAD_REACTORS
330
C
102
}
330
C
100
AcDbDictionary
281
     1
  0
DICTIONARY
  5
6A
102
{ACAD_REACTORS
330
C
102
}
330
C
100
AcDbDictionary
281
     1
  3
Imperial24
350
6B
  0
DICTIONARY
  5
D
102
{ACAD_REACTORS
330
C
102
}
330
C
100
AcDbDictionary
281
     1
  0
DICTIONARY
  5
62
102
{ACAD_REACTORS
330
C
102
}
330
C
100
AcDbDictionary
281
     1
  3
Layout1
350
6F
  3
Layout2
350
77
  3
Model
350
73
  0
DICTIONARY
  5
10
102
{ACAD_REACTORS
330
C
102
}
330
C
100
AcDbDictionary
281
     1
  3
ByBlock
350
19
  3
ByLayer
350
11
  3
Global
350
21
  0
DICTIONARY
  5
66
102
{ACAD_REACTORS
330
C
102
}
330
C
100
AcDbDictionary
281
     1
  3
Standard
350
67
  0
DICTIONARY
  5
5F
102
{ACAD_REACTORS
330
C
102
}
330
C
100
AcDbDictionary
281
     1
  3
Standard
350
60
  0
DICTIONARY
  5
61
102
{ACAD_REACTORS
330
C
102
}
330
C
100
AcDbDictionary
281
     1
  0
ACDBDICTIONARYWDFLT
  5
E
102
{ACAD_REACTORS
330
C
102
}
330
C
100
AcDbDictionary
281
     1
  3
Normal
350
F
100
AcDbDictionaryWithDefault
340
F
  0
DICTIONARY
  5
42
102
{ACAD_REACTORS
330
C
102
}
330
C
100
AcDbDictionary
281
     1
  3
A0
350
43
  3
A1
350
44
  3
A2
350
45
  3
A3
350
46
  3
A4
350
47
  3
A5
350
48
  3
A6
350
49
  3
A7
350
4A
  3
A8
350
4B
  3
A9
350
4C
  3
B0
350
4D
  3
B1
350
4E
  3
B2
350
4F
  3
B3
350
50
  3
B4
350
51
  3
B5
350
52
  3
B6
350
53
  0
DICTIONARY
  5
68
102
{ACAD_REACTORS
330
C
102
}
330
C
100
AcDbDictionary
281
     1
  3
Imperial24
350
69
  0
DICTIONARY
  5
64
102
{ACAD_REACTORS
330
C
102
}
330
C
100
AcDbDictionary
281
     1
  3
Standard
350
65
  0
DICTIONARY
  5
29
102
{ACAD_REACTORS
330
C
102
}
330
C
100
AcDbDictionary
281
     1
  3
2dWireframe
350
2F
  3
Basic
350
2E
  3
Brighten
350
35
  3
ColorChange
350
39
  3
Conceptual
350
32
  3
Dim
350
34
  3
EdgeColorOff
350
41
  3
Facepattern
350
38
  3
Flat
350
2A
  3
FlatWithEdges
350
2B
  3
Gouraud
350
2C
  3
GouraudWithEdges
350
2D
  3
Hidden
350
31
  3
JitterOff
350
3F
  3
Linepattern
350
37
  3
OverhangOff
350
40
  3
Realistic
350
33
  3
Shaded
350
3E
  3
Shaded with edges
350
3D
  3
Shades of Gray
350
3A
  3
Sketchy
350
3B
  3
Thicken
350
36
  3
Wireframe
350
30
  3
X-Ray
350
3C
  0
XRECORD
  5
216
102
{ACAD_REACTORS
330
C
102
}
330
C
100
AcDbXrecord
280
     1
 90
        1
330
65
  0
DICTIONARY
  5
20D
102
{ACAD_REACTORS
330
C
102
}
330
C
100
AcDbDictionary
281
     1
  3
CANNOSCALE
350
212
  3
CMLEADERSTYLE
350
20F
  3
CTABLESTYLE
350
20E
  3
CVIEWDETAILSTYLE
350
210
  3
CVIEWSECTIONSTYLE
350
211
  0
ACDBDETAILVIEWSTYLE
  5
6B
102
{ACAD_XDICTIONARY
360
24B
102
}
102
{ACAD_REACTORS
330
6A
102
}
330
6A
100
AcDbModelDocViewStyle
 70
     0
  3
Imperial24
290
     0
100
AcDbDetailViewStyle
 70
     0
 71
     0
 90
        3
 71
     1
340
55
 62
   256
 40
0.24
340
0
 62
   256
 40
0.24
300

 40
0.36
280
     3
 71
     2
340
5D
 90
       25
 62
   256
 71
     3
340
55
 62
   256
 40
0.24
 90
        1
 40
0.75
 90
        1
300
%<\AcVar ViewType \f "%tc1">% %<\AcVar ViewDetailId>%\PSCALE %<\AcVar ViewScale \f "%sn">%
 71
     4
340
5D
 90
       25
 62
   256
340
5D
 90
       25
 62
   256
280
     0
  0
LAYOUT
  5
6F
102
{ACAD_REACTORS
330
62
102
}
330
62
100
AcDbPlotSettings
  1

  2

  4

  6

 40
0.0
 41
0.0
 42
0.0
 43
0.0
 44
0.0
 45
0.0
 46
0.0
 47
0.0
 48
0.0
 49
0.0
140
0.0
141
0.0
142
1.0
143
1.0
 70
   688
 72
     0
 73
     0
 74
     5
  7

 75
    16
147
1.0
 76
     0
 77
     2
 78
   300
148
0.0
149
0.0
100
AcDbLayout
  1
Layout1
 70
     1
 71
     1
 10
0.0
 20
0.0
 11
12.0
 21
9.0
 12
0.0
 22
0.0
 32
0.0
 14
0.0
 24
0.0
 34
0.0
 15
0.0
 25
0.0
 35
0.0
146
0.0
 13
0.0
 23
0.0
 33
0.0
 16
1.0
 26
0.0
 36
0.0
 17
0.0
 27
1.0
 37
0.0
 76
     0
330
6C
  0
LAYOUT
  5
77
102
{ACAD_REACTORS
330
62
102
}
330
62
100
AcDbPlotSettings
  1

  2

  4

  6

 40
0.0
 41
0.0
 42
0.0
 43
0.0
 44
0.0
 45
0.0
 46
0.0
 47
0.0
 48
0.0
 49
0.0
140
0.0
141
0.0
142
1.0
143
1.0
 70
   688
 72
     0
 73
     0
 74
     5
  7

 75
    16
147
1.0
 76
     0
 77
     2
 78
   300
148
0.0
149
0.0
100
AcDbLayout
  1
Layout2
 70
     1
 71
     2
 10
0.0
 20
0.0
 11
12.0
 21
9.0
 12
0.0
 22
0.0
 32
0.0
 14
0.0
 24
0.0
 34
0.0
 15
0.0
 25
0.0
 35
0.0
146
0.0
 13
0.0
 23
0.0
 33
0.0
 16
1.0
 26
0.0
 36
0.0
 17
0.0
 27
1.0
 37
0.0
 76
     0
330
74
  0
LAYOUT
  5
73
102
{ACAD_REACTORS
330
62
102
}
330
62
100
AcDbPlotSettings
  1

  2

  4

  6

 40
0.0
 41
0.0
 42
0.0
 43
0.0
 44
0.0
 45
0.0
 46
0.0
 47
0.0
 48
0.0
 49
0.0
140
0.0
141
0.0
142
1.0
143
1.0
 70
  1712
 72
     0
 73
     0
 74
     0
  7

 75
     0
147
1.0
 76
     0
 77
     2
 78
   300
148
0.0
149
0.0
100
AcDbLayout
  1
Model
 70
     1
 71
     0
 10
0.0
 20
0.0
 11
12.0
 21
9.0
 12
0.0
 22
0.0
 32
0.0
 14
0.0
 24
0.0
 34
0.0
 15
0.0
 25
0.0
 35
0.0
146
0.0
 13
0.0
 23
0.0
 33
0.0
 16
1.0
 26
0.0
 36
0.0
 17
0.0
 27
1.0
 37
0.0
 76
     0
330
70
  0
MATERIAL
  5
19
102
{ACAD_XDICTIONARY
360
1A
102
}
102
{ACAD_REACTORS
330
10
102
}
330
10
100
AcDbMaterial
  1
ByBlock
 72
     0
 43
0.0208333333333333
 43
0.0
 43
0.0
 43
0.0
 43
0.0
 43
0.0208333333333333
 43
0.0
 43
0.0
 43
0.0
 43
0.0
 43
1.0
 43
0.0
 43
0.0
 43
0.0
 43
0.0
 43
1.0
 77
     0
 47
0.0208333333333333
 47
0.0
 47
0.0
 47
0.0
 47
0.0
 47
0.0208333333333333
 47
0.0
 47
0.0
 47
0.0
 47
0.0
 47
1.0
 47
0.0
 47
0.0
 47
0.0
 47
0.0
 47
1.0
171
     0
 49
0.0208333333333333
 49
0.0
 49
0.0
 49
0.0
 49
0.0
 49
0.0208333333333333
 49
0.0
 49
0.0
 49
0.0
 49
0.0
 49
1.0
 49
0.0
 49
0.0
 49
0.0
 49
0.0
 49
1.0
175
     0
142
0.0208333333333333
142
0.0
142
0.0
142
0.0
142
0.0
142
0.0208333333333333
142
0.0
142
0.0
142
0.0
142
0.0
142
1.0
142
0.0
142
0.0
142
0.0
142
0.0
142
1.0
179
     0
144
0.0208333333333333
144
0.0
144
0.0
144
0.0
144
0.0
144
0.0208333333333333
144
0.0
144
0.0
144
0.0
144
0.0
144
1.0
144
0.0
144
0.0
144
0.0
144
0.0
144
1.0
147
0.0208333333333333
147
0.0
147
0.0
147
0.0
147
0.0
147
0.0208333333333333
147
0.0
147
0.0
147
0.0
147
0.0
147
1.0
147
0.0
147
0.0
147
0.0
147
0.0
147
1.0
  0
MATERIAL
  5
11
102
{ACAD_XDICTIONARY
360
12
102
}
102
{ACAD_REACTORS
330
10
102
}
330
10
100
AcDbMaterial
  1
ByLayer
 72
     0
 43
0.0208333333333333
 43
0.0
 43
0.0
 43
0.0
 43
0.0
 43
0.0208333333333333
 43
0.0
 43
0.0
 43
0.0
 43
0.0
 43
1.0
 43
0.0
 43
0.0
 43
0.0
 43
0.0
 43
1.0
 77
     0
 47
0.0208333333333333
 47
0.0
 47
0.0
 47
0.0
 47
0.0
 47
0.0208333333333333
 47
0.0
 47
0.0
 47
0.0
 47
0.0
 47
1.0
 47
0.0
 47
0.0
 47
0.0
 47
0.0
 47
1.0
171
     0
 49
0.0208333333333333
 49
0.0
 49
0.0
 49
0.0
 49
0.0
 49
0.0208333333333333
 49
0.0
 49
0.0
 49
0.0
 49
0.0
 49
1.0
 49
0.0
 49
0.0
 49
0.0
 49
0.0
 49
1.0
175
     0
142
0.0208333333333333
142
0.0
142
0.0
142
0.0
142
0.0
142
0.0208333333333333
142
0.0
142
0.0
142
0.0
142
0.0
142
1.0
142
0.0
142
0.0
142
0.0
142
0.0
142
1.0
179
     0
144
0.0208333333333333
144
0.0
144
0.0
144
0.0
144
0.0
144
0.0208333333333333
144
0.0
144
0.0
144
0.0
144
0.0
144
1.0
144
0.0
144
0.0
144
0.0
144
0.0
144
1.0
147
0.0208333333333333
147
0.0
147
0.0
147
0.0
147
0.0
147
0.0208333333333333
147
0.0
147
0.0
147
0.0
147
0.0
147
1.0
147
0.0
147
0.0
147
0.0
147
0.0
147
1.0
  0
MATERIAL
  5
21
102
{ACAD_XDICTIONARY
360
22
102
}
102
{ACAD_REACTORS
330
10
102
}
330
10
100
AcDbMaterial
  1
Global
 72
     0
 43
0.0208333333333333
 43
0.0
 43
0.0
 43
0.0
 43
0.0
 43
0.0208333333333333
 43
0.0
 43
0.0
 43
0.0
 43
0.0
 43
1.0
 43
0.0
 43
0.0
 43
0.0
 43
0.0
 43
1.0
 77
     0
 47
0.0208333333333333
 47
0.0
 47
0.0
 47
0.0
 47
0.0
 47
0.0208333333333333
 47
0.0
 47
0.0
 47
0.0
 47
0.0
 47
1.0
 47
0.0
 47
0.0
 47
0.0
 47
0.0
 47
1.0
171
     0
 49
0.0208333333333333
 49
0.0
 49
0.0
 49
0.0
 49
0.0
 49
0.0208333333333333
 49
0.0
 49
0.0
 49
0.0
 49
0.0
 49
1.0
 49
0.0
 49
0.0
 49
0.0
 49
0.0
 49
1.0
175
     0
142
0.0208333333333333
142
0.0
142
0.0
142
0.0
142
0.0
142
0.0208333333333333
142
0.0
142
0.0
142
0.0
142
0.0
142
1.0
142
0.0
142
0.0
142
0.0
142
0.0
142
1.0
179
     0
144
0.0208333333333333
144
0.0
144
0.0
144
0.0
144
0.0
144
0.0208333333333333
144
0.0
144
0.0
144
0.0
144
0.0
144
1.0
144
0.0
144
0.0
144
0.0
144
0.0
144
1.0
147
0.0208333333333333
147
0.0
147
0.0
147
0.0
147
0.0
147
0.0208333333333333
147
0.0
147
0.0
147
0.0
147
0.0
147
1.0
147
0.0
147
0.0
147
0.0
147
0.0
147
1.0
  0
MLEADERSTYLE
  5
67
102
{ACAD_XDICTIONARY
360
247
102
}
102
{ACAD_REACTORS
330
66
102
}
330
66
100
AcDbMLeaderStyle
179
     2
170
     2
171
     1
172
     0
 90
        2
 40
0.0
 41
0.0
173
     1
 91
-1056964608
340
5B
 92
       -2
290
     1
 42
0.09
291
     1
 43
0.36
  3
Standard
 44
0.18
300

342
55
174
     1
178
     6
175
     1
176
     0
 93
-1056964608
 45
0.18
292
     0
297
     0
 46
0.18
 94
-1056964608
 47
1.0
 49
1.0
140
1.0
293
     1
141
0.0
294
     1
177
     0
142
1.0
295
     0
296
     0
143
0.125
271
     0
272
     9
273
     9
  0
MLINESTYLE
  5
60
102
{ACAD_REACTORS
330
5F
102
}
330
5F
100
AcDbMlineStyle
  2
STANDARD
 70
     0
  3

 62
   256
 51
90.0
 52
90.0
 71
     2
 49
0.5
 62
   256
  6
BYLAYER
 49
-0.5
 62
   256
  6
BYLAYER
  0
ACDBPLACEHOLDER
  5
F
102
{ACAD_REACTORS
330
E
102
}
330
E
  0
SCALE
  5
43
102
{ACAD_REACTORS
330
42
102
}
330
42
100
AcDbScale
 70
     0
300
1:1
140
1.0
141
1.0
290
     1
  0
SCALE
  5
44
102
{ACAD_REACTORS
330
42
102
}
330
42
100
AcDbScale
 70
     0
300
1/128" = 1'-0"
140
0.0078125
141
12.0
290
     0
  0
SCALE
  5
45
102
{ACAD_REACTORS
330
42
102
}
330
42
100
AcDbScale
 70
     0
300
1/64" = 1'-0"
140
0.015625
141
12.0
290
     0
  0
SCALE
  5
46
102
{ACAD_REACTORS
330
42
102
}
330
42
100
AcDbScale
 70
     0
300
1/32" = 1'-0"
140
0.03125
141
12.0
290
     0
  0
SCALE
  5
47
102
{ACAD_REACTORS
330
42
102
}
330
42
100
AcDbScale
 70
     0
300
1/16" = 1'-0"
140
0.0625
141
12.0
290
     0
  0
SCALE
  5
48
102
{ACAD_REACTORS
330
42
102
}
330
42
100
AcDbScale
 70
     0
300
3/32" = 1'-0"
140
0.09375
141
12.0
290
     0
  0
SCALE
  5
49
102
{ACAD_REACTORS
330
42
102
}
330
42
100
AcDbScale
 70
     0
300
1/8" = 1'-0"
140
0.125
141
12.0
290
     0
  0
SCALE
  5
4A
102
{ACAD_REACTORS
330
42
102
}
330
42
100
AcDbScale
 70
     0
300
3/16" = 1'-0"
140
0.1875
141
12.0
290
     0
  0
SCALE
  5
4B
102
{ACAD_REACTORS
330
42
102
}
330
42
100
AcDbScale
 70
     0
300
1/4" = 1'-0"
140
0.25
141
12.0
290
     0
  0
SCALE
  5
4C
102
{ACAD_REACTORS
330
42
102
}
330
42
100
AcDbScale
 70
     0
300
3/8" = 1'-0"
140
0.375
141
12.0
290
     0
  0
SCALE
  5
4D
102
{ACAD_REACTORS
330
42
102
}
330
42
100
AcDbScale
 70
     0
300
1/2" = 1'-0"
140
0.5
141
12.0
290
     0
  0
SCALE
  5
4E
102
{ACAD_REACTORS
330
42
102
}
330
42
100
AcDbScale
 70
     0
300
3/4" = 1'-0"
140
0.75
141
12.0
290
     0
  0
SCALE
  5
4F
102
{ACAD_REACTORS
330
42
102
}
330
42
100
AcDbScale
 70
     0
300
1" = 1'-0"
140
1.0
141
12.0
290
     0
  0
SCALE
  5
50
102
{ACAD_REACTORS
330
42
102
}
330
42
100
AcDbScale
 70
     0
300
1-1/2" = 1'-0"
140
1.5
141
12.0
290
     0
  0
SCALE
  5
51
102
{ACAD_REACTORS
330
42
102
}
330
42
100
AcDbScale
 70
     0
300
3" = 1'-0"
140
3.0
141
12.0
290
     0
  0
SCALE
  5
52
102
{ACAD_REACTORS
330
42
102
}
330
42
100
AcDbScale
 70
     0
300
6" = 1'-0"
140
6.0
141
12.0
290
     0
  0
SCALE
  5
53
102
{ACAD_REACTORS
330
42
102
}
330
42
100
AcDbScale
 70
     0
300
1'-0" = 1'-0"
140
12.0
141
12.0
290
     0
  0
ACDBSECTIONVIEWSTYLE
  5
69
102
{ACAD_XDICTIONARY
360
249
102
}
102
{ACAD_REACTORS
330
68
102
}
330
68
100
AcDbModelDocViewStyle
 70
     0
  3
Imperial24
290
     0
100
AcDbSectionViewStyle
 70
     0
 71
     0
 90
       78
 71
     1
340
55
 62
   256
 40
0.24
340
0
340
0
 62
   256
 40
0.24
300
I, O, Q, S, X, Z
 40
0.48
 90
        3
 40
0.18
 90
        1
 71
     2
340
5D
 90
       25
 62
   256
340
5D
 90
       50
 62
   256
 40
0.24
 40
0.0
 40
0.24
 71
     3
340
55
 62
   256
 40
0.24
 90
        1
 40
0.75
 90
        1
300
%<\AcVar ViewType \f "%tc1">% %<\AcVar ViewSectionStartId>%-%<\AcVar ViewSectionEndId>%\PSCALE %<\AcVar ViewScale \f "%sn">%
 71
     4
 62
   256
 62
   257
300
ANSI31
 40
1.0
 90
        0
290
     0
290
     0
 90
        6
 40
0.0
 40
1.570796326794896
 40
0.2617993877991494
 40
1.308996938995747
 40
-0.2617993877991494
 40
1.832595714594046
  0
TABLESTYLE
  5
65
102
{ACAD_XDICTIONARY
360
213
102
}
102
{ACAD_REACTORS
330
64
102
}
330
64
100
AcDbTableStyle
280
     0
  3
Standard
 70
     0
 71
     0
 40
0.06
 41
0.06
280
     0
281
     0
  7
Standard
140
0.18
170
     2
 62
     0
 63
     7
283
     0
 90
      512
 91
        0
  1

274
    -2
284
     1
 64
     0
275
    -2
285
     1
 65
     0
276
    -2
286
     1
 66
     0
277
    -2
287
     1
 67
     0
278
    -2
288
     1
 68
     0
279
    -2
289
     1
 69
     0
  7
Standard
140
0.25
170
     5
 62
     0
 63
     7
283
     0
 90
      512
 91
        0
  1

274
    -2
284
     1
 64
     0
275
    -2
285
     1
 65
     0
276
    -2
286
     1
 66
     0
277
    -2
287
     1
 67
     0
278
    -2
288
     1
 68
     0
279
    -2
289
     1
 69
     0
  7
Standard
140
0.18
170
     5
 62
     0
 63
     7
283
     0
 90
      512
 91
        0
  1

274
    -2
284
     1
 64
     0
275
    -2
285
     1
 65
     0
276
    -2
286
     1
 66
     0
277
    -2
287
     1
 67
     0
278
    -2
288
     1
 68
     0
279
    -2
289
     1
 69
     0
  0
VISUALSTYLE
  5
2F
102
{ACAD_XDICTIONARY
360
221
102
}
102
{ACAD_REACTORS
330
29
102
}
330
29
100
AcDbVisualStyle
  2
2dWireframe
 70
     4
177
     2
291
     0
 71
     0
176
     1
 72
     2
176
     1
 73
     0
176
     1
 90
        0
176
     1
 40
0.6
176
     1
 41
30.0
176
     1
 63
     7
421
 16777215
176
     1
 74
     1
176
     1
 91
        4
176
     1
 64
     7
176
     1
 65
   257
176
     1
 75
     1
176
     1
175
     1
176
     1
 42
1.0
176
     1
 92
        0
176
     1
 66
   257
176
     1
 43
1.0
176
     1
 76
     1
176
     1
 77
     6
176
     1
 78
     2
176
     1
 67
     7
176
     1
 79
     5
176
     1
170
     0
176
     1
171
     0
176
     1
290
     0
176
     1
 93
        1
176
     1
 44
0.0
176
     1
173
     0
176
     1
1001
ACAD
1000
AcDbSavedByObjectVersion
1070
     0
  0
VISUALSTYLE
  5
2E
102
{ACAD_XDICTIONARY
360
21F
102
}
102
{ACAD_REACTORS
330
29
102
}
330
29
100
AcDbVisualStyle
  2
Basic
 70
     7
177
     2
291
     1
 71
     1
176
     1
 72
     0
176
     1
 73
     1
176
     1
 90
        0
176
     1
 40
0.6
176
     1
 41
30.0
176
     1
 63
     7
421
 16777215
176
     1
 74
     0
176
     1
 91
        4
176
     1
 64
     7
176
     1
 65
   257
176
     1
 75
     1
176
     1
175
     1
176
     1
 42
1.0
176
     1
 92
        8
176
     1
 66
     7
176
     1
 43
1.0
176
     1
 76
     1
176
     1
 77
     6
176
     1
 78
     2
176
     1
 67
     7
176
     1
 79
     5
176
     1
170
     0
176
     1
171
     0
176
     1
290
     0
176
     1
 93
        1
176
     1
 44
0.0
176
     1
173
     0
176
     1
1001
ACAD
1000
AcDbSavedByObjectVersion
1070
     0
  0
VISUALSTYLE
  5
35
102
{ACAD_XDICTIONARY
360
22D
102
}
102
{ACAD_REACTORS
330
29
102
}
330
29
100
AcDbVisualStyle
  2
Brighten
 70
    12
177
     2
291
     1
 71
     2
176
     1
 72
     2
176
     1
 73
     0
176
     1
 90
        0
176
     1
 40
0.6
176
     1
 41
30.0
176
     1
 63
     7
421
 16777215
176
     1
 74
     1
176
     1
 91
        4
176
     1
 64
     7
176
     1
 65
   257
176
     1
 75
     1
176
     1
175
     1
176
     1
 42
1.0
176
     1
 92
        8
176
     1
 66
     7
176
     1
 43
1.0
176
     1
 76
     1
176
     1
 77
     6
176
     1
 78
     2
176
     1
 67
     7
176
     1
 79
     5
176
     1
170
     0
176
     1
171
     0
176
     1
290
     0
176
     1
 93
        1
176
     1
 44
50.0
176
     1
173
     0
176
     1
1001
ACAD
1000
AcDbSavedByObjectVersion
1070
     0
  0
VISUALSTYLE
  5
39
102
{ACAD_XDICTIONARY
360
235
102
}
102
{ACAD_REACTORS
330
29
102
}
330
29
100
AcDbVisualStyle
  2
ColorChange
 70
    16
177
     2
291
     1
 71
     2
176
     1
 72
     2
176
     1
 73
     3
176
     1
 90
        0
176
     1
 40
0.6
176
     1
 41
30.0
176
     1
 63
     8
421
  8421504
176
     1
 74
     1
176
     1
 91
        4
176
     1
 64
     7
176
     1
 65
   257
176
     1
 75
     1
176
     1
175
     1
176
     1
 42
1.0
176
     1
 92
        8
176
     1
 66
     8
424
  8421504
176
     1
 43
1.0
176
     1
 76
     1
176
     1
 77
     6
176
     1
 78
     2
176
     1
 67
     7
176
     1
 79
     5
176
     1
170
     0
176
     1
171
     0
176
     1
290
     0
176
     1
 93
        1
176
     1
 44
0.0
176
     1
173
     0
176
     1
1001
ACAD
1000
AcDbSavedByObjectVersion
1070
     0
  0
VISUALSTYLE
  5
32
102
{ACAD_XDICTIONARY
360
227
102
}
102
{ACAD_REACTORS
330
29
102
}
330
29
100
AcDbVisualStyle
  2
Conceptual
 70
     9
177
     2
291
     0
 71
     3
176
     1
 72
     2
176
     1
 73
     0
176
     1
 90
        0
176
     1
 40
0.6
176
     1
 41
30.0
176
     1
 63
     7
421
 16777215
176
     1
 74
     2
176
     1
 91
        2
176
     1
 64
     7
176
     1
 65
   257
176
     1
 75
     1
176
     1
175
     1
176
     1
 42
179.0
176
     1
 92
        8
176
     1
 66
     7
176
     1
 43
1.0
176
     1
 76
     1
176
     1
 77
     6
176
     1
 78
     2
176
     1
 67
     7
176
     1
 79
     3
176
     1
170
     0
176
     1
171
     0
176
     1
290
     0
176
     1
 93
        1
176
     1
 44
0.0
176
     1
173
     0
176
     1
1001
ACAD
1000
AcDbSavedByObjectVersion
1070
     0
  0
VISUALSTYLE
  5
34
102
{ACAD_XDICTIONARY
360
22B
102
}
102
{ACAD_REACTORS
330
29
102
}
330
29
100
AcDbVisualStyle
  2
Dim
 70
    11
177
     2
291
     1
 71
     2
176
     1
 72
     2
176
     1
 73
     0
176
     1
 90
        0
176
     1
 40
0.6
176
     1
 41
30.0
176
     1
 63
     7
421
 16777215
176
     1
 74
     1
176
     1
 91
        4
176
     1
 64
     7
176
     1
 65
   257
176
     1
 75
     1
176
     1
175
     1
176
     1
 42
1.0
176
     1
 92
        8
176
     1
 66
     7
176
     1
 43
1.0
176
     1
 76
     1
176
     1
 77
     6
176
     1
 78
     2
176
     1
 67
     7
176
     1
 79
     5
176
     1
170
     0
176
     1
171
     0
176
     1
290
     0
176
     1
 93
        1
176
     1
 44
-50.0
176
     1
173
     0
176
     1
1001
ACAD
1000
AcDbSavedByObjectVersion
1070
     0
  0
VISUALSTYLE
  5
41
102
{ACAD_XDICTIONARY
360
245
102
}
102
{ACAD_REACTORS
330
29
102
}
330
29
100
AcDbVisualStyle
  2
EdgeColorOff
 70
    22
177
     2
291
     1
 71
     2
176
     0
 72
     2
176
     0
 73
     0
176
     0
 90
        0
176
     0
 40
0.6
176
     0
 41
30.0
176
     0
 63
     7
421
 16777215
176
     0
 74
     1
176
     0
 91
        4
176
     0
 64
     7
176
     0
 65
   257
176
     0
 75
     1
176
     0
175
     1
176
     0
 42
1.0
176
     0
 92
        8
176
     2
 66
     7
176
     0
 43
1.0
176
     0
 76
     1
176
     0
 77
     6
176
     0
 78
     2
176
     0
 67
     7
176
     0
 79
     5
176
     0
170
     0
176
     0
171
     0
176
     0
290
     0
176
     0
 93
        1
176
     0
 44
0.0
176
     0
173
     0
176
     0
1001
ACAD
1000
AcDbSavedByObjectVersion
1070
     0
  0
VISUALSTYLE
  5
38
102
{ACAD_XDICTIONARY
360
233
102
}
102
{ACAD_REACTORS
330
29
102
}
330
29
100
AcDbVisualStyle
  2
Facepattern
 70
    15
177
     2
291
     1
 71
     2
176
     1
 72
     2
176
     1
 73
     0
176
     1
 90
        0
176
     1
 40
0.6
176
     1
 41
30.0
176
     1
 63
     7
421
 16777215
176
     1
 74
     1
176
     1
 91
        4
176
     1
 64
     7
176
     1
 65
   257
176
     1
 75
     1
176
     1
175
     1
176
     1
 42
1.0
176
     1
 92
        8
176
     1
 66
     7
176
     1
 43
1.0
176
     1
 76
     1
176
     1
 77
     6
176
     1
 78
     2
176
     1
 67
     7
176
     1
 79
     5
176
     1
170
     0
176
     1
171
     0
176
     1
290
     0
176
     1
 93
        1
176
     1
 44
0.0
176
     1
173
     0
176
     1
1001
ACAD
1000
AcDbSavedByObjectVersion
1070
     0
  0
VISUALSTYLE
  5
2A
102
{ACAD_XDICTIONARY
360
217
102
}
102
{ACAD_REACTORS
330
29
102
}
330
29
100
AcDbVisualStyle
  2
Flat
 70
     0
177
     2
291
     1
 71
     2
176
     1
 72
     1
176
     1
 73
     1
176
     1
 90
        2
176
     1
 40
0.6
176
     1
 41
30.0
176
     1
 63
     7
421
 16777215
176
     1
 74
     0
176
     1
 91
        0
176
     1
 64
     7
176
     1
 65
   257
176
     1
 75
     1
176
     1
175
     1
176
     1
 42
1.0
176
     1
 92
        8
176
     1
 66
     7
176
     1
 43
1.0
176
     1
 76
     1
176
     1
 77
     6
176
     1
 78
     2
176
     1
 67
     7
176
     1
 79
     5
176
     1
170
     0
176
     1
171
     0
176
     1
290
     0
176
     1
 93
       13
176
     1
 44
0.0
176
     1
173
     0
176
     1
1001
ACAD
1000
AcDbSavedByObjectVersion
1070
     0
  0
VISUALSTYLE
  5
2B
102
{ACAD_XDICTIONARY
360
219
102
}
102
{ACAD_REACTORS
330
29
102
}
330
29
100
AcDbVisualStyle
  2
FlatWithEdges
 70
     1
177
     2
291
     1
 71
     2
176
     1
 72
     1
176
     1
 73
     1
176
     1
 90
        2
176
     1
 40
0.6
176
     1
 41
30.0
176
     1
 63
     7
421
 16777215
176
     1
 74
     1
176
     1
 91
        0
176
     1
 64
     7
176
     1
 65
   257
176
     1
 75
     1
176
     1
175
     1
176
     1
 42
1.0
176
     1
 92
        0
176
     1
 66
   257
176
     1
 43
1.0
176
     1
 76
     1
176
     1
 77
     6
176
     1
 78
     2
176
     1
 67
     7
176
     1
 79
     5
176
     1
170
     0
176
     1
171
     0
176
     1
290
     0
176
     1
 93
       13
176
     1
 44
0.0
176
     1
173
     0
176
     1
1001
ACAD
1000
AcDbSavedByObjectVersion
1070
     0
  0
VISUALSTYLE
  5
2C
102
{ACAD_XDICTIONARY
360
21B
102
}
102
{ACAD_REACTORS
330
29
102
}
330
29
100
AcDbVisualStyle
  2
Gouraud
 70
     2
177
     2
291
     1
 71
     2
176
     1
 72
     2
176
     1
 73
     1
176
     1
 90
        2
176
     1
 40
0.6
176
     1
 41
30.0
176
     1
 63
     7
421
 16777215
176
     1
 74
     0
176
     1
 91
        0
176
     1
 64
     7
176
     1
 65
   257
176
     1
 75
     1
176
     1
175
     1
176
     1
 42
1.0
176
     1
 92
        0
176
     1
 66
     7
176
     1
 43
1.0
176
     1
 76
     1
176
     1
 77
     6
176
     1
 78
     2
176
     1
 67
     7
176
     1
 79
     5
176
     1
170
     0
176
     1
171
     0
176
     1
290
     0
176
     1
 93
       13
176
     1
 44
0.0
176
     1
173
     0
176
     1
1001
ACAD
1000
AcDbSavedByObjectVersion
1070
     0
  0
VISUALSTYLE
  5
2D
102
{ACAD_XDICTIONARY
360
21D
102
}
102
{ACAD_REACTORS
330
29
102
}
330
29
100
AcDbVisualStyle
  2
GouraudWithEdges
 70
     3
177
     2
291
     1
 71
     2
176
     1
 72
     2
176
     1
 73
     1
176
     1
 90
        2
176
     1
 40
0.6
176
     1
 41
30.0
176
     1
 63
     7
421
 16777215
176
     1
 74
     1
176
     1
 91
        0
176
     1
 64
     7
176
     1
 65
   257
176
     1
 75
     1
176
     1
175
     1
176
     1
 42
1.0
176
     1
 92
        0
176
     1
 66
   257
176
     1
 43
1.0
176
     1
 76
     1
176
     1
 77
     6
176
     1
 78
     2
176
     1
 67
     7
176
     1
 79
     5
176
     1
170
     0
176
     1
171
     0
176
     1
290
     0
176
     1
 93
       13
176
     1
 44
0.0
176
     1
173
     0
176
     1
1001
ACAD
1000
AcDbSavedByObjectVersion
1070
     0
  0
VISUALSTYLE
  5
31
102
{ACAD_XDICTIONARY
360
225
102
}
102
{ACAD_REACTORS
330
29
102
}
330
29
100
AcDbVisualStyle
  2
Hidden
 70
     6
177
     2
291
     0
 71
     1
176
     1
 72
     2
176
     1
 73
     2
176
     1
 90
        0
176
     1
 40
0.6
176
     1
 41
30.0
176
     1
 63
     7
421
 16777215
176
     1
 74
     2
176
     1
 91
        2
176
     1
 64
     7
176
     1
 65
   257
176
     1
 75
     2
176
     1
175
     1
176
     1
 42
40.0
176
     1
 92
        0
176
     1
 66
   257
176
     1
 43
1.0
176
     1
 76
     1
176
     1
 77
     6
176
     1
 78
     2
176
     1
 67
     7
176
     1
 79
     3
176
     1
170
     0
176
     1
171
     0
176
     1
290
     0
176
     1
 93
        1
176
     1
 44
0.0
176
     1
173
     0
176
     1
1001
ACAD
1000
AcDbSavedByObjectVersion
1070
     0
  0
VISUALSTYLE
  5
3F
102
{ACAD_XDICTIONARY
360
241
102
}
102
{ACAD_REACTORS
330
29
102
}
330
29
100
AcDbVisualStyle
  2
JitterOff
 70
    20
177
     2
291
     1
 71
     2
176
     0
 72
     2
176
     0
 73
     0
176
     0
 90
        0
176
     0
 40
0.6
176
     0
 41
30.0
176
     0
 63
     7
421
 16777215
176
     0
 74
     1
176
     0
 91
        4
176
     0
 64
     7
176
     0
 65
   257
176
     0
 75
     1
176
     0
175
     1
176
     0
 42
1.0
176
     0
 92
       10
176
     2
 66
     7
176
     0
 43
1.0
176
     0
 76
     1
176
     0
 77
     6
176
     0
 78
     2
176
     0
 67
     7
176
     0
 79
     5
176
     0
170
     0
176
     0
171
     0
176
     0
290
     0
176
     0
 93
        1
176
     0
 44
0.0
176
     0
173
     0
176
     0
1001
ACAD
1000
AcDbSavedByObjectVersion
1070
     0
  0
VISUALSTYLE
  5
37
102
{ACAD_XDICTIONARY
360
231
102
}
102
{ACAD_REACTORS
330
29
102
}
330
29
100
AcDbVisualStyle
  2
Linepattern
 70
    14
177
     2
291
     1
 71
     2
176
     1
 72
     2
176
     1
 73
     0
176
     1
 90
        0
176
     1
 40
0.6
176
     1
 41
30.0
176
     1
 63
     7
421
 16777215
176
     1
 74
     1
176
     1
 91
        4
176
     1
 64
     7
176
     1
 65
   257
176
     1
 75
     7
176
     1
175
     7
176
     1
 42
1.0
176
     1
 92
        8
176
     1
 66
     7
176
     1
 43
1.0
176
     1
 76
     1
176
     1
 77
     6
176
     1
 78
     2
176
     1
 67
     7
176
     1
 79
     5
176
     1
170
     0
176
     1
171
     0
176
     1
290
     0
176
     1
 93
        1
176
     1
 44
0.0
176
     1
173
     0
176
     1
1001
ACAD
1000
AcDbSavedByObjectVersion
1070
     0
  0
VISUALSTYLE
  5
40
102
{ACAD_XDICTIONARY
360
243
102
}
102
{ACAD_REACTORS
330
29
102
}
330
29
100
AcDbVisualStyle
  2
OverhangOff
 70
    21
177
     2
291
     1
 71
     2
176
     0
 72
     2
176
     0
 73
     0
176
     0
 90
        0
176
     0
 40
0.6
176
     0
 41
30.0
176
     0
 63
     7
421
 16777215
176
     0
 74
     1
176
     0
 91
        4
176
     0
 64
     7
176
     0
 65
   257
176
     0
 75
     1
176
     0
175
     1
176
     0
 42
1.0
176
     0
 92
        9
176
     2
 66
     7
176
     0
 43
1.0
176
     0
 76
     1
176
     0
 77
     6
176
     0
 78
     2
176
     0
 67
     7
176
     0
 79
     5
176
     0
170
     0
176
     0
171
     0
176
     0
290
     0
176
     0
 93
        1
176
     0
 44
0.0
176
     0
173
     0
176
     0
1001
ACAD
1000
AcDbSavedByObjectVersion
1070
     0
  0
VISUALSTYLE
  5
33
102
{ACAD_XDICTIONARY
360
229
102
}
102
{ACAD_REACTORS
330
29
102
}
330
29
100
AcDbVisualStyle
  2
Realistic
 70
     8
177
     2
291
     0
 71
     2
176
     1
 72
     3
176
     1
 73
     0
176
     1
 90
        2
176
     1
 40
0.6
176
     1
 41
30.0
176
     1
 63
     7
421
 16777215
176
     1
 74
     0
176
     1
 91
        0
176
     1
 64
     7
176
     1
 65
   257
176
     1
 75
     1
176
     1
175
     1
176
     1
 42
1.0
176
     1
 92
        8
176
     1
 66
   257
176
     1
 43
1.0
176
     1
 76
     1
176
     1
 77
     6
176
     1
 78
     2
176
     1
 67
     7
176
     1
 79
     3
176
     1
170
     0
176
     1
171
     0
176
     1
290
     0
176
     1
 93
       13
176
     1
 44
0.0
176
     1
173
     0
176
     1
1001
ACAD
1000
AcDbSavedByObjectVersion
1070
     0
  0
VISUALSTYLE
  5
3E
102
{ACAD_XDICTIONARY
360
23F
102
}
102
{ACAD_REACTORS
330
29
102
}
330
29
100
AcDbVisualStyle
  2
Shaded
 70
    27
177
     2
291
     0
 71
     2
176
     1
 72
     2
176
     1
 73
     1
176
     1
 90
        2
176
     1
 40
0.6
176
     1
 41
30.0
176
     1
 63
     7
421
 16777215
176
     1
 74
     0
176
     1
 91
        4
176
     1
 64
     7
176
     1
 65
   257
176
     1
 75
     1
176
     1
175
     1
176
     1
 42
1.0
176
     1
 92
        8
176
     1
 66
   257
176
     1
 43
1.0
176
     1
 76
     1
176
     1
 77
     6
176
     1
 78
     2
176
     1
 67
     8
425
  7895160
176
     1
 79
     3
176
     1
170
     0
176
     1
171
     0
176
     1
290
     0
176
     1
 93
        5
176
     1
 44
0.0
176
     1
173
     0
176
     1
1001
ACAD
1000
AcDbSavedByObjectVersion
1070
     0
  0
VISUALSTYLE
  5
3D
102
{ACAD_XDICTIONARY
360
23D
102
}
102
{ACAD_REACTORS
330
29
102
}
330
29
100
AcDbVisualStyle
  2
Shaded with edges
 70
    26
177
     2
291
     0
 71
     2
176
     1
 72
     2
176
     1
 73
     1
176
     1
 90
        2
176
     1
 40
0.6
176
     1
 41
30.0
176
     1
 63
     7
421
 16777215
176
     1
 74
     1
176
     1
 91
        2
176
     1
 64
     7
176
     1
 65
   257
176
     1
 75
     2
176
     1
175
     1
176
     1
 42
1.0
176
     1
 92
        8
176
     1
 66
   257
176
     1
 43
1.0
176
     1
 76
     1
176
     1
 77
     6
176
     1
 78
     2
176
     1
 67
     7
176
     1
 79
     3
176
     1
170
     0
176
     1
171
     0
176
     1
290
     0
176
     1
 93
        5
176
     1
 44
0.0
176
     1
173
     0
176
     1
1001
ACAD
1000
AcDbSavedByObjectVersion
1070
     0
  0
VISUALSTYLE
  5
3A
102
{ACAD_XDICTIONARY
360
237
102
}
102
{ACAD_REACTORS
330
29
102
}
330
29
100
AcDbVisualStyle
  2
Shades of Gray
 70
    23
177
     2
291
     0
 71
     2
176
     1
 72
     2
176
     1
 73
     3
176
     1
 90
        0
176
     1
 40
0.6
176
     1
 41
30.0
176
     1
 63
     7
421
 16777215
176
     1
 74
     2
176
     1
 91
        2
176
     1
 64
     7
176
     1
 65
     7
176
     1
 75
     1
176
     1
175
     1
176
     1
 42
40.0
176
     1
 92
        8
176
     1
 66
     7
176
     1
 43
1.0
176
     1
 76
     1
176
     1
 77
     6
176
     1
 78
     2
176
     1
 67
     7
176
     1
 79
     3
176
     1
170
     0
176
     1
171
     0
176
     1
290
     0
176
     1
 93
        1
176
     1
 44
0.0
176
     1
173
     0
176
     1
1001
ACAD
1000
AcDbSavedByObjectVersion
1070
     0
  0
VISUALSTYLE
  5
3B
102
{ACAD_XDICTIONARY
360
239
102
}
102
{ACAD_REACTORS
330
29
102
}
330
29
100
AcDbVisualStyle
  2
Sketchy
 70
    24
177
     2
291
     0
 71
     1
176
     1
 72
     2
176
     1
 73
     2
176
     1
 90
        0
176
     1
 40
0.6
176
     1
 41
30.0
176
     1
 63
     7
421
 16777215
176
     1
 74
     2
176
     1
 91
        2
176
     1
 64
     7
176
     1
 65
     7
176
     1
 75
     1
176
     1
175
     1
176
     1
 42
40.0
176
     1
 92
       11
176
     1
 66
     7
176
     1
 43
1.0
176
     1
 76
     1
176
     1
 77
     6
176
     1
 78
     2
176
     1
 67
     7
176
     1
 79
     6
176
     1
170
     0
176
     1
171
     0
176
     1
290
     0
176
     1
 93
        1
176
     1
 44
0.0
176
     1
173
     0
176
     1
1001
ACAD
1000
AcDbSavedByObjectVersion
1070
     0
  0
VISUALSTYLE
  5
36
102
{ACAD_XDICTIONARY
360
22F
102
}
102
{ACAD_REACTORS
330
29
102
}
330
29
100
AcDbVisualStyle
  2
Thicken
 70
    13
177
     2
291
     1
 71
     2
176
     1
 72
     2
176
     1
 73
     0
176
     1
 90
        0
176
     1
 40
0.6
176
     1
 41
30.0
176
     1
 63
     7
421
 16777215
176
     1
 74
     1
176
     1
 91
        4
176
     1
 64
     7
176
     1
 65
   257
176
     1
 75
     1
176
     1
175
     1
176
     1
 42
1.0
176
     1
 92
       12
176
     1
 66
     7
176
     1
 43
1.0
176
     1
 76
     1
176
     1
 77
     6
176
     1
 78
     2
176
     1
 67
     7
176
     1
 79
     5
176
     1
170
     0
176
     1
171
     0
176
     1
290
     0
176
     1
 93
        1
176
     1
 44
0.0
176
     1
173
     0
176
     1
1001
ACAD
1000
AcDbSavedByObjectVersion
1070
     0
  0
VISUALSTYLE
  5
30
102
{ACAD_XDICTIONARY
360
223
102
}
102
{ACAD_REACTORS
330
29
102
}
330
29
100
AcDbVisualStyle
  2
Wireframe
 70
     5
177
     2
291
     0
 71
     0
176
     1
 72
     2
176
     1
 73
     0
176
     1
 90
        0
176
     1
 40
0.6
176
     1
 41
30.0
176
     1
 63
     7
421
 16777215
176
     1
 74
     1
176
     1
 91
        4
176
     1
 64
     7
176
     1
 65
   257
176
     1
 75
     1
176
     1
175
     1
176
     1
 42
1.0
176
     1
 92
        0
176
     1
 66
   257
176
     1
 43
1.0
176
     1
 76
     1
176
     1
 77
     6
176
     1
 78
     2
176
     1
 67
     7
176
     1
 79
     3
176
     1
170
     0
176
     1
171
     0
176
     1
290
     0
176
     1
 93
        1
176
     1
 44
0.0
176
     1
173
     0
176
     1
1001
ACAD
1000
AcDbSavedByObjectVersion
1070
     0
  0
VISUALSTYLE
  5
3C
102
{ACAD_XDICTIONARY
360
23B
102
}
102
{ACAD_REACTORS
330
29
102
}
330
29
100
AcDbVisualStyle
  2
X-Ray
 70
    25
177
     2
291
     0
 71
     2
176
     1
 72
     2
176
     1
 73
     1
176
     1
 90
        1
176
     1
 40
0.5
176
     1
 41
30.0
176
     1
 63
     7
421
 16777215
176
     1
 74
     1
176
     1
 91
        0
176
     1
 64
     7
176
     1
 65
   257
176
     1
 75
     1
176
     1
175
     1
176
     1
 42
1.0
176
     1
 92
        8
176
     1
 66
     7
176
     1
 43
1.0
176
     1
 76
     1
176
     1
 77
     6
176
     1
 78
     2
176
     1
 67
     7
176
     1
 79
     3
176
     1
170
     0
176
     1
171
     0
176
     1
290
     0
176
     1
 93
       13
176
     1
 44
0.0
176
     1
173
     0
176
     1
1001
ACAD
1000
AcDbSavedByObjectVersion
1070
     0
  0
DICTIONARYVAR
  5
212
102
{ACAD_REACTORS
330
20D
102
}
330
20D
100
DictionaryVariables
280
     0
  1
1:1
  0
DICTIONARYVAR
  5
20F
102
{ACAD_REACTORS
330
20D
102
}
330
20D
100
DictionaryVariables
280
     0
  1
STANDARD
  0
DICTIONARYVAR
  5
20E
102
{ACAD_REACTORS
330
20D
102
}
330
20D
100
DictionaryVariables
280
     0
  1
STANDARD
  0
DICTIONARYVAR
  5
210
102
{ACAD_REACTORS
330
20D
102
}
330
20D
100
DictionaryVariables
280
     0
  1
Imperial24
  0
DICTIONARYVAR
  5
211
102
{ACAD_REACTORS
330
20D
102
}
330
20D
100
DictionaryVariables
280
     0
  1
Imperial24
  0
DICTIONARY
  5
24B
330
6B
100
AcDbDictionary
280
     1
281
     1
  3
ACAD_XREC_ROUNDTRIP
360
24C
  0
DICTIONARY
  5
1A
330
19
100
AcDbDictionary
280
     1
281
     1
  3
BUMPTILE
360
1C
  3
DIFFUSETILE
360
1B
  3
OPACITYTILE
360
1F
  3
REFLECTIONTILE
360
1E
  3
REFRACTIONTILE
360
20
  3
SPECULARTILE
360
1D
  0
DICTIONARY
  5
12
330
11
100
AcDbDictionary
280
     1
281
     1
  3
BUMPTILE
360
14
  3
DIFFUSETILE
360
13
  3
OPACITYTILE
360
17
  3
REFLECTIONTILE
360
16
  3
REFRACTIONTILE
360
18
  3
SPECULARTILE
360
15
  0
DICTIONARY
  5
22
330
21
100
AcDbDictionary
280
     1
281
     1
  3
BUMPTILE
360
24
  3
DIFFUSETILE
360
23
  3
OPACITYTILE
360
27
  3
REFLECTIONTILE
360
26
  3
REFRACTIONTILE
360
28
  3
SPECULARTILE
360
25
  0
DICTIONARY
  5
247
330
67
100
AcDbDictionary
280
     1
281
     1
  3
ACAD_XREC_ROUNDTRIP
360
248
  0
DICTIONARY
  5
249
330
69
100
AcDbDictionary
280
     1
281
     1
  3
ACAD_XREC_ROUNDTRIP
360
24A
  0
DICTIONARY
  5
213
330
65
100
AcDbDictionary
280
     1
281
     1
  3
ACAD_ROUNDTRIP_2008_TABLESTYLE_CELLSTYLEMAP
360
214
  0
DICTIONARY
  5
221
330
2F
100
AcDbDictionary
280
     1
281
     1
  3
ACAD_XREC_ROUNDTRIP
360
222
  0
DICTIONARY
  5
21F
330
2E
100
AcDbDictionary
280
     1
281
     1
  3
ACAD_XREC_ROUNDTRIP
360
220
  0
DICTIONARY
  5
22D
330
35
100
AcDbDictionary
280
     1
281
     1
  3
ACAD_XREC_ROUNDTRIP
360
22E
  0
DICTIONARY
  5
235
330
39
100
AcDbDictionary
280
     1
281
     1
  3
ACAD_XREC_ROUNDTRIP
360
236
  0
DICTIONARY
  5
227
330
32
100
AcDbDictionary
280
     1
281
     1
  3
ACAD_XREC_ROUNDTRIP
360
228
  0
DICTIONARY
  5
22B
330
34
100
AcDbDictionary
280
     1
281
     1
  3
ACAD_XREC_ROUNDTRIP
360
22C
  0
DICTIONARY
  5
245
330
41
100
AcDbDictionary
280
     1
281
     1
  3
ACAD_XREC_ROUNDTRIP
360
246
  0
DICTIONARY
  5
233
330
38
100
AcDbDictionary
280
     1
281
     1
  3
ACAD_XREC_ROUNDTRIP
360
234
  0
DICTIONARY
  5
217
330
2A
100
AcDbDictionary
280
     1
281
     1
  3
ACAD_XREC_ROUNDTRIP
360
218
  0
DICTIONARY
  5
219
330
2B
100
AcDbDictionary
280
     1
281
     1
  3
ACAD_XREC_ROUNDTRIP
360
21A
  0
DICTIONARY
  5
21B
330
2C
100
AcDbDictionary
280
     1
281
     1
  3
ACAD_XREC_ROUNDTRIP
360
21C
  0
DICTIONARY
  5
21D
330
2D
100
AcDbDictionary
280
     1
281
     1
  3
ACAD_XREC_ROUNDTRIP
360
21E
  0
DICTIONARY
  5
225
330
31
100
AcDbDictionary
280
     1
281
     1
  3
ACAD_XREC_ROUNDTRIP
360
226
  0
DICTIONARY
  5
241
330
3F
100
AcDbDictionary
280
     1
281
     1
  3
ACAD_XREC_ROUNDTRIP
360
242
  0
DICTIONARY
  5
231
330
37
100
AcDbDictionary
280
     1
281
     1
  3
ACAD_XREC_ROUNDTRIP
360
232
  0
DICTIONARY
  5
243
330
40
100
AcDbDictionary
280
     1
281
     1
  3
ACAD_XREC_ROUNDTRIP
360
244
  0
DICTIONARY
  5
229
330
33
100
AcDbDictionary
280
     1
281
     1
  3
ACAD_XREC_ROUNDTRIP
360
22A
  0
DICTIONARY
  5
23F
330
3E
100
AcDbDictionary
280
     1
281
     1
  3
ACAD_XREC_ROUNDTRIP
360
240
  0
DICTIONARY
  5
23D
330
3D
100
AcDbDictionary
280
     1
281
     1
  3
ACAD_XREC_ROUNDTRIP
360
23E
  0
DICTIONARY
  5
237
330
3A
100
AcDbDictionary
280
     1
281
     1
  3
ACAD_XREC_ROUNDTRIP
360
238
  0
DICTIONARY
  5
239
330
3B
100
AcDbDictionary
280
     1
281
     1
  3
ACAD_XREC_ROUNDTRIP
360
23A
  0
DICTIONARY
  5
22F
330
36
100
AcDbDictionary
280
     1
281
     1
  3
ACAD_XREC_ROUNDTRIP
360
230
  0
DICTIONARY
  5
223
330
30
100
AcDbDictionary
280
     1
281
     1
  3
ACAD_XREC_ROUNDTRIP
360
224
  0
DICTIONARY
  5
23B
330
3C
100
AcDbDictionary
280
     1
281
     1
  3
ACAD_XREC_ROUNDTRIP
360
23C
  0
XRECORD
  5
24C
102
{ACAD_REACTORS
330
24B
102
}
330
24B
100
AcDbXrecord
280
     1
102
DISPLAYNAME
  1
Imperial24
102
FLAGS
 90
        0
  0
XRECORD
  5
1C
102
{ACAD_REACTORS
330
1A
102
}
330
1A
100
AcDbXrecord
280
     1
270
     1
271
     1
  0
XRECORD
  5
1B
102
{ACAD_REACTORS
330
1A
102
}
330
1A
100
AcDbXrecord
280
     1
270
     1
271
     1
  0
XRECORD
  5
1F
102
{ACAD_REACTORS
330
1A
102
}
330
1A
100
AcDbXrecord
280
     1
270
     1
271
     1
  0
XRECORD
  5
1E
102
{ACAD_REACTORS
330
1A
102
}
330
1A
100
AcDbXrecord
280
     1
270
     1
271
     1
  0
XRECORD
  5
20
102
{ACAD_REACTORS
330
1A
102
}
330
1A
100
AcDbXrecord
280
     1
270
     1
271
     1
  0
XRECORD
  5
1D
102
{ACAD_REACTORS
330
1A
102
}
330
1A
100
AcDbXrecord
280
     1
270
     1
271
     1
  0
XRECORD
  5
14
102
{ACAD_REACTORS
330
12
102
}
330
12
100
AcDbXrecord
280
     1
270
     1
271
     1
  0
XRECORD
  5
13
102
{ACAD_REACTORS
330
12
102
}
330
12
100
AcDbXrecord
280
     1
270
     1
271
     1
  0
XRECORD
  5
17
102
{ACAD_REACTORS
330
12
102
}
330
12
100
AcDbXrecord
280
     1
270
     1
271
     1
  0
XRECORD
  5
16
102
{ACAD_REACTORS
330
12
102
}
330
12
100
AcDbXrecord
280
     1
270
     1
271
     1
  0
XRECORD
  5
18
102
{ACAD_REACTORS
330
12
102
}
330
12
100
AcDbXrecord
280
     1
270
     1
271
     1
  0
XRECORD
  5
15
102
{ACAD_REACTORS
330
12
102
}
330
12
100
AcDbXrecord
280
     1
270
     1
271
     1
  0
XRECORD
  5
24
102
{ACAD_REACTORS
330
22
102
}
330
22
100
AcDbXrecord
280
     1
270
     1
271
     1
  0
XRECORD
  5
23
102
{ACAD_REACTORS
330
22
102
}
330
22
100
AcDbXrecord
280
     1
270
     1
271
     1
  0
XRECORD
  5
27
102
{ACAD_REACTORS
330
22
102
}
330
22
100
AcDbXrecord
280
     1
270
     1
271
     1
  0
XRECORD
  5
26
102
{ACAD_REACTORS
330
22
102
}
330
22
100
AcDbXrecord
280
     1
270
     1
271
     1
  0
XRECORD
  5
28
102
{ACAD_REACTORS
330
22
102
}
330
22
100
AcDbXrecord
280
     1
270
     1
271
     1
  0
XRECORD
  5
25
102
{ACAD_REACTORS
330
22
102
}
330
22
100
AcDbXrecord
280
     1
270
     1
271
     1
  0
XRECORD
  5
248
102
{ACAD_REACTORS
330
247
102
}
330
247
100
AcDbXrecord
280
     1
102
ACAD_ROUNDTRIP_2012_MLEADER_STYLE
298
     1
  0
XRECORD
  5
24A
102
{ACAD_REACTORS
330
249
102
}
330
249
100
AcDbXrecord
280
     1
102
DISPLAYNAME
  1
Imperial24
102
FLAGS
 90
        0
  0
CELLSTYLEMAP
  5
214
102
{ACAD_REACTORS
330
213
102
}
330
213
100
AcDbCellStyleMap
 90
        3
300
CELLSTYLE
  1
TABLEFORMAT_BEGIN
 90
        5
170
     1
 91
        0
 92
    32768
 62
   257
 93
        1
300
CONTENTFORMAT
  1
CONTENTFORMAT_BEGIN
 90
        0
 91
        0
 92
      512
 93
        0
300

 40
0.0
140
1.0
 94
        5
 62
     0
340
55
144
0.25
309
CONTENTFORMAT_END
171
     0
 94
        0
309
TABLEFORMAT_END
  1
CELLSTYLE_BEGIN
 90
        1
 91
        1
300
_TITLE
309
CELLSTYLE_END
300
CELLSTYLE
  1
TABLEFORMAT_BEGIN
 90
        5
170
     1
 91
        0
 92
        0
 62
   257
 93
        1
300
CONTENTFORMAT
  1
CONTENTFORMAT_BEGIN
 90
        0
 91
        0
 92
      512
 93
        0
300

 40
0.0
140
1.0
 94
        5
 62
     0
340
55
144
0.18
309
CONTENTFORMAT_END
171
     0
 94
        0
309
TABLEFORMAT_END
  1
CELLSTYLE_BEGIN
 90
        2
 91
        1
300
_HEADER
309
CELLSTYLE_END
300
CELLSTYLE
  1
TABLEFORMAT_BEGIN
 90
        5
170
     1
 91
        0
 92
        0
 62
   257
 93
        1
300
CONTENTFORMAT
  1
CONTENTFORMAT_BEGIN
 90
        0
 91
        0
 92
      512
 93
        0
300

 40
0.0
140
1.0
 94
        2
 62
     0
340
55
144
0.18
309
CONTENTFORMAT_END
171
     0
 94
        0
309
TABLEFORMAT_END
  1
CELLSTYLE_BEGIN
 90
        3
 91
        2
300
_DATA
309
CELLSTYLE_END
  0
XRECORD
  5
222
102
{ACAD_REACTORS
330
221
102
}
330
221
100
AcDbXrecord
280
     1
102
RTVSPost2010Prop28
280
     1
102
RTVSPost2010PropOp28
 70
     1
102
RTVSPost2010Prop29
280
     1
102
RTVSPost2010PropOp29
 70
     1
102
RTVSPost2010Prop30
280
     0
102
RTVSPost2010PropOp30
 70
     1
102
RTVSPost2010Prop31
280
     0
102
RTVSPost2010PropOp31
 70
     1
102
RTVSPost2010Prop32
280
     0
102
RTVSPost2010PropOp32
 70
     1
102
RTVSPost2010Prop33
280
     0
102
RTVSPost2010PropOp33
 70
     1
102
RTVSPost2010Prop34
280
     0
102
RTVSPost2010PropOp34
 70
     1
102
RTVSPost2010Prop35
280
     0
102
RTVSPost2010PropOp35
 70
     1
102
RTVSPost2010Prop36
280
     0
102
RTVSPost2010PropOp36
 70
     1
102
RTVSPost2010Prop37
 90
       50
102
RTVSPost2010PropOp37
 70
     1
102
RTVSPost2010Prop38
140
0.0
102
RTVSPost2010PropOp38
 70
     1
102
RTVSPost2010Prop39
140
1.0
102
RTVSPost2010PropOp39
 70
     1
102
RTVSPost2010Prop40
 90
        0
102
RTVSPost2010PropOp40
 70
     1
102
RTVSPost2010Prop41ColorIndex
 90
       18
102
RTVSPost2010Prop41ColorRGB
 90
        0
102
RTVSPost2010PropOp41
 70
     1
102
RTVSPost2010Prop42
 90
       50
102
RTVSPost2010PropOp42
 70
     1
102
RTVSPost2010Prop43
 90
        3
102
RTVSPost2010PropOp43
 70
     1
102
RTVSPost2010Prop44ColorIndex
 90
        5
102
RTVSPost2010Prop44ColorRGB
 90
      255
102
RTVSPost2010PropOp44
 70
     1
102
RTVSPost2010Prop45
280
     0
102
RTVSPost2010PropOp45
 70
     1
102
RTVSPost2010Prop46
 90
       50
102
RTVSPost2010PropOp46
 70
     1
102
RTVSPost2010Prop47
 90
       50
102
RTVSPost2010PropOp47
 70
     1
102
RTVSPost2010Prop48
 90
       50
102
RTVSPost2010PropOp48
 70
     1
102
RTVSPost2010Prop49
280
     0
102
RTVSPost2010PropOp49
 70
     1
102
RTVSPost2010Prop50
 90
       50
102
RTVSPost2010PropOp50
 70
     1
102
RTVSPost2010Prop51ColorIndex
 90
      256
102
RTVSPost2010Prop51ColorRGB
 90
-16777216
102
RTVSPost2010PropOp51
 70
     0
102
RTVSPost2010Prop52
140
1.0
102
RTVSPost2010PropOp52
 70
     0
102
RTVSPost2010Prop53
 90
        2
102
RTVSPost2010PropOp53
 70
     1
102
RTVSPost2010Prop54
  1
strokes_ogs.tif
102
RTVSPost2010PropOp54
 70
     1
102
RTVSPost2010Prop55
280
     0
102
RTVSPost2010PropOp55
 70
     1
102
RTVSPost2010Prop56
140
1.0
102
RTVSPost2010PropOp56
 70
     1
102
RTVSPost2010Prop57
140
1.0
102
RTVSPost2010PropOp57
 70
     1
  0
XRECORD
  5
220
102
{ACAD_REACTORS
330
21F
102
}
330
21F
100
AcDbXrecord
280
     1
102
RTVSPost2010Prop28
280
     0
102
RTVSPost2010PropOp28
 70
     1
102
RTVSPost2010Prop29
280
     1
102
RTVSPost2010PropOp29
 70
     1
102
RTVSPost2010Prop30
280
     1
102
RTVSPost2010PropOp30
 70
     1
102
RTVSPost2010Prop31
280
     0
102
RTVSPost2010PropOp31
 70
     1
102
RTVSPost2010Prop32
280
     0
102
RTVSPost2010PropOp32
 70
     1
102
RTVSPost2010Prop33
280
     0
102
RTVSPost2010PropOp33
 70
     1
102
RTVSPost2010Prop34
280
     0
102
RTVSPost2010PropOp34
 70
     1
102
RTVSPost2010Prop35
280
     0
102
RTVSPost2010PropOp35
 70
     1
102
RTVSPost2010Prop36
280
     0
102
RTVSPost2010PropOp36
 70
     1
102
RTVSPost2010Prop37
 90
       50
102
RTVSPost2010PropOp37
 70
     1
102
RTVSPost2010Prop38
140
0.0
102
RTVSPost2010PropOp38
 70
     1
102
RTVSPost2010Prop39
140
1.0
102
RTVSPost2010PropOp39
 70
     1
102
RTVSPost2010Prop40
 90
        0
102
RTVSPost2010PropOp40
 70
     1
102
RTVSPost2010Prop41ColorIndex
 90
       18
102
RTVSPost2010Prop41ColorRGB
 90
        0
102
RTVSPost2010PropOp41
 70
     1
102
RTVSPost2010Prop42
 90
       50
102
RTVSPost2010PropOp42
 70
     1
102
RTVSPost2010Prop43
 90
        3
102
RTVSPost2010PropOp43
 70
     1
102
RTVSPost2010Prop44ColorIndex
 90
        5
102
RTVSPost2010Prop44ColorRGB
 90
      255
102
RTVSPost2010PropOp44
 70
     1
102
RTVSPost2010Prop45
280
     0
102
RTVSPost2010PropOp45
 70
     1
102
RTVSPost2010Prop46
 90
       50
102
RTVSPost2010PropOp46
 70
     1
102
RTVSPost2010Prop47
 90
       50
102
RTVSPost2010PropOp47
 70
     1
102
RTVSPost2010Prop48
 90
       50
102
RTVSPost2010PropOp48
 70
     1
102
RTVSPost2010Prop49
280
     0
102
RTVSPost2010PropOp49
 70
     1
102
RTVSPost2010Prop50
 90
       50
102
RTVSPost2010PropOp50
 70
     1
102
RTVSPost2010Prop51ColorIndex
 90
      256
102
RTVSPost2010Prop51ColorRGB
 90
-16777216
102
RTVSPost2010PropOp51
 70
     0
102
RTVSPost2010Prop52
140
1.0
102
RTVSPost2010PropOp52
 70
     0
102
RTVSPost2010Prop53
 90
        2
102
RTVSPost2010PropOp53
 70
     1
102
RTVSPost2010Prop54
  1
strokes_ogs.tif
102
RTVSPost2010PropOp54
 70
     1
102
RTVSPost2010Prop55
280
     0
102
RTVSPost2010PropOp55
 70
     1
102
RTVSPost2010Prop56
140
1.0
102
RTVSPost2010PropOp56
 70
     1
102
RTVSPost2010Prop57
140
1.0
102
RTVSPost2010PropOp57
 70
     1
  0
XRECORD
  5
22E
102
{ACAD_REACTORS
330
22D
102
}
330
22D
100
AcDbXrecord
280
     1
102
RTVSPost2010Prop28
280
     0
102
RTVSPost2010PropOp28
 70
     1
102
RTVSPost2010Prop29
280
     1
102
RTVSPost2010PropOp29
 70
     1
102
RTVSPost2010Prop30
280
     1
102
RTVSPost2010PropOp30
 70
     1
102
RTVSPost2010Prop31
280
     0
102
RTVSPost2010PropOp31
 70
     1
102
RTVSPost2010Prop32
280
     0
102
RTVSPost2010PropOp32
 70
     1
102
RTVSPost2010Prop33
280
     0
102
RTVSPost2010PropOp33
 70
     1
102
RTVSPost2010Prop34
280
     0
102
RTVSPost2010PropOp34
 70
     1
102
RTVSPost2010Prop35
280
     0
102
RTVSPost2010PropOp35
 70
     1
102
RTVSPost2010Prop36
280
     0
102
RTVSPost2010PropOp36
 70
     1
102
RTVSPost2010Prop37
 90
       50
102
RTVSPost2010PropOp37
 70
     1
102
RTVSPost2010Prop38
140
0.0
102
RTVSPost2010PropOp38
 70
     1
102
RTVSPost2010Prop39
140
1.0
102
RTVSPost2010PropOp39
 70
     1
102
RTVSPost2010Prop40
 90
        0
102
RTVSPost2010PropOp40
 70
     1
102
RTVSPost2010Prop41ColorIndex
 90
       18
102
RTVSPost2010Prop41ColorRGB
 90
        0
102
RTVSPost2010PropOp41
 70
     1
102
RTVSPost2010Prop42
 90
       50
102
RTVSPost2010PropOp42
 70
     1
102
RTVSPost2010Prop43
 90
        3
102
RTVSPost2010PropOp43
 70
     1
102
RTVSPost2010Prop44ColorIndex
 90
        5
102
RTVSPost2010Prop44ColorRGB
 90
      255
102
RTVSPost2010PropOp44
 70
     1
102
RTVSPost2010Prop45
280
     0
102
RTVSPost2010PropOp45
 70
     1
102
RTVSPost2010Prop46
 90
       50
102
RTVSPost2010PropOp46
 70
     1
102
RTVSPost2010Prop47
 90
       50
102
RTVSPost2010PropOp47
 70
     1
102
RTVSPost2010Prop48
 90
       50
102
RTVSPost2010PropOp48
 70
     1
102
RTVSPost2010Prop49
280
     0
102
RTVSPost2010PropOp49
 70
     1
102
RTVSPost2010Prop50
 90
       50
102
RTVSPost2010PropOp50
 70
     1
102
RTVSPost2010Prop51ColorIndex
 90
      256
102
RTVSPost2010Prop51ColorRGB
 90
-16777216
102
RTVSPost2010PropOp51
 70
     0
102
RTVSPost2010Prop52
140
1.0
102
RTVSPost2010PropOp52
 70
     0
102
RTVSPost2010Prop53
 90
        2
102
RTVSPost2010PropOp53
 70
     1
102
RTVSPost2010Prop54
  1
strokes_ogs.tif
102
RTVSPost2010PropOp54
 70
     1
102
RTVSPost2010Prop55
280
     0
102
RTVSPost2010PropOp55
 70
     1
102
RTVSPost2010Prop56
140
1.0
102
RTVSPost2010PropOp56
 70
     1
102
RTVSPost2010Prop57
140
1.0
102
RTVSPost2010PropOp57
 70
     1
  0
XRECORD
  5
236
102
{ACAD_REACTORS
330
235
102
}
330
235
100
AcDbXrecord
280
     1
102
RTVSPost2010Prop28
280
     0
102
RTVSPost2010PropOp28
 70
     1
102
RTVSPost2010Prop29
280
     1
102
RTVSPost2010PropOp29
 70
     1
102
RTVSPost2010Prop30
280
     1
102
RTVSPost2010PropOp30
 70
     1
102
RTVSPost2010Prop31
280
     0
102
RTVSPost2010PropOp31
 70
     1
102
RTVSPost2010Prop32
280
     0
102
RTVSPost2010PropOp32
 70
     1
102
RTVSPost2010Prop33
280
     0
102
RTVSPost2010PropOp33
 70
     1
102
RTVSPost2010Prop34
280
     0
102
RTVSPost2010PropOp34
 70
     1
102
RTVSPost2010Prop35
280
     0
102
RTVSPost2010PropOp35
 70
     1
102
RTVSPost2010Prop36
280
     0
102
RTVSPost2010PropOp36
 70
     1
102
RTVSPost2010Prop37
 90
       50
102
RTVSPost2010PropOp37
 70
     1
102
RTVSPost2010Prop38
140
0.0
102
RTVSPost2010PropOp38
 70
     1
102
RTVSPost2010Prop39
140
1.0
102
RTVSPost2010PropOp39
 70
     1
102
RTVSPost2010Prop40
 90
        0
102
RTVSPost2010PropOp40
 70
     1
102
RTVSPost2010Prop41ColorIndex
 90
       18
102
RTVSPost2010Prop41ColorRGB
 90
        0
102
RTVSPost2010PropOp41
 70
     1
102
RTVSPost2010Prop42
 90
       50
102
RTVSPost2010PropOp42
 70
     1
102
RTVSPost2010Prop43
 90
        3
102
RTVSPost2010PropOp43
 70
     1
102
RTVSPost2010Prop44ColorIndex
 90
        5
102
RTVSPost2010Prop44ColorRGB
 90
      255
102
RTVSPost2010PropOp44
 70
     1
102
RTVSPost2010Prop45
280
     0
102
RTVSPost2010PropOp45
 70
     1
102
RTVSPost2010Prop46
 90
       50
102
RTVSPost2010PropOp46
 70
     1
102
RTVSPost2010Prop47
 90
       50
102
RTVSPost2010PropOp47
 70
     1
102
RTVSPost2010Prop48
 90
       50
102
RTVSPost2010PropOp48
 70
     1
102
RTVSPost2010Prop49
280
     0
102
RTVSPost2010PropOp49
 70
     1
102
RTVSPost2010Prop50
 90
       50
102
RTVSPost2010PropOp50
 70
     1
102
RTVSPost2010Prop51ColorIndex
 90
      256
102
RTVSPost2010Prop51ColorRGB
 90
-16777216
102
RTVSPost2010PropOp51
 70
     0
102
RTVSPost2010Prop52
140
1.0
102
RTVSPost2010PropOp52
 70
     0
102
RTVSPost2010Prop53
 90
        2
102
RTVSPost2010PropOp53
 70
     1
102
RTVSPost2010Prop54
  1
strokes_ogs.tif
102
RTVSPost2010PropOp54
 70
     1
102
RTVSPost2010Prop55
280
     0
102
RTVSPost2010PropOp55
 70
     1
102
RTVSPost2010Prop56
140
1.0
102
RTVSPost2010PropOp56
 70
     1
102
RTVSPost2010Prop57
140
1.0
102
RTVSPost2010PropOp57
 70
     1
  0
XRECORD
  5
228
102
{ACAD_REACTORS
330
227
102
}
330
227
100
AcDbXrecord
280
     1
102
RTVSPost2010Prop28
280
     0
102
RTVSPost2010PropOp28
 70
     1
102
RTVSPost2010Prop29
280
     1
102
RTVSPost2010PropOp29
 70
     1
102
RTVSPost2010Prop30
280
     1
102
RTVSPost2010PropOp30
 70
     1
102
RTVSPost2010Prop31
280
     0
102
RTVSPost2010PropOp31
 70
     1
102
RTVSPost2010Prop32
280
     0
102
RTVSPost2010PropOp32
 70
     1
102
RTVSPost2010Prop33
280
     0
102
RTVSPost2010PropOp33
 70
     1
102
RTVSPost2010Prop34
280
     0
102
RTVSPost2010PropOp34
 70
     1
102
RTVSPost2010Prop35
280
     0
102
RTVSPost2010PropOp35
 70
     1
102
RTVSPost2010Prop36
280
     0
102
RTVSPost2010PropOp36
 70
     1
102
RTVSPost2010Prop37
 90
       50
102
RTVSPost2010PropOp37
 70
     1
102
RTVSPost2010Prop38
140
0.0
102
RTVSPost2010PropOp38
 70
     1
102
RTVSPost2010Prop39
140
1.0
102
RTVSPost2010PropOp39
 70
     1
102
RTVSPost2010Prop40
 90
        0
102
RTVSPost2010PropOp40
 70
     1
102
RTVSPost2010Prop41ColorIndex
 90
       18
102
RTVSPost2010Prop41ColorRGB
 90
        0
102
RTVSPost2010PropOp41
 70
     1
102
RTVSPost2010Prop42
 90
       50
102
RTVSPost2010PropOp42
 70
     1
102
RTVSPost2010Prop43
 90
        3
102
RTVSPost2010PropOp43
 70
     1
102
RTVSPost2010Prop44ColorIndex
 90
        5
102
RTVSPost2010Prop44ColorRGB
 90
      255
102
RTVSPost2010PropOp44
 70
     1
102
RTVSPost2010Prop45
280
     0
102
RTVSPost2010PropOp45
 70
     1
102
RTVSPost2010Prop46
 90
       50
102
RTVSPost2010PropOp46
 70
     1
102
RTVSPost2010Prop47
 90
       50
102
RTVSPost2010PropOp47
 70
     1
102
RTVSPost2010Prop48
 90
       50
102
RTVSPost2010PropOp48
 70
     1
102
RTVSPost2010Prop49
280
     0
102
RTVSPost2010PropOp49
 70
     1
102
RTVSPost2010Prop50
 90
       50
102
RTVSPost2010PropOp50
 70
     1
102
RTVSPost2010Prop51ColorIndex
 90
      256
102
RTVSPost2010Prop51ColorRGB
 90
-16777216
102
RTVSPost2010PropOp51
 70
     0
102
RTVSPost2010Prop52
140
1.0
102
RTVSPost2010PropOp52
 70
     0
102
RTVSPost2010Prop53
 90
        2
102
RTVSPost2010PropOp53
 70
     1
102
RTVSPost2010Prop54
  1
strokes_ogs.tif
102
RTVSPost2010PropOp54
 70
     1
102
RTVSPost2010Prop55
280
     0
102
RTVSPost2010PropOp55
 70
     1
102
RTVSPost2010Prop56
140
1.0
102
RTVSPost2010PropOp56
 70
     1
102
RTVSPost2010Prop57
140
1.0
102
RTVSPost2010PropOp57
 70
     1
  0
XRECORD
  5
22C
102
{ACAD_REACTORS
330
22B
102
}
330
22B
100
AcDbXrecord
280
     1
102
RTVSPost2010Prop28
280
     0
102
RTVSPost2010PropOp28
 70
     1
102
RTVSPost2010Prop29
280
     1
102
RTVSPost2010PropOp29
 70
     1
102
RTVSPost2010Prop30
280
     1
102
RTVSPost2010PropOp30
 70
     1
102
RTVSPost2010Prop31
280
     0
102
RTVSPost2010PropOp31
 70
     1
102
RTVSPost2010Prop32
280
     0
102
RTVSPost2010PropOp32
 70
     1
102
RTVSPost2010Prop33
280
     0
102
RTVSPost2010PropOp33
 70
     1
102
RTVSPost2010Prop34
280
     0
102
RTVSPost2010PropOp34
 70
     1
102
RTVSPost2010Prop35
280
     0
102
RTVSPost2010PropOp35
 70
     1
102
RTVSPost2010Prop36
280
     0
102
RTVSPost2010PropOp36
 70
     1
102
RTVSPost2010Prop37
 90
       50
102
RTVSPost2010PropOp37
 70
     1
102
RTVSPost2010Prop38
140
0.0
102
RTVSPost2010PropOp38
 70
     1
102
RTVSPost2010Prop39
140
1.0
102
RTVSPost2010PropOp39
 70
     1
102
RTVSPost2010Prop40
 90
        0
102
RTVSPost2010PropOp40
 70
     1
102
RTVSPost2010Prop41ColorIndex
 90
       18
102
RTVSPost2010Prop41ColorRGB
 90
        0
102
RTVSPost2010PropOp41
 70
     1
102
RTVSPost2010Prop42
 90
       50
102
RTVSPost2010PropOp42
 70
     1
102
RTVSPost2010Prop43
 90
        3
102
RTVSPost2010PropOp43
 70
     1
102
RTVSPost2010Prop44ColorIndex
 90
        5
102
RTVSPost2010Prop44ColorRGB
 90
      255
102
RTVSPost2010PropOp44
 70
     1
102
RTVSPost2010Prop45
280
     0
102
RTVSPost2010PropOp45
 70
     1
102
RTVSPost2010Prop46
 90
       50
102
RTVSPost2010PropOp46
 70
     1
102
RTVSPost2010Prop47
 90
       50
102
RTVSPost2010PropOp47
 70
     1
102
RTVSPost2010Prop48
 90
       50
102
RTVSPost2010PropOp48
 70
     1
102
RTVSPost2010Prop49
280
     0
102
RTVSPost2010PropOp49
 70
     1
102
RTVSPost2010Prop50
 90
       50
102
RTVSPost2010PropOp50
 70
     1
102
RTVSPost2010Prop51ColorIndex
 90
      256
102
RTVSPost2010Prop51ColorRGB
 90
-16777216
102
RTVSPost2010PropOp51
 70
     0
102
RTVSPost2010Prop52
140
1.0
102
RTVSPost2010PropOp52
 70
     0
102
RTVSPost2010Prop53
 90
        2
102
RTVSPost2010PropOp53
 70
     1
102
RTVSPost2010Prop54
  1
strokes_ogs.tif
102
RTVSPost2010PropOp54
 70
     1
102
RTVSPost2010Prop55
280
     0
102
RTVSPost2010PropOp55
 70
     1
102
RTVSPost2010Prop56
140
1.0
102
RTVSPost2010PropOp56
 70
     1
102
RTVSPost2010Prop57
140
1.0
102
RTVSPost2010PropOp57
 70
     1
  0
XRECORD
  5
246
102
{ACAD_REACTORS
330
245
102
}
330
245
100
AcDbXrecord
280
     1
102
RTVSPost2010Prop28
280
     0
102
RTVSPost2010PropOp28
 70
     0
102
RTVSPost2010Prop29
280
     1
102
RTVSPost2010PropOp29
 70
     0
102
RTVSPost2010Prop30
280
     1
102
RTVSPost2010PropOp30
 70
     0
102
RTVSPost2010Prop31
280
     0
102
RTVSPost2010PropOp31
 70
     0
102
RTVSPost2010Prop32
280
     0
102
RTVSPost2010PropOp32
 70
     0
102
RTVSPost2010Prop33
280
     0
102
RTVSPost2010PropOp33
 70
     0
102
RTVSPost2010Prop34
280
     0
102
RTVSPost2010PropOp34
 70
     0
102
RTVSPost2010Prop35
280
     0
102
RTVSPost2010PropOp35
 70
     0
102
RTVSPost2010Prop36
280
     0
102
RTVSPost2010PropOp36
 70
     0
102
RTVSPost2010Prop37
 90
       50
102
RTVSPost2010PropOp37
 70
     0
102
RTVSPost2010Prop38
140
0.0
102
RTVSPost2010PropOp38
 70
     0
102
RTVSPost2010Prop39
140
1.0
102
RTVSPost2010PropOp39
 70
     0
102
RTVSPost2010Prop40
 90
        0
102
RTVSPost2010PropOp40
 70
     0
102
RTVSPost2010Prop41ColorIndex
 90
       18
102
RTVSPost2010Prop41ColorRGB
 90
        0
102
RTVSPost2010PropOp41
 70
     0
102
RTVSPost2010Prop42
 90
       50
102
RTVSPost2010PropOp42
 70
     0
102
RTVSPost2010Prop43
 90
        3
102
RTVSPost2010PropOp43
 70
     0
102
RTVSPost2010Prop44ColorIndex
 90
        5
102
RTVSPost2010Prop44ColorRGB
 90
      255
102
RTVSPost2010PropOp44
 70
     0
102
RTVSPost2010Prop45
280
     0
102
RTVSPost2010PropOp45
 70
     0
102
RTVSPost2010Prop46
 90
       50
102
RTVSPost2010PropOp46
 70
     0
102
RTVSPost2010Prop47
 90
       50
102
RTVSPost2010PropOp47
 70
     0
102
RTVSPost2010Prop48
 90
       50
102
RTVSPost2010PropOp48
 70
     0
102
RTVSPost2010Prop49
280
     0
102
RTVSPost2010PropOp49
 70
     0
102
RTVSPost2010Prop50
 90
       50
102
RTVSPost2010PropOp50
 70
     0
102
RTVSPost2010Prop51ColorIndex
 90
      256
102
RTVSPost2010Prop51ColorRGB
 90
-16777216
102
RTVSPost2010PropOp51
 70
     0
102
RTVSPost2010Prop52
140
1.0
102
RTVSPost2010PropOp52
 70
     0
102
RTVSPost2010Prop53
 90
        2
102
RTVSPost2010PropOp53
 70
     0
102
RTVSPost2010Prop54
  1
strokes_ogs.tif
102
RTVSPost2010PropOp54
 70
     0
102
RTVSPost2010Prop55
280
     0
102
RTVSPost2010PropOp55
 70
     0
102
RTVSPost2010Prop56
140
1.0
102
RTVSPost2010PropOp56
 70
     0
102
RTVSPost2010Prop57
140
1.0
102
RTVSPost2010PropOp57
 70
     0
  0
XRECORD
  5
234
102
{ACAD_REACTORS
330
233
102
}
330
233
100
AcDbXrecord
280
     1
102
RTVSPost2010Prop28
280
     0
102
RTVSPost2010PropOp28
 70
     1
102
RTVSPost2010Prop29
280
     1
102
RTVSPost2010PropOp29
 70
     1
102
RTVSPost2010Prop30
280
     1
102
RTVSPost2010PropOp30
 70
     1
102
RTVSPost2010Prop31
280
     0
102
RTVSPost2010PropOp31
 70
     1
102
RTVSPost2010Prop32
280
     0
102
RTVSPost2010PropOp32
 70
     1
102
RTVSPost2010Prop33
280
     0
102
RTVSPost2010PropOp33
 70
     1
102
RTVSPost2010Prop34
280
     0
102
RTVSPost2010PropOp34
 70
     1
102
RTVSPost2010Prop35
280
     0
102
RTVSPost2010PropOp35
 70
     1
102
RTVSPost2010Prop36
280
     0
102
RTVSPost2010PropOp36
 70
     1
102
RTVSPost2010Prop37
 90
       50
102
RTVSPost2010PropOp37
 70
     1
102
RTVSPost2010Prop38
140
0.0
102
RTVSPost2010PropOp38
 70
     1
102
RTVSPost2010Prop39
140
1.0
102
RTVSPost2010PropOp39
 70
     1
102
RTVSPost2010Prop40
 90
        0
102
RTVSPost2010PropOp40
 70
     1
102
RTVSPost2010Prop41ColorIndex
 90
       18
102
RTVSPost2010Prop41ColorRGB
 90
        0
102
RTVSPost2010PropOp41
 70
     1
102
RTVSPost2010Prop42
 90
       50
102
RTVSPost2010PropOp42
 70
     1
102
RTVSPost2010Prop43
 90
        3
102
RTVSPost2010PropOp43
 70
     1
102
RTVSPost2010Prop44ColorIndex
 90
        5
102
RTVSPost2010Prop44ColorRGB
 90
      255
102
RTVSPost2010PropOp44
 70
     1
102
RTVSPost2010Prop45
280
     0
102
RTVSPost2010PropOp45
 70
     1
102
RTVSPost2010Prop46
 90
       50
102
RTVSPost2010PropOp46
 70
     1
102
RTVSPost2010Prop47
 90
       50
102
RTVSPost2010PropOp47
 70
     1
102
RTVSPost2010Prop48
 90
       50
102
RTVSPost2010PropOp48
 70
     1
102
RTVSPost2010Prop49
280
     0
102
RTVSPost2010PropOp49
 70
     1
102
RTVSPost2010Prop50
 90
       50
102
RTVSPost2010PropOp50
 70
     1
102
RTVSPost2010Prop51ColorIndex
 90
      256
102
RTVSPost2010Prop51ColorRGB
 90
-16777216
102
RTVSPost2010PropOp51
 70
     0
102
RTVSPost2010Prop52
140
1.0
102
RTVSPost2010PropOp52
 70
     0
102
RTVSPost2010Prop53
 90
        2
102
RTVSPost2010PropOp53
 70
     1
102
RTVSPost2010Prop54
  1
strokes_ogs.tif
102
RTVSPost2010PropOp54
 70
     1
102
RTVSPost2010Prop55
280
     0
102
RTVSPost2010PropOp55
 70
     1
102
RTVSPost2010Prop56
140
1.0
102
RTVSPost2010PropOp56
 70
     1
102
RTVSPost2010Prop57
140
1.0
102
RTVSPost2010PropOp57
 70
     1
  0
XRECORD
  5
218
102
{ACAD_REACTORS
330
217
102
}
330
217
100
AcDbXrecord
280
     1
102
RTVSPost2010Prop28
280
     0
102
RTVSPost2010PropOp28
 70
     1
102
RTVSPost2010Prop29
280
     1
102
RTVSPost2010PropOp29
 70
     1
102
RTVSPost2010Prop30
280
     1
102
RTVSPost2010PropOp30
 70
     1
102
RTVSPost2010Prop31
280
     0
102
RTVSPost2010PropOp31
 70
     1
102
RTVSPost2010Prop32
280
     0
102
RTVSPost2010PropOp32
 70
     1
102
RTVSPost2010Prop33
280
     0
102
RTVSPost2010PropOp33
 70
     1
102
RTVSPost2010Prop34
280
     0
102
RTVSPost2010PropOp34
 70
     1
102
RTVSPost2010Prop35
280
     0
102
RTVSPost2010PropOp35
 70
     1
102
RTVSPost2010Prop36
280
     0
102
RTVSPost2010PropOp36
 70
     1
102
RTVSPost2010Prop37
 90
       50
102
RTVSPost2010PropOp37
 70
     1
102
RTVSPost2010Prop38
140
0.0
102
RTVSPost2010PropOp38
 70
     1
102
RTVSPost2010Prop39
140
1.0
102
RTVSPost2010PropOp39
 70
     1
102
RTVSPost2010Prop40
 90
        0
102
RTVSPost2010PropOp40
 70
     1
102
RTVSPost2010Prop41ColorIndex
 90
       18
102
RTVSPost2010Prop41ColorRGB
 90
        0
102
RTVSPost2010PropOp41
 70
     1
102
RTVSPost2010Prop42
 90
       50
102
RTVSPost2010PropOp42
 70
     1
102
RTVSPost2010Prop43
 90
        3
102
RTVSPost2010PropOp43
 70
     1
102
RTVSPost2010Prop44ColorIndex
 90
        5
102
RTVSPost2010Prop44ColorRGB
 90
      255
102
RTVSPost2010PropOp44
 70
     1
102
RTVSPost2010Prop45
280
     0
102
RTVSPost2010PropOp45
 70
     1
102
RTVSPost2010Prop46
 90
       50
102
RTVSPost2010PropOp46
 70
     1
102
RTVSPost2010Prop47
 90
       50
102
RTVSPost2010PropOp47
 70
     1
102
RTVSPost2010Prop48
 90
       50
102
RTVSPost2010PropOp48
 70
     1
102
RTVSPost2010Prop49
280
     0
102
RTVSPost2010PropOp49
 70
     1
102
RTVSPost2010Prop50
 90
       50
102
RTVSPost2010PropOp50
 70
     1
102
RTVSPost2010Prop51ColorIndex
 90
      256
102
RTVSPost2010Prop51ColorRGB
 90
-16777216
102
RTVSPost2010PropOp51
 70
     0
102
RTVSPost2010Prop52
140
1.0
102
RTVSPost2010PropOp52
 70
     0
102
RTVSPost2010Prop53
 90
        2
102
RTVSPost2010PropOp53
 70
     1
102
RTVSPost2010Prop54
  1
strokes_ogs.tif
102
RTVSPost2010PropOp54
 70
     1
102
RTVSPost2010Prop55
280
     0
102
RTVSPost2010PropOp55
 70
     1
102
RTVSPost2010Prop56
140
1.0
102
RTVSPost2010PropOp56
 70
     1
102
RTVSPost2010Prop57
140
1.0
102
RTVSPost2010PropOp57
 70
     1
  0
XRECORD
  5
21A
102
{ACAD_REACTORS
330
219
102
}
330
219
100
AcDbXrecord
280
     1
102
RTVSPost2010Prop28
280
     0
102
RTVSPost2010PropOp28
 70
     1
102
RTVSPost2010Prop29
280
     1
102
RTVSPost2010PropOp29
 70
     1
102
RTVSPost2010Prop30
280
     1
102
RTVSPost2010PropOp30
 70
     1
102
RTVSPost2010Prop31
280
     0
102
RTVSPost2010PropOp31
 70
     1
102
RTVSPost2010Prop32
280
     0
102
RTVSPost2010PropOp32
 70
     1
102
RTVSPost2010Prop33
280
     0
102
RTVSPost2010PropOp33
 70
     1
102
RTVSPost2010Prop34
280
     0
102
RTVSPost2010PropOp34
 70
     1
102
RTVSPost2010Prop35
280
     0
102
RTVSPost2010PropOp35
 70
     1
102
RTVSPost2010Prop36
280
     0
102
RTVSPost2010PropOp36
 70
     1
102
RTVSPost2010Prop37
 90
       50
102
RTVSPost2010PropOp37
 70
     1
102
RTVSPost2010Prop38
140
0.0
102
RTVSPost2010PropOp38
 70
     1
102
RTVSPost2010Prop39
140
1.0
102
RTVSPost2010PropOp39
 70
     1
102
RTVSPost2010Prop40
 90
        0
102
RTVSPost2010PropOp40
 70
     1
102
RTVSPost2010Prop41ColorIndex
 90
       18
102
RTVSPost2010Prop41ColorRGB
 90
        0
102
RTVSPost2010PropOp41
 70
     1
102
RTVSPost2010Prop42
 90
       50
102
RTVSPost2010PropOp42
 70
     1
102
RTVSPost2010Prop43
 90
        3
102
RTVSPost2010PropOp43
 70
     1
102
RTVSPost2010Prop44ColorIndex
 90
        5
102
RTVSPost2010Prop44ColorRGB
 90
      255
102
RTVSPost2010PropOp44
 70
     1
102
RTVSPost2010Prop45
280
     0
102
RTVSPost2010PropOp45
 70
     1
102
RTVSPost2010Prop46
 90
       50
102
RTVSPost2010PropOp46
 70
     1
102
RTVSPost2010Prop47
 90
       50
102
RTVSPost2010PropOp47
 70
     1
102
RTVSPost2010Prop48
 90
       50
102
RTVSPost2010PropOp48
 70
     1
102
RTVSPost2010Prop49
280
     0
102
RTVSPost2010PropOp49
 70
     1
102
RTVSPost2010Prop50
 90
       50
102
RTVSPost2010PropOp50
 70
     1
102
RTVSPost2010Prop51ColorIndex
 90
      256
102
RTVSPost2010Prop51ColorRGB
 90
-16777216
102
RTVSPost2010PropOp51
 70
     0
102
RTVSPost2010Prop52
140
1.0
102
RTVSPost2010PropOp52
 70
     0
102
RTVSPost2010Prop53
 90
        2
102
RTVSPost2010PropOp53
 70
     1
102
RTVSPost2010Prop54
  1
strokes_ogs.tif
102
RTVSPost2010PropOp54
 70
     1
102
RTVSPost2010Prop55
280
     0
102
RTVSPost2010PropOp55
 70
     1
102
RTVSPost2010Prop56
140
1.0
102
RTVSPost2010PropOp56
 70
     1
102
RTVSPost2010Prop57
140
1.0
102
RTVSPost2010PropOp57
 70
     1
  0
XRECORD
  5
21C
102
{ACAD_REACTORS
330
21B
102
}
330
21B
100
AcDbXrecord
280
     1
102
RTVSPost2010Prop28
280
     0
102
RTVSPost2010PropOp28
 70
     1
102
RTVSPost2010Prop29
280
     1
102
RTVSPost2010PropOp29
 70
     1
102
RTVSPost2010Prop30
280
     1
102
RTVSPost2010PropOp30
 70
     1
102
RTVSPost2010Prop31
280
     0
102
RTVSPost2010PropOp31
 70
     1
102
RTVSPost2010Prop32
280
     0
102
RTVSPost2010PropOp32
 70
     1
102
RTVSPost2010Prop33
280
     0
102
RTVSPost2010PropOp33
 70
     1
102
RTVSPost2010Prop34
280
     0
102
RTVSPost2010PropOp34
 70
     1
102
RTVSPost2010Prop35
280
     0
102
RTVSPost2010PropOp35
 70
     1
102
RTVSPost2010Prop36
280
     0
102
RTVSPost2010PropOp36
 70
     1
102
RTVSPost2010Prop37
 90
       50
102
RTVSPost2010PropOp37
 70
     1
102
RTVSPost2010Prop38
140
0.0
102
RTVSPost2010PropOp38
 70
     1
102
RTVSPost2010Prop39
140
1.0
102
RTVSPost2010PropOp39
 70
     1
102
RTVSPost2010Prop40
 90
        0
102
RTVSPost2010PropOp40
 70
     1
102
RTVSPost2010Prop41ColorIndex
 90
       18
102
RTVSPost2010Prop41ColorRGB
 90
        0
102
RTVSPost2010PropOp41
 70
     1
102
RTVSPost2010Prop42
 90
       50
102
RTVSPost2010PropOp42
 70
     1
102
RTVSPost2010Prop43
 90
        3
102
RTVSPost2010PropOp43
 70
     1
102
RTVSPost2010Prop44ColorIndex
 90
        5
102
RTVSPost2010Prop44ColorRGB
 90
      255
102
RTVSPost2010PropOp44
 70
     1
102
RTVSPost2010Prop45
280
     0
102
RTVSPost2010PropOp45
 70
     1
102
RTVSPost2010Prop46
 90
       50
102
RTVSPost2010PropOp46
 70
     1
102
RTVSPost2010Prop47
 90
       50
102
RTVSPost2010PropOp47
 70
     1
102
RTVSPost2010Prop48
 90
       50
102
RTVSPost2010PropOp48
 70
     1
102
RTVSPost2010Prop49
280
     0
102
RTVSPost2010PropOp49
 70
     1
102
RTVSPost2010Prop50
 90
       50
102
RTVSPost2010PropOp50
 70
     1
102
RTVSPost2010Prop51ColorIndex
 90
      256
102
RTVSPost2010Prop51ColorRGB
 90
-16777216
102
RTVSPost2010PropOp51
 70
     0
102
RTVSPost2010Prop52
140
1.0
102
RTVSPost2010PropOp52
 70
     0
102
RTVSPost2010Prop53
 90
        2
102
RTVSPost2010PropOp53
 70
     1
102
RTVSPost2010Prop54
  1
strokes_ogs.tif
102
RTVSPost2010PropOp54
 70
     1
102
RTVSPost2010Prop55
280
     0
102
RTVSPost2010PropOp55
 70
     1
102
RTVSPost2010Prop56
140
1.0
102
RTVSPost2010PropOp56
 70
     1
102
RTVSPost2010Prop57
140
1.0
102
RTVSPost2010PropOp57
 70
     1
  0
XRECORD
  5
21E
102
{ACAD_REACTORS
330
21D
102
}
330
21D
100
AcDbXrecord
280
     1
102
RTVSPost2010Prop28
280
     0
102
RTVSPost2010PropOp28
 70
     1
102
RTVSPost2010Prop29
280
     1
102
RTVSPost2010PropOp29
 70
     1
102
RTVSPost2010Prop30
280
     1
102
RTVSPost2010PropOp30
 70
     1
102
RTVSPost2010Prop31
280
     0
102
RTVSPost2010PropOp31
 70
     1
102
RTVSPost2010Prop32
280
     0
102
RTVSPost2010PropOp32
 70
     1
102
RTVSPost2010Prop33
280
     0
102
RTVSPost2010PropOp33
 70
     1
102
RTVSPost2010Prop34
280
     0
102
RTVSPost2010PropOp34
 70
     1
102
RTVSPost2010Prop35
280
     0
102
RTVSPost2010PropOp35
 70
     1
102
RTVSPost2010Prop36
280
     0
102
RTVSPost2010PropOp36
 70
     1
102
RTVSPost2010Prop37
 90
       50
102
RTVSPost2010PropOp37
 70
     1
102
RTVSPost2010Prop38
140
0.0
102
RTVSPost2010PropOp38
 70
     1
102
RTVSPost2010Prop39
140
1.0
102
RTVSPost2010PropOp39
 70
     1
102
RTVSPost2010Prop40
 90
        0
102
RTVSPost2010PropOp40
 70
     1
102
RTVSPost2010Prop41ColorIndex
 90
       18
102
RTVSPost2010Prop41ColorRGB
 90
        0
102
RTVSPost2010PropOp41
 70
     1
102
RTVSPost2010Prop42
 90
       50
102
RTVSPost2010PropOp42
 70
     1
102
RTVSPost2010Prop43
 90
        3
102
RTVSPost2010PropOp43
 70
     1
102
RTVSPost2010Prop44ColorIndex
 90
        5
102
RTVSPost2010Prop44ColorRGB
 90
      255
102
RTVSPost2010PropOp44
 70
     1
102
RTVSPost2010Prop45
280
     0
102
RTVSPost2010PropOp45
 70
     1
102
RTVSPost2010Prop46
 90
       50
102
RTVSPost2010PropOp46
 70
     1
102
RTVSPost2010Prop47
 90
       50
102
RTVSPost2010PropOp47
 70
     1
102
RTVSPost2010Prop48
 90
       50
102
RTVSPost2010PropOp48
 70
     1
102
RTVSPost2010Prop49
280
     0
102
RTVSPost2010PropOp49
 70
     1
102
RTVSPost2010Prop50
 90
       50
102
RTVSPost2010PropOp50
 70
     1
102
RTVSPost2010Prop51ColorIndex
 90
      256
102
RTVSPost2010Prop51ColorRGB
 90
-16777216
102
RTVSPost2010PropOp51
 70
     0
102
RTVSPost2010Prop52
140
1.0
102
RTVSPost2010PropOp52
 70
     0
102
RTVSPost2010Prop53
 90
        2
102
RTVSPost2010PropOp53
 70
     1
102
RTVSPost2010Prop54
  1
strokes_ogs.tif
102
RTVSPost2010PropOp54
 70
     1
102
RTVSPost2010Prop55
280
     0
102
RTVSPost2010PropOp55
 70
     1
102
RTVSPost2010Prop56
140
1.0
102
RTVSPost2010PropOp56
 70
     1
102
RTVSPost2010Prop57
140
1.0
102
RTVSPost2010PropOp57
 70
     1
  0
XRECORD
  5
226
102
{ACAD_REACTORS
330
225
102
}
330
225
100
AcDbXrecord
280
     1
102
RTVSPost2010Prop28
280
     0
102
RTVSPost2010PropOp28
 70
     1
102
RTVSPost2010Prop29
280
     1
102
RTVSPost2010PropOp29
 70
     1
102
RTVSPost2010Prop30
280
     1
102
RTVSPost2010PropOp30
 70
     1
102
RTVSPost2010Prop31
280
     0
102
RTVSPost2010PropOp31
 70
     1
102
RTVSPost2010Prop32
280
     0
102
RTVSPost2010PropOp32
 70
     1
102
RTVSPost2010Prop33
280
     0
102
RTVSPost2010PropOp33
 70
     1
102
RTVSPost2010Prop34
280
     0
102
RTVSPost2010PropOp34
 70
     1
102
RTVSPost2010Prop35
280
     0
102
RTVSPost2010PropOp35
 70
     1
102
RTVSPost2010Prop36
280
     0
102
RTVSPost2010PropOp36
 70
     1
102
RTVSPost2010Prop37
 90
       50
102
RTVSPost2010PropOp37
 70
     1
102
RTVSPost2010Prop38
140
0.0
102
RTVSPost2010PropOp38
 70
     1
102
RTVSPost2010Prop39
140
1.0
102
RTVSPost2010PropOp39
 70
     1
102
RTVSPost2010Prop40
 90
        0
102
RTVSPost2010PropOp40
 70
     1
102
RTVSPost2010Prop41ColorIndex
 90
       18
102
RTVSPost2010Prop41ColorRGB
 90
        0
102
RTVSPost2010PropOp41
 70
     1
102
RTVSPost2010Prop42
 90
       50
102
RTVSPost2010PropOp42
 70
     1
102
RTVSPost2010Prop43
 90
        3
102
RTVSPost2010PropOp43
 70
     1
102
RTVSPost2010Prop44ColorIndex
 90
        5
102
RTVSPost2010Prop44ColorRGB
 90
      255
102
RTVSPost2010PropOp44
 70
     1
102
RTVSPost2010Prop45
280
     0
102
RTVSPost2010PropOp45
 70
     1
102
RTVSPost2010Prop46
 90
       50
102
RTVSPost2010PropOp46
 70
     1
102
RTVSPost2010Prop47
 90
       50
102
RTVSPost2010PropOp47
 70
     1
102
RTVSPost2010Prop48
 90
       50
102
RTVSPost2010PropOp48
 70
     1
102
RTVSPost2010Prop49
280
     0
102
RTVSPost2010PropOp49
 70
     1
102
RTVSPost2010Prop50
 90
       50
102
RTVSPost2010PropOp50
 70
     1
102
RTVSPost2010Prop51ColorIndex
 90
      256
102
RTVSPost2010Prop51ColorRGB
 90
-16777216
102
RTVSPost2010PropOp51
 70
     0
102
RTVSPost2010Prop52
140
1.0
102
RTVSPost2010PropOp52
 70
     0
102
RTVSPost2010Prop53
 90
        2
102
RTVSPost2010PropOp53
 70
     1
102
RTVSPost2010Prop54
  1
strokes_ogs.tif
102
RTVSPost2010PropOp54
 70
     1
102
RTVSPost2010Prop55
280
     0
102
RTVSPost2010PropOp55
 70
     1
102
RTVSPost2010Prop56
140
1.0
102
RTVSPost2010PropOp56
 70
     1
102
RTVSPost2010Prop57
140
1.0
102
RTVSPost2010PropOp57
 70
     1
  0
XRECORD
  5
242
102
{ACAD_REACTORS
330
241
102
}
330
241
100
AcDbXrecord
280
     1
102
RTVSPost2010Prop28
280
     0
102
RTVSPost2010PropOp28
 70
     0
102
RTVSPost2010Prop29
280
     1
102
RTVSPost2010PropOp29
 70
     0
102
RTVSPost2010Prop30
280
     1
102
RTVSPost2010PropOp30
 70
     0
102
RTVSPost2010Prop31
280
     0
102
RTVSPost2010PropOp31
 70
     0
102
RTVSPost2010Prop32
280
     0
102
RTVSPost2010PropOp32
 70
     0
102
RTVSPost2010Prop33
280
     0
102
RTVSPost2010PropOp33
 70
     0
102
RTVSPost2010Prop34
280
     0
102
RTVSPost2010PropOp34
 70
     0
102
RTVSPost2010Prop35
280
     0
102
RTVSPost2010PropOp35
 70
     0
102
RTVSPost2010Prop36
280
     0
102
RTVSPost2010PropOp36
 70
     0
102
RTVSPost2010Prop37
 90
       50
102
RTVSPost2010PropOp37
 70
     0
102
RTVSPost2010Prop38
140
0.0
102
RTVSPost2010PropOp38
 70
     0
102
RTVSPost2010Prop39
140
1.0
102
RTVSPost2010PropOp39
 70
     0
102
RTVSPost2010Prop40
 90
        0
102
RTVSPost2010PropOp40
 70
     0
102
RTVSPost2010Prop41ColorIndex
 90
       18
102
RTVSPost2010Prop41ColorRGB
 90
        0
102
RTVSPost2010PropOp41
 70
     0
102
RTVSPost2010Prop42
 90
       50
102
RTVSPost2010PropOp42
 70
     0
102
RTVSPost2010Prop43
 90
        3
102
RTVSPost2010PropOp43
 70
     0
102
RTVSPost2010Prop44ColorIndex
 90
        5
102
RTVSPost2010Prop44ColorRGB
 90
      255
102
RTVSPost2010PropOp44
 70
     0
102
RTVSPost2010Prop45
280
     0
102
RTVSPost2010PropOp45
 70
     0
102
RTVSPost2010Prop46
 90
       50
102
RTVSPost2010PropOp46
 70
     0
102
RTVSPost2010Prop47
 90
       50
102
RTVSPost2010PropOp47
 70
     0
102
RTVSPost2010Prop48
 90
       50
102
RTVSPost2010PropOp48
 70
     0
102
RTVSPost2010Prop49
280
     0
102
RTVSPost2010PropOp49
 70
     0
102
RTVSPost2010Prop50
 90
       50
102
RTVSPost2010PropOp50
 70
     0
102
RTVSPost2010Prop51ColorIndex
 90
      256
102
RTVSPost2010Prop51ColorRGB
 90
-16777216
102
RTVSPost2010PropOp51
 70
     0
102
RTVSPost2010Prop52
140
1.0
102
RTVSPost2010PropOp52
 70
     0
102
RTVSPost2010Prop53
 90
        2
102
RTVSPost2010PropOp53
 70
     0
102
RTVSPost2010Prop54
  1
strokes_ogs.tif
102
RTVSPost2010PropOp54
 70
     0
102
RTVSPost2010Prop55
280
     0
102
RTVSPost2010PropOp55
 70
     0
102
RTVSPost2010Prop56
140
1.0
102
RTVSPost2010PropOp56
 70
     0
102
RTVSPost2010Prop57
140
1.0
102
RTVSPost2010PropOp57
 70
     0
  0
XRECORD
  5
232
102
{ACAD_REACTORS
330
231
102
}
330
231
100
AcDbXrecord
280
     1
102
RTVSPost2010Prop28
280
     0
102
RTVSPost2010PropOp28
 70
     1
102
RTVSPost2010Prop29
280
     1
102
RTVSPost2010PropOp29
 70
     1
102
RTVSPost2010Prop30
280
     1
102
RTVSPost2010PropOp30
 70
     1
102
RTVSPost2010Prop31
280
     0
102
RTVSPost2010PropOp31
 70
     1
102
RTVSPost2010Prop32
280
     0
102
RTVSPost2010PropOp32
 70
     1
102
RTVSPost2010Prop33
280
     0
102
RTVSPost2010PropOp33
 70
     1
102
RTVSPost2010Prop34
280
     0
102
RTVSPost2010PropOp34
 70
     1
102
RTVSPost2010Prop35
280
     0
102
RTVSPost2010PropOp35
 70
     1
102
RTVSPost2010Prop36
280
     0
102
RTVSPost2010PropOp36
 70
     1
102
RTVSPost2010Prop37
 90
       50
102
RTVSPost2010PropOp37
 70
     1
102
RTVSPost2010Prop38
140
0.0
102
RTVSPost2010PropOp38
 70
     1
102
RTVSPost2010Prop39
140
1.0
102
RTVSPost2010PropOp39
 70
     1
102
RTVSPost2010Prop40
 90
        0
102
RTVSPost2010PropOp40
 70
     1
102
RTVSPost2010Prop41ColorIndex
 90
       18
102
RTVSPost2010Prop41ColorRGB
 90
        0
102
RTVSPost2010PropOp41
 70
     1
102
RTVSPost2010Prop42
 90
       50
102
RTVSPost2010PropOp42
 70
     1
102
RTVSPost2010Prop43
 90
        3
102
RTVSPost2010PropOp43
 70
     1
102
RTVSPost2010Prop44ColorIndex
 90
        5
102
RTVSPost2010Prop44ColorRGB
 90
      255
102
RTVSPost2010PropOp44
 70
     1
102
RTVSPost2010Prop45
280
     0
102
RTVSPost2010PropOp45
 70
     1
102
RTVSPost2010Prop46
 90
       50
102
RTVSPost2010PropOp46
 70
     1
102
RTVSPost2010Prop47
 90
       50
102
RTVSPost2010PropOp47
 70
     1
102
RTVSPost2010Prop48
 90
       50
102
RTVSPost2010PropOp48
 70
     1
102
RTVSPost2010Prop49
280
     0
102
RTVSPost2010PropOp49
 70
     1
102
RTVSPost2010Prop50
 90
       50
102
RTVSPost2010PropOp50
 70
     1
102
RTVSPost2010Prop51ColorIndex
 90
      256
102
RTVSPost2010Prop51ColorRGB
 90
-16777216
102
RTVSPost2010PropOp51
 70
     0
102
RTVSPost2010Prop52
140
1.0
102
RTVSPost2010PropOp52
 70
     0
102
RTVSPost2010Prop53
 90
        2
102
RTVSPost2010PropOp53
 70
     1
102
RTVSPost2010Prop54
  1
strokes_ogs.tif
102
RTVSPost2010PropOp54
 70
     1
102
RTVSPost2010Prop55
280
     0
102
RTVSPost2010PropOp55
 70
     1
102
RTVSPost2010Prop56
140
1.0
102
RTVSPost2010PropOp56
 70
     1
102
RTVSPost2010Prop57
140
1.0
102
RTVSPost2010PropOp57
 70
     1
  0
XRECORD
  5
244
102
{ACAD_REACTORS
330
243
102
}
330
243
100
AcDbXrecord
280
     1
102
RTVSPost2010Prop28
280
     0
102
RTVSPost2010PropOp28
 70
     0
102
RTVSPost2010Prop29
280
     1
102
RTVSPost2010PropOp29
 70
     0
102
RTVSPost2010Prop30
280
     1
102
RTVSPost2010PropOp30
 70
     0
102
RTVSPost2010Prop31
280
     0
102
RTVSPost2010PropOp31
 70
     0
102
RTVSPost2010Prop32
280
     0
102
RTVSPost2010PropOp32
 70
     0
102
RTVSPost2010Prop33
280
     0
102
RTVSPost2010PropOp33
 70
     0
102
RTVSPost2010Prop34
280
     0
102
RTVSPost2010PropOp34
 70
     0
102
RTVSPost2010Prop35
280
     0
102
RTVSPost2010PropOp35
 70
     0
102
RTVSPost2010Prop36
280
     0
102
RTVSPost2010PropOp36
 70
     0
102
RTVSPost2010Prop37
 90
       50
102
RTVSPost2010PropOp37
 70
     0
102
RTVSPost2010Prop38
140
0.0
102
RTVSPost2010PropOp38
 70
     0
102
RTVSPost2010Prop39
140
1.0
102
RTVSPost2010PropOp39
 70
     0
102
RTVSPost2010Prop40
 90
        0
102
RTVSPost2010PropOp40
 70
     0
102
RTVSPost2010Prop41ColorIndex
 90
       18
102
RTVSPost2010Prop41ColorRGB
 90
        0
102
RTVSPost2010PropOp41
 70
     0
102
RTVSPost2010Prop42
 90
       50
102
RTVSPost2010PropOp42
 70
     0
102
RTVSPost2010Prop43
 90
        3
102
RTVSPost2010PropOp43
 70
     0
102
RTVSPost2010Prop44ColorIndex
 90
        5
102
RTVSPost2010Prop44ColorRGB
 90
      255
102
RTVSPost2010PropOp44
 70
     0
102
RTVSPost2010Prop45
280
     0
102
RTVSPost2010PropOp45
 70
     0
102
RTVSPost2010Prop46
 90
       50
102
RTVSPost2010PropOp46
 70
     0
102
RTVSPost2010Prop47
 90
       50
102
RTVSPost2010PropOp47
 70
     0
102
RTVSPost2010Prop48
 90
       50
102
RTVSPost2010PropOp48
 70
     0
102
RTVSPost2010Prop49
280
     0
102
RTVSPost2010PropOp49
 70
     0
102
RTVSPost2010Prop50
 90
       50
102
RTVSPost2010PropOp50
 70
     0
102
RTVSPost2010Prop51ColorIndex
 90
      256
102
RTVSPost2010Prop51ColorRGB
 90
-16777216
102
RTVSPost2010PropOp51
 70
     0
102
RTVSPost2010Prop52
140
1.0
102
RTVSPost2010PropOp52
 70
     0
102
RTVSPost2010Prop53
 90
        2
102
RTVSPost2010PropOp53
 70
     0
102
RTVSPost2010Prop54
  1
strokes_ogs.tif
102
RTVSPost2010PropOp54
 70
     0
102
RTVSPost2010Prop55
280
     0
102
RTVSPost2010PropOp55
 70
     0
102
RTVSPost2010Prop56
140
1.0
102
RTVSPost2010PropOp56
 70
     0
102
RTVSPost2010Prop57
140
1.0
102
RTVSPost2010PropOp57
 70
     0
  0
XRECORD
  5
22A
102
{ACAD_REACTORS
330
229
102
}
330
229
100
AcDbXrecord
280
     1
102
RTVSPost2010Prop28
280
     0
102
RTVSPost2010PropOp28
 70
     1
102
RTVSPost2010Prop29
280
     1
102
RTVSPost2010PropOp29
 70
     1
102
RTVSPost2010Prop30
280
     1
102
RTVSPost2010PropOp30
 70
     1
102
RTVSPost2010Prop31
280
     0
102
RTVSPost2010PropOp31
 70
     1
102
RTVSPost2010Prop32
280
     0
102
RTVSPost2010PropOp32
 70
     1
102
RTVSPost2010Prop33
280
     0
102
RTVSPost2010PropOp33
 70
     1
102
RTVSPost2010Prop34
280
     0
102
RTVSPost2010PropOp34
 70
     1
102
RTVSPost2010Prop35
280
     0
102
RTVSPost2010PropOp35
 70
     1
102
RTVSPost2010Prop36
280
     0
102
RTVSPost2010PropOp36
 70
     1
102
RTVSPost2010Prop37
 90
       50
102
RTVSPost2010PropOp37
 70
     1
102
RTVSPost2010Prop38
140
0.0
102
RTVSPost2010PropOp38
 70
     1
102
RTVSPost2010Prop39
140
1.0
102
RTVSPost2010PropOp39
 70
     1
102
RTVSPost2010Prop40
 90
        0
102
RTVSPost2010PropOp40
 70
     1
102
RTVSPost2010Prop41ColorIndex
 90
       18
102
RTVSPost2010Prop41ColorRGB
 90
        0
102
RTVSPost2010PropOp41
 70
     1
102
RTVSPost2010Prop42
 90
       50
102
RTVSPost2010PropOp42
 70
     1
102
RTVSPost2010Prop43
 90
        3
102
RTVSPost2010PropOp43
 70
     1
102
RTVSPost2010Prop44ColorIndex
 90
        5
102
RTVSPost2010Prop44ColorRGB
 90
      255
102
RTVSPost2010PropOp44
 70
     1
102
RTVSPost2010Prop45
280
     0
102
RTVSPost2010PropOp45
 70
     1
102
RTVSPost2010Prop46
 90
       50
102
RTVSPost2010PropOp46
 70
     1
102
RTVSPost2010Prop47
 90
       50
102
RTVSPost2010PropOp47
 70
     1
102
RTVSPost2010Prop48
 90
       50
102
RTVSPost2010PropOp48
 70
     1
102
RTVSPost2010Prop49
280
     0
102
RTVSPost2010PropOp49
 70
     1
102
RTVSPost2010Prop50
 90
       50
102
RTVSPost2010PropOp50
 70
     1
102
RTVSPost2010Prop51ColorIndex
 90
      256
102
RTVSPost2010Prop51ColorRGB
 90
-16777216
102
RTVSPost2010PropOp51
 70
     0
102
RTVSPost2010Prop52
140
1.0
102
RTVSPost2010PropOp52
 70
     0
102
RTVSPost2010Prop53
 90
        2
102
RTVSPost2010PropOp53
 70
     1
102
RTVSPost2010Prop54
  1
strokes_ogs.tif
102
RTVSPost2010PropOp54
 70
     1
102
RTVSPost2010Prop55
280
     0
102
RTVSPost2010PropOp55
 70
     1
102
RTVSPost2010Prop56
140
1.0
102
RTVSPost2010PropOp56
 70
     1
102
RTVSPost2010Prop57
140
1.0
102
RTVSPost2010PropOp57
 70
     1
  0
XRECORD
  5
240
102
{ACAD_REACTORS
330
23F
102
}
330
23F
100
AcDbXrecord
280
     1
102
RTVSPost2010Prop28
280
     0
102
RTVSPost2010PropOp28
 70
     1
102
RTVSPost2010Prop29
280
     1
102
RTVSPost2010PropOp29
 70
     1
102
RTVSPost2010Prop30
280
     1
102
RTVSPost2010PropOp30
 70
     1
102
RTVSPost2010Prop31
280
     0
102
RTVSPost2010PropOp31
 70
     1
102
RTVSPost2010Prop32
280
     0
102
RTVSPost2010PropOp32
 70
     1
102
RTVSPost2010Prop33
280
     0
102
RTVSPost2010PropOp33
 70
     1
102
RTVSPost2010Prop34
280
     0
102
RTVSPost2010PropOp34
 70
     1
102
RTVSPost2010Prop35
280
     0
102
RTVSPost2010PropOp35
 70
     1
102
RTVSPost2010Prop36
280
     0
102
RTVSPost2010PropOp36
 70
     1
102
RTVSPost2010Prop37
 90
       50
102
RTVSPost2010PropOp37
 70
     1
102
RTVSPost2010Prop38
140
0.0
102
RTVSPost2010PropOp38
 70
     1
102
RTVSPost2010Prop39
140
1.0
102
RTVSPost2010PropOp39
 70
     1
102
RTVSPost2010Prop40
 90
        0
102
RTVSPost2010PropOp40
 70
     1
102
RTVSPost2010Prop41ColorIndex
 90
       18
102
RTVSPost2010Prop41ColorRGB
 90
        0
102
RTVSPost2010PropOp41
 70
     1
102
RTVSPost2010Prop42
 90
       50
102
RTVSPost2010PropOp42
 70
     1
102
RTVSPost2010Prop43
 90
        3
102
RTVSPost2010PropOp43
 70
     1
102
RTVSPost2010Prop44ColorIndex
 90
        5
102
RTVSPost2010Prop44ColorRGB
 90
      255
102
RTVSPost2010PropOp44
 70
     1
102
RTVSPost2010Prop45
280
     0
102
RTVSPost2010PropOp45
 70
     1
102
RTVSPost2010Prop46
 90
       50
102
RTVSPost2010PropOp46
 70
     1
102
RTVSPost2010Prop47
 90
       50
102
RTVSPost2010PropOp47
 70
     1
102
RTVSPost2010Prop48
 90
       50
102
RTVSPost2010PropOp48
 70
     1
102
RTVSPost2010Prop49
280
     0
102
RTVSPost2010PropOp49
 70
     1
102
RTVSPost2010Prop50
 90
       50
102
RTVSPost2010PropOp50
 70
     1
102
RTVSPost2010Prop51ColorIndex
 90
      256
102
RTVSPost2010Prop51ColorRGB
 90
-16777216
102
RTVSPost2010PropOp51
 70
     0
102
RTVSPost2010Prop52
140
1.0
102
RTVSPost2010PropOp52
 70
     0
102
RTVSPost2010Prop53
 90
        2
102
RTVSPost2010PropOp53
 70
     1
102
RTVSPost2010Prop54
  1
strokes_ogs.tif
102
RTVSPost2010PropOp54
 70
     1
102
RTVSPost2010Prop55
280
     0
102
RTVSPost2010PropOp55
 70
     1
102
RTVSPost2010Prop56
140
1.0
102
RTVSPost2010PropOp56
 70
     1
102
RTVSPost2010Prop57
140
1.0
102
RTVSPost2010PropOp57
 70
     1
  0
XRECORD
  5
23E
102
{ACAD_REACTORS
330
23D
102
}
330
23D
100
AcDbXrecord
280
     1
102
RTVSPost2010Prop28
280
     0
102
RTVSPost2010PropOp28
 70
     1
102
RTVSPost2010Prop29
280
     1
102
RTVSPost2010PropOp29
 70
     1
102
RTVSPost2010Prop30
280
     1
102
RTVSPost2010PropOp30
 70
     1
102
RTVSPost2010Prop31
280
     0
102
RTVSPost2010PropOp31
 70
     1
102
RTVSPost2010Prop32
280
     0
102
RTVSPost2010PropOp32
 70
     1
102
RTVSPost2010Prop33
280
     0
102
RTVSPost2010PropOp33
 70
     1
102
RTVSPost2010Prop34
280
     0
102
RTVSPost2010PropOp34
 70
     1
102
RTVSPost2010Prop35
280
     0
102
RTVSPost2010PropOp35
 70
     1
102
RTVSPost2010Prop36
280
     0
102
RTVSPost2010PropOp36
 70
     1
102
RTVSPost2010Prop37
 90
       50
102
RTVSPost2010PropOp37
 70
     1
102
RTVSPost2010Prop38
140
0.0
102
RTVSPost2010PropOp38
 70
     1
102
RTVSPost2010Prop39
140
1.0
102
RTVSPost2010PropOp39
 70
     1
102
RTVSPost2010Prop40
 90
        0
102
RTVSPost2010PropOp40
 70
     1
102
RTVSPost2010Prop41ColorIndex
 90
       18
102
RTVSPost2010Prop41ColorRGB
 90
        0
102
RTVSPost2010PropOp41
 70
     1
102
RTVSPost2010Prop42
 90
       50
102
RTVSPost2010PropOp42
 70
     1
102
RTVSPost2010Prop43
 90
        3
102
RTVSPost2010PropOp43
 70
     1
102
RTVSPost2010Prop44ColorIndex
 90
        5
102
RTVSPost2010Prop44ColorRGB
 90
      255
102
RTVSPost2010PropOp44
 70
     1
102
RTVSPost2010Prop45
280
     0
102
RTVSPost2010PropOp45
 70
     1
102
RTVSPost2010Prop46
 90
       50
102
RTVSPost2010PropOp46
 70
     1
102
RTVSPost2010Prop47
 90
       50
102
RTVSPost2010PropOp47
 70
     1
102
RTVSPost2010Prop48
 90
       50
102
RTVSPost2010PropOp48
 70
     1
102
RTVSPost2010Prop49
280
     0
102
RTVSPost2010PropOp49
 70
     1
102
RTVSPost2010Prop50
 90
       50
102
RTVSPost2010PropOp50
 70
     1
102
RTVSPost2010Prop51ColorIndex
 90
      256
102
RTVSPost2010Prop51ColorRGB
 90
-16777216
102
RTVSPost2010PropOp51
 70
     0
102
RTVSPost2010Prop52
140
1.0
102
RTVSPost2010PropOp52
 70
     0
102
RTVSPost2010Prop53
 90
        2
102
RTVSPost2010PropOp53
 70
     1
102
RTVSPost2010Prop54
  1
strokes_ogs.tif
102
RTVSPost2010PropOp54
 70
     1
102
RTVSPost2010Prop55
280
     0
102
RTVSPost2010PropOp55
 70
     1
102
RTVSPost2010Prop56
140
1.0
102
RTVSPost2010PropOp56
 70
     1
102
RTVSPost2010Prop57
140
1.0
102
RTVSPost2010PropOp57
 70
     1
  0
XRECORD
  5
238
102
{ACAD_REACTORS
330
237
102
}
330
237
100
AcDbXrecord
280
     1
102
RTVSPost2010Prop28
280
     0
102
RTVSPost2010PropOp28
 70
     1
102
RTVSPost2010Prop29
280
     1
102
RTVSPost2010PropOp29
 70
     1
102
RTVSPost2010Prop30
280
     1
102
RTVSPost2010PropOp30
 70
     1
102
RTVSPost2010Prop31
280
     0
102
RTVSPost2010PropOp31
 70
     1
102
RTVSPost2010Prop32
280
     0
102
RTVSPost2010PropOp32
 70
     1
102
RTVSPost2010Prop33
280
     0
102
RTVSPost2010PropOp33
 70
     1
102
RTVSPost2010Prop34
280
     0
102
RTVSPost2010PropOp34
 70
     1
102
RTVSPost2010Prop35
280
     0
102
RTVSPost2010PropOp35
 70
     1
102
RTVSPost2010Prop36
280
     0
102
RTVSPost2010PropOp36
 70
     1
102
RTVSPost2010Prop37
 90
       50
102
RTVSPost2010PropOp37
 70
     1
102
RTVSPost2010Prop38
140
0.0
102
RTVSPost2010PropOp38
 70
     1
102
RTVSPost2010Prop39
140
1.0
102
RTVSPost2010PropOp39
 70
     1
102
RTVSPost2010Prop40
 90
        0
102
RTVSPost2010PropOp40
 70
     1
102
RTVSPost2010Prop41ColorIndex
 90
       18
102
RTVSPost2010Prop41ColorRGB
 90
        0
102
RTVSPost2010PropOp41
 70
     1
102
RTVSPost2010Prop42
 90
       50
102
RTVSPost2010PropOp42
 70
     1
102
RTVSPost2010Prop43
 90
        3
102
RTVSPost2010PropOp43
 70
     1
102
RTVSPost2010Prop44ColorIndex
 90
        5
102
RTVSPost2010Prop44ColorRGB
 90
      255
102
RTVSPost2010PropOp44
 70
     1
102
RTVSPost2010Prop45
280
     0
102
RTVSPost2010PropOp45
 70
     1
102
RTVSPost2010Prop46
 90
       50
102
RTVSPost2010PropOp46
 70
     1
102
RTVSPost2010Prop47
 90
       50
102
RTVSPost2010PropOp47
 70
     1
102
RTVSPost2010Prop48
 90
       50
102
RTVSPost2010PropOp48
 70
     1
102
RTVSPost2010Prop49
280
     0
102
RTVSPost2010PropOp49
 70
     1
102
RTVSPost2010Prop50
 90
       50
102
RTVSPost2010PropOp50
 70
     1
102
RTVSPost2010Prop51ColorIndex
 90
      256
102
RTVSPost2010Prop51ColorRGB
 90
-16777216
102
RTVSPost2010PropOp51
 70
     0
102
RTVSPost2010Prop52
140
1.0
102
RTVSPost2010PropOp52
 70
     0
102
RTVSPost2010Prop53
 90
        2
102
RTVSPost2010PropOp53
 70
     1
102
RTVSPost2010Prop54
  1
strokes_ogs.tif
102
RTVSPost2010PropOp54
 70
     1
102
RTVSPost2010Prop55
280
     0
102
RTVSPost2010PropOp55
 70
     1
102
RTVSPost2010Prop56
140
1.0
102
RTVSPost2010PropOp56
 70
     1
102
RTVSPost2010Prop57
140
1.0
102
RTVSPost2010PropOp57
 70
     1
  0
XRECORD
  5
23A
102
{ACAD_REACTORS
330
239
102
}
330
239
100
AcDbXrecord
280
     1
102
RTVSPost2010Prop28
280
     0
102
RTVSPost2010PropOp28
 70
     1
102
RTVSPost2010Prop29
280
     1
102
RTVSPost2010PropOp29
 70
     1
102
RTVSPost2010Prop30
280
     1
102
RTVSPost2010PropOp30
 70
     1
102
RTVSPost2010Prop31
280
     0
102
RTVSPost2010PropOp31
 70
     1
102
RTVSPost2010Prop32
280
     0
102
RTVSPost2010PropOp32
 70
     1
102
RTVSPost2010Prop33
280
     0
102
RTVSPost2010PropOp33
 70
     1
102
RTVSPost2010Prop34
280
     0
102
RTVSPost2010PropOp34
 70
     1
102
RTVSPost2010Prop35
280
     0
102
RTVSPost2010PropOp35
 70
     1
102
RTVSPost2010Prop36
280
     0
102
RTVSPost2010PropOp36
 70
     1
102
RTVSPost2010Prop37
 90
       50
102
RTVSPost2010PropOp37
 70
     1
102
RTVSPost2010Prop38
140
0.0
102
RTVSPost2010PropOp38
 70
     1
102
RTVSPost2010Prop39
140
1.0
102
RTVSPost2010PropOp39
 70
     1
102
RTVSPost2010Prop40
 90
        0
102
RTVSPost2010PropOp40
 70
     1
102
RTVSPost2010Prop41ColorIndex
 90
       18
102
RTVSPost2010Prop41ColorRGB
 90
        0
102
RTVSPost2010PropOp41
 70
     1
102
RTVSPost2010Prop42
 90
       50
102
RTVSPost2010PropOp42
 70
     1
102
RTVSPost2010Prop43
 90
        3
102
RTVSPost2010PropOp43
 70
     1
102
RTVSPost2010Prop44ColorIndex
 90
        5
102
RTVSPost2010Prop44ColorRGB
 90
      255
102
RTVSPost2010PropOp44
 70
     1
102
RTVSPost2010Prop45
280
     0
102
RTVSPost2010PropOp45
 70
     1
102
RTVSPost2010Prop46
 90
       50
102
RTVSPost2010PropOp46
 70
     1
102
RTVSPost2010Prop47
 90
       50
102
RTVSPost2010PropOp47
 70
     1
102
RTVSPost2010Prop48
 90
       50
102
RTVSPost2010PropOp48
 70
     1
102
RTVSPost2010Prop49
280
     0
102
RTVSPost2010PropOp49
 70
     1
102
RTVSPost2010Prop50
 90
       50
102
RTVSPost2010PropOp50
 70
     1
102
RTVSPost2010Prop51ColorIndex
 90
      256
102
RTVSPost2010Prop51ColorRGB
 90
-16777216
102
RTVSPost2010PropOp51
 70
     0
102
RTVSPost2010Prop52
140
1.0
102
RTVSPost2010PropOp52
 70
     0
102
RTVSPost2010Prop53
 90
        2
102
RTVSPost2010PropOp53
 70
     1
102
RTVSPost2010Prop54
  1
strokes_ogs.tif
102
RTVSPost2010PropOp54
 70
     1
102
RTVSPost2010Prop55
280
     0
102
RTVSPost2010PropOp55
 70
     1
102
RTVSPost2010Prop56
140
1.0
102
RTVSPost2010PropOp56
 70
     1
102
RTVSPost2010Prop57
140
1.0
102
RTVSPost2010PropOp57
 70
     1
  0
XRECORD
  5
230
102
{ACAD_REACTORS
330
22F
102
}
330
22F
100
AcDbXrecord
280
     1
102
RTVSPost2010Prop28
280
     0
102
RTVSPost2010PropOp28
 70
     1
102
RTVSPost2010Prop29
280
     1
102
RTVSPost2010PropOp29
 70
     1
102
RTVSPost2010Prop30
280
     1
102
RTVSPost2010PropOp30
 70
     1
102
RTVSPost2010Prop31
280
     0
102
RTVSPost2010PropOp31
 70
     1
102
RTVSPost2010Prop32
280
     0
102
RTVSPost2010PropOp32
 70
     1
102
RTVSPost2010Prop33
280
     0
102
RTVSPost2010PropOp33
 70
     1
102
RTVSPost2010Prop34
280
     0
102
RTVSPost2010PropOp34
 70
     1
102
RTVSPost2010Prop35
280
     0
102
RTVSPost2010PropOp35
 70
     1
102
RTVSPost2010Prop36
280
     0
102
RTVSPost2010PropOp36
 70
     1
102
RTVSPost2010Prop37
 90
       50
102
RTVSPost2010PropOp37
 70
     1
102
RTVSPost2010Prop38
140
0.0
102
RTVSPost2010PropOp38
 70
     1
102
RTVSPost2010Prop39
140
1.0
102
RTVSPost2010PropOp39
 70
     1
102
RTVSPost2010Prop40
 90
        0
102
RTVSPost2010PropOp40
 70
     1
102
RTVSPost2010Prop41ColorIndex
 90
       18
102
RTVSPost2010Prop41ColorRGB
 90
        0
102
RTVSPost2010PropOp41
 70
     1
102
RTVSPost2010Prop42
 90
       50
102
RTVSPost2010PropOp42
 70
     1
102
RTVSPost2010Prop43
 90
        3
102
RTVSPost2010PropOp43
 70
     1
102
RTVSPost2010Prop44ColorIndex
 90
        5
102
RTVSPost2010Prop44ColorRGB
 90
      255
102
RTVSPost2010PropOp44
 70
     1
102
RTVSPost2010Prop45
280
     0
102
RTVSPost2010PropOp45
 70
     1
102
RTVSPost2010Prop46
 90
       50
102
RTVSPost2010PropOp46
 70
     1
102
RTVSPost2010Prop47
 90
       50
102
RTVSPost2010PropOp47
 70
     1
102
RTVSPost2010Prop48
 90
       50
102
RTVSPost2010PropOp48
 70
     1
102
RTVSPost2010Prop49
280
     0
102
RTVSPost2010PropOp49
 70
     1
102
RTVSPost2010Prop50
 90
       50
102
RTVSPost2010PropOp50
 70
     1
102
RTVSPost2010Prop51ColorIndex
 90
      256
102
RTVSPost2010Prop51ColorRGB
 90
-16777216
102
RTVSPost2010PropOp51
 70
     0
102
RTVSPost2010Prop52
140
1.0
102
RTVSPost2010PropOp52
 70
     0
102
RTVSPost2010Prop53
 90
        2
102
RTVSPost2010PropOp53
 70
     1
102
RTVSPost2010Prop54
  1
strokes_ogs.tif
102
RTVSPost2010PropOp54
 70
     1
102
RTVSPost2010Prop55
280
     0
102
RTVSPost2010PropOp55
 70
     1
102
RTVSPost2010Prop56
140
1.0
102
RTVSPost2010PropOp56
 70
     1
102
RTVSPost2010Prop57
140
1.0
102
RTVSPost2010PropOp57
 70
     1
  0
XRECORD
  5
224
102
{ACAD_REACTORS
330
223
102
}
330
223
100
AcDbXrecord
280
     1
102
RTVSPost2010Prop28
280
     0
102
RTVSPost2010PropOp28
 70
     1
102
RTVSPost2010Prop29
280
     1
102
RTVSPost2010PropOp29
 70
     1
102
RTVSPost2010Prop30
280
     1
102
RTVSPost2010PropOp30
 70
     1
102
RTVSPost2010Prop31
280
     0
102
RTVSPost2010PropOp31
 70
     1
102
RTVSPost2010Prop32
280
     0
102
RTVSPost2010PropOp32
 70
     1
102
RTVSPost2010Prop33
280
     0
102
RTVSPost2010PropOp33
 70
     1
102
RTVSPost2010Prop34
280
     0
102
RTVSPost2010PropOp34
 70
     1
102
RTVSPost2010Prop35
280
     0
102
RTVSPost2010PropOp35
 70
     1
102
RTVSPost2010Prop36
280
     0
102
RTVSPost2010PropOp36
 70
     1
102
RTVSPost2010Prop37
 90
       50
102
RTVSPost2010PropOp37
 70
     1
102
RTVSPost2010Prop38
140
0.0
102
RTVSPost2010PropOp38
 70
     1
102
RTVSPost2010Prop39
140
1.0
102
RTVSPost2010PropOp39
 70
     1
102
RTVSPost2010Prop40
 90
        0
102
RTVSPost2010PropOp40
 70
     1
102
RTVSPost2010Prop41ColorIndex
 90
       18
102
RTVSPost2010Prop41ColorRGB
 90
        0
102
RTVSPost2010PropOp41
 70
     1
102
RTVSPost2010Prop42
 90
       50
102
RTVSPost2010PropOp42
 70
     1
102
RTVSPost2010Prop43
 90
        3
102
RTVSPost2010PropOp43
 70
     1
102
RTVSPost2010Prop44ColorIndex
 90
        5
102
RTVSPost2010Prop44ColorRGB
 90
      255
102
RTVSPost2010PropOp44
 70
     1
102
RTVSPost2010Prop45
280
     0
102
RTVSPost2010PropOp45
 70
     1
102
RTVSPost2010Prop46
 90
       50
102
RTVSPost2010PropOp46
 70
     1
102
RTVSPost2010Prop47
 90
       50
102
RTVSPost2010PropOp47
 70
     1
102
RTVSPost2010Prop48
 90
       50
102
RTVSPost2010PropOp48
 70
     1
102
RTVSPost2010Prop49
280
     0
102
RTVSPost2010PropOp49
 70
     1
102
RTVSPost2010Prop50
 90
       50
102
RTVSPost2010PropOp50
 70
     1
102
RTVSPost2010Prop51ColorIndex
 90
      256
102
RTVSPost2010Prop51ColorRGB
 90
-16777216
102
RTVSPost2010PropOp51
 70
     0
102
RTVSPost2010Prop52
140
1.0
102
RTVSPost2010PropOp52
 70
     0
102
RTVSPost2010Prop53
 90
        2
102
RTVSPost2010PropOp53
 70
     1
102
RTVSPost2010Prop54
  1
strokes_ogs.tif
102
RTVSPost2010PropOp54
 70
     1
102
RTVSPost2010Prop55
280
     0
102
RTVSPost2010PropOp55
 70
     1
102
RTVSPost2010Prop56
140
1.0
102
RTVSPost2010PropOp56
 70
     1
102
RTVSPost2010Prop57
140
1.0
102
RTVSPost2010PropOp57
 70
     1
  0
XRECORD
  5
23C
102
{ACAD_REACTORS
330
23B
102
}
330
23B
100
AcDbXrecord
280
     1
102
RTVSPost2010Prop28
280
     0
102
RTVSPost2010PropOp28
 70
     1
102
RTVSPost2010Prop29
280
     1
102
RTVSPost2010PropOp29
 70
     1
102
RTVSPost2010Prop30
280
     1
102
RTVSPost2010PropOp30
 70
     1
102
RTVSPost2010Prop31
280
     0
102
RTVSPost2010PropOp31
 70
     1
102
RTVSPost2010Prop32
280
     0
102
RTVSPost2010PropOp32
 70
     1
102
RTVSPost2010Prop33
280
     0
102
RTVSPost2010PropOp33
 70
     1
102
RTVSPost2010Prop34
280
     0
102
RTVSPost2010PropOp34
 70
     1
102
RTVSPost2010Prop35
280
     0
102
RTVSPost2010PropOp35
 70
     1
102
RTVSPost2010Prop36
280
     0
102
RTVSPost2010PropOp36
 70
     1
102
RTVSPost2010Prop37
 90
       50
102
RTVSPost2010PropOp37
 70
     1
102
RTVSPost2010Prop38
140
0.0
102
RTVSPost2010PropOp38
 70
     1
102
RTVSPost2010Prop39
140
1.0
102
RTVSPost2010PropOp39
 70
     1
102
RTVSPost2010Prop40
 90
        0
102
RTVSPost2010PropOp40
 70
     1
102
RTVSPost2010Prop41ColorIndex
 90
       18
102
RTVSPost2010Prop41ColorRGB
 90
        0
102
RTVSPost2010PropOp41
 70
     1
102
RTVSPost2010Prop42
 90
       50
102
RTVSPost2010PropOp42
 70
     1
102
RTVSPost2010Prop43
 90
        3
102
RTVSPost2010PropOp43
 70
     1
102
RTVSPost2010Prop44ColorIndex
 90
        5
102
RTVSPost2010Prop44ColorRGB
 90
      255
102
RTVSPost2010PropOp44
 70
     1
102
RTVSPost2010Prop45
280
     0
102
RTVSPost2010PropOp45
 70
     1
102
RTVSPost2010Prop46
 90
       50
102
RTVSPost2010PropOp46
 70
     1
102
RTVSPost2010Prop47
 90
       50
102
RTVSPost2010PropOp47
 70
     1
102
RTVSPost2010Prop48
 90
       50
102
RTVSPost2010PropOp48
 70
     1
102
RTVSPost2010Prop49
280
     0
102
RTVSPost2010PropOp49
 70
     1
102
RTVSPost2010Prop50
 90
       50
102
RTVSPost2010PropOp50
 70
     1
102
RTVSPost2010Prop51ColorIndex
 90
      256
102
RTVSPost2010Prop51ColorRGB
 90
-16777216
102
RTVSPost2010PropOp51
 70
     0
102
RTVSPost2010Prop52
140
1.0
102
RTVSPost2010PropOp52
 70
     0
102
RTVSPost2010Prop53
 90
        2
102
RTVSPost2010PropOp53
 70
     1
102
RTVSPost2010Prop54
  1
strokes_ogs.tif
102
RTVSPost2010PropOp54
 70
     1
102
RTVSPost2010Prop55
280
     0
102
RTVSPost2010PropOp55
 70
     1
102
RTVSPost2010Prop56
140
1.0
102
RTVSPost2010PropOp56
 70
     1
102
RTVSPost2010Prop57
140
1.0
102
RTVSPost2010PropOp57
 70
     1
  0
ENDSEC
  0
EOF
