  0
SECTION
  2
HEADER
  9
$ACADVER
  1
AC1009
  9
$INSBASE
 10
0.0
 20
0.0
 30
0.0
  9
$EXTMIN
 10
12.93686476803123
 20
0.0268221633286885
 30
-0.0000000349181948
  9
$EXTMAX
 10
676.66092649957079
 20
585.92717896318391
 30
0.0000000814935746
  9
$LIMMIN
 10
0.0
 20
0.0
  9
$LIMMAX
 10
420.0
 20
297.0
  9
$ORTHOMODE
 70
     0
  9
$REGENMODE
 70
     1
  9
$FILLMODE
 70
     1
  9
$QTEXTMODE
 70
     0
  9
$MIRRTEXT
 70
     0
  9
$DRAGMODE
 70
     2
  9
$LTSCALE
 40
1.0
  9
$OSMODE
 70
  3071
  9
$ATTMODE
 70
     1
  9
$TEXTSIZE
 40
2.5
  9
$TRACEWID
 40
1.0
  9
$TEXTSTYLE
  7
STANDARD
  9
$CLAYER
  8
0
  9
$CELTYPE
  6
BYLAYER
  9
$CECOLOR
 62
   256
  9
$DIMSCALE
 40
1.0
  9
$DIMASZ
 40
2.5
  9
$DIMEXO
 40
0.625
  9
$DIMDLI
 40
3.75
  9
$DIMRND
 40
0.0
  9
$DIMDLE
 40
0.0
  9
$DIMEXE
 40
1.25
  9
$DIMTP
 40
0.0
  9
$DIMTM
 40
0.0
  9
$DIMTXT
 40
2.5
  9
$DIMCEN
 40
2.5
  9
$DIMTSZ
 40
0.0
  9
$DIMTOL
 70
     0
  9
$DIMLIM
 70
     0
  9
$DIMTIH
 70
     0
  9
$DIMTOH
 70
     0
  9
$DIMSE1
 70
     0
  9
$DIMSE2
 70
     0
  9
$DIMTAD
 70
     1
  9
$DIMZIN
 70
     8
  9
$DIMBLK
  1

  9
$DIMASO
 70
     1
  9
$DIMSHO
 70
     1
  9
$DIMPOST
  1

  9
$DIMAPOST
  1

  9
$DIMALT
 70
     0
  9
$DIMALTD
 70
     3
  9
$DIMALTF
 40
0.03937007874016
  9
$DIMLFAC
 40
1.0
  9
$DIMTOFL
 70
     1
  9
$DIMTVP
 40
0.0
  9
$DIMTIX
 70
     0
  9
$DIMSOXD
 70
     0
  9
$DIMSAH
 70
     0
  9
$DIMBLK1
  1

  9
$DIMBLK2
  1

  9
$DIMSTYLE
  2
ISO-25
  9
$DIMCLRD
 70
     0
  9
$DIMCLRE
 70
     0
  9
$DIMCLRT
 70
     0
  9
$DIMTFAC
 40
1.0
  9
$DIMGAP
 40
0.625
  9
$LUNITS
 70
     2
  9
$LUPREC
 70
     4
  9
$SKETCHINC
 40
1.0
  9
$FILLETRAD
 40
0.0
  9
$AUNITS
 70
     0
  9
$AUPREC
 70
     0
  9
$MENU
  1
.
  9
$ELEVATION
 40
0.0
  9
$PELEVATION
 40
0.0
  9
$THICKNESS
 40
0.0
  9
$LIMCHECK
 70
     0
  9
$BLIPMODE
 70
     0
  9
$CHAMFERA
 40
0.0
  9
$CHAMFERB
 40
0.0
  9
$SKPOLY
 70
     0
  9
$TDCREATE
 40
2455019.583955972
  9
$TDUPDATE
 40
2455026.4846258219
  9
$TDINDWG
 40
0.150147037
  9
$TDUSRTIMER
 40
0.1501468634
  9
$USRTIMER
 70
     1
  9
$ANGBASE
 50
0.0
  9
$ANGDIR
 70
     0
  9
$PDMODE
 70
     0
  9
$PDSIZE
 40
0.0
  9
$PLINEWID
 40
0.0
  9
$COORDS
 70
     2
  9
$SPLFRAME
 70
     0
  9
$SPLINETYPE
 70
     6
  9
$SPLINESEGS
 70
     8
  9
$ATTDIA
 70
     0
  9
$ATTREQ
 70
     1
  9
$HANDLING
 70
     1
  9
$HANDSEED
  5
3B1
  9
$SURFTAB1
 70
     6
  9
$SURFTAB2
 70
     6
  9
$SURFTYPE
 70
     6
  9
$SURFU
 70
     6
  9
$SURFV
 70
     6
  9
$UCSNAME
  2

  9
$UCSORG
 10
0.0
 20
0.0
 30
0.0
  9
$UCSXDIR
 10
1.0
 20
0.0
 30
0.0
  9
$UCSYDIR
 10
0.0
 20
1.0
 30
0.0
  9
$PUCSNAME
  2

  9
$PUCSORG
 10
0.0
 20
0.0
 30
0.0
  9
$PUCSXDIR
 10
1.0
 20
0.0
 30
0.0
  9
$PUCSYDIR
 10
0.0
 20
1.0
 30
0.0
  9
$USERI1
 70
     0
  9
$USERI2
 70
     0
  9
$USERI3
 70
     0
  9
$USERI4
 70
     0
  9
$USERI5
 70
     0
  9
$USERR1
 40
0.0
  9
$USERR2
 40
0.0
  9
$USERR3
 40
0.0
  9
$USERR4
 40
0.0
  9
$USERR5
 40
0.0
  9
$WORLDVIEW
 70
     1
  9
$SHADEDGE
 70
     3
  9
$SHADEDIF
 70
    70
  9
$TILEMODE
 70
     1
  9
$MAXACTVP
 70
    64
  9
$PLIMCHECK
 70
     0
  9
$PEXTMIN
 10
1.0000000000000000E+020
 20
1.0000000000000000E+020
 30
1.0000000000000000E+020
  9
$PEXTMAX
 10
-1.0000000000000000E+020
 20
-1.0000000000000000E+020
 30
-1.0000000000000000E+020
  9
$PLIMMIN
 10
0.0
 20
0.0
  9
$PLIMMAX
 10
420.0
 20
297.0
  9
$UNITMODE
 70
     0
  9
$VISRETAIN
 70
     1
  9
$PLINEGEN
 70
     0
  9
$PSLTSCALE
 70
     1
  0
ENDSEC
  0
SECTION
  2
TABLES
  0
TABLE
  2
VPORT
 70
     3
  0
VPORT
  2
*ACTIVE
 70
     0
 10
0.0
 20
0.0
 11
1.0
 21
1.0
 12
344.79889563380101
 22
292.97700056325618
 13
0.0
 23
0.0
 14
10.0
 24
10.0
 15
10.0
 25
10.0
 16
0.0
 26
0.0
 36
1.0
 17
0.0
 27
0.0
 37
0.0
 40
589.40874216991415
 41
1.525474525474525
 42
50.0
 43
0.0
 44
0.0
 50
0.0
 51
0.0
 71
     0
 72
  1000
 73
     1
 74
     3
 75
     0
 76
     0
 77
     0
 78
     0
  0
ENDTAB
  0
TABLE
  2
LTYPE
 70
     1
  0
LTYPE
  2
CONTINUOUS
 70
     0
  3
Solid line
 72
    65
 73
     0
 40
0.0
  0
ENDTAB
  0
TABLE
  2
LAYER
 70
     3
  0
LAYER
  2
0
 70
     0
 62
     7
  6
CONTINUOUS
  0
ENDTAB
  0
TABLE
  2
STYLE
 70
     3
  0
STYLE
  2
STANDARD
 70
     0
 40
0.0
 41
1.0
 50
0.0
 71
     0
 42
2.5
  3
txt
  4

  0
ENDTAB
  0
TABLE
  2
VIEW
 70
     0
  0
ENDTAB
  0
TABLE
  2
UCS
 70
     0
  0
ENDTAB
  0
TABLE
  2
APPID
 70
     3
  0
APPID
  2
ACAD
 70
     0
  0
APPID
  2
ACAD_PSEXT
 70
     0
  0
APPID
  2
CONTENTBLOCKICON
 70
     0
  0
ENDTAB
  0
TABLE
  2
DIMSTYLE
 70
     2
  0
DIMSTYLE
  2
ISO-25
 70
     0
  3

  4

  5

  6

  7

 40
1.0
 41
2.5
 42
0.625
 43
3.75
 44
1.25
 45
0.0
 46
0.0
 47
0.0
 48
0.0
140
2.5
141
2.5
142
0.0
143
0.03937007874016
144
1.0
145
0.0
146
1.0
147
0.625
 71
     0
 72
     0
 73
     0
 74
     0
 75
     0
 76
     0
 77
     1
 78
     8
170
     0
171
     3
172
     1
173
     0
174
     0
175
     0
176
     0
177
     0
178
     0
  0
DIMSTYLE
  2
STANDARD
 70
     0
  3

  4

  5

  6

  7

 40
1.0
 41
0.18
 42
0.0625
 43
0.38
 44
0.18
 45
0.0
 46
0.0
 47
0.0
 48
0.0
140
0.18
141
0.09
142
0.0
143
25.399999999999999
144
1.0
145
0.0
146
1.0
147
0.09
 71
     0
 72
     0
 73
     1
 74
     1
 75
     0
 76
     0
 77
     0
 78
     0
170
     0
171
     2
172
     0
173
     0
174
     0
175
     0
176
     0
177
     0
178
     0
  0
ENDTAB
  0
ENDSEC
  0
SECTION
  2
BLOCKS
  0
BLOCK
  8
0
  2
$MODEL_SPACE
 70
     0
 10
0.0
 20
0.0
 30
0.0
  3
$MODEL_SPACE
  1

  0
ENDBLK
  5
25
  8
0
  0
BLOCK
 67
     1
  8
0
  2
$PAPER_SPACE
 70
     0
 10
0.0
 20
0.0
 30
0.0
  3
$PAPER_SPACE
  1

  0
ENDBLK
  5
21
 67
     1
  8
0
  0
BLOCK
  8
0
  2
27172_P
 70
     0
 10
0.0
 20
0.0
 30
0.0
  3
27172_P
  1

  0
ARC
  5
36F
  8
0
 10
176.00000000000179
 20
-3.999999999998181
 30
0.0
 40
4.0
 50
0.0
 51
90.0
  0
LINE
  5
370
  8
0
 10
179.99999999999821
 20
-453.45156129289438
 30
0.0
 11
180.00000000000179
 21
-3.999999999998181
 31
0.0
  0
LINE
  5
371
  8
0
 10
135.0000000000054
 20
-448.60791444979708
 30
0.0
 11
135.0000000000127
 21
-225.92324068891961
 31
0.0
  0
ARC
  5
372
  8
0
 10
-0.0000000000013642
 20
2459.9999999999991
 30
0.0
 40
3000.0
 50
268.13239689735298
 51
271.86760310264702
  0
ARC
  5
373
  8
0
 10
-0.0000000000013642
 20
2459.9999999999991
 30
0.0
 40
2955.0
 50
268.22768295943678
 51
271.7723170405111
  0
ARC
  5
374
  8
0
 10
90.000000000001819
 20
-448.60791444979708
 30
0.0
 40
45.0
 50
271.7723170405111
 51
0.0
  0
ARC
  5
375
  8
0
 10
94.999999999998181
 20
-453.45156129289438
 30
0.0
 40
85.0
 50
271.86760310264702
 51
0.0
  0
CIRCLE
  5
376
  8
0
 10
79.999999999998181
 20
-104.9906507884052
 30
0.0
 40
7.499999999998181
  0
ARC
  5
377
  8
0
 10
0.0000000000013642
 20
-3167.8894199642682
 30
0.0
 40
3000.0
 50
88.481279586898026
 51
91.518720413128023
  0
ARC
  5
378
  8
0
 10
78.000000000005457
 20
-225.92324068891779
 30
0.0
 40
57.0
 50
0.0
 51
88.481279586898026
  0
LINE
  5
379
  8
0
 10
-176.00000000000179
 20
-0.000000000001819
 30
0.0
 11
176.00000000000179
 21
0.000000000001819
 31
0.0
  0
ARC
  5
37A
  8
0
 10
-0.0000000000045475
 20
4954.8600291969633
 30
0.0
 40
5000.0
 50
270.0
 51
271.9995044256799
  0
LINE
  5
37B
  8
0
 10
-180.00000000000179
 20
-453.45156129289438
 30
0.0
 11
-180.00000000001631
 21
-3.999999999998181
 31
0.0
  0
LINE
  5
37C
  8
0
 10
-135.00000000000909
 20
-448.60791444979708
 30
0.0
 11
-135.00000000001631
 21
-225.92324068891961
 31
0.0
  0
ARC
  5
37D
  8
0
 10
-90.000000000005457
 20
-448.60791444979708
 30
0.0
 40
45.0
 50
180.0
 51
268.2276829594889
  0
ARC
  5
37E
  8
0
 10
-95.000000000001819
 20
-453.45156129289438
 30
0.0
 40
85.0
 50
180.0
 51
268.13239689735298
  0
CIRCLE
  5
37F
  8
0
 10
-80.000000000001819
 20
-104.9906507884052
 30
0.0
 40
7.499999999998181
  0
ARC
  5
380
  8
0
 10
-78.000000000009095
 20
-225.92324068891779
 30
0.0
 40
57.0
 50
91.518720413101974
 51
180.0
  0
ARC
  5
381
  8
0
 10
0.0000000000009095
 20
4954.8600291969633
 30
0.0
 40
5000.0
 50
268.00049557432021
 51
270.0
  0
ARC
  5
382
  8
0
 10
-176.00000000000179
 20
-3.999999999998181
 30
0.0
 40
4.0
 50
90.0
 51
180.0
  0
LINE
  5
383
  8
0
 10
58.499999999992731
 20
-237.25972376366099
 30
0.0
 11
58.499999999996362
 21
-286.19194227356547
 31
0.0
  0
LINE
  5
384
  8
0
 10
9.7332801345364715
 20
-248.09618458957721
 30
0.0
 11
-0.000000000003638
 21
-247.66310619896561
 31
0.0
  0
LINE
  5
385
  8
0
 10
21.514362881927809
 20
-248.77340789388751
 30
0.0
 11
9.7332801345364715
 21
-248.09618458957721
 31
0.0
  0
LINE
  5
386
  8
0
 10
31.53505825703542
 20
-250.66962870888619
 30
0.0
 11
21.514362881927809
 21
-248.77340789388751
 31
0.0
  0
LINE
  5
387
  8
0
 10
34.920425786953281
 20
-252.2949587231351
 30
0.0
 11
31.53505825703542
 21
-250.66962870888619
 31
0.0
  0
LINE
  5
388
  8
0
 10
36.680819008102837
 20
-254.73295374450839
 30
0.0
 11
34.920425786953281
 21
-252.2949587231351
 31
0.0
  0
LINE
  5
389
  8
0
 10
37.499999999996362
 20
-257.06026702835612
 30
0.0
 11
36.680819008102837
 21
-254.73295374450839
 31
0.0
  0
ARC
  5
38A
  8
0
 10
43.499999999992717
 20
-237.25972376366099
 30
0.0
 40
15.0
 50
0.0
 51
90.0
  0
ARC
  5
38B
  8
0
 10
-0.000000000003638
 20
-286.19194227356002
 30
0.0
 40
58.5
 50
270.0
 51
0.0
  0
LINE
  5
38C
  8
0
 10
-58.5
 20
-237.25972376366099
 30
0.0
 11
-58.500000000003631
 21
-286.19194227356547
 31
0.0
  0
LINE
  5
38D
  8
0
 10
-9.7332801345437474
 20
-248.09618458957721
 30
0.0
 11
-0.000000000003638
 21
-247.66310619896561
 31
0.0
  0
LINE
  5
38E
  8
0
 10
-21.514362881935082
 20
-248.77340789388751
 30
0.0
 11
-9.7332801345437474
 21
-248.09618458957721
 31
0.0
  0
LINE
  5
38F
  8
0
 10
-31.535058257042689
 20
-250.66962870888619
 30
0.0
 11
-21.514362881935082
 21
-248.77340789388751
 31
0.0
  0
LINE
  5
390
  8
0
 10
-34.92042578696055
 20
-252.2949587231351
 30
0.0
 11
-31.535058257042689
 21
-250.66962870888619
 31
0.0
  0
LINE
  5
391
  8
0
 10
-36.68081900811012
 20
-254.73295374450839
 30
0.0
 11
-34.92042578696055
 21
-252.2949587231351
 31
0.0
  0
LINE
  5
392
  8
0
 10
-37.500000000003638
 20
-257.06026702835612
 30
0.0
 11
-36.68081900811012
 21
-254.73295374450839
 31
0.0
  0
ARC
  5
393
  8
0
 10
-43.5
 20
-237.25972376366099
 30
0.0
 40
15.0
 50
90.0
 51
180.0
  0
ARC
  5
394
  8
0
 10
-0.000000000003638
 20
-286.19194227356002
 30
0.0
 40
58.5
 50
180.0
 51
270.0
  0
LINE
  5
395
  8
0
 10
-50.17802372526512
 20
-232.41762555620289
 30
0.0
 11
-38.736353952941499
 21
-249.2062818313475
 31
0.0
  0
LINE
  5
396
  8
0
 10
50.178023725257837
 20
-232.41762555620289
 30
0.0
 11
38.73635395293423
 21
-249.2062818313475
 31
0.0
  0
ENDBLK
  5
36E
  8
0
  0
BLOCK
  8
0
  2
*U3
 70
     1
 10
0.0
 20
0.0
 30
0.0
  3
*U3
  1

  0
TEXT
  5
3AD
  8
0
 62
     0
 10
12.94355050382587
 20
6.4433363259259124
 30
0.0
 40
20.0
  1
INODORO SUSPENDIDO.  SERIE EMMA SQUARE 
  0
ENDBLK
  5
3AF
  8
0
  0
ENDSEC
  0
SECTION
  2
ENTITIES
  0
INSERT
  5
6B
  8
0
  2
*U3
 10
0.0
 20
0.0
 30
0.0
  0
INSERT
  5
397
  8
0
  2
27172_P
 10
372.75437658095763
 20
585.89772269984599
 30
0.0
  0
ENDSEC
  0
EOF
