  0
SECTION
  2
HEADER
  9
$ACADVER
  1
AC1018
  9
$ACADMAINTVER
 70
     0
  9
$DWGCODEPAGE
  3
ANSI_1252
  9
$INSBASE
 10
0.0
 20
0.0
 30
0.0
  9
$EXTMIN
 10
18.38982101229925
 20
12.82039425597039
 30
0.0
  9
$EXTMAX
 10
629.7292778435934
 20
523.463771517989
 30
0.0
  9
$LIMMIN
 10
0.0
 20
0.0
  9
$LIMMAX
 10
12.0
 20
9.0
  9
$ORTHOMODE
 70
     0
  9
$REGENMODE
 70
     1
  9
$FILLMODE
 70
     1
  9
$QTEXTMODE
 70
     0
  9
$MIRRTEXT
 70
     0
  9
$LTSCALE
 40
1.0
  9
$ATTMODE
 70
     1
  9
$TEXTSIZE
 40
0.2
  9
$TRACEWID
 40
0.05
  9
$TEXTSTYLE
  7
Standard
  9
$CLAYER
  8
0
  9
$CELTYPE
  6
ByLayer
  9
$CECOLOR
 62
   256
  9
$CELTSCALE
 40
1.0
  9
$DISPSILH
 70
     0
  9
$DIMSCALE
 40
1.0
  9
$DIMASZ
 40
0.18
  9
$DIMEXO
 40
0.0625
  9
$DIMDLI
 40
0.38
  9
$DIMRND
 40
0.0
  9
$DIMDLE
 40
0.0
  9
$DIMEXE
 40
0.18
  9
$DIMTP
 40
0.0
  9
$DIMTM
 40
0.0
  9
$DIMTXT
 40
0.18
  9
$DIMCEN
 40
0.09
  9
$DIMTSZ
 40
0.0
  9
$DIMTOL
 70
     0
  9
$DIMLIM
 70
     0
  9
$DIMTIH
 70
     1
  9
$DIMTOH
 70
     1
  9
$DIMSE1
 70
     0
  9
$DIMSE2
 70
     0
  9
$DIMTAD
 70
     0
  9
$DIMZIN
 70
     0
  9
$DIMBLK
  1

  9
$DIMASO
 70
     1
  9
$DIMSHO
 70
     1
  9
$DIMPOST
  1

  9
$DIMAPOST
  1

  9
$DIMALT
 70
     0
  9
$DIMALTD
 70
     2
  9
$DIMALTF
 40
25.4
  9
$DIMLFAC
 40
1.0
  9
$DIMTOFL
 70
     0
  9
$DIMTVP
 40
0.0
  9
$DIMTIX
 70
     0
  9
$DIMSOXD
 70
     0
  9
$DIMSAH
 70
     0
  9
$DIMBLK1
  1

  9
$DIMBLK2
  1

  9
$DIMSTYLE
  2
Standard
  9
$DIMCLRD
 70
     0
  9
$DIMCLRE
 70
     0
  9
$DIMCLRT
 70
     0
  9
$DIMTFAC
 40
1.0
  9
$DIMGAP
 40
0.09
  9
$DIMJUST
 70
     0
  9
$DIMSD1
 70
     0
  9
$DIMSD2
 70
     0
  9
$DIMTOLJ
 70
     1
  9
$DIMTZIN
 70
     0
  9
$DIMALTZ
 70
     0
  9
$DIMALTTZ
 70
     0
  9
$DIMUPT
 70
     0
  9
$DIMDEC
 70
     4
  9
$DIMTDEC
 70
     4
  9
$DIMALTU
 70
     2
  9
$DIMALTTD
 70
     2
  9
$DIMTXSTY
  7
Standard
  9
$DIMAUNIT
 70
     0
  9
$DIMADEC
 70
     0
  9
$DIMALTRND
 40
0.0
  9
$DIMAZIN
 70
     0
  9
$DIMDSEP
 70
    46
  9
$DIMATFIT
 70
     3
  9
$DIMFRAC
 70
     0
  9
$DIMLDRBLK
  1

  9
$DIMLUNIT
 70
     2
  9
$DIMLWD
 70
    -2
  9
$DIMLWE
 70
    -2
  9
$DIMTMOVE
 70
     0
  9
$LUNITS
 70
     2
  9
$LUPREC
 70
     4
  9
$SKETCHINC
 40
0.1
  9
$FILLETRAD
 40
0.0
  9
$AUNITS
 70
     0
  9
$AUPREC
 70
     0
  9
$MENU
  1
.
  9
$ELEVATION
 40
0.0
  9
$PELEVATION
 40
0.0
  9
$THICKNESS
 40
0.0
  9
$LIMCHECK
 70
     0
  9
$CHAMFERA
 40
0.0
  9
$CHAMFERB
 40
0.0
  9
$CHAMFERC
 40
0.0
  9
$CHAMFERD
 40
0.0
  9
$SKPOLY
 70
     0
  9
$TDCREATE
 40
2454473.072629433
  9
$TDUCREATE
 40
2454473.030962766
  9
$TDUPDATE
 40
2454551.550717014
  9
$TDUUPDATE
 40
2454551.509050348
  9
$TDINDWG
 40
0.0021876620
  9
$TDUSRTIMER
 40
0.0021876620
  9
$USRTIMER
 70
     1
  9
$ANGBASE
 50
0.0
  9
$ANGDIR
 70
     0
  9
$PDMODE
 70
     0
  9
$PDSIZE
 40
0.0
  9
$PLINEWID
 40
0.0
  9
$SPLFRAME
 70
     0
  9
$SPLINETYPE
 70
     6
  9
$SPLINESEGS
 70
     8
  9
$HANDSEED
  5
375
  9
$SURFTAB1
 70
     6
  9
$SURFTAB2
 70
     6
  9
$SURFTYPE
 70
     6
  9
$SURFU
 70
     6
  9
$SURFV
 70
     6
  9
$UCSBASE
  2

  9
$UCSNAME
  2

  9
$UCSORG
 10
0.0
 20
0.0
 30
0.0
  9
$UCSXDIR
 10
1.0
 20
0.0
 30
0.0
  9
$UCSYDIR
 10
0.0
 20
1.0
 30
0.0
  9
$UCSORTHOREF
  2

  9
$UCSORTHOVIEW
 70
     0
  9
$UCSORGTOP
 10
0.0
 20
0.0
 30
0.0
  9
$UCSORGBOTTOM
 10
0.0
 20
0.0
 30
0.0
  9
$UCSORGLEFT
 10
0.0
 20
0.0
 30
0.0
  9
$UCSORGRIGHT
 10
0.0
 20
0.0
 30
0.0
  9
$UCSORGFRONT
 10
0.0
 20
0.0
 30
0.0
  9
$UCSORGBACK
 10
0.0
 20
0.0
 30
0.0
  9
$PUCSBASE
  2

  9
$PUCSNAME
  2

  9
$PUCSORG
 10
0.0
 20
0.0
 30
0.0
  9
$PUCSXDIR
 10
1.0
 20
0.0
 30
0.0
  9
$PUCSYDIR
 10
0.0
 20
1.0
 30
0.0
  9
$PUCSORTHOREF
  2

  9
$PUCSORTHOVIEW
 70
     0
  9
$PUCSORGTOP
 10
0.0
 20
0.0
 30
0.0
  9
$PUCSORGBOTTOM
 10
0.0
 20
0.0
 30
0.0
  9
$PUCSORGLEFT
 10
0.0
 20
0.0
 30
0.0
  9
$PUCSORGRIGHT
 10
0.0
 20
0.0
 30
0.0
  9
$PUCSORGFRONT
 10
0.0
 20
0.0
 30
0.0
  9
$PUCSORGBACK
 10
0.0
 20
0.0
 30
0.0
  9
$USERI1
 70
     0
  9
$USERI2
 70
     0
  9
$USERI3
 70
     0
  9
$USERI4
 70
     0
  9
$USERI5
 70
     0
  9
$USERR1
 40
0.0
  9
$USERR2
 40
0.0
  9
$USERR3
 40
0.0
  9
$USERR4
 40
0.0
  9
$USERR5
 40
0.0
  9
$WORLDVIEW
 70
     1
  9
$SHADEDGE
 70
     3
  9
$SHADEDIF
 70
    70
  9
$TILEMODE
 70
     1
  9
$MAXACTVP
 70
    64
  9
$PINSBASE
 10
0.0
 20
0.0
 30
0.0
  9
$PLIMCHECK
 70
     0
  9
$PEXTMIN
 10
0.0
 20
0.0
 30
0.0
  9
$PEXTMAX
 10
0.0
 20
0.0
 30
0.0
  9
$PLIMMIN
 10
0.0
 20
0.0
  9
$PLIMMAX
 10
12.0
 20
9.0
  9
$UNITMODE
 70
     0
  9
$VISRETAIN
 70
     1
  9
$PLINEGEN
 70
     0
  9
$PSLTSCALE
 70
     1
  9
$TREEDEPTH
 70
  3020
  9
$CMLSTYLE
  2
Standard
  9
$CMLJUST
 70
     0
  9
$CMLSCALE
 40
1.0
  9
$PROXYGRAPHICS
 70
     1
  9
$MEASUREMENT
 70
     0
  9
$CELWEIGHT
370
    -1
  9
$ENDCAPS
280
     0
  9
$JOINSTYLE
280
     0
  9
$LWDISPLAY
290
     0
  9
$INSUNITS
 70
     1
  9
$HYPERLINKBASE
  1

  9
$STYLESHEET
  1

  9
$XEDIT
290
     1
  9
$CEPSNTYPE
380
     0
  9
$PSTYLEMODE
290
     1
  9
$FINGERPRINTGUID
  2
{FDEAD576-A652-11D2-9A35-0060089B3A3F}
  9
$VERSIONGUID
  2
{DAFFBB3A-6C43-44F0-9CD0-23EC584E9E36}
  9
$EXTNAMES
290
     1
  9
$PSVPSCALE
 40
0.0
  9
$OLESTARTUP
290
     0
  9
$SORTENTS
280
   127
  9
$INDEXCTL
280
     0
  9
$HIDETEXT
280
     1
  9
$XCLIPFRAME
290
     0
  9
$HALOGAP
280
     0
  9
$OBSCOLOR
 70
   257
  9
$OBSLTYPE
280
     0
  9
$INTERSECTIONDISPLAY
280
     0
  9
$INTERSECTIONCOLOR
 70
   257
  9
$DIMASSOC
280
     2
  9
$PROJECTNAME
  1

  0
ENDSEC
  0
SECTION
  2
CLASSES
  0
CLASS
  1
ACDBDICTIONARYWDFLT
  2
AcDbDictionaryWithDefault
  3
ObjectDBX Classes
 90
        0
 91
        1
280
     0
281
     0
  0
CLASS
  1
DICTIONARYVAR
  2
AcDbDictionaryVar
  3
ObjectDBX Classes
 90
        0
 91
        2
280
     0
281
     0
  0
CLASS
  1
SORTENTSTABLE
  2
AcDbSortentsTable
  3
ObjectDBX Classes
 90
        0
 91
        0
280
     0
281
     0
  0
ENDSEC
  0
SECTION
  2
TABLES
  0
TABLE
  2
VPORT
  5
8
330
0
100
AcDbSymbolTable
 70
     5
  0
VPORT
  5
374
330
8
100
AcDbSymbolTableRecord
100
AcDbViewportTableRecord
  2
*Active
 70
     0
 10
0.0
 20
0.0
 11
1.0
 21
1.0
 12
461.4171137478691
 22
371.4675380219039
 13
0.0
 23
0.0
 14
0.5
 24
0.5
 15
0.5
 25
0.5
 16
0.0
 26
0.0
 36
1.0
 17
0.0
 27
0.0
 37
0.0
 40
968.1021041114895
 41
1.642184557438794
 42
50.0
 43
0.0
 44
0.0
 50
0.0
 51
0.0
 71
     0
 72
  1000
 73
     1
 74
     3
 75
     0
 76
     0
 77
     0
 78
     0
281
     0
 65
     1
110
0.0
120
0.0
130
0.0
111
1.0
121
0.0
131
0.0
112
0.0
122
1.0
132
0.0
 79
     0
146
0.0
  0
ENDTAB
  0
TABLE
  2
LTYPE
  5
5
330
0
100
AcDbSymbolTable
 70
     1
  0
LTYPE
  5
14
330
5
100
AcDbSymbolTableRecord
100
AcDbLinetypeTableRecord
  2
ByBlock
 70
     0
  3

 72
    65
 73
     0
 40
0.0
  0
LTYPE
  5
15
330
5
100
AcDbSymbolTableRecord
100
AcDbLinetypeTableRecord
  2
ByLayer
 70
     0
  3

 72
    65
 73
     0
 40
0.0
  0
LTYPE
  5
16
330
5
100
AcDbSymbolTableRecord
100
AcDbLinetypeTableRecord
  2
Continuous
 70
     0
  3
Solid line
 72
    65
 73
     0
 40
0.0
  0
ENDTAB
  0
TABLE
  2
LAYER
  5
2
102
{ACAD_XDICTIONARY
360
96
102
}
330
0
100
AcDbSymbolTable
 70
     1
  0
LAYER
  5
10
330
2
100
AcDbSymbolTableRecord
100
AcDbLayerTableRecord
  2
0
 70
     0
 62
     7
  6
Continuous
370
    -3
390
F
  0
ENDTAB
  0
TABLE
  2
STYLE
  5
3
330
0
100
AcDbSymbolTable
 70
     5
  0
STYLE
  5
11
330
3
100
AcDbSymbolTableRecord
100
AcDbTextStyleTableRecord
  2
Standard
 70
     0
 40
0.0
 41
1.0
 50
0.0
 71
     0
 42
0.2
  3
txt
  4

  0
STYLE
  5
93
330
3
100
AcDbSymbolTableRecord
100
AcDbTextStyleTableRecord
  2
ROMANS
 70
     0
 40
0.0
 41
1.0
 50
0.0
 71
     0
 42
25.0
  3
romans
  4

  0
STYLE
  5
94
330
3
100
AcDbSymbolTableRecord
100
AcDbTextStyleTableRecord
  2
SANSSERIFBOLD
 70
     0
 40
0.0
 41
1.0
 50
0.0
 71
     0
 42
87.71704489347758
  3
ARIALBD.TTF
  4

1001
ACAD
1000
Arial
1071
 33554466
  0
STYLE
  5
F7
330
3
100
AcDbSymbolTableRecord
100
AcDbTextStyleTableRecord
  2
NOMBRE
 70
     0
 40
0.0
 41
1.0
 50
0.0
 71
     0
 42
2.0
  3
stylu.ttf
  4

1001
ACAD
1000
Stylus BT
1071
       34
  0
STYLE
  5
F8
330
3
100
AcDbSymbolTableRecord
100
AcDbTextStyleTableRecord
  2
ISO
 70
     0
 40
0.0
 41
1.0
 50
0.0
 71
     0
 42
4.0
  3
ISOCP.SHX
  4

  0
ENDTAB
  0
TABLE
  2
VIEW
  5
6
330
0
100
AcDbSymbolTable
 70
     0
  0
ENDTAB
  0
TABLE
  2
UCS
  5
7
330
0
100
AcDbSymbolTable
 70
     0
  0
ENDTAB
  0
TABLE
  2
APPID
  5
9
330
0
100
AcDbSymbolTable
 70
     2
  0
APPID
  5
12
330
9
100
AcDbSymbolTableRecord
100
AcDbRegAppTableRecord
  2
ACAD
 70
     0
  0
APPID
  5
95
330
9
100
AcDbSymbolTableRecord
100
AcDbRegAppTableRecord
  2
ACAD_PSEXT
 70
     0
  0
ENDTAB
  0
TABLE
  2
DIMSTYLE
  5
A
330
0
100
AcDbSymbolTable
 70
     1
100
AcDbDimStyleTable
 71
     0
  0
DIMSTYLE
105
27
330
A
100
AcDbSymbolTableRecord
100
AcDbDimStyleTableRecord
  2
Standard
 70
     0
340
11
  0
ENDTAB
  0
TABLE
  2
BLOCK_RECORD
  5
1
330
0
100
AcDbSymbolTable
 70
     5
  0
BLOCK_RECORD
  5
1F
330
1
100
AcDbSymbolTableRecord
100
AcDbBlockTableRecord
  2
*Model_Space
340
22
  0
BLOCK_RECORD
  5
58
330
1
100
AcDbSymbolTableRecord
100
AcDbBlockTableRecord
  2
*Paper_Space
340
59
  0
BLOCK_RECORD
  5
5D
330
1
100
AcDbSymbolTableRecord
100
AcDbBlockTableRecord
  2
*Paper_Space0
340
5E
  0
BLOCK_RECORD
  5
CF
330
1
100
AcDbSymbolTableRecord
100
AcDbBlockTableRecord
  2
18172_L
340
0
310
2800000020000000200000000100080000000000000400000000000000000000000000000000000000000000000080000080000000808000800000008000800080800000C0C0C000C0DCC000F0CAA6000020400000206000002080000020A0000020C0000020E00000400000004020000040400000406000004080000040A0
310
000040C0000040E00000600000006020000060400000606000006080000060A0000060C0000060E00000800000008020000080400000806000008080000080A0000080C0000080E00000A0000000A0200000A0400000A0600000A0800000A0A00000A0C00000A0E00000C0000000C0200000C0400000C0600000C0800000C0
310
A00000C0C00000C0E00000E0000000E0200000E0400000E0600000E0800000E0A00000E0C00000E0E00040000000400020004000400040006000400080004000A0004000C0004000E00040200000402020004020400040206000402080004020A0004020C0004020E000404000004040200040404000404060004040800040
310
40A0004040C0004040E00040600000406020004060400040606000406080004060A0004060C0004060E00040800000408020004080400040806000408080004080A0004080C0004080E00040A0000040A0200040A0400040A0600040A0800040A0A00040A0C00040A0E00040C0000040C0200040C0400040C0600040C08000
310
40C0A00040C0C00040C0E00040E0000040E0200040E0400040E0600040E0800040E0A00040E0C00040E0E00080000000800020008000400080006000800080008000A0008000C0008000E00080200000802020008020400080206000802080008020A0008020C0008020E00080400000804020008040400080406000804080
310
008040A0008040C0008040E00080600000806020008060400080606000806080008060A0008060C0008060E00080800000808020008080400080806000808080008080A0008080C0008080E00080A0000080A0200080A0400080A0600080A0800080A0A00080A0C00080A0E00080C0000080C0200080C0400080C0600080C0
310
800080C0A00080C0C00080C0E00080E0000080E0200080E0400080E0600080E0800080E0A00080E0C00080E0E000C0000000C0002000C0004000C0006000C0008000C000A000C000C000C000E000C0200000C0202000C0204000C0206000C0208000C020A000C020C000C020E000C0400000C0402000C0404000C0406000C0
310
408000C040A000C040C000C040E000C0600000C0602000C0604000C0606000C0608000C060A000C060C000C060E000C0800000C0802000C0804000C0806000C0808000C080A000C080C000C080E000C0A00000C0A02000C0A04000C0A06000C0A08000C0A0A000C0A0C000C0A0E000C0C00000C0C02000C0C04000C0C06000
310
C0C08000C0C0A000F0FBFF00A4A0A000808080000000FF0000FF000000FFFF00FF000000FF00FF00FFFF0000FFFFFF0000000000000000000000000000000000000000000000000000000000000000000000000000000000000000000000000000000000000000000000000000000000000000000000000000000000000000
310
00000000000000000000000000000000000000000000000000000000000000000000000000000000000000000000000000000000000000000000000000000000000000000000000000000000000000000000FFFFFFFFFFFFFFFFFFFFFFFFFF00000000000000000000000000000000000000FF000000FF0000000000000000
310
FFFF0000000000000000000000000000000000FF000000FF000000000000000000FF0000000000000000000000000000000000FF000000FF000000000000000000FF0000000000000000000000000000000000FF000000FF000000000000000000FF0000000000000000000000000000000000FF000000FF00000000000000
310
000000FF00000000000000000000000000000000FF000000FF00000000000000000000FF00000000000000000000000000000000FF000000FF0000000000000000000000FF000000000000000000000000000000FF000000FF0000000000000000000000FF000000000000000000000000000000FF000000FF000000000000
310
000000000000FF0000000000000000000000000000FF000000FF00000000FFFFFFFFFFFFFFFF00FFFF000000000000000000000000FF0000FFFF000000FF0000000000000000000000FFFF00000000000000000000FF0000FFFFFFFFFF0000000000000000000000000000FFFF0000000000000000FF0000FF000000FF0000
310
0000000000000000000000000000FF00000000000000FF0000FF000000FF0000000000000000000000000000000000FFFF0000000000FF0000FF000000FF00000000000000000000000000000000000000FF00000000FF0000FF0000FF000000000000000000000000000000000000000000FF000000FF000000FFFFFFFFFF
310
FFFFFFFFFFFFFFFF0000000000000000000000FF000000FF00000000000000000000000000000000000000000000000000000000FF0000FFFFFFFFFFFFFFFFFFFFFFFFFFFFFFFFFFFFFFFFFFFFFFFFFFFFFFFFFF0000000000000000FFFFFFFFFFFFFFFFFFFFFFFFFFFFFFFFFFFFFFFFFFFFFFFF0000000000000000FFFFFF
310
FFFFFFFFFFFFFFFFFFFFFFFFFFFFFFFFFFFFFFFF0000000000000000000000000000000000000000000000000000000000000000000000000000000000000000000000000000000000000000000000000000000000000000000000000000000000000000000000000000000000000000000000000000000000000000000000
310
0000000000000000000000000000000000000000000000000000000000000000000000000000000000000000000000000000000000000000
102
{BLKREFS
331
370
102
}
1001
ACAD
1000
DesignCenter Data
1002
{
1070
     1
1070
     4
1002
}
  0
BLOCK_RECORD
  5
F1
330
1
100
AcDbSymbolTableRecord
100
AcDbBlockTableRecord
  2
_DOT
340
0
  0
BLOCK_RECORD
  5
142
330
1
100
AcDbSymbolTableRecord
100
AcDbBlockTableRecord
  2
18130_L
340
0
1001
ACAD
1000
DesignCenter Data
1002
{
1070
     1
1070
     4
1002
}
  0
ENDTAB
  0
ENDSEC
  0
SECTION
  2
BLOCKS
  0
BLOCK
  5
20
330
1F
100
AcDbEntity
  8
0
100
AcDbBlockBegin
  2
*Model_Space
 70
     0
 10
0.0
 20
0.0
 30
0.0
  3
*Model_Space
  1

  0
ENDBLK
  5
21
330
1F
100
AcDbEntity
  8
0
100
AcDbBlockEnd
  0
BLOCK
  5
5A
330
58
100
AcDbEntity
 67
     1
  8
0
100
AcDbBlockBegin
  2
*Paper_Space
 70
     0
 10
0.0
 20
0.0
 30
0.0
  3
*Paper_Space
  1

  0
ENDBLK
  5
5B
330
58
100
AcDbEntity
 67
     1
  8
0
100
AcDbBlockEnd
  0
BLOCK
  5
5F
330
5D
100
AcDbEntity
  8
0
100
AcDbBlockBegin
  2
*Paper_Space0
 70
     0
 10
0.0
 20
0.0
 30
0.0
  3
*Paper_Space0
  1

  0
ENDBLK
  5
60
330
5D
100
AcDbEntity
  8
0
100
AcDbBlockEnd
  0
BLOCK
  5
D0
330
CF
100
AcDbEntity
  8
0
100
AcDbBlockBegin
  2
18172_L
 70
     0
 10
0.0
 20
0.0
 30
0.0
  3
18172_L
  1

  0
LINE
  5
33A
330
CF
100
AcDbEntity
  8
0
100
AcDbLine
 10
116.3841298298866
 20
49.0
 30
0.0
 11
55.99999999999998
 21
49.0
 31
0.0
  0
LINE
  5
33B
330
CF
100
AcDbEntity
  8
0
100
AcDbLine
 10
126.0433880927776
 20
61.58819045102427
 30
0.0
 11
107.0977980083407
 21
132.2940952255121
 31
0.0
  0
ARC
  5
33C
330
CF
100
AcDbEntity
  8
0
100
AcDbCircle
 10
116.3841298298866
 20
59.0
 30
0.0
 40
10.0
100
AcDbArc
 50
270.0
 51
15.00000000000116
  0
ARC
  5
33D
330
CF
100
AcDbEntity
  8
0
100
AcDbCircle
 10
2.0
 20
183.0
 30
0.0
 40
2.0
100
AcDbArc
 50
90.0
 51
180.0
  0
ARC
  5
33E
330
CF
100
AcDbEntity
  8
0
100
AcDbCircle
 10
35.07106781186667
 20
182.0
 30
0.0
 40
5.0
100
AcDbArc
 50
224.9999999999908
 51
270.0
  0
ARC
  5
33F
330
CF
100
AcDbEntity
  8
0
100
AcDbCircle
 10
22.92893218813515
 20
180.0
 30
0.0
 40
5.0
100
AcDbArc
 50
44.99999999999078
 51
90.0
  0
LINE
  5
340
330
CF
100
AcDbEntity
  8
0
100
AcDbLine
 10
26.46446609406849
 20
183.5355339059326
 30
0.0
 11
31.53553390593334
 21
178.4644660940673
 31
0.0
  0
LINE
  5
341
330
CF
100
AcDbEntity
  8
0
100
AcDbLine
 10
2.0
 20
185.0
 30
0.0
 11
22.92893218813515
 21
185.0
 31
0.0
  0
LWPOLYLINE
  5
342
330
CF
100
AcDbEntity
  8
0
100
AcDbPolyline
 90
       16
 70
     0
 43
0.0
 10
285.0566465442644
 20
1.746347075089943
 10
275.1506090092844
 20
1.814538395175986
 10
254.9402142804502
 20
2.28906205369094
 10
237.5687161475689
 20
3.06234169507843
 10
222.6429796988559
 20
4.119982946134769
 10
209.7698700225046
 20
5.447591433661727
 10
198.5562522067302
 20
7.030772784451983
 10
188.60899133973
 20
8.855132625307305
 10
179.5349525097153
 20
10.90627658302219
 10
171.008731951144
 20
13.1949550029658
 10
162.9758504834972
 20
15.83249710478594
 10
155.4495600725022
 20
18.95537682670147
 10
148.4431126838935
 20
22.70006810693121
 10
141.9697602834094
 20
27.2030448836922
 10
136.0427548367697
 20
32.60078109520327
 10
131.6833842709275
 20
37.82234585539118
  0
ARC
  5
343
330
CF
100
AcDbEntity
  8
0
100
AcDbCircle
 10
512.0
 20
169.0
 30
0.0
 40
8.0
100
AcDbArc
 50
339.915628508413
 51
93.84845135246836
  0
ARC
  5
344
330
CF
100
AcDbEntity
  8
0
100
AcDbCircle
 10
330.0
 20
-34.18180104837666
 30
0.0
 40
40.0
100
AcDbArc
 50
98.93617290863133
 51
161.6964101224578
  0
ARC
  5
345
330
CF
100
AcDbEntity
  8
0
100
AcDbCircle
 10
57.99999999999998
 20
129.0
 30
0.0
 40
8.0
100
AcDbArc
 50
90.0
 51
180.0
  0
ARC
  5
346
330
CF
100
AcDbEntity
  8
0
100
AcDbCircle
 10
64.99999999999999
 20
32.0
 30
0.0
 40
5.0
100
AcDbArc
 50
0.0
 51
90.0
  0
ARC
  5
347
330
CF
100
AcDbEntity
  8
0
100
AcDbCircle
 10
54.99999999999999
 20
42.0
 30
0.0
 40
5.0
100
AcDbArc
 50
180.0
 51
270.0
  0
LINE
  5
348
330
CF
100
AcDbEntity
  8
0
100
AcDbLine
 10
54.99999999999999
 20
37.0
 30
0.0
 11
64.99999999999999
 21
37.0
 31
0.0
  0
LINE
  5
349
330
CF
100
AcDbEntity
  8
0
100
AcDbLine
 10
49.99999999999999
 20
129.0
 30
0.0
 11
49.99999999999999
 21
42.0
 31
0.0
  0
LINE
  5
34A
330
CF
100
AcDbEntity
  8
0
100
AcDbLine
 10
57.99999999999998
 20
137.0
 30
0.0
 11
285.0
 21
137.0
 31
0.0
  0
ARC
  5
34B
330
CF
100
AcDbEntity
  8
0
100
AcDbCircle
 10
178.2942858086571
 20
-94.77778151416169
 30
0.0
 40
85.0
100
AcDbArc
 50
271.0309427115086
 51
341.6964101224578
  0
LINE
  5
34C
330
CF
100
AcDbEntity
  8
0
100
AcDbLine
 10
0.0
 20
-183.0
 30
0.0
 11
179.8236375824672
 21
-179.7640220660996
 31
0.0
  0
LINE
  5
34D
330
CF
100
AcDbEntity
  8
0
100
AcDbLine
 10
0.0
 20
183.0
 30
0.0
 11
0.0
 21
-183.0
 31
0.0
  0
LINE
  5
34E
330
CF
100
AcDbEntity
  8
0
100
AcDbLine
 10
292.0237678990598
 20
-21.61972337724728
 30
0.0
 11
258.9937790231525
 21
-121.4721965653116
 31
0.0
  0
LINE
  5
34F
330
CF
100
AcDbEntity
  8
0
100
AcDbLine
 10
69.99999999999999
 20
32.0
 30
0.0
 11
69.99999999999999
 21
-159.3002841259094
 31
0.0
  0
LINE
  5
350
330
CF
100
AcDbEntity
  8
0
100
AcDbLine
 10
35.07106781186667
 20
177.0
 30
0.0
 11
512.0
 21
177.0
 31
0.0
  0
ARC
  5
351
330
CF
100
AcDbEntity
  8
0
100
AcDbCircle
 10
285.0
 20
252.0
 30
0.0
 40
249.6981588676256
100
AcDbArc
 50
278.9361729086313
 51
339.915628508413
  0
ARC
  5
352
330
CF
100
AcDbEntity
  8
0
100
AcDbCircle
 10
500.2029407345836
 20
202.9999999999977
 30
0.0
 40
1.0
100
AcDbArc
 50
270.0
 51
0.0
1001
ACAD
1000
ASC_BOUNDS
1002
{
1070
    19
1002
}
  0
LINE
  5
353
330
CF
100
AcDbEntity
  8
0
100
AcDbLine
 10
415.9396832574999
 20
199.9999999999979
 30
0.0
 11
415.9396832574999
 21
197.6274606680604
 31
0.0
  0
LINE
  5
354
330
CF
100
AcDbEntity
  8
0
100
AcDbLine
 10
415.9396832574994
 20
199.9999999999979
 30
0.0
 11
416.0687225088534
 21
201.9999999999978
 31
0.0
  0
LINE
  5
355
330
CF
100
AcDbEntity
  8
0
100
AcDbLine
 10
395.9396832574999
 20
199.9999999999979
 30
0.0
 11
395.8106440061459
 21
201.9999999999978
 31
0.0
  0
LINE
  5
356
330
CF
100
AcDbEntity
  8
0
100
AcDbLine
 10
395.9396832574999
 20
199.9999999999979
 30
0.0
 11
395.9396832574999
 21
197.6274606680604
 31
0.0
  0
ARC
  5
357
330
CF
100
AcDbEntity
  8
0
100
AcDbCircle
 10
405.9396832574966
 20
276.9999999999974
 30
0.0
 40
80.0
100
AcDbArc
 50
262.8192442185419
 51
277.1807557814581
  0
LINE
  5
358
330
CF
100
AcDbEntity
  8
0
100
AcDbLine
 10
395.9396832574995
 20
197.6274606680601
 30
0.0
 11
415.9396832574999
 21
197.6274606680601
 31
0.0
  0
ARC
  5
359
330
CF
100
AcDbEntity
  8
0
100
AcDbCircle
 10
405.939683257498
 20
276.9999999999383
 30
0.0
 40
79.99999999994082
100
AcDbArc
 50
262.8192442185419
 51
277.1807557814581
  0
ARC
  5
35A
330
CF
100
AcDbEntity
  8
0
100
AcDbCircle
 10
409.0306367626199
 20
-137.8816074002418
 30
0.0
 40
359.8816074002396
100
AcDbArc
 50
76.28820863090464
 51
90.0
1001
ACAD
1000
ASC_BOUNDS
1002
{
1070
    19
1002
}
  0
ARC
  5
35B
330
CF
100
AcDbEntity
  8
0
100
AcDbCircle
 10
492.2029407345836
 20
202.9999999999977
 30
0.0
 40
9.0
100
AcDbArc
 50
0.0
 51
76.28820863090464
1001
ACAD
1000
ASC_BOUNDS
1002
{
1070
    19
1002
}
  0
LINE
  5
35C
330
CF
100
AcDbEntity
  8
0
100
AcDbLine
 10
465.4058218564051
 20
196.9999999999975
 30
0.0
 11
499.0806902738123
 21
196.9999999999975
 31
0.0
1001
ACAD
1000
ASC_BOUNDS
1002
{
1070
    19
1002
}
  0
LINE
  5
35D
330
CF
100
AcDbEntity
  8
0
100
AcDbLine
 10
511.3058393275714
 20
183.0912406355389
 30
0.0
 11
511.03063676262
 21
186.0948876264922
 31
0.0
1001
ACAD
1000
ASC_BOUNDS
1002
{
1070
    19
1002
}
  0
ARC
  5
35E
330
CF
100
AcDbEntity
  8
0
100
AcDbCircle
 10
510.3100104535043
 20
182.9999999999977
 30
0.0
 40
1.0
100
AcDbArc
 50
270.0
 51
5.234983955055447
1001
ACAD
1000
ASC_BOUNDS
1002
{
1070
    19
1002
}
  0
ARC
  5
35F
330
CF
100
AcDbEntity
  8
0
100
AcDbCircle
 10
499.0806902738123
 20
184.9999999999977
 30
0.0
 40
12.0
100
AcDbArc
 50
5.234983955055447
 51
90.0
1001
ACAD
1000
ASC_BOUNDS
1002
{
1070
    19
1002
}
  0
ARC
  5
360
330
CF
100
AcDbEntity
  8
0
100
AcDbCircle
 10
83.4322639976172
 20
196.4999999999975
 30
0.0
 40
6.0
100
AcDbArc
 50
113.5564643090904
 51
178.4242238671761
1001
ACAD
1000
ASC_BOUNDS
1002
{
1070
    19
1002
}
  0
LINE
  5
361
330
CF
100
AcDbEntity
  8
0
100
AcDbLine
 10
76.40697316707342
 20
203.4999999999975
 30
0.0
 11
76.4058218564051
 21
201.9999999999977
 31
0.0
  0
ARC
  5
362
330
CF
100
AcDbEntity
  8
0
100
AcDbCircle
 10
81.05876354924935
 20
204.0125987953932
 30
0.0
 40
2.0
100
AcDbArc
 50
270.0
 51
270.1347785445022
  0
LINE
  5
363
330
CF
100
AcDbEntity
  8
0
100
AcDbLine
 10
77.43453301410413
 20
196.6649940890311
 30
0.0
 11
77.36122057758352
 21
193.9999999999975
 31
0.0
  0
LINE
  5
364
330
CF
100
AcDbEntity
  8
0
100
AcDbLine
 10
76.40697316707342
 20
203.4999999999975
 30
0.0
 11
77.17433033113415
 21
213.6778478722883
 31
0.0
1001
ACAD
1000
ASC_BOUNDS
1002
{
1070
    19
1002
}
  0
ARC
  5
365
330
CF
100
AcDbEntity
  8
0
100
AcDbCircle
 10
86.14885915538803
 20
213.0012147496702
 30
0.0
 40
9.0
100
AcDbArc
 50
90.0
 51
175.6883514775356
1001
ACAD
1000
ASC_BOUNDS
1002
{
1070
    19
1002
}
  0
ARC
  5
366
330
CF
100
AcDbEntity
  8
0
100
AcDbCircle
 10
225.4721199436845
 20
1344.379202975041
 30
0.0
 40
1150.0
100
AcDbArc
 50
263.4002265097139
 51
266.1332690721671
1001
ACAD
1000
ASC_BOUNDS
1002
{
1070
    19
1002
}
  0
LINE
  5
367
330
CF
100
AcDbEntity
  8
0
100
AcDbLine
 10
153.7061500351743
 20
177.8781306565945
 30
0.0
 11
153.2000481177453
 21
181.9999999999978
 31
0.0
1001
ACAD
1000
ASC_BOUNDS
1002
{
1070
    19
1002
}
  0
ARC
  5
368
330
CF
100
AcDbEntity
  8
0
100
AcDbCircle
 10
89.4058218564051
 20
193.9999999999977
 30
0.0
 40
12.0
100
AcDbArc
 50
242.1818607153455
 51
270.0
  0
LINE
  5
369
330
CF
100
AcDbEntity
  8
0
100
AcDbLine
 10
89.4058218564051
 20
181.9999999999977
 30
0.0
 11
510.3100104535043
 21
181.9999999999977
 31
0.0
  0
ARC
  5
36A
330
CF
100
AcDbEntity
  8
0
100
AcDbCircle
 10
89.51769932635919
 20
194.118457745852
 30
0.0
 40
12.15705588565699
100
AcDbArc
 50
180.558296051007
 51
241.9760550992299
  0
LINE
  5
36B
330
CF
100
AcDbEntity
  8
0
100
AcDbLine
 10
76.4058218564051
 20
201.9999999999978
 30
0.0
 11
500.2029407345836
 21
201.9999999999977
 31
0.0
  0
LINE
  5
36C
330
CF
100
AcDbEntity
  8
0
100
AcDbLine
 10
149.3413483710647
 20
196.9999999999977
 30
0.0
 11
499.0806902738123
 21
196.9999999999977
 31
0.0
  0
LINE
  5
36D
330
CF
100
AcDbEntity
  8
0
100
AcDbLine
 10
147.8772452395333
 20
196.9999999999975
 30
0.0
 11
465.4058218564051
 21
196.9999999999977
 31
0.0
1001
ACAD
1000
ASC_BOUNDS
1002
{
1070
    19
1002
}
  0
LINE
  5
36E
330
CF
100
AcDbEntity
  8
0
100
AcDbLine
 10
459.6000899951606
 20
182.0012147496704
 30
0.0
 11
459.3378573477762
 21
177.9368289967497
 31
0.0
  0
LINE
  5
36F
330
CF
100
AcDbEntity
  8
0
100
AcDbLine
 10
409.1785016282611
 20
222.0012147496704
 30
0.0
 11
86.14885915538803
 21
222.0012147496702
 31
0.0
  0
ENDBLK
  5
D1
330
CF
100
AcDbEntity
  8
0
100
AcDbBlockEnd
  0
BLOCK
  5
F2
330
F1
100
AcDbEntity
  8
0
100
AcDbBlockBegin
  2
_DOT
 70
     0
 10
0.0
 20
0.0
 30
0.0
  3
_DOT
  1

  0
LWPOLYLINE
  5
F3
330
F1
100
AcDbEntity
  8
0
  6
ByBlock
 62
     0
100
AcDbPolyline
 90
        2
 70
     1
 43
0.5
 10
-0.25
 20
0.0
 42
1.0
 10
0.25
 20
0.0
 42
1.0
  0
LINE
  5
F4
330
F1
100
AcDbEntity
  8
0
  6
ByBlock
 62
     0
100
AcDbLine
 10
-0.5
 20
0.0
 30
0.0
 11
-1.0
 21
0.0
 31
0.0
  0
ENDBLK
  5
F5
330
F1
100
AcDbEntity
  8
0
100
AcDbBlockEnd
  0
BLOCK
  5
143
330
142
100
AcDbEntity
  8
0
100
AcDbBlockBegin
  2
18130_L
 70
     0
 10
0.0
 20
0.0
 30
0.0
  3
18130_L
  1

  0
ARC
  5
144
330
142
100
AcDbEntity
  8
0
100
AcDbCircle
 10
186.232993054673
 20
35.00000000000023
 30
0.0
 40
5.0
100
AcDbArc
 50
270.0
 51
0.0
  0
LINE
  5
145
330
142
100
AcDbEntity
  8
0
100
AcDbLine
 10
104.4294789172454
 20
30.00000000000023
 30
0.0
 11
186.232993054673
 21
30.00000000000023
 31
0.0
  0
LINE
  5
146
330
142
100
AcDbEntity
  8
0
100
AcDbLine
 10
191.232993054673
 20
35.00000000000023
 30
0.0
 11
191.232993054673
 21
194.2398327229896
 31
0.0
  0
ARC
  5
147
330
142
100
AcDbEntity
  8
0
100
AcDbCircle
 10
160.9160025374658
 20
333.7797716753121
 30
0.0
 40
5.0
100
AcDbArc
 50
0.0
 51
89.1778865405867
  0
LINE
  5
148
330
142
100
AcDbEntity
  8
0
100
AcDbLine
 10
245.9160025374659
 20
317.5585138526076
 30
0.0
 11
170.8442620657406
 21
318.6357611585263
 31
0.0
  0
LINE
  5
149
330
142
100
AcDbEntity
  8
0
100
AcDbLine
 10
165.9160025374658
 20
323.6352464625089
 30
0.0
 11
165.9160025374658
 21
333.7797716753121
 31
0.0
  0
ARC
  5
14A
330
142
100
AcDbEntity
  8
0
100
AcDbCircle
 10
170.9160025374658
 20
323.6352464625089
 30
0.0
 40
5.0
100
AcDbArc
 50
180.0
 51
269.1778865405867
  0
LINE
  5
14B
330
142
100
AcDbEntity
  8
0
100
AcDbLine
 10
120.9160025374658
 20
226.0774468059826
 30
0.0
 11
120.9160025374658
 21
303.0
 31
0.0
  0
LINE
  5
14C
330
142
100
AcDbEntity
  8
0
100
AcDbLine
 10
0.0
 20
0.0
 30
0.0
 11
410.9160025374658
 21
0.0
 31
0.0
  0
LINE
  5
14D
330
142
100
AcDbEntity
  8
0
100
AcDbLine
 10
410.9160025374658
 20
0.0
 30
0.0
 11
404.5263820923391
 21
171.6069490976952
 31
0.0
  0
LINE
  5
14E
330
142
100
AcDbEntity
  8
0
100
AcDbLine
 10
83.91600253746583
 20
380.0000000000001
 30
0.0
 11
536.7529168237852
 21
380.0000000000001
 31
0.0
  0
ARC
  5
14F
330
142
100
AcDbEntity
  8
0
100
AcDbCircle
 10
429.5090704165414
 20
172.5371555778547
 30
0.0
 40
25.0
100
AcDbArc
 50
117.4061287676973
 51
182.1323684365528
  0
ARC
  5
150
330
142
100
AcDbEntity
  8
0
100
AcDbCircle
 10
536.7529168237852
 20
372.0000000000001
 30
0.0
 40
8.0
100
AcDbArc
 50
351.1244024997448
 51
90.0
  0
LINE
  5
151
330
142
100
AcDbEntity
  8
0
100
AcDbLine
 10
75.91600253746583
 20
300.0
 30
0.0
 11
75.91600253746583
 21
372.0000000000001
 31
0.0
  0
ARC
  5
152
330
142
100
AcDbEntity
  8
0
100
AcDbCircle
 10
83.91600253746583
 20
372.0000000000001
 30
0.0
 40
8.0
100
AcDbArc
 50
88.75345692163993
 51
180.0
  0
LINE
  5
153
330
142
100
AcDbEntity
  8
0
100
AcDbLine
 10
77.91600253746583
 20
298.0
 30
0.0
 11
107.8333387502717
 21
298.0
 31
0.0
  0
ARC
  5
154
330
142
100
AcDbEntity
  8
0
100
AcDbCircle
 10
77.91600253746583
 20
300.0
 30
0.0
 40
2.0
100
AcDbArc
 50
180.0
 51
270.0
  0
LINE
  5
155
330
142
100
AcDbEntity
  8
0
100
AcDbLine
 10
2.097713651146477
 20
60.07065942930058
 30
0.0
 11
0.0
 21
0.0
 31
0.0
  0
ARC
  5
156
330
142
100
AcDbEntity
  8
0
100
AcDbCircle
 10
20.08674853749107
 20
59.44246848865441
 30
0.0
 40
18.0
100
AcDbArc
 50
119.9999999999997
 51
177.9999999999963
  0
LINE
  5
157
330
142
100
AcDbEntity
  8
0
100
AcDbLine
 10
11.08674853749107
 20
75.03092575677874
 30
0.0
 11
39.84964990448498
 21
91.63719460368884
 31
0.0
  0
LINE
  5
158
330
142
100
AcDbEntity
  8
0
100
AcDbLine
 10
116.4935927881161
 20
303.0
 30
0.0
 11
137.9470485128113
 21
303.0
 31
0.0
  0
ARC
  5
159
330
142
100
AcDbEntity
  8
0
100
AcDbCircle
 10
107.8333387502717
 20
303.0
 30
0.0
 40
5.0
100
AcDbArc
 50
270.0
 51
329.9999999999645
  0
ARC
  5
15A
330
142
100
AcDbEntity
  8
0
100
AcDbCircle
 10
116.4935927881161
 20
298.0
 30
0.0
 40
5.0
100
AcDbArc
 50
90.0
 51
149.9999999999645
  0
ARC
  5
15B
330
142
100
AcDbEntity
  8
0
100
AcDbCircle
 10
37.34964990448498
 20
95.96732162260741
 30
0.0
 40
5.0
100
AcDbArc
 50
299.9999999999997
 51
355.1232286749059
  0
ARC
  5
15C
330
142
100
AcDbEntity
  8
0
100
AcDbCircle
 10
307.5309618641695
 20
407.7951863312918
 30
0.0
 40
240.0
100
AcDbArc
 50
297.4061287676973
 51
351.1244024997448
  0
ARC
  5
15D
330
142
100
AcDbEntity
  8
0
100
AcDbCircle
 10
351.0688383212546
 20
326.3567048305268
 30
0.0
 40
210.0
100
AcDbArc
 50
187.5789172561438
 51
201.6669927810527
  0
ARC
  5
15E
330
142
100
AcDbEntity
  8
0
100
AcDbCircle
 10
137.9470485128113
 20
298.0
 30
0.0
 40
5.0
100
AcDbArc
 50
7.578917256143827
 51
90.0
  0
ARC
  5
15F
330
142
100
AcDbEntity
  8
0
100
AcDbCircle
 10
151.259572424573
 20
246.976245888618
 30
0.0
 40
5.0
100
AcDbArc
 50
290.8203885554409
 51
21.66699278105273
  0
ARC
  5
160
330
142
100
AcDbEntity
  8
0
100
AcDbCircle
 10
214.4294183573038
 20
80.85854651431146
 30
0.0
 40
172.7231540362062
100
AcDbArc
 50
110.8203885554409
 51
175.1232286749059
  0
ARC
  5
161
330
142
100
AcDbEntity
  8
0
100
AcDbCircle
 10
299.8598350716747
 20
415.2872383461944
 30
0.0
 40
250.0
100
AcDbArc
 50
254.448662254712
 51
290.2990917357014
  0
ARC
  5
162
330
142
100
AcDbEntity
  8
0
100
AcDbCircle
 10
526.1189432720491
 20
405.9999999999976
 30
0.0
 40
1.0
100
AcDbArc
 50
270.0
 51
0.0
1001
ACAD
1000
ASC_BOUNDS
1002
{
1070
    19
1002
}
  0
LINE
  5
163
330
142
100
AcDbEntity
  8
0
100
AcDbLine
 10
441.8556857949654
 20
402.9999999999978
 30
0.0
 11
441.8556857949654
 21
400.6274606680603
 31
0.0
  0
LINE
  5
164
330
142
100
AcDbEntity
  8
0
100
AcDbLine
 10
441.8556857949649
 20
402.9999999999978
 30
0.0
 11
442.4957571540874
 21
412.9205683914935
 31
0.0
  0
ARC
  5
165
330
142
100
AcDbEntity
  8
0
100
AcDbCircle
 10
443.493682238861
 20
412.8561826385702
 30
0.0
 40
1.0
100
AcDbArc
 50
99.69992962541056
 51
176.3084145010453
  0
LINE
  5
166
330
142
100
AcDbEntity
  8
0
100
AcDbLine
 10
421.8556857949654
 20
402.9999999999978
 30
0.0
 11
421.215614435843
 21
412.9205683914935
 31
0.0
  0
ARC
  5
167
330
142
100
AcDbEntity
  8
0
100
AcDbCircle
 10
420.2176893510693
 20
412.8561826385702
 30
0.0
 40
1.0
100
AcDbArc
 50
3.691585498954691
 51
80.30007037458943
  0
LINE
  5
168
330
142
100
AcDbEntity
  8
0
100
AcDbLine
 10
421.8556857949654
 20
402.9999999999978
 30
0.0
 11
421.8556857949654
 21
400.6274606680603
 31
0.0
  0
ARC
  5
169
330
142
100
AcDbEntity
  8
0
100
AcDbCircle
 10
431.8556857949622
 20
479.9999999999974
 30
0.0
 40
80.0
100
AcDbArc
 50
262.8192442185417
 51
277.1807557814583
  0
LINE
  5
16A
330
142
100
AcDbEntity
  8
0
100
AcDbLine
 10
421.8556857949649
 20
400.6274606680601
 30
0.0
 11
441.8556857949654
 21
400.6274606680601
 31
0.0
  0
ARC
  5
16B
330
142
100
AcDbEntity
  8
0
100
AcDbCircle
 10
431.8556857949636
 20
479.9999999999383
 30
0.0
 40
79.99999999994082
100
AcDbArc
 50
262.8192442185417
 51
277.1807557814583
  0
ARC
  5
16C
330
142
100
AcDbEntity
  8
0
100
AcDbCircle
 10
434.9466393000855
 20
65.11839259975812
 30
0.0
 40
359.8816074002396
100
AcDbArc
 50
76.28820863090424
 51
90.0
1001
ACAD
1000
ASC_BOUNDS
1002
{
1070
    19
1002
}
  0
ARC
  5
16D
330
142
100
AcDbEntity
  8
0
100
AcDbCircle
 10
518.1189432720491
 20
405.9999999999976
 30
0.0
 40
9.0
100
AcDbArc
 50
0.0
 51
76.28820863090424
1001
ACAD
1000
ASC_BOUNDS
1002
{
1070
    19
1002
}
  0
LINE
  5
16E
330
142
100
AcDbEntity
  8
0
100
AcDbLine
 10
491.3218243938707
 20
399.9999999999975
 30
0.0
 11
524.9966928112778
 21
399.9999999999975
 31
0.0
1001
ACAD
1000
ASC_BOUNDS
1002
{
1070
    19
1002
}
  0
LINE
  5
16F
330
142
100
AcDbEntity
  8
0
100
AcDbLine
 10
441.9847250463187
 20
404.9999999999976
 30
0.0
 11
526.1189432720491
 21
404.9999999999976
 31
0.0
1001
ACAD
1000
ASC_BOUNDS
1002
{
1070
    19
1002
}
  0
LINE
  5
170
330
142
100
AcDbEntity
  8
0
100
AcDbLine
 10
537.221841865037
 20
386.0912406355389
 30
0.0
 11
536.9466393000855
 21
389.0948876264922
 31
0.0
1001
ACAD
1000
ASC_BOUNDS
1002
{
1070
    19
1002
}
  0
ARC
  5
171
330
142
100
AcDbEntity
  8
0
100
AcDbCircle
 10
536.2260129909698
 20
385.9999999999977
 30
0.0
 40
1.0
100
AcDbArc
 50
270.0
 51
5.234983955055374
1001
ACAD
1000
ASC_BOUNDS
1002
{
1070
    19
1002
}
  0
LINE
  5
172
330
142
100
AcDbEntity
  8
0
100
AcDbLine
 10
485.1059950196006
 20
380.9356142470769
 30
0.0
 11
485.3973066797277
 21
385.4507002704604
 31
0.0
1001
ACAD
1000
ASC_BOUNDS
1002
{
1070
    19
1005
0
1005
0
1002
}
  0
ARC
  5
173
330
142
100
AcDbEntity
  8
0
100
AcDbCircle
 10
484.1080699348269
 20
381.0
 30
0.0
 40
1.0
100
AcDbArc
 50
270.0
 51
356.3084145010584
1001
ACAD
1000
ASC_BOUNDS
1002
{
1070
    19
1005
0
1005
0
1002
}
  0
LINE
  5
174
330
142
100
AcDbEntity
  8
0
100
AcDbLine
 10
485.3682276669849
 20
384.9999999999977
 30
0.0
 11
536.2260129909698
 21
384.9999999999977
 31
0.0
1001
ACAD
1000
ASC_BOUNDS
1002
{
1070
    19
1002
}
  0
ARC
  5
175
330
142
100
AcDbEntity
  8
0
100
AcDbCircle
 10
524.9966928112778
 20
387.9999999999977
 30
0.0
 40
12.0
100
AcDbArc
 50
5.234983955055374
 51
90.0
1001
ACAD
1000
ASC_BOUNDS
1002
{
1070
    19
1002
}
  0
ARC
  5
176
330
142
100
AcDbEntity
  8
0
100
AcDbCircle
 10
132.7321642083205
 20
697.5204928919701
 30
0.0
 40
292.5207806986128
100
AcDbArc
 50
267.8554643813525
 51
269.9196270870494
  0
ARC
  5
177
330
142
100
AcDbEntity
  8
0
100
AcDbCircle
 10
112.3218243938707
 20
361.0020223379981
 30
0.0
 40
44.5
100
AcDbArc
 50
83.31433879264926
 51
90.0
1001
ACAD
1000
ASC_BOUNDS
1002
{
1070
    19
1002
}
  0
LINE
  5
178
330
142
100
AcDbEntity
  8
0
100
AcDbLine
 10
121.4571325863351
 20
399.2172539367047
 30
0.0
 11
121.3082868299905
 21
396.5065500185355
 31
0.0
  0
ARC
  5
179
330
142
100
AcDbEntity
  8
0
100
AcDbCircle
 10
109.3482665350828
 20
399.4999999999974
 30
0.0
 40
6.0
100
AcDbArc
 50
90.0
 51
178.4242238671761
1001
ACAD
1000
ASC_BOUNDS
1002
{
1070
    19
1002
}
  0
LINE
  5
17A
330
142
100
AcDbEntity
  8
0
100
AcDbLine
 10
102.322975704539
 20
406.4999999999974
 30
0.0
 11
102.3218243938707
 21
404.9999999999976
 31
0.0
  0
ARC
  5
17B
330
142
100
AcDbEntity
  8
0
100
AcDbCircle
 10
106.9747660867149
 20
407.0125987953931
 30
0.0
 40
2.0
100
AcDbArc
 50
270.0
 51
270.1347785445022
  0
LINE
  5
17C
330
142
100
AcDbEntity
  8
0
100
AcDbLine
 10
102.3218243938707
 20
404.9999999999976
 30
0.0
 11
103.3830974566852
 21
395.9515913285158
 31
0.0
  0
LINE
  5
17D
330
142
100
AcDbEntity
  8
0
100
AcDbLine
 10
103.3505355515697
 20
399.6649940890311
 30
0.0
 11
103.2772231150491
 21
396.9999999999974
 31
0.0
  0
ARC
  5
17E
330
142
100
AcDbEntity
  8
0
100
AcDbCircle
 10
132.7321642083205
 20
697.5204928919701
 30
0.0
 40
292.5207806986128
100
AcDbArc
 50
264.0342458986717
 51
264.7297460690354
1001
ACAD
1000
ASC_BOUNDS
1002
{
1070
    19
1002
}
  0
LINE
  5
17F
330
142
100
AcDbEntity
  8
0
100
AcDbLine
 10
102.322975704539
 20
406.4999999999974
 30
0.0
 11
103.0903328685997
 21
416.6778478722882
 31
0.0
1001
ACAD
1000
ASC_BOUNDS
1002
{
1070
    19
1002
}
  0
LINE
  5
180
330
142
100
AcDbEntity
  8
0
100
AcDbLine
 10
103.6921276967803
 20
401.5020223379982
 30
0.0
 11
112.3218243938707
 21
401.502022337998
 31
0.0
1001
ACAD
1000
ASC_BOUNDS
1002
{
1070
    19
1002
}
  0
LINE
  5
181
330
142
100
AcDbEntity
  8
0
100
AcDbLine
 10
109.3482665350828
 20
405.4999999999974
 30
0.0
 11
112.3218243938707
 21
405.4999999999974
 31
0.0
1001
ACAD
1000
ASC_BOUNDS
1002
{
1070
    19
1002
}
  0
ARC
  5
182
330
142
100
AcDbEntity
  8
0
100
AcDbCircle
 10
112.0648616928536
 20
416.0012147496702
 30
0.0
 40
9.0
100
AcDbArc
 50
90.0
 51
175.6883514775356
1001
ACAD
1000
ASC_BOUNDS
1002
{
1070
    19
1002
}
  0
ARC
  5
183
330
142
100
AcDbEntity
  8
0
100
AcDbCircle
 10
122.4556284125708
 20
399.1624261609867
 30
0.0
 40
1.0
100
AcDbArc
 50
74.93936450491455
 51
176.8570238324249
  0
ARC
  5
184
330
142
100
AcDbEntity
  8
0
100
AcDbCircle
 10
112.3218243938707
 20
361.5020223379981
 30
0.0
 40
40.0
100
AcDbArc
 50
66.82093297998858
 51
90.0
1001
ACAD
1000
ASC_BOUNDS
1002
{
1070
    19
1002
}
  0
ARC
  5
185
330
142
100
AcDbEntity
  8
0
100
AcDbCircle
 10
132.7321642083205
 20
697.5204928919701
 30
0.0
 40
292.5207806986128
100
AcDbArc
 50
264.7297460690354
 51
267.8554643813525
  0
ARC
  5
186
330
142
100
AcDbEntity
  8
0
100
AcDbCircle
 10
251.3881224811501
 20
1547.379202975041
 30
0.0
 40
1150.0
100
AcDbArc
 50
263.3143387926493
 51
266.133269072167
1001
ACAD
1000
ASC_BOUNDS
1002
{
1070
    19
1002
}
  0
LINE
  5
187
330
142
100
AcDbEntity
  8
0
100
AcDbLine
 10
179.6221525726398
 20
380.8781306565945
 30
0.0
 11
179.1016302689466
 21
385.117444621359
 31
0.0
1001
ACAD
1000
ASC_BOUNDS
1002
{
1070
    19
1002
}
  0
ARC
  5
188
330
142
100
AcDbEntity
  8
0
100
AcDbCircle
 10
180.6146987242812
 20
380.9999999999997
 30
0.0
 40
1.0
100
AcDbArc
 50
187.000000000006
 51
270.0
1001
ACAD
1000
ASC_BOUNDS
1002
{
1070
    19
1002
}
  0
ARC
  5
189
330
142
100
AcDbEntity
  8
0
100
AcDbCircle
 10
251.3881224811501
 20
1547.379202975041
 30
0.0
 40
1158.0
100
AcDbArc
 50
264.6327357776938
 51
266.0546353379999
1001
ACAD
1000
ASC_BOUNDS
1002
{
1070
    19
1002
}
  0
ARC
  5
18A
330
142
100
AcDbEntity
  8
0
 48
0.75
100
AcDbCircle
 10
115.3218243938707
 20
396.9999999999977
 30
0.0
 40
12.0
100
AcDbArc
 50
242.181860715344
 51
270.0
  0
ARC
  5
18B
330
142
100
AcDbEntity
  8
0
100
AcDbCircle
 10
171.1612610558161
 20
384.1424898741179
 30
0.0
 40
8.0
100
AcDbArc
 50
6.999999999992874
 51
86.05463533799991
1001
ACAD
1000
ASC_BOUNDS
1002
{
1070
    19
1002
}
  0
LINE
  5
18C
330
142
100
AcDbEntity
  8
0
100
AcDbLine
 10
115.3218243938707
 20
384.9999999999977
 30
0.0
 11
179.1160506552108
 21
384.9999999999977
 31
0.0
  0
ARC
  5
18D
330
142
100
AcDbEntity
  8
0
100
AcDbCircle
 10
147.7463713905388
 20
444.2371507302404
 30
0.0
 40
50.0
100
AcDbArc
 50
246.8209329799886
 51
264.6327357776938
1001
ACAD
1000
ASC_BOUNDS
1002
{
1070
    19
1002
}
  0
ARC
  5
18E
330
142
100
AcDbEntity
  8
0
100
AcDbCircle
 10
115.3218243938707
 20
396.9999999999977
 30
0.0
 40
12.0
100
AcDbArc
 50
180.0
 51
242.181860715344
  0
ARC
  5
18F
330
142
100
AcDbEntity
  8
0
100
AcDbCircle
 10
112.3218243938707
 20
396.9999999999974
 30
0.0
 40
9.0
100
AcDbArc
 50
185.692397280442
 51
356.8570238324249
  0
LINE
  5
190
330
142
100
AcDbEntity
  8
0
100
AcDbLine
 10
132.3218243940125
 20
404.9999999999976
 30
0.0
 11
421.7266465436112
 21
404.9999999999976
 31
0.0
  0
LINE
  5
191
330
142
100
AcDbEntity
  8
0
100
AcDbLine
 10
111.9169968272124
 20
424.9999999999974
 30
0.0
 11
434.9466393000855
 21
424.9999999999976
 31
0.0
1001
ACAD
1000
ASC_BOUNDS
1002
{
1070
    19
1005
0
1005
0
1002
}
  0
LINE
  5
192
330
142
100
AcDbEntity
  8
0
100
AcDbLine
 10
180.6146987242812
 20
379.9999999999999
 30
0.0
 11
484.1080699348269
 21
379.9999999999999
 31
0.0
1001
ACAD
1000
ASC_BOUNDS
1002
{
1070
    19
1002
}
  0
LINE
  5
193
330
142
100
AcDbEntity
  8
0
100
AcDbLine
 10
175.2573509085303
 20
399.9999999999977
 30
0.0
 11
524.9966928112778
 21
399.9999999999977
 31
0.0
  0
LINE
  5
194
330
142
100
AcDbEntity
  8
0
100
AcDbLine
 10
173.7932477769989
 20
399.9999999999975
 30
0.0
 11
491.3218243938707
 21
399.9999999999977
 31
0.0
1001
ACAD
1000
ASC_BOUNDS
1002
{
1070
    19
1002
}
  0
ENDBLK
  5
195
330
142
100
AcDbEntity
  8
0
100
AcDbBlockEnd
  0
ENDSEC
  0
SECTION
  2
ENTITIES
  0
MTEXT
  5
B8
330
1F
100
AcDbEntity
  8
0
100
AcDbMText
 10
19.12522115649536
 20
39.20828178300716
 30
0.0
 40
20.0
 41
0.0000000000009095
 71
     1
 72
     5
  1
{\fTimes New Roman|b0|i0|c0|p18;\C0;INODORO SUSPENDIDO. SERIE ELIA }
 73
     1
 44
1.0
  0
INSERT
  5
370
330
1F
100
AcDbEntity
  8
0
100
AcDbBlockReference
  2
18172_L
 10
84.45367510705837
 20
289.695252514114
 30
0.0
  0
ENDSEC
  0
SECTION
  2
OBJECTS
  0
DICTIONARY
  5
C
330
0
100
AcDbDictionary
281
     1
  3
ACAD_COLOR
350
73
  3
ACAD_GROUP
350
D
  3
ACAD_LAYOUT
350
1A
  3
ACAD_MATERIAL
350
72
  3
ACAD_MLINESTYLE
350
17
  3
ACAD_PLOTSETTINGS
350
19
  3
ACAD_PLOTSTYLENAME
350
E
  3
AcDbVariableDictionary
350
66
  0
DICTIONARY
  5
96
330
2
100
AcDbDictionary
280
     1
281
     1
  3
ACAD_LAYERFILTERS
360
11D
  3
ACAD_LAYERSTATES
360
97
  0
DICTIONARY
  5
73
102
{ACAD_REACTORS
330
C
102
}
330
C
100
AcDbDictionary
281
     1
  0
DICTIONARY
  5
D
102
{ACAD_REACTORS
330
C
102
}
330
C
100
AcDbDictionary
281
     1
  0
DICTIONARY
  5
1A
102
{ACAD_REACTORS
330
C
102
}
330
C
100
AcDbDictionary
281
     1
  3
Model
350
22
  3
Presentación1
350
59
  3
Presentación2
350
5E
  0
DICTIONARY
  5
72
102
{ACAD_REACTORS
330
C
102
}
330
C
100
AcDbDictionary
281
     1
  0
DICTIONARY
  5
17
102
{ACAD_REACTORS
330
C
102
}
330
C
100
AcDbDictionary
281
     1
  3
Standard
350
18
  0
DICTIONARY
  5
19
102
{ACAD_REACTORS
330
C
102
}
330
C
100
AcDbDictionary
281
     1
  0
ACDBDICTIONARYWDFLT
  5
E
102
{ACAD_REACTORS
330
C
102
}
330
C
100
AcDbDictionary
281
     1
  3
Normal
350
F
100
AcDbDictionaryWithDefault
340
F
  0
DICTIONARY
  5
66
102
{ACAD_REACTORS
330
C
102
}
330
C
100
AcDbDictionary
281
     1
  3
DIMASSOC
350
67
  3
HIDETEXT
350
6B
  0
DICTIONARY
  5
11D
102
{ACAD_REACTORS
330
96
102
}
330
96
100
AcDbDictionary
281
     1
  0
DICTIONARY
  5
97
102
{ACAD_REACTORS
330
96
102
}
330
96
100
AcDbDictionary
281
     1
  0
LAYOUT
  5
22
102
{ACAD_REACTORS
330
1A
102
}
330
1A
100
AcDbPlotSettings
  1

  2
none_device
  4
ANSI_A_(8.50_x_11.00_Inches)
  6

 40
6.349999904632567
 41
19.04999923706055
 42
6.350006103515625
 43
19.04998779296875
 44
215.8999938964844
 45
279.3999938964844
 46
0.0
 47
0.0
 48
0.0
 49
0.0
140
0.0
141
0.0
142
1.0
143
2.584895464708373
 70
 11952
 72
     0
 73
     1
 74
     0
  7

 75
     0
147
0.3868628397755418
 76
     0
 77
     2
 78
   300
148
0.0
149
0.0
100
AcDbLayout
  1
Model
 70
     1
 71
     0
 10
0.0
 20
0.0
 11
12.0
 21
9.0
 12
0.0
 22
0.0
 32
0.0
 14
0.0
 24
0.0
 34
0.0
 15
0.0
 25
0.0
 35
0.0
146
0.0
 13
0.0
 23
0.0
 33
0.0
 16
1.0
 26
0.0
 36
0.0
 17
0.0
 27
1.0
 37
0.0
 76
     0
330
1F
  0
LAYOUT
  5
59
102
{ACAD_REACTORS
330
1A
102
}
330
1A
100
AcDbPlotSettings
  1

  2
None
  4

  6

 40
0.0
 41
0.0
 42
0.0
 43
0.0
 44
0.0
 45
0.0
 46
0.0
 47
0.0
 48
0.0
 49
0.0
140
0.0
141
0.0
142
1.0
143
1.0
 70
   688
 72
     0
 73
     0
 74
     5
  7

 75
    16
147
1.0
 76
     0
 77
     2
 78
   300
148
0.0
149
0.0
100
AcDbLayout
  1
Presentación1
 70
     1
 71
     1
 10
0.0
 20
0.0
 11
12.0
 21
9.0
 12
0.0
 22
0.0
 32
0.0
 14
0.0
 24
0.0
 34
0.0
 15
0.0
 25
0.0
 35
0.0
146
0.0
 13
0.0
 23
0.0
 33
0.0
 16
1.0
 26
0.0
 36
0.0
 17
0.0
 27
1.0
 37
0.0
 76
     0
330
58
  0
LAYOUT
  5
5E
102
{ACAD_REACTORS
330
1A
102
}
330
1A
100
AcDbPlotSettings
  1

  2
None
  4

  6

 40
0.0
 41
0.0
 42
0.0
 43
0.0
 44
0.0
 45
0.0
 46
0.0
 47
0.0
 48
0.0
 49
0.0
140
0.0
141
0.0
142
1.0
143
1.0
 70
   688
 72
     0
 73
     0
 74
     5
  7

 75
    16
147
1.0
 76
     0
 77
     2
 78
   300
148
0.0
149
0.0
100
AcDbLayout
  1
Presentación2
 70
     1
 71
     2
 10
0.0
 20
0.0
 11
12.0
 21
9.0
 12
0.0
 22
0.0
 32
0.0
 14
0.0
 24
0.0
 34
0.0
 15
0.0
 25
0.0
 35
0.0
146
0.0
 13
0.0
 23
0.0
 33
0.0
 16
1.0
 26
0.0
 36
0.0
 17
0.0
 27
1.0
 37
0.0
 76
     0
330
5D
  0
MLINESTYLE
  5
18
102
{ACAD_REACTORS
330
17
102
}
330
17
100
AcDbMlineStyle
  2
STANDARD
 70
     0
  3

 62
   256
 51
90.0
 52
90.0
 71
     2
 49
0.5
 62
   256
  6
BYLAYER
 49
-0.5
 62
   256
  6
BYLAYER
  0
ACDBPLACEHOLDER
  5
F
102
{ACAD_REACTORS
330
E
102
}
330
E
  0
DICTIONARYVAR
  5
67
102
{ACAD_REACTORS
330
66
102
}
330
66
100
DictionaryVariables
280
     0
  1
2
  0
DICTIONARYVAR
  5
6B
102
{ACAD_REACTORS
330
66
102
}
330
66
100
DictionaryVariables
280
     0
  1
1
  0
ENDSEC
  0
EOF
